  0
SECTION
  2
HEADER
  9
$ACADVER
  1
AC1015
  9
$ACADMAINTVER
 70
     6
  9
$DWGCODEPAGE
  3
ANSI_1252
  9
$INSBASE
 10
0.0
 20
0.0
 30
0.0
  9
$EXTMIN
 10
0.0
 20
0.0
 30
0.0
  9
$EXTMAX
 10
1682.0
 20
2378.0
 30
0.0
  9
$LIMMIN
 10
0.0
 20
0.0
  9
$LIMMAX
 10
1682.0
 20
2378.0
  9
$ORTHOMODE
 70
     0
  9
$REGENMODE
 70
     1
  9
$FILLMODE
 70
     1
  9
$QTEXTMODE
 70
     0
  9
$MIRRTEXT
 70
     1
  9
$LTSCALE
 40
1.0
  9
$ATTMODE
 70
     1
  9
$TEXTSIZE
 40
2.5
  9
$TRACEWID
 40
1.0
  9
$TEXTSTYLE
  7
Standard
  9
$CLAYER
  8
0
  9
$CELTYPE
  6
ByLayer
  9
$CECOLOR
 62
   256
  9
$CELTSCALE
 40
1.0
  9
$DISPSILH
 70
     0
  9
$DIMSCALE
 40
1.0
  9
$DIMASZ
 40
2.5
  9
$DIMEXO
 40
0.625
  9
$DIMDLI
 40
3.75
  9
$DIMRND
 40
0.0
  9
$DIMDLE
 40
0.0
  9
$DIMEXE
 40
1.25
  9
$DIMTP
 40
0.0
  9
$DIMTM
 40
0.0
  9
$DIMTXT
 40
2.5
  9
$DIMCEN
 40
2.5
  9
$DIMTSZ
 40
0.0
  9
$DIMTOL
 70
     0
  9
$DIMLIM
 70
     0
  9
$DIMTIH
 70
     0
  9
$DIMTOH
 70
     0
  9
$DIMSE1
 70
     0
  9
$DIMSE2
 70
     0
  9
$DIMTAD
 70
     1
  9
$DIMZIN
 70
     8
  9
$DIMBLK
  1

  9
$DIMASO
 70
     1
  9
$DIMSHO
 70
     1
  9
$DIMPOST
  1

  9
$DIMAPOST
  1

  9
$DIMALT
 70
     0
  9
$DIMALTD
 70
     3
  9
$DIMALTF
 40
0.0393700787
  9
$DIMLFAC
 40
1.0
  9
$DIMTOFL
 70
     1
  9
$DIMTVP
 40
0.0
  9
$DIMTIX
 70
     0
  9
$DIMSOXD
 70
     0
  9
$DIMSAH
 70
     0
  9
$DIMBLK1
  1

  9
$DIMBLK2
  1

  9
$DIMSTYLE
  2
ISO-25
  9
$DIMCLRD
 70
     0
  9
$DIMCLRE
 70
     0
  9
$DIMCLRT
 70
     0
  9
$DIMTFAC
 40
1.0
  9
$DIMGAP
 40
0.625
  9
$DIMJUST
 70
     0
  9
$DIMSD1
 70
     0
  9
$DIMSD2
 70
     0
  9
$DIMTOLJ
 70
     0
  9
$DIMTZIN
 70
     8
  9
$DIMALTZ
 70
     0
  9
$DIMALTTZ
 70
     0
  9
$DIMUPT
 70
     0
  9
$DIMDEC
 70
     2
  9
$DIMTDEC
 70
     2
  9
$DIMALTU
 70
     2
  9
$DIMALTTD
 70
     3
  9
$DIMTXSTY
  7
Standard
  9
$DIMAUNIT
 70
     0
  9
$DIMADEC
 70
     0
  9
$DIMALTRND
 40
0.0
  9
$DIMAZIN
 70
     0
  9
$DIMDSEP
 70
    44
  9
$DIMATFIT
 70
     3
  9
$DIMFRAC
 70
     0
  9
$DIMLDRBLK
  1

  9
$DIMLUNIT
 70
     2
  9
$DIMLWD
 70
    -2
  9
$DIMLWE
 70
    -2
  9
$DIMTMOVE
 70
     0
  9
$LUNITS
 70
     2
  9
$LUPREC
 70
     4
  9
$SKETCHINC
 40
1.0
  9
$FILLETRAD
 40
10.0
  9
$AUNITS
 70
     0
  9
$AUPREC
 70
     0
  9
$MENU
  1
.
  9
$ELEVATION
 40
0.0
  9
$PELEVATION
 40
0.0
  9
$THICKNESS
 40
0.0
  9
$LIMCHECK
 70
     0
  9
$CHAMFERA
 40
10.0
  9
$CHAMFERB
 40
10.0
  9
$CHAMFERC
 40
20.0
  9
$CHAMFERD
 40
0.0
  9
$SKPOLY
 70
     0
  9
$TDCREATE
 40
2455518.622600104
  9
$TDUCREATE
 40
2455518.580933438
  9
$TDUPDATE
 40
2455518.622600116
  9
$TDUUPDATE
 40
2455518.580933449
  9
$TDINDWG
 40
0.0000000116
  9
$TDUSRTIMER
 40
0.0000000116
  9
$USRTIMER
 70
     1
  9
$ANGBASE
 50
0.0
  9
$ANGDIR
 70
     0
  9
$PDMODE
 70
     0
  9
$PDSIZE
 40
0.0
  9
$PLINEWID
 40
0.0
  9
$SPLFRAME
 70
     0
  9
$SPLINETYPE
 70
     6
  9
$SPLINESEGS
 70
     8
  9
$HANDSEED
  5
21C
  9
$SURFTAB1
 70
     6
  9
$SURFTAB2
 70
     6
  9
$SURFTYPE
 70
     6
  9
$SURFU
 70
     6
  9
$SURFV
 70
     6
  9
$UCSBASE
  2

  9
$UCSNAME
  2

  9
$UCSORG
 10
0.0
 20
0.0
 30
0.0
  9
$UCSXDIR
 10
1.0
 20
0.0
 30
0.0
  9
$UCSYDIR
 10
0.0
 20
1.0
 30
0.0
  9
$UCSORTHOREF
  2

  9
$UCSORTHOVIEW
 70
     0
  9
$UCSORGTOP
 10
0.0
 20
0.0
 30
0.0
  9
$UCSORGBOTTOM
 10
0.0
 20
0.0
 30
0.0
  9
$UCSORGLEFT
 10
0.0
 20
0.0
 30
0.0
  9
$UCSORGRIGHT
 10
0.0
 20
0.0
 30
0.0
  9
$UCSORGFRONT
 10
0.0
 20
0.0
 30
0.0
  9
$UCSORGBACK
 10
0.0
 20
0.0
 30
0.0
  9
$PUCSBASE
  2

  9
$PUCSNAME
  2

  9
$PUCSORG
 10
0.0
 20
0.0
 30
0.0
  9
$PUCSXDIR
 10
1.0
 20
0.0
 30
0.0
  9
$PUCSYDIR
 10
0.0
 20
1.0
 30
0.0
  9
$PUCSORTHOREF
  2

  9
$PUCSORTHOVIEW
 70
     0
  9
$PUCSORGTOP
 10
0.0
 20
0.0
 30
0.0
  9
$PUCSORGBOTTOM
 10
0.0
 20
0.0
 30
0.0
  9
$PUCSORGLEFT
 10
0.0
 20
0.0
 30
0.0
  9
$PUCSORGRIGHT
 10
0.0
 20
0.0
 30
0.0
  9
$PUCSORGFRONT
 10
0.0
 20
0.0
 30
0.0
  9
$PUCSORGBACK
 10
0.0
 20
0.0
 30
0.0
  9
$USERI1
 70
     0
  9
$USERI2
 70
     0
  9
$USERI3
 70
     0
  9
$USERI4
 70
     0
  9
$USERI5
 70
     0
  9
$USERR1
 40
0.0
  9
$USERR2
 40
0.0
  9
$USERR3
 40
0.0
  9
$USERR4
 40
0.0
  9
$USERR5
 40
0.0
  9
$WORLDVIEW
 70
     1
  9
$SHADEDGE
 70
     3
  9
$SHADEDIF
 70
    70
  9
$TILEMODE
 70
     1
  9
$MAXACTVP
 70
    64
  9
$PINSBASE
 10
0.0
 20
0.0
 30
0.0
  9
$PLIMCHECK
 70
     0
  9
$PEXTMIN
 10
0.0
 20
0.0
 30
0.0
  9
$PEXTMAX
 10
1682.0
 20
2378.0
 30
0.0
  9
$PLIMMIN
 10
0.0
 20
0.0
  9
$PLIMMAX
 10
1682.0
 20
2378.0
  9
$UNITMODE
 70
     0
  9
$VISRETAIN
 70
     1
  9
$PLINEGEN
 70
     0
  9
$PSLTSCALE
 70
     1
  9
$TREEDEPTH
 70
  3020
  9
$CMLSTYLE
  2
Standard
  9
$CMLJUST
 70
     0
  9
$CMLSCALE
 40
20.0
  9
$PROXYGRAPHICS
 70
     1
  9
$MEASUREMENT
 70
     1
  9
$CELWEIGHT
370
    -1
  9
$ENDCAPS
280
     0
  9
$JOINSTYLE
280
     0
  9
$LWDISPLAY
290
     0
  9
$INSUNITS
 70
     4
  9
$HYPERLINKBASE
  1

  9
$STYLESHEET
  1

  9
$XEDIT
290
     1
  9
$CEPSNTYPE
380
     0
  9
$PSTYLEMODE
290
     1
  9
$FINGERPRINTGUID
  2
{3D6E1CAC-DD7A-4A1F-98B9-7D2A79D25DB4}
  9
$VERSIONGUID
  2
{FAEB1C32-E019-11D5-929B-00C0DF256EC4}
  9
$EXTNAMES
290
     1
  9
$PSVPSCALE
 40
0.0
  9
$OLESTARTUP
290
     0
  0
ENDSEC
  0
SECTION
  2
CLASSES
  0
CLASS
  1
ACDBDICTIONARYWDFLT
  2
AcDbDictionaryWithDefault
  3
ObjectDBX Classes
 90
        0
280
     0
281
     0
  0
CLASS
  1
VISUALSTYLE
  2
AcDbVisualStyle
  3
ObjectDBX Classes
 90
     4095
280
     0
281
     0
  0
CLASS
  1
SCALE
  2
AcDbScale
  3
ObjectDBX Classes
 90
     1153
280
     0
281
     0
  0
CLASS
  1
DICTIONARYVAR
  2
AcDbDictionaryVar
  3
ObjectDBX Classes
 90
        0
280
     0
281
     0
  0
CLASS
  1
ACDBPLACEHOLDER
  2
AcDbPlaceHolder
  3
ObjectDBX Classes
 90
        0
280
     0
281
     0
  0
CLASS
  1
LAYOUT
  2
AcDbLayout
  3
ObjectDBX Classes
 90
        0
280
     0
281
     0
  0
ENDSEC
  0
SECTION
  2
TABLES
  0
TABLE
  2
VPORT
  5
8
330
0
100
AcDbSymbolTable
 70
     1
  0
VPORT
  5
29
330
8
100
AcDbSymbolTableRecord
100
AcDbViewportTableRecord
  2
*Active
 70
     0
 10
0.0
 20
0.0
 11
1.0
 21
1.0
 12
344.1869158879
 22
148.5
 13
0.0
 23
0.0
 14
10.0
 24
10.0
 15
10.0
 25
10.0
 16
0.0
 26
0.0
 36
1.0
 17
0.0
 27
0.0
 37
0.0
 40
297.0
 41
1.9729729729
 42
50.0
 43
0.0
 44
0.0
 50
0.0
 51
0.0
 71
     0
 72
   100
 73
     1
 74
     3
 75
     0
 76
     0
 77
     0
 78
     0
281
     0
 65
     1
110
0.0
120
0.0
130
0.0
111
1.0
121
0.0
131
0.0
112
0.0
122
1.0
132
0.0
 79
     0
146
0.0
  0
ENDTAB
  0
TABLE
  2
LTYPE
  5
5
330
0
100
AcDbSymbolTable
 70
     2
  0
LTYPE
  5
14
330
5
100
AcDbSymbolTableRecord
100
AcDbLinetypeTableRecord
  2
ByBlock
 70
     0
  3

 72
    65
 73
     0
 40
0.0
  0
LTYPE
  5
15
330
5
100
AcDbSymbolTableRecord
100
AcDbLinetypeTableRecord
  2
ByLayer
 70
     0
  3

 72
    65
 73
     0
 40
0.0
  0
LTYPE
  5
16
330
5
100
AcDbSymbolTableRecord
100
AcDbLinetypeTableRecord
  2
Continuous
 70
     0
  3
Solid line
 72
    65
 73
     0
 40
0.0
  0
LTYPE
  5
60
330
5
100
AcDbSymbolTableRecord
100
AcDbLinetypeTableRecord
  2
CENTER2
 70
     0
  3
Center (.5x) ___ _ ___ _ ___ _ ___ _ ___ _ ___
 72
    65
 73
     4
 40
28.575
 49
19.05
 74
     4
 75
     0
340
0
 46
0.0
 50
0.0
 44
0.0
 45
0.0
 49
-3.175
 74
     4
 75
     0
340
0
 46
0.0
 50
0.0
 44
0.0
 45
0.0
 49
3.175
 74
     4
 75
     0
340
0
 46
0.0
 50
0.0
 44
0.0
 45
0.0
 49
-3.175
 74
     4
 75
     0
340
0
 46
0.0
 50
0.0
 44
0.0
 45
0.0
  0
ENDTAB
  0
TABLE
  2
LAYER
  5
2
330
0
100
AcDbSymbolTable
 70
    15
  0
LAYER
  5
10
330
2
100
AcDbSymbolTableRecord
100
AcDbLayerTableRecord
  2
0
 70
     0
 62
     7
  6
Continuous
370
    -3
390
F
  0
LAYER
  5
5D
330
2
100
AcDbSymbolTableRecord
100
AcDbLayerTableRecord
  2
Default
 70
     0
 62
     7
  6
Continuous
370
    -3
390
F
  0
LAYER
  5
93
330
2
100
AcDbSymbolTableRecord
100
AcDbLayerTableRecord
  2
$DDT_AUDIT_GENERATED_(93)
 70
     0
 62
     7
  6
Continuous
370
    -3
390
F
  0
LAYER
  5
A2
330
2
100
AcDbSymbolTableRecord
100
AcDbLayerTableRecord
  2
$DDT_AUDIT_GENERATED_(A2)
 70
     0
 62
     7
  6
Continuous
370
    -3
390
F
  0
LAYER
  5
B1
330
2
100
AcDbSymbolTableRecord
100
AcDbLayerTableRecord
  2
$DDT_AUDIT_GENERATED_(B1)
 70
     0
 62
     7
  6
Continuous
370
    -3
390
F
  0
LAYER
  5
BA
330
2
100
AcDbSymbolTableRecord
100
AcDbLayerTableRecord
  2
$DDT_AUDIT_GENERATED_(BA)
 70
     0
 62
     7
  6
Continuous
370
    -3
390
F
  0
LAYER
  5
C7
330
2
100
AcDbSymbolTableRecord
100
AcDbLayerTableRecord
  2
$DDT_AUDIT_GENERATED_(C7)
 70
     0
 62
     7
  6
Continuous
370
    -3
390
F
  0
LAYER
  5
E5
330
2
100
AcDbSymbolTableRecord
100
AcDbLayerTableRecord
  2
$DDT_AUDIT_GENERATED_(E5)
 70
     0
 62
     7
  6
Continuous
370
    -3
390
F
  0
LAYER
  5
E8
330
2
100
AcDbSymbolTableRecord
100
AcDbLayerTableRecord
  2
$DDT_AUDIT_GENERATED_(E8)
 70
     0
 62
     7
  6
Continuous
370
    -3
390
F
  0
LAYER
  5
104
330
2
100
AcDbSymbolTableRecord
100
AcDbLayerTableRecord
  2
$DDT_AUDIT_GENERATED_(104)
 70
     0
 62
     7
  6
Continuous
370
    -3
390
F
  0
LAYER
  5
10A
330
2
100
AcDbSymbolTableRecord
100
AcDbLayerTableRecord
  2
$DDT_AUDIT_GENERATED_(10A)
 70
     0
 62
     7
  6
Continuous
370
    -3
390
F
  0
LAYER
  5
10E
330
2
100
AcDbSymbolTableRecord
100
AcDbLayerTableRecord
  2
$DDT_AUDIT_GENERATED_(10E)
 70
     0
 62
     7
  6
Continuous
370
    -3
390
F
  0
LAYER
  5
138
330
2
100
AcDbSymbolTableRecord
100
AcDbLayerTableRecord
  2
$DDT_AUDIT_GENERATED_(138)
 70
     0
 62
     7
  6
Continuous
370
    -3
390
F
  0
LAYER
  5
158
330
2
100
AcDbSymbolTableRecord
100
AcDbLayerTableRecord
  2
$DDT_AUDIT_GENERATED_(158)
 70
     0
 62
     7
  6
Continuous
370
    -3
390
F
  0
LAYER
  5
169
330
2
100
AcDbSymbolTableRecord
100
AcDbLayerTableRecord
  2
$DDT_AUDIT_GENERATED_(169)
 70
     0
 62
     7
  6
Continuous
370
    -3
390
F
  0
ENDTAB
  0
TABLE
  2
STYLE
  5
3
330
0
100
AcDbSymbolTable
 70
     2
  0
STYLE
  5
11
330
3
100
AcDbSymbolTableRecord
100
AcDbTextStyleTableRecord
  2
Standard
 70
     0
 40
0.0
 41
1.0
 50
0.0
 71
     0
 42
2.5
  3
txt
  4

  0
STYLE
  5
20B
330
3
100
AcDbSymbolTableRecord
100
AcDbTextStyleTableRecord
  2
SEACAD_seiso_ttf
 70
     0
 40
0.0
 41
1.0
 50
0.0
 71
     0
 42
0.2
  3
seiso.ttf
  4

  0
ENDTAB
  0
TABLE
  2
VIEW
  5
6
330
0
100
AcDbSymbolTable
 70
     0
  0
ENDTAB
  0
TABLE
  2
UCS
  5
7
330
0
100
AcDbSymbolTable
 70
     0
  0
ENDTAB
  0
TABLE
  2
APPID
  5
9
330
0
100
AcDbSymbolTable
 70
     1
  0
APPID
  5
12
330
9
100
AcDbSymbolTableRecord
100
AcDbRegAppTableRecord
  2
ACAD
 70
     0
  0
ENDTAB
  0
TABLE
  2
DIMSTYLE
  5
A
330
0
100
AcDbSymbolTable
 70
     1
100
AcDbDimStyleTable
  0
DIMSTYLE
105
27
330
A
100
AcDbSymbolTableRecord
100
AcDbDimStyleTableRecord
  2
ISO-25
 70
     0
 41
2.5
 42
0.625
 43
3.75
 44
1.25
 73
     0
 74
     0
 77
     1
 78
     8
140
2.5
141
2.5
143
0.0393700787
147
0.625
171
     3
172
     1
271
     2
272
     2
274
     3
278
    44
283
     0
284
     8
340
11
  0
ENDTAB
  0
TABLE
  2
BLOCK_RECORD
  5
1
330
0
100
AcDbSymbolTable
 70
    11
  0
BLOCK_RECORD
  5
1F
330
1
100
AcDbSymbolTableRecord
100
AcDbBlockTableRecord
  2
*Model_Space
340
22
  0
BLOCK_RECORD
  5
1B
330
1
100
AcDbSymbolTableRecord
100
AcDbBlockTableRecord
  2
*Paper_Space
340
1E
  0
BLOCK_RECORD
  5
5E
330
1
100
AcDbSymbolTableRecord
100
AcDbBlockTableRecord
  2
SEANNOT_GROUP
340
0
102
{BLKREFS
331
5F
102
}
  0
BLOCK_RECORD
  5
69
330
1
100
AcDbSymbolTableRecord
100
AcDbBlockTableRecord
  2
SEANNOT_GROUP1
340
0
102
{BLKREFS
331
6A
102
}
  0
BLOCK_RECORD
  5
73
330
1
100
AcDbSymbolTableRecord
100
AcDbBlockTableRecord
  2
SEANNOT_GROUP2
340
0
102
{BLKREFS
331
74
102
}
  0
BLOCK_RECORD
  5
79
330
1
100
AcDbSymbolTableRecord
100
AcDbBlockTableRecord
  2
SEANNOT_GROUP3
340
0
102
{BLKREFS
331
7A
102
}
  0
BLOCK_RECORD
  5
7F
330
1
100
AcDbSymbolTableRecord
100
AcDbBlockTableRecord
  2
SEANNOT_GROUP4
340
0
102
{BLKREFS
331
80
102
}
  0
BLOCK_RECORD
  5
85
330
1
100
AcDbSymbolTableRecord
100
AcDbBlockTableRecord
  2
SEANNOT_GROUP5
340
0
102
{BLKREFS
331
86
102
}
  0
BLOCK_RECORD
  5
8B
330
1
100
AcDbSymbolTableRecord
100
AcDbBlockTableRecord
  2
SEANNOT_GROUP6
340
0
102
{BLKREFS
331
8C
102
}
  0
BLOCK_RECORD
  5
91
330
1
100
AcDbSymbolTableRecord
100
AcDbBlockTableRecord
  2
SE
340
0
102
{BLKREFS
331
92
102
}
  0
BLOCK_RECORD
  5
128
330
1
100
AcDbSymbolTableRecord
100
AcDbBlockTableRecord
  2
SE1
340
0
102
{BLKREFS
331
129
102
}
  0
BLOCK_RECORD
  5
183
330
1
100
AcDbSymbolTableRecord
100
AcDbBlockTableRecord
  2
SE2
340
0
102
{BLKREFS
331
184
102
}
  0
ENDTAB
  0
ENDSEC
  0
SECTION
  2
BLOCKS
  0
BLOCK
  5
20
330
1F
100
AcDbEntity
  8
0
100
AcDbBlockBegin
  2
*Model_Space
 70
     0
 10
0.0
 20
0.0
 30
0.0
  3
*Model_Space
  1

  0
ENDBLK
  5
21
330
1F
100
AcDbEntity
  8
0
100
AcDbBlockEnd
  0
BLOCK
  5
1C
330
1B
100
AcDbEntity
 67
     1
  8
0
100
AcDbBlockBegin
  2
*Paper_Space
 70
     0
 10
0.0
 20
0.0
 30
0.0
  3
*Paper_Space
  1

  0
ENDBLK
  5
1D
330
1B
100
AcDbEntity
 67
     1
  8
0
100
AcDbBlockEnd
  0
BLOCK
  5
67
330
5E
100
AcDbEntity
  8
0
100
AcDbBlockBegin
  2
SEANNOT_GROUP
 70
     0
 10
0.0
 20
0.0
 30
0.0
  3
SEANNOT_GROUP
  1

  0
LINE
  5
61
330
5E
100
AcDbEntity
  8
Default
  6
CENTER2
 62
     7
100
AcDbLine
 10
164.7565665252
 20
361.6487037647
 30
0.0
 11
124.7565674193
 21
361.6487037647
 31
0.0
  0
LINE
  5
62
330
5E
100
AcDbEntity
  8
Default
  6
CENTER2
 62
     7
100
AcDbLine
 10
144.7565669722
 20
381.6487033177
 30
0.0
 11
144.7565669722
 21
341.6487042118
 31
0.0
  0
LINE
  5
63
330
5E
100
AcDbEntity
  8
Default
  6
CENTER2
 62
     7
100
AcDbLine
 10
169.7565664134
 20
361.6487037647
 30
0.0
 11
183.1686299916
 21
361.6487037647
 31
0.0
  0
LINE
  5
64
330
5E
100
AcDbEntity
  8
Default
  6
CENTER2
 62
     7
100
AcDbLine
 10
144.7565669722
 20
386.6487032059
 30
0.0
 11
144.7565669722
 21
400.0607667841
 31
0.0
  0
LINE
  5
65
330
5E
100
AcDbEntity
  8
Default
  6
CENTER2
 62
     7
100
AcDbLine
 10
119.756567531
 20
361.6487037647
 30
0.0
 11
106.3445039528
 21
361.6487037647
 31
0.0
  0
LINE
  5
66
330
5E
100
AcDbEntity
  8
Default
  6
CENTER2
 62
     7
100
AcDbLine
 10
144.7565669722
 20
336.6487043235
 30
0.0
 11
144.7565669722
 21
323.2366407453
 31
0.0
  0
ENDBLK
  5
68
330
5E
100
AcDbEntity
  8
0
100
AcDbBlockEnd
  0
BLOCK
  5
71
330
69
100
AcDbEntity
  8
0
100
AcDbBlockBegin
  2
SEANNOT_GROUP1
 70
     0
 10
0.0
 20
0.0
 30
0.0
  3
SEANNOT_GROUP1
  1

  0
LINE
  5
6B
330
69
100
AcDbEntity
  8
Default
  6
CENTER2
 62
     7
100
AcDbLine
 10
314.7565665252
 20
361.6487037647
 30
0.0
 11
274.7565674193
 21
361.6487037647
 31
0.0
  0
LINE
  5
6C
330
69
100
AcDbEntity
  8
Default
  6
CENTER2
 62
     7
100
AcDbLine
 10
294.7565669722
 20
381.6487033177
 30
0.0
 11
294.7565669722
 21
341.6487042118
 31
0.0
  0
LINE
  5
6D
330
69
100
AcDbEntity
  8
Default
  6
CENTER2
 62
     7
100
AcDbLine
 10
319.7565664134
 20
361.6487037647
 30
0.0
 11
333.1686299916
 21
361.6487037647
 31
0.0
  0
LINE
  5
6E
330
69
100
AcDbEntity
  8
Default
  6
CENTER2
 62
     7
100
AcDbLine
 10
294.7565669722
 20
386.6487032059
 30
0.0
 11
294.7565669722
 21
400.0607667841
 31
0.0
  0
LINE
  5
6F
330
69
100
AcDbEntity
  8
Default
  6
CENTER2
 62
     7
100
AcDbLine
 10
269.756567531
 20
361.6487037647
 30
0.0
 11
256.3445039528
 21
361.6487037647
 31
0.0
  0
LINE
  5
70
330
69
100
AcDbEntity
  8
Default
  6
CENTER2
 62
     7
100
AcDbLine
 10
294.7565669722
 20
336.6487043235
 30
0.0
 11
294.7565669722
 21
323.2366407453
 31
0.0
  0
ENDBLK
  5
72
330
69
100
AcDbEntity
  8
0
100
AcDbBlockEnd
  0
BLOCK
  5
77
330
73
100
AcDbEntity
  8
0
100
AcDbBlockBegin
  2
SEANNOT_GROUP2
 70
     0
 10
0.0
 20
0.0
 30
0.0
  3
SEANNOT_GROUP2
  1

  0
LINE
  5
75
330
73
100
AcDbEntity
  8
Default
  6
CENTER2
 62
     7
100
AcDbLine
 10
239.7565665252
 20
314.1487037647
 30
0.0
 11
199.7565674193
 21
314.1487037647
 31
0.0
  0
LINE
  5
76
330
73
100
AcDbEntity
  8
Default
  6
CENTER2
 62
     7
100
AcDbLine
 10
219.7565669722
 20
334.1487033177
 30
0.0
 11
219.7565669722
 21
294.1487042118
 31
0.0
  0
ENDBLK
  5
78
330
73
100
AcDbEntity
  8
0
100
AcDbBlockEnd
  0
BLOCK
  5
7D
330
79
100
AcDbEntity
  8
0
100
AcDbBlockBegin
  2
SEANNOT_GROUP3
 70
     0
 10
0.0
 20
0.0
 30
0.0
  3
SEANNOT_GROUP3
  1

  0
LINE
  5
7B
330
79
100
AcDbEntity
  8
Default
  6
CENTER2
 62
     7
100
AcDbLine
 10
164.7565665252
 20
224.35
 30
0.0
 11
124.7565674193
 21
224.35
 31
0.0
  0
LINE
  5
7C
330
79
100
AcDbEntity
  8
Default
  6
CENTER2
 62
     7
100
AcDbLine
 10
144.7565669722
 20
244.349999553
 30
0.0
 11
144.7565669722
 21
204.350000447
 31
0.0
  0
ENDBLK
  5
7E
330
79
100
AcDbEntity
  8
0
100
AcDbBlockEnd
  0
BLOCK
  5
83
330
7F
100
AcDbEntity
  8
0
100
AcDbBlockBegin
  2
SEANNOT_GROUP4
 70
     0
 10
0.0
 20
0.0
 30
0.0
  3
SEANNOT_GROUP4
  1

  0
LINE
  5
81
330
7F
100
AcDbEntity
  8
Default
  6
CENTER2
 62
     7
100
AcDbLine
 10
314.7565665252
 20
224.35
 30
0.0
 11
274.7565674193
 21
224.35
 31
0.0
  0
LINE
  5
82
330
7F
100
AcDbEntity
  8
Default
  6
CENTER2
 62
     7
100
AcDbLine
 10
294.7565669722
 20
244.349999553
 30
0.0
 11
294.7565669722
 21
204.350000447
 31
0.0
  0
ENDBLK
  5
84
330
7F
100
AcDbEntity
  8
0
100
AcDbBlockEnd
  0
BLOCK
  5
89
330
85
100
AcDbEntity
  8
0
100
AcDbBlockBegin
  2
SEANNOT_GROUP5
 70
     0
 10
0.0
 20
0.0
 30
0.0
  3
SEANNOT_GROUP5
  1

  0
LINE
  5
87
330
85
100
AcDbEntity
  8
Default
  6
CENTER2
 62
     7
100
AcDbLine
 10
494.0401335449
 20
361.6487037647
 30
0.0
 11
454.040134439
 21
361.6487037647
 31
0.0
  0
LINE
  5
88
330
85
100
AcDbEntity
  8
Default
  6
CENTER2
 62
     7
100
AcDbLine
 10
474.0401339919
 20
381.6487033177
 30
0.0
 11
474.0401339919
 21
341.6487042118
 31
0.0
  0
ENDBLK
  5
8A
330
85
100
AcDbEntity
  8
0
100
AcDbBlockEnd
  0
BLOCK
  5
8F
330
8B
100
AcDbEntity
  8
0
100
AcDbBlockBegin
  2
SEANNOT_GROUP6
 70
     0
 10
0.0
 20
0.0
 30
0.0
  3
SEANNOT_GROUP6
  1

  0
LINE
  5
8D
330
8B
100
AcDbEntity
  8
Default
  6
CENTER2
 62
     7
100
AcDbLine
 10
582.0401335449
 20
314.1487037647
 30
0.0
 11
542.040134439
 21
314.1487037647
 31
0.0
  0
LINE
  5
8E
330
8B
100
AcDbEntity
  8
Default
  6
CENTER2
 62
     7
100
AcDbLine
 10
562.0401339919
 20
334.1487033177
 30
0.0
 11
562.0401339919
 21
294.1487042118
 31
0.0
  0
ENDBLK
  5
90
330
8B
100
AcDbEntity
  8
0
100
AcDbBlockEnd
  0
BLOCK
  5
126
330
91
100
AcDbEntity
  8
0
100
AcDbBlockBegin
  2
SE
 70
     0
 10
0.0
 20
0.0
 30
0.0
  3
SE
  1

  0
LINE
  5
94
330
91
100
AcDbEntity
  8
$DDT_AUDIT_GENERATED_(93)
  6
Continuous
 62
     7
100
AcDbLine
 10
325.7565669722
 20
385.1486969583
 30
0.0
 11
325.7565669722
 21
362.0541670291
 31
0.0
  0
LINE
  5
95
330
91
100
AcDbEntity
  8
$DDT_AUDIT_GENERATED_(93)
  6
Continuous
 62
     7
100
AcDbLine
 10
325.7565669722
 20
362.0541670291
 30
0.0
 11
325.7565669722
 21
338.1487128677
 31
0.0
  0
LINE
  5
96
330
91
100
AcDbEntity
  8
$DDT_AUDIT_GENERATED_(93)
  6
Continuous
 62
     7
100
AcDbLine
 10
113.7565669722
 20
338.1487129754
 30
0.0
 11
113.7565669722
 21
362.0541670291
 31
0.0
  0
LINE
  5
97
330
91
100
AcDbEntity
  8
$DDT_AUDIT_GENERATED_(93)
  6
Continuous
 62
     7
100
AcDbLine
 10
113.7565669722
 20
362.0541670291
 30
0.0
 11
113.7565669722
 21
385.1486970564
 31
0.0
  0
LINE
  5
98
330
91
100
AcDbEntity
  8
$DDT_AUDIT_GENERATED_(93)
  6
Continuous
 62
     7
100
AcDbLine
 10
114.2565669722
 20
385.648696793
 30
0.0
 11
114.2565669722
 21
385.6487152606
 31
0.0
  0
LINE
  5
99
330
91
100
AcDbEntity
  8
$DDT_AUDIT_GENERATED_(93)
  6
Continuous
 62
     7
100
AcDbLine
 10
325.2565669722
 20
337.6487131847
 30
0.0
 11
325.2565669722
 21
337.6486877365
 31
0.0
  0
ARC
  5
9A
330
91
100
AcDbEntity
  8
$DDT_AUDIT_GENERATED_(93)
  6
Continuous
 62
     7
100
AcDbCircle
 10
219.7565669722
 20
301.8582863695
 30
0.0
 40
36.91089830138711
100
AcDbArc
 50
75.8464456265
 51
104.1535543735
  0
LINE
  5
9B
330
91
100
AcDbEntity
  8
$DDT_AUDIT_GENERATED_(93)
  6
Continuous
 62
     7
100
AcDbLine
 10
325.2565669722
 20
385.6487152606
 30
0.0
 11
114.2565669722
 21
385.6487152606
 31
0.0
  0
LINE
  5
9C
330
91
100
AcDbEntity
  8
$DDT_AUDIT_GENERATED_(93)
  6
Continuous
 62
     7
100
AcDbLine
 10
228.7970599506
 20
337.6486877365
 30
0.0
 11
325.2565669722
 21
337.6486877365
 31
0.0
  0
LINE
  5
9D
330
91
100
AcDbEntity
  8
$DDT_AUDIT_GENERATED_(93)
  6
Continuous
 62
     7
100
AcDbLine
 10
114.2565669722
 20
337.6486877365
 30
0.0
 11
210.7127351255
 21
337.6486877365
 31
0.0
  0
ARC
  5
9E
330
91
100
AcDbEntity
  8
$DDT_AUDIT_GENERATED_(93)
  6
Continuous
 62
     7
100
AcDbCircle
 10
114.2565669722
 20
385.1487152606
 30
0.0
 40
0.4999999999999866
100
AcDbArc
 50
90.0
 51
180.0
  0
ARC
  5
9F
330
91
100
AcDbEntity
  8
$DDT_AUDIT_GENERATED_(93)
  6
Continuous
 62
     7
100
AcDbCircle
 10
114.2565669722
 20
338.1486877365
 30
0.0
 40
0.5000000000000004
100
AcDbArc
 50
180.0
 51
270.0
  0
ARC
  5
A0
330
91
100
AcDbEntity
  8
$DDT_AUDIT_GENERATED_(93)
  6
Continuous
 62
     7
100
AcDbCircle
 10
325.2565669722
 20
385.1487152606
 30
0.0
 40
0.5000000000000004
100
AcDbArc
 50
0.0
 51
90.0
  0
ARC
  5
A1
330
91
100
AcDbEntity
  8
$DDT_AUDIT_GENERATED_(93)
  6
Continuous
 62
     7
100
AcDbCircle
 10
325.2565669722
 20
338.1486877365
 30
0.0
 40
0.5000000000000004
100
AcDbArc
 50
270.0
 51
0.0
  0
LINE
  5
A3
330
91
100
AcDbEntity
  8
$DDT_AUDIT_GENERATED_(A2)
  6
Continuous
 62
     7
100
AcDbLine
 10
113.7565669722
 20
385.1487037647
 30
0.0
 11
113.7565669722
 21
338.2820608736
 31
0.0
  0
LINE
  5
A4
330
91
100
AcDbEntity
  8
$DDT_AUDIT_GENERATED_(A2)
  6
Continuous
 62
     7
100
AcDbLine
 10
105.7565669722
 20
385.1487037647
 30
0.0
 11
105.7565669722
 21
338.1487037647
 31
0.0
  0
SPLINE
  5
A5
330
91
100
AcDbEntity
  8
$DDT_AUDIT_GENERATED_(A2)
  6
Continuous
 62
     7
100
AcDbSpline
210
0.0
220
0.0
230
1.0
 70
     8
 71
     3
 72
    10
 73
     6
 74
     0
 42
0.0000000123867846
 43
0.0000000001
 40
0.0
 40
0.0
 40
0.0
 40
0.0
 40
0.5
 40
0.5
 40
1.0
 40
1.0
 40
1.0
 40
1.0
 10
113.2565669722241
 20
337.7792672401702
 30
0.0
 10
113.3871912283001
 20
337.7792672401702
 30
0.0
 10
113.5190261675966
 20
337.8344637206195
 30
0.0
 10
113.7029651984538
 20
338.0203406977013
 30
0.0
 10
113.7565669722241
 20
338.1513524239151
 30
0.0
 10
113.7565669722241
 20
338.2820608736345
 30
0.0
  0
LINE
  5
A6
330
91
100
AcDbEntity
  8
$DDT_AUDIT_GENERATED_(A2)
  6
Continuous
 62
     7
100
AcDbLine
 10
111.7565669722
 20
337.7792672402
 30
0.0
 11
113.2565669722
 21
337.7792672402
 31
0.0
  0
LINE
  5
A7
330
91
100
AcDbEntity
  8
$DDT_AUDIT_GENERATED_(A2)
  6
Continuous
 62
     7
100
AcDbLine
 10
111.7565669722
 20
337.7792672402
 30
0.0
 11
111.7565669722
 21
337.6487037647
 31
0.0
  0
LINE
  5
A8
330
91
100
AcDbEntity
  8
$DDT_AUDIT_GENERATED_(A2)
  6
Continuous
 62
     7
100
AcDbLine
 10
106.2565669722
 20
337.6487037647
 30
0.0
 11
111.7565669722
 21
337.6487037647
 31
0.0
  0
LINE
  5
A9
330
91
100
AcDbEntity
  8
$DDT_AUDIT_GENERATED_(A2)
  6
Continuous
 62
     7
100
AcDbLine
 10
113.2565669722
 20
385.6487037647
 30
0.0
 11
106.2565669722
 21
385.6487037647
 31
0.0
  0
ARC
  5
AA
330
91
100
AcDbEntity
  8
$DDT_AUDIT_GENERATED_(A2)
  6
Continuous
 62
     7
100
AcDbCircle
 10
113.2565669722
 20
385.1487037647
 30
0.0
 40
0.5000000000000004
100
AcDbArc
 50
0.0
 51
90.0
  0
LINE
  5
AB
330
91
100
AcDbEntity
  8
$DDT_AUDIT_GENERATED_(A2)
  6
Continuous
 62
     7
100
AcDbLine
 10
105.2565669722
 20
381.7987037647
 30
0.0
 11
105.0565669722
 21
381.7987037647
 31
0.0
  0
LINE
  5
AC
330
91
100
AcDbEntity
  8
$DDT_AUDIT_GENERATED_(A2)
  6
Continuous
 62
     7
100
AcDbLine
 10
105.0565669722
 20
341.4987037647
 30
0.0
 11
105.2565669722
 21
341.4987037647
 31
0.0
  0
ARC
  5
AD
330
91
100
AcDbEntity
  8
$DDT_AUDIT_GENERATED_(A2)
  6
Continuous
 62
     7
100
AcDbCircle
 10
106.2565669722
 20
338.1487037647
 30
0.0
 40
0.5000000000000004
100
AcDbArc
 50
180.0
 51
270.0
  0
ARC
  5
AE
330
91
100
AcDbEntity
  8
$DDT_AUDIT_GENERATED_(A2)
  6
Continuous
 62
     7
100
AcDbCircle
 10
106.2565669722
 20
385.1487037647
 30
0.0
 40
0.5000000000000004
100
AcDbArc
 50
90.0
 51
180.0
  0
ARC
  5
AF
330
91
100
AcDbEntity
  8
$DDT_AUDIT_GENERATED_(A2)
  6
Continuous
 62
     7
100
AcDbCircle
 10
105.2565669722
 20
340.9987037647
 30
0.0
 40
0.5000000000000004
100
AcDbArc
 50
0.0
 51
90.0
  0
ARC
  5
B0
330
91
100
AcDbEntity
  8
$DDT_AUDIT_GENERATED_(A2)
  6
Continuous
 62
     7
100
AcDbCircle
 10
105.2565669722
 20
382.2987037647
 30
0.0
 40
0.5000000000000004
100
AcDbArc
 50
270.0
 51
0.0
  0
ARC
  5
B2
330
91
100
AcDbEntity
  8
$DDT_AUDIT_GENERATED_(B1)
  6
Continuous
 62
     7
100
AcDbCircle
 10
294.7565669722
 20
361.6487037647
 30
0.0
 40
28.13125204983035
100
AcDbArc
 50
58.5553029401
 51
121.4446970599
  0
ARC
  5
B3
330
91
100
AcDbEntity
  8
$DDT_AUDIT_GENERATED_(B1)
  6
Continuous
 62
     7
100
AcDbCircle
 10
294.7565669722
 20
361.6487037647
 30
0.0
 40
28.13125204983035
100
AcDbArc
 50
238.5553206354
 51
301.4446793646
  0
ARC
  5
B4
330
91
100
AcDbEntity
  8
$DDT_AUDIT_GENERATED_(B1)
  6
Continuous
 62
     7
100
AcDbCircle
 10
294.7565669722
 20
361.6487037647
 30
0.0
 40
34.91206301938993
100
AcDbArc
 50
43.4279448832
 51
136.5720551168
  0
ARC
  5
B5
330
91
100
AcDbEntity
  8
$DDT_AUDIT_GENERATED_(B1)
  6
Continuous
 62
     7
100
AcDbCircle
 10
294.7565669722
 20
361.6487037647
 30
0.0
 40
34.91206301938993
100
AcDbArc
 50
223.4279551254
 51
316.5720448746
  0
ARC
  5
B6
330
91
100
AcDbEntity
  8
$DDT_AUDIT_GENERATED_(B1)
  6
Continuous
 62
     7
100
AcDbCircle
 10
144.7565669722
 20
361.6487037647
 30
0.0
 40
28.13125204983035
100
AcDbArc
 50
58.5553029401
 51
121.4446970599
  0
ARC
  5
B7
330
91
100
AcDbEntity
  8
$DDT_AUDIT_GENERATED_(B1)
  6
Continuous
 62
     7
100
AcDbCircle
 10
144.7565669722
 20
361.6487037647
 30
0.0
 40
28.13125204983035
100
AcDbArc
 50
238.5553206354
 51
301.4446793646
  0
ARC
  5
B8
330
91
100
AcDbEntity
  8
$DDT_AUDIT_GENERATED_(B1)
  6
Continuous
 62
     7
100
AcDbCircle
 10
144.7565669722
 20
361.6487037647
 30
0.0
 40
34.91206301938993
100
AcDbArc
 50
43.4279448832
 51
136.5720551168
  0
ARC
  5
B9
330
91
100
AcDbEntity
  8
$DDT_AUDIT_GENERATED_(B1)
  6
Continuous
 62
     7
100
AcDbCircle
 10
144.7565669722
 20
361.6487037647
 30
0.0
 40
34.91206301938993
100
AcDbArc
 50
223.4279551254
 51
316.5720448746
  0
LINE
  5
BB
330
91
100
AcDbEntity
  8
$DDT_AUDIT_GENERATED_(BA)
  6
Continuous
 62
     7
100
AcDbLine
 10
325.7565669722
 20
385.1487037647
 30
0.0
 11
325.7565669722
 21
338.1487037647
 31
0.0
  0
LINE
  5
BC
330
91
100
AcDbEntity
  8
$DDT_AUDIT_GENERATED_(BA)
  6
Continuous
 62
     7
100
AcDbLine
 10
333.7565669722
 20
338.1487037647
 30
0.0
 11
333.7565669722
 21
385.1487037647
 31
0.0
  0
LINE
  5
BD
330
91
100
AcDbEntity
  8
$DDT_AUDIT_GENERATED_(BA)
  6
Continuous
 62
     7
100
AcDbLine
 10
326.2565669722
 20
337.6487037647
 30
0.0
 11
333.2565669722
 21
337.6487037647
 31
0.0
  0
LINE
  5
BE
330
91
100
AcDbEntity
  8
$DDT_AUDIT_GENERATED_(BA)
  6
Continuous
 62
     7
100
AcDbLine
 10
333.2565669722
 20
385.6487037647
 30
0.0
 11
326.2565669722
 21
385.6487037647
 31
0.0
  0
LINE
  5
BF
330
91
100
AcDbEntity
  8
$DDT_AUDIT_GENERATED_(BA)
  6
Continuous
 62
     7
100
AcDbLine
 10
334.2565669722
 20
341.4987037647
 30
0.0
 11
334.8765669722
 21
341.4987037647
 31
0.0
  0
LINE
  5
C0
330
91
100
AcDbEntity
  8
$DDT_AUDIT_GENERATED_(BA)
  6
Continuous
 62
     7
100
AcDbLine
 10
334.8765669722
 20
381.7987037647
 30
0.0
 11
334.2565669722
 21
381.7987037647
 31
0.0
  0
ARC
  5
C1
330
91
100
AcDbEntity
  8
$DDT_AUDIT_GENERATED_(BA)
  6
Continuous
 62
     7
100
AcDbCircle
 10
326.2565669722
 20
338.1487037647
 30
0.0
 40
0.5000000000000004
100
AcDbArc
 50
180.0
 51
270.0
  0
ARC
  5
C2
330
91
100
AcDbEntity
  8
$DDT_AUDIT_GENERATED_(BA)
  6
Continuous
 62
     7
100
AcDbCircle
 10
326.2565669722
 20
385.1487037647
 30
0.0
 40
0.5000000000000004
100
AcDbArc
 50
90.0
 51
180.0
  0
ARC
  5
C3
330
91
100
AcDbEntity
  8
$DDT_AUDIT_GENERATED_(BA)
  6
Continuous
 62
     7
100
AcDbCircle
 10
334.2565669722
 20
382.2987037647
 30
0.0
 40
0.5000000000000004
100
AcDbArc
 50
180.0
 51
270.0
  0
ARC
  5
C4
330
91
100
AcDbEntity
  8
$DDT_AUDIT_GENERATED_(BA)
  6
Continuous
 62
     7
100
AcDbCircle
 10
334.2565669722
 20
340.9987037647
 30
0.0
 40
0.5000000000000004
100
AcDbArc
 50
90.0
 51
180.0
  0
ARC
  5
C5
330
91
100
AcDbEntity
  8
$DDT_AUDIT_GENERATED_(BA)
  6
Continuous
 62
     7
100
AcDbCircle
 10
333.2565669722
 20
385.1487037647
 30
0.0
 40
0.5000000000000004
100
AcDbArc
 50
0.0
 51
90.0
  0
ARC
  5
C6
330
91
100
AcDbEntity
  8
$DDT_AUDIT_GENERATED_(BA)
  6
Continuous
 62
     7
100
AcDbCircle
 10
333.2565669722
 20
338.1487037647
 30
0.0
 40
0.5000000000000004
100
AcDbArc
 50
270.0
 51
0.0
  0
LINE
  5
C8
330
91
100
AcDbEntity
  8
$DDT_AUDIT_GENERATED_(C7)
  6
Continuous
 62
     7
100
AcDbLine
 10
105.0565669722
 20
369.4857077615
 30
0.0
 11
105.0565669722
 21
385.6987037647
 31
0.0
  0
LINE
  5
C9
330
91
100
AcDbEntity
  8
$DDT_AUDIT_GENERATED_(C7)
  6
Continuous
 62
     7
100
AcDbLine
 10
105.0565669722
 20
369.1486392697
 30
0.0
 11
105.0565669722
 21
369.144303298
 31
0.0
  0
LINE
  5
CA
330
91
100
AcDbEntity
  8
$DDT_AUDIT_GENERATED_(C7)
  6
Continuous
 62
     7
100
AcDbLine
 10
105.0565669722
 20
369.1486392697
 30
0.0
 11
55.9680478119
 21
369.1486392697
 31
0.0
  0
LINE
  5
CB
330
91
100
AcDbEntity
  8
$DDT_AUDIT_GENERATED_(C7)
  6
Continuous
 62
     7
100
AcDbLine
 10
105.0565669722
 20
369.4857077615
 30
0.0
 11
105.0565669722
 21
369.1486392697
 31
0.0
  0
LINE
  5
CC
330
91
100
AcDbEntity
  8
$DDT_AUDIT_GENERATED_(C7)
  6
Continuous
 62
     7
100
AcDbLine
 10
105.0565669722
 20
353.811699768
 30
0.0
 11
105.0565669722
 21
337.5987037647
 31
0.0
  0
LINE
  5
CD
330
91
100
AcDbEntity
  8
$DDT_AUDIT_GENERATED_(C7)
  6
Continuous
 62
     7
100
AcDbLine
 10
105.0565669722
 20
353.811699768
 30
0.0
 11
55.9206579259
 21
353.811699768
 31
0.0
  0
LINE
  5
CE
330
91
100
AcDbEntity
  8
$DDT_AUDIT_GENERATED_(C7)
  6
Continuous
 62
     7
100
AcDbLine
 10
105.0565669722
 20
354.1487682597
 30
0.0
 11
105.0565669722
 21
354.1531042315
 31
0.0
  0
LINE
  5
CF
330
91
100
AcDbEntity
  8
$DDT_AUDIT_GENERATED_(C7)
  6
Continuous
 62
     7
100
AcDbLine
 10
105.0565669722
 20
354.1487682597
 30
0.0
 11
105.0565669722
 21
353.811699768
 31
0.0
  0
LINE
  5
D0
330
91
100
AcDbEntity
  8
$DDT_AUDIT_GENERATED_(C7)
  6
Continuous
 62
     7
100
AcDbLine
 10
105.0565669722
 20
367.9836838308
 30
0.0
 11
56.0594323076
 21
367.9836838308
 31
0.0
  0
LINE
  5
D1
330
91
100
AcDbEntity
  8
$DDT_AUDIT_GENERATED_(C7)
  6
Continuous
 62
     7
100
AcDbLine
 10
105.0565669722
 20
369.144303298
 30
0.0
 11
105.0565669722
 21
367.9836838308
 31
0.0
  0
LINE
  5
D2
330
91
100
AcDbEntity
  8
$DDT_AUDIT_GENERATED_(C7)
  6
Continuous
 62
     7
100
AcDbLine
 10
105.0565669722
 20
354.1531042315
 30
0.0
 11
56.0594323076
 21
354.1531042315
 31
0.0
  0
LINE
  5
D3
330
91
100
AcDbEntity
  8
$DDT_AUDIT_GENERATED_(C7)
  6
Continuous
 62
     7
100
AcDbLine
 10
105.0565669722
 20
355.3137236987
 30
0.0
 11
105.0565669722
 21
367.9836838308
 31
0.0
  0
LINE
  5
D4
330
91
100
AcDbEntity
  8
$DDT_AUDIT_GENERATED_(C7)
  6
Continuous
 62
     7
100
AcDbLine
 10
105.0565669722
 20
355.3137236987
 30
0.0
 11
105.0565669722
 21
354.1531042315
 31
0.0
  0
LINE
  5
D5
330
91
100
AcDbEntity
  8
$DDT_AUDIT_GENERATED_(C7)
  6
Continuous
 62
     7
100
AcDbLine
 10
55.9206579259
 20
369.4857077615
 30
0.0
 11
105.0565669722
 21
369.4857077615
 31
0.0
  0
LINE
  5
D6
330
91
100
AcDbEntity
  8
$DDT_AUDIT_GENERATED_(C7)
  6
Continuous
 62
     7
100
AcDbLine
 10
56.0594323076
 20
369.144303298
 30
0.0
 11
105.0565669722
 21
369.144303298
 31
0.0
  0
LINE
  5
D7
330
91
100
AcDbEntity
  8
$DDT_AUDIT_GENERATED_(C7)
  6
Continuous
 62
     7
100
AcDbLine
 10
56.0594323076
 20
355.3137236987
 30
0.0
 11
105.0565669722
 21
355.3137236987
 31
0.0
  0
LINE
  5
D8
330
91
100
AcDbEntity
  8
$DDT_AUDIT_GENERATED_(C7)
  6
Continuous
 62
     7
100
AcDbLine
 10
55.9680478119
 20
354.1487682597
 30
0.0
 11
105.0565669722
 21
354.1487682597
 31
0.0
  0
ELLIPSE
  5
D9
330
91
100
AcDbEntity
  8
$DDT_AUDIT_GENERATED_(C7)
  6
Continuous
 62
     7
100
AcDbEllipse
 10
55.9680478119
 20
367.6486393665
 30
0.0
 11
-0.01620441219618574
 21
-1.499912469787937
 31
0.0
210
0.0
220
0.0
230
1.0
 40
0.9994478181
 41
3.152401773324409
 42
3.523477978371524
  0
SPLINE
  5
DA
330
91
100
AcDbEntity
  8
$DDT_AUDIT_GENERATED_(C7)
  6
Continuous
 62
     7
100
AcDbSpline
210
0.0
220
0.0
230
1.0
 70
     8
 71
     3
 72
    14
 73
    10
 74
     0
 42
0.0000000011027994
 43
0.0000000001
 40
0.1489730247718052
 40
0.1489730247718052
 40
0.1489730247718052
 40
0.1489730247718052
 40
0.25
 40
0.25
 40
0.375
 40
0.375
 40
0.5
 40
0.5
 40
0.601860338400352
 40
0.601860338400352
 40
0.601860338400352
 40
0.601860338400352
 10
54.22447087617422
 20
359.597580311717
 30
0.0
 10
54.21487544931214
 20
359.6658299911593
 30
0.0
 10
54.20572084848546
 20
359.8723298341051
 30
0.0
 10
54.19039289420952
 20
360.5652823545728
 30
0.0
 10
54.18541436530977
 20
361.1025288290764
 30
0.0
 10
54.18543649196874
 20
362.1986612716107
 30
0.0
 10
54.19043433253512
 20
362.7355089011898
 30
0.0
 10
54.2058602859791
 20
363.4301402554824
 30
0.0
 10
54.21512068701828
 20
363.6365212924759
 30
0.0
 10
54.22480191962947
 20
363.7021071697674
 30
0.0
  0
SPLINE
  5
DB
330
91
100
AcDbEntity
  8
$DDT_AUDIT_GENERATED_(C7)
  6
Continuous
 62
     7
100
AcDbSpline
210
0.0
220
0.0
230
1.0
 70
     8
 71
     3
 72
    12
 73
     8
 74
     0
 42
0.0000000010221762
 43
0.0000000001
 40
0.63808586576524
 40
0.63808586576524
 40
0.63808586576524
 40
0.63808586576524
 40
0.75
 40
0.75
 40
0.875
 40
0.875
 40
1.0
 40
1.0
 40
1.0
 40
1.0
 10
54.23520397694562
 20
363.7173188701111
 30
0.0
 10
54.24590082409645
 20
363.676246623075
 30
0.0
 10
54.25628064158833
 20
363.4627899524426
 30
0.0
 10
54.27253349866643
 20
362.7288161468363
 30
0.0
 10
54.27742763638682
 20
362.1895756276598
 30
0.0
 10
54.2774124700292
 20
361.1052114062834
 30
0.0
 10
54.27250666265948
 20
360.5659580450694
 30
0.0
 10
54.26389839113033
 20
360.1786376602229
 30
0.0
  0
LINE
  5
DC
330
91
100
AcDbEntity
  8
$DDT_AUDIT_GENERATED_(C7)
  6
Continuous
 62
     7
100
AcDbLine
 10
105.0565669722
 20
385.6987037647
 30
0.0
 11
55.9206579259
 21
385.6987037647
 31
0.0
  0
LINE
  5
DD
330
91
100
AcDbEntity
  8
$DDT_AUDIT_GENERATED_(C7)
  6
Continuous
 62
     7
100
AcDbLine
 10
55.9206579259
 20
337.5987037647
 30
0.0
 11
105.0565669722
 21
337.5987037647
 31
0.0
  0
ARC
  5
DE
330
91
100
AcDbEntity
  8
$DDT_AUDIT_GENERATED_(C7)
  6
Continuous
 62
     7
100
AcDbCircle
 10
754.0565669722
 20
361.6487037647
 30
0.0
 40
700.0
100
AcDbArc
 50
180.3247770746
 51
181.8500277193
  0
ARC
  5
DF
330
91
100
AcDbEntity
  8
$DDT_AUDIT_GENERATED_(C7)
  6
Continuous
 62
     7
100
AcDbCircle
 10
754.0565669722
 20
361.6487037647
 30
0.0
 40
700.0
100
AcDbArc
 50
178.1499722807
 51
179.6752229254
  0
ARC
  5
E0
330
91
100
AcDbEntity
  8
$DDT_AUDIT_GENERATED_(C7)
  6
Continuous
 62
     7
100
AcDbCircle
 10
55.9206579259
 20
339.0987037647
 30
0.0
 40
1.49999999999994
100
AcDbArc
 50
181.8500277194
 51
270.0
  0
ARC
  5
E1
330
91
100
AcDbEntity
  8
$DDT_AUDIT_GENERATED_(C7)
  6
Continuous
 62
     7
100
AcDbCircle
 10
55.9206579259
 20
384.1987037647
 30
0.0
 40
1.500000000000001
100
AcDbArc
 50
90.0
 51
178.1499722806
  0
LINE
  5
E2
330
91
100
AcDbEntity
  8
$DDT_AUDIT_GENERATED_(C7)
  6
Continuous
 62
     7
100
AcDbLine
 10
54.2611409168
 20
360.0724735668
 30
0.0
 11
54.2566489443
 21
359.9212347671
 31
0.0
  0
ARC
  5
E3
330
91
100
AcDbEntity
  8
$DDT_AUDIT_GENERATED_(C7)
  6
Continuous
 62
     7
100
AcDbCircle
 10
48.0025699742
 20
360.1039962052
 30
0.0
 40
6.256748796841952
100
AcDbArc
 50
356.1465162678
 51
358.3261356521
  0
LINE
  5
E4
330
91
100
AcDbEntity
  8
$DDT_AUDIT_GENERATED_(C7)
  6
Continuous
 62
     7
100
AcDbLine
 10
54.0678080042
 20
365.6148824969
 30
0.0
 11
54.0678080042
 21
357.6825250325
 31
0.0
  0
SPLINE
  5
E6
330
91
100
AcDbEntity
  8
$DDT_AUDIT_GENERATED_(E5)
  6
Continuous
 62
     7
100
AcDbSpline
210
0.0
220
0.0
230
1.0
 70
     8
 71
     3
 72
    35
 73
    31
 74
     0
 42
0.0000000015906972
 43
0.0000000001
 40
0.2615060082982875
 40
0.2615060082982875
 40
0.2615060082982875
 40
0.2615060082982875
 40
0.2685004253029653
 40
0.2685004253029653
 40
0.2685004253029653
 40
0.3222246118665233
 40
0.3222246118665233
 40
0.3222246118665233
 40
0.3759448653111847
 40
0.3759448653111847
 40
0.3759448653111847
 40
0.4296542494933602
 40
0.4296542494933602
 40
0.4296542494933602
 40
0.4833505957849257
 40
0.4833505957849257
 40
0.4833505957849257
 40
0.5370374516663305
 40
0.5370374516663305
 40
0.5370374516663305
 40
0.5907225205411428
 40
0.5907225205411428
 40
0.5907225205411428
 40
0.6444142850265822
 40
0.6444142850265822
 40
0.6444142850265822
 40
0.6981182948292186
 40
0.6981182948292186
 40
0.6981182948292186
 40
0.7190464548629445
 40
0.7190464548629445
 40
0.7190464548629445
 40
0.7190464548629445
 10
54.22585048129325
 20
363.0880452097304
 30
0.0
 10
54.22538411740657
 20
363.0854255756315
 30
0.0
 10
54.22491967167567
 20
363.0823436754848
 30
0.0
 10
54.22445782034069
 20
363.0787995005243
 30
0.0
 10
54.22091034981144
 20
363.0515767661273
 30
0.0
 10
54.21741808798161
 20
362.996329681513
 30
0.0
 10
54.2142702973562
 20
362.9176301958177
 30
0.0
 10
54.21112274290682
 20
362.8389366148769
 30
0.0
 10
54.20823277493922
 20
362.7346225604765
 30
0.0
 10
54.20583988465516
 20
362.6133249259953
 30
0.0
 10
54.20344747576444
 20
362.4920516937496
 30
0.0
 10
54.20148594445884
 20
362.3504554100464
 30
0.0
 10
54.20011790081308
 20
362.2002642666453
 30
0.0
 10
54.19875018430284
 20
362.0501090379329
 30
0.0
 10
54.19793794319522
 20
361.887220565113
 30
0.0
 10
54.19774851643111
 20
361.7250916986875
 30
0.0
 10
54.19755912229415
 20
361.5629907576092
 30
0.0
 10
54.19798709997517
 20
361.397178107139
 30
0.0
 10
54.19899697706071
 20
361.2413853115245
 30
0.0
 10
54.20000682397097
 20
361.0855971710215
 30
0.0
 10
54.20162637320461
 20
360.935532131094
 30
0.0
 10
54.203721453326
 20
360.8036117031244
 30
0.0
 10
54.20581679646475
 20
360.6716747137999
 30
0.0
 10
54.20844555388967
 20
360.5542487436015
 30
0.0
 10
54.21139004932974
 20
360.4610488643874
 30
0.0
 10
54.21433521006225
 20
360.3678279271763
 30
0.0
 10
54.21767745270445
 20
360.2962733526251
 30
0.0
 10
54.22114009334395
 20
360.2523033978679
 30
0.0
 10
54.22248945995606
 20
360.2351686169122
 30
0.0
 10
54.22387160781864
 20
360.2220387472993
 30
0.0
 10
54.22526852240092
 20
360.2129998588076
 30
0.0
  0
SPLINE
  5
E7
330
91
100
AcDbEntity
  8
$DDT_AUDIT_GENERATED_(E5)
  6
Continuous
 62
     7
100
AcDbSpline
210
0.0
220
0.0
230
1.0
 70
     8
 71
     3
 72
    11
 73
     7
 74
     0
 42
0.0000000326394041
 43
0.0000000001
 40
0.7074351042868788
 40
0.7074351042868788
 40
0.7074351042868788
 40
0.7074351042868788
 40
0.7463054939758235
 40
0.8490773441479476
 40
0.9520744341716918
 40
1.0
 40
1.0
 40
1.0
 40
1.0
 10
54.25907378625669
 20
363.2293480714015
 30
0.0
 10
54.2566217468376
 20
363.2243747619791
 30
0.0
 10
54.24839595895206
 20
363.2064958238258
 30
0.0
 10
54.23882306279656
 20
363.1784473144758
 30
0.0
 10
54.23334702247578
 20
363.1558487531552
 30
0.0
 10
54.23194077089455
 20
363.1475105070179
 30
0.0
 10
54.23146295415606
 20
363.1444835738241
 30
0.0
  0
LINE
  5
E9
330
91
100
AcDbEntity
  8
$DDT_AUDIT_GENERATED_(E8)
  6
Continuous
 62
     7
100
AcDbLine
 10
334.8765669722
 20
354.1487681654
 30
0.0
 11
334.8765669722
 21
354.1532621012
 31
0.0
  0
LINE
  5
EA
330
91
100
AcDbEntity
  8
$DDT_AUDIT_GENERATED_(E8)
  6
Continuous
 62
     7
100
AcDbLine
 10
334.8765669722
 20
354.1487681654
 30
0.0
 11
383.9668426411
 21
354.1487681654
 31
0.0
  0
LINE
  5
EB
330
91
100
AcDbEntity
  8
$DDT_AUDIT_GENERATED_(E8)
  6
Continuous
 62
     7
100
AcDbLine
 10
334.8765669722
 20
353.8120321887
 30
0.0
 11
334.8765669722
 21
354.1487681654
 31
0.0
  0
LINE
  5
EC
330
91
100
AcDbEntity
  8
$DDT_AUDIT_GENERATED_(E8)
  6
Continuous
 62
     7
100
AcDbLine
 10
334.8765669722
 20
385.6487037647
 30
0.0
 11
334.8765669722
 21
369.4853753407
 31
0.0
  0
LINE
  5
ED
330
91
100
AcDbEntity
  8
$DDT_AUDIT_GENERATED_(E8)
  6
Continuous
 62
     7
100
AcDbLine
 10
334.8765669722
 20
369.4853753407
 30
0.0
 11
384.0140892413
 21
369.4853753407
 31
0.0
  0
LINE
  5
EE
330
91
100
AcDbEntity
  8
$DDT_AUDIT_GENERATED_(E8)
  6
Continuous
 62
     7
100
AcDbLine
 10
334.8765669722
 20
369.1486393641
 30
0.0
 11
334.8765669722
 21
369.1441454283
 31
0.0
  0
LINE
  5
EF
330
91
100
AcDbEntity
  8
$DDT_AUDIT_GENERATED_(E8)
  6
Continuous
 62
     7
100
AcDbLine
 10
334.8765669722
 20
369.1486393641
 30
0.0
 11
334.8765669722
 21
369.4853753407
 31
0.0
  0
LINE
  5
F0
330
91
100
AcDbEntity
  8
$DDT_AUDIT_GENERATED_(E8)
  6
Continuous
 62
     7
100
AcDbLine
 10
334.8765669722
 20
337.6487037647
 30
0.0
 11
334.8765669722
 21
353.8120321887
 31
0.0
  0
LINE
  5
F1
330
91
100
AcDbEntity
  8
$DDT_AUDIT_GENERATED_(E8)
  6
Continuous
 62
     7
100
AcDbLine
 10
334.8765669722
 20
355.3138902542
 30
0.0
 11
383.8737016368
 21
355.3138902542
 31
0.0
  0
LINE
  5
F2
330
91
100
AcDbEntity
  8
$DDT_AUDIT_GENERATED_(E8)
  6
Continuous
 62
     7
100
AcDbLine
 10
334.8765669722
 20
354.1532621012
 30
0.0
 11
334.8765669722
 21
355.3138902542
 31
0.0
  0
LINE
  5
F3
330
91
100
AcDbEntity
  8
$DDT_AUDIT_GENERATED_(E8)
  6
Continuous
 62
     7
100
AcDbLine
 10
334.8765669722
 20
369.1441454283
 30
0.0
 11
383.8737016368
 21
369.1441454283
 31
0.0
  0
LINE
  5
F4
330
91
100
AcDbEntity
  8
$DDT_AUDIT_GENERATED_(E8)
  6
Continuous
 62
     7
100
AcDbLine
 10
334.8765669722
 20
367.9835172753
 30
0.0
 11
334.8765669722
 21
355.3138902542
 31
0.0
  0
LINE
  5
F5
330
91
100
AcDbEntity
  8
$DDT_AUDIT_GENERATED_(E8)
  6
Continuous
 62
     7
100
AcDbLine
 10
334.8765669722
 20
367.9835172753
 30
0.0
 11
334.8765669722
 21
369.1441454283
 31
0.0
  0
LINE
  5
F6
330
91
100
AcDbEntity
  8
$DDT_AUDIT_GENERATED_(E8)
  6
Continuous
 62
     7
100
AcDbLine
 10
384.0140892413
 20
353.8120321887
 30
0.0
 11
334.8765669722
 21
353.8120321887
 31
0.0
  0
LINE
  5
F7
330
91
100
AcDbEntity
  8
$DDT_AUDIT_GENERATED_(E8)
  6
Continuous
 62
     7
100
AcDbLine
 10
383.8737016368
 20
354.1532621012
 30
0.0
 11
334.8765669722
 21
354.1532621012
 31
0.0
  0
LINE
  5
F8
330
91
100
AcDbEntity
  8
$DDT_AUDIT_GENERATED_(E8)
  6
Continuous
 62
     7
100
AcDbLine
 10
383.8737016368
 20
367.9835172753
 30
0.0
 11
334.8765669722
 21
367.9835172753
 31
0.0
  0
LINE
  5
F9
330
91
100
AcDbEntity
  8
$DDT_AUDIT_GENERATED_(E8)
  6
Continuous
 62
     7
100
AcDbLine
 10
383.9668426411
 20
369.1486393641
 30
0.0
 11
334.8765669722
 21
369.1486393641
 31
0.0
  0
ELLIPSE
  5
FA
330
91
100
AcDbEntity
  8
$DDT_AUDIT_GENERATED_(E8)
  6
Continuous
 62
     7
100
AcDbEllipse
 10
383.9668426411
 20
355.6487680688
 30
0.0
 11
0.0
 21
1.499999903399271
 31
0.0
210
0.0
220
0.0
230
1.0
 40
1.0
 41
3.141592653589793
 42
3.512699946902382
  0
LINE
  5
FB
330
91
100
AcDbEntity
  8
$DDT_AUDIT_GENERATED_(E8)
  6
Continuous
 62
     7
100
AcDbLine
 10
334.8765669722
 20
337.6487037647
 30
0.0
 11
384.0140892413
 21
337.6487037647
 31
0.0
  0
LINE
  5
FC
330
91
100
AcDbEntity
  8
$DDT_AUDIT_GENERATED_(E8)
  6
Continuous
 62
     7
100
AcDbLine
 10
384.0140892413
 20
385.6487037647
 30
0.0
 11
334.8765669722
 21
385.6487037647
 31
0.0
  0
ARC
  5
FD
330
91
100
AcDbEntity
  8
$DDT_AUDIT_GENERATED_(E8)
  6
Continuous
 62
     7
100
AcDbCircle
 10
-314.1234330278
 20
361.6487037647
 30
0.0
 40
700.0000000000001
100
AcDbArc
 50
1.7645885072
 51
1.8459242409
  0
ARC
  5
FE
330
91
100
AcDbEntity
  8
$DDT_AUDIT_GENERATED_(E8)
  6
Continuous
 62
     7
100
AcDbCircle
 10
-314.1234330278
 20
361.6487037647
 30
0.0
 40
700.0
100
AcDbArc
 50
358.1540757591
 51
358.2354114928
  0
ARC
  5
FF
330
91
100
AcDbEntity
  8
$DDT_AUDIT_GENERATED_(E8)
  6
Continuous
 62
     7
100
AcDbCircle
 10
384.0140892413
 20
384.1487037647
 30
0.0
 40
1.49999999999984
100
AcDbArc
 50
1.845924241
 51
90.0
  0
ARC
  5
100
330
91
100
AcDbEntity
  8
$DDT_AUDIT_GENERATED_(E8)
  6
Continuous
 62
     7
100
AcDbCircle
 10
384.0140892413
 20
339.1487037647
 30
0.0
 40
1.500000000000001
100
AcDbArc
 50
270.0
 51
358.154075759
  0
ARC
  5
101
330
91
100
AcDbEntity
  8
$DDT_AUDIT_GENERATED_(E8)
  6
Continuous
 62
     7
100
AcDbCircle
 10
385.2447571956
 20
340.1028340064
 30
0.0
 40
0.2999999999999786
100
AcDbArc
 50
358.2354114927
 51
0.0
  0
ARC
  5
102
330
91
100
AcDbEntity
  8
$DDT_AUDIT_GENERATED_(E8)
  6
Continuous
 62
     7
100
AcDbCircle
 10
385.2447571956
 20
383.194573523
 30
0.0
 40
0.3000000000000225
100
AcDbArc
 50
0.0
 51
1.7645885074
  0
LINE
  5
103
330
91
100
AcDbEntity
  8
$DDT_AUDIT_GENERATED_(E8)
  6
Continuous
 62
     7
100
AcDbLine
 10
385.5447571956
 20
340.1028340064
 30
0.0
 11
385.5447571956
 21
383.194573523
 31
0.0
  0
ARC
  5
105
330
91
100
AcDbEntity
  8
$DDT_AUDIT_GENERATED_(104)
  6
Continuous
 62
     7
100
AcDbCircle
 10
-314.1234330278
 20
361.6487037647
 30
0.0
 40
700.0000000000001
100
AcDbArc
 50
0.3848680704
 51
1.7240479105
  0
ARC
  5
106
330
91
100
AcDbEntity
  8
$DDT_AUDIT_GENERATED_(104)
  6
Continuous
 62
     7
100
AcDbCircle
 10
-314.1234330278
 20
361.6487037647
 30
0.0
 40
700.0000000000001
100
AcDbArc
 50
358.2759520895
 51
359.6151319296
  0
LINE
  5
107
330
91
100
AcDbEntity
  8
$DDT_AUDIT_GENERATED_(104)
  6
Continuous
 62
     7
100
AcDbLine
 10
385.8607814576
 20
356.9487037647
 30
0.0
 11
385.8607814576
 21
366.3487037647
 31
0.0
  0
ARC
  5
108
330
91
100
AcDbEntity
  8
$DDT_AUDIT_GENERATED_(104)
  6
Continuous
 62
     7
100
AcDbCircle
 10
385.3597820009
 20
340.5946805587
 30
0.0
 40
0.2000000000000014
100
AcDbArc
 50
337.649660309
 51
358.2759520891
  0
ARC
  5
109
330
91
100
AcDbEntity
  8
$DDT_AUDIT_GENERATED_(104)
  6
Continuous
 62
     7
100
AcDbCircle
 10
385.3597820009
 20
382.7027269708
 30
0.0
 40
0.1999999999999609
100
AcDbArc
 50
1.7240479109
 51
22.350339691
  0
LINE
  5
10B
330
91
100
AcDbEntity
  8
$DDT_AUDIT_GENERATED_(10A)
  6
Continuous
 62
     7
100
AcDbLine
 10
385.8765669722
 20
357.6987037647
 30
0.0
 11
385.8765669722
 21
365.5987037647
 31
0.0
  0
ARC
  5
10C
330
91
100
AcDbEntity
  8
$DDT_AUDIT_GENERATED_(10A)
  6
Continuous
 62
     7
100
AcDbCircle
 10
385.5765669722
 20
365.5987037647
 30
0.0
 40
0.2999999999999947
100
AcDbArc
 50
0.0
 51
18.6693561105
  0
ARC
  5
10D
330
91
100
AcDbEntity
  8
$DDT_AUDIT_GENERATED_(10A)
  6
Continuous
 62
     7
100
AcDbCircle
 10
385.5765669722
 20
357.6987037647
 30
0.0
 40
0.2999999999999999
100
AcDbArc
 50
341.3306438895
 51
0.0
  0
LINE
  5
10F
330
91
100
AcDbEntity
  8
$DDT_AUDIT_GENERATED_(10E)
  6
Continuous
 62
     7
100
AcDbLine
 10
233.6565669722
 20
324.6487037647
 30
0.0
 11
205.8565669722
 21
324.6487037647
 31
0.0
  0
LINE
  5
110
330
91
100
AcDbEntity
  8
$DDT_AUDIT_GENERATED_(10E)
  6
Continuous
 62
     7
100
AcDbLine
 10
206.5365669722
 20
321.6487037647
 30
0.0
 11
232.9765669722
 21
321.6487037647
 31
0.0
  0
LINE
  5
111
330
91
100
AcDbEntity
  8
$DDT_AUDIT_GENERATED_(10E)
  6
Continuous
 62
     7
100
AcDbLine
 10
232.9765669722
 20
315.1487037647
 30
0.0
 11
206.5365669722
 21
315.1487037647
 31
0.0
  0
LINE
  5
112
330
91
100
AcDbEntity
  8
$DDT_AUDIT_GENERATED_(10E)
  6
Continuous
 62
     7
100
AcDbLine
 10
207.5365669722
 20
314.1487037647
 30
0.0
 11
231.9765669722
 21
314.1487037647
 31
0.0
  0
LINE
  5
113
330
91
100
AcDbEntity
  8
$DDT_AUDIT_GENERATED_(10E)
  6
Continuous
 62
     7
100
AcDbLine
 10
231.9765669722
 20
322.6487037647
 30
0.0
 11
207.5365669722
 21
322.6487037647
 31
0.0
  0
LINE
  5
114
330
91
100
AcDbEntity
  8
$DDT_AUDIT_GENERATED_(10E)
  6
Continuous
 62
     7
100
AcDbLine
 10
210.7565669722
 20
337.1487037647
 30
0.0
 11
228.7565669722
 21
337.1487037647
 31
0.0
  0
LINE
  5
115
330
91
100
AcDbEntity
  8
$DDT_AUDIT_GENERATED_(10E)
  6
Continuous
 62
     7
100
AcDbLine
 10
205.8565669722
 20
332.1497038648
 30
0.0
 11
233.6565669722
 21
332.1497038648
 31
0.0
  0
LINE
  5
116
330
91
100
AcDbEntity
  8
$DDT_AUDIT_GENERATED_(10E)
  6
Continuous
 62
     7
100
AcDbLine
 10
206.5365669722
 20
321.6487037647
 30
0.0
 11
206.5365669722
 21
315.1487037647
 31
0.0
  0
LINE
  5
117
330
91
100
AcDbEntity
  8
$DDT_AUDIT_GENERATED_(10E)
  6
Continuous
 62
     7
100
AcDbLine
 10
232.9765669722
 20
315.1487037647
 30
0.0
 11
232.9765669722
 21
321.6487037647
 31
0.0
  0
LINE
  5
118
330
91
100
AcDbEntity
  8
$DDT_AUDIT_GENERATED_(10E)
  6
Continuous
 62
     7
100
AcDbLine
 10
208.2565669722
 20
324.6487037647
 30
0.0
 11
208.2565669722
 21
322.6487037647
 31
0.0
  0
LINE
  5
119
330
91
100
AcDbEntity
  8
$DDT_AUDIT_GENERATED_(10E)
  6
Continuous
 62
     7
100
AcDbLine
 10
231.2565669722
 20
322.6487037647
 30
0.0
 11
231.2565669722
 21
324.6487037647
 31
0.0
  0
LINE
  5
11A
330
91
100
AcDbEntity
  8
$DDT_AUDIT_GENERATED_(10E)
  6
Continuous
 62
     7
100
AcDbLine
 10
205.8565669722
 20
332.1497038648
 30
0.0
 11
205.8565669722
 21
324.6487037647
 31
0.0
  0
LINE
  5
11B
330
91
100
AcDbEntity
  8
$DDT_AUDIT_GENERATED_(10E)
  6
Continuous
 62
     7
100
AcDbLine
 10
233.6565669722
 20
324.6487037647
 30
0.0
 11
233.6565669722
 21
332.1497038648
 31
0.0
  0
LINE
  5
11C
330
91
100
AcDbEntity
  8
$DDT_AUDIT_GENERATED_(10E)
  6
Continuous
 62
     7
100
AcDbLine
 10
206.5365669722
 20
315.1487037647
 30
0.0
 11
207.5365669722
 21
314.1487037647
 31
0.0
  0
LINE
  5
11D
330
91
100
AcDbEntity
  8
$DDT_AUDIT_GENERATED_(10E)
  6
Continuous
 62
     7
100
AcDbLine
 10
231.9765669722
 20
314.1487037647
 30
0.0
 11
232.9765669722
 21
315.1487037647
 31
0.0
  0
LINE
  5
11E
330
91
100
AcDbEntity
  8
$DDT_AUDIT_GENERATED_(10E)
  6
Continuous
 62
     7
100
AcDbLine
 10
232.9765669722
 20
321.6487037647
 30
0.0
 11
231.9765669722
 21
322.6487037647
 31
0.0
  0
LINE
  5
11F
330
91
100
AcDbEntity
  8
$DDT_AUDIT_GENERATED_(10E)
  6
Continuous
 62
     7
100
AcDbLine
 10
207.5365669722
 20
322.6487037647
 30
0.0
 11
206.5365669722
 21
321.6487037647
 31
0.0
  0
LINE
  5
120
330
91
100
AcDbEntity
  8
$DDT_AUDIT_GENERATED_(10E)
  6
Continuous
 62
     7
100
AcDbLine
 10
228.7565669722
 20
337.1487037647
 30
0.0
 11
228.7565669722
 21
337.6774375107
 31
0.0
  0
LINE
  5
121
330
91
100
AcDbEntity
  8
$DDT_AUDIT_GENERATED_(10E)
  6
Continuous
 62
     7
100
AcDbLine
 10
210.7565669722
 20
337.6507695068
 30
0.0
 11
210.7565669722
 21
337.1487037647
 31
0.0
  0
ARC
  5
122
330
91
100
AcDbEntity
  8
$DDT_AUDIT_GENERATED_(10E)
  6
Continuous
 62
     7
100
AcDbCircle
 10
210.8565669722
 20
332.1497038648
 30
0.0
 40
4.999999999999999
100
AcDbArc
 50
91.1459919984
 51
180.0
  0
ARC
  5
123
330
91
100
AcDbEntity
  8
$DDT_AUDIT_GENERATED_(10E)
  6
Continuous
 62
     7
100
AcDbCircle
 10
228.6565669722
 20
332.1497038648
 30
0.0
 40
5.000000000000001
100
AcDbArc
 50
0.0
 51
88.8540080016
  0
LINE
  5
124
330
91
100
AcDbEntity
  8
$DDT_AUDIT_GENERATED_(10E)
  6
Continuous
 62
     7
100
AcDbLine
 10
231.8165669722
 20
322.6487037647
 30
0.0
 11
231.8165669722
 21
315.1487037647
 31
0.0
  0
LINE
  5
125
330
91
100
AcDbEntity
  8
$DDT_AUDIT_GENERATED_(10E)
  6
Continuous
 62
     7
100
AcDbLine
 10
207.6965669722
 20
322.6487037647
 30
0.0
 11
207.6965669722
 21
315.1487037647
 31
0.0
  0
ENDBLK
  5
127
330
91
100
AcDbEntity
  8
0
100
AcDbBlockEnd
  0
BLOCK
  5
181
330
128
100
AcDbEntity
  8
0
100
AcDbBlockBegin
  2
SE1
 70
     0
 10
0.0
 20
0.0
 30
0.0
  3
SE1
  1

  0
ARC
  5
12A
330
128
100
AcDbEntity
  8
$DDT_AUDIT_GENERATED_(93)
  6
Continuous
 62
     7
100
AcDbCircle
 10
563.9712156065
 20
155.6215968089
 30
0.0
 40
230.0271184517403
100
AcDbArc
 50
90.3887808477
 51
99.8920663505
  0
ARC
  5
12B
330
128
100
AcDbEntity
  8
$DDT_AUDIT_GENERATED_(93)
  6
Continuous
 62
     7
100
AcDbCircle
 10
563.9574914908
 20
567.5172974216
 30
0.0
 40
229.8686096850954
100
AcDbArc
 50
260.104508813
 51
269.6147536432
  0
ARC
  5
12C
330
128
100
AcDbEntity
  8
$DDT_AUDIT_GENERATED_(93)
  6
Continuous
 62
     7
100
AcDbCircle
 10
565.1413673358
 20
574.3037532924
 30
0.0
 40
236.7575533851826
100
AcDbArc
 50
260.00277295
 51
260.104508813
  0
ARC
  5
12D
330
128
100
AcDbEntity
  8
$DDT_AUDIT_GENERATED_(93)
  6
Continuous
 62
     7
100
AcDbCircle
 10
564.0406489117
 20
155.2234363984
 30
0.0
 40
230.431287594935
100
AcDbArc
 50
99.8920663505
 51
99.9966020577
  0
LINE
  5
12E
330
128
100
AcDbEntity
  8
$DDT_AUDIT_GENERATED_(93)
  6
Continuous
 62
     7
100
AcDbLine
 10
524.0401339919
 20
341.6488153496
 30
0.0
 11
524.0401339919
 21
341.1410896806
 31
0.0
  0
ARC
  5
12F
330
128
100
AcDbEntity
  8
$DDT_AUDIT_GENERATED_(93)
  6
Continuous
 62
     7
100
AcDbCircle
 10
523.9825780986
 20
341.6589906175
 30
0.0
 40
0.4999999999982664
100
AcDbArc
 50
187.6840584132
 51
259.9672228491
  0
ARC
  5
130
330
128
100
AcDbEntity
  8
$DDT_AUDIT_GENERATED_(93)
  6
Continuous
 62
     7
100
AcDbCircle
 10
523.9825794956
 20
381.6384272664
 30
0.0
 40
0.4999999999998321
100
AcDbArc
 50
100.0331285463
 51
172.3159375823
  0
LINE
  5
131
330
128
100
AcDbEntity
  8
$DDT_AUDIT_GENERATED_(93)
  6
Continuous
 62
     7
100
AcDbLine
 10
524.0401339919
 20
382.1563275994
 30
0.0
 11
524.0401339919
 21
381.6486024494
 31
0.0
  0
LINE
  5
132
330
128
100
AcDbEntity
  8
$DDT_AUDIT_GENERATED_(93)
  6
Continuous
 62
     7
100
AcDbLine
 10
524.0401339919
 20
382.1563275994
 30
0.0
 11
523.8954707123
 21
382.1307808587
 31
0.0
  0
ARC
  5
133
330
128
100
AcDbEntity
  8
$DDT_AUDIT_GENERATED_(93)
  6
Continuous
 62
     7
100
AcDbCircle
 10
672.1401339919
 20
361.6487037647
 30
0.0
 40
150.0000000000039
100
AcDbArc
 50
172.3159375823
 51
172.6215231454
  0
ARC
  5
134
330
128
100
AcDbEntity
  8
$DDT_AUDIT_GENERATED_(93)
  6
Continuous
 62
     7
100
AcDbCircle
 10
672.1401339919
 20
361.6487037647
 30
0.0
 40
150.0000000000039
100
AcDbArc
 50
187.3772136801
 51
187.6840584134
  0
LINE
  5
135
330
128
100
AcDbEntity
  8
$DDT_AUDIT_GENERATED_(93)
  6
Continuous
 62
     7
100
AcDbLine
 10
523.8954723349
 20
341.1666364909
 30
0.0
 11
524.0401339919
 21
341.1410896806
 31
0.0
  0
LINE
  5
136
330
128
100
AcDbEntity
  8
$DDT_AUDIT_GENERATED_(93)
  6
Continuous
 62
     7
100
AcDbLine
 10
524.0401339919
 20
341.6488153496
 30
0.0
 11
524.0401339919
 21
381.6486024494
 31
0.0
  0
ARC
  5
137
330
128
100
AcDbEntity
  8
$DDT_AUDIT_GENERATED_(93)
  6
Continuous
 62
     7
100
AcDbCircle
 10
563.9574914908
 20
567.5172974216
 30
0.0
 40
229.8686096850865
100
AcDbArc
 50
267.215390233
 51
267.2762985849
  0
LINE
  5
139
330
128
100
AcDbEntity
  8
$DDT_AUDIT_GENERATED_(138)
  6
Continuous
 62
     7
100
AcDbLine
 10
523.8401339919
 20
380.8987037647
 30
0.0
 11
507.0401339919
 21
380.8987037647
 31
0.0
  0
LINE
  5
13A
330
128
100
AcDbEntity
  8
$DDT_AUDIT_GENERATED_(138)
  6
Continuous
 62
     7
100
AcDbLine
 10
507.0401339919
 20
342.3987037647
 30
0.0
 11
523.8401339919
 21
342.3987037647
 31
0.0
  0
ARC
  5
13B
330
128
100
AcDbEntity
  8
$DDT_AUDIT_GENERATED_(138)
  6
Continuous
 62
     7
100
AcDbCircle
 10
523.8401339919
 20
342.5987037647
 30
0.0
 40
0.1999999999999988
100
AcDbArc
 50
270.0
 51
0.0
  0
ARC
  5
13C
330
128
100
AcDbEntity
  8
$DDT_AUDIT_GENERATED_(138)
  6
Continuous
 62
     7
100
AcDbCircle
 10
523.8401339919
 20
380.6987037647
 30
0.0
 40
0.1999999999999988
100
AcDbArc
 50
0.0
 51
90.0
  0
LINE
  5
13D
330
128
100
AcDbEntity
  8
$DDT_AUDIT_GENERATED_(B1)
  6
Continuous
 62
     7
100
AcDbLine
 10
502.8596622511
 20
333.5174517149
 30
0.0
 11
502.8596622511
 21
389.7799558146
 31
0.0
  0
LINE
  5
13E
330
128
100
AcDbEntity
  8
$DDT_AUDIT_GENERATED_(B1)
  6
Continuous
 62
     7
100
AcDbLine
 10
507.0401339919
 20
339.2349089219
 30
0.0
 11
507.0401339919
 21
384.0624986075
 31
0.0
  0
LINE
  5
13F
330
128
100
AcDbEntity
  8
$DDT_AUDIT_GENERATED_(B1)
  6
Continuous
 62
     7
100
AcDbLine
 10
474.0401339919
 20
396.0607667841
 30
0.0
 11
474.0401339919
 21
327.2366407453
 31
0.0
  0
ARC
  5
140
330
128
100
AcDbEntity
  8
$DDT_AUDIT_GENERATED_(B1)
  6
Continuous
 62
     7
100
AcDbCircle
 10
442.20872028
 20
524.0993586159
 30
0.0
 40
200.0
100
AcDbArc
 50
279.3266153984
 51
287.6531938422
  0
ARC
  5
141
330
128
100
AcDbEntity
  8
$DDT_AUDIT_GENERATED_(B1)
  6
Continuous
 62
     7
100
AcDbCircle
 10
442.20872028
 20
199.1980489135
 30
0.0
 40
200.0
100
AcDbArc
 50
72.3468061578
 51
80.6733846016
  0
ARC
  5
142
330
128
100
AcDbEntity
  8
$DDT_AUDIT_GENERATED_(B1)
  6
Continuous
 62
     7
100
AcDbCircle
 10
474.5401339919
 20
396.0607667841
 30
0.0
 40
0.4999999999999994
100
AcDbArc
 50
80.6733846016
 51
180.0
  0
ARC
  5
143
330
128
100
AcDbEntity
  8
$DDT_AUDIT_GENERATED_(B1)
  6
Continuous
 62
     7
100
AcDbCircle
 10
474.5401339919
 20
327.2366407453
 30
0.0
 40
0.5000000000000004
100
AcDbArc
 50
180.0
 51
279.3266153984
  0
ARC
  5
144
330
128
100
AcDbEntity
  8
$DDT_AUDIT_GENERATED_(B1)
  6
Continuous
 62
     7
100
AcDbCircle
 10
501.0401339919
 20
384.0624986075
 30
0.0
 40
6.000000000000005
100
AcDbArc
 50
0.0
 51
72.3468061578
  0
ARC
  5
145
330
128
100
AcDbEntity
  8
$DDT_AUDIT_GENERATED_(B1)
  6
Continuous
 62
     7
100
AcDbCircle
 10
501.0401339919
 20
339.2349089219
 30
0.0
 40
6.000000000000006
100
AcDbArc
 50
287.6531938422
 51
0.0
  0
ARC
  5
146
330
128
100
AcDbEntity
  8
$DDT_AUDIT_GENERATED_(C7)
  6
Continuous
 62
     7
100
AcDbCircle
 10
564.0401339919
 20
361.6487037647
 30
0.0
 40
24.05
100
AcDbArc
 50
19.0178648682
 51
160.9821351318
  0
ARC
  5
147
330
128
100
AcDbEntity
  8
$DDT_AUDIT_GENERATED_(C7)
  6
Continuous
 62
     7
100
AcDbCircle
 10
540.8301462187
 20
369.6486392375
 30
0.0
 40
0.4999999999998304
100
AcDbArc
 50
270.02057788
 51
340.9821351318
  0
ARC
  5
148
330
128
100
AcDbEntity
  8
$DDT_AUDIT_GENERATED_(C7)
  6
Continuous
 62
     7
100
AcDbCircle
 10
587.2501217651
 20
369.6486392375
 30
0.0
 40
0.4999999999952839
100
AcDbArc
 50
199.0178648678
 51
269.9794221202
  0
LINE
  5
149
330
128
100
AcDbEntity
  8
$DDT_AUDIT_GENERATED_(C7)
  6
Continuous
 62
     7
100
AcDbLine
 10
534.1716610167
 20
369.1240785871
 30
0.0
 11
540.8303257946
 21
369.1486392697
 31
0.0
  0
LINE
  5
14A
330
128
100
AcDbEntity
  8
$DDT_AUDIT_GENERATED_(C7)
  6
Continuous
 62
     7
100
AcDbLine
 10
587.2499421892
 20
369.1486392697
 30
0.0
 11
589.8574239077
 21
369.144303298
 31
0.0
  0
ARC
  5
14B
330
128
100
AcDbEntity
  8
$DDT_AUDIT_GENERATED_(C7)
  6
Continuous
 62
     7
100
AcDbCircle
 10
534.1821877414
 20
367.6241155249
 30
0.0
 40
1.500000000001631
100
AcDbArc
 50
90.4020945691
 51
168.6830146329
  0
ARC
  5
14C
330
128
100
AcDbEntity
  8
$DDT_AUDIT_GENERATED_(C7)
  6
Continuous
 62
     7
100
AcDbCircle
 10
589.8529739575
 20
367.6443098987
 30
0.0
 40
1.500000000000097
100
AcDbArc
 50
13.0763516677
 51
89.8300241735
  0
ARC
  5
14D
330
128
100
AcDbEntity
  8
$DDT_AUDIT_GENERATED_(C7)
  6
Continuous
 62
     7
100
AcDbCircle
 10
564.0401339919
 20
361.6487037647
 30
0.0
 40
31.95000000000001
100
AcDbArc
 50
168.6830146329
 51
191.3169853671
  0
ARC
  5
14E
330
128
100
AcDbEntity
  8
$DDT_AUDIT_GENERATED_(C7)
  6
Continuous
 62
     7
100
AcDbCircle
 10
564.0401339919
 20
361.6487037647
 30
0.0
 40
28.0
100
AcDbArc
 50
346.9236483323
 51
13.0763516677
  0
ARC
  5
14F
330
128
100
AcDbEntity
  8
$DDT_AUDIT_GENERATED_(C7)
  6
Continuous
 62
     7
100
AcDbCircle
 10
534.1821877414
 20
355.6732920046
 30
0.0
 40
1.500000000000096
100
AcDbArc
 50
191.3169853671
 51
269.5979054309
  0
ARC
  5
150
330
128
100
AcDbEntity
  8
$DDT_AUDIT_GENERATED_(C7)
  6
Continuous
 62
     7
100
AcDbCircle
 10
589.8529739575
 20
355.6530976308
 30
0.0
 40
1.500000000002981
100
AcDbArc
 50
270.1699758265
 51
346.9236483323
  0
LINE
  5
151
330
128
100
AcDbEntity
  8
$DDT_AUDIT_GENERATED_(C7)
  6
Continuous
 62
     7
100
AcDbLine
 10
540.8303257946
 20
354.1487682597
 30
0.0
 11
534.1716610167
 21
354.1733289424
 31
0.0
  0
LINE
  5
152
330
128
100
AcDbEntity
  8
$DDT_AUDIT_GENERATED_(C7)
  6
Continuous
 62
     7
100
AcDbLine
 10
589.8574239077
 20
354.1531042315
 30
0.0
 11
587.2499421892
 21
354.1487682597
 31
0.0
  0
ARC
  5
153
330
128
100
AcDbEntity
  8
$DDT_AUDIT_GENERATED_(C7)
  6
Continuous
 62
     7
100
AcDbCircle
 10
540.8301462187
 20
353.648768292
 30
0.0
 40
0.4999999999954059
100
AcDbArc
 50
19.0178648678
 51
89.9794221202
  0
ARC
  5
154
330
128
100
AcDbEntity
  8
$DDT_AUDIT_GENERATED_(C7)
  6
Continuous
 62
     7
100
AcDbCircle
 10
587.2501217651
 20
353.648768292
 30
0.0
 40
0.4999999999998438
100
AcDbArc
 50
90.02057788
 51
160.9821351318
  0
ARC
  5
155
330
128
100
AcDbEntity
  8
$DDT_AUDIT_GENERATED_(C7)
  6
Continuous
 62
     7
100
AcDbCircle
 10
564.0401339919
 20
361.6487037647
 30
0.0
 40
24.05
100
AcDbArc
 50
199.0178648682
 51
340.9821351318
  0
CIRCLE
  5
156
330
128
100
AcDbEntity
  8
$DDT_AUDIT_GENERATED_(C7)
  6
Continuous
 62
     7
100
AcDbCircle
 10
579.5422496379
 20
361.6487036345
 30
0.0
 40
1.794333601274351
  0
CIRCLE
  5
157
330
128
100
AcDbEntity
  8
$DDT_AUDIT_GENERATED_(E5)
  6
Continuous
 62
     7
100
AcDbCircle
 10
579.5401339919
 20
361.6487037647
 30
0.0
 40
1.75
  0
LINE
  5
159
330
128
100
AcDbEntity
  8
$DDT_AUDIT_GENERATED_(158)
  6
Continuous
 62
     7
100
AcDbLine
 10
565.5401339919
 20
360.7826783609
 30
0.0
 11
565.5401339919
 21
362.5147291685
 31
0.0
  0
LINE
  5
15A
330
128
100
AcDbEntity
  8
$DDT_AUDIT_GENERATED_(158)
  6
Continuous
 62
     7
100
AcDbLine
 10
564.0401339919
 20
359.9166529572
 30
0.0
 11
565.5401339919
 21
360.7826783609
 31
0.0
  0
LINE
  5
15B
330
128
100
AcDbEntity
  8
$DDT_AUDIT_GENERATED_(158)
  6
Continuous
 62
     7
100
AcDbLine
 10
562.5401339919
 20
360.7826783609
 30
0.0
 11
564.0401339919
 21
359.9166529572
 31
0.0
  0
LINE
  5
15C
330
128
100
AcDbEntity
  8
$DDT_AUDIT_GENERATED_(158)
  6
Continuous
 62
     7
100
AcDbLine
 10
562.5401339919
 20
362.5147291685
 30
0.0
 11
562.5401339919
 21
360.7826783609
 31
0.0
  0
LINE
  5
15D
330
128
100
AcDbEntity
  8
$DDT_AUDIT_GENERATED_(158)
  6
Continuous
 62
     7
100
AcDbLine
 10
564.0401339919
 20
363.3807545723
 30
0.0
 11
562.5401339919
 21
362.5147291685
 31
0.0
  0
LINE
  5
15E
330
128
100
AcDbEntity
  8
$DDT_AUDIT_GENERATED_(158)
  6
Continuous
 62
     7
100
AcDbLine
 10
565.5401339919
 20
362.5147291685
 30
0.0
 11
564.0401339919
 21
363.3807545723
 31
0.0
  0
ARC
  5
15F
330
128
100
AcDbEntity
  8
$DDT_AUDIT_GENERATED_(158)
  6
Continuous
 62
     7
100
AcDbCircle
 10
564.0401339919
 20
361.6487037647
 30
0.0
 40
1.732050807568882
100
AcDbArc
 50
270.0
 51
330.0
  0
ARC
  5
160
330
128
100
AcDbEntity
  8
$DDT_AUDIT_GENERATED_(158)
  6
Continuous
 62
     7
100
AcDbCircle
 10
564.0401339919
 20
361.6487037647
 30
0.0
 40
1.732050807568875
100
AcDbArc
 50
330.0
 51
30.0
  0
ARC
  5
161
330
128
100
AcDbEntity
  8
$DDT_AUDIT_GENERATED_(158)
  6
Continuous
 62
     7
100
AcDbCircle
 10
564.0401339919
 20
361.6487037647
 30
0.0
 40
1.732050807568882
100
AcDbArc
 50
30.0
 51
90.0
  0
ARC
  5
162
330
128
100
AcDbEntity
  8
$DDT_AUDIT_GENERATED_(158)
  6
Continuous
 62
     7
100
AcDbCircle
 10
564.0401339919
 20
361.6487037647
 30
0.0
 40
1.732050807568882
100
AcDbArc
 50
90.0
 51
150.0
  0
ARC
  5
163
330
128
100
AcDbEntity
  8
$DDT_AUDIT_GENERATED_(158)
  6
Continuous
 62
     7
100
AcDbCircle
 10
564.0401339919
 20
361.6487037647
 30
0.0
 40
1.732050807568881
100
AcDbArc
 50
150.0
 51
210.0
  0
ARC
  5
164
330
128
100
AcDbEntity
  8
$DDT_AUDIT_GENERATED_(158)
  6
Continuous
 62
     7
100
AcDbCircle
 10
564.0401339919
 20
361.6487037647
 30
0.0
 40
1.732050807568882
100
AcDbArc
 50
210.0
 51
270.0
  0
CIRCLE
  5
165
330
128
100
AcDbEntity
  8
$DDT_AUDIT_GENERATED_(158)
  6
Continuous
 62
     7
100
AcDbCircle
 10
564.0401339919
 20
361.6487037647
 30
0.0
 40
3.5
  0
ARC
  5
166
330
128
100
AcDbEntity
  8
$DDT_AUDIT_GENERATED_(E8)
  6
Continuous
 62
     7
100
AcDbCircle
 10
586.8381602223
 20
1354.1487037647
 30
0.0
 40
1000.0
100
AcDbArc
 50
270.0205628219
 51
270.1729979602
  0
ARC
  5
167
330
128
100
AcDbEntity
  8
$DDT_AUDIT_GENERATED_(E8)
  6
Continuous
 62
     7
100
AcDbCircle
 10
586.8381602223
 20
-630.8512962353
 30
0.0
 40
1000.0
100
AcDbArc
 50
89.8270020398
 51
89.9794371781
  0
ARC
  5
168
330
128
100
AcDbEntity
  8
$DDT_AUDIT_GENERATED_(E8)
  6
Continuous
 62
     7
100
AcDbCircle
 10
589.8530105707
 20
355.6532552636
 30
0.0
 40
1.500000000000024
100
AcDbArc
 50
345.4186540742
 51
346.9239982237
  0
LINE
  5
16A
330
128
100
AcDbEntity
  8
$DDT_AUDIT_GENERATED_(169)
  6
Continuous
 62
     7
100
AcDbLine
 10
577.7712473643
 20
361.6487037648
 30
0.0
 11
577.8148651117
 21
361.6487037648
 31
0.0
  0
LINE
  5
16B
330
128
100
AcDbEntity
  8
$DDT_AUDIT_GENERATED_(10E)
  6
Continuous
 62
     7
100
AcDbLine
 10
548.1401339919
 20
324.6487037647
 30
0.0
 11
575.9401339919
 21
324.6487037647
 31
0.0
  0
LINE
  5
16C
330
128
100
AcDbEntity
  8
$DDT_AUDIT_GENERATED_(10E)
  6
Continuous
 62
     7
100
AcDbLine
 10
548.8201339919
 20
321.6487037647
 30
0.0
 11
575.2601339919
 21
321.6487037647
 31
0.0
  0
LINE
  5
16D
330
128
100
AcDbEntity
  8
$DDT_AUDIT_GENERATED_(10E)
  6
Continuous
 62
     7
100
AcDbLine
 10
548.8201339919
 20
315.1487037647
 30
0.0
 11
575.2601339919
 21
315.1487037647
 31
0.0
  0
LINE
  5
16E
330
128
100
AcDbEntity
  8
$DDT_AUDIT_GENERATED_(10E)
  6
Continuous
 62
     7
100
AcDbLine
 10
549.8201339919
 20
314.1487037647
 30
0.0
 11
574.2601339919
 21
314.1487037647
 31
0.0
  0
LINE
  5
16F
330
128
100
AcDbEntity
  8
$DDT_AUDIT_GENERATED_(10E)
  6
Continuous
 62
     7
100
AcDbLine
 10
549.8201339919
 20
322.6487037647
 30
0.0
 11
574.2601339919
 21
322.6487037647
 31
0.0
  0
LINE
  5
170
330
128
100
AcDbEntity
  8
$DDT_AUDIT_GENERATED_(10E)
  6
Continuous
 62
     7
100
AcDbLine
 10
553.0401339919
 20
337.1487037647
 30
0.0
 11
571.0401339919
 21
337.1487037647
 31
0.0
  0
LINE
  5
171
330
128
100
AcDbEntity
  8
$DDT_AUDIT_GENERATED_(10E)
  6
Continuous
 62
     7
100
AcDbLine
 10
548.8201339919
 20
321.6487037647
 30
0.0
 11
548.8201339919
 21
315.1487037647
 31
0.0
  0
LINE
  5
172
330
128
100
AcDbEntity
  8
$DDT_AUDIT_GENERATED_(10E)
  6
Continuous
 62
     7
100
AcDbLine
 10
575.2601339919
 20
315.1487037647
 30
0.0
 11
575.2601339919
 21
321.6487037647
 31
0.0
  0
LINE
  5
173
330
128
100
AcDbEntity
  8
$DDT_AUDIT_GENERATED_(10E)
  6
Continuous
 62
     7
100
AcDbLine
 10
550.5401339919
 20
324.6487037647
 30
0.0
 11
550.5401339919
 21
322.6487037647
 31
0.0
  0
LINE
  5
174
330
128
100
AcDbEntity
  8
$DDT_AUDIT_GENERATED_(10E)
  6
Continuous
 62
     7
100
AcDbLine
 10
573.5401339919
 20
322.6487037647
 30
0.0
 11
573.5401339919
 21
324.6487037647
 31
0.0
  0
LINE
  5
175
330
128
100
AcDbEntity
  8
$DDT_AUDIT_GENERATED_(10E)
  6
Continuous
 62
     7
100
AcDbLine
 10
548.1401339919
 20
332.1497038648
 30
0.0
 11
548.1401339919
 21
324.6487037647
 31
0.0
  0
LINE
  5
176
330
128
100
AcDbEntity
  8
$DDT_AUDIT_GENERATED_(10E)
  6
Continuous
 62
     7
100
AcDbLine
 10
575.9401339919
 20
324.6487037647
 30
0.0
 11
575.9401339919
 21
332.1497038648
 31
0.0
  0
LINE
  5
177
330
128
100
AcDbEntity
  8
$DDT_AUDIT_GENERATED_(10E)
  6
Continuous
 62
     7
100
AcDbLine
 10
548.8201339919
 20
315.1487037647
 30
0.0
 11
549.8201339919
 21
314.1487037647
 31
0.0
  0
LINE
  5
178
330
128
100
AcDbEntity
  8
$DDT_AUDIT_GENERATED_(10E)
  6
Continuous
 62
     7
100
AcDbLine
 10
574.2601339919
 20
314.1487037647
 30
0.0
 11
575.2601339919
 21
315.1487037647
 31
0.0
  0
LINE
  5
179
330
128
100
AcDbEntity
  8
$DDT_AUDIT_GENERATED_(10E)
  6
Continuous
 62
     7
100
AcDbLine
 10
575.2601339919
 20
321.6487037647
 30
0.0
 11
574.2601339919
 21
322.6487037647
 31
0.0
  0
LINE
  5
17A
330
128
100
AcDbEntity
  8
$DDT_AUDIT_GENERATED_(10E)
  6
Continuous
 62
     7
100
AcDbLine
 10
549.8201339919
 20
322.6487037647
 30
0.0
 11
548.8201339919
 21
321.6487037647
 31
0.0
  0
LINE
  5
17B
330
128
100
AcDbEntity
  8
$DDT_AUDIT_GENERATED_(10E)
  6
Continuous
 62
     7
100
AcDbLine
 10
571.0401339919
 20
337.1487037647
 30
0.0
 11
571.0401339919
 21
338.6399554285
 31
0.0
  0
LINE
  5
17C
330
128
100
AcDbEntity
  8
$DDT_AUDIT_GENERATED_(10E)
  6
Continuous
 62
     7
100
AcDbLine
 10
553.0401339919
 20
337.9080820233
 30
0.0
 11
553.0401339919
 21
337.1487037647
 31
0.0
  0
ARC
  5
17D
330
128
100
AcDbEntity
  8
$DDT_AUDIT_GENERATED_(10E)
  6
Continuous
 62
     7
100
AcDbCircle
 10
553.1401339919
 20
332.1497038648
 30
0.0
 40
4.999999999999999
100
AcDbArc
 50
91.1459919984
 51
180.0
  0
ARC
  5
17E
330
128
100
AcDbEntity
  8
$DDT_AUDIT_GENERATED_(10E)
  6
Continuous
 62
     7
100
AcDbCircle
 10
570.9401339919
 20
332.1497038648
 30
0.0
 40
5.000000000000002
100
AcDbArc
 50
0.0
 51
88.8540080016
  0
LINE
  5
17F
330
128
100
AcDbEntity
  8
$DDT_AUDIT_GENERATED_(10E)
  6
Continuous
 62
     7
100
AcDbLine
 10
574.1001339919
 20
322.6487037647
 30
0.0
 11
574.1001339919
 21
315.1487037647
 31
0.0
  0
LINE
  5
180
330
128
100
AcDbEntity
  8
$DDT_AUDIT_GENERATED_(10E)
  6
Continuous
 62
     7
100
AcDbLine
 10
549.9801339919
 20
322.6487037647
 30
0.0
 11
549.9801339919
 21
315.1487037647
 31
0.0
  0
ENDBLK
  5
182
330
128
100
AcDbEntity
  8
0
100
AcDbBlockEnd
  0
BLOCK
  5
209
330
183
100
AcDbEntity
  8
0
100
AcDbBlockBegin
  2
SE2
 70
     0
 10
0.0
 20
0.0
 30
0.0
  3
SE2
  1

  0
LINE
  5
185
330
183
100
AcDbEntity
  8
$DDT_AUDIT_GENERATED_(93)
  6
Continuous
 62
     7
100
AcDbLine
 10
325.7565669722
 20
173.85
 30
0.0
 11
325.7565669722
 21
134.3272572908
 31
0.0
  0
LINE
  5
186
330
183
100
AcDbEntity
  8
$DDT_AUDIT_GENERATED_(93)
  6
Continuous
 62
     7
100
AcDbLine
 10
325.7565669722
 20
134.3272572908
 30
0.0
 11
325.7565669722
 21
110.8536969591
 31
0.0
  0
LINE
  5
187
330
183
100
AcDbEntity
  8
$DDT_AUDIT_GENERATED_(93)
  6
Continuous
 62
     7
100
AcDbLine
 10
113.7565669722
 20
134.3272572908
 30
0.0
 11
113.7565669722
 21
173.8500000168
 31
0.0
  0
LINE
  5
188
330
183
100
AcDbEntity
  8
$DDT_AUDIT_GENERATED_(93)
  6
Continuous
 62
     7
100
AcDbLine
 10
113.7565669722
 20
110.8536969577
 30
0.0
 11
113.7565669722
 21
134.3272572908
 31
0.0
  0
LINE
  5
189
330
183
100
AcDbEntity
  8
$DDT_AUDIT_GENERATED_(93)
  6
Continuous
 62
     7
100
AcDbLine
 10
114.2565669722
 20
134.3267441105
 30
0.0
 11
325.2565669722
 21
134.3267441105
 31
0.0
  0
LINE
  5
18A
330
183
100
AcDbEntity
  8
$DDT_AUDIT_GENERATED_(93)
  6
Continuous
 62
     7
100
AcDbLine
 10
325.2565669722
 20
173.9358963461
 30
0.0
 11
114.2565669722
 21
173.9358963461
 31
0.0
  0
ELLIPSE
  5
18B
330
183
100
AcDbEntity
  8
$DDT_AUDIT_GENERATED_(93)
  6
Continuous
 62
     7
100
AcDbEllipse
 10
114.2565669722
 20
110.8536976514
 30
0.0
 11
0.4999956300920927
 21
0.002090427904638537
 31
0.0
210
0.0
220
0.0
230
1.0
 40
0.9998344136
 41
3.137412480782504
 42
4.70820880468211
  0
ELLIPSE
  5
18C
330
183
100
AcDbEntity
  8
$DDT_AUDIT_GENERATED_(93)
  6
Continuous
 62
     7
100
AcDbEllipse
 10
325.2565669722
 20
110.8536969591
 30
0.0
 11
0.4999999999999311
 21
6.661338147750939E-13
 31
0.0
210
0.0
220
0.0
230
1.0
 40
0.9998330292
 41
4.712388980383357
 42
6.283185307179586
  0
LINE
  5
18D
330
183
100
AcDbEntity
  8
$DDT_AUDIT_GENERATED_(93)
  6
Continuous
 62
     7
100
AcDbLine
 10
113.7565669722
 20
173.85
 30
0.0
 11
113.7565669722
 21
174.35
 31
0.0
  0
LINE
  5
18E
330
183
100
AcDbEntity
  8
$DDT_AUDIT_GENERATED_(93)
  6
Continuous
 62
     7
100
AcDbLine
 10
325.7565669722
 20
174.35
 30
0.0
 11
325.7565669722
 21
173.85
 31
0.0
  0
LINE
  5
18F
330
183
100
AcDbEntity
  8
$DDT_AUDIT_GENERATED_(93)
  6
Continuous
 62
     7
100
AcDbLine
 10
325.7565669722
 20
174.35
 30
0.0
 11
325.2565669722
 21
174.35
 31
0.0
  0
ARC
  5
190
330
183
100
AcDbEntity
  8
$DDT_AUDIT_GENERATED_(93)
  6
Continuous
 62
     7
100
AcDbCircle
 10
258.8748614296
 20
172.9449972888
 30
0.0
 40
2.058658302403272
100
AcDbArc
 50
48.8296193096
 51
72.0150496315
  0
LINE
  5
191
330
183
100
AcDbEntity
  8
$DDT_AUDIT_GENERATED_(93)
  6
Continuous
 62
     7
100
AcDbLine
 10
260.4136293481
 20
174.35
 30
0.0
 11
325.2565669722
 21
174.35
 31
0.0
  0
LINE
  5
192
330
183
100
AcDbEntity
  8
$DDT_AUDIT_GENERATED_(93)
  6
Continuous
 62
     7
100
AcDbLine
 10
260.2300770297
 20
174.4946632796
 30
0.0
 11
260.4136293481
 21
174.35
 31
0.0
  0
ARC
  5
193
330
183
100
AcDbEntity
  8
$DDT_AUDIT_GENERATED_(93)
  6
Continuous
 62
     7
100
AcDbCircle
 10
299.9539593752
 20
391.8050282116
 30
0.0
 40
220.6402831911383
100
AcDbArc
 50
257.6749337681
 51
259.4379419655
  0
ARC
  5
194
330
183
100
AcDbEntity
  8
$DDT_AUDIT_GENERATED_(93)
  6
Continuous
 62
     7
100
AcDbCircle
 10
180.6376785063
 20
172.9460438827
 30
0.0
 40
2.057479451422076
100
AcDbArc
 50
107.9782159914
 51
131.1771150676
  0
LINE
  5
195
330
183
100
AcDbEntity
  8
$DDT_AUDIT_GENERATED_(93)
  6
Continuous
 62
     7
100
AcDbLine
 10
114.2565669722
 20
174.35
 30
0.0
 11
113.7565669722
 21
174.35
 31
0.0
  0
LINE
  5
196
330
183
100
AcDbEntity
  8
$DDT_AUDIT_GENERATED_(93)
  6
Continuous
 62
     7
100
AcDbLine
 10
179.0995045964
 20
174.35
 30
0.0
 11
179.2830569148
 21
174.4946632796
 31
0.0
  0
ARC
  5
197
330
183
100
AcDbEntity
  8
$DDT_AUDIT_GENERATED_(93)
  6
Continuous
 62
     7
100
AcDbCircle
 10
139.5591741771
 20
391.8050301512
 30
0.0
 40
220.6402851697983
100
AcDbArc
 50
280.5620580423
 51
282.3250662238
  0
LINE
  5
198
330
183
100
AcDbEntity
  8
$DDT_AUDIT_GENERATED_(93)
  6
Continuous
 62
     7
100
AcDbLine
 10
114.2565669722
 20
174.35
 30
0.0
 11
179.0995045964
 21
174.35
 31
0.0
  0
LINE
  5
199
330
183
100
AcDbEntity
  8
$DDT_AUDIT_GENERATED_(93)
  6
Continuous
 62
     7
100
AcDbLine
 10
114.2565669722
 20
110.3499999871
 30
0.0
 11
325.2565669722
 21
110.3499999871
 31
0.0
  0
LINE
  5
19A
330
183
100
AcDbEntity
  8
$DDT_AUDIT_GENERATED_(93)
  6
Continuous
 62
     7
100
AcDbLine
 10
252.8922718765
 20
176.25
 30
0.0
 11
186.620862068
 21
176.25
 31
0.0
  0
LINE
  5
19B
330
183
100
AcDbEntity
  8
$DDT_AUDIT_GENERATED_(A2)
  6
Continuous
 62
     7
100
AcDbLine
 10
113.7565669722
 20
157.85
 30
0.0
 11
113.7565669722
 21
110.85
 31
0.0
  0
LINE
  5
19C
330
183
100
AcDbEntity
  8
$DDT_AUDIT_GENERATED_(A2)
  6
Continuous
 62
     7
100
AcDbLine
 10
105.7565669722
 20
157.85
 30
0.0
 11
105.7565669722
 21
110.85
 31
0.0
  0
LINE
  5
19D
330
183
100
AcDbEntity
  8
$DDT_AUDIT_GENERATED_(A2)
  6
Continuous
 62
     7
100
AcDbLine
 10
106.2565669722
 20
110.35
 30
0.0
 11
113.2565669722
 21
110.35
 31
0.0
  0
LINE
  5
19E
330
183
100
AcDbEntity
  8
$DDT_AUDIT_GENERATED_(A2)
  6
Continuous
 62
     7
100
AcDbLine
 10
113.2565669722
 20
158.35
 30
0.0
 11
106.2565669722
 21
158.35
 31
0.0
  0
ARC
  5
19F
330
183
100
AcDbEntity
  8
$DDT_AUDIT_GENERATED_(A2)
  6
Continuous
 62
     7
100
AcDbCircle
 10
113.2565669722
 20
157.85
 30
0.0
 40
0.5000000000000004
100
AcDbArc
 50
0.0
 51
90.0
  0
ARC
  5
1A0
330
183
100
AcDbEntity
  8
$DDT_AUDIT_GENERATED_(A2)
  6
Continuous
 62
     7
100
AcDbCircle
 10
113.2565669722
 20
110.85
 30
0.0
 40
0.5000000000000004
100
AcDbArc
 50
270.0
 51
0.0
  0
LINE
  5
1A1
330
183
100
AcDbEntity
  8
$DDT_AUDIT_GENERATED_(A2)
  6
Continuous
 62
     7
100
AcDbLine
 10
105.2565669722
 20
154.5
 30
0.0
 11
105.0565669722
 21
154.5
 31
0.0
  0
LINE
  5
1A2
330
183
100
AcDbEntity
  8
$DDT_AUDIT_GENERATED_(A2)
  6
Continuous
 62
     7
100
AcDbLine
 10
105.0565669722
 20
114.2
 30
0.0
 11
105.2565669722
 21
114.2
 31
0.0
  0
ARC
  5
1A3
330
183
100
AcDbEntity
  8
$DDT_AUDIT_GENERATED_(A2)
  6
Continuous
 62
     7
100
AcDbCircle
 10
106.2565669722
 20
110.85
 30
0.0
 40
0.5000000000000004
100
AcDbArc
 50
180.0
 51
270.0
  0
ARC
  5
1A4
330
183
100
AcDbEntity
  8
$DDT_AUDIT_GENERATED_(A2)
  6
Continuous
 62
     7
100
AcDbCircle
 10
106.2565669722
 20
157.85
 30
0.0
 40
0.5000000000000004
100
AcDbArc
 50
90.0
 51
180.0
  0
ARC
  5
1A5
330
183
100
AcDbEntity
  8
$DDT_AUDIT_GENERATED_(A2)
  6
Continuous
 62
     7
100
AcDbCircle
 10
105.2565669722
 20
113.7
 30
0.0
 40
0.5000000000000004
100
AcDbArc
 50
0.0
 51
90.0
  0
ARC
  5
1A6
330
183
100
AcDbEntity
  8
$DDT_AUDIT_GENERATED_(A2)
  6
Continuous
 62
     7
100
AcDbCircle
 10
105.2565669722
 20
155.0
 30
0.0
 40
0.5000000000000004
100
AcDbArc
 50
270.0
 51
0.0
  0
LINE
  5
1A7
330
183
100
AcDbEntity
  8
$DDT_AUDIT_GENERATED_(138)
  6
Continuous
 62
     7
100
AcDbLine
 10
314.0065669722
 20
174.55
 30
0.0
 11
314.0065669722
 21
191.35
 31
0.0
  0
LINE
  5
1A8
330
183
100
AcDbEntity
  8
$DDT_AUDIT_GENERATED_(138)
  6
Continuous
 62
     7
100
AcDbLine
 10
275.5065669722
 20
191.35
 30
0.0
 11
275.5065669722
 21
174.55
 31
0.0
  0
ARC
  5
1A9
330
183
100
AcDbEntity
  8
$DDT_AUDIT_GENERATED_(138)
  6
Continuous
 62
     7
100
AcDbCircle
 10
275.7065669722
 20
174.55
 30
0.0
 40
0.1999999999999988
100
AcDbArc
 50
180.0
 51
270.0
  0
ARC
  5
1AA
330
183
100
AcDbEntity
  8
$DDT_AUDIT_GENERATED_(138)
  6
Continuous
 62
     7
100
AcDbCircle
 10
313.8065669722
 20
174.55
 30
0.0
 40
0.2000000000000057
100
AcDbArc
 50
270.0
 51
0.0
  0
LINE
  5
1AB
330
183
100
AcDbEntity
  8
$DDT_AUDIT_GENERATED_(B1)
  6
Continuous
 62
     7
100
AcDbLine
 10
266.6253149224
 20
195.5304717409
 30
0.0
 11
322.8878190221
 21
195.5304717409
 31
0.0
  0
LINE
  5
1AC
330
183
100
AcDbEntity
  8
$DDT_AUDIT_GENERATED_(B1)
  6
Continuous
 62
     7
100
AcDbLine
 10
272.3427721294
 20
191.35
 30
0.0
 11
317.170361815
 21
191.35
 31
0.0
  0
LINE
  5
1AD
330
183
100
AcDbEntity
  8
$DDT_AUDIT_GENERATED_(B1)
  6
Continuous
 62
     7
100
AcDbLine
 10
260.3445039528
 20
224.35
 30
0.0
 11
329.1686299916
 21
224.35
 31
0.0
  0
ARC
  5
1AE
330
183
100
AcDbEntity
  8
$DDT_AUDIT_GENERATED_(B1)
  6
Continuous
 62
     7
100
AcDbCircle
 10
457.2072218234
 20
256.1814137119
 30
0.0
 40
200.0
100
AcDbArc
 50
189.3266153984
 51
197.6531938422
  0
ARC
  5
1AF
330
183
100
AcDbEntity
  8
$DDT_AUDIT_GENERATED_(B1)
  6
Continuous
 62
     7
100
AcDbCircle
 10
132.305912121
 20
256.1814137119
 30
0.0
 40
200.0
100
AcDbArc
 50
342.3468061578
 51
350.6733846016
  0
ARC
  5
1B0
330
183
100
AcDbEntity
  8
$DDT_AUDIT_GENERATED_(B1)
  6
Continuous
 62
     7
100
AcDbCircle
 10
329.1686299916
 20
223.85
 30
0.0
 40
0.4999999999999926
100
AcDbArc
 50
350.6733846016
 51
90.0
  0
ARC
  5
1B1
330
183
100
AcDbEntity
  8
$DDT_AUDIT_GENERATED_(B1)
  6
Continuous
 62
     7
100
AcDbCircle
 10
260.3445039528
 20
223.85
 30
0.0
 40
0.5000000000000004
100
AcDbArc
 50
90.0
 51
189.3266153984
  0
ARC
  5
1B2
330
183
100
AcDbEntity
  8
$DDT_AUDIT_GENERATED_(B1)
  6
Continuous
 62
     7
100
AcDbCircle
 10
317.170361815
 20
197.35
 30
0.0
 40
5.999999999999998
100
AcDbArc
 50
270.0
 51
342.3468061578
  0
ARC
  5
1B3
330
183
100
AcDbEntity
  8
$DDT_AUDIT_GENERATED_(B1)
  6
Continuous
 62
     7
100
AcDbCircle
 10
272.3427721294
 20
197.35
 30
0.0
 40
6.000000000000011
100
AcDbArc
 50
197.6531938422
 51
270.0
  0
LINE
  5
1B4
330
183
100
AcDbEntity
  8
$DDT_AUDIT_GENERATED_(138)
  6
Continuous
 62
     7
100
AcDbLine
 10
164.0065669722
 20
174.55
 30
0.0
 11
164.0065669722
 21
191.35
 31
0.0
  0
LINE
  5
1B5
330
183
100
AcDbEntity
  8
$DDT_AUDIT_GENERATED_(138)
  6
Continuous
 62
     7
100
AcDbLine
 10
125.5065669722
 20
191.35
 30
0.0
 11
125.5065669722
 21
174.55
 31
0.0
  0
ARC
  5
1B6
330
183
100
AcDbEntity
  8
$DDT_AUDIT_GENERATED_(138)
  6
Continuous
 62
     7
100
AcDbCircle
 10
125.7065669722
 20
174.55
 30
0.0
 40
0.2000000000000057
100
AcDbArc
 50
180.0
 51
270.0
  0
ARC
  5
1B7
330
183
100
AcDbEntity
  8
$DDT_AUDIT_GENERATED_(138)
  6
Continuous
 62
     7
100
AcDbCircle
 10
163.8065669722
 20
174.55
 30
0.0
 40
0.1999999999999919
100
AcDbArc
 50
270.0
 51
0.0
  0
LINE
  5
1B8
330
183
100
AcDbEntity
  8
$DDT_AUDIT_GENERATED_(B1)
  6
Continuous
 62
     7
100
AcDbLine
 10
172.8878190221
 20
195.5304717409
 30
0.0
 11
116.6253149224
 21
195.5304717409
 31
0.0
  0
LINE
  5
1B9
330
183
100
AcDbEntity
  8
$DDT_AUDIT_GENERATED_(B1)
  6
Continuous
 62
     7
100
AcDbLine
 10
167.170361815
 20
191.35
 30
0.0
 11
122.3427721294
 21
191.35
 31
0.0
  0
LINE
  5
1BA
330
183
100
AcDbEntity
  8
$DDT_AUDIT_GENERATED_(B1)
  6
Continuous
 62
     7
100
AcDbLine
 10
179.1686299916
 20
224.35
 30
0.0
 11
110.3445039528
 21
224.35
 31
0.0
  0
ARC
  5
1BB
330
183
100
AcDbEntity
  8
$DDT_AUDIT_GENERATED_(B1)
  6
Continuous
 62
     7
100
AcDbCircle
 10
307.2072218234
 20
256.1814137119
 30
0.0
 40
200.0
100
AcDbArc
 50
189.3266153984
 51
197.6531938422
  0
ARC
  5
1BC
330
183
100
AcDbEntity
  8
$DDT_AUDIT_GENERATED_(B1)
  6
Continuous
 62
     7
100
AcDbCircle
 10
-17.694087879
 20
256.1814137119
 30
0.0
 40
200.0000000000001
100
AcDbArc
 50
342.3468061578
 51
350.6733846016
  0
ARC
  5
1BD
330
183
100
AcDbEntity
  8
$DDT_AUDIT_GENERATED_(B1)
  6
Continuous
 62
     7
100
AcDbCircle
 10
179.1686299916
 20
223.85
 30
0.0
 40
0.4999999999999994
100
AcDbArc
 50
350.6733846016
 51
90.0
  0
ARC
  5
1BE
330
183
100
AcDbEntity
  8
$DDT_AUDIT_GENERATED_(B1)
  6
Continuous
 62
     7
100
AcDbCircle
 10
110.3445039528
 20
223.85
 30
0.0
 40
0.5000000000000004
100
AcDbArc
 50
90.0
 51
189.3266153984
  0
ARC
  5
1BF
330
183
100
AcDbEntity
  8
$DDT_AUDIT_GENERATED_(B1)
  6
Continuous
 62
     7
100
AcDbCircle
 10
167.170361815
 20
197.35
 30
0.0
 40
5.999999999999998
100
AcDbArc
 50
270.0
 51
342.3468061578
  0
ARC
  5
1C0
330
183
100
AcDbEntity
  8
$DDT_AUDIT_GENERATED_(B1)
  6
Continuous
 62
     7
100
AcDbCircle
 10
122.3427721294
 20
197.35
 30
0.0
 40
6.000000000000006
100
AcDbArc
 50
197.6531938422
 51
270.0
  0
LINE
  5
1C1
330
183
100
AcDbEntity
  8
$DDT_AUDIT_GENERATED_(BA)
  6
Continuous
 62
     7
100
AcDbLine
 10
325.7565669722
 20
157.85
 30
0.0
 11
325.7565669722
 21
110.85
 31
0.0
  0
LINE
  5
1C2
330
183
100
AcDbEntity
  8
$DDT_AUDIT_GENERATED_(BA)
  6
Continuous
 62
     7
100
AcDbLine
 10
333.7565669722
 20
157.85
 30
0.0
 11
333.7565669722
 21
110.85
 31
0.0
  0
LINE
  5
1C3
330
183
100
AcDbEntity
  8
$DDT_AUDIT_GENERATED_(BA)
  6
Continuous
 62
     7
100
AcDbLine
 10
326.2565669722
 20
110.35
 30
0.0
 11
333.2565669722
 21
110.35
 31
0.0
  0
LINE
  5
1C4
330
183
100
AcDbEntity
  8
$DDT_AUDIT_GENERATED_(BA)
  6
Continuous
 62
     7
100
AcDbLine
 10
333.2565669722
 20
158.35
 30
0.0
 11
326.2565669722
 21
158.35
 31
0.0
  0
LINE
  5
1C5
330
183
100
AcDbEntity
  8
$DDT_AUDIT_GENERATED_(BA)
  6
Continuous
 62
     7
100
AcDbLine
 10
334.2565669722
 20
114.2
 30
0.0
 11
334.8765669722
 21
114.2
 31
0.0
  0
LINE
  5
1C6
330
183
100
AcDbEntity
  8
$DDT_AUDIT_GENERATED_(BA)
  6
Continuous
 62
     7
100
AcDbLine
 10
334.8765669722
 20
154.5
 30
0.0
 11
334.2565669722
 21
154.5
 31
0.0
  0
ARC
  5
1C7
330
183
100
AcDbEntity
  8
$DDT_AUDIT_GENERATED_(BA)
  6
Continuous
 62
     7
100
AcDbCircle
 10
326.2565669722
 20
110.85
 30
0.0
 40
0.5000000000000004
100
AcDbArc
 50
180.0
 51
270.0
  0
ARC
  5
1C8
330
183
100
AcDbEntity
  8
$DDT_AUDIT_GENERATED_(BA)
  6
Continuous
 62
     7
100
AcDbCircle
 10
326.2565669722
 20
157.85
 30
0.0
 40
0.5000000000000004
100
AcDbArc
 50
90.0
 51
180.0
  0
ARC
  5
1C9
330
183
100
AcDbEntity
  8
$DDT_AUDIT_GENERATED_(BA)
  6
Continuous
 62
     7
100
AcDbCircle
 10
334.2565669722
 20
155.0
 30
0.0
 40
0.5000000000000004
100
AcDbArc
 50
180.0
 51
270.0
  0
ARC
  5
1CA
330
183
100
AcDbEntity
  8
$DDT_AUDIT_GENERATED_(BA)
  6
Continuous
 62
     7
100
AcDbCircle
 10
334.2565669722
 20
113.7
 30
0.0
 40
0.5000000000000004
100
AcDbArc
 50
90.0
 51
180.0
  0
ARC
  5
1CB
330
183
100
AcDbEntity
  8
$DDT_AUDIT_GENERATED_(BA)
  6
Continuous
 62
     7
100
AcDbCircle
 10
333.2565669722
 20
157.85
 30
0.0
 40
0.5000000000000004
100
AcDbArc
 50
0.0
 51
90.0
  0
ARC
  5
1CC
330
183
100
AcDbEntity
  8
$DDT_AUDIT_GENERATED_(BA)
  6
Continuous
 62
     7
100
AcDbCircle
 10
333.2565669722
 20
110.85
 30
0.0
 40
0.5000000000000004
100
AcDbArc
 50
270.0
 51
0.0
  0
LINE
  5
1CD
330
183
100
AcDbEntity
  8
$DDT_AUDIT_GENERATED_(C7)
  6
Continuous
 62
     7
100
AcDbLine
 10
105.0565669722
 20
157.0872792646
 30
0.0
 11
105.0565669722
 21
111.6127207354
 31
0.0
  0
LINE
  5
1CE
330
183
100
AcDbEntity
  8
$DDT_AUDIT_GENERATED_(C7)
  6
Continuous
 62
     7
100
AcDbLine
 10
105.0565669722
 20
157.0872792646
 30
0.0
 11
55.9206579259
 21
157.0872792646
 31
0.0
  0
LINE
  5
1CF
330
183
100
AcDbEntity
  8
$DDT_AUDIT_GENERATED_(C7)
  6
Continuous
 62
     7
100
AcDbLine
 10
105.0565669722
 20
157.5598081973
 30
0.0
 11
105.0565669722
 21
157.0872792646
 31
0.0
  0
LINE
  5
1D0
330
183
100
AcDbEntity
  8
$DDT_AUDIT_GENERATED_(C7)
  6
Continuous
 62
     7
100
AcDbLine
 10
105.0565669722
 20
111.1401918027
 30
0.0
 11
105.0565669722
 21
108.5327100843
 31
0.0
  0
LINE
  5
1D1
330
183
100
AcDbEntity
  8
$DDT_AUDIT_GENERATED_(C7)
  6
Continuous
 62
     7
100
AcDbLine
 10
105.0565669722
 20
111.1401918027
 30
0.0
 11
55.9680478119
 21
111.1401918027
 31
0.0
  0
LINE
  5
1D2
330
183
100
AcDbEntity
  8
$DDT_AUDIT_GENERATED_(C7)
  6
Continuous
 62
     7
100
AcDbLine
 10
105.0565669722
 20
111.6127207354
 30
0.0
 11
105.0565669722
 21
111.1401918027
 31
0.0
  0
LINE
  5
1D3
330
183
100
AcDbEntity
  8
$DDT_AUDIT_GENERATED_(C7)
  6
Continuous
 62
     7
100
AcDbLine
 10
105.0565669722
 20
107.0760558855
 30
0.0
 11
56.0594323076
 21
107.0760558855
 31
0.0
  0
LINE
  5
1D4
330
183
100
AcDbEntity
  8
$DDT_AUDIT_GENERATED_(C7)
  6
Continuous
 62
     7
100
AcDbLine
 10
105.0565669722
 20
108.5327100843
 30
0.0
 11
105.0565669722
 21
107.0760558855
 31
0.0
  0
LINE
  5
1D5
330
183
100
AcDbEntity
  8
$DDT_AUDIT_GENERATED_(C7)
  6
Continuous
 62
     7
100
AcDbLine
 10
105.0565669722
 20
159.9968852369
 30
0.0
 11
105.0565669722
 21
157.5598081973
 31
0.0
  0
LINE
  5
1D6
330
183
100
AcDbEntity
  8
$DDT_AUDIT_GENERATED_(C7)
  6
Continuous
 62
     7
100
AcDbLine
 10
105.0565669722
 20
161.4890741583
 30
0.0
 11
105.0565669722
 21
162.1402340323
 31
0.0
  0
LINE
  5
1D7
330
183
100
AcDbEntity
  8
$DDT_AUDIT_GENERATED_(C7)
  6
Continuous
 62
     7
100
AcDbLine
 10
105.0565669722
 20
161.4890741583
 30
0.0
 11
105.0565669722
 21
159.9968852369
 31
0.0
  0
LINE
  5
1D8
330
183
100
AcDbEntity
  8
$DDT_AUDIT_GENERATED_(C7)
  6
Continuous
 62
     7
100
AcDbLine
 10
105.0565669722
 20
107.0760558855
 30
0.0
 11
105.0565669722
 21
106.35
 31
0.0
  0
LINE
  5
1D9
330
183
100
AcDbEntity
  8
$DDT_AUDIT_GENERATED_(C7)
  6
Continuous
 62
     7
100
AcDbLine
 10
54.4214397962
 20
112.9850642561
 30
0.0
 11
54.4214397962
 21
155.7149357439
 31
0.0
  0
ARC
  5
1DA
330
183
100
AcDbEntity
  8
$DDT_AUDIT_GENERATED_(C7)
  6
Continuous
 62
     7
100
AcDbCircle
 10
59.8641437259
 20
-52.0549521093
 30
0.0
 40
218.9107875027557
100
AcDbArc
 50
78.0860632512
 51
79.7149062644
  0
LINE
  5
1DB
330
183
100
AcDbEntity
  8
$DDT_AUDIT_GENERATED_(C7)
  6
Continuous
 62
     7
100
AcDbLine
 10
54.1854254286
 20
120.9192431002
 30
0.0
 11
54.2774200532
 21
116.7674650412
 31
0.0
  0
LINE
  5
1DC
330
183
100
AcDbEntity
  8
$DDT_AUDIT_GENERATED_(C7)
  6
Continuous
 62
     7
100
AcDbLine
 10
62.0565669722
 20
166.3
 30
0.0
 11
56.2205923335
 21
166.3
 31
0.0
  0
SPLINE
  5
1DD
330
183
100
AcDbEntity
  8
$DDT_AUDIT_GENERATED_(C7)
  6
Continuous
 62
     7
100
AcDbSpline
210
0.0
220
0.0
230
1.0
 70
     8
 71
     3
 72
    16
 73
    12
 74
     0
 42
0.0000000002769543
 43
0.0000000001
 40
0.0
 40
0.0
 40
0.0
 40
0.0
 40
0.1192079578597925
 40
0.2325631190169493
 40
0.3393641005860627
 40
0.4403129970714404
 40
0.5360989040967253
 40
0.6606089432608172
 40
0.7783361986432571
 40
0.8909312282598588
 40
1.0
 40
1.0
 40
1.0
 40
1.0
 10
98.003427883161
 20
163.5802857170507
 30
0.0
 10
96.44779324138446
 20
163.8457222590173
 30
0.0
 10
93.89169683874898
 20
164.2772406878872
 30
0.0
 10
89.76901257734815
 20
164.8594130935042
 30
0.0
 10
85.95046310590973
 20
165.3119014370676
 30
0.0
 10
82.3086769430452
 20
165.6604583159051
 30
0.0
 10
78.45538054459166
 20
165.9452733914129
 30
0.0
 10
74.38517759908133
 20
166.1485515770042
 30
0.0
 10
70.13930255318665
 20
166.26193854609
 30
0.0
 10
65.97403209282359
 20
166.2993965837005
 30
0.0
 10
63.50045824265682
 20
166.3009484409795
 30
0.0
 10
62.05656697222353
 20
166.3000000000002
 30
0.0
  0
LINE
  5
1DE
330
183
100
AcDbEntity
  8
$DDT_AUDIT_GENERATED_(C7)
  6
Continuous
 62
     7
100
AcDbLine
 10
56.0594323076
 20
106.35
 30
0.0
 11
105.0565669722
 21
106.35
 31
0.0
  0
ARC
  5
1DF
330
183
100
AcDbEntity
  8
$DDT_AUDIT_GENERATED_(C7)
  6
Continuous
 62
     7
100
AcDbCircle
 10
754.0565669722
 20
134.35
 30
0.0
 40
700.0000000000001
100
AcDbArc
 50
181.4373141524
 51
182.17423425
  0
ARC
  5
1E0
330
183
100
AcDbEntity
  8
$DDT_AUDIT_GENERATED_(C7)
  6
Continuous
 62
     7
100
AcDbCircle
 10
754.0565669722
 20
134.35
 30
0.0
 40
699.9999999999999
100
AcDbArc
 50
180.3247770746
 51
181.0995915714
  0
ARC
  5
1E1
330
183
100
AcDbEntity
  8
$DDT_AUDIT_GENERATED_(C7)
  6
Continuous
 62
     7
100
AcDbCircle
 10
754.0565669722
 20
134.35
 30
0.0
 40
700.0000000000001
100
AcDbArc
 50
177.5014895548
 51
179.6752229254
  0
ARC
  5
1E2
330
183
100
AcDbEntity
  8
$DDT_AUDIT_GENERATED_(C7)
  6
Continuous
 62
     7
100
AcDbCircle
 10
56.2205923335
 20
164.8
 30
0.0
 40
1.500000000000005
100
AcDbArc
 50
90.0
 51
177.5014895547
  0
ARC
  5
1E3
330
183
100
AcDbEntity
  8
$DDT_AUDIT_GENERATED_(C7)
  6
Continuous
 62
     7
100
AcDbCircle
 10
56.0594323076
 20
107.85
 30
0.0
 40
1.499999999999867
100
AcDbArc
 50
182.1742342501
 51
270.0
  0
SPLINE
  5
1E4
330
183
100
AcDbEntity
  8
$DDT_AUDIT_GENERATED_(C7)
  6
Continuous
 62
     7
100
AcDbSpline
210
0.0
220
0.0
230
1.0
 70
     8
 71
     3
 72
    14
 73
    10
 74
     0
 42
0.0000000092762812
 43
0.0000000001
 40
0.0
 40
0.0
 40
0.0
 40
0.0
 40
0.0582202055928215
 40
0.3142265213111626
 40
0.5254204055038223
 40
0.6866211081397323
 40
0.7785530342507434
 40
0.8357535893104356
 40
0.8404347524838832
 40
0.8404347524838832
 40
0.8404347524838832
 40
0.8404347524838832
 10
98.94999491680717
 20
163.3391890977185
 30
0.0
 10
98.9223697561253
 20
163.3441357932153
 30
0.0
 10
98.79463380714694
 20
163.3670523183781
 30
0.0
 10
98.56162462461228
 20
163.4119247568601
 30
0.0
 10
98.31268986660923
 20
163.4634633376993
 30
0.0
 10
98.15544924566343
 20
163.4994522938599
 30
0.0
 10
98.08282162512363
 20
163.5182770042737
 30
0.0
 10
98.06386355575759
 20
163.5242419161388
 30
0.0
 10
98.06345418132764
 20
163.5243914146154
 30
0.0
 10
98.06346875798961
 20
163.5243871267058
 30
0.0
  0
LINE
  5
1E5
330
183
100
AcDbEntity
  8
$DDT_AUDIT_GENERATED_(C7)
  6
Continuous
 62
     7
100
AcDbLine
 10
54.0678080042
 20
138.3161787322
 30
0.0
 11
54.0678080042
 21
130.3838212678
 31
0.0
  0
LINE
  5
1E6
330
183
100
AcDbEntity
  8
$DDT_AUDIT_GENERATED_(E5)
  6
Continuous
 62
     7
100
AcDbLine
 10
54.1977048115
 20
120.2939358702
 30
0.0
 11
54.261944853
 21
117.3947339196
 31
0.0
  0
ARC
  5
1E7
330
183
100
AcDbEntity
  8
$DDT_AUDIT_GENERATED_(E5)
  6
Continuous
 62
     7
100
AcDbCircle
 10
754.0565669722
 20
134.35
 30
0.0
 40
700.0000000000003
100
AcDbArc
 50
181.1514791503
 51
181.389347431
  0
LINE
  5
1E8
330
183
100
AcDbEntity
  8
$DDT_AUDIT_GENERATED_(E8)
  6
Continuous
 62
     7
100
AcDbLine
 10
334.8765669722
 20
111.6654991545
 30
0.0
 11
334.8765669722
 21
157.0345008455
 31
0.0
  0
LINE
  5
1E9
330
183
100
AcDbEntity
  8
$DDT_AUDIT_GENERATED_(E8)
  6
Continuous
 62
     7
100
AcDbLine
 10
334.8765669722
 20
111.6654991545
 30
0.0
 11
384.0140892413
 21
111.6654991545
 31
0.0
  0
LINE
  5
1EA
330
183
100
AcDbEntity
  8
$DDT_AUDIT_GENERATED_(E8)
  6
Continuous
 62
     7
100
AcDbLine
 10
334.8765669722
 20
111.1930848313
 30
0.0
 11
334.8765669722
 21
108.5325943521
 31
0.0
  0
LINE
  5
1EB
330
183
100
AcDbEntity
  8
$DDT_AUDIT_GENERATED_(E8)
  6
Continuous
 62
     7
100
AcDbLine
 10
334.8765669722
 20
111.1930848313
 30
0.0
 11
334.8765669722
 21
111.6654991545
 31
0.0
  0
LINE
  5
1EC
330
183
100
AcDbEntity
  8
$DDT_AUDIT_GENERATED_(E8)
  6
Continuous
 62
     7
100
AcDbLine
 10
334.8765669722
 20
157.5069151687
 30
0.0
 11
334.8765669722
 21
159.9969991124
 31
0.0
  0
LINE
  5
1ED
330
183
100
AcDbEntity
  8
$DDT_AUDIT_GENERATED_(E8)
  6
Continuous
 62
     7
100
AcDbLine
 10
334.8765669722
 20
157.5069151687
 30
0.0
 11
383.9668426411
 21
157.5069151687
 31
0.0
  0
LINE
  5
1EE
330
183
100
AcDbEntity
  8
$DDT_AUDIT_GENERATED_(E8)
  6
Continuous
 62
     7
100
AcDbLine
 10
334.8765669722
 20
157.0345008455
 30
0.0
 11
334.8765669722
 21
157.5069151687
 31
0.0
  0
LINE
  5
1EF
330
183
100
AcDbEntity
  8
$DDT_AUDIT_GENERATED_(E8)
  6
Continuous
 62
     7
100
AcDbLine
 10
334.8765669722
 20
159.9969991124
 30
0.0
 11
334.8765669722
 21
161.4891116217
 31
0.0
  0
LINE
  5
1F0
330
183
100
AcDbEntity
  8
$DDT_AUDIT_GENERATED_(E8)
  6
Continuous
 62
     7
100
AcDbLine
 10
334.8765669722
 20
107.0760171998
 30
0.0
 11
334.8765669722
 21
106.35
 31
0.0
  0
LINE
  5
1F1
330
183
100
AcDbEntity
  8
$DDT_AUDIT_GENERATED_(E8)
  6
Continuous
 62
     7
100
AcDbLine
 10
334.8765669722
 20
107.0760171998
 30
0.0
 11
334.8765669722
 21
108.5325943521
 31
0.0
  0
LINE
  5
1F2
330
183
100
AcDbEntity
  8
$DDT_AUDIT_GENERATED_(E8)
  6
Continuous
 62
     7
100
AcDbLine
 10
385.5133108353
 20
155.6623889476
 30
0.0
 11
385.5133108353
 21
113.0376110524
 31
0.0
  0
LINE
  5
1F3
330
183
100
AcDbEntity
  8
$DDT_AUDIT_GENERATED_(E8)
  6
Continuous
 62
     7
100
AcDbLine
 10
334.8765669722
 20
162.1402340323
 30
0.0
 11
334.8765669722
 21
161.4891116217
 31
0.0
  0
ARC
  5
1F4
330
183
100
AcDbEntity
  8
$DDT_AUDIT_GENERATED_(E8)
  6
Continuous
 62
     7
100
AcDbCircle
 10
380.0690300699
 20
-52.0551552424
 30
0.0
 40
218.910994487174
100
AcDbArc
 50
100.2850945058
 51
101.9139359787
  0
LINE
  5
1F5
330
183
100
AcDbEntity
  8
$DDT_AUDIT_GENERATED_(E8)
  6
Continuous
 62
     7
100
AcDbLine
 10
383.712541611
 20
166.3
 30
0.0
 11
377.8765669722
 21
166.3
 31
0.0
  0
SPLINE
  5
1F6
330
183
100
AcDbEntity
  8
$DDT_AUDIT_GENERATED_(E8)
  6
Continuous
 62
     7
100
AcDbSpline
210
0.0
220
0.0
230
1.0
 70
     8
 71
     3
 72
    16
 73
    12
 74
     0
 42
0.0000000002769515
 43
0.0000000001
 40
0.0
 40
0.0
 40
0.0
 40
0.0
 40
0.1110792801095401
 40
0.2258442168034279
 40
0.345991105400582
 40
0.4732646745259394
 40
0.6094683747593201
 40
0.7043801282293741
 40
0.8044537115808144
 40
0.9102333023540401
 40
1.0
 40
1.0
 40
1.0
 40
1.0
 10
377.8765669722246
 20
166.3
 30
0.0
 10
376.4060548068153
 20
166.3009964640001
 30
0.0
 10
373.8857875097402
 20
166.2993604693219
 30
0.0
 10
369.6395066507346
 20
166.259783656852
 30
0.0
 10
365.305676169674
 20
166.139994388496
 30
0.0
 10
360.6869611743063
 20
165.9017010260345
 30
0.0
 10
356.3908218305193
 20
165.5560975288658
 30
0.0
 10
352.4211503933092
 20
165.1353138568446
 30
0.0
 10
348.8501123879188
 20
164.6808138830989
 30
0.0
 10
345.2551544117985
 20
164.1509396493537
 30
0.0
 10
343.1012545364239
 20
163.7784429359108
 30
0.0
 10
341.9305449142918
 20
163.5743418455284
 30
0.0
  0
LINE
  5
1F7
330
183
100
AcDbEntity
  8
$DDT_AUDIT_GENERATED_(E8)
  6
Continuous
 62
     7
100
AcDbLine
 10
334.8765669722
 20
106.35
 30
0.0
 11
383.8737016368
 21
106.35
 31
0.0
  0
ARC
  5
1F8
330
183
100
AcDbEntity
  8
$DDT_AUDIT_GENERATED_(E8)
  6
Continuous
 62
     7
100
AcDbCircle
 10
-314.1234330278
 20
134.35
 30
0.0
 40
700.0
100
AcDbArc
 50
357.82576575
 51
358.2354114928
  0
ARC
  5
1F9
330
183
100
AcDbEntity
  8
$DDT_AUDIT_GENERATED_(E8)
  6
Continuous
 62
     7
100
AcDbCircle
 10
-314.1234330278
 20
134.35
 30
0.0
 40
700.0000000000001
100
AcDbArc
 50
1.7645885072
 51
2.4985104452
  0
ARC
  5
1FA
330
183
100
AcDbEntity
  8
$DDT_AUDIT_GENERATED_(E8)
  6
Continuous
 62
     7
100
AcDbCircle
 10
383.712541611
 20
164.8
 30
0.0
 40
1.499999999999976
100
AcDbArc
 50
2.4985104453
 51
90.0
  0
ARC
  5
1FB
330
183
100
AcDbEntity
  8
$DDT_AUDIT_GENERATED_(E8)
  6
Continuous
 62
     7
100
AcDbCircle
 10
383.8737016368
 20
107.85
 30
0.0
 40
1.500000000000001
100
AcDbArc
 50
270.0
 51
357.8257657499
  0
ARC
  5
1FC
330
183
100
AcDbEntity
  8
$DDT_AUDIT_GENERATED_(E8)
  6
Continuous
 62
     7
100
AcDbCircle
 10
342.1428024403
 20
163.1617516692
 30
0.0
 40
0.4567276435356703
100
AcDbArc
 50
118.156927848
 51
128.6627060137
  0
SPLINE
  5
1FD
330
183
100
AcDbEntity
  8
$DDT_AUDIT_GENERATED_(E8)
  6
Continuous
 62
     7
100
AcDbSpline
210
0.0
220
0.0
230
1.0
 70
     8
 71
     3
 72
    15
 73
    11
 74
     0
 42
0.0000000091606372
 43
0.0000000001
 40
0.1531707269300725
 40
0.1531707269300725
 40
0.1531707269300725
 40
0.1531707269300725
 40
0.1623925831461516
 40
0.198733272815193
 40
0.2563382789985341
 40
0.3503408680475557
 40
0.4942199349937412
 40
0.6917937375532168
 40
0.9278654809256274
 40
1.0
 40
1.0
 40
1.0
 40
1.0
 10
341.869363446944
 20
163.5242930199226
 30
0.0
 10
341.8693650445668
 20
163.5242930102761
 30
0.0
 10
341.8685304311078
 20
163.5239975517944
 30
0.0
 10
341.8588102571844
 20
163.5209218980873
 30
0.0
 10
341.8225167284895
 20
163.5109141808512
 30
0.0
 10
341.7403210644028
 20
163.490689519979
 30
0.0
 10
341.5851691743852
 20
163.4560171494838
 30
0.0
 10
341.351569771303
 20
163.408096958438
 30
0.0
 10
341.1254963879555
 20
163.3645478080844
 30
0.0
 10
340.999182278357
 20
163.3421188359544
 30
0.0
 10
340.9646383923653
 20
163.3359981302723
 30
0.0
  0
ARC
  5
1FE
330
183
100
AcDbEntity
  8
$DDT_AUDIT_GENERATED_(E8)
  6
Continuous
 62
     7
100
AcDbCircle
 10
385.2447571956
 20
112.8041302417
 30
0.0
 40
0.2999999999999786
100
AcDbArc
 50
358.2354114927
 51
0.0
  0
ARC
  5
1FF
330
183
100
AcDbEntity
  8
$DDT_AUDIT_GENERATED_(E8)
  6
Continuous
 62
     7
100
AcDbCircle
 10
385.2447571956
 20
155.8958697583
 30
0.0
 40
0.3000000000000225
100
AcDbArc
 50
0.0
 51
1.7645885073
  0
LINE
  5
200
330
183
100
AcDbEntity
  8
$DDT_AUDIT_GENERATED_(E8)
  6
Continuous
 62
     7
100
AcDbLine
 10
385.5447571956
 20
112.8041302417
 30
0.0
 11
385.5447571956
 21
155.8958697583
 31
0.0
  0
ARC
  5
201
330
183
100
AcDbEntity
  8
$DDT_AUDIT_GENERATED_(104)
  6
Continuous
 62
     7
100
AcDbCircle
 10
-314.1234330278
 20
134.35
 30
0.0
 40
700.0000000000001
100
AcDbArc
 50
358.2759520895
 51
359.6151319296
  0
ARC
  5
202
330
183
100
AcDbEntity
  8
$DDT_AUDIT_GENERATED_(104)
  6
Continuous
 62
     7
100
AcDbCircle
 10
-314.1234330278
 20
134.35
 30
0.0
 40
700.0000000000001
100
AcDbArc
 50
0.3848680704
 51
1.7240479105
  0
LINE
  5
203
330
183
100
AcDbEntity
  8
$DDT_AUDIT_GENERATED_(104)
  6
Continuous
 62
     7
100
AcDbLine
 10
385.8607814576
 20
129.65
 30
0.0
 11
385.8607814576
 21
139.05
 31
0.0
  0
ARC
  5
204
330
183
100
AcDbEntity
  8
$DDT_AUDIT_GENERATED_(104)
  6
Continuous
 62
     7
100
AcDbCircle
 10
385.3597820009
 20
113.295976794
 30
0.0
 40
0.2000000000000014
100
AcDbArc
 50
337.6496603091
 51
358.2759520891
  0
ARC
  5
205
330
183
100
AcDbEntity
  8
$DDT_AUDIT_GENERATED_(104)
  6
Continuous
 62
     7
100
AcDbCircle
 10
385.3597820009
 20
155.404023206
 30
0.0
 40
0.1999999999999609
100
AcDbArc
 50
1.7240479109
 51
22.350339691
  0
LINE
  5
206
330
183
100
AcDbEntity
  8
$DDT_AUDIT_GENERATED_(10A)
  6
Continuous
 62
     7
100
AcDbLine
 10
385.8765669722
 20
138.3
 30
0.0
 11
385.8765669722
 21
130.4
 31
0.0
  0
ARC
  5
207
330
183
100
AcDbEntity
  8
$DDT_AUDIT_GENERATED_(10A)
  6
Continuous
 62
     7
100
AcDbCircle
 10
385.5765669722
 20
138.3
 30
0.0
 40
0.2999999999999947
100
AcDbArc
 50
0.0
 51
18.6693561105
  0
ARC
  5
208
330
183
100
AcDbEntity
  8
$DDT_AUDIT_GENERATED_(10A)
  6
Continuous
 62
     7
100
AcDbCircle
 10
385.5765669722
 20
130.4
 30
0.0
 40
0.2999999999999999
100
AcDbArc
 50
341.3306438895
 51
0.0
  0
ENDBLK
  5
20A
330
183
100
AcDbEntity
  8
0
100
AcDbBlockEnd
  0
ENDSEC
  0
SECTION
  2
ENTITIES
  0
INSERT
  5
5F
330
1F
100
AcDbEntity
  8
Default
100
AcDbBlockReference
  2
SEANNOT_GROUP
 10
0.0
 20
0.0
 30
0.0
  0
INSERT
  5
6A
330
1F
100
AcDbEntity
  8
Default
100
AcDbBlockReference
  2
SEANNOT_GROUP1
 10
0.0
 20
0.0
 30
0.0
  0
INSERT
  5
74
330
1F
100
AcDbEntity
  8
Default
100
AcDbBlockReference
  2
SEANNOT_GROUP2
 10
0.0
 20
0.0
 30
0.0
  0
INSERT
  5
7A
330
1F
100
AcDbEntity
  8
Default
100
AcDbBlockReference
  2
SEANNOT_GROUP3
 10
0.0
 20
0.0
 30
0.0
  0
INSERT
  5
80
330
1F
100
AcDbEntity
  8
Default
100
AcDbBlockReference
  2
SEANNOT_GROUP4
 10
0.0
 20
0.0
 30
0.0
  0
INSERT
  5
86
330
1F
100
AcDbEntity
  8
Default
100
AcDbBlockReference
  2
SEANNOT_GROUP5
 10
0.0
 20
0.0
 30
0.0
  0
INSERT
  5
8C
330
1F
100
AcDbEntity
  8
Default
100
AcDbBlockReference
  2
SEANNOT_GROUP6
 10
0.0
 20
0.0
 30
0.0
  0
INSERT
  5
92
330
1F
100
AcDbEntity
  8
Default
100
AcDbBlockReference
  2
SE
 10
0.0
 20
0.0
 30
0.0
  0
INSERT
  5
129
330
1F
100
AcDbEntity
  8
Default
100
AcDbBlockReference
  2
SE1
 10
0.0
 20
0.0
 30
0.0
  0
INSERT
  5
184
330
1F
100
AcDbEntity
  8
Default
100
AcDbBlockReference
  2
SE2
 10
0.0
 20
0.0
 30
0.0
  0
TEXT
  5
20C
330
1F
100
AcDbEntity
  8
Default
  6
Continuous
 62
     7
100
AcDbText
 10
5.9362635081
 20
53.4225120485
 30
0.0
 40
10.0
  1
Grohe AG^J
  7
SEACAD_seiso_ttf
 11
5.9362635081
 21
63.4225120485
 31
0.0
100
AcDbText
 73
     3
  0
TEXT
  5
20D
330
1F
100
AcDbEntity
  8
Default
  6
Continuous
 62
     7
100
AcDbText
 10
5.9362635081
 20
37.0588756849
 30
0.0
 40
10.0
  1
 
  7
SEACAD_seiso_ttf
 11
5.9362635081
 21
47.0588756849
 31
0.0
100
AcDbText
 73
     3
  0
TEXT
  5
20E
330
1F
100
AcDbEntity
  8
Default
  6
Continuous
 62
     7
100
AcDbText
 10
5.9362635081
 20
20.6952393213
 30
0.0
 40
10.0
  1
ecn: 
  7
SEACAD_seiso_ttf
 11
5.9362635081
 21
30.6952393213
 31
0.0
100
AcDbText
 73
     3
  0
TEXT
  5
20F
330
1F
100
AcDbEntity
  8
Default
  6
Continuous
 62
     7
100
AcDbText
 10
5.9362635081
 20
4.3316029576
 30
0.0
 40
10.0
  1
unit: mm
  7
SEACAD_seiso_ttf
 11
5.9362635081
 21
14.3316029576
 31
0.0
100
AcDbText
 73
     3
  0
LINE
  5
210
330
1F
100
AcDbEntity
  8
Default
  6
Continuous
 62
     7
100
AcDbLine
 10
0.0
 20
0.0
 30
0.0
 11
100.0
 21
0.0
 31
0.0
  0
LINE
  5
211
330
1F
100
AcDbEntity
  8
Default
  6
Continuous
 62
     7
100
AcDbLine
 10
0.0
 20
0.0
 30
0.0
 11
0.0
 21
100.0
 31
0.0
  0
TEXT
  5
212
330
1F
100
AcDbEntity
  8
Default
  6
Continuous
 62
     7
100
AcDbText
 10
24.3923665681
 20
-18.2375342018
 30
0.0
 40
10.0
  1
100 mm
  7
SEACAD_seiso_ttf
 11
24.3923665681
 21
-8.2375342018
 31
0.0
100
AcDbText
 73
     3
  0
TEXT
  5
213
330
1F
100
AcDbEntity
  8
Default
  6
Continuous
 62
     7
100
AcDbText
 10
-7.6150308803
 20
24.6231930421
 30
0.0
 40
10.0
  1
100 mm
 50
90.0
  7
SEACAD_seiso_ttf
 11
-17.6150308803
 21
24.6231930421
 31
0.0
100
AcDbText
 73
     3
  0
TEXT
  5
214
330
1F
100
AcDbEntity
  8
Default
  6
Continuous
 62
     7
100
AcDbText
 10
28.4878128572
 20
20.0907663715
 30
0.0
 40
10.0
  1
216529
  7
SEACAD_seiso_ttf
 11
28.4878128572
 21
30.0907663715
 31
0.0
100
AcDbText
 73
     3
  0
TEXT
  5
215
330
1F
100
AcDbEntity
  8
Default
  6
Continuous
 62
     7
100
AcDbText
 10
5.9012241913
 20
36.7242780188
 30
0.0
 40
10.0
  1
34203000
  7
SEACAD_seiso_ttf
 11
5.9012241913
 21
46.7242780188
 31
0.0
100
AcDbText
 73
     3
  0
ENDSEC
  0
SECTION
  2
OBJECTS
  0
DICTIONARY
  5
C
330
0
100
AcDbDictionary
281
     1
  3
ACAD_GROUP
350
D
  3
ACAD_LAYOUT
350
1A
  3
ACAD_MLEADERSTYLE
350
219
  3
ACAD_MLINESTYLE
350
17
  3
ACAD_PLOTSETTINGS
350
19
  3
ACAD_PLOTSTYLENAME
350
E
  3
ACAD_SCALELIST
350
3B
  3
ACAD_TABLESTYLE
350
218
  3
ACAD_VISUALSTYLE
350
2A
  3
AcDbVariableDictionary
350
216
  0
DICTIONARY
  5
D
102
{ACAD_REACTORS
330
C
102
}
330
C
100
AcDbDictionary
281
     1
  0
DICTIONARY
  5
1A
102
{ACAD_REACTORS
330
C
102
}
330
C
100
AcDbDictionary
281
     1
  3
Layout1
350
1E
  3
Model
350
22
  0
DICTIONARY
  5
219
102
{ACAD_REACTORS
330
C
102
}
330
C
100
AcDbDictionary
281
     1
  0
DICTIONARY
  5
17
102
{ACAD_REACTORS
330
C
102
}
330
C
100
AcDbDictionary
281
     1
  3
Standard
350
18
  0
DICTIONARY
  5
19
102
{ACAD_REACTORS
330
C
102
}
330
C
100
AcDbDictionary
281
     1
  0
ACDBDICTIONARYWDFLT
  5
E
102
{ACAD_REACTORS
330
C
102
}
330
C
100
AcDbDictionary
281
     1
  3
Normal
350
F
100
AcDbDictionaryWithDefault
340
F
  0
DICTIONARY
  5
3B
102
{ACAD_REACTORS
330
C
102
}
330
C
100
AcDbDictionary
281
     1
  3
A0
350
3C
  3
A1
350
3D
  3
A2
350
3E
  3
A3
350
3F
  3
A4
350
40
  3
A5
350
41
  3
A6
350
42
  3
A7
350
43
  3
A8
350
44
  3
A9
350
45
  3
B0
350
46
  3
B1
350
47
  3
B2
350
48
  3
B3
350
49
  3
B4
350
4A
  3
B5
350
4B
  3
B6
350
4C
  3
B7
350
4D
  3
B8
350
4E
  3
B9
350
4F
  3
C0
350
50
  3
C1
350
51
  3
C2
350
52
  3
C3
350
53
  3
C4
350
54
  3
C5
350
55
  3
C6
350
56
  3
C7
350
57
  3
C8
350
58
  3
C9
350
59
  3
D0
350
5A
  3
D1
350
5B
  3
D2
350
5C
  0
DICTIONARY
  5
218
102
{ACAD_REACTORS
330
C
102
}
330
C
100
AcDbDictionary
281
     1
  0
DICTIONARY
  5
2A
102
{ACAD_REACTORS
330
C
102
}
330
C
100
AcDbDictionary
281
     1
  3
2dWireframe
350
2F
  3
3D Hidden
350
31
  3
3dWireframe
350
30
  3
Basic
350
32
  3
Brighten
350
36
  3
ColorChange
350
3A
  3
Conceptual
350
34
  3
Dim
350
35
  3
Facepattern
350
39
  3
Flat
350
2B
  3
FlatWithEdges
350
2C
  3
Gouraud
350
2D
  3
GouraudWithEdges
350
2E
  3
Linepattern
350
38
  3
Realistic
350
33
  3
Thicken
350
37
  0
DICTIONARY
  5
216
102
{ACAD_REACTORS
330
C
102
}
330
C
100
AcDbDictionary
281
     1
  3
CANNOSCALE
350
217
  3
PSOLHEIGHT
350
21B
  3
PSOLWIDTH
350
21A
  0
LAYOUT
  5
1E
102
{ACAD_REACTORS
330
1A
102
}
330
1A
100
AcDbPlotSettings
  1

  2
none_device
  4

  6

 40
0.0
 41
0.0
 42
0.0
 43
0.0
 44
0.0
 45
0.0
 46
0.0
 47
0.0
 48
0.0
 49
0.0
140
0.0
141
0.0
142
1.0
143
1.0
 70
   688
 72
     0
 73
     0
 74
     5
  7

 75
    16
147
1.0
148
0.0
149
0.0
100
AcDbLayout
  1
Layout1
 70
     1
 71
     1
 10
0.0
 20
0.0
 11
1682.0
 21
2378.0
 12
0.0
 22
0.0
 32
0.0
 14
0.0
 24
0.0
 34
0.0
 15
1682.0
 25
2378.0
 35
0.0
146
0.0
 13
0.0
 23
0.0
 33
0.0
 16
1.0
 26
0.0
 36
0.0
 17
0.0
 27
1.0
 37
0.0
 76
     0
330
1B
  0
LAYOUT
  5
22
102
{ACAD_REACTORS
330
1A
102
}
330
1A
100
AcDbPlotSettings
  1

  2
none_device
  4

  6

 40
0.0
 41
0.0
 42
0.0
 43
0.0
 44
0.0
 45
0.0
 46
0.0
 47
0.0
 48
0.0
 49
0.0
140
0.0
141
0.0
142
1.0
143
1.0
 70
  1712
 72
     0
 73
     0
 74
     0
  7

 75
     0
147
1.0
148
0.0
149
0.0
100
AcDbLayout
  1
Model
 70
     1
 71
     0
 10
0.0
 20
0.0
 11
1682.0
 21
2378.0
 12
0.0
 22
0.0
 32
0.0
 14
0.0
 24
0.0
 34
0.0
 15
1682.0
 25
2378.0
 35
0.0
146
0.0
 13
0.0
 23
0.0
 33
0.0
 16
1.0
 26
0.0
 36
0.0
 17
0.0
 27
1.0
 37
0.0
 76
     0
330
1F
331
29
  0
MLINESTYLE
  5
18
102
{ACAD_REACTORS
330
17
102
}
330
17
100
AcDbMlineStyle
  2
Standard
 70
     0
  3

 62
   256
 51
90.0
 52
90.0
 71
     2
 49
0.5
 62
   256
  6
BYLAYER
 49
-0.5
 62
   256
  6
BYLAYER
  0
ACDBPLACEHOLDER
  5
F
102
{ACAD_REACTORS
330
E
102
}
330
E
  0
SCALE
  5
3C
102
{ACAD_REACTORS
330
3B
102
}
330
3B
100
AcDbScale
 70
     0
300
1:1
140
1.0
141
1.0
290
     1
  0
SCALE
  5
3D
102
{ACAD_REACTORS
330
3B
102
}
330
3B
100
AcDbScale
 70
     0
300
1:2
140
1.0
141
2.0
290
     0
  0
SCALE
  5
3E
102
{ACAD_REACTORS
330
3B
102
}
330
3B
100
AcDbScale
 70
     0
300
1:4
140
1.0
141
4.0
290
     0
  0
SCALE
  5
3F
102
{ACAD_REACTORS
330
3B
102
}
330
3B
100
AcDbScale
 70
     0
300
1:5
140
1.0
141
5.0
290
     0
  0
SCALE
  5
40
102
{ACAD_REACTORS
330
3B
102
}
330
3B
100
AcDbScale
 70
     0
300
1:8
140
1.0
141
8.0
290
     0
  0
SCALE
  5
41
102
{ACAD_REACTORS
330
3B
102
}
330
3B
100
AcDbScale
 70
     0
300
1:10
140
1.0
141
10.0
290
     0
  0
SCALE
  5
42
102
{ACAD_REACTORS
330
3B
102
}
330
3B
100
AcDbScale
 70
     0
300
1:16
140
1.0
141
16.0
290
     0
  0
SCALE
  5
43
102
{ACAD_REACTORS
330
3B
102
}
330
3B
100
AcDbScale
 70
     0
300
1:20
140
1.0
141
20.0
290
     0
  0
SCALE
  5
44
102
{ACAD_REACTORS
330
3B
102
}
330
3B
100
AcDbScale
 70
     0
300
1:30
140
1.0
141
30.0
290
     0
  0
SCALE
  5
45
102
{ACAD_REACTORS
330
3B
102
}
330
3B
100
AcDbScale
 70
     0
300
1:40
140
1.0
141
40.0
290
     0
  0
SCALE
  5
46
102
{ACAD_REACTORS
330
3B
102
}
330
3B
100
AcDbScale
 70
     0
300
1:50
140
1.0
141
50.0
290
     0
  0
SCALE
  5
47
102
{ACAD_REACTORS
330
3B
102
}
330
3B
100
AcDbScale
 70
     0
300
1:100
140
1.0
141
100.0
290
     0
  0
SCALE
  5
48
102
{ACAD_REACTORS
330
3B
102
}
330
3B
100
AcDbScale
 70
     0
300
2:1
140
2.0
141
1.0
290
     0
  0
SCALE
  5
49
102
{ACAD_REACTORS
330
3B
102
}
330
3B
100
AcDbScale
 70
     0
300
4:1
140
4.0
141
1.0
290
     0
  0
SCALE
  5
4A
102
{ACAD_REACTORS
330
3B
102
}
330
3B
100
AcDbScale
 70
     0
300
8:1
140
8.0
141
1.0
290
     0
  0
SCALE
  5
4B
102
{ACAD_REACTORS
330
3B
102
}
330
3B
100
AcDbScale
 70
     0
300
10:1
140
10.0
141
1.0
290
     0
  0
SCALE
  5
4C
102
{ACAD_REACTORS
330
3B
102
}
330
3B
100
AcDbScale
 70
     0
300
100:1
140
100.0
141
1.0
290
     0
  0
SCALE
  5
4D
102
{ACAD_REACTORS
330
3B
102
}
330
3B
100
AcDbScale
 70
     0
300
1/128" = 1'-0"
140
0.0078125
141
12.0
290
     0
  0
SCALE
  5
4E
102
{ACAD_REACTORS
330
3B
102
}
330
3B
100
AcDbScale
 70
     0
300
1/64" = 1'-0"
140
0.015625
141
12.0
290
     0
  0
SCALE
  5
4F
102
{ACAD_REACTORS
330
3B
102
}
330
3B
100
AcDbScale
 70
     0
300
1/32" = 1'-0"
140
0.03125
141
12.0
290
     0
  0
SCALE
  5
50
102
{ACAD_REACTORS
330
3B
102
}
330
3B
100
AcDbScale
 70
     0
300
1/16" = 1'-0"
140
0.0625
141
12.0
290
     0
  0
SCALE
  5
51
102
{ACAD_REACTORS
330
3B
102
}
330
3B
100
AcDbScale
 70
     0
300
3/32" = 1'-0"
140
0.09375
141
12.0
290
     0
  0
SCALE
  5
52
102
{ACAD_REACTORS
330
3B
102
}
330
3B
100
AcDbScale
 70
     0
300
1/8" = 1'-0"
140
0.125
141
12.0
290
     0
  0
SCALE
  5
53
102
{ACAD_REACTORS
330
3B
102
}
330
3B
100
AcDbScale
 70
     0
300
3/16" = 1'-0"
140
0.1875
141
12.0
290
     0
  0
SCALE
  5
54
102
{ACAD_REACTORS
330
3B
102
}
330
3B
100
AcDbScale
 70
     0
300
1/4" = 1'-0"
140
0.25
141
12.0
290
     0
  0
SCALE
  5
55
102
{ACAD_REACTORS
330
3B
102
}
330
3B
100
AcDbScale
 70
     0
300
3/8" = 1'-0"
140
0.375
141
12.0
290
     0
  0
SCALE
  5
56
102
{ACAD_REACTORS
330
3B
102
}
330
3B
100
AcDbScale
 70
     0
300
1/2" = 1'-0"
140
0.5
141
12.0
290
     0
  0
SCALE
  5
57
102
{ACAD_REACTORS
330
3B
102
}
330
3B
100
AcDbScale
 70
     0
300
3/4" = 1'-0"
140
0.75
141
12.0
290
     0
  0
SCALE
  5
58
102
{ACAD_REACTORS
330
3B
102
}
330
3B
100
AcDbScale
 70
     0
300
1" = 1'-0"
140
1.0
141
12.0
290
     0
  0
SCALE
  5
59
102
{ACAD_REACTORS
330
3B
102
}
330
3B
100
AcDbScale
 70
     0
300
1-1/2" = 1'-0"
140
1.5
141
12.0
290
     0
  0
SCALE
  5
5A
102
{ACAD_REACTORS
330
3B
102
}
330
3B
100
AcDbScale
 70
     0
300
3" = 1'-0"
140
3.0
141
12.0
290
     0
  0
SCALE
  5
5B
102
{ACAD_REACTORS
330
3B
102
}
330
3B
100
AcDbScale
 70
     0
300
6" = 1'-0"
140
6.0
141
12.0
290
     0
  0
SCALE
  5
5C
102
{ACAD_REACTORS
330
3B
102
}
330
3B
100
AcDbScale
 70
     0
300
1'-0" = 1'-0"
140
12.0
141
12.0
290
     0
  0
VISUALSTYLE
  5
2F
102
{ACAD_REACTORS
330
2A
102
}
330
2A
100
AcDbVisualStyle
  2
2dWireframe
 70
     4
 71
     0
 72
     2
 73
     0
 90
        0
 40
-0.6
 41
-30.0
 62
     5
 63
     7
 74
     1
 91
        4
 64
     7
 65
   257
 75
     1
175
     1
 42
1.0
 92
        0
 66
   257
 43
1.0
 76
     1
 77
     6
 78
     2
 67
     7
 79
     5
170
     0
171
     0
290
     0
174
     0
 93
        1
 44
0.0
173
     0
291
     0
 45
0.0
1001
ACAD
1000
AcDbSavedByObjectVersion
1070
     0
  0
VISUALSTYLE
  5
31
102
{ACAD_REACTORS
330
2A
102
}
330
2A
100
AcDbVisualStyle
  2
3D Hidden
 70
     6
 71
     1
 72
     2
 73
     2
 90
        0
 40
-0.6
 41
-30.0
 62
     5
 63
     7
 74
     2
 91
        2
 64
     7
 65
   257
 75
     2
175
     1
 42
40.0
 92
        0
 66
   257
 43
1.0
 76
     1
 77
     6
 78
     2
 67
     7
 79
     3
170
     0
171
     0
290
     0
174
     0
 93
        1
 44
0.0
173
     0
291
     0
 45
0.0
1001
ACAD
1000
AcDbSavedByObjectVersion
1070
     0
  0
VISUALSTYLE
  5
30
102
{ACAD_REACTORS
330
2A
102
}
330
2A
100
AcDbVisualStyle
  2
3dWireframe
 70
     5
 71
     0
 72
     2
 73
     0
 90
        0
 40
-0.6
 41
-30.0
 62
     5
 63
     7
 74
     1
 91
        4
 64
     7
 65
   257
 75
     1
175
     1
 42
1.0
 92
        0
 66
   257
 43
1.0
 76
     1
 77
     6
 78
     2
 67
     7
 79
     5
170
     0
171
     0
290
     0
174
     0
 93
        1
 44
0.0
173
     0
291
     0
 45
0.0
1001
ACAD
1000
AcDbSavedByObjectVersion
1070
     0
  0
VISUALSTYLE
  5
32
102
{ACAD_REACTORS
330
2A
102
}
330
2A
100
AcDbVisualStyle
  2
Basic
 70
     7
 71
     1
 72
     0
 73
     1
 90
        0
 40
-0.6
 41
-30.0
 62
     5
 63
     7
 74
     0
 91
        4
 64
     7
 65
   257
 75
     1
175
     1
 42
1.0
 92
        8
 66
     7
 43
1.0
 76
     1
 77
     6
 78
     2
 67
     7
 79
     5
170
     0
171
     0
290
     0
174
     0
 93
        1
 44
0.0
173
     0
291
     1
 45
0.0
1001
ACAD
1000
AcDbSavedByObjectVersion
1070
     0
  0
VISUALSTYLE
  5
36
102
{ACAD_REACTORS
330
2A
102
}
330
2A
100
AcDbVisualStyle
  2
Brighten
 70
    12
 71
     2
 72
     2
 73
     0
 90
        0
 40
-0.6
 41
-30.0
 62
     5
 63
     7
 74
     1
 91
        4
 64
     7
 65
   257
 75
     1
175
     1
 42
1.0
 92
        8
 66
     7
 43
1.0
 76
     1
 77
     6
 78
     2
 67
     7
 79
     5
170
     0
171
     0
290
     0
174
     0
 93
        1
 44
50.0
173
     0
291
     1
 45
0.0
1001
ACAD
1000
AcDbSavedByObjectVersion
1070
     0
  0
VISUALSTYLE
  5
3A
102
{ACAD_REACTORS
330
2A
102
}
330
2A
100
AcDbVisualStyle
  2
ColorChange
 70
    16
 71
     2
 72
     2
 73
     3
 90
        0
 40
-0.6
 41
-30.0
 62
     5
 63
     8
 74
     1
 91
        4
 64
     7
 65
   257
 75
     1
175
     1
 42
1.0
 92
        8
 66
     8
 43
1.0
 76
     1
 77
     6
 78
     2
 67
     7
 79
     5
170
     0
171
     0
290
     0
174
     0
 93
        1
 44
0.0
173
     0
291
     1
 45
0.0
1001
ACAD
1000
AcDbSavedByObjectVersion
1070
     0
  0
VISUALSTYLE
  5
34
102
{ACAD_REACTORS
330
2A
102
}
330
2A
100
AcDbVisualStyle
  2
Conceptual
 70
     9
 71
     3
 72
     2
 73
     0
 90
        0
 40
-0.6
 41
-30.0
 62
     5
 63
     7
 74
     2
 91
        2
 64
     7
 65
   257
 75
     1
175
     1
 42
40.0
 92
        8
 66
     7
 43
1.0
 76
     1
 77
     6
 78
     2
 67
     7
 79
     3
170
     0
171
     0
290
     0
174
     0
 93
        1
 44
0.0
173
     0
291
     0
 45
0.0
1001
ACAD
1000
AcDbSavedByObjectVersion
1070
     0
  0
VISUALSTYLE
  5
35
102
{ACAD_REACTORS
330
2A
102
}
330
2A
100
AcDbVisualStyle
  2
Dim
 70
    11
 71
     2
 72
     2
 73
     0
 90
        0
 40
-0.6
 41
-30.0
 62
     5
 63
     7
 74
     1
 91
        4
 64
     7
 65
   257
 75
     1
175
     1
 42
1.0
 92
        8
 66
     7
 43
1.0
 76
     1
 77
     6
 78
     2
 67
     7
 79
     5
170
     0
171
     0
290
     0
174
     0
 93
        1
 44
-50.0
173
     0
291
     1
 45
0.0
1001
ACAD
1000
AcDbSavedByObjectVersion
1070
     0
  0
VISUALSTYLE
  5
39
102
{ACAD_REACTORS
330
2A
102
}
330
2A
100
AcDbVisualStyle
  2
Facepattern
 70
    15
 71
     2
 72
     2
 73
     0
 90
        0
 40
-0.6
 41
-30.0
 62
     5
 63
     7
 74
     1
 91
        4
 64
     7
 65
   257
 75
     1
175
     1
 42
1.0
 92
        8
 66
     7
 43
1.0
 76
     1
 77
     6
 78
     2
 67
     7
 79
     5
170
     0
171
     0
290
     0
174
     0
 93
        1
 44
0.0
173
     0
291
     1
 45
0.0
1001
ACAD
1000
AcDbSavedByObjectVersion
1070
     0
  0
VISUALSTYLE
  5
2B
102
{ACAD_REACTORS
330
2A
102
}
330
2A
100
AcDbVisualStyle
  2
Flat
 70
     0
 71
     2
 72
     1
 73
     1
 90
        2
 40
-0.6
 41
30.0
 62
     5
 63
     7
 74
     0
 91
        4
 64
     7
 65
   257
 75
     1
175
     1
 42
1.0
 92
        8
 66
     7
 43
1.0
 76
     1
 77
     6
 78
     2
 67
     7
 79
     5
170
     0
171
     0
290
     0
174
     0
 93
       13
 44
0.0
173
     0
291
     1
 45
0.0
1001
ACAD
1000
AcDbSavedByObjectVersion
1070
     0
  0
VISUALSTYLE
  5
2C
102
{ACAD_REACTORS
330
2A
102
}
330
2A
100
AcDbVisualStyle
  2
FlatWithEdges
 70
     1
 71
     2
 72
     1
 73
     1
 90
        2
 40
-0.6
 41
30.0
 62
     5
 63
     7
 74
     1
 91
        4
 64
     7
 65
   257
 75
     1
175
     1
 42
1.0
 92
        0
 66
   257
 43
1.0
 76
     1
 77
     6
 78
     2
 67
     7
 79
     5
170
     0
171
     0
290
     0
174
     0
 93
       13
 44
0.0
173
     0
291
     1
 45
0.0
1001
ACAD
1000
AcDbSavedByObjectVersion
1070
     0
  0
VISUALSTYLE
  5
2D
102
{ACAD_REACTORS
330
2A
102
}
330
2A
100
AcDbVisualStyle
  2
Gouraud
 70
     2
 71
     2
 72
     2
 73
     1
 90
        2
 40
-0.6
 41
30.0
 62
     5
 63
     7
 74
     0
 91
        4
 64
     7
 65
   257
 75
     1
175
     1
 42
1.0
 92
        0
 66
     7
 43
1.0
 76
     1
 77
     6
 78
     2
 67
     7
 79
     5
170
     0
171
     0
290
     0
174
     0
 93
       13
 44
0.0
173
     0
291
     1
 45
0.0
1001
ACAD
1000
AcDbSavedByObjectVersion
1070
     0
  0
VISUALSTYLE
  5
2E
102
{ACAD_REACTORS
330
2A
102
}
330
2A
100
AcDbVisualStyle
  2
GouraudWithEdges
 70
     3
 71
     2
 72
     2
 73
     1
 90
        2
 40
-0.6
 41
30.0
 62
     5
 63
     7
 74
     1
 91
        4
 64
     7
 65
   257
 75
     1
175
     1
 42
1.0
 92
        0
 66
   257
 43
1.0
 76
     1
 77
     6
 78
     2
 67
     7
 79
     5
170
     0
171
     0
290
     0
174
     0
 93
       13
 44
0.0
173
     0
291
     1
 45
0.0
1001
ACAD
1000
AcDbSavedByObjectVersion
1070
     0
  0
VISUALSTYLE
  5
38
102
{ACAD_REACTORS
330
2A
102
}
330
2A
100
AcDbVisualStyle
  2
Linepattern
 70
    14
 71
     2
 72
     2
 73
     0
 90
        0
 40
-0.6
 41
-30.0
 62
     5
 63
     7
 74
     1
 91
        4
 64
     7
 65
   257
 75
     7
175
     7
 42
1.0
 92
        8
 66
     7
 43
1.0
 76
     1
 77
     6
 78
     2
 67
     7
 79
     5
170
     0
171
     0
290
     0
174
     0
 93
        1
 44
0.0
173
     0
291
     1
 45
0.0
1001
ACAD
1000
AcDbSavedByObjectVersion
1070
     0
  0
VISUALSTYLE
  5
33
102
{ACAD_REACTORS
330
2A
102
}
330
2A
100
AcDbVisualStyle
  2
Realistic
 70
     8
 71
     2
 72
     2
 73
     0
 90
        0
 40
-0.6
 41
-30.0
 62
     5
 63
     7
 74
     1
 91
        0
 64
     7
 65
   257
 75
     1
175
     1
 42
1.0
 92
        8
 66
     8
 43
1.0
 76
     1
 77
     6
 78
     2
 67
     7
 79
     5
170
     0
171
     0
290
     0
174
     0
 93
       13
 44
0.0
173
     0
291
     0
 45
0.0
1001
ACAD
1000
AcDbSavedByObjectVersion
1070
     0
  0
VISUALSTYLE
  5
37
102
{ACAD_REACTORS
330
2A
102
}
330
2A
100
AcDbVisualStyle
  2
Thicken
 70
    13
 71
     2
 72
     2
 73
     0
 90
        0
 40
-0.6
 41
-30.0
 62
     5
 63
     7
 74
     1
 91
        4
 64
     7
 65
   257
 75
     1
175
     1
 42
1.0
 92
       12
 66
     7
 43
1.0
 76
     1
 77
     6
 78
     2
 67
     7
 79
     5
170
     0
171
     0
290
     0
174
     0
 93
        1
 44
0.0
173
     0
291
     1
 45
0.0
1001
ACAD
1000
AcDbSavedByObjectVersion
1070
     0
  0
DICTIONARYVAR
  5
217
102
{ACAD_REACTORS
330
216
102
}
330
216
100
DictionaryVariables
280
     0
  1
1:1
  0
DICTIONARYVAR
  5
21B
102
{ACAD_REACTORS
330
216
102
}
330
216
100
DictionaryVariables
280
     0
  1
80.000000
  0
DICTIONARYVAR
  5
21A
102
{ACAD_REACTORS
330
216
102
}
330
216
100
DictionaryVariables
280
     0
  1
5.000000
  0
ENDSEC
  0
EOF
