  0
SECTION
  2
HEADER
  9
$ACADVER
  1
AC1015
  9
$ACADMAINTVER
 70
     6
  9
$DWGCODEPAGE
  3
ANSI_1252
  9
$INSBASE
 10
0.0
 20
0.0
 30
0.0
  9
$EXTMIN
 10
0.0
 20
0.0
 30
0.0
  9
$EXTMAX
 10
1682.0
 20
2378.0
 30
0.0
  9
$LIMMIN
 10
0.0
 20
0.0
  9
$LIMMAX
 10
1682.0
 20
2378.0
  9
$ORTHOMODE
 70
     0
  9
$REGENMODE
 70
     1
  9
$FILLMODE
 70
     1
  9
$QTEXTMODE
 70
     0
  9
$MIRRTEXT
 70
     1
  9
$LTSCALE
 40
1.0
  9
$ATTMODE
 70
     1
  9
$TEXTSIZE
 40
2.5
  9
$TRACEWID
 40
1.0
  9
$TEXTSTYLE
  7
Standard
  9
$CLAYER
  8
0
  9
$CELTYPE
  6
ByLayer
  9
$CECOLOR
 62
   256
  9
$CELTSCALE
 40
1.0
  9
$DISPSILH
 70
     0
  9
$DIMSCALE
 40
1.0
  9
$DIMASZ
 40
2.5
  9
$DIMEXO
 40
0.625
  9
$DIMDLI
 40
3.75
  9
$DIMRND
 40
0.0
  9
$DIMDLE
 40
0.0
  9
$DIMEXE
 40
1.25
  9
$DIMTP
 40
0.0
  9
$DIMTM
 40
0.0
  9
$DIMTXT
 40
2.5
  9
$DIMCEN
 40
2.5
  9
$DIMTSZ
 40
0.0
  9
$DIMTOL
 70
     0
  9
$DIMLIM
 70
     0
  9
$DIMTIH
 70
     0
  9
$DIMTOH
 70
     0
  9
$DIMSE1
 70
     0
  9
$DIMSE2
 70
     0
  9
$DIMTAD
 70
     1
  9
$DIMZIN
 70
     8
  9
$DIMBLK
  1

  9
$DIMASO
 70
     1
  9
$DIMSHO
 70
     1
  9
$DIMPOST
  1

  9
$DIMAPOST
  1

  9
$DIMALT
 70
     0
  9
$DIMALTD
 70
     3
  9
$DIMALTF
 40
0.0393700787
  9
$DIMLFAC
 40
1.0
  9
$DIMTOFL
 70
     1
  9
$DIMTVP
 40
0.0
  9
$DIMTIX
 70
     0
  9
$DIMSOXD
 70
     0
  9
$DIMSAH
 70
     0
  9
$DIMBLK1
  1

  9
$DIMBLK2
  1

  9
$DIMSTYLE
  2
ISO-25
  9
$DIMCLRD
 70
     0
  9
$DIMCLRE
 70
     0
  9
$DIMCLRT
 70
     0
  9
$DIMTFAC
 40
1.0
  9
$DIMGAP
 40
0.625
  9
$DIMJUST
 70
     0
  9
$DIMSD1
 70
     0
  9
$DIMSD2
 70
     0
  9
$DIMTOLJ
 70
     0
  9
$DIMTZIN
 70
     8
  9
$DIMALTZ
 70
     0
  9
$DIMALTTZ
 70
     0
  9
$DIMUPT
 70
     0
  9
$DIMDEC
 70
     2
  9
$DIMTDEC
 70
     2
  9
$DIMALTU
 70
     2
  9
$DIMALTTD
 70
     3
  9
$DIMTXSTY
  7
Standard
  9
$DIMAUNIT
 70
     0
  9
$DIMADEC
 70
     0
  9
$DIMALTRND
 40
0.0
  9
$DIMAZIN
 70
     0
  9
$DIMDSEP
 70
    44
  9
$DIMATFIT
 70
     3
  9
$DIMFRAC
 70
     0
  9
$DIMLDRBLK
  1

  9
$DIMLUNIT
 70
     2
  9
$DIMLWD
 70
    -2
  9
$DIMLWE
 70
    -2
  9
$DIMTMOVE
 70
     0
  9
$LUNITS
 70
     2
  9
$LUPREC
 70
     4
  9
$SKETCHINC
 40
1.0
  9
$FILLETRAD
 40
10.0
  9
$AUNITS
 70
     0
  9
$AUPREC
 70
     0
  9
$MENU
  1
.
  9
$ELEVATION
 40
0.0
  9
$PELEVATION
 40
0.0
  9
$THICKNESS
 40
0.0
  9
$LIMCHECK
 70
     0
  9
$CHAMFERA
 40
10.0
  9
$CHAMFERB
 40
10.0
  9
$CHAMFERC
 40
20.0
  9
$CHAMFERD
 40
0.0
  9
$SKPOLY
 70
     0
  9
$TDCREATE
 40
2455518.407381019
  9
$TDUCREATE
 40
2455518.365714352
  9
$TDUPDATE
 40
2455518.40738103
  9
$TDUUPDATE
 40
2455518.365714363
  9
$TDINDWG
 40
0.0000000116
  9
$TDUSRTIMER
 40
0.0000000116
  9
$USRTIMER
 70
     1
  9
$ANGBASE
 50
0.0
  9
$ANGDIR
 70
     0
  9
$PDMODE
 70
     0
  9
$PDSIZE
 40
0.0
  9
$PLINEWID
 40
0.0
  9
$SPLFRAME
 70
     0
  9
$SPLINETYPE
 70
     6
  9
$SPLINESEGS
 70
     8
  9
$HANDSEED
  5
24C
  9
$SURFTAB1
 70
     6
  9
$SURFTAB2
 70
     6
  9
$SURFTYPE
 70
     6
  9
$SURFU
 70
     6
  9
$SURFV
 70
     6
  9
$UCSBASE
  2

  9
$UCSNAME
  2

  9
$UCSORG
 10
0.0
 20
0.0
 30
0.0
  9
$UCSXDIR
 10
1.0
 20
0.0
 30
0.0
  9
$UCSYDIR
 10
0.0
 20
1.0
 30
0.0
  9
$UCSORTHOREF
  2

  9
$UCSORTHOVIEW
 70
     0
  9
$UCSORGTOP
 10
0.0
 20
0.0
 30
0.0
  9
$UCSORGBOTTOM
 10
0.0
 20
0.0
 30
0.0
  9
$UCSORGLEFT
 10
0.0
 20
0.0
 30
0.0
  9
$UCSORGRIGHT
 10
0.0
 20
0.0
 30
0.0
  9
$UCSORGFRONT
 10
0.0
 20
0.0
 30
0.0
  9
$UCSORGBACK
 10
0.0
 20
0.0
 30
0.0
  9
$PUCSBASE
  2

  9
$PUCSNAME
  2

  9
$PUCSORG
 10
0.0
 20
0.0
 30
0.0
  9
$PUCSXDIR
 10
1.0
 20
0.0
 30
0.0
  9
$PUCSYDIR
 10
0.0
 20
1.0
 30
0.0
  9
$PUCSORTHOREF
  2

  9
$PUCSORTHOVIEW
 70
     0
  9
$PUCSORGTOP
 10
0.0
 20
0.0
 30
0.0
  9
$PUCSORGBOTTOM
 10
0.0
 20
0.0
 30
0.0
  9
$PUCSORGLEFT
 10
0.0
 20
0.0
 30
0.0
  9
$PUCSORGRIGHT
 10
0.0
 20
0.0
 30
0.0
  9
$PUCSORGFRONT
 10
0.0
 20
0.0
 30
0.0
  9
$PUCSORGBACK
 10
0.0
 20
0.0
 30
0.0
  9
$USERI1
 70
     0
  9
$USERI2
 70
     0
  9
$USERI3
 70
     0
  9
$USERI4
 70
     0
  9
$USERI5
 70
     0
  9
$USERR1
 40
0.0
  9
$USERR2
 40
0.0
  9
$USERR3
 40
0.0
  9
$USERR4
 40
0.0
  9
$USERR5
 40
0.0
  9
$WORLDVIEW
 70
     1
  9
$SHADEDGE
 70
     3
  9
$SHADEDIF
 70
    70
  9
$TILEMODE
 70
     1
  9
$MAXACTVP
 70
    64
  9
$PINSBASE
 10
0.0
 20
0.0
 30
0.0
  9
$PLIMCHECK
 70
     0
  9
$PEXTMIN
 10
0.0
 20
0.0
 30
0.0
  9
$PEXTMAX
 10
1682.0
 20
2378.0
 30
0.0
  9
$PLIMMIN
 10
0.0
 20
0.0
  9
$PLIMMAX
 10
1682.0
 20
2378.0
  9
$UNITMODE
 70
     0
  9
$VISRETAIN
 70
     1
  9
$PLINEGEN
 70
     0
  9
$PSLTSCALE
 70
     1
  9
$TREEDEPTH
 70
  3020
  9
$CMLSTYLE
  2
Standard
  9
$CMLJUST
 70
     0
  9
$CMLSCALE
 40
20.0
  9
$PROXYGRAPHICS
 70
     1
  9
$MEASUREMENT
 70
     1
  9
$CELWEIGHT
370
    -1
  9
$ENDCAPS
280
     0
  9
$JOINSTYLE
280
     0
  9
$LWDISPLAY
290
     0
  9
$INSUNITS
 70
     4
  9
$HYPERLINKBASE
  1

  9
$STYLESHEET
  1

  9
$XEDIT
290
     1
  9
$CEPSNTYPE
380
     0
  9
$PSTYLEMODE
290
     1
  9
$FINGERPRINTGUID
  2
{9168210A-6654-40C6-B889-A06646333EDD}
  9
$VERSIONGUID
  2
{FAEB1C32-E019-11D5-929B-00C0DF256EC4}
  9
$EXTNAMES
290
     1
  9
$PSVPSCALE
 40
0.0
  9
$OLESTARTUP
290
     0
  0
ENDSEC
  0
SECTION
  2
CLASSES
  0
CLASS
  1
ACDBDICTIONARYWDFLT
  2
AcDbDictionaryWithDefault
  3
ObjectDBX Classes
 90
        0
280
     0
281
     0
  0
CLASS
  1
VISUALSTYLE
  2
AcDbVisualStyle
  3
ObjectDBX Classes
 90
     4095
280
     0
281
     0
  0
CLASS
  1
SCALE
  2
AcDbScale
  3
ObjectDBX Classes
 90
     1153
280
     0
281
     0
  0
CLASS
  1
DICTIONARYVAR
  2
AcDbDictionaryVar
  3
ObjectDBX Classes
 90
        0
280
     0
281
     0
  0
CLASS
  1
ACDBPLACEHOLDER
  2
AcDbPlaceHolder
  3
ObjectDBX Classes
 90
        0
280
     0
281
     0
  0
CLASS
  1
LAYOUT
  2
AcDbLayout
  3
ObjectDBX Classes
 90
        0
280
     0
281
     0
  0
ENDSEC
  0
SECTION
  2
TABLES
  0
TABLE
  2
VPORT
  5
8
330
0
100
AcDbSymbolTable
 70
     1
  0
VPORT
  5
29
330
8
100
AcDbSymbolTableRecord
100
AcDbViewportTableRecord
  2
*Active
 70
     0
 10
0.0
 20
0.0
 11
1.0
 21
1.0
 12
344.1869158879
 22
148.5
 13
0.0
 23
0.0
 14
10.0
 24
10.0
 15
10.0
 25
10.0
 16
0.0
 26
0.0
 36
1.0
 17
0.0
 27
0.0
 37
0.0
 40
297.0
 41
1.9729729729
 42
50.0
 43
0.0
 44
0.0
 50
0.0
 51
0.0
 71
     0
 72
   100
 73
     1
 74
     3
 75
     0
 76
     0
 77
     0
 78
     0
281
     0
 65
     1
110
0.0
120
0.0
130
0.0
111
1.0
121
0.0
131
0.0
112
0.0
122
1.0
132
0.0
 79
     0
146
0.0
  0
ENDTAB
  0
TABLE
  2
LTYPE
  5
5
330
0
100
AcDbSymbolTable
 70
     2
  0
LTYPE
  5
14
330
5
100
AcDbSymbolTableRecord
100
AcDbLinetypeTableRecord
  2
ByBlock
 70
     0
  3

 72
    65
 73
     0
 40
0.0
  0
LTYPE
  5
15
330
5
100
AcDbSymbolTableRecord
100
AcDbLinetypeTableRecord
  2
ByLayer
 70
     0
  3

 72
    65
 73
     0
 40
0.0
  0
LTYPE
  5
16
330
5
100
AcDbSymbolTableRecord
100
AcDbLinetypeTableRecord
  2
Continuous
 70
     0
  3
Solid line
 72
    65
 73
     0
 40
0.0
  0
LTYPE
  5
60
330
5
100
AcDbSymbolTableRecord
100
AcDbLinetypeTableRecord
  2
CENTER2
 70
     0
  3
Center (.5x) ___ _ ___ _ ___ _ ___ _ ___ _ ___
 72
    65
 73
     4
 40
28.575
 49
19.05
 74
     4
 75
     0
340
0
 46
0.0
 50
0.0
 44
0.0
 45
0.0
 49
-3.175
 74
     4
 75
     0
340
0
 46
0.0
 50
0.0
 44
0.0
 45
0.0
 49
3.175
 74
     4
 75
     0
340
0
 46
0.0
 50
0.0
 44
0.0
 45
0.0
 49
-3.175
 74
     4
 75
     0
340
0
 46
0.0
 50
0.0
 44
0.0
 45
0.0
  0
ENDTAB
  0
TABLE
  2
LAYER
  5
2
330
0
100
AcDbSymbolTable
 70
    15
  0
LAYER
  5
10
330
2
100
AcDbSymbolTableRecord
100
AcDbLayerTableRecord
  2
0
 70
     0
 62
     7
  6
Continuous
370
    -3
390
F
  0
LAYER
  5
5D
330
2
100
AcDbSymbolTableRecord
100
AcDbLayerTableRecord
  2
Default
 70
     0
 62
     7
  6
Continuous
370
    -3
390
F
  0
LAYER
  5
77
330
2
100
AcDbSymbolTableRecord
100
AcDbLayerTableRecord
  2
08047038_GEH__EL
 70
     0
 62
     7
  6
Continuous
370
    -3
390
F
  0
LAYER
  5
7F
330
2
100
AcDbSymbolTableRecord
100
AcDbLayerTableRecord
  2
08046038_GEH_ELB
 70
     0
 62
     7
  6
Continuous
370
    -3
390
F
  0
LAYER
  5
88
330
2
100
AcDbSymbolTableRecord
100
AcDbLayerTableRecord
  2
$DDT_AUDIT_GENERATED_(88)
 70
     0
 62
     7
  6
Continuous
370
    -3
390
F
  0
LAYER
  5
93
330
2
100
AcDbSymbolTableRecord
100
AcDbLayerTableRecord
  2
$DDT_AUDIT_GENERATED_(93)
 70
     0
 62
     7
  6
Continuous
370
    -3
390
F
  0
LAYER
  5
A0
330
2
100
AcDbSymbolTableRecord
100
AcDbLayerTableRecord
  2
$DDT_AUDIT_GENERATED_(A0)
 70
     0
 62
     7
  6
Continuous
370
    -3
390
F
  0
LAYER
  5
A7
330
2
100
AcDbSymbolTableRecord
100
AcDbLayerTableRecord
  2
06828131_MOUSSEU
 70
     0
 62
     7
  6
Continuous
370
    -3
390
F
  0
LAYER
  5
155
330
2
100
AcDbSymbolTableRecord
100
AcDbLayerTableRecord
  2
08018031_RING
 70
     0
 62
     7
  6
Continuous
370
    -3
390
F
  0
LAYER
  5
158
330
2
100
AcDbSymbolTableRecord
100
AcDbLayerTableRecord
  2
08013038_FÜHRUNG
 70
     0
 62
     7
  6
Continuous
370
    -3
390
F
  0
LAYER
  5
15E
330
2
100
AcDbSymbolTableRecord
100
AcDbLayerTableRecord
  2
$DDT_AUDIT_GENERATED_(15E)
 70
     0
 62
     7
  6
Continuous
370
    -3
390
F
  0
LAYER
  5
188
330
2
100
AcDbSymbolTableRecord
100
AcDbLayerTableRecord
  2
08048038_SOCKEL_
 70
     0
 62
     7
  6
Continuous
370
    -3
390
F
  0
LAYER
  5
1C4
330
2
100
AcDbSymbolTableRecord
100
AcDbLayerTableRecord
  2
08065031_SCHEIBE
 70
     0
 62
     7
  6
Continuous
370
    -3
390
F
  0
LAYER
  5
1EA
330
2
100
AcDbSymbolTableRecord
100
AcDbLayerTableRecord
  2
$DDT_AUDIT_GENERATED_(1EA)
 70
     0
 62
     7
  6
Continuous
370
    -3
390
F
  0
LAYER
  5
1ED
330
2
100
AcDbSymbolTableRecord
100
AcDbLayerTableRecord
  2
$DDT_AUDIT_GENERATED_(1ED)
 70
     0
 62
     7
  6
Continuous
370
    -3
390
F
  0
ENDTAB
  0
TABLE
  2
STYLE
  5
3
330
0
100
AcDbSymbolTable
 70
     2
  0
STYLE
  5
11
330
3
100
AcDbSymbolTableRecord
100
AcDbTextStyleTableRecord
  2
Standard
 70
     0
 40
0.0
 41
1.0
 50
0.0
 71
     0
 42
2.5
  3
txt
  4

  0
STYLE
  5
23B
330
3
100
AcDbSymbolTableRecord
100
AcDbTextStyleTableRecord
  2
SEACAD_seiso_ttf
 70
     0
 40
0.0
 41
1.0
 50
0.0
 71
     0
 42
0.2
  3
seiso.ttf
  4

  0
ENDTAB
  0
TABLE
  2
VIEW
  5
6
330
0
100
AcDbSymbolTable
 70
     0
  0
ENDTAB
  0
TABLE
  2
UCS
  5
7
330
0
100
AcDbSymbolTable
 70
     0
  0
ENDTAB
  0
TABLE
  2
APPID
  5
9
330
0
100
AcDbSymbolTable
 70
     1
  0
APPID
  5
12
330
9
100
AcDbSymbolTableRecord
100
AcDbRegAppTableRecord
  2
ACAD
 70
     0
  0
ENDTAB
  0
TABLE
  2
DIMSTYLE
  5
A
330
0
100
AcDbSymbolTable
 70
     1
100
AcDbDimStyleTable
  0
DIMSTYLE
105
27
330
A
100
AcDbSymbolTableRecord
100
AcDbDimStyleTableRecord
  2
ISO-25
 70
     0
 41
2.5
 42
0.625
 43
3.75
 44
1.25
 73
     0
 74
     0
 77
     1
 78
     8
140
2.5
141
2.5
143
0.0393700787
147
0.625
171
     3
172
     1
271
     2
272
     2
274
     3
278
    44
283
     0
284
     8
340
11
  0
ENDTAB
  0
TABLE
  2
BLOCK_RECORD
  5
1
330
0
100
AcDbSymbolTable
 70
     7
  0
BLOCK_RECORD
  5
1F
330
1
100
AcDbSymbolTableRecord
100
AcDbBlockTableRecord
  2
*Model_Space
340
22
  0
BLOCK_RECORD
  5
1B
330
1
100
AcDbSymbolTableRecord
100
AcDbBlockTableRecord
  2
*Paper_Space
340
1E
  0
BLOCK_RECORD
  5
5E
330
1
100
AcDbSymbolTableRecord
100
AcDbBlockTableRecord
  2
SEANNOT_GROUP
340
0
102
{BLKREFS
331
5F
102
}
  0
BLOCK_RECORD
  5
65
330
1
100
AcDbSymbolTableRecord
100
AcDbBlockTableRecord
  2
SEANNOT_GROUP1
340
0
102
{BLKREFS
331
66
102
}
  0
BLOCK_RECORD
  5
6B
330
1
100
AcDbSymbolTableRecord
100
AcDbBlockTableRecord
  2
SEANNOT_GROUP2
340
0
102
{BLKREFS
331
6C
102
}
  0
BLOCK_RECORD
  5
75
330
1
100
AcDbSymbolTableRecord
100
AcDbBlockTableRecord
  2
SE
340
0
102
{BLKREFS
331
76
102
}
  0
BLOCK_RECORD
  5
198
330
1
100
AcDbSymbolTableRecord
100
AcDbBlockTableRecord
  2
SE1
340
0
102
{BLKREFS
331
199
102
}
  0
BLOCK_RECORD
  5
1F1
330
1
100
AcDbSymbolTableRecord
100
AcDbBlockTableRecord
  2
SE2
340
0
102
{BLKREFS
331
1F2
102
}
  0
ENDTAB
  0
ENDSEC
  0
SECTION
  2
BLOCKS
  0
BLOCK
  5
20
330
1F
100
AcDbEntity
  8
0
100
AcDbBlockBegin
  2
*Model_Space
 70
     0
 10
0.0
 20
0.0
 30
0.0
  3
*Model_Space
  1

  0
ENDBLK
  5
21
330
1F
100
AcDbEntity
  8
0
100
AcDbBlockEnd
  0
BLOCK
  5
1C
330
1B
100
AcDbEntity
 67
     1
  8
0
100
AcDbBlockBegin
  2
*Paper_Space
 70
     0
 10
0.0
 20
0.0
 30
0.0
  3
*Paper_Space
  1

  0
ENDBLK
  5
1D
330
1B
100
AcDbEntity
 67
     1
  8
0
100
AcDbBlockEnd
  0
BLOCK
  5
63
330
5E
100
AcDbEntity
  8
0
100
AcDbBlockBegin
  2
SEANNOT_GROUP
 70
     0
 10
0.0
 20
0.0
 30
0.0
  3
SEANNOT_GROUP
  1

  0
LINE
  5
61
330
5E
100
AcDbEntity
  8
Default
  6
CENTER2
 62
     7
100
AcDbLine
 10
157.3861171684
 20
416.0237756372
 30
0.0
 11
117.3861180624
 21
416.0237756372
 31
0.0
  0
LINE
  5
62
330
5E
100
AcDbEntity
  8
Default
  6
CENTER2
 62
     7
100
AcDbLine
 10
137.3861176154
 20
436.0237751902
 30
0.0
 11
137.3861176154
 21
396.0237760843
 31
0.0
  0
ENDBLK
  5
64
330
5E
100
AcDbEntity
  8
0
100
AcDbBlockEnd
  0
BLOCK
  5
69
330
65
100
AcDbEntity
  8
0
100
AcDbBlockBegin
  2
SEANNOT_GROUP1
 70
     0
 10
0.0
 20
0.0
 30
0.0
  3
SEANNOT_GROUP1
  1

  0
LINE
  5
67
330
65
100
AcDbEntity
  8
Default
  6
CENTER2
 62
     7
100
AcDbLine
 10
369.1600417586
 20
416.0237756372
 30
0.0
 11
329.1600426526
 21
416.0237756372
 31
0.0
  0
LINE
  5
68
330
65
100
AcDbEntity
  8
Default
  6
CENTER2
 62
     7
100
AcDbLine
 10
349.1600422056
 20
436.0237751902
 30
0.0
 11
349.1600422056
 21
396.0237760843
 31
0.0
  0
ENDBLK
  5
6A
330
65
100
AcDbEntity
  8
0
100
AcDbBlockEnd
  0
BLOCK
  5
73
330
6B
100
AcDbEntity
  8
0
100
AcDbBlockBegin
  2
SEANNOT_GROUP2
 70
     0
 10
0.0
 20
0.0
 30
0.0
  3
SEANNOT_GROUP2
  1

  0
LINE
  5
6D
330
6B
100
AcDbEntity
  8
Default
  6
CENTER2
 62
     7
100
AcDbLine
 10
157.3861171684
 20
270.0731708673
 30
0.0
 11
117.3861180624
 21
270.0731708673
 31
0.0
  0
LINE
  5
6E
330
6B
100
AcDbEntity
  8
Default
  6
CENTER2
 62
     7
100
AcDbLine
 10
137.3861176154
 20
290.0731704203
 30
0.0
 11
137.3861176154
 21
250.0731713144
 31
0.0
  0
LINE
  5
6F
330
6B
100
AcDbEntity
  8
Default
  6
CENTER2
 62
     7
100
AcDbLine
 10
162.3861170566
 20
270.0731708673
 30
0.0
 11
168.3861176154
 21
270.0731708673
 31
0.0
  0
LINE
  5
70
330
6B
100
AcDbEntity
  8
Default
  6
CENTER2
 62
     7
100
AcDbLine
 10
137.3861176154
 20
295.0731703086
 30
0.0
 11
137.3861176154
 21
301.0731708673
 31
0.0
  0
LINE
  5
71
330
6B
100
AcDbEntity
  8
Default
  6
CENTER2
 62
     7
100
AcDbLine
 10
112.3861181742
 20
270.0731708673
 30
0.0
 11
106.3861176154
 21
270.0731708673
 31
0.0
  0
LINE
  5
72
330
6B
100
AcDbEntity
  8
Default
  6
CENTER2
 62
     7
100
AcDbLine
 10
137.3861176154
 20
245.0731714261
 30
0.0
 11
137.3861176154
 21
239.0731708673
 31
0.0
  0
ENDBLK
  5
74
330
6B
100
AcDbEntity
  8
0
100
AcDbBlockEnd
  0
BLOCK
  5
196
330
75
100
AcDbEntity
  8
0
100
AcDbBlockBegin
  2
SE
 70
     0
 10
0.0
 20
0.0
 30
0.0
  3
SE
  1

  0
LINE
  5
78
330
75
100
AcDbEntity
  8
08047038_GEH__EL
  6
Continuous
 62
     7
100
AcDbLine
 10
119.8861176154
 20
514.0237756372
 30
0.0
 11
154.8861176154
 21
514.0237756372
 31
0.0
  0
LINE
  5
79
330
75
100
AcDbEntity
  8
08047038_GEH__EL
  6
Continuous
 62
     7
100
AcDbLine
 10
155.3861176154
 20
504.0237756372
 30
0.0
 11
155.3861176154
 21
513.5237756372
 31
0.0
  0
LINE
  5
7A
330
75
100
AcDbEntity
  8
08047038_GEH__EL
  6
Continuous
 62
     7
100
AcDbLine
 10
155.3861176154
 20
426.0237756372
 30
0.0
 11
155.3861176154
 21
468.0237756372
 31
0.0
  0
LINE
  5
7B
330
75
100
AcDbEntity
  8
08047038_GEH__EL
  6
Continuous
 62
     7
100
AcDbLine
 10
119.3861176154
 20
468.0237756372
 30
0.0
 11
119.3861176154
 21
426.0237756372
 31
0.0
  0
LINE
  5
7C
330
75
100
AcDbEntity
  8
08047038_GEH__EL
  6
Continuous
 62
     7
100
AcDbLine
 10
119.3861176154
 20
513.5237756372
 30
0.0
 11
119.3861176154
 21
504.0237756372
 31
0.0
  0
ARC
  5
7D
330
75
100
AcDbEntity
  8
08047038_GEH__EL
  6
Continuous
 62
     7
100
AcDbCircle
 10
154.8861176154
 20
513.5237756372
 30
0.0
 40
0.5000000000000004
100
AcDbArc
 50
0.0
 51
90.0
  0
ARC
  5
7E
330
75
100
AcDbEntity
  8
08047038_GEH__EL
  6
Continuous
 62
     7
100
AcDbCircle
 10
119.8861176154
 20
513.5237756372
 30
0.0
 40
0.5000000000000004
100
AcDbArc
 50
90.0
 51
180.0
  0
LINE
  5
80
330
75
100
AcDbEntity
  8
08046038_GEH_ELB
  6
Continuous
 62
     7
100
AcDbLine
 10
82.3861176154
 20
468.5237756372
 30
0.0
 11
82.3861176154
 21
503.5237756372
 31
0.0
  0
LINE
  5
81
330
75
100
AcDbEntity
  8
08046038_GEH_ELB
  6
Continuous
 62
     7
100
AcDbLine
 10
192.3861176154
 20
503.5237756372
 30
0.0
 11
192.3861176154
 21
468.5237756372
 31
0.0
  0
ARC
  5
82
330
75
100
AcDbEntity
  8
08046038_GEH_ELB
  6
Continuous
 62
     7
100
AcDbCircle
 10
82.8861176154
 20
503.5237756372
 30
0.0
 40
0.5000000000000004
100
AcDbArc
 50
90.0
 51
180.0
  0
ARC
  5
83
330
75
100
AcDbEntity
  8
08046038_GEH_ELB
  6
Continuous
 62
     7
100
AcDbCircle
 10
82.8861176154
 20
468.5237756372
 30
0.0
 40
0.5000000000000004
100
AcDbArc
 50
180.0
 51
270.0
  0
ARC
  5
84
330
75
100
AcDbEntity
  8
08046038_GEH_ELB
  6
Continuous
 62
     7
100
AcDbCircle
 10
191.8861176154
 20
503.5237756372
 30
0.0
 40
0.5000000000000004
100
AcDbArc
 50
0.0
 51
90.0
  0
ARC
  5
85
330
75
100
AcDbEntity
  8
08046038_GEH_ELB
  6
Continuous
 62
     7
100
AcDbCircle
 10
191.8861176154
 20
468.5237756372
 30
0.0
 40
0.5000000000000004
100
AcDbArc
 50
270.0
 51
0.0
  0
LINE
  5
86
330
75
100
AcDbEntity
  8
08046038_GEH_ELB
  6
Continuous
 62
     7
100
AcDbLine
 10
191.8861176154
 20
504.0237756372
 30
0.0
 11
82.8861176154
 21
504.0237756372
 31
0.0
  0
LINE
  5
87
330
75
100
AcDbEntity
  8
08046038_GEH_ELB
  6
Continuous
 62
     7
100
AcDbLine
 10
82.8861176154
 20
468.0237756372
 30
0.0
 11
191.8861176154
 21
468.0237756372
 31
0.0
  0
LINE
  5
89
330
75
100
AcDbEntity
  8
$DDT_AUDIT_GENERATED_(88)
  6
Continuous
 62
     7
100
AcDbLine
 10
148.8861176154
 20
521.3737756372
 30
0.0
 11
125.8861176154
 21
521.3737756372
 31
0.0
  0
LINE
  5
8A
330
75
100
AcDbEntity
  8
$DDT_AUDIT_GENERATED_(88)
  6
Continuous
 62
     7
100
AcDbLine
 10
122.8861176154
 20
521.0237756372
 30
0.0
 11
151.8861176154
 21
521.0237756372
 31
0.0
  0
LINE
  5
8B
330
75
100
AcDbEntity
  8
$DDT_AUDIT_GENERATED_(88)
  6
Continuous
 62
     7
100
AcDbLine
 10
122.3861176154
 20
520.5237756372
 30
0.0
 11
122.3861176154
 21
514.0237756372
 31
0.0
  0
LINE
  5
8C
330
75
100
AcDbEntity
  8
$DDT_AUDIT_GENERATED_(88)
  6
Continuous
 62
     7
100
AcDbLine
 10
152.3861176154
 20
514.0237756372
 30
0.0
 11
152.3861176154
 21
520.5237756372
 31
0.0
  0
LINE
  5
8D
330
75
100
AcDbEntity
  8
$DDT_AUDIT_GENERATED_(88)
  6
Continuous
 62
     7
100
AcDbLine
 10
125.8861176154
 20
521.3737756372
 30
0.0
 11
125.8861176154
 21
521.0237756372
 31
0.0
  0
LINE
  5
8E
330
75
100
AcDbEntity
  8
$DDT_AUDIT_GENERATED_(88)
  6
Continuous
 62
     7
100
AcDbLine
 10
148.8861176154
 20
521.0237756372
 30
0.0
 11
148.8861176154
 21
521.3737756372
 31
0.0
  0
LINE
  5
8F
330
75
100
AcDbEntity
  8
$DDT_AUDIT_GENERATED_(88)
  6
Continuous
 62
     7
100
AcDbLine
 10
148.8861176154
 20
521.3737756372
 30
0.0
 11
148.2361176154
 21
522.0237756372
 31
0.0
  0
LINE
  5
90
330
75
100
AcDbEntity
  8
$DDT_AUDIT_GENERATED_(88)
  6
Continuous
 62
     7
100
AcDbLine
 10
126.5361176154
 20
522.0237756372
 30
0.0
 11
125.8861176154
 21
521.3737756372
 31
0.0
  0
ARC
  5
91
330
75
100
AcDbEntity
  8
$DDT_AUDIT_GENERATED_(88)
  6
Continuous
 62
     7
100
AcDbCircle
 10
122.8861176154
 20
520.5237756372
 30
0.0
 40
0.5000000000000004
100
AcDbArc
 50
90.0
 51
180.0
  0
ARC
  5
92
330
75
100
AcDbEntity
  8
$DDT_AUDIT_GENERATED_(88)
  6
Continuous
 62
     7
100
AcDbCircle
 10
151.8861176154
 20
520.5237756372
 30
0.0
 40
0.5000000000000004
100
AcDbArc
 50
0.0
 51
90.0
  0
LINE
  5
94
330
75
100
AcDbEntity
  8
$DDT_AUDIT_GENERATED_(93)
  6
Continuous
 62
     7
100
AcDbLine
 10
125.8861176154
 20
522.0237756372
 30
0.0
 11
148.8861176154
 21
522.0237756372
 31
0.0
  0
ELLIPSE
  5
95
330
75
100
AcDbEntity
  8
$DDT_AUDIT_GENERATED_(93)
  6
Continuous
 62
     7
100
AcDbEllipse
 10
137.3861176154
 20
625.6309463207
 30
0.0
 11
11.50000000000001
 21
0.0
 31
0.0
210
0.0
220
0.0
230
1.0
 40
0.1736481777
 41
0.0
 42
3.273564498111608
  0
ELLIPSE
  5
96
330
75
100
AcDbEntity
  8
$DDT_AUDIT_GENERATED_(93)
  6
Continuous
 62
     7
100
AcDbEllipse
 10
137.3861176154
 20
625.6309463207
 30
0.0
 11
11.50000000000001
 21
0.0
 31
0.0
210
0.0
220
0.0
230
1.0
 40
0.1736481777
 41
6.15121346265778
 42
6.283185307179586
  0
LINE
  5
97
330
75
100
AcDbEntity
  8
$DDT_AUDIT_GENERATED_(93)
  6
Continuous
 62
     7
100
AcDbLine
 10
125.8861176154
 20
618.0237756372
 30
0.0
 11
125.8861176154
 21
522.0237756372
 31
0.0
  0
LINE
  5
98
330
75
100
AcDbEntity
  8
$DDT_AUDIT_GENERATED_(93)
  6
Continuous
 62
     7
100
AcDbLine
 10
148.8861176154
 20
522.0237756372
 30
0.0
 11
148.8861176154
 21
618.0237756372
 31
0.0
  0
ARC
  5
99
330
75
100
AcDbEntity
  8
$DDT_AUDIT_GENERATED_(93)
  6
Continuous
 62
     7
100
AcDbCircle
 10
137.3861176154
 20
693.0237756372
 30
0.0
 40
11.5
100
AcDbArc
 50
0.0
 51
180.0
  0
LINE
  5
9A
330
75
100
AcDbEntity
  8
$DDT_AUDIT_GENERATED_(93)
  6
Continuous
 62
     7
100
AcDbLine
 10
125.8861176154
 20
625.6309463207
 30
0.0
 11
125.8861176154
 21
618.0237756372
 31
0.0
  0
LINE
  5
9B
330
75
100
AcDbEntity
  8
$DDT_AUDIT_GENERATED_(93)
  6
Continuous
 62
     7
100
AcDbLine
 10
125.8861176154
 20
693.0237756372
 30
0.0
 11
125.8861176154
 21
631.0473889623
 31
0.0
  0
LINE
  5
9C
330
75
100
AcDbEntity
  8
$DDT_AUDIT_GENERATED_(93)
  6
Continuous
 62
     7
100
AcDbLine
 10
148.8861176154
 20
631.0473889623
 30
0.0
 11
148.8861176154
 21
693.0237756372
 31
0.0
  0
LINE
  5
9D
330
75
100
AcDbEntity
  8
$DDT_AUDIT_GENERATED_(93)
  6
Continuous
 62
     7
100
AcDbLine
 10
148.8861176154
 20
618.0237756372
 30
0.0
 11
148.8861176154
 21
625.6309463207
 31
0.0
  0
LINE
  5
9E
330
75
100
AcDbEntity
  8
$DDT_AUDIT_GENERATED_(93)
  6
Continuous
 62
     7
100
AcDbLine
 10
148.8861176154
 20
625.6309463207
 30
0.0
 11
148.8861176154
 21
631.0473889623
 31
0.0
  0
LINE
  5
9F
330
75
100
AcDbEntity
  8
$DDT_AUDIT_GENERATED_(93)
  6
Continuous
 62
     7
100
AcDbLine
 10
125.8861176154
 20
631.0473889623
 30
0.0
 11
125.8861176154
 21
625.6309463207
 31
0.0
  0
ELLIPSE
  5
A1
330
75
100
AcDbEntity
  8
$DDT_AUDIT_GENERATED_(A0)
  6
Continuous
 62
     7
100
AcDbEllipse
 10
137.3861176154
 20
609.5293395589
 30
0.0
 11
10.05000000000001
 21
0.0
 31
0.0
210
0.0
220
0.0
230
1.0
 40
0.1736481777
 41
0.0
 42
3.684825365494465
  0
ELLIPSE
  5
A2
330
75
100
AcDbEntity
  8
$DDT_AUDIT_GENERATED_(A0)
  6
Continuous
 62
     7
100
AcDbEllipse
 10
137.3861176154
 20
609.5293395589
 30
0.0
 11
10.05000000000001
 21
0.0
 31
0.0
210
0.0
220
0.0
230
1.0
 40
0.1736481777
 41
5.739952595274908
 42
6.283185307179586
  0
LINE
  5
A3
330
75
100
AcDbEntity
  8
$DDT_AUDIT_GENERATED_(A0)
  6
Continuous
 62
     7
100
AcDbLine
 10
148.7861176154
 20
610.514147312
 30
0.0
 11
148.7861176154
 21
626.1233501972
 31
0.0
  0
LINE
  5
A4
330
75
100
AcDbEntity
  8
$DDT_AUDIT_GENERATED_(A0)
  6
Continuous
 62
     7
100
AcDbLine
 10
125.9861176154
 20
626.1233501972
 30
0.0
 11
125.9861176154
 21
610.514147312
 31
0.0
  0
SPLINE
  5
A5
330
75
100
AcDbEntity
  8
$DDT_AUDIT_GENERATED_(A0)
  6
Continuous
 62
     7
100
AcDbSpline
210
0.0
220
0.0
230
1.0
 70
     8
 71
     3
 72
    17
 73
    13
 74
     0
 42
0.0000000005324896
 43
0.0000000001
 40
0.0
 40
0.0
 40
0.0
 40
0.0
 40
0.0122136016079847
 40
0.0318133472915581
 40
0.051598027004304
 40
0.0735153510548669
 40
0.1001022097341694
 40
0.134487846041819
 40
0.1701833270127318
 40
0.2077319588527688
 40
0.243626336429349
 40
0.2501077014640445
 40
0.2501077014640445
 40
0.2501077014640445
 40
0.2501077014640445
 10
126.0021349344405
 20
610.5088497484704
 30
0.0
 10
126.0002659185652
 20
610.4173970608826
 30
0.0
 10
125.9976143724682
 20
610.2164094238113
 30
0.0
 10
126.1261872604181
 20
609.8891428637729
 30
0.0
 10
126.3286104648062
 20
609.5915916662002
 30
0.0
 10
126.5963879108672
 20
609.3376512510256
 30
0.0
 10
126.9489087551835
 20
609.1022625001827
 30
0.0
 10
127.4122825274618
 20
608.8807067274063
 30
0.0
 10
128.0146674551836
 20
608.6677295471965
 30
0.0
 10
128.727843117074
 20
608.4753757380522
 30
0.0
 10
129.3256899888611
 20
608.3492558608741
 30
0.0
 10
129.6646431476358
 20
608.2868446754691
 30
0.0
 10
129.7169918210614
 20
608.277403935154
 30
0.0
  0
SPLINE
  5
A6
330
75
100
AcDbEntity
  8
$DDT_AUDIT_GENERATED_(A0)
  6
Continuous
 62
     7
100
AcDbSpline
210
0.0
220
0.0
230
1.0
 70
     8
 71
     3
 72
    17
 73
    13
 74
     0
 42
0.0000000005300366
 43
0.0000000001
 40
0.7459239642296037
 40
0.7459239642296037
 40
0.7459239642296037
 40
0.7459239642296037
 40
0.7553880689085102
 40
0.7901095845957454
 40
0.8253715951993881
 40
0.8615906371778043
 40
0.899646387649856
 40
0.9291424991189567
 40
0.9518938731740854
 40
0.9721993559916117
 40
0.9913951330735782
 40
1.0
 40
1.0
 40
1.0
 40
1.0
 10
144.9723191614158
 20
608.2626114556679
 30
0.0
 10
145.0495300622403
 20
608.2762351026538
 30
0.0
 10
145.4050165164589
 20
608.3408901879277
 30
0.0
 10
146.0012753953956
 20
608.4658594655323
 30
0.0
 10
146.7027839880734
 20
608.651543020319
 30
0.0
 10
147.325738810922
 20
608.8656557772766
 30
0.0
 10
147.82596604272
 20
609.1008657911725
 30
0.0
 10
148.207293643472
 20
609.3599868470257
 30
0.0
 10
148.487980969572
 20
609.6422596392164
 30
0.0
 10
148.6811450091345
 20
609.9617431664761
 30
0.0
 10
148.7869442670129
 20
610.2798168995594
 30
0.0
 10
148.7747865268363
 20
610.4550613901498
 30
0.0
 10
148.7699901332093
 20
610.5190207375261
 30
0.0
  0
ELLIPSE
  5
A8
330
75
100
AcDbEntity
  8
06828131_MOUSSEU
  6
Continuous
 62
     7
100
AcDbEllipse
 10
137.3861176154
 20
609.0861760701
 30
0.0
 11
-9.0
 21
0.0
 31
0.0
210
0.0
220
0.0
230
1.0
 40
0.1736481777
 41
0.0
 42
6.283185307179586
  0
ELLIPSE
  5
A9
330
75
100
AcDbEntity
  8
06828131_MOUSSEU
  6
Continuous
 62
     7
100
AcDbEllipse
 10
137.3861176154
 20
609.0861760701
 30
0.0
 11
5.25
 21
0.0
 31
0.0
210
0.0
220
0.0
230
1.0
 40
0.1736481777
 41
0.0
 42
6.283185307179586
  0
ELLIPSE
  5
AA
330
75
100
AcDbEntity
  8
06828131_MOUSSEU
  6
Continuous
 62
     7
100
AcDbEllipse
 10
137.3861176154
 20
609.0861760701
 30
0.0
 11
-6.249999999999998
 21
0.0
 31
0.0
210
0.0
220
0.0
230
1.0
 40
0.1736481777
 41
0.0
 42
6.283185307179586
  0
ELLIPSE
  5
AB
330
75
100
AcDbEntity
  8
06828131_MOUSSEU
  6
Continuous
 62
     7
100
AcDbEllipse
 10
137.3861176154
 20
609.0861760701
 30
0.0
 11
2.750000000000001
 21
0.0
 31
0.0
210
0.0
220
0.0
230
1.0
 40
0.1736481777
 41
0.0
 42
6.283185307179586
  0
ELLIPSE
  5
AC
330
75
100
AcDbEntity
  8
06828131_MOUSSEU
  6
Continuous
 62
     7
100
AcDbEllipse
 10
137.3861176154
 20
609.0861760701
 30
0.0
 11
-2.15
 21
0.0
 31
0.0
210
0.0
220
0.0
230
1.0
 40
0.1736481777
 41
0.0
 42
6.283185307179586
  0
ELLIPSE
  5
AD
330
75
100
AcDbEntity
  8
06828131_MOUSSEU
  6
Continuous
 62
     7
100
AcDbEllipse
 10
137.3861176154
 20
609.2831376207
 30
0.0
 11
-0.5196299438963558
 21
0.0
 31
0.0
210
0.0
220
0.0
230
1.0
 40
0.1736481777
 41
0.0
 42
6.283185307179586
  0
ELLIPSE
  5
AE
330
75
100
AcDbEntity
  8
06828131_MOUSSEU
  6
Continuous
 62
     7
100
AcDbEllipse
 10
137.3861176154
 20
609.0861760701
 30
0.0
 11
-8.699999999999999
 21
0.0
 31
0.0
210
0.0
220
0.0
230
1.0
 40
0.1736481777
 41
0.0
 42
6.283185307179586
  0
ARC
  5
AF
330
75
100
AcDbEntity
  8
06828131_MOUSSEU
  6
Continuous
 62
     7
100
AcDbCircle
 10
137.3861176154
 20
574.3805915958
 30
0.0
 40
35.98784714392341
100
AcDbArc
 50
89.8407911065
 51
90.1592088935
  0
LINE
  5
B0
330
75
100
AcDbEntity
  8
06828131_MOUSSEU
  6
Continuous
 62
     7
100
AcDbLine
 10
137.4861176154
 20
610.3682998037
 30
0.0
 11
137.4861176154
 21
610.5968154147
 31
0.0
  0
LINE
  5
B1
330
75
100
AcDbEntity
  8
06828131_MOUSSEU
  6
Continuous
 62
     7
100
AcDbLine
 10
137.2861176154
 20
610.3682998037
 30
0.0
 11
137.2861176154
 21
610.5968154147
 31
0.0
  0
LINE
  5
B2
330
75
100
AcDbEntity
  8
06828131_MOUSSEU
  6
Continuous
 62
     7
100
AcDbLine
 10
139.1104418163
 20
609.3036771897
 30
0.0
 11
137.9057475593
 21
609.4244548028
 31
0.0
  0
LINE
  5
B3
330
75
100
AcDbEntity
  8
06828131_MOUSSEU
  6
Continuous
 62
     7
100
AcDbLine
 10
135.6617934145
 20
609.3036771897
 30
0.0
 11
136.8664876715
 21
609.4244548028
 31
0.0
  0
ELLIPSE
  5
B4
330
75
100
AcDbEntity
  8
06828131_MOUSSEU
  6
Continuous
 62
     7
100
AcDbEllipse
 10
137.3861176005
 20
609.283137611
 30
0.0
 11
6.250000030715033
 21
2.584182867693130E-9
 31
0.0
210
0.0
220
0.0
230
1.0
 40
0.1736481784
 41
1.292996255103311
 42
1.324997620446389
  0
LINE
  5
B5
330
75
100
AcDbEntity
  8
06828131_MOUSSEU
  6
Continuous
 62
     7
100
AcDbLine
 10
139.1001221614
 20
610.3268294534
 30
0.0
 11
139.4503144032
 21
610.5537763759
 31
0.0
  0
LINE
  5
B6
330
75
100
AcDbEntity
  8
06828131_MOUSSEU
  6
Continuous
 62
     7
100
AcDbLine
 10
138.9069369962
 20
610.3358181445
 30
0.0
 11
139.2553814426
 21
610.5616323841
 31
0.0
  0
LINE
  5
B7
330
75
100
AcDbEntity
  8
06828131_MOUSSEU
  6
Continuous
 62
     7
100
AcDbLine
 10
138.9069369962
 20
610.3358181445
 30
0.0
 11
138.9069369962
 21
610.5736539863
 31
0.0
  0
ELLIPSE
  5
B8
330
75
100
AcDbEntity
  8
06828131_MOUSSEU
  6
Continuous
 62
     7
100
AcDbEllipse
 10
137.3861175861
 20
609.2831376119
 30
0.0
 11
6.250000036601727
 21
4.538924791575027E-9
 31
0.0
210
0.0
220
0.0
230
1.0
 40
0.1736481781
 41
1.031196866372808
 42
1.063198231713479
  0
LINE
  5
B9
330
75
100
AcDbEntity
  8
06828131_MOUSSEU
  6
Continuous
 62
     7
100
AcDbLine
 10
140.5973201302
 20
610.2142332295
 30
0.0
 11
141.3252978512
 21
610.4331852442
 31
0.0
  0
LINE
  5
BA
330
75
100
AcDbEntity
  8
06828131_MOUSSEU
  6
Continuous
 62
     7
100
AcDbLine
 10
140.4241150494
 20
610.2315980473
 30
0.0
 11
141.1455597259
 21
610.4485851347
 31
0.0
  0
LINE
  5
BB
330
75
100
AcDbEntity
  8
06828131_MOUSSEU
  6
Continuous
 62
     7
100
AcDbLine
 10
140.4241150494
 20
610.2315980473
 30
0.0
 11
140.4241150494
 21
610.5018142466
 31
0.0
  0
ELLIPSE
  5
BC
330
75
100
AcDbEntity
  8
06828131_MOUSSEU
  6
Continuous
 62
     7
100
AcDbEllipse
 10
137.3861176583
 20
609.2831376281
 30
0.0
 11
6.2499999544838
 21
-5.395905944283186E-9
 31
0.0
210
0.0
220
0.0
230
1.0
 40
0.1736481777
 41
0.7693974831501073
 42
0.8013988487962032
  0
LINE
  5
BD
330
75
100
AcDbEntity
  8
06828131_MOUSSEU
  6
Continuous
 62
     7
100
AcDbLine
 10
141.8756799543
 20
610.0381843786
 30
0.0
 11
143.0214673659
 21
610.2371482746
 31
0.0
  0
LINE
  5
BE
330
75
100
AcDbEntity
  8
06828131_MOUSSEU
  6
Continuous
 62
     7
100
AcDbLine
 10
141.7342585981
 20
610.0627419394
 30
0.0
 11
142.8669519439
 21
610.2594320747
 31
0.0
  0
LINE
  5
BF
330
75
100
AcDbEntity
  8
06828131_MOUSSEU
  6
Continuous
 62
     7
100
AcDbLine
 10
141.7342585981
 20
610.0627419394
 30
0.0
 11
141.7342585981
 21
610.394700873
 31
0.0
  0
ELLIPSE
  5
C0
330
75
100
AcDbEntity
  8
06828131_MOUSSEU
  6
Continuous
 62
     7
100
AcDbEllipse
 10
137.3861175655
 20
609.2831376157
 30
0.0
 11
6.250000050434312
 21
4.428013511414974E-9
 31
0.0
210
0.0
220
0.0
230
1.0
 40
0.1736481773
 41
0.5075980908068453
 42
0.5395994561499237
  0
LINE
  5
C1
330
75
100
AcDbEntity
  8
06828131_MOUSSEU
  6
Continuous
 62
     7
100
AcDbLine
 10
142.8480835244
 20
609.8106803389
 30
0.0
 11
144.4405466902
 21
609.9703340427
 31
0.0
  0
LINE
  5
C2
330
75
100
AcDbEntity
  8
06828131_MOUSSEU
  6
Continuous
 62
     7
100
AcDbLine
 10
142.7480835244
 20
609.8407570855
 30
0.0
 11
144.3208633555
 21
609.9984374205
 31
0.0
  0
LINE
  5
C3
330
75
100
AcDbEntity
  8
06828131_MOUSSEU
  6
Continuous
 62
     7
100
AcDbLine
 10
142.7480835244
 20
609.8407570855
 30
0.0
 11
142.7480835244
 21
610.1896756687
 31
0.0
  0
ELLIPSE
  5
C4
330
75
100
AcDbEntity
  8
06828131_MOUSSEU
  6
Continuous
 62
     7
100
AcDbEllipse
 10
137.3861175597
 20
609.2831376181
 30
0.0
 11
6.250000055735419
 21
2.602501547599445E-9
 31
0.0
210
0.0
220
0.0
230
1.0
 40
0.173648177
 41
0.2457987039019032
 42
0.2778000692448844
  0
LINE
  5
C5
330
75
100
AcDbEntity
  8
06828131_MOUSSEU
  6
Continuous
 62
     7
100
AcDbLine
 10
143.4482631441
 20
609.5472251347
 30
0.0
 11
145.4767824025
 21
609.6416098821
 31
0.0
  0
LINE
  5
C6
330
75
100
AcDbEntity
  8
06828131_MOUSSEU
  6
Continuous
 62
     7
100
AcDbLine
 10
143.3964993351
 20
609.5807713866
 30
0.0
 11
145.4004935125
 21
609.6740150092
 31
0.0
  0
LINE
  5
C7
330
75
100
AcDbEntity
  8
06828131_MOUSSEU
  6
Continuous
 62
     7
100
AcDbLine
 10
143.3964993351
 20
609.5807713866
 30
0.0
 11
143.3964993351
 21
609.8656622168
 31
0.0
  0
ARC
  5
C8
330
75
100
AcDbEntity
  8
06828131_MOUSSEU
  6
Continuous
 62
     7
100
AcDbCircle
 10
145.6292407362
 20
609.2831376207
 30
0.0
 40
0.2568762259794977
100
AcDbArc
 50
356.1238526717
 51
3.8761473284
  0
ELLIPSE
  5
C9
330
75
100
AcDbEntity
  8
06828131_MOUSSEU
  6
Continuous
 62
     7
100
AcDbEllipse
 10
137.3861176154
 20
609.2831376207
 30
0.0
 11
8.500000000035403
 21
1.415534356397075E-12
 31
0.0
210
0.0
220
0.0
230
1.0
 40
0.1736481777
 41
0.0117649772882063
 42
0.111913922565136
  0
ARC
  5
CA
330
75
100
AcDbEntity
  8
06828131_MOUSSEU
  6
Continuous
 62
     7
100
AcDbCircle
 10
143.4468811287
 20
609.2831376207
 30
0.0
 40
0.189234846521929
100
AcDbArc
 50
0.0
 51
5.2650577286
  0
LINE
  5
CB
330
75
100
AcDbEntity
  8
06828131_MOUSSEU
  6
Continuous
 62
     7
100
AcDbLine
 10
143.6361176154
 20
609.2657728029
 30
0.0
 11
145.8855293598
 21
609.2657728029
 31
0.0
  0
LINE
  5
CC
330
75
100
AcDbEntity
  8
06828131_MOUSSEU
  6
Continuous
 62
     7
100
AcDbLine
 10
143.6353175642
 20
609.3005024385
 30
0.0
 11
145.8855293598
 21
609.3005024385
 31
0.0
  0
LINE
  5
CD
330
75
100
AcDbEntity
  8
06828131_MOUSSEU
  6
Continuous
 62
     7
100
AcDbLine
 10
143.6353175642
 20
609.3005024385
 30
0.0
 11
143.6353175642
 21
609.5559285691
 31
0.0
  0
ELLIPSE
  5
CE
330
75
100
AcDbEntity
  8
06828131_MOUSSEU
  6
Continuous
 62
     7
100
AcDbEllipse
 10
137.3861180711
 20
609.2831375994
 30
0.0
 11
8.499999544085686
 21
2.120148501205676E-8
 31
0.0
210
0.0
220
0.0
230
1.0
 40
0.1736481818
 41
-0.2735643727842465
 42
-0.2500344175551525
  0
ELLIPSE
  5
CF
330
75
100
AcDbEntity
  8
06828131_MOUSSEU
  6
Continuous
 62
     7
100
AcDbEllipse
 10
137.3861176154
 20
609.2831376207
 30
0.0
 11
8.500000000002171
 21
-6.383782391594650E-13
 31
0.0
210
0.0
220
0.0
230
1.0
 40
0.1736481777
 41
6.033150896668547
 42
6.271420329891399
  0
LINE
  5
D0
330
75
100
AcDbEntity
  8
06828131_MOUSSEU
  6
Continuous
 62
     7
100
AcDbLine
 10
145.6218008321
 20
608.9179178129
 30
0.0
 11
145.6218008321
 21
609.2657728029
 31
0.0
  0
LINE
  5
D1
330
75
100
AcDbEntity
  8
06828131_MOUSSEU
  6
Continuous
 62
     7
100
AcDbLine
 10
143.6037473228
 20
608.9758608361
 30
0.0
 11
145.570037023
 21
608.884371561
 31
0.0
  0
LINE
  5
D2
330
75
100
AcDbEntity
  8
06828131_MOUSSEU
  6
Continuous
 62
     7
100
AcDbLine
 10
143.6211090002
 20
609.011007781
 30
0.0
 11
145.6218008321
 21
608.9179178129
 31
0.0
  0
ELLIPSE
  5
D3
330
75
100
AcDbEntity
  8
06828131_MOUSSEU
  6
Continuous
 62
     7
100
AcDbEllipse
 10
137.3861180248
 20
609.2831375796
 30
0.0
 11
8.499999586408908
 21
3.671007942074311E-8
 31
0.0
210
0.0
220
0.0
230
1.0
 40
0.1736481801
 41
-0.535363766004088
 42
-0.511833810773668
  0
ELLIPSE
  5
D4
330
75
100
AcDbEntity
  8
06828131_MOUSSEU
  6
Continuous
 62
     7
100
AcDbEllipse
 10
137.3861176154
 20
609.2831376207
 30
0.0
 11
8.500000000030708
 21
-2.414735078559715E-12
 31
0.0
210
0.0
220
0.0
230
1.0
 40
0.1736481777
 41
-0.5118337983092349
 42
-0.2735643650867203
  0
LINE
  5
D5
330
75
100
AcDbEntity
  8
06828131_MOUSSEU
  6
Continuous
 62
     7
100
AcDbLine
 10
144.7968241032
 20
608.5602223137
 30
0.0
 11
144.7968241032
 21
608.9203482991
 31
0.0
  0
LINE
  5
D6
330
75
100
AcDbEntity
  8
06828131_MOUSSEU
  6
Continuous
 62
     7
100
AcDbLine
 10
143.1857202049
 20
608.6816425307
 30
0.0
 11
144.6968241032
 21
608.530145567
 31
0.0
  0
LINE
  5
D7
330
75
100
AcDbEntity
  8
06828131_MOUSSEU
  6
Continuous
 62
     7
100
AcDbLine
 10
143.258151768
 20
608.7144831736
 30
0.0
 11
144.7968241032
 21
608.5602223137
 31
0.0
  0
ELLIPSE
  5
D8
330
75
100
AcDbEntity
  8
06828131_MOUSSEU
  6
Continuous
 62
     7
100
AcDbEllipse
 10
137.3861179727
 20
609.2831375587
 30
0.0
 11
8.499999621019564
 21
4.516859108960602E-8
 31
0.0
210
0.0
220
0.0
230
1.0
 40
0.1736481777
 41
-0.7971631568183124
 42
-0.7736332015426282
  0
ELLIPSE
  5
D9
330
75
100
AcDbEntity
  8
06828131_MOUSSEU
  6
Continuous
 62
     7
100
AcDbEllipse
 10
137.3861176154
 20
609.2831376207
 30
0.0
 11
8.500000000019794
 21
-1.693090112553364E-12
 31
0.0
210
0.0
220
0.0
230
1.0
 40
0.1736481777
 41
-0.7736331861084498
 42
-0.5353637528858126
  0
LINE
  5
DA
330
75
100
AcDbEntity
  8
06828131_MOUSSEU
  6
Continuous
 62
     7
100
AcDbLine
 10
143.4668199741
 20
608.251792298
 30
0.0
 11
143.4668199741
 21
608.6534606422
 31
0.0
  0
LINE
  5
DB
330
75
100
AcDbEntity
  8
06828131_MOUSSEU
  6
Continuous
 62
     7
100
AcDbLine
 10
142.2739835889
 20
608.4098110409
 30
0.0
 11
143.3253986178
 21
608.2272347372
 31
0.0
  0
LINE
  5
DC
330
75
100
AcDbEntity
  8
06828131_MOUSSEU
  6
Continuous
 62
     7
100
AcDbLine
 10
142.3971031216
 20
608.43754668
 30
0.0
 11
143.4668199741
 21
608.251792298
 31
0.0
  0
ELLIPSE
  5
DD
330
75
100
AcDbEntity
  8
06828131_MOUSSEU
  6
Continuous
 62
     7
100
AcDbEllipse
 10
137.3861178343
 20
609.2831375549
 30
0.0
 11
8.499999726481064
 21
3.394970415904197E-8
 31
0.0
210
0.0
220
0.0
230
1.0
 40
0.1736481754
 41
-1.058962540636847
 42
-1.035432585455019
  0
ELLIPSE
  5
DE
330
75
100
AcDbEntity
  8
06828131_MOUSSEU
  6
Continuous
 62
     7
100
AcDbEllipse
 10
137.3861176154
 20
609.2831376207
 30
0.0
 11
8.499999999995341
 21
1.360023205165817E-12
 31
0.0
210
0.0
220
0.0
230
1.0
 40
0.1736481777
 41
-1.035432573908775
 42
-0.7971631406857336
  0
LINE
  5
DF
330
75
100
AcDbEntity
  8
06828131_MOUSSEU
  6
Continuous
 62
     7
100
AcDbLine
 10
141.722426028
 20
608.0136467616
 30
0.0
 11
141.722426028
 21
608.3045870045
 31
0.0
  0
LINE
  5
E0
330
75
100
AcDbEntity
  8
06828131_MOUSSEU
  6
Continuous
 62
     7
100
AcDbLine
 10
140.9069219147
 20
608.1894645965
 30
0.0
 11
141.5492209472
 21
607.9962819439
 31
0.0
  0
LINE
  5
E1
330
75
100
AcDbEntity
  8
06828131_MOUSSEU
  6
Continuous
 62
     7
100
AcDbLine
 10
141.0710141691
 20
608.209570256
 30
0.0
 11
141.722426028
 21
608.0136467616
 31
0.0
  0
ELLIPSE
  5
E2
330
75
100
AcDbEntity
  8
06828131_MOUSSEU
  6
Continuous
 62
     7
100
AcDbEllipse
 10
137.3861177372
 20
609.2831375419
 30
0.0
 11
8.499999749008447
 21
2.102945595439110E-8
 31
0.0
210
0.0
220
0.0
230
1.0
 40
0.1736481735
 41
-1.320761923958305
 42
-1.297231968730923
  0
ELLIPSE
  5
E3
330
75
100
AcDbEntity
  8
06828131_MOUSSEU
  6
Continuous
 62
     7
100
AcDbEllipse
 10
137.3861176154
 20
609.2831376207
 30
0.0
 11
8.500000000020373
 21
-2.386979502944087E-12
 31
0.0
210
0.0
220
0.0
230
1.0
 40
0.1736481777
 41
-1.297231961706625
 42
-1.058962528484143
  0
LINE
  5
E4
330
75
100
AcDbEntity
  8
06828131_MOUSSEU
  6
Continuous
 62
     7
100
AcDbLine
 10
139.6825198296
 20
607.8620149294
 30
0.0
 11
139.6825198296
 21
608.0767880724
 31
0.0
  0
LINE
  5
E5
330
75
100
AcDbEntity
  8
06828131_MOUSSEU
  6
Continuous
 62
     7
100
AcDbLine
 10
139.18993217
 20
608.047058163
 30
0.0
 11
139.4893346644
 21
607.8530262383
 31
0.0
  0
LINE
  5
E6
330
75
100
AcDbEntity
  8
06828131_MOUSSEU
  6
Continuous
 62
     7
100
AcDbLine
 10
139.3806829511
 20
608.0576244905
 30
0.0
 11
139.6825198296
 21
607.8620149294
 31
0.0
  0
ARC
  5
E7
330
75
100
AcDbEntity
  8
06828131_MOUSSEU
  6
Continuous
 62
     7
100
AcDbCircle
 10
137.3861176154
 20
656.7533917354
 30
0.0
 40
48.94626362829077
100
AcDbArc
 50
269.8829413828
 51
270.1170586172
  0
ELLIPSE
  5
E8
330
75
100
AcDbEntity
  8
06828131_MOUSSEU
  6
Continuous
 62
     7
100
AcDbEllipse
 10
137.3861176154
 20
609.2831376207
 30
0.0
 11
8.500000000007203
 21
-3.885780586188048E-13
 31
0.0
210
0.0
220
0.0
230
1.0
 40
0.1736481777
 41
4.724153957672978
 42
4.962423390895735
  0
LINE
  5
E9
330
75
100
AcDbEntity
  8
06828131_MOUSSEU
  6
Continuous
 62
     7
100
AcDbLine
 10
137.2861176154
 20
608.0010138871
 30
0.0
 11
137.2861176154
 21
607.80723026
 31
0.0
  0
LINE
  5
EA
330
75
100
AcDbEntity
  8
06828131_MOUSSEU
  6
Continuous
 62
     7
100
AcDbLine
 10
137.4861176154
 20
608.0010138871
 30
0.0
 11
137.4861176154
 21
607.80723026
 31
0.0
  0
ELLIPSE
  5
EB
330
75
100
AcDbEntity
  8
06828131_MOUSSEU
  6
Continuous
 62
     7
100
AcDbEllipse
 10
137.3861174929
 20
609.2831375412
 30
0.0
 11
-8.499999747557908
 21
2.121372522090326E-8
 31
0.0
210
0.0
220
0.0
230
1.0
 40
0.1736481735
 41
1.297231968773958
 42
1.3207619240051
  0
ELLIPSE
  5
EC
330
75
100
AcDbEntity
  8
06828131_MOUSSEU
  6
Continuous
 62
     7
100
AcDbEllipse
 10
137.3861176154
 20
609.2831376207
 30
0.0
 11
-8.500000000015469
 21
-6.938893903907228E-13
 31
0.0
210
0.0
220
0.0
230
1.0
 40
0.1736481777
 41
1.320761916283782
 42
1.55903134950633
  0
LINE
  5
ED
330
75
100
AcDbEntity
  8
06828131_MOUSSEU
  6
Continuous
 62
     7
100
AcDbLine
 10
135.0897154012
 20
607.8620149294
 30
0.0
 11
135.0897154012
 21
608.0767880724
 31
0.0
  0
LINE
  5
EE
330
75
100
AcDbEntity
  8
06828131_MOUSSEU
  6
Continuous
 62
     7
100
AcDbLine
 10
135.3915522798
 20
608.0576244905
 30
0.0
 11
135.0897154012
 21
607.8620149294
 31
0.0
  0
LINE
  5
EF
330
75
100
AcDbEntity
  8
06828131_MOUSSEU
  6
Continuous
 62
     7
100
AcDbLine
 10
135.5823030608
 20
608.047058163
 30
0.0
 11
135.2829005664
 21
607.8530262383
 31
0.0
  0
ELLIPSE
  5
F0
330
75
100
AcDbEntity
  8
06828131_MOUSSEU
  6
Continuous
 62
     7
100
AcDbEllipse
 10
137.3861174143
 20
609.2831375601
 30
0.0
 11
-8.499999748465246
 21
3.119948743801615E-8
 31
0.0
210
0.0
220
0.0
230
1.0
 40
0.1736481756
 41
1.035432584505401
 42
1.058962539638864
  0
ELLIPSE
  5
F1
330
75
100
AcDbEntity
  8
06828131_MOUSSEU
  6
Continuous
 62
     7
100
AcDbEllipse
 10
137.3861176154
 20
609.2831376207
 30
0.0
 11
-8.500000000017067
 21
-2.053912595556540E-12
 31
0.0
210
0.0
220
0.0
230
1.0
 40
0.1736481777
 41
1.058962528484227
 42
1.297231961706772
  0
LINE
  5
F2
330
75
100
AcDbEntity
  8
06828131_MOUSSEU
  6
Continuous
 62
     7
100
AcDbLine
 10
133.0498092029
 20
608.0136467616
 30
0.0
 11
133.0498092029
 21
608.3045870045
 31
0.0
  0
LINE
  5
F3
330
75
100
AcDbEntity
  8
06828131_MOUSSEU
  6
Continuous
 62
     7
100
AcDbLine
 10
133.7012210617
 20
608.209570256
 30
0.0
 11
133.0498092029
 21
608.0136467616
 31
0.0
  0
LINE
  5
F4
330
75
100
AcDbEntity
  8
06828131_MOUSSEU
  6
Continuous
 62
     7
100
AcDbLine
 10
133.8653133162
 20
608.1894645965
 30
0.0
 11
133.2230142836
 21
607.9962819439
 31
0.0
  0
ELLIPSE
  5
F5
330
75
100
AcDbEntity
  8
06828131_MOUSSEU
  6
Continuous
 62
     7
100
AcDbEllipse
 10
137.386117233
 20
609.2831375542
 30
0.0
 11
-8.499999594461762
 21
4.849445844889999E-8
 31
0.0
210
0.0
220
0.0
230
1.0
 40
0.1736481777
 41
0.7736332026382613
 42
0.7971631579626555
  0
ELLIPSE
  5
F6
330
75
100
AcDbEntity
  8
06828131_MOUSSEU
  6
Continuous
 62
     7
100
AcDbEllipse
 10
137.3861176154
 20
609.2831376207
 30
0.0
 11
-8.500000000020515
 21
-3.080868893334809E-12
 31
0.0
210
0.0
220
0.0
230
1.0
 40
0.1736481777
 41
0.7971631406848054
 42
1.035432573907366
  0
LINE
  5
F7
330
75
100
AcDbEntity
  8
06828131_MOUSSEU
  6
Continuous
 62
     7
100
AcDbLine
 10
131.3054152568
 20
608.251792298
 30
0.0
 11
131.3054152568
 21
608.6534606422
 31
0.0
  0
LINE
  5
F8
330
75
100
AcDbEntity
  8
06828131_MOUSSEU
  6
Continuous
 62
     7
100
AcDbLine
 10
132.3751321092
 20
608.43754668
 30
0.0
 11
131.3054152568
 21
608.251792298
 31
0.0
  0
LINE
  5
F9
330
75
100
AcDbEntity
  8
06828131_MOUSSEU
  6
Continuous
 62
     7
100
AcDbLine
 10
132.4982516419
 20
608.4098110409
 30
0.0
 11
131.446836613
 21
608.2272347372
 31
0.0
  0
ELLIPSE
  5
FA
330
75
100
AcDbEntity
  8
06828131_MOUSSEU
  6
Continuous
 62
     7
100
AcDbEllipse
 10
137.3861171475
 20
609.2831375738
 30
0.0
 11
-8.499999527291719
 21
4.186120894367207E-8
 31
0.0
210
0.0
220
0.0
230
1.0
 40
0.1736481804
 41
0.5118338125566932
 42
0.5353637678804868
  0
ELLIPSE
  5
FB
330
75
100
AcDbEntity
  8
06828131_MOUSSEU
  6
Continuous
 62
     7
100
AcDbEllipse
 10
137.3861176154
 20
609.2831376207
 30
0.0
 11
-8.500000000010745
 21
-7.216449660063519E-13
 31
0.0
210
0.0
220
0.0
230
1.0
 40
0.1736481777
 41
0.5353637528860887
 42
0.7736331861088773
  0
LINE
  5
FC
330
75
100
AcDbEntity
  8
06828131_MOUSSEU
  6
Continuous
 62
     7
100
AcDbLine
 10
129.9754111276
 20
608.5602223137
 30
0.0
 11
129.9754111276
 21
608.9203482991
 31
0.0
  0
LINE
  5
FD
330
75
100
AcDbEntity
  8
06828131_MOUSSEU
  6
Continuous
 62
     7
100
AcDbLine
 10
131.5140834628
 20
608.7144831736
 30
0.0
 11
129.9754111276
 21
608.5602223137
 31
0.0
  0
LINE
  5
FE
330
75
100
AcDbEntity
  8
06828131_MOUSSEU
  6
Continuous
 62
     7
100
AcDbLine
 10
131.5865150259
 20
608.6816425307
 30
0.0
 11
130.0754111276
 21
608.530145567
 31
0.0
  0
ELLIPSE
  5
FF
330
75
100
AcDbEntity
  8
06828131_MOUSSEU
  6
Continuous
 62
     7
100
AcDbEllipse
 10
137.3861176414
 20
609.2831376218
 30
0.0
 11
-8.500000025985033
 21
-1.118327652704920E-9
 31
0.0
210
0.0
220
0.0
230
1.0
 40
0.1736481774
 41
0.2500344101120573
 42
0.273564364650975
  0
ELLIPSE
  5
100
330
75
100
AcDbEntity
  8
06828131_MOUSSEU
  6
Continuous
 62
     7
100
AcDbEllipse
 10
137.3861176154
 20
609.2831376207
 30
0.0
 11
-8.500000000021975
 21
-1.804112415015880E-12
 31
0.0
210
0.0
220
0.0
230
1.0
 40
0.1736481777
 41
0.2735643650868951
 42
0.5118337983095209
  0
LINE
  5
101
330
75
100
AcDbEntity
  8
06828131_MOUSSEU
  6
Continuous
 62
     7
100
AcDbLine
 10
129.1504343988
 20
608.9179178129
 30
0.0
 11
129.1504343988
 21
609.2657728029
 31
0.0
  0
LINE
  5
102
330
75
100
AcDbEntity
  8
06828131_MOUSSEU
  6
Continuous
 62
     7
100
AcDbLine
 10
131.1511262306
 20
609.011007781
 30
0.0
 11
129.1504343988
 21
608.9179178129
 31
0.0
  0
LINE
  5
103
330
75
100
AcDbEntity
  8
06828131_MOUSSEU
  6
Continuous
 62
     7
100
AcDbLine
 10
131.168487908
 20
608.9758608361
 30
0.0
 11
129.2021982078
 21
608.884371561
 31
0.0
  0
ARC
  5
104
330
75
100
AcDbEntity
  8
06828131_MOUSSEU
  6
Continuous
 62
     7
100
AcDbCircle
 10
129.1429944946
 20
609.2831376207
 30
0.0
 40
0.256876225979309
100
AcDbArc
 50
176.1238526716
 51
183.8761473283
  0
ELLIPSE
  5
105
330
75
100
AcDbEntity
  8
06828131_MOUSSEU
  6
Continuous
 62
     7
100
AcDbEllipse
 10
137.3861176154
 20
609.2831376207
 30
0.0
 11
-8.500000000026542
 21
-2.220446049250313E-13
 31
0.0
210
0.0
220
0.0
230
1.0
 40
0.1736481777
 41
0.0117649772880365
 42
0.2500344105106665
  0
ARC
  5
106
330
75
100
AcDbEntity
  8
06828131_MOUSSEU
  6
Continuous
 62
     7
100
AcDbCircle
 10
131.3253541022
 20
609.2831376207
 30
0.0
 40
0.1892348465219816
100
AcDbArc
 50
174.7349422714
 51
180.0
  0
LINE
  5
107
330
75
100
AcDbEntity
  8
06828131_MOUSSEU
  6
Continuous
 62
     7
100
AcDbLine
 10
131.1369176666
 20
609.3005024385
 30
0.0
 11
131.1369176666
 21
609.5559285691
 31
0.0
  0
LINE
  5
108
330
75
100
AcDbEntity
  8
06828131_MOUSSEU
  6
Continuous
 62
     7
100
AcDbLine
 10
131.1369176666
 20
609.3005024385
 30
0.0
 11
128.8867058711
 21
609.3005024385
 31
0.0
  0
LINE
  5
109
330
75
100
AcDbEntity
  8
06828131_MOUSSEU
  6
Continuous
 62
     7
100
AcDbLine
 10
131.1361176154
 20
609.2657728029
 30
0.0
 11
128.8867058711
 21
609.2657728029
 31
0.0
  0
ELLIPSE
  5
10A
330
75
100
AcDbEntity
  8
06828131_MOUSSEU
  6
Continuous
 62
     7
100
AcDbEllipse
 10
137.3861176154
 20
609.2831376207
 30
0.0
 11
-8.500000000027894
 21
1.249000902703301E-12
 31
0.0
210
0.0
220
0.0
230
1.0
 40
0.1736481777
 41
6.171271384614372
 42
6.271420329891417
  0
ELLIPSE
  5
10B
330
75
100
AcDbEntity
  8
06828131_MOUSSEU
  6
Continuous
 62
     7
100
AcDbEllipse
 10
137.3861176188
 20
609.2831376205
 30
0.0
 11
-6.250000003387069
 21
1.776911950912563E-10
 31
0.0
210
0.0
220
0.0
230
1.0
 40
0.1736481776
 41
-0.2778000704649806
 42
-0.2457987049832688
  0
LINE
  5
10C
330
75
100
AcDbEntity
  8
06828131_MOUSSEU
  6
Continuous
 62
     7
100
AcDbLine
 10
131.3757358957
 20
609.5807713866
 30
0.0
 11
131.3757358957
 21
609.8656622168
 31
0.0
  0
LINE
  5
10D
330
75
100
AcDbEntity
  8
06828131_MOUSSEU
  6
Continuous
 62
     7
100
AcDbLine
 10
131.3757358957
 20
609.5807713866
 30
0.0
 11
129.3717417183
 21
609.6740150092
 31
0.0
  0
LINE
  5
10E
330
75
100
AcDbEntity
  8
06828131_MOUSSEU
  6
Continuous
 62
     7
100
AcDbLine
 10
131.3239720867
 20
609.5472251347
 30
0.0
 11
129.2954528284
 21
609.6416098821
 31
0.0
  0
ELLIPSE
  5
10F
330
75
100
AcDbEntity
  8
06828131_MOUSSEU
  6
Continuous
 62
     7
100
AcDbEllipse
 10
137.3861176195
 20
609.2831376202
 30
0.0
 11
-6.250000004149241
 21
4.231615058358784E-10
 31
0.0
210
0.0
220
0.0
230
1.0
 40
0.1736481776
 41
-0.5395994581615096
 42
-0.5075980926830548
  0
LINE
  5
110
330
75
100
AcDbEntity
  8
06828131_MOUSSEU
  6
Continuous
 62
     7
100
AcDbLine
 10
132.0241517064
 20
609.8407570855
 30
0.0
 11
132.0241517064
 21
610.1896756687
 31
0.0
  0
LINE
  5
111
330
75
100
AcDbEntity
  8
06828131_MOUSSEU
  6
Continuous
 62
     7
100
AcDbLine
 10
132.0241517064
 20
609.8407570855
 30
0.0
 11
130.4513718753
 21
609.9984374205
 31
0.0
  0
LINE
  5
112
330
75
100
AcDbEntity
  8
06828131_MOUSSEU
  6
Continuous
 62
     7
100
AcDbLine
 10
131.9241517064
 20
609.8106803389
 30
0.0
 11
130.3316885407
 21
609.9703340427
 31
0.0
  0
ELLIPSE
  5
113
330
75
100
AcDbEntity
  8
06828131_MOUSSEU
  6
Continuous
 62
     7
100
AcDbEllipse
 10
137.3861176565
 20
609.2831376136
 30
0.0
 11
-6.250000043554244
 21
5.197592356509517E-9
 31
0.0
210
0.0
220
0.0
230
1.0
 40
0.1736481777
 41
-0.8013988436005253
 42
-0.769397478258564
  0
LINE
  5
114
330
75
100
AcDbEntity
  8
06828131_MOUSSEU
  6
Continuous
 62
     7
100
AcDbLine
 10
133.0379766327
 20
610.0627419394
 30
0.0
 11
133.0379766327
 21
610.394700873
 31
0.0
  0
LINE
  5
115
330
75
100
AcDbEntity
  8
06828131_MOUSSEU
  6
Continuous
 62
     7
100
AcDbLine
 10
133.0379766327
 20
610.0627419394
 30
0.0
 11
131.9052832869
 21
610.2594320747
 31
0.0
  0
LINE
  5
116
330
75
100
AcDbEntity
  8
06828131_MOUSSEU
  6
Continuous
 62
     7
100
AcDbLine
 10
132.8965552765
 20
610.0381843786
 30
0.0
 11
131.7507678649
 21
610.2371482746
 31
0.0
  0
ELLIPSE
  5
117
330
75
100
AcDbEntity
  8
06828131_MOUSSEU
  6
Continuous
 62
     7
100
AcDbEllipse
 10
137.3861176442
 20
609.283137612
 30
0.0
 11
-6.250000036025093
 21
4.468481140662561E-9
 31
0.0
210
0.0
220
0.0
230
1.0
 40
0.1736481781
 41
-1.063198231746752
 42
-1.031196866403668
  0
LINE
  5
118
330
75
100
AcDbEntity
  8
06828131_MOUSSEU
  6
Continuous
 62
     7
100
AcDbLine
 10
134.3481201814
 20
610.2315980473
 30
0.0
 11
134.3481201814
 21
610.5018142466
 31
0.0
  0
LINE
  5
119
330
75
100
AcDbEntity
  8
06828131_MOUSSEU
  6
Continuous
 62
     7
100
AcDbLine
 10
134.3481201814
 20
610.2315980473
 30
0.0
 11
133.6266755049
 21
610.4485851347
 31
0.0
  0
LINE
  5
11A
330
75
100
AcDbEntity
  8
06828131_MOUSSEU
  6
Continuous
 62
     7
100
AcDbLine
 10
134.1749151006
 20
610.2142332295
 30
0.0
 11
133.4469373796
 21
610.4331852442
 31
0.0
  0
ELLIPSE
  5
11B
330
75
100
AcDbEntity
  8
06828131_MOUSSEU
  6
Continuous
 62
     7
100
AcDbEllipse
 10
137.3861176012
 20
609.2831376299
 30
0.0
 11
-6.249999970782106
 21
-2.451511216250424E-9
 31
0.0
210
0.0
220
0.0
230
1.0
 40
0.173648177
 41
-1.324997622978294
 42
-1.292996257347519
  0
LINE
  5
11C
330
75
100
AcDbEntity
  8
06828131_MOUSSEU
  6
Continuous
 62
     7
100
AcDbLine
 10
135.8652982346
 20
610.3358181445
 30
0.0
 11
135.8652982346
 21
610.5736539863
 31
0.0
  0
LINE
  5
11D
330
75
100
AcDbEntity
  8
06828131_MOUSSEU
  6
Continuous
 62
     7
100
AcDbLine
 10
135.8652982346
 20
610.3358181445
 30
0.0
 11
135.5168537882
 21
610.5616323841
 31
0.0
  0
LINE
  5
11E
330
75
100
AcDbEntity
  8
06828131_MOUSSEU
  6
Continuous
 62
     7
100
AcDbLine
 10
135.6721130694
 20
610.3268294534
 30
0.0
 11
135.3219208276
 21
610.5537763759
 31
0.0
  0
ARC
  5
11F
330
75
100
AcDbEntity
  8
06828131_MOUSSEU
  6
Continuous
 62
     7
100
AcDbCircle
 10
137.3861176154
 20
593.9551818055
 30
0.0
 40
15.80548925698568
100
AcDbArc
 50
89.3656022836
 51
90.6343977164
  0
LINE
  5
120
330
75
100
AcDbEntity
  8
06828131_MOUSSEU
  6
Continuous
 62
     7
100
AcDbLine
 10
137.5611176154
 20
609.7597022238
 30
0.0
 11
137.5611176154
 21
609.9973223882
 31
0.0
  0
LINE
  5
121
330
75
100
AcDbEntity
  8
06828131_MOUSSEU
  6
Continuous
 62
     7
100
AcDbLine
 10
137.2111176154
 20
609.7597022238
 30
0.0
 11
137.2111176154
 21
609.9973223882
 31
0.0
  0
ELLIPSE
  5
122
330
75
100
AcDbEntity
  8
06828131_MOUSSEU
  6
Continuous
 62
     7
100
AcDbEllipse
 10
137.3861176154
 20
609.2831376207
 30
0.0
 11
2.75000000003081
 21
3.885780586188048E-12
 31
0.0
210
0.0
220
0.0
230
1.0
 40
0.1736481777
 41
0.9835181589361429
 42
1.110876943448979
  0
LINE
  5
123
330
75
100
AcDbEntity
  8
06828131_MOUSSEU
  6
Continuous
 62
     7
100
AcDbLine
 10
138.6067762545
 20
609.9728450307
 30
0.0
 11
138.6067762545
 21
609.711048889
 31
0.0
  0
LINE
  5
124
330
75
100
AcDbEntity
  8
06828131_MOUSSEU
  6
Continuous
 62
     7
100
AcDbLine
 10
138.9098851458
 20
609.680660458
 30
0.0
 11
139.664192288
 21
609.907531506
 31
0.0
  0
LINE
  5
125
330
75
100
AcDbEntity
  8
06828131_MOUSSEU
  6
Continuous
 62
     7
100
AcDbLine
 10
138.6067762545
 20
609.711048889
 30
0.0
 11
139.3420570251
 21
609.9321974235
 31
0.0
  0
ELLIPSE
  5
126
330
75
100
AcDbEntity
  8
06828131_MOUSSEU
  6
Continuous
 62
     7
100
AcDbEllipse
 10
137.3861176154
 20
609.2831376207
 30
0.0
 11
2.749999999996605
 21
2.081668171172169E-12
 31
0.0
210
0.0
220
0.0
230
1.0
 40
0.1736481777
 41
0.4599193833414722
 42
0.5872781678555395
  0
LINE
  5
127
330
75
100
AcDbEntity
  8
06828131_MOUSSEU
  6
Continuous
 62
     7
100
AcDbLine
 10
139.675360397
 20
609.9065946606
 30
0.0
 11
139.675360397
 21
609.5477370755
 31
0.0
  0
LINE
  5
128
330
75
100
AcDbEntity
  8
06828131_MOUSSEU
  6
Continuous
 62
     7
100
AcDbLine
 10
139.850360397
 20
609.4951027689
 30
0.0
 11
141.4750286384
 21
609.6579852191
 31
0.0
  0
LINE
  5
129
330
75
100
AcDbEntity
  8
06828131_MOUSSEU
  6
Continuous
 62
     7
100
AcDbLine
 10
139.675360397
 20
609.5477370755
 30
0.0
 11
141.2422618003
 21
609.7048280639
 31
0.0
  0
ELLIPSE
  5
12A
330
75
100
AcDbEntity
  8
06828131_MOUSSEU
  6
Continuous
 62
     7
100
AcDbEllipse
 10
137.3861176154
 20
609.2831376207
 30
0.0
 11
-2.750000000004553
 21
0.0
 31
0.0
210
0.0
220
0.0
230
1.0
 40
0.1736481777
 41
3.141592653589793
 42
3.205272045846846
  0
LINE
  5
12B
330
75
100
AcDbEntity
  8
06828131_MOUSSEU
  6
Continuous
 62
     7
100
AcDbLine
 10
140.1305437849
 20
609.5231927848
 30
0.0
 11
140.1305437849
 21
609.3135260518
 31
0.0
  0
LINE
  5
12C
330
75
100
AcDbEntity
  8
06828131_MOUSSEU
  6
Continuous
 62
     7
100
AcDbLine
 10
140.1361176154
 20
609.2527491896
 30
0.0
 11
142.5477382164
 21
609.2527491896
 31
0.0
  0
LINE
  5
12D
330
75
100
AcDbEntity
  8
06828131_MOUSSEU
  6
Continuous
 62
     7
100
AcDbLine
 10
140.1305437849
 20
609.3135260518
 30
0.0
 11
142.4702446569
 21
609.3135260518
 31
0.0
  0
ELLIPSE
  5
12E
330
75
100
AcDbEntity
  8
06828131_MOUSSEU
  6
Continuous
 62
     7
100
AcDbEllipse
 10
137.3861176186
 20
609.2831376204
 30
0.0
 11
5.249999996769251
 21
2.913225216616411E-10
 31
0.0
210
0.0
220
0.0
230
1.0
 40
0.1736481777
 41
-0.5569382850331976
 42
-0.4902592664871745
  0
LINE
  5
12F
330
75
100
AcDbEntity
  8
06828131_MOUSSEU
  6
Continuous
 62
     7
100
AcDbLine
 10
140.0664031853
 20
608.9793338496
 30
0.0
 11
141.8427243758
 21
608.8012473083
 31
0.0
  0
LINE
  5
130
330
75
100
AcDbEntity
  8
06828131_MOUSSEU
  6
Continuous
 62
     7
100
AcDbLine
 10
140.1251762194
 20
609.0436205863
 30
0.0
 11
142.0177243758
 21
608.8538816149
 31
0.0
  0
LINE
  5
131
330
75
100
AcDbEntity
  8
06828131_MOUSSEU
  6
Continuous
 62
     7
100
AcDbLine
 10
142.0177243758
 20
609.2527491896
 30
0.0
 11
142.0177243758
 21
608.8538816149
 31
0.0
  0
ELLIPSE
  5
132
330
75
100
AcDbEntity
  8
06828131_MOUSSEU
  6
Continuous
 62
     7
100
AcDbEllipse
 10
137.3861176171
 20
609.2831376202
 30
0.0
 11
5.249999997940526
 21
2.570998969275706E-10
 31
0.0
210
0.0
220
0.0
230
1.0
 40
0.1736481776
 41
-1.08053706061311
 42
-1.013858042069595
  0
LINE
  5
133
330
75
100
AcDbEntity
  8
06828131_MOUSSEU
  6
Continuous
 62
     7
100
AcDbLine
 10
139.086660204
 20
608.7108928727
 30
0.0
 11
139.8581044311
 21
608.4788675471
 31
0.0
  0
LINE
  5
134
330
75
100
AcDbEntity
  8
06828131_MOUSSEU
  6
Continuous
 62
     7
100
AcDbLine
 10
139.3528045343
 20
608.7523990411
 30
0.0
 11
140.1612133224
 21
608.5092559782
 31
0.0
  0
LINE
  5
135
330
75
100
AcDbEntity
  8
06828131_MOUSSEU
  6
Continuous
 62
     7
100
AcDbLine
 10
140.1612133224
 20
608.9698285814
 30
0.0
 11
140.1612133224
 21
608.5092559782
 31
0.0
  0
ARC
  5
136
330
75
100
AcDbEntity
  8
06828131_MOUSSEU
  6
Continuous
 62
     7
100
AcDbCircle
 10
137.3861176154
 20
638.5887352572
 30
0.0
 40
30.21725070590792
100
AcDbArc
 50
269.6681757198
 51
270.3318242802
  0
LINE
  5
137
330
75
100
AcDbEntity
  8
06828131_MOUSSEU
  6
Continuous
 62
     7
100
AcDbLine
 10
137.2111176154
 20
608.609611467
 30
0.0
 11
137.2111176154
 21
608.3719913026
 31
0.0
  0
LINE
  5
138
330
75
100
AcDbEntity
  8
06828131_MOUSSEU
  6
Continuous
 62
     7
100
AcDbLine
 10
137.5611176154
 20
608.609611467
 30
0.0
 11
137.5611176154
 21
608.3719913026
 31
0.0
  0
ELLIPSE
  5
139
330
75
100
AcDbEntity
  8
06828131_MOUSSEU
  6
Continuous
 62
     7
100
AcDbEllipse
 10
137.3861176137
 20
609.2831376202
 30
0.0
 11
-5.249999997800526
 21
2.746691762922637E-10
 31
0.0
210
0.0
220
0.0
230
1.0
 40
0.1736481776
 41
1.013858042078946
 42
1.080537060623869
  0
LINE
  5
13A
330
75
100
AcDbEntity
  8
06828131_MOUSSEU
  6
Continuous
 62
     7
100
AcDbLine
 10
135.4194306965
 20
608.7523990411
 30
0.0
 11
134.6110219084
 21
608.5092559782
 31
0.0
  0
LINE
  5
13B
330
75
100
AcDbEntity
  8
06828131_MOUSSEU
  6
Continuous
 62
     7
100
AcDbLine
 10
135.6855750268
 20
608.7108928727
 30
0.0
 11
134.9141307997
 21
608.4788675471
 31
0.0
  0
LINE
  5
13C
330
75
100
AcDbEntity
  8
06828131_MOUSSEU
  6
Continuous
 62
     7
100
AcDbLine
 10
134.6110219084
 20
608.9698285814
 30
0.0
 11
134.6110219084
 21
608.5092559782
 31
0.0
  0
ELLIPSE
  5
13D
330
75
100
AcDbEntity
  8
06828131_MOUSSEU
  6
Continuous
 62
     7
100
AcDbEllipse
 10
137.3861176144
 20
609.2831376206
 30
0.0
 11
-5.249999998940657
 21
7.657763312352017E-11
 31
0.0
210
0.0
220
0.0
230
1.0
 40
0.1736481777
 41
0.4902592663858441
 42
0.5569382849160974
  0
LINE
  5
13E
330
75
100
AcDbEntity
  8
06828131_MOUSSEU
  6
Continuous
 62
     7
100
AcDbLine
 10
134.6470590114
 20
609.0436205863
 30
0.0
 11
132.754510855
 21
608.8538816149
 31
0.0
  0
LINE
  5
13F
330
75
100
AcDbEntity
  8
06828131_MOUSSEU
  6
Continuous
 62
     7
100
AcDbLine
 10
134.7058320455
 20
608.9793338496
 30
0.0
 11
132.929510855
 21
608.8012473083
 31
0.0
  0
LINE
  5
140
330
75
100
AcDbEntity
  8
06828131_MOUSSEU
  6
Continuous
 62
     7
100
AcDbLine
 10
132.754510855
 20
609.2527491896
 30
0.0
 11
132.754510855
 21
608.8538816149
 31
0.0
  0
LINE
  5
141
330
75
100
AcDbEntity
  8
06828131_MOUSSEU
  6
Continuous
 62
     7
100
AcDbLine
 10
134.6416914459
 20
609.5231927848
 30
0.0
 11
134.6416914459
 21
609.3135260518
 31
0.0
  0
ELLIPSE
  5
142
330
75
100
AcDbEntity
  8
06828131_MOUSSEU
  6
Continuous
 62
     7
100
AcDbEllipse
 10
137.3861176154
 20
609.2831376207
 30
0.0
 11
2.750000000002131
 21
0.0
 31
0.0
210
0.0
220
0.0
230
1.0
 40
0.1736481777
 41
3.077913261332909
 42
3.141592653589793
  0
LINE
  5
143
330
75
100
AcDbEntity
  8
06828131_MOUSSEU
  6
Continuous
 62
     7
100
AcDbLine
 10
134.6416914459
 20
609.3135260518
 30
0.0
 11
132.301990574
 21
609.3135260518
 31
0.0
  0
LINE
  5
144
330
75
100
AcDbEntity
  8
06828131_MOUSSEU
  6
Continuous
 62
     7
100
AcDbLine
 10
134.6361176154
 20
609.2527491896
 30
0.0
 11
132.2244970144
 21
609.2527491896
 31
0.0
  0
LINE
  5
145
330
75
100
AcDbEntity
  8
06828131_MOUSSEU
  6
Continuous
 62
     7
100
AcDbLine
 10
135.0968748338
 20
609.9065946606
 30
0.0
 11
135.0968748338
 21
609.5477370755
 31
0.0
  0
ELLIPSE
  5
146
330
75
100
AcDbEntity
  8
06828131_MOUSSEU
  6
Continuous
 62
     7
100
AcDbEllipse
 10
137.3861176154
 20
609.2831376207
 30
0.0
 11
-2.749999999995021
 21
1.942890293094024E-12
 31
0.0
210
0.0
220
0.0
230
1.0
 40
0.1736481777
 41
-0.5872781678557271
 42
-0.4599193833415054
  0
LINE
  5
147
330
75
100
AcDbEntity
  8
06828131_MOUSSEU
  6
Continuous
 62
     7
100
AcDbLine
 10
135.0968748338
 20
609.5477370755
 30
0.0
 11
133.5299734305
 21
609.7048280639
 31
0.0
  0
LINE
  5
148
330
75
100
AcDbEntity
  8
06828131_MOUSSEU
  6
Continuous
 62
     7
100
AcDbLine
 10
134.9218748338
 20
609.4951027689
 30
0.0
 11
133.2972065925
 21
609.6579852191
 31
0.0
  0
LINE
  5
149
330
75
100
AcDbEntity
  8
06828131_MOUSSEU
  6
Continuous
 62
     7
100
AcDbLine
 10
136.1654589763
 20
609.9728450307
 30
0.0
 11
136.1654589763
 21
609.711048889
 31
0.0
  0
ELLIPSE
  5
14A
330
75
100
AcDbEntity
  8
06828131_MOUSSEU
  6
Continuous
 62
     7
100
AcDbEllipse
 10
137.3861176154
 20
609.2831376207
 30
0.0
 11
-2.75000000002264
 21
2.914335439641036E-12
 31
0.0
210
0.0
220
0.0
230
1.0
 40
0.1736481777
 41
-1.110876943450152
 42
-0.9835181589368833
  0
LINE
  5
14B
330
75
100
AcDbEntity
  8
06828131_MOUSSEU
  6
Continuous
 62
     7
100
AcDbLine
 10
136.1654589763
 20
609.711048889
 30
0.0
 11
135.4301782057
 21
609.9321974235
 31
0.0
  0
LINE
  5
14C
330
75
100
AcDbEntity
  8
06828131_MOUSSEU
  6
Continuous
 62
     7
100
AcDbLine
 10
135.862350085
 20
609.680660458
 30
0.0
 11
135.1080429428
 21
609.907531506
 31
0.0
  0
LINE
  5
14D
330
75
100
AcDbEntity
  8
06828131_MOUSSEU
  6
Continuous
 62
     7
100
AcDbLine
 10
128.3861176154
 20
610.3059663524
 30
0.0
 11
128.3861176154
 21
609.0861760701
 31
0.0
  0
LINE
  5
14E
330
75
100
AcDbEntity
  8
06828131_MOUSSEU
  6
Continuous
 62
     7
100
AcDbLine
 10
146.3861176154
 20
609.0861760701
 30
0.0
 11
146.3861176154
 21
610.3059663524
 31
0.0
  0
LINE
  5
14F
330
75
100
AcDbEntity
  8
06828131_MOUSSEU
  6
Continuous
 62
     7
100
AcDbLine
 10
131.1361176154
 20
609.2831376207
 30
0.0
 11
131.1361176154
 21
609.0861760701
 31
0.0
  0
LINE
  5
150
330
75
100
AcDbEntity
  8
06828131_MOUSSEU
  6
Continuous
 62
     7
100
AcDbLine
 10
143.6361176154
 20
609.0861760701
 30
0.0
 11
143.6361176154
 21
609.2831376207
 31
0.0
  0
LINE
  5
151
330
75
100
AcDbEntity
  8
06828131_MOUSSEU
  6
Continuous
 62
     7
100
AcDbLine
 10
134.6361176154
 20
609.2831376207
 30
0.0
 11
134.6361176154
 21
609.0861760701
 31
0.0
  0
LINE
  5
152
330
75
100
AcDbEntity
  8
06828131_MOUSSEU
  6
Continuous
 62
     7
100
AcDbLine
 10
140.1361176154
 20
609.0861760701
 30
0.0
 11
140.1361176154
 21
609.2831376207
 31
0.0
  0
LINE
  5
153
330
75
100
AcDbEntity
  8
06828131_MOUSSEU
  6
Continuous
 62
     7
100
AcDbLine
 10
136.8664876715
 20
609.4484514809
 30
0.0
 11
136.8664876715
 21
609.2831376207
 31
0.0
  0
LINE
  5
154
330
75
100
AcDbEntity
  8
06828131_MOUSSEU
  6
Continuous
 62
     7
100
AcDbLine
 10
137.9057475593
 20
609.2831376207
 30
0.0
 11
137.9057475593
 21
609.4484514809
 31
0.0
  0
LINE
  5
156
330
75
100
AcDbEntity
  8
08018031_RING
  6
Continuous
 62
     7
100
AcDbLine
 10
196.8861176154
 20
494.5237756372
 30
0.0
 11
196.3861176154
 21
494.5237756372
 31
0.0
  0
LINE
  5
157
330
75
100
AcDbEntity
  8
08018031_RING
  6
Continuous
 62
     7
100
AcDbLine
 10
196.3861176154
 20
477.5237756372
 30
0.0
 11
196.8861176154
 21
477.5237756372
 31
0.0
  0
LINE
  5
159
330
75
100
AcDbEntity
  8
08013038_FÜHRUNG
  6
Continuous
 62
     7
100
AcDbLine
 10
196.3861176154
 20
500.3737756372
 30
0.0
 11
196.3861176154
 21
471.6737756372
 31
0.0
  0
LINE
  5
15A
330
75
100
AcDbEntity
  8
08013038_FÜHRUNG
  6
Continuous
 62
     7
100
AcDbLine
 10
192.3861176154
 20
471.1737756372
 30
0.0
 11
195.8861176154
 21
471.1737756372
 31
0.0
  0
LINE
  5
15B
330
75
100
AcDbEntity
  8
08013038_FÜHRUNG
  6
Continuous
 62
     7
100
AcDbLine
 10
195.8861176154
 20
500.8737756372
 30
0.0
 11
192.3861176154
 21
500.8737756372
 31
0.0
  0
ARC
  5
15C
330
75
100
AcDbEntity
  8
08013038_FÜHRUNG
  6
Continuous
 62
     7
100
AcDbCircle
 10
195.8861176154
 20
471.6737756372
 30
0.0
 40
0.5000000000000004
100
AcDbArc
 50
270.0
 51
0.0
  0
ARC
  5
15D
330
75
100
AcDbEntity
  8
08013038_FÜHRUNG
  6
Continuous
 62
     7
100
AcDbCircle
 10
195.8861176154
 20
500.3737756372
 30
0.0
 40
0.5000000000000004
100
AcDbArc
 50
0.0
 51
90.0
  0
LINE
  5
15F
330
75
100
AcDbEntity
  8
$DDT_AUDIT_GENERATED_(15E)
  6
Continuous
 62
     7
100
AcDbLine
 10
196.8861176154
 20
475.0237756372
 30
0.0
 11
196.8861176154
 21
497.0237756372
 31
0.0
  0
LINE
  5
160
330
75
100
AcDbEntity
  8
$DDT_AUDIT_GENERATED_(15E)
  6
Continuous
 62
     7
100
AcDbLine
 10
222.8861176154
 20
470.0237756372
 30
0.0
 11
211.8861176154
 21
470.0237756372
 31
0.0
  0
ARC
  5
161
330
75
100
AcDbEntity
  8
$DDT_AUDIT_GENERATED_(15E)
  6
Continuous
 62
     7
100
AcDbCircle
 10
218.0537246144
 20
508.3349862698
 30
0.0
 40
13.13013617231117
100
AcDbArc
 50
239.4819775282
 51
264.8981916131
  0
ARC
  5
162
330
75
100
AcDbEntity
  8
$DDT_AUDIT_GENERATED_(15E)
  6
Continuous
 62
     7
100
AcDbCircle
 10
218.2800629457
 20
463.0080241286
 30
0.0
 40
13.85296966807081
100
AcDbArc
 50
95.7751213806
 51
119.8447175102
  0
LINE
  5
163
330
75
100
AcDbEntity
  8
$DDT_AUDIT_GENERATED_(15E)
  6
Continuous
 62
     7
100
AcDbLine
 10
217.3861176154
 20
494.640619607
 30
0.0
 11
217.3861176154
 21
477.4069316674
 31
0.0
  0
SPLINE
  5
164
330
75
100
AcDbEntity
  8
$DDT_AUDIT_GENERATED_(15E)
  6
Continuous
 62
     7
100
AcDbSpline
210
0.0
220
0.0
230
1.0
 70
     8
 71
     3
 72
    10
 73
     6
 74
     0
 42
0.000000011169161
 43
0.0000000001
 40
0.0
 40
0.0
 40
0.0
 40
0.0
 40
0.5
 40
0.5
 40
1.0
 40
1.0
 40
1.0
 40
1.0
 10
216.8861176154114
 20
495.2568682935494
 30
0.0
 10
217.0325980233491
 20
495.2489359347293
 30
0.0
 10
217.1673196993711
 20
495.1660872182935
 30
0.0
 10
217.3425350017056
 20
494.9337176587521
 30
0.0
 10
217.3861176154113
 20
494.7872307943549
 30
0.0
 10
217.3861176154113
 20
494.6406196070467
 30
0.0
  0
SPLINE
  5
165
330
75
100
AcDbEntity
  8
$DDT_AUDIT_GENERATED_(15E)
  6
Continuous
 62
     7
100
AcDbSpline
210
0.0
220
0.0
230
1.0
 70
     8
 71
     3
 72
    12
 73
     8
 74
     0
 42
0.000000011240689
 43
0.0000000001
 40
0.0
 40
0.0
 40
0.0
 40
0.0
 40
0.2500000000000012
 40
0.2500000000000012
 40
0.5000000000000024
 40
0.5000000000000024
 40
1.0
 40
1.0
 40
1.0
 40
1.0
 10
217.3861176154113
 20
477.4069316674327
 30
0.0
 10
217.3861176154113
 20
477.3334610603896
 30
0.0
 10
217.3755502073752
 20
477.2618680045387
 30
0.0
 10
217.3320622364671
 20
477.1226536975423
 30
0.0
 10
217.2992864127193
 20
477.0567567987729
 30
0.0
 10
217.1686577375347
 20
476.8826878797654
 30
0.0
 10
217.0331929335972
 20
476.7986475559463
 30
0.0
 10
216.8861176154113
 20
476.79068298093
 30
0.0
  0
LINE
  5
166
330
75
100
AcDbEntity
  8
$DDT_AUDIT_GENERATED_(15E)
  6
Continuous
 62
     7
100
AcDbLine
 10
211.8861176154
 20
546.0237756372
 30
0.0
 11
222.8861176154
 21
546.0237756372
 31
0.0
  0
LINE
  5
167
330
75
100
AcDbEntity
  8
$DDT_AUDIT_GENERATED_(15E)
  6
Continuous
 62
     7
100
AcDbLine
 10
211.3861176154
 20
497.0237756372
 30
0.0
 11
196.8861176154
 21
497.0237756372
 31
0.0
  0
LINE
  5
168
330
75
100
AcDbEntity
  8
$DDT_AUDIT_GENERATED_(15E)
  6
Continuous
 62
     7
100
AcDbLine
 10
196.8861176154
 20
475.0237756372
 30
0.0
 11
211.4039796683
 21
475.0237756372
 31
0.0
  0
LINE
  5
169
330
75
100
AcDbEntity
  8
$DDT_AUDIT_GENERATED_(15E)
  6
Continuous
 62
     7
100
AcDbLine
 10
211.3861176154
 20
475.0334902505
 30
0.0
 11
211.3861176154
 21
470.5237756372
 31
0.0
  0
LINE
  5
16A
330
75
100
AcDbEntity
  8
$DDT_AUDIT_GENERATED_(15E)
  6
Continuous
 62
     7
100
AcDbLine
 10
211.3861176154
 20
545.5237756372
 30
0.0
 11
211.3861176154
 21
497.0237756372
 31
0.0
  0
LINE
  5
16B
330
75
100
AcDbEntity
  8
$DDT_AUDIT_GENERATED_(15E)
  6
Continuous
 62
     7
100
AcDbLine
 10
223.3861176154
 20
470.5237756372
 30
0.0
 11
223.3861176154
 21
545.5237756372
 31
0.0
  0
ARC
  5
16C
330
75
100
AcDbEntity
  8
$DDT_AUDIT_GENERATED_(15E)
  6
Continuous
 62
     7
100
AcDbCircle
 10
222.8861176154
 20
470.5237756372
 30
0.0
 40
0.4999999999999987
100
AcDbArc
 50
270.0
 51
0.0
  0
ARC
  5
16D
330
75
100
AcDbEntity
  8
$DDT_AUDIT_GENERATED_(15E)
  6
Continuous
 62
     7
100
AcDbCircle
 10
211.8861176154
 20
470.5237756372
 30
0.0
 40
0.5000000000000004
100
AcDbArc
 50
180.0
 51
270.0
  0
ARC
  5
16E
330
75
100
AcDbEntity
  8
$DDT_AUDIT_GENERATED_(15E)
  6
Continuous
 62
     7
100
AcDbCircle
 10
222.8861176154
 20
545.5237756372
 30
0.0
 40
0.5000000000000004
100
AcDbArc
 50
0.0
 51
90.0
  0
ARC
  5
16F
330
75
100
AcDbEntity
  8
$DDT_AUDIT_GENERATED_(15E)
  6
Continuous
 62
     7
100
AcDbCircle
 10
211.8861176154
 20
545.5237756372
 30
0.0
 40
0.5000000000000004
100
AcDbArc
 50
90.0
 51
180.0
  0
LINE
  5
170
330
75
100
AcDbEntity
  8
08018031_RING
  6
Continuous
 62
     7
100
AcDbLine
 10
77.8861176154
 20
477.5237756372
 30
0.0
 11
78.3861176154
 21
477.5237756372
 31
0.0
  0
LINE
  5
171
330
75
100
AcDbEntity
  8
08018031_RING
  6
Continuous
 62
     7
100
AcDbLine
 10
78.3861176154
 20
494.5237756372
 30
0.0
 11
77.8861176154
 21
494.5237756372
 31
0.0
  0
LINE
  5
172
330
75
100
AcDbEntity
  8
08013038_FÜHRUNG
  6
Continuous
 62
     7
100
AcDbLine
 10
78.3861176154
 20
471.6737756372
 30
0.0
 11
78.3861176154
 21
500.3737756372
 31
0.0
  0
LINE
  5
173
330
75
100
AcDbEntity
  8
08013038_FÜHRUNG
  6
Continuous
 62
     7
100
AcDbLine
 10
82.3861176154
 20
500.8737756372
 30
0.0
 11
78.8861176154
 21
500.8737756372
 31
0.0
  0
LINE
  5
174
330
75
100
AcDbEntity
  8
08013038_FÜHRUNG
  6
Continuous
 62
     7
100
AcDbLine
 10
78.8861176154
 20
471.1737756372
 30
0.0
 11
82.3861176154
 21
471.1737756372
 31
0.0
  0
ARC
  5
175
330
75
100
AcDbEntity
  8
08013038_FÜHRUNG
  6
Continuous
 62
     7
100
AcDbCircle
 10
78.8861176154
 20
500.3737756372
 30
0.0
 40
0.5000000000000004
100
AcDbArc
 50
90.0
 51
180.0
  0
ARC
  5
176
330
75
100
AcDbEntity
  8
08013038_FÜHRUNG
  6
Continuous
 62
     7
100
AcDbCircle
 10
78.8861176154
 20
471.6737756372
 30
0.0
 40
0.5000000000000004
100
AcDbArc
 50
180.0
 51
270.0
  0
LINE
  5
177
330
75
100
AcDbEntity
  8
$DDT_AUDIT_GENERATED_(15E)
  6
Continuous
 62
     7
100
AcDbLine
 10
77.8861176154
 20
497.0237756372
 30
0.0
 11
77.8861176154
 21
475.0237756372
 31
0.0
  0
LINE
  5
178
330
75
100
AcDbEntity
  8
$DDT_AUDIT_GENERATED_(15E)
  6
Continuous
 62
     7
100
AcDbLine
 10
62.8861176154
 20
470.0237756372
 30
0.0
 11
51.8861176154
 21
470.0237756372
 31
0.0
  0
ARC
  5
179
330
75
100
AcDbEntity
  8
$DDT_AUDIT_GENERATED_(15E)
  6
Continuous
 62
     7
100
AcDbCircle
 10
56.7185106165
 20
508.3349862698
 30
0.0
 40
13.13013617231107
100
AcDbArc
 50
275.1018083869
 51
300.5180224718
  0
ARC
  5
17A
330
75
100
AcDbEntity
  8
$DDT_AUDIT_GENERATED_(15E)
  6
Continuous
 62
     7
100
AcDbCircle
 10
56.492172285
 20
463.0080241286
 30
0.0
 40
13.85296966807062
100
AcDbArc
 50
60.1552824893
 51
84.2248786187
  0
LINE
  5
17B
330
75
100
AcDbEntity
  8
$DDT_AUDIT_GENERATED_(15E)
  6
Continuous
 62
     7
100
AcDbLine
 10
57.3861176154
 20
477.4069316674
 30
0.0
 11
57.3861176154
 21
494.640619607
 31
0.0
  0
SPLINE
  5
17C
330
75
100
AcDbEntity
  8
$DDT_AUDIT_GENERATED_(15E)
  6
Continuous
 62
     7
100
AcDbSpline
210
0.0
220
0.0
230
1.0
 70
     8
 71
     3
 72
    10
 73
     6
 74
     0
 42
0.000000011169161
 43
0.0000000001
 40
0.0
 40
0.0
 40
0.0
 40
0.0
 40
0.5
 40
0.5
 40
1.0
 40
1.0
 40
1.0
 40
1.0
 10
57.88611761541137
 20
476.79068298093
 30
0.0
 10
57.73963720747363
 20
476.7986153397501
 30
0.0
 10
57.60491553145158
 20
476.881464056186
 30
0.0
 10
57.42970022911712
 20
477.1138336157274
 30
0.0
 10
57.38611761541137
 20
477.2603204801247
 30
0.0
 10
57.38611761541137
 20
477.4069316674327
 30
0.0
  0
SPLINE
  5
17D
330
75
100
AcDbEntity
  8
$DDT_AUDIT_GENERATED_(15E)
  6
Continuous
 62
     7
100
AcDbSpline
210
0.0
220
0.0
230
1.0
 70
     8
 71
     3
 72
    12
 73
     8
 74
     0
 42
0.000000011240689
 43
0.0000000001
 40
0.0
 40
0.0
 40
0.0
 40
0.0
 40
0.2500000000000012
 40
0.2500000000000012
 40
0.5000000000000023
 40
0.5000000000000023
 40
1.0
 40
1.0
 40
1.0
 40
1.0
 10
57.38611761541137
 20
494.6406196070467
 30
0.0
 10
57.38611761541137
 20
494.7140902140899
 30
0.0
 10
57.3966850234475
 20
494.7856832699408
 30
0.0
 10
57.44017299435563
 20
494.9248975769372
 30
0.0
 10
57.4729488181035
 20
494.9907944757065
 30
0.0
 10
57.60357749328801
 20
495.1648633947141
 30
0.0
 10
57.73904229722551
 20
495.2489037185332
 30
0.0
 10
57.88611761541137
 20
495.2568682935494
 30
0.0
  0
LINE
  5
17E
330
75
100
AcDbEntity
  8
$DDT_AUDIT_GENERATED_(15E)
  6
Continuous
 62
     7
100
AcDbLine
 10
51.8861176154
 20
546.0237756372
 30
0.0
 11
62.8861176154
 21
546.0237756372
 31
0.0
  0
LINE
  5
17F
330
75
100
AcDbEntity
  8
$DDT_AUDIT_GENERATED_(15E)
  6
Continuous
 62
     7
100
AcDbLine
 10
63.3682555625
 20
475.0237756372
 30
0.0
 11
77.8861176154
 21
475.0237756372
 31
0.0
  0
LINE
  5
180
330
75
100
AcDbEntity
  8
$DDT_AUDIT_GENERATED_(15E)
  6
Continuous
 62
     7
100
AcDbLine
 10
77.8861176154
 20
497.0237756372
 30
0.0
 11
63.3861176154
 21
497.0237756372
 31
0.0
  0
LINE
  5
181
330
75
100
AcDbEntity
  8
$DDT_AUDIT_GENERATED_(15E)
  6
Continuous
 62
     7
100
AcDbLine
 10
51.3861176154
 20
545.5237756372
 30
0.0
 11
51.3861176154
 21
470.5237756372
 31
0.0
  0
LINE
  5
182
330
75
100
AcDbEntity
  8
$DDT_AUDIT_GENERATED_(15E)
  6
Continuous
 62
     7
100
AcDbLine
 10
63.3861176154
 20
497.0237756372
 30
0.0
 11
63.3861176154
 21
545.5237756372
 31
0.0
  0
LINE
  5
183
330
75
100
AcDbEntity
  8
$DDT_AUDIT_GENERATED_(15E)
  6
Continuous
 62
     7
100
AcDbLine
 10
63.3861176154
 20
470.5237756372
 30
0.0
 11
63.3861176154
 21
475.0334902505
 31
0.0
  0
ARC
  5
184
330
75
100
AcDbEntity
  8
$DDT_AUDIT_GENERATED_(15E)
  6
Continuous
 62
     7
100
AcDbCircle
 10
62.8861176154
 20
470.5237756372
 30
0.0
 40
0.5000000000000022
100
AcDbArc
 50
270.0
 51
0.0
  0
ARC
  5
185
330
75
100
AcDbEntity
  8
$DDT_AUDIT_GENERATED_(15E)
  6
Continuous
 62
     7
100
AcDbCircle
 10
51.8861176154
 20
470.5237756372
 30
0.0
 40
0.5000000000000004
100
AcDbArc
 50
180.0
 51
270.0
  0
ARC
  5
186
330
75
100
AcDbEntity
  8
$DDT_AUDIT_GENERATED_(15E)
  6
Continuous
 62
     7
100
AcDbCircle
 10
62.8861176154
 20
545.5237756372
 30
0.0
 40
0.5000000000000004
100
AcDbArc
 50
0.0
 51
90.0
  0
ARC
  5
187
330
75
100
AcDbEntity
  8
$DDT_AUDIT_GENERATED_(15E)
  6
Continuous
 62
     7
100
AcDbCircle
 10
51.8861176154
 20
545.5237756372
 30
0.0
 40
0.5000000000000004
100
AcDbArc
 50
90.0
 51
180.0
  0
LINE
  5
189
330
75
100
AcDbEntity
  8
08048038_SOCKEL_
  6
Continuous
 62
     7
100
AcDbLine
 10
159.3861176154
 20
426.0237756372
 30
0.0
 11
115.3861176154
 21
426.0237756372
 31
0.0
  0
LINE
  5
18A
330
75
100
AcDbEntity
  8
08048038_SOCKEL_
  6
Continuous
 62
     7
100
AcDbLine
 10
164.8861176154
 20
416.0237756372
 30
0.0
 11
109.8861176154
 21
416.0237756372
 31
0.0
  0
LINE
  5
18B
330
75
100
AcDbEntity
  8
08048038_SOCKEL_
  6
Continuous
 62
     7
100
AcDbLine
 10
164.3861176154
 20
422.0237756372
 30
0.0
 11
110.3861176154
 21
422.0237756372
 31
0.0
  0
LINE
  5
18C
330
75
100
AcDbEntity
  8
08048038_SOCKEL_
  6
Continuous
 62
     7
100
AcDbLine
 10
164.8861176154
 20
416.0237756372
 30
0.0
 11
164.8861176154
 21
421.5237756372
 31
0.0
  0
LINE
  5
18D
330
75
100
AcDbEntity
  8
08048038_SOCKEL_
  6
Continuous
 62
     7
100
AcDbLine
 10
109.8861176154
 20
421.5237756372
 30
0.0
 11
109.8861176154
 21
416.0237756372
 31
0.0
  0
ARC
  5
18E
330
75
100
AcDbEntity
  8
08048038_SOCKEL_
  6
Continuous
 62
     7
100
AcDbCircle
 10
164.3861176154
 20
421.5237756372
 30
0.0
 40
0.5000000000000004
100
AcDbArc
 50
0.0
 51
90.0
  0
ARC
  5
18F
330
75
100
AcDbEntity
  8
08048038_SOCKEL_
  6
Continuous
 62
     7
100
AcDbCircle
 10
110.3861176154
 20
421.5237756372
 30
0.0
 40
0.5000000000000004
100
AcDbArc
 50
90.0
 51
180.0
  0
ARC
  5
190
330
75
100
AcDbEntity
  8
08048038_SOCKEL_
  6
Continuous
 62
     7
100
AcDbCircle
 10
160.3861176154
 20
422.5237756372
 30
0.0
 40
0.5000000000000004
100
AcDbArc
 50
180.0
 51
270.0
  0
ARC
  5
191
330
75
100
AcDbEntity
  8
08048038_SOCKEL_
  6
Continuous
 62
     7
100
AcDbCircle
 10
114.3861176154
 20
422.5237756372
 30
0.0
 40
0.5000000000000004
100
AcDbArc
 50
270.0
 51
0.0
  0
LINE
  5
192
330
75
100
AcDbEntity
  8
08048038_SOCKEL_
  6
Continuous
 62
     7
100
AcDbLine
 10
159.8861176154
 20
422.5237756372
 30
0.0
 11
159.8861176154
 21
425.5237756372
 31
0.0
  0
LINE
  5
193
330
75
100
AcDbEntity
  8
08048038_SOCKEL_
  6
Continuous
 62
     7
100
AcDbLine
 10
114.8861176154
 20
425.5237756372
 30
0.0
 11
114.8861176154
 21
422.5237756372
 31
0.0
  0
ARC
  5
194
330
75
100
AcDbEntity
  8
08048038_SOCKEL_
  6
Continuous
 62
     7
100
AcDbCircle
 10
159.3861176154
 20
425.5237756372
 30
0.0
 40
0.5000000000000004
100
AcDbArc
 50
0.0
 51
90.0
  0
ARC
  5
195
330
75
100
AcDbEntity
  8
08048038_SOCKEL_
  6
Continuous
 62
     7
100
AcDbCircle
 10
115.3861176154
 20
425.5237756372
 30
0.0
 40
0.5000000000000004
100
AcDbArc
 50
90.0
 51
180.0
  0
ENDBLK
  5
197
330
75
100
AcDbEntity
  8
0
100
AcDbBlockEnd
  0
BLOCK
  5
1EF
330
198
100
AcDbEntity
  8
0
100
AcDbBlockBegin
  2
SE1
 70
     0
 10
0.0
 20
0.0
 30
0.0
  3
SE1
  1

  0
ARC
  5
19A
330
198
100
AcDbEntity
  8
08047038_GEH__EL
  6
Continuous
 62
     7
100
AcDbCircle
 10
367.1600433723
 20
486.0237769563
 30
0.0
 40
18.00000000000001
100
AcDbArc
 50
268.9656878834
 51
269.9999962862
  0
ARC
  5
19B
330
198
100
AcDbEntity
  8
08047038_GEH__EL
  6
Continuous
 62
     7
100
AcDbCircle
 10
314.0756566309
 20
486.0237756248
 30
0.0
 40
18.02605698210134
100
AcDbArc
 50
341.3985870846
 51
18.6014113526
  0
ARC
  5
19C
330
198
100
AcDbEntity
  8
08047038_GEH__EL
  6
Continuous
 62
     7
100
AcDbCircle
 10
142.3075264309
 20
442.0237545538
 30
0.0
 40
189.0471201864192
100
AcDbArc
 50
357.4000986112
 51
2.5999572085
  0
LINE
  5
19D
330
198
100
AcDbEntity
  8
08047038_GEH__EL
  6
Continuous
 62
     7
100
AcDbLine
 10
361.1600422056
 20
514.0237756372
 30
0.0
 11
331.6600422056
 21
514.0237756372
 31
0.0
  0
LINE
  5
19E
330
198
100
AcDbEntity
  8
08047038_GEH__EL
  6
Continuous
 62
     7
100
AcDbLine
 10
367.1600422056
 20
426.0237756372
 30
0.0
 11
367.1600422056
 21
468.0237756372
 31
0.0
  0
LINE
  5
19F
330
198
100
AcDbEntity
  8
08047038_GEH__EL
  6
Continuous
 62
     7
100
AcDbLine
 10
331.1600422056
 20
433.4503286211
 30
0.0
 11
331.1600422056
 21
426.0237756372
 31
0.0
  0
LINE
  5
1A0
330
198
100
AcDbEntity
  8
08047038_GEH__EL
  6
Continuous
 62
     7
100
AcDbLine
 10
331.1600422056
 20
480.2737756372
 30
0.0
 11
331.1600422056
 21
450.5993557776
 31
0.0
  0
LINE
  5
1A1
330
198
100
AcDbEntity
  8
08047038_GEH__EL
  6
Continuous
 62
     7
100
AcDbLine
 10
331.1600422056
 20
513.5237756372
 30
0.0
 11
331.1600422056
 21
491.7702828985
 31
0.0
  0
ARC
  5
1A2
330
198
100
AcDbEntity
  8
08047038_GEH__EL
  6
Continuous
 62
     7
100
AcDbCircle
 10
331.6600422056
 20
513.5237756372
 30
0.0
 40
0.5000000000000004
100
AcDbArc
 50
90.0
 51
180.0
  0
ARC
  5
1A3
330
198
100
AcDbEntity
  8
08046038_GEH_ELB
  6
Continuous
 62
     7
100
AcDbCircle
 10
367.1600422056
 20
486.0237756372
 30
0.0
 40
15.0
100
AcDbArc
 50
293.5781784782
 51
0.0
  0
ARC
  5
1A4
330
198
100
AcDbEntity
  8
08046038_GEH_ELB
  6
Continuous
 62
     7
100
AcDbCircle
 10
367.1600422056
 20
486.0237756372
 30
0.0
 40
15.0
100
AcDbArc
 50
113.5781784782
 51
246.4218215218
  0
ARC
  5
1A5
330
198
100
AcDbEntity
  8
08046038_GEH_ELB
  6
Continuous
 62
     7
100
AcDbCircle
 10
367.1600422056
 20
486.0237756372
 30
0.0
 40
15.0
100
AcDbArc
 50
0.0
 51
66.4218215218
  0
ARC
  5
1A6
330
198
100
AcDbEntity
  8
08046038_GEH_ELB
  6
Continuous
 62
     7
100
AcDbCircle
 10
367.1600422056
 20
486.0237756372
 30
0.0
 40
18.0
100
AcDbArc
 50
109.4712206345
 51
0.0
  0
ARC
  5
1A7
330
198
100
AcDbEntity
  8
08046038_GEH_ELB
  6
Continuous
 62
     7
100
AcDbCircle
 10
367.1600422056
 20
486.0237756372
 30
0.0
 40
18.0
100
AcDbArc
 50
0.0
 51
70.5287793655
  0
LINE
  5
1A8
330
198
100
AcDbEntity
  8
$DDT_AUDIT_GENERATED_(88)
  6
Continuous
 62
     7
100
AcDbLine
 10
360.6600422056
 20
521.3737756372
 30
0.0
 11
337.6600422056
 21
521.3737756372
 31
0.0
  0
LINE
  5
1A9
330
198
100
AcDbEntity
  8
$DDT_AUDIT_GENERATED_(88)
  6
Continuous
 62
     7
100
AcDbLine
 10
346.2600422056
 20
519.1737756372
 30
0.0
 11
334.1600422056
 21
519.1737756372
 31
0.0
  0
LINE
  5
1AA
330
198
100
AcDbEntity
  8
$DDT_AUDIT_GENERATED_(88)
  6
Continuous
 62
     7
100
AcDbLine
 10
346.2600422056
 20
517.6237756372
 30
0.0
 11
334.1600422056
 21
517.6237756372
 31
0.0
  0
LINE
  5
1AB
330
198
100
AcDbEntity
  8
$DDT_AUDIT_GENERATED_(88)
  6
Continuous
 62
     7
100
AcDbLine
 10
346.2600422056
 20
517.6237756372
 30
0.0
 11
346.2600422056
 21
519.1737756372
 31
0.0
  0
LINE
  5
1AC
330
198
100
AcDbEntity
  8
$DDT_AUDIT_GENERATED_(88)
  6
Continuous
 62
     7
100
AcDbLine
 10
361.1600422056
 20
521.0237756372
 30
0.0
 11
334.6600422056
 21
521.0237756372
 31
0.0
  0
LINE
  5
1AD
330
198
100
AcDbEntity
  8
$DDT_AUDIT_GENERATED_(88)
  6
Continuous
 62
     7
100
AcDbLine
 10
334.1600422056
 20
517.6237756372
 30
0.0
 11
334.1600422056
 21
514.0237756372
 31
0.0
  0
LINE
  5
1AE
330
198
100
AcDbEntity
  8
$DDT_AUDIT_GENERATED_(88)
  6
Continuous
 62
     7
100
AcDbLine
 10
334.1600422056
 20
520.5237756372
 30
0.0
 11
334.1600422056
 21
519.1737756372
 31
0.0
  0
LINE
  5
1AF
330
198
100
AcDbEntity
  8
$DDT_AUDIT_GENERATED_(88)
  6
Continuous
 62
     7
100
AcDbLine
 10
337.6600422056
 20
521.3737756372
 30
0.0
 11
337.6600422056
 21
521.0237756372
 31
0.0
  0
LINE
  5
1B0
330
198
100
AcDbEntity
  8
$DDT_AUDIT_GENERATED_(88)
  6
Continuous
 62
     7
100
AcDbLine
 10
360.6600422056
 20
521.0237756372
 30
0.0
 11
360.6600422056
 21
521.3737756372
 31
0.0
  0
LINE
  5
1B1
330
198
100
AcDbEntity
  8
$DDT_AUDIT_GENERATED_(88)
  6
Continuous
 62
     7
100
AcDbLine
 10
360.6600422056
 20
521.3737756372
 30
0.0
 11
360.0100422056
 21
522.0237756372
 31
0.0
  0
LINE
  5
1B2
330
198
100
AcDbEntity
  8
$DDT_AUDIT_GENERATED_(88)
  6
Continuous
 62
     7
100
AcDbLine
 10
338.3100422056
 20
522.0237756372
 30
0.0
 11
337.6600422056
 21
521.3737756372
 31
0.0
  0
ARC
  5
1B3
330
198
100
AcDbEntity
  8
$DDT_AUDIT_GENERATED_(88)
  6
Continuous
 62
     7
100
AcDbCircle
 10
334.6600422056
 20
520.5237756372
 30
0.0
 40
0.5000000000000004
100
AcDbArc
 50
90.0
 51
180.0
  0
LINE
  5
1B4
330
198
100
AcDbEntity
  8
$DDT_AUDIT_GENERATED_(93)
  6
Continuous
 62
     7
100
AcDbLine
 10
360.6600422056
 20
522.0237756372
 30
0.0
 11
337.6600422056
 21
522.0237756372
 31
0.0
  0
LINE
  5
1B5
330
198
100
AcDbEntity
  8
$DDT_AUDIT_GENERATED_(93)
  6
Continuous
 62
     7
100
AcDbLine
 10
510.3009778183
 20
627.6279003639
 30
0.0
 11
487.650399499
 21
623.6339922775
 31
0.0
  0
LINE
  5
1B6
330
198
100
AcDbEntity
  8
$DDT_AUDIT_GENERATED_(93)
  6
Continuous
 62
     7
100
AcDbLine
 10
337.6600422056
 20
618.0237756372
 30
0.0
 11
337.6600422056
 21
522.0237756372
 31
0.0
  0
LINE
  5
1B7
330
198
100
AcDbEntity
  8
$DDT_AUDIT_GENERATED_(93)
  6
Continuous
 62
     7
100
AcDbLine
 10
360.6600422056
 20
522.0237756372
 30
0.0
 11
360.6600422056
 21
618.0237756372
 31
0.0
  0
ARC
  5
1B8
330
198
100
AcDbEntity
  8
$DDT_AUDIT_GENERATED_(93)
  6
Continuous
 62
     7
100
AcDbCircle
 10
424.1600422056
 20
618.0237756372
 30
0.0
 40
63.49999999999999
100
AcDbArc
 50
10.0
 51
180.0
  0
ARC
  5
1B9
330
198
100
AcDbEntity
  8
$DDT_AUDIT_GENERATED_(93)
  6
Continuous
 62
     7
100
AcDbCircle
 10
424.1600422056
 20
618.0237756372
 30
0.0
 40
86.49999999999997
100
AcDbArc
 50
10.0
 51
180.0
  0
LINE
  5
1BA
330
198
100
AcDbEntity
  8
$DDT_AUDIT_GENERATED_(93)
  6
Continuous
 62
     7
100
AcDbLine
 10
510.3009778183
 20
627.6279003639
 30
0.0
 11
509.3459128411
 21
633.0443430054
 31
0.0
  0
LINE
  5
1BB
330
198
100
AcDbEntity
  8
$DDT_AUDIT_GENERATED_(93)
  6
Continuous
 62
     7
100
AcDbLine
 10
486.6953345219
 20
629.0504349191
 30
0.0
 11
487.650399499
 21
623.6339922775
 31
0.0
  0
LINE
  5
1BC
330
198
100
AcDbEntity
  8
$DDT_AUDIT_GENERATED_(A0)
  6
Continuous
 62
     7
100
AcDbLine
 10
512.0568369949
 20
611.3352806067
 30
0.0
 11
491.5728357322
 21
607.7233985112
 31
0.0
  0
LINE
  5
1BD
330
198
100
AcDbEntity
  8
$DDT_AUDIT_GENERATED_(A0)
  6
Continuous
 62
     7
100
AcDbLine
 10
512.8679965702
 20
612.4937365374
 30
0.0
 11
510.202497043
 21
627.6105355461
 31
0.0
  0
LINE
  5
1BE
330
198
100
AcDbEntity
  8
$DDT_AUDIT_GENERATED_(A0)
  6
Continuous
 62
     7
100
AcDbLine
 10
487.7488802743
 20
623.6513570953
 30
0.0
 11
490.4143798015
 21
608.5345580866
 31
0.0
  0
ARC
  5
1BF
330
198
100
AcDbEntity
  8
$DDT_AUDIT_GENERATED_(A0)
  6
Continuous
 62
     7
100
AcDbCircle
 10
511.8831888172
 20
612.3200883597
 30
0.0
 40
1.000000000000005
100
AcDbArc
 50
280.0
 51
10.0
  0
ARC
  5
1C0
330
198
100
AcDbEntity
  8
$DDT_AUDIT_GENERATED_(A0)
  6
Continuous
 62
     7
100
AcDbCircle
 10
491.3991875545
 20
608.7082062642
 30
0.0
 40
1.0
100
AcDbArc
 50
190.0
 51
280.0
  0
LINE
  5
1C1
330
198
100
AcDbEntity
  8
06828131_MOUSSEU
  6
Continuous
 62
     7
100
AcDbLine
 10
493.0297082664
 20
607.5233424711
 30
0.0
 11
510.7562478206
 21
610.6490096691
 31
0.0
  0
LINE
  5
1C2
330
198
100
AcDbEntity
  8
06828131_MOUSSEU
  6
Continuous
 62
     7
100
AcDbLine
 10
492.9515665864
 20
607.9665059599
 30
0.0
 11
493.0297082664
 21
607.5233424711
 31
0.0
  0
LINE
  5
1C3
330
198
100
AcDbEntity
  8
06828131_MOUSSEU
  6
Continuous
 62
     7
100
AcDbLine
 10
510.7562478206
 20
610.6490096691
 30
0.0
 11
510.6781061406
 21
611.0921731579
 31
0.0
  0
LINE
  5
1C5
330
198
100
AcDbEntity
  8
08065031_SCHEIBE
  6
Continuous
 62
     7
100
AcDbLine
 10
345.6600422056
 20
519.1237756372
 30
0.0
 11
334.1600422056
 21
519.1237756372
 31
0.0
  0
LINE
  5
1C6
330
198
100
AcDbEntity
  8
08065031_SCHEIBE
  6
Continuous
 62
     7
100
AcDbLine
 10
345.6600422056
 20
519.1237756372
 30
0.0
 11
346.1600422056
 21
519.1237756372
 31
0.0
  0
LINE
  5
1C7
330
198
100
AcDbEntity
  8
08065031_SCHEIBE
  6
Continuous
 62
     7
100
AcDbLine
 10
346.1600422056
 20
519.1237756372
 30
0.0
 11
346.2600422056
 21
519.1237756372
 31
0.0
  0
LINE
  5
1C8
330
198
100
AcDbEntity
  8
08065031_SCHEIBE
  6
Continuous
 62
     7
100
AcDbLine
 10
345.6600422056
 20
517.6237756372
 30
0.0
 11
334.1600422056
 21
517.6237756372
 31
0.0
  0
LINE
  5
1C9
330
198
100
AcDbEntity
  8
08065031_SCHEIBE
  6
Continuous
 62
     7
100
AcDbLine
 10
346.1600422056
 20
519.1237756372
 30
0.0
 11
346.1600422056
 21
517.6237756372
 31
0.0
  0
LINE
  5
1CA
330
198
100
AcDbEntity
  8
08065031_SCHEIBE
  6
Continuous
 62
     7
100
AcDbLine
 10
345.6600422056
 20
519.1237756372
 30
0.0
 11
345.6600422056
 21
517.6237756372
 31
0.0
  0
LINE
  5
1CB
330
198
100
AcDbEntity
  8
08065031_SCHEIBE
  6
Continuous
 62
     7
100
AcDbLine
 10
334.1600422056
 20
519.1237756372
 30
0.0
 11
334.1600422056
 21
517.6237756372
 31
0.0
  0
ARC
  5
1CC
330
198
100
AcDbEntity
  8
08013038_FÜHRUNG
  6
Continuous
 62
     7
100
AcDbCircle
 10
367.1600422056
 20
486.0237756372
 30
0.0
 40
14.85
100
AcDbArc
 50
293.8310078895
 51
0.0
  0
ARC
  5
1CD
330
198
100
AcDbEntity
  8
08013038_FÜHRUNG
  6
Continuous
 62
     7
100
AcDbCircle
 10
367.1600422056
 20
486.0237756372
 30
0.0
 40
14.85
100
AcDbArc
 50
113.8310078895
 51
246.1689921105
  0
ARC
  5
1CE
330
198
100
AcDbEntity
  8
08013038_FÜHRUNG
  6
Continuous
 62
     7
100
AcDbCircle
 10
367.1600422056
 20
486.0237756372
 30
0.0
 40
14.85
100
AcDbArc
 50
0.0
 51
66.1689921105
  0
LINE
  5
1CF
330
198
100
AcDbEntity
  8
$DDT_AUDIT_GENERATED_(15E)
  6
Continuous
 62
     7
100
AcDbLine
 10
361.6600422056
 20
470.0237756372
 30
0.0
 11
372.6600422056
 21
470.0237756372
 31
0.0
  0
ARC
  5
1D0
330
198
100
AcDbEntity
  8
$DDT_AUDIT_GENERATED_(15E)
  6
Continuous
 62
     7
100
AcDbCircle
 10
367.1600422056
 20
486.0237756372
 30
0.0
 40
11.0
100
AcDbArc
 50
122.9261300415
 51
237.0738699585
  0
LINE
  5
1D1
330
198
100
AcDbEntity
  8
$DDT_AUDIT_GENERATED_(15E)
  6
Continuous
 62
     7
100
AcDbLine
 10
361.1600422056
 20
494.640619607
 30
0.0
 11
361.1600422056
 21
477.4069316674
 31
0.0
  0
ARC
  5
1D2
330
198
100
AcDbEntity
  8
$DDT_AUDIT_GENERATED_(15E)
  6
Continuous
 62
     7
100
AcDbCircle
 10
367.1600422056
 20
486.0237756372
 30
0.0
 40
11.0
100
AcDbArc
 50
302.9261300415
 51
57.0738699585
  0
LINE
  5
1D3
330
198
100
AcDbEntity
  8
$DDT_AUDIT_GENERATED_(15E)
  6
Continuous
 62
     7
100
AcDbLine
 10
373.1600422056
 20
477.4069316674
 30
0.0
 11
373.1600422056
 21
494.640619607
 31
0.0
  0
LINE
  5
1D4
330
198
100
AcDbEntity
  8
$DDT_AUDIT_GENERATED_(15E)
  6
Continuous
 62
     7
100
AcDbLine
 10
372.6600422056
 20
546.0237756372
 30
0.0
 11
361.6600422056
 21
546.0237756372
 31
0.0
  0
LINE
  5
1D5
330
198
100
AcDbEntity
  8
$DDT_AUDIT_GENERATED_(15E)
  6
Continuous
 62
     7
100
AcDbLine
 10
361.1600422056
 20
477.4069316674
 30
0.0
 11
361.1600422056
 21
470.5237756372
 31
0.0
  0
LINE
  5
1D6
330
198
100
AcDbEntity
  8
$DDT_AUDIT_GENERATED_(15E)
  6
Continuous
 62
     7
100
AcDbLine
 10
361.1600422056
 20
545.5237756372
 30
0.0
 11
361.1600422056
 21
494.640619607
 31
0.0
  0
LINE
  5
1D7
330
198
100
AcDbEntity
  8
$DDT_AUDIT_GENERATED_(15E)
  6
Continuous
 62
     7
100
AcDbLine
 10
373.1600422056
 20
494.640619607
 30
0.0
 11
373.1600422056
 21
545.5237756372
 31
0.0
  0
LINE
  5
1D8
330
198
100
AcDbEntity
  8
$DDT_AUDIT_GENERATED_(15E)
  6
Continuous
 62
     7
100
AcDbLine
 10
373.1600422056
 20
470.5237756372
 30
0.0
 11
373.1600422056
 21
477.4069316674
 31
0.0
  0
ARC
  5
1D9
330
198
100
AcDbEntity
  8
$DDT_AUDIT_GENERATED_(15E)
  6
Continuous
 62
     7
100
AcDbCircle
 10
372.6600422056
 20
470.5237756372
 30
0.0
 40
0.5000000000000022
100
AcDbArc
 50
270.0
 51
0.0
  0
ARC
  5
1DA
330
198
100
AcDbEntity
  8
$DDT_AUDIT_GENERATED_(15E)
  6
Continuous
 62
     7
100
AcDbCircle
 10
361.6600422056
 20
470.5237756372
 30
0.0
 40
0.5000000000000004
100
AcDbArc
 50
180.0
 51
270.0
  0
ARC
  5
1DB
330
198
100
AcDbEntity
  8
$DDT_AUDIT_GENERATED_(15E)
  6
Continuous
 62
     7
100
AcDbCircle
 10
372.6600422056
 20
545.5237756372
 30
0.0
 40
0.5000000000000004
100
AcDbArc
 50
0.0
 51
90.0
  0
ARC
  5
1DC
330
198
100
AcDbEntity
  8
$DDT_AUDIT_GENERATED_(15E)
  6
Continuous
 62
     7
100
AcDbCircle
 10
361.6600422056
 20
545.5237756372
 30
0.0
 40
0.5000000000000004
100
AcDbArc
 50
90.0
 51
180.0
  0
LINE
  5
1DD
330
198
100
AcDbEntity
  8
08048038_SOCKEL_
  6
Continuous
 62
     7
100
AcDbLine
 10
371.1600422056
 20
426.0237756372
 30
0.0
 11
327.1600422056
 21
426.0237756372
 31
0.0
  0
LINE
  5
1DE
330
198
100
AcDbEntity
  8
08048038_SOCKEL_
  6
Continuous
 62
     7
100
AcDbLine
 10
376.6600422056
 20
416.0237756372
 30
0.0
 11
321.6600422056
 21
416.0237756372
 31
0.0
  0
LINE
  5
1DF
330
198
100
AcDbEntity
  8
08048038_SOCKEL_
  6
Continuous
 62
     7
100
AcDbLine
 10
376.1600422056
 20
422.0237756372
 30
0.0
 11
322.1600422056
 21
422.0237756372
 31
0.0
  0
LINE
  5
1E0
330
198
100
AcDbEntity
  8
08048038_SOCKEL_
  6
Continuous
 62
     7
100
AcDbLine
 10
376.6600422056
 20
416.0237756372
 30
0.0
 11
376.6600422056
 21
421.5237756372
 31
0.0
  0
LINE
  5
1E1
330
198
100
AcDbEntity
  8
08048038_SOCKEL_
  6
Continuous
 62
     7
100
AcDbLine
 10
321.6600422056
 20
421.5237756372
 30
0.0
 11
321.6600422056
 21
416.0237756372
 31
0.0
  0
ARC
  5
1E2
330
198
100
AcDbEntity
  8
08048038_SOCKEL_
  6
Continuous
 62
     7
100
AcDbCircle
 10
376.1600422056
 20
421.5237756372
 30
0.0
 40
0.5000000000000004
100
AcDbArc
 50
0.0
 51
90.0
  0
ARC
  5
1E3
330
198
100
AcDbEntity
  8
08048038_SOCKEL_
  6
Continuous
 62
     7
100
AcDbCircle
 10
322.1600422056
 20
421.5237756372
 30
0.0
 40
0.5000000000000004
100
AcDbArc
 50
90.0
 51
180.0
  0
ARC
  5
1E4
330
198
100
AcDbEntity
  8
08048038_SOCKEL_
  6
Continuous
 62
     7
100
AcDbCircle
 10
372.1600422056
 20
422.5237756372
 30
0.0
 40
0.5000000000000004
100
AcDbArc
 50
180.0
 51
270.0
  0
ARC
  5
1E5
330
198
100
AcDbEntity
  8
08048038_SOCKEL_
  6
Continuous
 62
     7
100
AcDbCircle
 10
326.1600422056
 20
422.5237756372
 30
0.0
 40
0.5000000000000004
100
AcDbArc
 50
270.0
 51
0.0
  0
LINE
  5
1E6
330
198
100
AcDbEntity
  8
08048038_SOCKEL_
  6
Continuous
 62
     7
100
AcDbLine
 10
371.6600422056
 20
422.5237756372
 30
0.0
 11
371.6600422056
 21
425.5237756372
 31
0.0
  0
LINE
  5
1E7
330
198
100
AcDbEntity
  8
08048038_SOCKEL_
  6
Continuous
 62
     7
100
AcDbLine
 10
326.6600422056
 20
425.5237756372
 30
0.0
 11
326.6600422056
 21
422.5237756372
 31
0.0
  0
ARC
  5
1E8
330
198
100
AcDbEntity
  8
08048038_SOCKEL_
  6
Continuous
 62
     7
100
AcDbCircle
 10
371.1600422056
 20
425.5237756372
 30
0.0
 40
0.5000000000000004
100
AcDbArc
 50
0.0
 51
90.0
  0
ARC
  5
1E9
330
198
100
AcDbEntity
  8
08048038_SOCKEL_
  6
Continuous
 62
     7
100
AcDbCircle
 10
327.1600422056
 20
425.5237756372
 30
0.0
 40
0.5000000000000004
100
AcDbArc
 50
90.0
 51
180.0
  0
LINE
  5
1EB
330
198
100
AcDbEntity
  8
$DDT_AUDIT_GENERATED_(1EA)
  6
Continuous
 62
     7
100
AcDbLine
 10
324.2858465262
 20
456.7082385561
 30
0.0
 11
331.2437528436
 21
435.2940048297
 31
0.0
  0
LINE
  5
1EC
330
198
100
AcDbEntity
  8
$DDT_AUDIT_GENERATED_(1EA)
  6
Continuous
 62
     7
100
AcDbLine
 10
331.243793487
 20
448.2381516522
 30
0.0
 11
328.0900725914
 21
457.9443065336
 31
0.0
  0
CIRCLE
  5
1EE
330
198
100
AcDbEntity
  8
$DDT_AUDIT_GENERATED_(1ED)
  6
Continuous
 62
     7
100
AcDbCircle
 10
324.771865791
 20
461.6845610209
 30
0.0
 40
5.0
  0
ENDBLK
  5
1F0
330
198
100
AcDbEntity
  8
0
100
AcDbBlockEnd
  0
BLOCK
  5
239
330
1F1
100
AcDbEntity
  8
0
100
AcDbBlockBegin
  2
SE2
 70
     0
 10
0.0
 20
0.0
 30
0.0
  3
SE2
  1

  0
ARC
  5
1F3
330
1F1
100
AcDbEntity
  8
08047038_GEH__EL
  6
Continuous
 62
     7
100
AcDbCircle
 10
137.3861176154
 20
270.0731708673
 30
0.0
 40
18.0
100
AcDbArc
 50
309.7090165531
 51
0.0
  0
ARC
  5
1F4
330
1F1
100
AcDbEntity
  8
08047038_GEH__EL
  6
Continuous
 62
     7
100
AcDbCircle
 10
137.3861176154
 20
270.0731708673
 30
0.0
 40
18.0
100
AcDbArc
 50
0.0
 51
230.2909834469
  0
LINE
  5
1F5
330
1F1
100
AcDbEntity
  8
08046038_GEH_ELB
  6
Continuous
 62
     7
100
AcDbLine
 10
82.3861176154
 20
269.5731708673
 30
0.0
 11
82.3861176154
 21
234.5731708673
 31
0.0
  0
LINE
  5
1F6
330
1F1
100
AcDbEntity
  8
08046038_GEH_ELB
  6
Continuous
 62
     7
100
AcDbLine
 10
192.3861176154
 20
234.5731708673
 30
0.0
 11
192.3861176154
 21
269.5731708673
 31
0.0
  0
ARC
  5
1F7
330
1F1
100
AcDbEntity
  8
08046038_GEH_ELB
  6
Continuous
 62
     7
100
AcDbCircle
 10
82.8861176154
 20
269.5731708673
 30
0.0
 40
0.5000000000000004
100
AcDbArc
 50
90.0
 51
180.0
  0
ARC
  5
1F8
330
1F1
100
AcDbEntity
  8
08046038_GEH_ELB
  6
Continuous
 62
     7
100
AcDbCircle
 10
82.8861176154
 20
234.5731708673
 30
0.0
 40
0.5000000000000004
100
AcDbArc
 50
180.0
 51
270.0
  0
ARC
  5
1F9
330
1F1
100
AcDbEntity
  8
08046038_GEH_ELB
  6
Continuous
 62
     7
100
AcDbCircle
 10
191.8861176154
 20
269.5731708673
 30
0.0
 40
0.5000000000000004
100
AcDbArc
 50
0.0
 51
90.0
  0
ARC
  5
1FA
330
1F1
100
AcDbEntity
  8
08046038_GEH_ELB
  6
Continuous
 62
     7
100
AcDbCircle
 10
191.8861176154
 20
234.5731708673
 30
0.0
 40
0.5000000000000004
100
AcDbArc
 50
270.0
 51
0.0
  0
LINE
  5
1FB
330
1F1
100
AcDbEntity
  8
08046038_GEH_ELB
  6
Continuous
 62
     7
100
AcDbLine
 10
119.3861176154
 20
270.0731708673
 30
0.0
 11
82.8861176154
 21
270.0731708673
 31
0.0
  0
LINE
  5
1FC
330
1F1
100
AcDbEntity
  8
08046038_GEH_ELB
  6
Continuous
 62
     7
100
AcDbLine
 10
191.8861176154
 20
270.0731708673
 30
0.0
 11
155.3861176154
 21
270.0731708673
 31
0.0
  0
LINE
  5
1FD
330
1F1
100
AcDbEntity
  8
08046038_GEH_ELB
  6
Continuous
 62
     7
100
AcDbLine
 10
82.8861176154
 20
234.0731708673
 30
0.0
 11
125.8861176154
 21
234.0731708673
 31
0.0
  0
LINE
  5
1FE
330
1F1
100
AcDbEntity
  8
08046038_GEH_ELB
  6
Continuous
 62
     7
100
AcDbLine
 10
148.8861176154
 20
234.0731708673
 30
0.0
 11
191.8861176154
 21
234.0731708673
 31
0.0
  0
ARC
  5
1FF
330
1F1
100
AcDbEntity
  8
$DDT_AUDIT_GENERATED_(88)
  6
Continuous
 62
     7
100
AcDbCircle
 10
137.3861176154
 20
270.0731708673
 30
0.0
 40
14.99999999999999
100
AcDbArc
 50
320.0554948102
 51
0.0
  0
ARC
  5
200
330
1F1
100
AcDbEntity
  8
$DDT_AUDIT_GENERATED_(88)
  6
Continuous
 62
     7
100
AcDbCircle
 10
137.3861176154
 20
270.0731708673
 30
0.0
 40
14.99999999999999
100
AcDbArc
 50
0.0
 51
219.9445051898
  0
ARC
  5
201
330
1F1
100
AcDbEntity
  8
$DDT_AUDIT_GENERATED_(93)
  6
Continuous
 62
     7
100
AcDbCircle
 10
137.3861176154
 20
270.0731708673
 30
0.0
 40
11.5
100
AcDbArc
 50
0.0
 51
180.0
  0
ELLIPSE
  5
202
330
1F1
100
AcDbEntity
  8
$DDT_AUDIT_GENERATED_(93)
  6
Continuous
 62
     7
100
AcDbEllipse
 10
137.3861176154
 20
120.2575244143
 30
0.0
 11
-11.50000000000006
 21
-2.026157019940911E-12
 31
0.0
210
0.0
220
0.0
230
1.0
 40
0.984807753
 41
0.0000000000000005
 42
3.141592653589793
  0
LINE
  5
203
330
1F1
100
AcDbEntity
  8
$DDT_AUDIT_GENERATED_(93)
  6
Continuous
 62
     7
100
AcDbLine
 10
125.8861176154
 20
270.0731708673
 30
0.0
 11
125.8861176154
 21
121.2125893914
 31
0.0
  0
LINE
  5
204
330
1F1
100
AcDbEntity
  8
$DDT_AUDIT_GENERATED_(93)
  6
Continuous
 62
     7
100
AcDbLine
 10
148.8861176154
 20
121.2125893914
 30
0.0
 11
148.8861176154
 21
270.0731708673
 31
0.0
  0
LINE
  5
205
330
1F1
100
AcDbEntity
  8
$DDT_AUDIT_GENERATED_(93)
  6
Continuous
 62
     7
100
AcDbLine
 10
148.8861176154
 20
120.2575244143
 30
0.0
 11
148.8861176154
 21
121.2125893914
 31
0.0
  0
LINE
  5
206
330
1F1
100
AcDbEntity
  8
$DDT_AUDIT_GENERATED_(93)
  6
Continuous
 62
     7
100
AcDbLine
 10
125.8861176154
 20
121.2125893914
 30
0.0
 11
125.8861176154
 21
120.2575244143
 31
0.0
  0
ELLIPSE
  5
207
330
1F1
100
AcDbEntity
  8
$DDT_AUDIT_GENERATED_(A0)
  6
Continuous
 62
     7
100
AcDbEllipse
 10
137.3861176154
 20
117.5920248871
 30
0.0
 11
-11.40000000000001
 21
2.775557561562891E-14
 31
0.0
210
0.0
220
0.0
230
1.0
 40
0.984807753
 41
0.0
 42
0.8544637605570534
  0
ELLIPSE
  5
208
330
1F1
100
AcDbEntity
  8
$DDT_AUDIT_GENERATED_(A0)
  6
Continuous
 62
     7
100
AcDbEllipse
 10
137.3861176154
 20
117.5920248871
 30
0.0
 11
-11.40000000000001
 21
2.775557561562891E-14
 31
0.0
210
0.0
220
0.0
230
1.0
 40
0.984807753
 41
2.237066398362585
 42
3.141592653589793
  0
LINE
  5
209
330
1F1
100
AcDbEntity
  8
$DDT_AUDIT_GENERATED_(A0)
  6
Continuous
 62
     7
100
AcDbLine
 10
148.7861176154
 20
117.5920248871
 30
0.0
 11
148.7861176154
 21
118.7672398606
 31
0.0
  0
LINE
  5
20A
330
1F1
100
AcDbEntity
  8
$DDT_AUDIT_GENERATED_(A0)
  6
Continuous
 62
     7
100
AcDbLine
 10
125.9861176154
 20
118.7672398606
 30
0.0
 11
125.9861176154
 21
117.5920248871
 31
0.0
  0
ARC
  5
20B
330
1F1
100
AcDbEntity
  8
$DDT_AUDIT_GENERATED_(A0)
  6
Continuous
 62
     7
100
AcDbCircle
 10
137.370745805
 20
117.7823731872
 30
0.0
 40
11.43235926582948
100
AcDbArc
 50
229.2878003382
 51
270.0770392274
  0
ARC
  5
20C
330
1F1
100
AcDbEntity
  8
$DDT_AUDIT_GENERATED_(A0)
  6
Continuous
 62
     7
100
AcDbCircle
 10
137.4096487308
 20
117.7640762765
 30
0.0
 40
11.41407627650098
100
AcDbArc
 50
269.8818796614
 51
307.8873975538
  0
LINE
  5
20D
330
1F1
100
AcDbEntity
  8
08018031_RING
  6
Continuous
 62
     7
100
AcDbLine
 10
196.8861176154
 20
260.5731708673
 30
0.0
 11
196.3861176154
 21
260.5731708673
 31
0.0
  0
LINE
  5
20E
330
1F1
100
AcDbEntity
  8
08018031_RING
  6
Continuous
 62
     7
100
AcDbLine
 10
196.3861176154
 20
243.5731708673
 30
0.0
 11
196.8861176154
 21
243.5731708673
 31
0.0
  0
LINE
  5
20F
330
1F1
100
AcDbEntity
  8
08013038_FÜHRUNG
  6
Continuous
 62
     7
100
AcDbLine
 10
196.3861176154
 20
237.7231708673
 30
0.0
 11
196.3861176154
 21
266.4231708673
 31
0.0
  0
LINE
  5
210
330
1F1
100
AcDbEntity
  8
08013038_FÜHRUNG
  6
Continuous
 62
     7
100
AcDbLine
 10
192.3861176154
 20
237.2231708673
 30
0.0
 11
195.8861176154
 21
237.2231708673
 31
0.0
  0
LINE
  5
211
330
1F1
100
AcDbEntity
  8
08013038_FÜHRUNG
  6
Continuous
 62
     7
100
AcDbLine
 10
195.8861176154
 20
266.9231708673
 30
0.0
 11
192.3861176154
 21
266.9231708673
 31
0.0
  0
ARC
  5
212
330
1F1
100
AcDbEntity
  8
08013038_FÜHRUNG
  6
Continuous
 62
     7
100
AcDbCircle
 10
195.8861176154
 20
237.7231708673
 30
0.0
 40
0.5000000000000004
100
AcDbArc
 50
270.0
 51
0.0
  0
ARC
  5
213
330
1F1
100
AcDbEntity
  8
08013038_FÜHRUNG
  6
Continuous
 62
     7
100
AcDbCircle
 10
195.8861176154
 20
266.4231708673
 30
0.0
 40
0.5000000000000004
100
AcDbArc
 50
0.0
 51
90.0
  0
LINE
  5
214
330
1F1
100
AcDbEntity
  8
$DDT_AUDIT_GENERATED_(15E)
  6
Continuous
 62
     7
100
AcDbLine
 10
196.8861176154
 20
263.0731708673
 30
0.0
 11
196.8861176154
 21
241.0731708673
 31
0.0
  0
LINE
  5
215
330
1F1
100
AcDbEntity
  8
$DDT_AUDIT_GENERATED_(15E)
  6
Continuous
 62
     7
100
AcDbLine
 10
217.3861176154
 20
241.5731708673
 30
0.0
 11
217.3861176154
 21
246.0731708673
 31
0.0
  0
LINE
  5
216
330
1F1
100
AcDbEntity
  8
$DDT_AUDIT_GENERATED_(15E)
  6
Continuous
 62
     7
100
AcDbLine
 10
217.3861176154
 20
258.0731708673
 30
0.0
 11
217.3861176154
 21
262.5731708673
 31
0.0
  0
CIRCLE
  5
217
330
1F1
100
AcDbEntity
  8
$DDT_AUDIT_GENERATED_(15E)
  6
Continuous
 62
     7
100
AcDbCircle
 10
217.3861176154
 20
252.0731708673
 30
0.0
 40
6.0
  0
LINE
  5
218
330
1F1
100
AcDbEntity
  8
$DDT_AUDIT_GENERATED_(15E)
  6
Continuous
 62
     7
100
AcDbLine
 10
216.8861176154
 20
263.0731708673
 30
0.0
 11
196.8861176154
 21
263.0731708673
 31
0.0
  0
LINE
  5
219
330
1F1
100
AcDbEntity
  8
$DDT_AUDIT_GENERATED_(15E)
  6
Continuous
 62
     7
100
AcDbLine
 10
196.8861176154
 20
241.0731708673
 30
0.0
 11
216.8861176154
 21
241.0731708673
 31
0.0
  0
ARC
  5
21A
330
1F1
100
AcDbEntity
  8
$DDT_AUDIT_GENERATED_(15E)
  6
Continuous
 62
     7
100
AcDbCircle
 10
216.8861176154
 20
241.5731708673
 30
0.0
 40
0.5000000000000004
100
AcDbArc
 50
270.0
 51
0.0
  0
ARC
  5
21B
330
1F1
100
AcDbEntity
  8
$DDT_AUDIT_GENERATED_(15E)
  6
Continuous
 62
     7
100
AcDbCircle
 10
216.8861176154
 20
262.5731708673
 30
0.0
 40
0.5000000000000004
100
AcDbArc
 50
0.0
 51
90.0
  0
LINE
  5
21C
330
1F1
100
AcDbEntity
  8
08018031_RING
  6
Continuous
 62
     7
100
AcDbLine
 10
77.8861176154
 20
243.5731708673
 30
0.0
 11
78.3861176154
 21
243.5731708673
 31
0.0
  0
LINE
  5
21D
330
1F1
100
AcDbEntity
  8
08018031_RING
  6
Continuous
 62
     7
100
AcDbLine
 10
78.3861176154
 20
260.5731708673
 30
0.0
 11
77.8861176154
 21
260.5731708673
 31
0.0
  0
LINE
  5
21E
330
1F1
100
AcDbEntity
  8
08013038_FÜHRUNG
  6
Continuous
 62
     7
100
AcDbLine
 10
78.3861176154
 20
266.4231708673
 30
0.0
 11
78.3861176154
 21
237.7231708673
 31
0.0
  0
LINE
  5
21F
330
1F1
100
AcDbEntity
  8
08013038_FÜHRUNG
  6
Continuous
 62
     7
100
AcDbLine
 10
82.3861176154
 20
266.9231708673
 30
0.0
 11
78.8861176154
 21
266.9231708673
 31
0.0
  0
LINE
  5
220
330
1F1
100
AcDbEntity
  8
08013038_FÜHRUNG
  6
Continuous
 62
     7
100
AcDbLine
 10
78.8861176154
 20
237.2231708673
 30
0.0
 11
82.3861176154
 21
237.2231708673
 31
0.0
  0
ARC
  5
221
330
1F1
100
AcDbEntity
  8
08013038_FÜHRUNG
  6
Continuous
 62
     7
100
AcDbCircle
 10
78.8861176154
 20
266.4231708673
 30
0.0
 40
0.5000000000000022
100
AcDbArc
 50
90.0
 51
180.0
  0
ARC
  5
222
330
1F1
100
AcDbEntity
  8
08013038_FÜHRUNG
  6
Continuous
 62
     7
100
AcDbCircle
 10
78.8861176154
 20
237.7231708673
 30
0.0
 40
0.5000000000000004
100
AcDbArc
 50
180.0
 51
270.0
  0
LINE
  5
223
330
1F1
100
AcDbEntity
  8
$DDT_AUDIT_GENERATED_(15E)
  6
Continuous
 62
     7
100
AcDbLine
 10
77.8861176154
 20
241.0731708673
 30
0.0
 11
77.8861176154
 21
263.0731708673
 31
0.0
  0
LINE
  5
224
330
1F1
100
AcDbEntity
  8
$DDT_AUDIT_GENERATED_(15E)
  6
Continuous
 62
     7
100
AcDbLine
 10
57.3861176154
 20
258.0731708673
 30
0.0
 11
57.3861176154
 21
262.5731708673
 31
0.0
  0
LINE
  5
225
330
1F1
100
AcDbEntity
  8
$DDT_AUDIT_GENERATED_(15E)
  6
Continuous
 62
     7
100
AcDbLine
 10
57.3861176154
 20
246.0731708673
 30
0.0
 11
57.3861176154
 21
241.5731708673
 31
0.0
  0
CIRCLE
  5
226
330
1F1
100
AcDbEntity
  8
$DDT_AUDIT_GENERATED_(15E)
  6
Continuous
 62
     7
100
AcDbCircle
 10
57.3861176154
 20
252.0731708673
 30
0.0
 40
6.0
  0
LINE
  5
227
330
1F1
100
AcDbEntity
  8
$DDT_AUDIT_GENERATED_(15E)
  6
Continuous
 62
     7
100
AcDbLine
 10
57.8861176154
 20
241.0731708673
 30
0.0
 11
77.8861176154
 21
241.0731708673
 31
0.0
  0
LINE
  5
228
330
1F1
100
AcDbEntity
  8
$DDT_AUDIT_GENERATED_(15E)
  6
Continuous
 62
     7
100
AcDbLine
 10
77.8861176154
 20
263.0731708673
 30
0.0
 11
57.8861176154
 21
263.0731708673
 31
0.0
  0
ARC
  5
229
330
1F1
100
AcDbEntity
  8
$DDT_AUDIT_GENERATED_(15E)
  6
Continuous
 62
     7
100
AcDbCircle
 10
57.8861176154
 20
262.5731708673
 30
0.0
 40
0.5000000000000004
100
AcDbArc
 50
90.0
 51
180.0
  0
ARC
  5
22A
330
1F1
100
AcDbEntity
  8
$DDT_AUDIT_GENERATED_(15E)
  6
Continuous
 62
     7
100
AcDbCircle
 10
57.8861176154
 20
241.5731708673
 30
0.0
 40
0.5000000000000004
100
AcDbArc
 50
180.0
 51
270.0
  0
ARC
  5
22B
330
1F1
100
AcDbEntity
  8
08048038_SOCKEL_
  6
Continuous
 62
     7
100
AcDbCircle
 10
137.3861176154
 20
270.0731708673
 30
0.0
 40
27.5
100
AcDbArc
 50
109.1033244775
 51
180.0
  0
ARC
  5
22C
330
1F1
100
AcDbEntity
  8
08048038_SOCKEL_
  6
Continuous
 62
     7
100
AcDbCircle
 10
137.3861176154
 20
270.0731708673
 30
0.0
 40
27.5
100
AcDbArc
 50
0.0
 51
70.8966755225
  0
ARC
  5
22D
330
1F1
100
AcDbEntity
  8
08048038_SOCKEL_
  6
Continuous
 62
     7
100
AcDbCircle
 10
137.3861176154
 20
270.0731708673
 30
0.0
 40
22.5
100
AcDbArc
 50
113.5781784782
 51
180.0
  0
ARC
  5
22E
330
1F1
100
AcDbEntity
  8
08048038_SOCKEL_
  6
Continuous
 62
     7
100
AcDbCircle
 10
137.3861176154
 20
270.0731708673
 30
0.0
 40
22.5
100
AcDbArc
 50
0.0
 51
66.4218215218
  0
LINE
  5
22F
330
1F1
100
AcDbEntity
  8
$DDT_AUDIT_GENERATED_(1EA)
  6
Continuous
 62
     7
100
AcDbLine
 10
135.3861176154
 20
289.4613472819
 30
0.0
 11
135.3861176154
 21
287.9617146873
 31
0.0
  0
LINE
  5
230
330
1F1
100
AcDbEntity
  8
$DDT_AUDIT_GENERATED_(1EA)
  6
Continuous
 62
     7
100
AcDbLine
 10
139.3861176154
 20
287.9617146873
 30
0.0
 11
139.3861176154
 21
289.4613472819
 31
0.0
  0
LINE
  5
231
330
1F1
100
AcDbEntity
  8
$DDT_AUDIT_GENERATED_(1ED)
  6
Continuous
 62
     7
100
AcDbLine
 10
128.3861176154
 20
298.9613472819
 30
0.0
 11
128.3861176154
 21
289.9613472819
 31
0.0
  0
LINE
  5
232
330
1F1
100
AcDbEntity
  8
$DDT_AUDIT_GENERATED_(1ED)
  6
Continuous
 62
     7
100
AcDbLine
 10
146.3861176154
 20
289.9613472819
 30
0.0
 11
146.3861176154
 21
298.9613472819
 31
0.0
  0
LINE
  5
233
330
1F1
100
AcDbEntity
  8
$DDT_AUDIT_GENERATED_(1ED)
  6
Continuous
 62
     7
100
AcDbLine
 10
128.8861176154
 20
289.4613472819
 30
0.0
 11
145.8861176154
 21
289.4613472819
 31
0.0
  0
LINE
  5
234
330
1F1
100
AcDbEntity
  8
$DDT_AUDIT_GENERATED_(1ED)
  6
Continuous
 62
     7
100
AcDbLine
 10
145.8861176154
 20
299.4613472819
 30
0.0
 11
128.8861176154
 21
299.4613472819
 31
0.0
  0
ARC
  5
235
330
1F1
100
AcDbEntity
  8
$DDT_AUDIT_GENERATED_(1ED)
  6
Continuous
 62
     7
100
AcDbCircle
 10
128.8861176154
 20
289.9613472819
 30
0.0
 40
0.5000000000000004
100
AcDbArc
 50
180.0
 51
270.0
  0
ARC
  5
236
330
1F1
100
AcDbEntity
  8
$DDT_AUDIT_GENERATED_(1ED)
  6
Continuous
 62
     7
100
AcDbCircle
 10
128.8861176154
 20
298.9613472819
 30
0.0
 40
0.5000000000000004
100
AcDbArc
 50
90.0
 51
180.0
  0
ARC
  5
237
330
1F1
100
AcDbEntity
  8
$DDT_AUDIT_GENERATED_(1ED)
  6
Continuous
 62
     7
100
AcDbCircle
 10
145.8861176154
 20
289.9613472819
 30
0.0
 40
0.5000000000000004
100
AcDbArc
 50
270.0
 51
0.0
  0
ARC
  5
238
330
1F1
100
AcDbEntity
  8
$DDT_AUDIT_GENERATED_(1ED)
  6
Continuous
 62
     7
100
AcDbCircle
 10
145.8861176154
 20
298.9613472819
 30
0.0
 40
0.5000000000000004
100
AcDbArc
 50
0.0
 51
90.0
  0
ENDBLK
  5
23A
330
1F1
100
AcDbEntity
  8
0
100
AcDbBlockEnd
  0
ENDSEC
  0
SECTION
  2
ENTITIES
  0
INSERT
  5
5F
330
1F
100
AcDbEntity
  8
Default
100
AcDbBlockReference
  2
SEANNOT_GROUP
 10
0.0
 20
0.0
 30
0.0
  0
INSERT
  5
66
330
1F
100
AcDbEntity
  8
Default
100
AcDbBlockReference
  2
SEANNOT_GROUP1
 10
0.0
 20
0.0
 30
0.0
  0
INSERT
  5
6C
330
1F
100
AcDbEntity
  8
Default
100
AcDbBlockReference
  2
SEANNOT_GROUP2
 10
0.0
 20
0.0
 30
0.0
  0
INSERT
  5
76
330
1F
100
AcDbEntity
  8
Default
100
AcDbBlockReference
  2
SE
 10
0.0
 20
0.0
 30
0.0
  0
INSERT
  5
199
330
1F
100
AcDbEntity
  8
Default
100
AcDbBlockReference
  2
SE1
 10
0.0
 20
0.0
 30
0.0
  0
INSERT
  5
1F2
330
1F
100
AcDbEntity
  8
Default
100
AcDbBlockReference
  2
SE2
 10
0.0
 20
0.0
 30
0.0
  0
TEXT
  5
23C
330
1F
100
AcDbEntity
  8
Default
  6
Continuous
 62
     7
100
AcDbText
 10
5.9362635081
 20
53.4225120485
 30
0.0
 40
10.0
  1
Grohe AG^J
  7
SEACAD_seiso_ttf
 11
5.9362635081
 21
63.4225120485
 31
0.0
100
AcDbText
 73
     3
  0
TEXT
  5
23D
330
1F
100
AcDbEntity
  8
Default
  6
Continuous
 62
     7
100
AcDbText
 10
5.9362635081
 20
37.0588756849
 30
0.0
 40
10.0
  1
 
  7
SEACAD_seiso_ttf
 11
5.9362635081
 21
47.0588756849
 31
0.0
100
AcDbText
 73
     3
  0
TEXT
  5
23E
330
1F
100
AcDbEntity
  8
Default
  6
Continuous
 62
     7
100
AcDbText
 10
5.9362635081
 20
20.6952393213
 30
0.0
 40
10.0
  1
ecn: 
  7
SEACAD_seiso_ttf
 11
5.9362635081
 21
30.6952393213
 31
0.0
100
AcDbText
 73
     3
  0
TEXT
  5
23F
330
1F
100
AcDbEntity
  8
Default
  6
Continuous
 62
     7
100
AcDbText
 10
5.9362635081
 20
4.3316029576
 30
0.0
 40
10.0
  1
unit: mm
  7
SEACAD_seiso_ttf
 11
5.9362635081
 21
14.3316029576
 31
0.0
100
AcDbText
 73
     3
  0
LINE
  5
240
330
1F
100
AcDbEntity
  8
Default
  6
Continuous
 62
     7
100
AcDbLine
 10
0.0
 20
0.0
 30
0.0
 11
100.0
 21
0.0
 31
0.0
  0
LINE
  5
241
330
1F
100
AcDbEntity
  8
Default
  6
Continuous
 62
     7
100
AcDbLine
 10
0.0
 20
0.0
 30
0.0
 11
0.0
 21
100.0
 31
0.0
  0
TEXT
  5
242
330
1F
100
AcDbEntity
  8
Default
  6
Continuous
 62
     7
100
AcDbText
 10
24.3923665681
 20
-18.2375342018
 30
0.0
 40
10.0
  1
100 mm
  7
SEACAD_seiso_ttf
 11
24.3923665681
 21
-8.2375342018
 31
0.0
100
AcDbText
 73
     3
  0
TEXT
  5
243
330
1F
100
AcDbEntity
  8
Default
  6
Continuous
 62
     7
100
AcDbText
 10
-7.6150308803
 20
24.6231930421
 30
0.0
 40
10.0
  1
100 mm
 50
90.0
  7
SEACAD_seiso_ttf
 11
-17.6150308803
 21
24.6231930421
 31
0.0
100
AcDbText
 73
     3
  0
TEXT
  5
244
330
1F
100
AcDbEntity
  8
Default
  6
Continuous
 62
     7
100
AcDbText
 10
28.4878128572
 20
20.0907663715
 30
0.0
 40
10.0
  1
205851
  7
SEACAD_seiso_ttf
 11
28.4878128572
 21
30.0907663715
 31
0.0
100
AcDbText
 73
     3
  0
TEXT
  5
245
330
1F
100
AcDbEntity
  8
Default
  6
Continuous
 62
     7
100
AcDbText
 10
5.9012241913
 20
36.7242780188
 30
0.0
 40
10.0
  1
21022000
  7
SEACAD_seiso_ttf
 11
5.9012241913
 21
46.7242780188
 31
0.0
100
AcDbText
 73
     3
  0
ENDSEC
  0
SECTION
  2
OBJECTS
  0
DICTIONARY
  5
C
330
0
100
AcDbDictionary
281
     1
  3
ACAD_GROUP
350
D
  3
ACAD_LAYOUT
350
1A
  3
ACAD_MLEADERSTYLE
350
249
  3
ACAD_MLINESTYLE
350
17
  3
ACAD_PLOTSETTINGS
350
19
  3
ACAD_PLOTSTYLENAME
350
E
  3
ACAD_SCALELIST
350
3B
  3
ACAD_TABLESTYLE
350
248
  3
ACAD_VISUALSTYLE
350
2A
  3
AcDbVariableDictionary
350
246
  0
DICTIONARY
  5
D
102
{ACAD_REACTORS
330
C
102
}
330
C
100
AcDbDictionary
281
     1
  0
DICTIONARY
  5
1A
102
{ACAD_REACTORS
330
C
102
}
330
C
100
AcDbDictionary
281
     1
  3
Layout1
350
1E
  3
Model
350
22
  0
DICTIONARY
  5
249
102
{ACAD_REACTORS
330
C
102
}
330
C
100
AcDbDictionary
281
     1
  0
DICTIONARY
  5
17
102
{ACAD_REACTORS
330
C
102
}
330
C
100
AcDbDictionary
281
     1
  3
Standard
350
18
  0
DICTIONARY
  5
19
102
{ACAD_REACTORS
330
C
102
}
330
C
100
AcDbDictionary
281
     1
  0
ACDBDICTIONARYWDFLT
  5
E
102
{ACAD_REACTORS
330
C
102
}
330
C
100
AcDbDictionary
281
     1
  3
Normal
350
F
100
AcDbDictionaryWithDefault
340
F
  0
DICTIONARY
  5
3B
102
{ACAD_REACTORS
330
C
102
}
330
C
100
AcDbDictionary
281
     1
  3
A0
350
3C
  3
A1
350
3D
  3
A2
350
3E
  3
A3
350
3F
  3
A4
350
40
  3
A5
350
41
  3
A6
350
42
  3
A7
350
43
  3
A8
350
44
  3
A9
350
45
  3
B0
350
46
  3
B1
350
47
  3
B2
350
48
  3
B3
350
49
  3
B4
350
4A
  3
B5
350
4B
  3
B6
350
4C
  3
B7
350
4D
  3
B8
350
4E
  3
B9
350
4F
  3
C0
350
50
  3
C1
350
51
  3
C2
350
52
  3
C3
350
53
  3
C4
350
54
  3
C5
350
55
  3
C6
350
56
  3
C7
350
57
  3
C8
350
58
  3
C9
350
59
  3
D0
350
5A
  3
D1
350
5B
  3
D2
350
5C
  0
DICTIONARY
  5
248
102
{ACAD_REACTORS
330
C
102
}
330
C
100
AcDbDictionary
281
     1
  0
DICTIONARY
  5
2A
102
{ACAD_REACTORS
330
C
102
}
330
C
100
AcDbDictionary
281
     1
  3
2dWireframe
350
2F
  3
3D Hidden
350
31
  3
3dWireframe
350
30
  3
Basic
350
32
  3
Brighten
350
36
  3
ColorChange
350
3A
  3
Conceptual
350
34
  3
Dim
350
35
  3
Facepattern
350
39
  3
Flat
350
2B
  3
FlatWithEdges
350
2C
  3
Gouraud
350
2D
  3
GouraudWithEdges
350
2E
  3
Linepattern
350
38
  3
Realistic
350
33
  3
Thicken
350
37
  0
DICTIONARY
  5
246
102
{ACAD_REACTORS
330
C
102
}
330
C
100
AcDbDictionary
281
     1
  3
CANNOSCALE
350
247
  3
PSOLHEIGHT
350
24B
  3
PSOLWIDTH
350
24A
  0
LAYOUT
  5
1E
102
{ACAD_REACTORS
330
1A
102
}
330
1A
100
AcDbPlotSettings
  1

  2
none_device
  4

  6

 40
0.0
 41
0.0
 42
0.0
 43
0.0
 44
0.0
 45
0.0
 46
0.0
 47
0.0
 48
0.0
 49
0.0
140
0.0
141
0.0
142
1.0
143
1.0
 70
   688
 72
     0
 73
     0
 74
     5
  7

 75
    16
147
1.0
148
0.0
149
0.0
100
AcDbLayout
  1
Layout1
 70
     1
 71
     1
 10
0.0
 20
0.0
 11
1682.0
 21
2378.0
 12
0.0
 22
0.0
 32
0.0
 14
0.0
 24
0.0
 34
0.0
 15
1682.0
 25
2378.0
 35
0.0
146
0.0
 13
0.0
 23
0.0
 33
0.0
 16
1.0
 26
0.0
 36
0.0
 17
0.0
 27
1.0
 37
0.0
 76
     0
330
1B
  0
LAYOUT
  5
22
102
{ACAD_REACTORS
330
1A
102
}
330
1A
100
AcDbPlotSettings
  1

  2
none_device
  4

  6

 40
0.0
 41
0.0
 42
0.0
 43
0.0
 44
0.0
 45
0.0
 46
0.0
 47
0.0
 48
0.0
 49
0.0
140
0.0
141
0.0
142
1.0
143
1.0
 70
  1712
 72
     0
 73
     0
 74
     0
  7

 75
     0
147
1.0
148
0.0
149
0.0
100
AcDbLayout
  1
Model
 70
     1
 71
     0
 10
0.0
 20
0.0
 11
1682.0
 21
2378.0
 12
0.0
 22
0.0
 32
0.0
 14
0.0
 24
0.0
 34
0.0
 15
1682.0
 25
2378.0
 35
0.0
146
0.0
 13
0.0
 23
0.0
 33
0.0
 16
1.0
 26
0.0
 36
0.0
 17
0.0
 27
1.0
 37
0.0
 76
     0
330
1F
331
29
  0
MLINESTYLE
  5
18
102
{ACAD_REACTORS
330
17
102
}
330
17
100
AcDbMlineStyle
  2
Standard
 70
     0
  3

 62
   256
 51
90.0
 52
90.0
 71
     2
 49
0.5
 62
   256
  6
BYLAYER
 49
-0.5
 62
   256
  6
BYLAYER
  0
ACDBPLACEHOLDER
  5
F
102
{ACAD_REACTORS
330
E
102
}
330
E
  0
SCALE
  5
3C
102
{ACAD_REACTORS
330
3B
102
}
330
3B
100
AcDbScale
 70
     0
300
1:1
140
1.0
141
1.0
290
     1
  0
SCALE
  5
3D
102
{ACAD_REACTORS
330
3B
102
}
330
3B
100
AcDbScale
 70
     0
300
1:2
140
1.0
141
2.0
290
     0
  0
SCALE
  5
3E
102
{ACAD_REACTORS
330
3B
102
}
330
3B
100
AcDbScale
 70
     0
300
1:4
140
1.0
141
4.0
290
     0
  0
SCALE
  5
3F
102
{ACAD_REACTORS
330
3B
102
}
330
3B
100
AcDbScale
 70
     0
300
1:5
140
1.0
141
5.0
290
     0
  0
SCALE
  5
40
102
{ACAD_REACTORS
330
3B
102
}
330
3B
100
AcDbScale
 70
     0
300
1:8
140
1.0
141
8.0
290
     0
  0
SCALE
  5
41
102
{ACAD_REACTORS
330
3B
102
}
330
3B
100
AcDbScale
 70
     0
300
1:10
140
1.0
141
10.0
290
     0
  0
SCALE
  5
42
102
{ACAD_REACTORS
330
3B
102
}
330
3B
100
AcDbScale
 70
     0
300
1:16
140
1.0
141
16.0
290
     0
  0
SCALE
  5
43
102
{ACAD_REACTORS
330
3B
102
}
330
3B
100
AcDbScale
 70
     0
300
1:20
140
1.0
141
20.0
290
     0
  0
SCALE
  5
44
102
{ACAD_REACTORS
330
3B
102
}
330
3B
100
AcDbScale
 70
     0
300
1:30
140
1.0
141
30.0
290
     0
  0
SCALE
  5
45
102
{ACAD_REACTORS
330
3B
102
}
330
3B
100
AcDbScale
 70
     0
300
1:40
140
1.0
141
40.0
290
     0
  0
SCALE
  5
46
102
{ACAD_REACTORS
330
3B
102
}
330
3B
100
AcDbScale
 70
     0
300
1:50
140
1.0
141
50.0
290
     0
  0
SCALE
  5
47
102
{ACAD_REACTORS
330
3B
102
}
330
3B
100
AcDbScale
 70
     0
300
1:100
140
1.0
141
100.0
290
     0
  0
SCALE
  5
48
102
{ACAD_REACTORS
330
3B
102
}
330
3B
100
AcDbScale
 70
     0
300
2:1
140
2.0
141
1.0
290
     0
  0
SCALE
  5
49
102
{ACAD_REACTORS
330
3B
102
}
330
3B
100
AcDbScale
 70
     0
300
4:1
140
4.0
141
1.0
290
     0
  0
SCALE
  5
4A
102
{ACAD_REACTORS
330
3B
102
}
330
3B
100
AcDbScale
 70
     0
300
8:1
140
8.0
141
1.0
290
     0
  0
SCALE
  5
4B
102
{ACAD_REACTORS
330
3B
102
}
330
3B
100
AcDbScale
 70
     0
300
10:1
140
10.0
141
1.0
290
     0
  0
SCALE
  5
4C
102
{ACAD_REACTORS
330
3B
102
}
330
3B
100
AcDbScale
 70
     0
300
100:1
140
100.0
141
1.0
290
     0
  0
SCALE
  5
4D
102
{ACAD_REACTORS
330
3B
102
}
330
3B
100
AcDbScale
 70
     0
300
1/128" = 1'-0"
140
0.0078125
141
12.0
290
     0
  0
SCALE
  5
4E
102
{ACAD_REACTORS
330
3B
102
}
330
3B
100
AcDbScale
 70
     0
300
1/64" = 1'-0"
140
0.015625
141
12.0
290
     0
  0
SCALE
  5
4F
102
{ACAD_REACTORS
330
3B
102
}
330
3B
100
AcDbScale
 70
     0
300
1/32" = 1'-0"
140
0.03125
141
12.0
290
     0
  0
SCALE
  5
50
102
{ACAD_REACTORS
330
3B
102
}
330
3B
100
AcDbScale
 70
     0
300
1/16" = 1'-0"
140
0.0625
141
12.0
290
     0
  0
SCALE
  5
51
102
{ACAD_REACTORS
330
3B
102
}
330
3B
100
AcDbScale
 70
     0
300
3/32" = 1'-0"
140
0.09375
141
12.0
290
     0
  0
SCALE
  5
52
102
{ACAD_REACTORS
330
3B
102
}
330
3B
100
AcDbScale
 70
     0
300
1/8" = 1'-0"
140
0.125
141
12.0
290
     0
  0
SCALE
  5
53
102
{ACAD_REACTORS
330
3B
102
}
330
3B
100
AcDbScale
 70
     0
300
3/16" = 1'-0"
140
0.1875
141
12.0
290
     0
  0
SCALE
  5
54
102
{ACAD_REACTORS
330
3B
102
}
330
3B
100
AcDbScale
 70
     0
300
1/4" = 1'-0"
140
0.25
141
12.0
290
     0
  0
SCALE
  5
55
102
{ACAD_REACTORS
330
3B
102
}
330
3B
100
AcDbScale
 70
     0
300
3/8" = 1'-0"
140
0.375
141
12.0
290
     0
  0
SCALE
  5
56
102
{ACAD_REACTORS
330
3B
102
}
330
3B
100
AcDbScale
 70
     0
300
1/2" = 1'-0"
140
0.5
141
12.0
290
     0
  0
SCALE
  5
57
102
{ACAD_REACTORS
330
3B
102
}
330
3B
100
AcDbScale
 70
     0
300
3/4" = 1'-0"
140
0.75
141
12.0
290
     0
  0
SCALE
  5
58
102
{ACAD_REACTORS
330
3B
102
}
330
3B
100
AcDbScale
 70
     0
300
1" = 1'-0"
140
1.0
141
12.0
290
     0
  0
SCALE
  5
59
102
{ACAD_REACTORS
330
3B
102
}
330
3B
100
AcDbScale
 70
     0
300
1-1/2" = 1'-0"
140
1.5
141
12.0
290
     0
  0
SCALE
  5
5A
102
{ACAD_REACTORS
330
3B
102
}
330
3B
100
AcDbScale
 70
     0
300
3" = 1'-0"
140
3.0
141
12.0
290
     0
  0
SCALE
  5
5B
102
{ACAD_REACTORS
330
3B
102
}
330
3B
100
AcDbScale
 70
     0
300
6" = 1'-0"
140
6.0
141
12.0
290
     0
  0
SCALE
  5
5C
102
{ACAD_REACTORS
330
3B
102
}
330
3B
100
AcDbScale
 70
     0
300
1'-0" = 1'-0"
140
12.0
141
12.0
290
     0
  0
VISUALSTYLE
  5
2F
102
{ACAD_REACTORS
330
2A
102
}
330
2A
100
AcDbVisualStyle
  2
2dWireframe
 70
     4
 71
     0
 72
     2
 73
     0
 90
        0
 40
-0.6
 41
-30.0
 62
     5
 63
     7
 74
     1
 91
        4
 64
     7
 65
   257
 75
     1
175
     1
 42
1.0
 92
        0
 66
   257
 43
1.0
 76
     1
 77
     6
 78
     2
 67
     7
 79
     5
170
     0
171
     0
290
     0
174
     0
 93
        1
 44
0.0
173
     0
291
     0
 45
0.0
1001
ACAD
1000
AcDbSavedByObjectVersion
1070
     0
  0
VISUALSTYLE
  5
31
102
{ACAD_REACTORS
330
2A
102
}
330
2A
100
AcDbVisualStyle
  2
3D Hidden
 70
     6
 71
     1
 72
     2
 73
     2
 90
        0
 40
-0.6
 41
-30.0
 62
     5
 63
     7
 74
     2
 91
        2
 64
     7
 65
   257
 75
     2
175
     1
 42
40.0
 92
        0
 66
   257
 43
1.0
 76
     1
 77
     6
 78
     2
 67
     7
 79
     3
170
     0
171
     0
290
     0
174
     0
 93
        1
 44
0.0
173
     0
291
     0
 45
0.0
1001
ACAD
1000
AcDbSavedByObjectVersion
1070
     0
  0
VISUALSTYLE
  5
30
102
{ACAD_REACTORS
330
2A
102
}
330
2A
100
AcDbVisualStyle
  2
3dWireframe
 70
     5
 71
     0
 72
     2
 73
     0
 90
        0
 40
-0.6
 41
-30.0
 62
     5
 63
     7
 74
     1
 91
        4
 64
     7
 65
   257
 75
     1
175
     1
 42
1.0
 92
        0
 66
   257
 43
1.0
 76
     1
 77
     6
 78
     2
 67
     7
 79
     5
170
     0
171
     0
290
     0
174
     0
 93
        1
 44
0.0
173
     0
291
     0
 45
0.0
1001
ACAD
1000
AcDbSavedByObjectVersion
1070
     0
  0
VISUALSTYLE
  5
32
102
{ACAD_REACTORS
330
2A
102
}
330
2A
100
AcDbVisualStyle
  2
Basic
 70
     7
 71
     1
 72
     0
 73
     1
 90
        0
 40
-0.6
 41
-30.0
 62
     5
 63
     7
 74
     0
 91
        4
 64
     7
 65
   257
 75
     1
175
     1
 42
1.0
 92
        8
 66
     7
 43
1.0
 76
     1
 77
     6
 78
     2
 67
     7
 79
     5
170
     0
171
     0
290
     0
174
     0
 93
        1
 44
0.0
173
     0
291
     1
 45
0.0
1001
ACAD
1000
AcDbSavedByObjectVersion
1070
     0
  0
VISUALSTYLE
  5
36
102
{ACAD_REACTORS
330
2A
102
}
330
2A
100
AcDbVisualStyle
  2
Brighten
 70
    12
 71
     2
 72
     2
 73
     0
 90
        0
 40
-0.6
 41
-30.0
 62
     5
 63
     7
 74
     1
 91
        4
 64
     7
 65
   257
 75
     1
175
     1
 42
1.0
 92
        8
 66
     7
 43
1.0
 76
     1
 77
     6
 78
     2
 67
     7
 79
     5
170
     0
171
     0
290
     0
174
     0
 93
        1
 44
50.0
173
     0
291
     1
 45
0.0
1001
ACAD
1000
AcDbSavedByObjectVersion
1070
     0
  0
VISUALSTYLE
  5
3A
102
{ACAD_REACTORS
330
2A
102
}
330
2A
100
AcDbVisualStyle
  2
ColorChange
 70
    16
 71
     2
 72
     2
 73
     3
 90
        0
 40
-0.6
 41
-30.0
 62
     5
 63
     8
 74
     1
 91
        4
 64
     7
 65
   257
 75
     1
175
     1
 42
1.0
 92
        8
 66
     8
 43
1.0
 76
     1
 77
     6
 78
     2
 67
     7
 79
     5
170
     0
171
     0
290
     0
174
     0
 93
        1
 44
0.0
173
     0
291
     1
 45
0.0
1001
ACAD
1000
AcDbSavedByObjectVersion
1070
     0
  0
VISUALSTYLE
  5
34
102
{ACAD_REACTORS
330
2A
102
}
330
2A
100
AcDbVisualStyle
  2
Conceptual
 70
     9
 71
     3
 72
     2
 73
     0
 90
        0
 40
-0.6
 41
-30.0
 62
     5
 63
     7
 74
     2
 91
        2
 64
     7
 65
   257
 75
     1
175
     1
 42
40.0
 92
        8
 66
     7
 43
1.0
 76
     1
 77
     6
 78
     2
 67
     7
 79
     3
170
     0
171
     0
290
     0
174
     0
 93
        1
 44
0.0
173
     0
291
     0
 45
0.0
1001
ACAD
1000
AcDbSavedByObjectVersion
1070
     0
  0
VISUALSTYLE
  5
35
102
{ACAD_REACTORS
330
2A
102
}
330
2A
100
AcDbVisualStyle
  2
Dim
 70
    11
 71
     2
 72
     2
 73
     0
 90
        0
 40
-0.6
 41
-30.0
 62
     5
 63
     7
 74
     1
 91
        4
 64
     7
 65
   257
 75
     1
175
     1
 42
1.0
 92
        8
 66
     7
 43
1.0
 76
     1
 77
     6
 78
     2
 67
     7
 79
     5
170
     0
171
     0
290
     0
174
     0
 93
        1
 44
-50.0
173
     0
291
     1
 45
0.0
1001
ACAD
1000
AcDbSavedByObjectVersion
1070
     0
  0
VISUALSTYLE
  5
39
102
{ACAD_REACTORS
330
2A
102
}
330
2A
100
AcDbVisualStyle
  2
Facepattern
 70
    15
 71
     2
 72
     2
 73
     0
 90
        0
 40
-0.6
 41
-30.0
 62
     5
 63
     7
 74
     1
 91
        4
 64
     7
 65
   257
 75
     1
175
     1
 42
1.0
 92
        8
 66
     7
 43
1.0
 76
     1
 77
     6
 78
     2
 67
     7
 79
     5
170
     0
171
     0
290
     0
174
     0
 93
        1
 44
0.0
173
     0
291
     1
 45
0.0
1001
ACAD
1000
AcDbSavedByObjectVersion
1070
     0
  0
VISUALSTYLE
  5
2B
102
{ACAD_REACTORS
330
2A
102
}
330
2A
100
AcDbVisualStyle
  2
Flat
 70
     0
 71
     2
 72
     1
 73
     1
 90
        2
 40
-0.6
 41
30.0
 62
     5
 63
     7
 74
     0
 91
        4
 64
     7
 65
   257
 75
     1
175
     1
 42
1.0
 92
        8
 66
     7
 43
1.0
 76
     1
 77
     6
 78
     2
 67
     7
 79
     5
170
     0
171
     0
290
     0
174
     0
 93
       13
 44
0.0
173
     0
291
     1
 45
0.0
1001
ACAD
1000
AcDbSavedByObjectVersion
1070
     0
  0
VISUALSTYLE
  5
2C
102
{ACAD_REACTORS
330
2A
102
}
330
2A
100
AcDbVisualStyle
  2
FlatWithEdges
 70
     1
 71
     2
 72
     1
 73
     1
 90
        2
 40
-0.6
 41
30.0
 62
     5
 63
     7
 74
     1
 91
        4
 64
     7
 65
   257
 75
     1
175
     1
 42
1.0
 92
        0
 66
   257
 43
1.0
 76
     1
 77
     6
 78
     2
 67
     7
 79
     5
170
     0
171
     0
290
     0
174
     0
 93
       13
 44
0.0
173
     0
291
     1
 45
0.0
1001
ACAD
1000
AcDbSavedByObjectVersion
1070
     0
  0
VISUALSTYLE
  5
2D
102
{ACAD_REACTORS
330
2A
102
}
330
2A
100
AcDbVisualStyle
  2
Gouraud
 70
     2
 71
     2
 72
     2
 73
     1
 90
        2
 40
-0.6
 41
30.0
 62
     5
 63
     7
 74
     0
 91
        4
 64
     7
 65
   257
 75
     1
175
     1
 42
1.0
 92
        0
 66
     7
 43
1.0
 76
     1
 77
     6
 78
     2
 67
     7
 79
     5
170
     0
171
     0
290
     0
174
     0
 93
       13
 44
0.0
173
     0
291
     1
 45
0.0
1001
ACAD
1000
AcDbSavedByObjectVersion
1070
     0
  0
VISUALSTYLE
  5
2E
102
{ACAD_REACTORS
330
2A
102
}
330
2A
100
AcDbVisualStyle
  2
GouraudWithEdges
 70
     3
 71
     2
 72
     2
 73
     1
 90
        2
 40
-0.6
 41
30.0
 62
     5
 63
     7
 74
     1
 91
        4
 64
     7
 65
   257
 75
     1
175
     1
 42
1.0
 92
        0
 66
   257
 43
1.0
 76
     1
 77
     6
 78
     2
 67
     7
 79
     5
170
     0
171
     0
290
     0
174
     0
 93
       13
 44
0.0
173
     0
291
     1
 45
0.0
1001
ACAD
1000
AcDbSavedByObjectVersion
1070
     0
  0
VISUALSTYLE
  5
38
102
{ACAD_REACTORS
330
2A
102
}
330
2A
100
AcDbVisualStyle
  2
Linepattern
 70
    14
 71
     2
 72
     2
 73
     0
 90
        0
 40
-0.6
 41
-30.0
 62
     5
 63
     7
 74
     1
 91
        4
 64
     7
 65
   257
 75
     7
175
     7
 42
1.0
 92
        8
 66
     7
 43
1.0
 76
     1
 77
     6
 78
     2
 67
     7
 79
     5
170
     0
171
     0
290
     0
174
     0
 93
        1
 44
0.0
173
     0
291
     1
 45
0.0
1001
ACAD
1000
AcDbSavedByObjectVersion
1070
     0
  0
VISUALSTYLE
  5
33
102
{ACAD_REACTORS
330
2A
102
}
330
2A
100
AcDbVisualStyle
  2
Realistic
 70
     8
 71
     2
 72
     2
 73
     0
 90
        0
 40
-0.6
 41
-30.0
 62
     5
 63
     7
 74
     1
 91
        0
 64
     7
 65
   257
 75
     1
175
     1
 42
1.0
 92
        8
 66
     8
 43
1.0
 76
     1
 77
     6
 78
     2
 67
     7
 79
     5
170
     0
171
     0
290
     0
174
     0
 93
       13
 44
0.0
173
     0
291
     0
 45
0.0
1001
ACAD
1000
AcDbSavedByObjectVersion
1070
     0
  0
VISUALSTYLE
  5
37
102
{ACAD_REACTORS
330
2A
102
}
330
2A
100
AcDbVisualStyle
  2
Thicken
 70
    13
 71
     2
 72
     2
 73
     0
 90
        0
 40
-0.6
 41
-30.0
 62
     5
 63
     7
 74
     1
 91
        4
 64
     7
 65
   257
 75
     1
175
     1
 42
1.0
 92
       12
 66
     7
 43
1.0
 76
     1
 77
     6
 78
     2
 67
     7
 79
     5
170
     0
171
     0
290
     0
174
     0
 93
        1
 44
0.0
173
     0
291
     1
 45
0.0
1001
ACAD
1000
AcDbSavedByObjectVersion
1070
     0
  0
DICTIONARYVAR
  5
247
102
{ACAD_REACTORS
330
246
102
}
330
246
100
DictionaryVariables
280
     0
  1
1:1
  0
DICTIONARYVAR
  5
24B
102
{ACAD_REACTORS
330
246
102
}
330
246
100
DictionaryVariables
280
     0
  1
80.000000
  0
DICTIONARYVAR
  5
24A
102
{ACAD_REACTORS
330
246
102
}
330
246
100
DictionaryVariables
280
     0
  1
5.000000
  0
ENDSEC
  0
EOF
