  0
SECTION
  2
HEADER
  9
$ACADVER
  1
AC1015
  9
$ACADMAINTVER
 70
     6
  9
$DWGCODEPAGE
  3
ANSI_1252
  9
$INSBASE
 10
0.0
 20
0.0
 30
0.0
  9
$EXTMIN
 10
0.0
 20
0.0
 30
0.0
  9
$EXTMAX
 10
1682.0
 20
2378.0
 30
0.0
  9
$LIMMIN
 10
0.0
 20
0.0
  9
$LIMMAX
 10
1682.0
 20
2378.0
  9
$ORTHOMODE
 70
     0
  9
$REGENMODE
 70
     1
  9
$FILLMODE
 70
     1
  9
$QTEXTMODE
 70
     0
  9
$MIRRTEXT
 70
     1
  9
$LTSCALE
 40
1.0
  9
$ATTMODE
 70
     1
  9
$TEXTSIZE
 40
2.5
  9
$TRACEWID
 40
1.0
  9
$TEXTSTYLE
  7
Standard
  9
$CLAYER
  8
0
  9
$CELTYPE
  6
ByLayer
  9
$CECOLOR
 62
   256
  9
$CELTSCALE
 40
1.0
  9
$DISPSILH
 70
     0
  9
$DIMSCALE
 40
1.0
  9
$DIMASZ
 40
2.5
  9
$DIMEXO
 40
0.625
  9
$DIMDLI
 40
3.75
  9
$DIMRND
 40
0.0
  9
$DIMDLE
 40
0.0
  9
$DIMEXE
 40
1.25
  9
$DIMTP
 40
0.0
  9
$DIMTM
 40
0.0
  9
$DIMTXT
 40
2.5
  9
$DIMCEN
 40
2.5
  9
$DIMTSZ
 40
0.0
  9
$DIMTOL
 70
     0
  9
$DIMLIM
 70
     0
  9
$DIMTIH
 70
     0
  9
$DIMTOH
 70
     0
  9
$DIMSE1
 70
     0
  9
$DIMSE2
 70
     0
  9
$DIMTAD
 70
     1
  9
$DIMZIN
 70
     8
  9
$DIMBLK
  1

  9
$DIMASO
 70
     1
  9
$DIMSHO
 70
     1
  9
$DIMPOST
  1

  9
$DIMAPOST
  1

  9
$DIMALT
 70
     0
  9
$DIMALTD
 70
     3
  9
$DIMALTF
 40
0.0393700787
  9
$DIMLFAC
 40
1.0
  9
$DIMTOFL
 70
     1
  9
$DIMTVP
 40
0.0
  9
$DIMTIX
 70
     0
  9
$DIMSOXD
 70
     0
  9
$DIMSAH
 70
     0
  9
$DIMBLK1
  1

  9
$DIMBLK2
  1

  9
$DIMSTYLE
  2
ISO-25
  9
$DIMCLRD
 70
     0
  9
$DIMCLRE
 70
     0
  9
$DIMCLRT
 70
     0
  9
$DIMTFAC
 40
1.0
  9
$DIMGAP
 40
0.625
  9
$DIMJUST
 70
     0
  9
$DIMSD1
 70
     0
  9
$DIMSD2
 70
     0
  9
$DIMTOLJ
 70
     0
  9
$DIMTZIN
 70
     8
  9
$DIMALTZ
 70
     0
  9
$DIMALTTZ
 70
     0
  9
$DIMUPT
 70
     0
  9
$DIMDEC
 70
     2
  9
$DIMTDEC
 70
     2
  9
$DIMALTU
 70
     2
  9
$DIMALTTD
 70
     3
  9
$DIMTXSTY
  7
Standard
  9
$DIMAUNIT
 70
     0
  9
$DIMADEC
 70
     0
  9
$DIMALTRND
 40
0.0
  9
$DIMAZIN
 70
     0
  9
$DIMDSEP
 70
    44
  9
$DIMATFIT
 70
     3
  9
$DIMFRAC
 70
     0
  9
$DIMLDRBLK
  1

  9
$DIMLUNIT
 70
     2
  9
$DIMLWD
 70
    -2
  9
$DIMLWE
 70
    -2
  9
$DIMTMOVE
 70
     0
  9
$LUNITS
 70
     2
  9
$LUPREC
 70
     4
  9
$SKETCHINC
 40
1.0
  9
$FILLETRAD
 40
10.0
  9
$AUNITS
 70
     0
  9
$AUPREC
 70
     0
  9
$MENU
  1
.
  9
$ELEVATION
 40
0.0
  9
$PELEVATION
 40
0.0
  9
$THICKNESS
 40
0.0
  9
$LIMCHECK
 70
     0
  9
$CHAMFERA
 40
10.0
  9
$CHAMFERB
 40
10.0
  9
$CHAMFERC
 40
20.0
  9
$CHAMFERD
 40
0.0
  9
$SKPOLY
 70
     0
  9
$TDCREATE
 40
2455513.634903831
  9
$TDUCREATE
 40
2455513.593237164
  9
$TDUPDATE
 40
2455513.634903843
  9
$TDUUPDATE
 40
2455513.593237176
  9
$TDINDWG
 40
0.0000000116
  9
$TDUSRTIMER
 40
0.0000000116
  9
$USRTIMER
 70
     1
  9
$ANGBASE
 50
0.0
  9
$ANGDIR
 70
     0
  9
$PDMODE
 70
     0
  9
$PDSIZE
 40
0.0
  9
$PLINEWID
 40
0.0
  9
$SPLFRAME
 70
     0
  9
$SPLINETYPE
 70
     6
  9
$SPLINESEGS
 70
     8
  9
$HANDSEED
  5
149
  9
$SURFTAB1
 70
     6
  9
$SURFTAB2
 70
     6
  9
$SURFTYPE
 70
     6
  9
$SURFU
 70
     6
  9
$SURFV
 70
     6
  9
$UCSBASE
  2

  9
$UCSNAME
  2

  9
$UCSORG
 10
0.0
 20
0.0
 30
0.0
  9
$UCSXDIR
 10
1.0
 20
0.0
 30
0.0
  9
$UCSYDIR
 10
0.0
 20
1.0
 30
0.0
  9
$UCSORTHOREF
  2

  9
$UCSORTHOVIEW
 70
     0
  9
$UCSORGTOP
 10
0.0
 20
0.0
 30
0.0
  9
$UCSORGBOTTOM
 10
0.0
 20
0.0
 30
0.0
  9
$UCSORGLEFT
 10
0.0
 20
0.0
 30
0.0
  9
$UCSORGRIGHT
 10
0.0
 20
0.0
 30
0.0
  9
$UCSORGFRONT
 10
0.0
 20
0.0
 30
0.0
  9
$UCSORGBACK
 10
0.0
 20
0.0
 30
0.0
  9
$PUCSBASE
  2

  9
$PUCSNAME
  2

  9
$PUCSORG
 10
0.0
 20
0.0
 30
0.0
  9
$PUCSXDIR
 10
1.0
 20
0.0
 30
0.0
  9
$PUCSYDIR
 10
0.0
 20
1.0
 30
0.0
  9
$PUCSORTHOREF
  2

  9
$PUCSORTHOVIEW
 70
     0
  9
$PUCSORGTOP
 10
0.0
 20
0.0
 30
0.0
  9
$PUCSORGBOTTOM
 10
0.0
 20
0.0
 30
0.0
  9
$PUCSORGLEFT
 10
0.0
 20
0.0
 30
0.0
  9
$PUCSORGRIGHT
 10
0.0
 20
0.0
 30
0.0
  9
$PUCSORGFRONT
 10
0.0
 20
0.0
 30
0.0
  9
$PUCSORGBACK
 10
0.0
 20
0.0
 30
0.0
  9
$USERI1
 70
     0
  9
$USERI2
 70
     0
  9
$USERI3
 70
     0
  9
$USERI4
 70
     0
  9
$USERI5
 70
     0
  9
$USERR1
 40
0.0
  9
$USERR2
 40
0.0
  9
$USERR3
 40
0.0
  9
$USERR4
 40
0.0
  9
$USERR5
 40
0.0
  9
$WORLDVIEW
 70
     1
  9
$SHADEDGE
 70
     3
  9
$SHADEDIF
 70
    70
  9
$TILEMODE
 70
     1
  9
$MAXACTVP
 70
    64
  9
$PINSBASE
 10
0.0
 20
0.0
 30
0.0
  9
$PLIMCHECK
 70
     0
  9
$PEXTMIN
 10
0.0
 20
0.0
 30
0.0
  9
$PEXTMAX
 10
1682.0
 20
2378.0
 30
0.0
  9
$PLIMMIN
 10
0.0
 20
0.0
  9
$PLIMMAX
 10
1682.0
 20
2378.0
  9
$UNITMODE
 70
     0
  9
$VISRETAIN
 70
     1
  9
$PLINEGEN
 70
     0
  9
$PSLTSCALE
 70
     1
  9
$TREEDEPTH
 70
  3020
  9
$CMLSTYLE
  2
Standard
  9
$CMLJUST
 70
     0
  9
$CMLSCALE
 40
20.0
  9
$PROXYGRAPHICS
 70
     1
  9
$MEASUREMENT
 70
     1
  9
$CELWEIGHT
370
    -1
  9
$ENDCAPS
280
     0
  9
$JOINSTYLE
280
     0
  9
$LWDISPLAY
290
     0
  9
$INSUNITS
 70
     4
  9
$HYPERLINKBASE
  1

  9
$STYLESHEET
  1

  9
$XEDIT
290
     1
  9
$CEPSNTYPE
380
     0
  9
$PSTYLEMODE
290
     1
  9
$FINGERPRINTGUID
  2
{18D9B052-617F-42E8-B437-0AFAEBE56055}
  9
$VERSIONGUID
  2
{FAEB1C32-E019-11D5-929B-00C0DF256EC4}
  9
$EXTNAMES
290
     1
  9
$PSVPSCALE
 40
0.0
  9
$OLESTARTUP
290
     0
  0
ENDSEC
  0
SECTION
  2
CLASSES
  0
CLASS
  1
ACDBDICTIONARYWDFLT
  2
AcDbDictionaryWithDefault
  3
ObjectDBX Classes
 90
        0
280
     0
281
     0
  0
CLASS
  1
VISUALSTYLE
  2
AcDbVisualStyle
  3
ObjectDBX Classes
 90
     4095
280
     0
281
     0
  0
CLASS
  1
SCALE
  2
AcDbScale
  3
ObjectDBX Classes
 90
     1153
280
     0
281
     0
  0
CLASS
  1
DICTIONARYVAR
  2
AcDbDictionaryVar
  3
ObjectDBX Classes
 90
        0
280
     0
281
     0
  0
CLASS
  1
ACDBPLACEHOLDER
  2
AcDbPlaceHolder
  3
ObjectDBX Classes
 90
        0
280
     0
281
     0
  0
CLASS
  1
LAYOUT
  2
AcDbLayout
  3
ObjectDBX Classes
 90
        0
280
     0
281
     0
  0
ENDSEC
  0
SECTION
  2
TABLES
  0
TABLE
  2
VPORT
  5
8
330
0
100
AcDbSymbolTable
 70
     1
  0
VPORT
  5
29
330
8
100
AcDbSymbolTableRecord
100
AcDbViewportTableRecord
  2
*Active
 70
     0
 10
0.0
 20
0.0
 11
1.0
 21
1.0
 12
344.1869158879
 22
148.5
 13
0.0
 23
0.0
 14
10.0
 24
10.0
 15
10.0
 25
10.0
 16
0.0
 26
0.0
 36
1.0
 17
0.0
 27
0.0
 37
0.0
 40
297.0
 41
1.9729729729
 42
50.0
 43
0.0
 44
0.0
 50
0.0
 51
0.0
 71
     0
 72
   100
 73
     1
 74
     3
 75
     0
 76
     0
 77
     0
 78
     0
281
     0
 65
     1
110
0.0
120
0.0
130
0.0
111
1.0
121
0.0
131
0.0
112
0.0
122
1.0
132
0.0
 79
     0
146
0.0
  0
ENDTAB
  0
TABLE
  2
LTYPE
  5
5
330
0
100
AcDbSymbolTable
 70
     2
  0
LTYPE
  5
14
330
5
100
AcDbSymbolTableRecord
100
AcDbLinetypeTableRecord
  2
ByBlock
 70
     0
  3

 72
    65
 73
     0
 40
0.0
  0
LTYPE
  5
15
330
5
100
AcDbSymbolTableRecord
100
AcDbLinetypeTableRecord
  2
ByLayer
 70
     0
  3

 72
    65
 73
     0
 40
0.0
  0
LTYPE
  5
16
330
5
100
AcDbSymbolTableRecord
100
AcDbLinetypeTableRecord
  2
Continuous
 70
     0
  3
Solid line
 72
    65
 73
     0
 40
0.0
  0
LTYPE
  5
60
330
5
100
AcDbSymbolTableRecord
100
AcDbLinetypeTableRecord
  2
CENTER2
 70
     0
  3
Center (.5x) ___ _ ___ _ ___ _ ___ _ ___ _ ___
 72
    65
 73
     4
 40
28.575
 49
19.05
 74
     4
 75
     0
340
0
 46
0.0
 50
0.0
 44
0.0
 45
0.0
 49
-3.175
 74
     4
 75
     0
340
0
 46
0.0
 50
0.0
 44
0.0
 45
0.0
 49
3.175
 74
     4
 75
     0
340
0
 46
0.0
 50
0.0
 44
0.0
 45
0.0
 49
-3.175
 74
     4
 75
     0
340
0
 46
0.0
 50
0.0
 44
0.0
 45
0.0
  0
ENDTAB
  0
TABLE
  2
LAYER
  5
2
330
0
100
AcDbSymbolTable
 70
    10
  0
LAYER
  5
10
330
2
100
AcDbSymbolTableRecord
100
AcDbLayerTableRecord
  2
0
 70
     0
 62
     7
  6
Continuous
370
    -3
390
F
  0
LAYER
  5
5D
330
2
100
AcDbSymbolTableRecord
100
AcDbLayerTableRecord
  2
Default
 70
     0
 62
     7
  6
Continuous
370
    -3
390
F
  0
LAYER
  5
77
330
2
100
AcDbSymbolTableRecord
100
AcDbLayerTableRecord
  2
$DDT_AUDIT_GENERATED_(77)
 70
     0
 62
     7
  6
Continuous
370
    -3
390
F
  0
LAYER
  5
8A
330
2
100
AcDbSymbolTableRecord
100
AcDbLayerTableRecord
  2
$DDT_AUDIT_GENERATED_(8A)
 70
     0
 62
     7
  6
Continuous
370
    -3
390
F
  0
LAYER
  5
8F
330
2
100
AcDbSymbolTableRecord
100
AcDbLayerTableRecord
  2
$DDT_AUDIT_GENERATED_(8F)
 70
     0
 62
     7
  6
Continuous
370
    -3
390
F
  0
LAYER
  5
93
330
2
100
AcDbSymbolTableRecord
100
AcDbLayerTableRecord
  2
$DDT_AUDIT_GENERATED_(93)
 70
     0
 62
     7
  6
Continuous
370
    -3
390
F
  0
LAYER
  5
97
330
2
100
AcDbSymbolTableRecord
100
AcDbLayerTableRecord
  2
$DDT_AUDIT_GENERATED_(97)
 70
     0
 62
     7
  6
Continuous
370
    -3
390
F
  0
LAYER
  5
E3
330
2
100
AcDbSymbolTableRecord
100
AcDbLayerTableRecord
  2
DV2_Default
 70
     0
 62
     7
  6
Continuous
370
    -3
390
F
  0
LAYER
  5
FC
330
2
100
AcDbSymbolTableRecord
100
AcDbLayerTableRecord
  2
$DDT_AUDIT_GENERATED_(FC)
 70
     0
 62
     7
  6
Continuous
370
    -3
390
F
  0
LAYER
  5
10C
330
2
100
AcDbSymbolTableRecord
100
AcDbLayerTableRecord
  2
$DDT_AUDIT_GENERATED_(10C)
 70
     0
 62
     7
  6
Continuous
370
    -3
390
F
  0
ENDTAB
  0
TABLE
  2
STYLE
  5
3
330
0
100
AcDbSymbolTable
 70
     2
  0
STYLE
  5
11
330
3
100
AcDbSymbolTableRecord
100
AcDbTextStyleTableRecord
  2
Standard
 70
     0
 40
0.0
 41
1.0
 50
0.0
 71
     0
 42
2.5
  3
txt
  4

  0
STYLE
  5
138
330
3
100
AcDbSymbolTableRecord
100
AcDbTextStyleTableRecord
  2
SEACAD_seiso_ttf
 70
     0
 40
0.0
 41
1.0
 50
0.0
 71
     0
 42
0.2
  3
seiso.ttf
  4

  0
ENDTAB
  0
TABLE
  2
VIEW
  5
6
330
0
100
AcDbSymbolTable
 70
     0
  0
ENDTAB
  0
TABLE
  2
UCS
  5
7
330
0
100
AcDbSymbolTable
 70
     0
  0
ENDTAB
  0
TABLE
  2
APPID
  5
9
330
0
100
AcDbSymbolTable
 70
     1
  0
APPID
  5
12
330
9
100
AcDbSymbolTableRecord
100
AcDbRegAppTableRecord
  2
ACAD
 70
     0
  0
ENDTAB
  0
TABLE
  2
DIMSTYLE
  5
A
330
0
100
AcDbSymbolTable
 70
     1
100
AcDbDimStyleTable
  0
DIMSTYLE
105
27
330
A
100
AcDbSymbolTableRecord
100
AcDbDimStyleTableRecord
  2
ISO-25
 70
     0
 41
2.5
 42
0.625
 43
3.75
 44
1.25
 73
     0
 74
     0
 77
     1
 78
     8
140
2.5
141
2.5
143
0.0393700787
147
0.625
171
     3
172
     1
271
     2
272
     2
274
     3
278
    44
283
     0
284
     8
340
11
  0
ENDTAB
  0
TABLE
  2
BLOCK_RECORD
  5
1
330
0
100
AcDbSymbolTable
 70
     7
  0
BLOCK_RECORD
  5
1F
330
1
100
AcDbSymbolTableRecord
100
AcDbBlockTableRecord
  2
*Model_Space
340
22
  0
BLOCK_RECORD
  5
1B
330
1
100
AcDbSymbolTableRecord
100
AcDbBlockTableRecord
  2
*Paper_Space
340
1E
  0
BLOCK_RECORD
  5
5E
330
1
100
AcDbSymbolTableRecord
100
AcDbBlockTableRecord
  2
SEANNOT_GROUP
340
0
102
{BLKREFS
331
5F
102
}
  0
BLOCK_RECORD
  5
69
330
1
100
AcDbSymbolTableRecord
100
AcDbBlockTableRecord
  2
SEANNOT_GROUP1
340
0
102
{BLKREFS
331
6A
102
}
  0
BLOCK_RECORD
  5
6F
330
1
100
AcDbSymbolTableRecord
100
AcDbBlockTableRecord
  2
SEANNOT_GROUP2
340
0
102
{BLKREFS
331
70
102
}
  0
BLOCK_RECORD
  5
75
330
1
100
AcDbSymbolTableRecord
100
AcDbBlockTableRecord
  2
SE
340
0
102
{BLKREFS
331
76
102
}
  0
BLOCK_RECORD
  5
9B
330
1
100
AcDbSymbolTableRecord
100
AcDbBlockTableRecord
  2
SE1
340
0
102
{BLKREFS
331
9C
102
}
  0
BLOCK_RECORD
  5
E7
330
1
100
AcDbSymbolTableRecord
100
AcDbBlockTableRecord
  2
SE2
340
0
102
{BLKREFS
331
E8
102
}
  0
ENDTAB
  0
ENDSEC
  0
SECTION
  2
BLOCKS
  0
BLOCK
  5
20
330
1F
100
AcDbEntity
  8
0
100
AcDbBlockBegin
  2
*Model_Space
 70
     0
 10
0.0
 20
0.0
 30
0.0
  3
*Model_Space
  1

  0
ENDBLK
  5
21
330
1F
100
AcDbEntity
  8
0
100
AcDbBlockEnd
  0
BLOCK
  5
1C
330
1B
100
AcDbEntity
 67
     1
  8
0
100
AcDbBlockBegin
  2
*Paper_Space
 70
     0
 10
0.0
 20
0.0
 30
0.0
  3
*Paper_Space
  1

  0
ENDBLK
  5
1D
330
1B
100
AcDbEntity
 67
     1
  8
0
100
AcDbBlockEnd
  0
BLOCK
  5
67
330
5E
100
AcDbEntity
  8
0
100
AcDbBlockBegin
  2
SEANNOT_GROUP
 70
     0
 10
0.0
 20
0.0
 30
0.0
  3
SEANNOT_GROUP
  1

  0
LINE
  5
61
330
5E
100
AcDbEntity
  8
Default
  6
CENTER2
 62
     7
100
AcDbLine
 10
140.2578377764
 20
362.2240461019
 30
0.0
 11
100.2578386705
 21
362.2240461019
 31
0.0
  0
LINE
  5
62
330
5E
100
AcDbEntity
  8
Default
  6
CENTER2
 62
     7
100
AcDbLine
 10
120.2578382235
 20
382.2240456548
 30
0.0
 11
120.2578382235
 21
342.2240465489
 31
0.0
  0
LINE
  5
63
330
5E
100
AcDbEntity
  8
Default
  6
CENTER2
 62
     7
100
AcDbLine
 10
145.2578376647
 20
362.2240461019
 30
0.0
 11
150.5078382235
 21
362.2240461019
 31
0.0
  0
LINE
  5
64
330
5E
100
AcDbEntity
  8
Default
  6
CENTER2
 62
     7
100
AcDbLine
 10
120.2578382235
 20
387.2240455431
 30
0.0
 11
120.2578382235
 21
392.4740461019
 31
0.0
  0
LINE
  5
65
330
5E
100
AcDbEntity
  8
Default
  6
CENTER2
 62
     7
100
AcDbLine
 10
95.2578387823
 20
362.2240461019
 30
0.0
 11
90.0078382235
 21
362.2240461019
 31
0.0
  0
LINE
  5
66
330
5E
100
AcDbEntity
  8
Default
  6
CENTER2
 62
     7
100
AcDbLine
 10
120.2578382235
 20
337.2240466607
 30
0.0
 11
120.2578382235
 21
331.9740461019
 31
0.0
  0
ENDBLK
  5
68
330
5E
100
AcDbEntity
  8
0
100
AcDbBlockEnd
  0
BLOCK
  5
6D
330
69
100
AcDbEntity
  8
0
100
AcDbBlockBegin
  2
SEANNOT_GROUP1
 70
     0
 10
0.0
 20
0.0
 30
0.0
  3
SEANNOT_GROUP1
  1

  0
LINE
  5
6B
330
69
100
AcDbEntity
  8
Default
  6
CENTER2
 62
     7
100
AcDbLine
 10
140.2578377764
 20
181.05
 30
0.0
 11
100.2578386705
 21
181.05
 31
0.0
  0
LINE
  5
6C
330
69
100
AcDbEntity
  8
Default
  6
CENTER2
 62
     7
100
AcDbLine
 10
120.2578382235
 20
201.049999553
 30
0.0
 11
120.2578382235
 21
161.050000447
 31
0.0
  0
ENDBLK
  5
6E
330
69
100
AcDbEntity
  8
0
100
AcDbBlockEnd
  0
BLOCK
  5
73
330
6F
100
AcDbEntity
  8
0
100
AcDbBlockBegin
  2
SEANNOT_GROUP2
 70
     0
 10
0.0
 20
0.0
 30
0.0
  3
SEANNOT_GROUP2
  1

  0
LINE
  5
71
330
6F
100
AcDbEntity
  8
Default
  6
CENTER2
 62
     7
100
AcDbLine
 10
356.3768783175
 20
362.2240461019
 30
0.0
 11
316.3768792116
 21
362.2240461019
 31
0.0
  0
LINE
  5
72
330
6F
100
AcDbEntity
  8
Default
  6
CENTER2
 62
     7
100
AcDbLine
 10
336.3768787646
 20
382.2240456548
 30
0.0
 11
336.3768787646
 21
342.2240465489
 31
0.0
  0
ENDBLK
  5
74
330
6F
100
AcDbEntity
  8
0
100
AcDbBlockEnd
  0
BLOCK
  5
99
330
75
100
AcDbEntity
  8
0
100
AcDbBlockBegin
  2
SE
 70
     0
 10
0.0
 20
0.0
 30
0.0
  3
SE
  1

  0
CIRCLE
  5
78
330
75
100
AcDbEntity
  8
$DDT_AUDIT_GENERATED_(77)
  6
Continuous
 62
     7
100
AcDbCircle
 10
120.2578382235
 20
362.2240461019
 30
0.0
 40
26.75000000000001
  0
LINE
  5
79
330
75
100
AcDbEntity
  8
$DDT_AUDIT_GENERATED_(77)
  6
Continuous
 62
     7
100
AcDbLine
 10
114.2578382235
 20
300.0870476735
 30
0.0
 11
114.2578382235
 21
299.9825591953
 31
0.0
  0
ARC
  5
7A
330
75
100
AcDbEntity
  8
$DDT_AUDIT_GENERATED_(77)
  6
Continuous
 62
     7
100
AcDbCircle
 10
114.5086733134
 20
293.6218103506
 30
0.0
 40
6.470101381190096
100
AcDbArc
 50
83.3508793472
 51
92.2218190554
  0
ARC
  5
7B
330
75
100
AcDbEntity
  8
$DDT_AUDIT_GENERATED_(77)
  6
Continuous
 62
     7
100
AcDbCircle
 10
120.2578382235
 20
374.7240461019
 30
0.0
 40
74.84285653728713
100
AcDbArc
 50
266.1694082962
 51
273.8305917038
  0
ARC
  5
7C
330
75
100
AcDbEntity
  8
$DDT_AUDIT_GENERATED_(77)
  6
Continuous
 62
     7
100
AcDbCircle
 10
126.1115281923
 20
290.91774132
 30
0.0
 40
9.170473577118129
100
AcDbArc
 50
89.0858375091
 51
95.3414640883
  0
LINE
  5
7D
330
75
100
AcDbEntity
  8
$DDT_AUDIT_GENERATED_(77)
  6
Continuous
 62
     7
100
AcDbLine
 10
126.2578382235
 20
299.9825591953
 30
0.0
 11
126.2578382235
 21
300.0870476735
 31
0.0
  0
ARC
  5
7E
330
75
100
AcDbEntity
  8
$DDT_AUDIT_GENERATED_(77)
  6
Continuous
 62
     7
100
AcDbCircle
 10
120.2578382235
 20
434.7240461019
 30
0.0
 40
74.98193024708088
100
AcDbArc
 50
0.0
 51
180.0
  0
LINE
  5
7F
330
75
100
AcDbEntity
  8
$DDT_AUDIT_GENERATED_(77)
  6
Continuous
 62
     7
100
AcDbLine
 10
45.2759079669
 20
374.7240461019
 30
0.0
 11
45.2756033804
 21
374.7240461019
 31
0.0
  0
LINE
  5
80
330
75
100
AcDbEntity
  8
$DDT_AUDIT_GENERATED_(77)
  6
Continuous
 62
     7
100
AcDbLine
 10
45.2759079669
 20
434.7240461019
 30
0.0
 11
45.2756033804
 21
434.7240461019
 31
0.0
  0
LINE
  5
81
330
75
100
AcDbEntity
  8
$DDT_AUDIT_GENERATED_(77)
  6
Continuous
 62
     7
100
AcDbLine
 10
195.2397684705
 20
374.7240461019
 30
0.0
 11
195.240073057
 21
374.7240461019
 31
0.0
  0
ARC
  5
82
330
75
100
AcDbEntity
  8
$DDT_AUDIT_GENERATED_(77)
  6
Continuous
 62
     7
100
AcDbCircle
 10
120.2578382235
 20
374.7240461019
 30
0.0
 40
74.98223484310469
100
AcDbArc
 50
180.0
 51
265.410242176
  0
ARC
  5
83
330
75
100
AcDbEntity
  8
$DDT_AUDIT_GENERATED_(77)
  6
Continuous
 62
     7
100
AcDbCircle
 10
120.2578382235
 20
374.7240461019
 30
0.0
 40
74.98223484310469
100
AcDbArc
 50
180.0
 51
265.410242176
  0
LINE
  5
84
330
75
100
AcDbEntity
  8
$DDT_AUDIT_GENERATED_(77)
  6
Continuous
 62
     7
100
AcDbLine
 10
45.2756033804
 20
434.7240461019
 30
0.0
 11
45.2756033804
 21
374.7240461019
 31
0.0
  0
LINE
  5
85
330
75
100
AcDbEntity
  8
$DDT_AUDIT_GENERATED_(77)
  6
Continuous
 62
     7
100
AcDbLine
 10
45.2756033804
 20
434.7240461019
 30
0.0
 11
45.2756033804
 21
374.7240461019
 31
0.0
  0
LINE
  5
86
330
75
100
AcDbEntity
  8
$DDT_AUDIT_GENERATED_(77)
  6
Continuous
 62
     7
100
AcDbLine
 10
195.240073057
 20
374.7240461019
 30
0.0
 11
195.240073057
 21
434.7240461019
 31
0.0
  0
LINE
  5
87
330
75
100
AcDbEntity
  8
$DDT_AUDIT_GENERATED_(77)
  6
Continuous
 62
     7
100
AcDbLine
 10
195.240073057
 20
374.7240461019
 30
0.0
 11
195.240073057
 21
434.7240461019
 31
0.0
  0
ARC
  5
88
330
75
100
AcDbEntity
  8
$DDT_AUDIT_GENERATED_(77)
  6
Continuous
 62
     7
100
AcDbCircle
 10
120.2578382235
 20
374.7240461019
 30
0.0
 40
74.9822348431047
100
AcDbArc
 50
274.5897738101
 51
0.0
  0
ARC
  5
89
330
75
100
AcDbEntity
  8
$DDT_AUDIT_GENERATED_(77)
  6
Continuous
 62
     7
100
AcDbCircle
 10
120.2578382235
 20
374.7240461019
 30
0.0
 40
74.9822348431047
100
AcDbArc
 50
274.5897738101
 51
0.0
  0
ARC
  5
8B
330
75
100
AcDbEntity
  8
$DDT_AUDIT_GENERATED_(8A)
  6
Continuous
 62
     7
100
AcDbCircle
 10
120.2578382235
 20
362.2240461019
 30
0.0
 40
26.25
100
AcDbArc
 50
0.0
 51
1.4221269525
  0
ARC
  5
8C
330
75
100
AcDbEntity
  8
$DDT_AUDIT_GENERATED_(8A)
  6
Continuous
 62
     7
100
AcDbCircle
 10
120.2578382235
 20
362.2240461019
 30
0.0
 40
26.25
100
AcDbArc
 50
223.5314393528
 51
230.6727526679
  0
ARC
  5
8D
330
75
100
AcDbEntity
  8
$DDT_AUDIT_GENERATED_(8A)
  6
Continuous
 62
     7
100
AcDbCircle
 10
120.2578382235
 20
362.2240461019
 30
0.0
 40
26.25
100
AcDbArc
 50
359.5476997631
 51
0.0
  0
CIRCLE
  5
8E
330
75
100
AcDbEntity
  8
$DDT_AUDIT_GENERATED_(8A)
  6
Continuous
 62
     7
100
AcDbCircle
 10
120.2578382235
 20
362.2240461019
 30
0.0
 40
26.55
  0
ARC
  5
90
330
75
100
AcDbEntity
  8
$DDT_AUDIT_GENERATED_(8F)
  6
Continuous
 62
     7
100
AcDbCircle
 10
120.2578382235
 20
362.2240461019
 30
0.0
 40
26.25
100
AcDbArc
 50
220.7335601648
 51
228.9166635395
  0
ARC
  5
91
330
75
100
AcDbEntity
  8
$DDT_AUDIT_GENERATED_(8F)
  6
Continuous
 62
     7
100
AcDbCircle
 10
120.2578382235
 20
362.2240461019
 30
0.0
 40
26.25
100
AcDbArc
 50
180.0
 51
184.0163104531
  0
ARC
  5
92
330
75
100
AcDbEntity
  8
$DDT_AUDIT_GENERATED_(8F)
  6
Continuous
 62
     7
100
AcDbCircle
 10
120.2578382235
 20
362.2240461019
 30
0.0
 40
26.25
100
AcDbArc
 50
86.3649972639
 51
86.5674808387
  0
CIRCLE
  5
94
330
75
100
AcDbEntity
  8
$DDT_AUDIT_GENERATED_(93)
  6
Continuous
 62
     7
100
AcDbCircle
 10
120.2578382235
 20
362.2240461019
 30
0.0
 40
26.25002469845776
  0
ARC
  5
95
330
75
100
AcDbEntity
  8
$DDT_AUDIT_GENERATED_(93)
  6
Continuous
 62
     7
100
AcDbCircle
 10
121.7904215849
 20
387.9870563223
 30
0.0
 40
0.4416905738981844
100
AcDbArc
 50
84.777600115
 51
91.0883909803
  0
ARC
  5
96
330
75
100
AcDbEntity
  8
$DDT_AUDIT_GENERATED_(93)
  6
Continuous
 62
     7
100
AcDbCircle
 10
118.7252004738
 20
387.987946011
 30
0.0
 40
0.4408744689211547
100
AcDbArc
 50
89.4858059906
 51
95.4569820734
  0
ARC
  5
98
330
75
100
AcDbEntity
  8
$DDT_AUDIT_GENERATED_(97)
  6
Continuous
 62
     7
100
AcDbCircle
 10
112.2578512603
 20
386.6998296554
 30
0.0
 40
0.5000000000000004
100
AcDbArc
 50
108.1001433271
 51
180.0
  0
ENDBLK
  5
9A
330
75
100
AcDbEntity
  8
0
100
AcDbBlockEnd
  0
BLOCK
  5
E5
330
9B
100
AcDbEntity
  8
0
100
AcDbBlockBegin
  2
SE1
 70
     0
 10
0.0
 20
0.0
 30
0.0
  3
SE1
  1

  0
ARC
  5
9D
330
9B
100
AcDbEntity
  8
$DDT_AUDIT_GENERATED_(77)
  6
Continuous
 62
     7
100
AcDbCircle
 10
5284.6268828424
 20
285.1189643216
 30
0.0
 40
4935.73834490748
100
AcDbArc
 50
178.794324855
 51
179.4154504346
  0
ARC
  5
9E
330
9B
100
AcDbEntity
  8
$DDT_AUDIT_GENERATED_(77)
  6
Continuous
 62
     7
100
AcDbCircle
 10
5259.3565578539
 20
489.0549997803
 30
0.0
 40
4911.343414951793
100
AcDbArc
 50
179.7744516042
 51
180.6337096626
  0
ARC
  5
9F
330
9B
100
AcDbEntity
  8
$DDT_AUDIT_GENERATED_(77)
  6
Continuous
 62
     7
100
AcDbCircle
 10
-2365.7835029066
 20
404.7240461019
 30
0.0
 40
2714.262964616177
100
AcDbArc
 50
359.3664797901
 51
0.6335202099
  0
ARC
  5
A0
330
9B
100
AcDbEntity
  8
$DDT_AUDIT_GENERATED_(77)
  6
Continuous
 62
     7
100
AcDbCircle
 10
5259.3571694755
 20
320.3930902449
 30
0.0
 40
4911.34402656008
100
AcDbArc
 50
179.3662903909
 51
180.2255483423
  0
ARC
  5
A1
330
9B
100
AcDbEntity
  8
$DDT_AUDIT_GENERATED_(77)
  6
Continuous
 62
     7
100
AcDbCircle
 10
-2365.6756834203
 20
404.7240461019
 30
0.0
 40
2713.190931680262
100
AcDbArc
 50
359.3664624218
 51
0.6335375782
  0
LINE
  5
A2
330
9B
100
AcDbEntity
  8
$DDT_AUDIT_GENERATED_(77)
  6
Continuous
 62
     7
100
AcDbLine
 10
339.8768787646
 20
300.0870476735
 30
0.0
 11
336.8943285129
 21
299.9825591953
 31
0.0
  0
SPLINE
  5
A3
330
9B
100
AcDbEntity
  8
$DDT_AUDIT_GENERATED_(77)
  6
Continuous
 62
     7
100
AcDbSpline
210
0.0
220
0.0
230
1.0
 70
     8
 71
     3
 72
    12
 73
     8
 74
     0
 42
0.0000000098128708
 43
0.0000000001
 40
0.0
 40
0.0
 40
0.0
 40
0.0
 40
0.2500000000000003
 40
0.2500000000000003
 40
0.5000000000000006
 40
0.5000000000000006
 40
1.0
 40
1.0
 40
1.0
 40
1.0
 10
339.8768787645515
 20
300.0870476734648
 30
0.0
 10
340.008954965454
 20
300.0916747549924
 30
0.0
 10
340.1386554324089
 20
300.0941153932405
 30
0.0
 10
340.3808762147959
 20
300.0946316978561
 30
0.0
 10
340.4918471386584
 20
300.0926653220806
 30
0.0
 10
340.768500520701
 20
300.0811952495885
 30
0.0
 10
340.8768787645515
 20
300.0660499652735
 30
0.0
 10
340.8768787645515
 20
300.0483929432994
 30
0.0
  0
LINE
  5
A4
330
9B
100
AcDbEntity
  8
$DDT_AUDIT_GENERATED_(77)
  6
Continuous
 62
     7
100
AcDbLine
 10
340.8768787646
 20
300.0483929433
 30
0.0
 11
340.8768787646
 21
299.8811895646
 31
0.0
  0
LINE
  5
A5
330
9B
100
AcDbEntity
  8
$DDT_AUDIT_GENERATED_(77)
  6
Continuous
 62
     7
100
AcDbLine
 10
336.3768787646
 20
374.7240461019
 30
0.0
 11
336.3768787646
 21
434.7240461019
 31
0.0
  0
LINE
  5
A6
330
9B
100
AcDbEntity
  8
$DDT_AUDIT_GENERATED_(77)
  6
Continuous
 62
     7
100
AcDbLine
 10
336.3768787646
 20
300.4838729662
 30
0.0
 11
336.3768787646
 21
374.7240461019
 31
0.0
  0
LINE
  5
A7
330
9B
100
AcDbEntity
  8
$DDT_AUDIT_GENERATED_(77)
  6
Continuous
 62
     7
100
AcDbLine
 10
336.3768787646
 20
434.7240461019
 30
0.0
 11
336.3768787646
 21
509.206280945
 31
0.0
  0
SPLINE
  5
A8
330
9B
100
AcDbEntity
  8
$DDT_AUDIT_GENERATED_(77)
  6
Continuous
 62
     7
100
AcDbSpline
210
0.0
220
0.0
230
1.0
 70
     8
 71
     3
 72
    10
 73
     6
 74
     0
 42
0.0000000121151001
 43
0.0000000001
 40
0.0
 40
0.0
 40
0.0
 40
0.0
 40
0.5
 40
0.5
 40
1.0
 40
1.0
 40
1.0
 40
1.0
 10
336.8943285129028
 20
299.9825591952934
 30
0.0
 10
336.759188822996
 20
299.9778248317255
 30
0.0
 10
336.6251315351578
 20
300.0303409390471
 30
0.0
 10
336.4336010304974
 20
300.2160864351556
 30
0.0
 10
336.3768787645515
 20
300.3486626444274
 30
0.0
 10
336.3768787645515
 20
300.4838729661506
 30
0.0
  0
LINE
  5
A9
330
9B
100
AcDbEntity
  8
$DDT_AUDIT_GENERATED_(77)
  6
Continuous
 62
     7
100
AcDbLine
 10
347.0869115276
 20
509.3500435165
 30
0.0
 11
336.8943285129
 21
509.7059763585
 31
0.0
  0
LINE
  5
AA
330
9B
100
AcDbEntity
  8
$DDT_AUDIT_GENERATED_(77)
  6
Continuous
 62
     7
100
AcDbLine
 10
347.0872709671
 20
509.3500309646
 30
0.0
 11
336.8943285129
 21
509.7059763585
 31
0.0
  0
LINE
  5
AB
330
9B
100
AcDbEntity
  8
$DDT_AUDIT_GENERATED_(77)
  6
Continuous
 62
     7
100
AcDbLine
 10
340.8768787646
 20
299.8811895646
 30
0.0
 11
347.0880027928
 21
300.0980867951
 31
0.0
  0
LINE
  5
AC
330
9B
100
AcDbEntity
  8
$DDT_AUDIT_GENERATED_(77)
  6
Continuous
 62
     7
100
AcDbLine
 10
340.8768787646
 20
299.8811895646
 30
0.0
 11
347.0869115276
 21
300.0980486872
 31
0.0
  0
ARC
  5
AD
330
9B
100
AcDbEntity
  8
$DDT_AUDIT_GENERATED_(77)
  6
Continuous
 62
     7
100
AcDbCircle
 10
-2370.6231212354
 20
404.7240461019
 30
0.0
 40
2720.65
100
AcDbArc
 50
359.6681924369
 51
2.1836090431
  0
ARC
  5
AE
330
9B
100
AcDbEntity
  8
$DDT_AUDIT_GENERATED_(77)
  6
Continuous
 62
     7
100
AcDbCircle
 10
-2370.6231212354
 20
404.7240461019
 30
0.0
 40
2720.65
100
AcDbArc
 50
357.8163908049
 51
358.5417857747
  0
ARC
  5
AF
330
9B
100
AcDbEntity
  8
$DDT_AUDIT_GENERATED_(77)
  6
Continuous
 62
     7
100
AcDbCircle
 10
-2370.6231212354
 20
404.7240461019
 30
0.0
 40
2720.65
100
AcDbArc
 50
359.6681922073
 51
2.1833620641
  0
ARC
  5
B0
330
9B
100
AcDbEntity
  8
$DDT_AUDIT_GENERATED_(77)
  6
Continuous
 62
     7
100
AcDbCircle
 10
-2370.6231212354
 20
404.7240461019
 30
0.0
 40
2720.65
100
AcDbArc
 50
357.8166377834
 51
358.541788462
  0
ARC
  5
B1
330
9B
100
AcDbEntity
  8
$DDT_AUDIT_GENERATED_(77)
  6
Continuous
 62
     7
100
AcDbCircle
 10
347.0519234057
 20
508.3506557737
 30
0.0
 40
0.9999999998546051
100
AcDbArc
 50
359.774753703
 51
88.0291740313
  0
ARC
  5
B2
330
9B
100
AcDbEntity
  8
$DDT_AUDIT_GENERATED_(77)
  6
Continuous
 62
     7
100
AcDbCircle
 10
347.0519234057
 20
508.3506557737
 30
0.0
 40
0.9999999998546213
100
AcDbArc
 50
359.774753703
 51
88.1387140158
  0
ARC
  5
B3
330
9B
100
AcDbEntity
  8
$DDT_AUDIT_GENERATED_(77)
  6
Continuous
 62
     7
100
AcDbCircle
 10
347.0519234058
 20
301.0974364301
 30
0.0
 40
0.999999999989174
100
AcDbArc
 50
272.3619267471
 51
0.225246297
  0
ARC
  5
B4
330
9B
100
AcDbEntity
  8
$DDT_AUDIT_GENERATED_(77)
  6
Continuous
 62
     7
100
AcDbCircle
 10
347.0519234058
 20
301.0974364301
 30
0.0
 40
0.9999999999909919
100
AcDbArc
 50
272.0015839017
 51
0.225246297
  0
ARC
  5
B5
330
9B
100
AcDbEntity
  8
$DDT_AUDIT_GENERATED_(77)
  6
Continuous
 62
     7
100
AcDbCircle
 10
336.8768787646
 20
509.206280945
 30
0.0
 40
0.5000000000000341
100
AcDbArc
 50
88.0
 51
180.0
  0
ARC
  5
B6
330
9B
100
AcDbEntity
  8
$DDT_AUDIT_GENERATED_(77)
  6
Continuous
 62
     7
100
AcDbCircle
 10
336.8768787646
 20
509.206280945
 30
0.0
 40
0.5000000000000341
100
AcDbArc
 50
88.0
 51
180.0
  0
LINE
  5
B7
330
9B
100
AcDbEntity
  8
$DDT_AUDIT_GENERATED_(8F)
  6
Continuous
 62
     7
100
AcDbLine
 10
353.1768787646
 20
386.4740461019
 30
0.0
 11
353.1768787646
 21
337.9740461019
 31
0.0
  0
LINE
  5
B8
330
9B
100
AcDbEntity
  8
$DDT_AUDIT_GENERATED_(8F)
  6
Continuous
 62
     7
100
AcDbLine
 10
349.1505397064
 20
335.9740461019
 30
0.0
 11
351.1768787646
 21
335.9740461019
 31
0.0
  0
LINE
  5
B9
330
9B
100
AcDbEntity
  8
$DDT_AUDIT_GENERATED_(8F)
  6
Continuous
 62
     7
100
AcDbLine
 10
351.1768787646
 20
388.4740461019
 30
0.0
 11
349.970797244
 21
388.4740461019
 31
0.0
  0
ARC
  5
BA
330
9B
100
AcDbEntity
  8
$DDT_AUDIT_GENERATED_(8F)
  6
Continuous
 62
     7
100
AcDbCircle
 10
351.1768787646
 20
386.4740461019
 30
0.0
 40
2.000000000000002
100
AcDbArc
 50
0.0
 51
90.0
  0
ARC
  5
BB
330
9B
100
AcDbEntity
  8
$DDT_AUDIT_GENERATED_(8F)
  6
Continuous
 62
     7
100
AcDbCircle
 10
351.1768787646
 20
337.9740461019
 30
0.0
 40
2.000000000000002
100
AcDbArc
 50
270.0
 51
0.0
  0
LINE
  5
BC
330
9B
100
AcDbEntity
  8
$DDT_AUDIT_GENERATED_(93)
  6
Continuous
 62
     7
100
AcDbLine
 10
354.0768787646
 20
388.2740708003
 30
0.0
 11
354.0768787646
 21
336.1740214034
 31
0.0
  0
ARC
  5
BD
330
9B
100
AcDbEntity
  8
$DDT_AUDIT_GENERATED_(93)
  6
Continuous
 62
     7
100
AcDbCircle
 10
367.8913727315
 20
311.8375857172
 30
0.0
 40
24.64149903002419
100
AcDbArc
 50
101.6183963129
 51
101.620413648
  0
ARC
  5
BE
330
9B
100
AcDbEntity
  8
$DDT_AUDIT_GENERATED_(93)
  6
Continuous
 62
     7
100
AcDbCircle
 10
396.2732114573
 20
311.8949946184
 30
0.0
 40
24.58308587152849
100
AcDbArc
 50
78.3773533106
 51
81.1535519418
  0
ARC
  5
BF
330
9B
100
AcDbEntity
  8
$DDT_AUDIT_GENERATED_(93)
  6
Continuous
 62
     7
100
AcDbCircle
 10
367.9816612032
 20
311.1762150772
 30
0.0
 40
25.30888907855815
100
AcDbArc
 50
94.2618788371
 51
98.8237386548
  0
ARC
  5
C0
330
9B
100
AcDbEntity
  8
$DDT_AUDIT_GENERATED_(93)
  6
Continuous
 62
     7
100
AcDbCircle
 10
396.2030398974
 20
311.4484112207
 30
0.0
 40
25.03514820533853
100
AcDbArc
 50
81.1520457626
 51
85.7623976179
  0
SPLINE
  5
C1
330
9B
100
AcDbEntity
  8
$DDT_AUDIT_GENERATED_(93)
  6
Continuous
 62
     7
100
AcDbSpline
210
0.0
220
0.0
230
1.0
 70
     8
 71
     3
 72
     8
 73
     4
 74
     0
 42
0.0000000671895781
 43
0.0000000001
 40
0.4873227239422039
 40
0.4873227239422039
 40
0.4873227239422039
 40
0.4873227239422039
 40
1.0
 40
1.0
 40
1.0
 40
1.0
 10
397.9828783646111
 20
336.4191980705857
 30
0.0
 10
398.0052280053961
 20
336.406079759899
 30
0.0
 10
398.0292304239772
 20
336.404414971224
 30
0.0
 10
398.0532930792693
 20
336.4150987611778
 30
0.0
  0
SPLINE
  5
C2
330
9B
100
AcDbEntity
  8
$DDT_AUDIT_GENERATED_(93)
  6
Continuous
 62
     7
100
AcDbSpline
210
0.0
220
0.0
230
1.0
 70
     8
 71
     3
 72
     8
 73
     4
 74
     0
 42
0.0000000688545545
 43
0.0000000001
 40
0.0
 40
0.0
 40
0.0
 40
0.0
 40
0.2512184413442826
 40
0.2512184413442826
 40
0.2512184413442826
 40
0.2512184413442826
 10
366.1004579957599
 20
336.4150983201874
 30
0.0
 10
366.1122494681788
 20
336.4098631114436
 30
0.0
 10
366.1240264758974
 20
336.4075930040397
 30
0.0
 10
366.1356016364207
 20
336.4081826788652
 30
0.0
  0
ARC
  5
C3
330
9B
100
AcDbEntity
  8
$DDT_AUDIT_GENERATED_(93)
  6
Continuous
 62
     7
100
AcDbCircle
 10
362.9261253024
 20
336.4785856176
 30
0.0
 40
0.5045673760065986
100
AcDbArc
 50
282.0496537818
 51
291.4270336812
  0
ARC
  5
C4
330
9B
100
AcDbEntity
  8
$DDT_AUDIT_GENERATED_(93)
  6
Continuous
 62
     7
100
AcDbCircle
 10
364.1262163291
 20
336.498781249
 30
0.0
 40
0.3143561198336505
100
AcDbArc
 50
265.1059441959
 51
285.5841296466
  0
SPLINE
  5
C5
330
9B
100
AcDbEntity
  8
$DDT_AUDIT_GENERATED_(93)
  6
Continuous
 62
     7
100
AcDbSpline
210
0.0
220
0.0
230
1.0
 70
     8
 71
     3
 72
     8
 73
     4
 74
     0
 42
0.0000000691143166
 43
0.0000000001
 40
0.0
 40
0.0
 40
0.0
 40
0.0
 40
0.2871813133788532
 40
0.2871813133788532
 40
0.2871813133788532
 40
0.2871813133788532
 10
366.1008249533161
 20
336.41511999389
 30
0.0
 10
366.114276477951
 20
336.4091361266828
 30
0.0
 10
366.1277091623081
 20
336.4070235513211
 30
0.0
 10
366.1408431660771
 20
336.4086260785192
 30
0.0
  0
LINE
  5
C6
330
9B
100
AcDbEntity
  8
$DDT_AUDIT_GENERATED_(93)
  6
Continuous
 62
     7
100
AcDbLine
 10
368.0768787646
 20
336.4830299312
 30
0.0
 11
368.0768787646
 21
336.4926641447
 31
0.0
  0
ARC
  5
C7
330
9B
100
AcDbEntity
  8
$DDT_AUDIT_GENERATED_(93)
  6
Continuous
 62
     7
100
AcDbCircle
 10
358.5172736897
 20
416.4856235092
 30
0.0
 40
28.05882105828643
100
AcDbArc
 50
266.6737944196
 51
273.3262058741
  0
LINE
  5
C8
330
9B
100
AcDbEntity
  8
$DDT_AUDIT_GENERATED_(93)
  6
Continuous
 62
     7
100
AcDbLine
 10
410.7696292707
 20
387.0110242836
 30
0.0
 11
410.7696282991
 21
337.4368409856
 31
0.0
  0
ARC
  5
C9
330
9B
100
AcDbEntity
  8
$DDT_AUDIT_GENERATED_(93)
  6
Continuous
 62
     7
100
AcDbCircle
 10
354.2768787646
 20
388.2740708003
 30
0.0
 40
0.1999999999999988
100
AcDbArc
 50
90.0
 51
180.0
  0
ARC
  5
CA
330
9B
100
AcDbEntity
  8
$DDT_AUDIT_GENERATED_(93)
  6
Continuous
 62
     7
100
AcDbCircle
 10
354.2768787646
 20
336.1740214034
 30
0.0
 40
0.2000000000000057
100
AcDbArc
 50
180.0
 51
270.0
  0
SPLINE
  5
CB
330
9B
100
AcDbEntity
  8
$DDT_AUDIT_GENERATED_(93)
  6
Continuous
 62
     7
100
AcDbSpline
210
0.0
220
0.0
230
1.0
 70
     8
 71
     3
 72
     8
 73
     4
 74
     0
 42
0.0000000055736388
 43
0.0000000001
 40
0.0
 40
0.0
 40
0.0
 40
0.0
 40
0.1967235058466066
 40
0.1967235058466066
 40
0.1967235058466066
 40
0.1967235058466066
 10
399.9433086931001
 20
336.1950104451861
 30
0.0
 10
400.0756684663172
 20
336.1761445906017
 30
0.0
 10
400.1906637419972
 20
336.1598944477172
 30
0.0
 10
400.2928205835836
 20
336.1458468792171
 30
0.0
  0
LINE
  5
CC
330
9B
100
AcDbEntity
  8
$DDT_AUDIT_GENERATED_(93)
  6
Continuous
 62
     7
100
AcDbLine
 10
362.9286687268
 20
335.9741865807
 30
0.0
 11
363.1147524155
 21
336.009416258
 31
0.0
  0
ARC
  5
CD
330
9B
100
AcDbEntity
  8
$DDT_AUDIT_GENERATED_(93)
  6
Continuous
 62
     7
100
AcDbCircle
 10
368.362415957
 20
309.0372893445
 30
0.0
 40
27.47326655205383
100
AcDbArc
 50
98.6921097407
 51
101.0762540025
  0
ARC
  5
CE
330
9B
100
AcDbEntity
  8
$DDT_AUDIT_GENERATED_(93)
  6
Continuous
 62
     7
100
AcDbCircle
 10
396.0996468089
 20
311.5046797602
 30
0.0
 40
24.97669580487077
100
AcDbArc
 50
85.6023835109
 51
90.0522702447
  0
ARC
  5
CF
330
9B
100
AcDbEntity
  8
$DDT_AUDIT_GENERATED_(93)
  6
Continuous
 62
     7
100
AcDbCircle
 10
368.0759793043
 20
311.5475908848
 30
0.0
 40
24.93454922101595
100
AcDbArc
 50
89.9979270171
 51
94.4507108271
  0
LINE
  5
D0
330
9B
100
AcDbEntity
  8
$DDT_AUDIT_GENERATED_(93)
  6
Continuous
 62
     7
100
AcDbLine
 10
368.0718664211
 20
336.4827866764
 30
0.0
 11
396.0818910986
 21
336.4827866764
 31
0.0
  0
LINE
  5
D1
330
9B
100
AcDbEntity
  8
$DDT_AUDIT_GENERATED_(93)
  6
Continuous
 62
     7
100
AcDbLine
 10
391.980725764
 20
386.7285525349
 30
0.0
 11
372.0729610987
 21
386.7285525349
 31
0.0
  0
ARC
  5
D2
330
9B
100
AcDbEntity
  8
$DDT_AUDIT_GENERATED_(93)
  6
Continuous
 62
     7
100
AcDbCircle
 10
392.0853397211
 20
409.7320191342
 30
0.0
 40
22.9955946304128
100
AcDbArc
 50
269.7301852998
 51
280.2987868658
  0
ARC
  5
D3
330
9B
100
AcDbEntity
  8
$DDT_AUDIT_GENERATED_(93)
  6
Continuous
 62
     7
100
AcDbCircle
 10
371.9785078094
 20
409.7300377319
 30
0.0
 40
22.99434594222977
100
AcDbArc
 50
259.6792366824
 51
270.2441786485
  0
ARC
  5
D4
330
9B
100
AcDbEntity
  8
$DDT_AUDIT_GENERATED_(93)
  6
Continuous
 62
     7
100
AcDbCircle
 10
391.4296982287
 20
414.2308648356
 30
0.0
 40
27.53659721081105
100
AcDbArc
 50
279.9580014344
 51
286.7366794218
  0
ARC
  5
D5
330
9B
100
AcDbEntity
  8
$DDT_AUDIT_GENERATED_(93)
  6
Continuous
 62
     7
100
AcDbCircle
 10
372.6915898537
 20
414.5142487183
 30
0.0
 40
27.82742912189952
100
AcDbArc
 50
253.2997642446
 51
260.0051232031
  0
ARC
  5
D6
330
9B
100
AcDbEntity
  8
$DDT_AUDIT_GENERATED_(93)
  6
Continuous
 62
     7
100
AcDbCircle
 10
388.6260155764
 20
423.4347264111
 30
0.0
 40
37.16005960558994
100
AcDbArc
 50
286.8036113312
 51
289.6654394759
  0
ARC
  5
D7
330
9B
100
AcDbEntity
  8
$DDT_AUDIT_GENERATED_(93)
  6
Continuous
 62
     7
100
AcDbCircle
 10
375.6557227568
 20
424.1316115795
 30
0.0
 40
37.89302490283664
100
AcDbArc
 50
250.364555832
 51
253.1703127747
  0
LINE
  5
D8
330
9B
100
AcDbEntity
  8
$DDT_AUDIT_GENERATED_(93)
  6
Continuous
 62
     7
100
AcDbLine
 10
401.2258463589
 20
335.9740214034
 30
0.0
 11
409.270089175
 21
335.9740214034
 31
0.0
  0
LINE
  5
D9
330
9B
100
AcDbEntity
  8
$DDT_AUDIT_GENERATED_(93)
  6
Continuous
 62
     7
100
AcDbLine
 10
354.2768787646
 20
335.9740214034
 30
0.0
 11
362.9279130167
 21
335.9740214034
 31
0.0
  0
LINE
  5
DA
330
9B
100
AcDbEntity
  8
$DDT_AUDIT_GENERATED_(93)
  6
Continuous
 62
     7
100
AcDbLine
 10
356.8892838784
 20
388.4740708003
 30
0.0
 11
354.2768787646
 21
388.4740708003
 31
0.0
  0
LINE
  5
DB
330
9B
100
AcDbEntity
  8
$DDT_AUDIT_GENERATED_(93)
  6
Continuous
 62
     7
100
AcDbLine
 10
362.7575212264
 20
388.4740708003
 30
0.0
 11
360.1452620803
 21
388.4740708003
 31
0.0
  0
LINE
  5
DC
330
9B
100
AcDbEntity
  8
$DDT_AUDIT_GENERATED_(93)
  6
Continuous
 62
     7
100
AcDbLine
 10
409.2700901448
 20
388.4740708003
 30
0.0
 11
401.2961183432
 21
388.4740708003
 31
0.0
  0
ARC
  5
DD
330
9B
100
AcDbEntity
  8
$DDT_AUDIT_GENERATED_(93)
  6
Continuous
 62
     7
100
AcDbCircle
 10
-588.9231212354
 20
362.224065667
 30
0.0
 40
1000.0
100
AcDbArc
 50
358.5807443176
 51
1.4190954013
  0
ARC
  5
DE
330
9B
100
AcDbEntity
  8
$DDT_AUDIT_GENERATED_(93)
  6
Continuous
 62
     7
100
AcDbCircle
 10
409.2700891747
 20
337.474021404
 30
0.0
 40
1.499999999999696
100
AcDbArc
 50
270.0770762032
 51
359.9999994495
  0
ARC
  5
DF
330
9B
100
AcDbEntity
  8
$DDT_AUDIT_GENERATED_(93)
  6
Continuous
 62
     7
100
AcDbCircle
 10
409.2700901449
 20
386.9740707973
 30
0.0
 40
1.500000000000369
100
AcDbArc
 50
0.0
 51
89.9827344232
  0
LINE
  5
E0
330
9B
100
AcDbEntity
  8
$DDT_AUDIT_GENERATED_(97)
  6
Continuous
 62
     7
100
AcDbLine
 10
399.9476690039
 20
388.4740708003
 30
0.0
 11
364.1060885956
 21
388.4740708003
 31
0.0
  0
SPLINE
  5
E1
330
9B
100
AcDbEntity
  8
$DDT_AUDIT_GENERATED_(97)
  6
Continuous
 62
     7
100
AcDbSpline
210
0.0
220
0.0
230
1.0
 70
     8
 71
     3
 72
    12
 73
     8
 74
     0
 42
0.0000000120066031
 43
0.0000000001
 40
0.0
 40
0.0
 40
0.0
 40
0.0
 40
0.0979177013637526
 40
0.2720640584032
 40
0.477233797183345
 40
0.6909011231958215
 40
0.7050236724680097
 40
0.7050236724680097
 40
0.7050236724680097
 40
0.7050236724680097
 10
364.106076862181
 20
388.4679596536052
 30
0.0
 10
364.0768437815329
 20
388.4706164969831
 30
0.0
 10
364.0071881211142
 20
388.4760170300758
 30
0.0
 10
363.8757637559164
 20
388.4393691783177
 30
0.0
 10
363.7361444832433
 20
388.3530908169208
 30
0.0
 10
363.6629027718535
 20
388.2586637964873
 30
0.0
 10
363.6326394233323
 20
388.2023363331728
 30
0.0
 10
363.6307978817601
 20
388.1988208817163
 30
0.0
  0
ARC
  5
E2
330
9B
100
AcDbEntity
  8
$DDT_AUDIT_GENERATED_(97)
  6
Continuous
 62
     7
100
AcDbCircle
 10
399.9821311032
 20
387.9858504983
 30
0.0
 40
0.4871557592625535
100
AcDbArc
 50
25.9222069591
 51
94.0920277622
  0
LINE
  5
E4
330
9B
100
AcDbEntity
  8
DV2_Default
  6
Continuous
 62
     7
100
AcDbLine
 10
336.3768787646
 20
388.4740461019
 30
0.0
 11
336.3768787646
 21
335.9740461019
 31
0.0
  0
ENDBLK
  5
E6
330
9B
100
AcDbEntity
  8
0
100
AcDbBlockEnd
  0
BLOCK
  5
136
330
E7
100
AcDbEntity
  8
0
100
AcDbBlockBegin
  2
SE2
 70
     0
 10
0.0
 20
0.0
 30
0.0
  3
SE2
  1

  0
ARC
  5
E9
330
E7
100
AcDbEntity
  8
$DDT_AUDIT_GENERATED_(77)
  6
Continuous
 62
     7
100
AcDbCircle
 10
120.2578382235
 20
-7423.0054556019
 30
0.0
 40
7592.476107536985
100
AcDbArc
 50
89.4492271931
 51
90.5514999627
  0
LINE
  5
EA
330
E7
100
AcDbEntity
  8
$DDT_AUDIT_GENERATED_(77)
  6
Continuous
 62
     7
100
AcDbLine
 10
45.6467986855
 20
169.9116296935
 30
0.0
 11
45.641006648
 21
170.0774919447
 31
0.0
  0
LINE
  5
EB
330
E7
100
AcDbEntity
  8
$DDT_AUDIT_GENERATED_(77)
  6
Continuous
 62
     7
100
AcDbLine
 10
194.8746697894
 20
170.077491945
 30
0.0
 11
194.8688777531
 21
169.9116296931
 31
0.0
  0
LINE
  5
EC
330
E7
100
AcDbEntity
  8
$DDT_AUDIT_GENERATED_(77)
  6
Continuous
 62
     7
100
AcDbLine
 10
45.7756033804
 20
181.05
 30
0.0
 11
194.7400730666
 21
181.05
 31
0.0
  0
LINE
  5
ED
330
E7
100
AcDbEntity
  8
$DDT_AUDIT_GENERATED_(77)
  6
Continuous
 62
     7
100
AcDbLine
 10
195.2397684706
 20
180.532550252
 30
0.0
 11
194.8746697894
 21
170.077491945
 31
0.0
  0
LINE
  5
EE
330
E7
100
AcDbEntity
  8
$DDT_AUDIT_GENERATED_(77)
  6
Continuous
 62
     7
100
AcDbLine
 10
45.2759079669
 20
180.5325502516
 30
0.0
 11
45.641006648
 21
170.0774919447
 31
0.0
  0
ARC
  5
EF
330
E7
100
AcDbEntity
  8
$DDT_AUDIT_GENERATED_(77)
  6
Continuous
 62
     7
100
AcDbCircle
 10
45.7756033804
 20
180.55
 30
0.0
 40
0.5000000000000004
100
AcDbArc
 50
90.0
 51
182.0
  0
ARC
  5
F0
330
E7
100
AcDbEntity
  8
$DDT_AUDIT_GENERATED_(77)
  6
Continuous
 62
     7
100
AcDbCircle
 10
194.7400730666
 20
180.55
 30
0.0
 40
0.5000000000000004
100
AcDbArc
 50
358.0
 51
90.0
  0
ARC
  5
F1
330
E7
100
AcDbEntity
  8
$DDT_AUDIT_GENERATED_(77)
  6
Continuous
 62
     7
100
AcDbCircle
 10
120.2578382235
 20
1921.05
 30
0.0
 40
1753.65
100
AcDbArc
 50
267.5927451233
 51
272.4072630297
  0
ARC
  5
F2
330
E7
100
AcDbEntity
  8
$DDT_AUDIT_GENERATED_(77)
  6
Continuous
 62
     7
100
AcDbCircle
 10
120.2578382235
 20
1921.05
 30
0.0
 40
1753.65
100
AcDbArc
 50
267.5927451233
 51
272.4072630297
  0
ARC
  5
F3
330
E7
100
AcDbEntity
  8
$DDT_AUDIT_GENERATED_(77)
  6
Continuous
 62
     7
100
AcDbCircle
 10
46.6461893347
 20
169.9465342825
 30
0.0
 40
1.000000000000006
100
AcDbArc
 50
182.0
 51
267.0335767681
  0
ARC
  5
F4
330
E7
100
AcDbEntity
  8
$DDT_AUDIT_GENERATED_(77)
  6
Continuous
 62
     7
100
AcDbCircle
 10
46.6461893347
 20
169.9465342825
 30
0.0
 40
1.000000000000006
100
AcDbArc
 50
182.0
 51
267.0335767681
  0
ARC
  5
F5
330
E7
100
AcDbEntity
  8
$DDT_AUDIT_GENERATED_(77)
  6
Continuous
 62
     7
100
AcDbCircle
 10
193.8694871027
 20
169.9465342821
 30
0.0
 40
1.000000000000006
100
AcDbArc
 50
272.8103491459
 51
358.0
  0
ARC
  5
F6
330
E7
100
AcDbEntity
  8
$DDT_AUDIT_GENERATED_(77)
  6
Continuous
 62
     7
100
AcDbCircle
 10
193.8694871027
 20
169.9465342821
 30
0.0
 40
1.000000000000006
100
AcDbArc
 50
272.8103491459
 51
358.0
  0
LINE
  5
F7
330
E7
100
AcDbEntity
  8
$DDT_AUDIT_GENERATED_(8F)
  6
Continuous
 62
     7
100
AcDbLine
 10
144.5078382235
 20
164.25
 30
0.0
 11
96.0078382235
 21
164.25
 31
0.0
  0
LINE
  5
F8
330
E7
100
AcDbEntity
  8
$DDT_AUDIT_GENERATED_(8F)
  6
Continuous
 62
     7
100
AcDbLine
 10
94.0078382235
 20
167.5964762361
 30
0.0
 11
94.0078382235
 21
166.25
 31
0.0
  0
LINE
  5
F9
330
E7
100
AcDbEntity
  8
$DDT_AUDIT_GENERATED_(8F)
  6
Continuous
 62
     7
100
AcDbLine
 10
146.5078382235
 20
166.25
 30
0.0
 11
146.5078382235
 21
167.5964762361
 31
0.0
  0
ARC
  5
FA
330
E7
100
AcDbEntity
  8
$DDT_AUDIT_GENERATED_(8F)
  6
Continuous
 62
     7
100
AcDbCircle
 10
144.5078382235
 20
166.25
 30
0.0
 40
2.000000000000002
100
AcDbArc
 50
270.0
 51
0.0
  0
ARC
  5
FB
330
E7
100
AcDbEntity
  8
$DDT_AUDIT_GENERATED_(8F)
  6
Continuous
 62
     7
100
AcDbCircle
 10
96.0078382235
 20
166.25
 30
0.0
 40
2.000000000000002
100
AcDbArc
 50
180.0
 51
270.0
  0
LINE
  5
FD
330
E7
100
AcDbEntity
  8
$DDT_AUDIT_GENERATED_(FC)
  6
Continuous
 62
     7
100
AcDbLine
 10
129.1010628335
 20
142.95
 30
0.0
 11
128.7578512603
 21
142.95
 31
0.0
  0
LINE
  5
FE
330
E7
100
AcDbEntity
  8
$DDT_AUDIT_GENERATED_(FC)
  6
Continuous
 62
     7
100
AcDbLine
 10
111.7578512603
 20
135.35
 30
0.0
 11
111.4109146235
 21
135.35
 31
0.0
  0
LINE
  5
FF
330
E7
100
AcDbEntity
  8
$DDT_AUDIT_GENERATED_(FC)
  6
Continuous
 62
     7
100
AcDbLine
 10
128.7578512603
 20
132.55
 30
0.0
 11
129.1007034348
 21
132.55
 31
0.0
  0
LINE
  5
100
330
E7
100
AcDbEntity
  8
$DDT_AUDIT_GENERATED_(FC)
  6
Continuous
 62
     7
100
AcDbLine
 10
128.7578512603
 20
128.55
 30
0.0
 11
129.100703433
 21
128.55
 31
0.0
  0
LINE
  5
101
330
E7
100
AcDbEntity
  8
$DDT_AUDIT_GENERATED_(FC)
  6
Continuous
 62
     7
100
AcDbLine
 10
112.1921643678
 20
148.8917424305
 30
0.0
 11
112.5577493879
 21
148.8917424305
 31
0.0
  0
LINE
  5
102
330
E7
100
AcDbEntity
  8
$DDT_AUDIT_GENERATED_(FC)
  6
Continuous
 62
     7
100
AcDbLine
 10
127.9688184656
 20
148.8917424305
 30
0.0
 11
128.3286470254
 21
148.8917424305
 31
0.0
  0
LINE
  5
103
330
E7
100
AcDbEntity
  8
$DDT_AUDIT_GENERATED_(FC)
  6
Continuous
 62
     7
100
AcDbLine
 10
112.6591616183
 20
149.8082575695
 30
0.0
 11
113.040240468
 21
149.8082575695
 31
0.0
  0
LINE
  5
104
330
E7
100
AcDbEntity
  8
$DDT_AUDIT_GENERATED_(FC)
  6
Continuous
 62
     7
100
AcDbLine
 10
127.4800763232
 20
149.8082575695
 30
0.0
 11
127.8744484308
 21
149.8082575695
 31
0.0
  0
LINE
  5
105
330
E7
100
AcDbEntity
  8
$DDT_AUDIT_GENERATED_(FC)
  6
Continuous
 62
     7
100
AcDbLine
 10
127.5408426326
 20
150.35
 30
0.0
 11
127.1297224555
 21
150.35
 31
0.0
  0
LINE
  5
106
330
E7
100
AcDbEntity
  8
$DDT_AUDIT_GENERATED_(FC)
  6
Continuous
 62
     7
100
AcDbLine
 10
113.3831525919
 20
150.35
 30
0.0
 11
112.9863111727
 21
150.35
 31
0.0
  0
LINE
  5
107
330
E7
100
AcDbEntity
  8
$DDT_AUDIT_GENERATED_(FC)
  6
Continuous
 62
     7
100
AcDbLine
 10
111.4314583402
 20
130.55
 30
0.0
 11
111.7578512603
 21
130.55
 31
0.0
  0
LINE
  5
108
330
E7
100
AcDbEntity
  8
$DDT_AUDIT_GENERATED_(FC)
  6
Continuous
 62
     7
100
AcDbLine
 10
111.4119444375
 20
132.55
 30
0.0
 11
111.7578512603
 21
132.55
 31
0.0
  0
LINE
  5
109
330
E7
100
AcDbEntity
  8
$DDT_AUDIT_GENERATED_(FC)
  6
Continuous
 62
     7
100
AcDbLine
 10
111.7578512603
 20
142.95
 30
0.0
 11
111.4126596784
 21
142.95
 31
0.0
  0
LINE
  5
10A
330
E7
100
AcDbEntity
  8
$DDT_AUDIT_GENERATED_(FC)
  6
Continuous
 62
     7
100
AcDbLine
 10
129.1098411995
 20
127.35
 30
0.0
 11
128.738030339
 21
127.35
 31
0.0
  0
LINE
  5
10B
330
E7
100
AcDbEntity
  8
$DDT_AUDIT_GENERATED_(FC)
  6
Continuous
 62
     7
100
AcDbLine
 10
111.7638922835
 20
127.35
 30
0.0
 11
111.4033149244
 21
127.35
 31
0.0
  0
LINE
  5
10D
330
E7
100
AcDbEntity
  8
$DDT_AUDIT_GENERATED_(10C)
  6
Continuous
 62
     7
100
AcDbLine
 10
129.0871933872
 20
132.8
 30
0.0
 11
128.7578512603
 21
132.8
 31
0.0
  0
LINE
  5
10E
330
E7
100
AcDbEntity
  8
$DDT_AUDIT_GENERATED_(10C)
  6
Continuous
 62
     7
100
AcDbLine
 10
128.7979378358
 20
142.8
 30
0.0
 11
129.0828980291
 21
142.8
 31
0.0
  0
LINE
  5
10F
330
E7
100
AcDbEntity
  8
$DDT_AUDIT_GENERATED_(93)
  6
Continuous
 62
     7
100
AcDbLine
 10
94.207813525
 20
163.35
 30
0.0
 11
146.3078629219
 21
163.35
 31
0.0
  0
LINE
  5
110
330
E7
100
AcDbEntity
  8
$DDT_AUDIT_GENERATED_(93)
  6
Continuous
 62
     7
100
AcDbLine
 10
112.4356930812
 20
121.3749259412
 30
0.0
 11
112.4354757174
 21
121.3753432009
 31
0.0
  0
ARC
  5
111
330
E7
100
AcDbEntity
  8
$DDT_AUDIT_GENERATED_(93)
  6
Continuous
 62
     7
100
AcDbCircle
 10
13653.6819667204
 20
135.4179837843
 30
0.0
 40
13524.60766786905
100
AcDbArc
 50
179.9579239364
 51
180.0422284412
  0
ARC
  5
112
330
E7
100
AcDbEntity
  8
$DDT_AUDIT_GENERATED_(93)
  6
Continuous
 62
     7
100
AcDbCircle
 10
120.2580959408
 20
145.3501975871
 30
0.0
 40
8.81970297153346
100
AcDbArc
 50
359.9986710968
 51
53.9724291265
  0
ARC
  5
113
330
E7
100
AcDbEntity
  8
$DDT_AUDIT_GENERATED_(93)
  6
Continuous
 62
     7
100
AcDbCircle
 10
120.258256817
 20
125.4496593596
 30
0.0
 40
8.819488629910857
100
AcDbArc
 50
306.027154192
 51
0.0022527154
  0
LINE
  5
114
330
E7
100
AcDbEntity
  8
$DDT_AUDIT_GENERATED_(93)
  6
Continuous
 62
     7
100
AcDbLine
 10
112.4354753292
 20
149.4246561739
 30
0.0
 11
112.435692676
 21
149.425073401
 31
0.0
  0
SPLINE
  5
115
330
E7
100
AcDbEntity
  8
$DDT_AUDIT_GENERATED_(93)
  6
Continuous
 62
     7
100
AcDbSpline
210
0.0
220
0.0
230
1.0
 70
     8
 71
     3
 72
     8
 73
     4
 74
     0
 42
0.000000000502504
 43
0.0000000001
 40
0.0
 40
0.0
 40
0.0
 40
0.0
 40
1.0
 40
1.0
 40
1.0
 40
1.0
 10
111.4379158310373
 20
125.4498326492172
 30
0.0
 10
111.4378511334803
 20
132.0832545424785
 30
0.0
 10
111.4378510066211
 20
138.7167531727169
 30
0.0
 10
111.4379155288787
 20
145.3501717756023
 30
0.0
  0
ARC
  5
116
330
E7
100
AcDbEntity
  8
$DDT_AUDIT_GENERATED_(93)
  6
Continuous
 62
     7
100
AcDbCircle
 10
120.2562633132
 20
125.4483644324
 30
0.0
 40
8.817742085435512
100
AcDbArc
 50
207.5132871549
 51
233.970611703
  0
ARC
  5
117
330
E7
100
AcDbEntity
  8
$DDT_AUDIT_GENERATED_(93)
  6
Continuous
 62
     7
100
AcDbCircle
 10
120.2605360882
 20
125.4505971011
 30
0.0
 40
8.822749640815756
100
AcDbArc
 50
180.0049446843
 51
207.5102718715
  0
ARC
  5
118
330
E7
100
AcDbEntity
  8
$DDT_AUDIT_GENERATED_(93)
  6
Continuous
 62
     7
100
AcDbCircle
 10
120.257856039
 20
125.450000841
 30
0.0
 40
8.820000524890718
100
AcDbArc
 50
269.9999763465
 51
306.0279550072
  0
ARC
  5
119
330
E7
100
AcDbEntity
  8
$DDT_AUDIT_GENERATED_(93)
  6
Continuous
 62
     7
100
AcDbCircle
 10
120.2578529223
 20
125.4500006505
 30
0.0
 40
8.820000334435443
100
AcDbArc
 50
233.9685126918
 51
269.9999965927
  0
ARC
  5
11A
330
E7
100
AcDbEntity
  8
$DDT_AUDIT_GENERATED_(93)
  6
Continuous
 62
     7
100
AcDbCircle
 10
120.2605231855
 20
145.3494066807
 30
0.0
 40
8.822736507825288
100
AcDbArc
 50
152.4897159745
 51
179.9950624477
  0
ARC
  5
11B
330
E7
100
AcDbEntity
  8
$DDT_AUDIT_GENERATED_(93)
  6
Continuous
 62
     7
100
AcDbCircle
 10
120.256664367
 20
145.3512905699
 30
0.0
 40
8.818257208420125
100
AcDbArc
 50
126.0301808969
 51
152.4859335435
  0
ARC
  5
11C
330
E7
100
AcDbEntity
  8
$DDT_AUDIT_GENERATED_(93)
  6
Continuous
 62
     7
100
AcDbCircle
 10
120.257798638
 20
145.3501153709
 30
0.0
 40
8.819874794365761
100
AcDbArc
 50
89.9998642665
 51
126.0316492219
  0
ARC
  5
11D
330
E7
100
AcDbEntity
  8
$DDT_AUDIT_GENERATED_(93)
  6
Continuous
 62
     7
100
AcDbCircle
 10
120.2579168625
 20
145.3501153839
 30
0.0
 40
8.819874781885595
100
AcDbArc
 50
53.9718023924
 51
90.000632278
  0
LINE
  5
11E
330
E7
100
AcDbEntity
  8
$DDT_AUDIT_GENERATED_(93)
  6
Continuous
 62
     7
100
AcDbLine
 10
128.7578512603
 20
127.15
 30
0.0
 11
129.0778584959
 21
127.15
 31
0.0
  0
LINE
  5
11F
330
E7
100
AcDbEntity
  8
$DDT_AUDIT_GENERATED_(93)
  6
Continuous
 62
     7
100
AcDbLine
 10
114.7578582208
 20
118.5548962212
 30
0.0
 11
114.7578582208
 21
118.9967267241
 31
0.0
  0
LINE
  5
120
330
E7
100
AcDbEntity
  8
$DDT_AUDIT_GENERATED_(93)
  6
Continuous
 62
     7
100
AcDbLine
 10
125.7578582208
 20
119.0005213458
 30
0.0
 11
125.7578582208
 21
118.5549021603
 31
0.0
  0
LINE
  5
121
330
E7
100
AcDbEntity
  8
$DDT_AUDIT_GENERATED_(93)
  6
Continuous
 62
     7
100
AcDbLine
 10
111.4342698311
 20
127.15
 30
0.0
 11
111.7578512603
 21
127.15
 31
0.0
  0
LINE
  5
122
330
E7
100
AcDbEntity
  8
$DDT_AUDIT_GENERATED_(93)
  6
Continuous
 62
     7
100
AcDbLine
 10
145.0450415245
 20
106.6572494833
 30
0.0
 11
95.4706326283
 21
106.6572504763
 31
0.0
  0
ARC
  5
123
330
E7
100
AcDbEntity
  8
$DDT_AUDIT_GENERATED_(93)
  6
Continuous
 62
     7
100
AcDbCircle
 10
146.3078629219
 20
163.15
 30
0.0
 40
0.1999999999999988
100
AcDbArc
 50
0.0
 51
90.0
  0
ARC
  5
124
330
E7
100
AcDbEntity
  8
$DDT_AUDIT_GENERATED_(93)
  6
Continuous
 62
     7
100
AcDbCircle
 10
94.207813525
 20
163.15
 30
0.0
 40
0.1999999999999919
100
AcDbArc
 50
90.0
 51
180.0
  0
LINE
  5
125
330
E7
100
AcDbEntity
  8
$DDT_AUDIT_GENERATED_(93)
  6
Continuous
 62
     7
100
AcDbLine
 10
94.007813525
 20
163.15
 30
0.0
 11
94.007813525
 21
108.1567896002
 31
0.0
  0
LINE
  5
126
330
E7
100
AcDbEntity
  8
$DDT_AUDIT_GENERATED_(93)
  6
Continuous
 62
     7
100
AcDbLine
 10
146.5078629219
 20
108.1567886093
 30
0.0
 11
146.5078629219
 21
163.15
 31
0.0
  0
ARC
  5
127
330
E7
100
AcDbEntity
  8
$DDT_AUDIT_GENERATED_(93)
  6
Continuous
 62
     7
100
AcDbCircle
 10
120.2578582208
 20
1106.35
 30
0.0
 40
1000.0
100
AcDbArc
 50
268.5804478576
 51
271.42003741
  0
ARC
  5
128
330
E7
100
AcDbEntity
  8
$DDT_AUDIT_GENERATED_(93)
  6
Continuous
 62
     7
100
AcDbCircle
 10
145.0078629205
 20
108.1567886089
 30
0.0
 40
1.499999999911401
100
AcDbArc
 50
269.9999967509
 51
0.1303683906
  0
ARC
  5
129
330
E7
100
AcDbEntity
  8
$DDT_AUDIT_GENERATED_(93)
  6
Continuous
 62
     7
100
AcDbCircle
 10
95.507813525
 20
108.1567896006
 30
0.0
 40
1.49999999999996
100
AcDbArc
 50
179.8879016509
 51
269.9999988527
  0
LINE
  5
12A
330
E7
100
AcDbEntity
  8
$DDT_AUDIT_GENERATED_(97)
  6
Continuous
 62
     7
100
AcDbLine
 10
128.7578512603
 20
145.3499968323
 30
0.0
 11
128.7578512603
 21
125.4499997017
 31
0.0
  0
ARC
  5
12B
330
E7
100
AcDbEntity
  8
$DDT_AUDIT_GENERATED_(97)
  6
Continuous
 62
     7
100
AcDbCircle
 10
120.257854498
 20
145.3499981896
 30
0.0
 40
8.500003998797977
100
AcDbArc
 50
0.0
 51
180.0000305013
  0
ARC
  5
12C
330
E7
100
AcDbEntity
  8
$DDT_AUDIT_GENERATED_(97)
  6
Continuous
 62
     7
100
AcDbCircle
 10
120.257854498
 20
125.4500025262
 30
0.0
 40
8.500003998794414
100
AcDbArc
 50
179.9999763347
 51
359.9999809606
  0
LINE
  5
12D
330
E7
100
AcDbEntity
  8
$DDT_AUDIT_GENERATED_(97)
  6
Continuous
 62
     7
100
AcDbLine
 10
111.7578504992
 20
125.450006037
 30
0.0
 11
111.7578504992
 21
145.3499936646
 31
0.0
  0
LINE
  5
12E
330
E7
100
AcDbEntity
  8
$DDT_AUDIT_GENERATED_(97)
  6
Continuous
 62
     7
100
AcDbLine
 10
115.2578582208
 20
118.207281905
 30
0.0
 11
115.2578582208
 21
118.4750405028
 31
0.0
  0
LINE
  5
12F
330
E7
100
AcDbEntity
  8
$DDT_AUDIT_GENERATED_(97)
  6
Continuous
 62
     7
100
AcDbLine
 10
125.2578582208
 20
118.4750412262
 30
0.0
 11
125.2578582208
 21
118.1958906777
 31
0.0
  0
ARC
  5
130
330
E7
100
AcDbEntity
  8
$DDT_AUDIT_GENERATED_(97)
  6
Continuous
 62
     7
100
AcDbCircle
 10
115.0578582208
 20
118.4750405028
 30
0.0
 40
0.1999999999999997
100
AcDbArc
 50
0.0
 51
53.2946118404
  0
ARC
  5
131
330
E7
100
AcDbEntity
  8
$DDT_AUDIT_GENERATED_(97)
  6
Continuous
 62
     7
100
AcDbCircle
 10
125.4578582208
 20
118.4750412262
 30
0.0
 40
0.2000000000000034
100
AcDbArc
 50
126.7053961301
 51
180.0
  0
LINE
  5
132
330
E7
100
AcDbEntity
  8
$DDT_AUDIT_GENERATED_(97)
  6
Continuous
 62
     7
100
AcDbLine
 10
112.0226255002
 20
147.3341245805
 30
0.0
 11
111.6639900316
 21
147.3341245805
 31
0.0
  0
LINE
  5
133
330
E7
100
AcDbEntity
  8
$DDT_AUDIT_GENERATED_(97)
  6
Continuous
 62
     7
100
AcDbLine
 10
111.4378508986
 20
144.365878744
 30
0.0
 11
111.7578504992
 21
144.365878744
 31
0.0
  0
LINE
  5
134
330
E7
100
AcDbEntity
  8
$DDT_AUDIT_GENERATED_(97)
  6
Continuous
 62
     7
100
AcDbLine
 10
128.7578512603
 20
144.365878744
 30
0.0
 11
129.0778584964
 21
144.365878744
 31
0.0
  0
LINE
  5
135
330
E7
100
AcDbEntity
  8
$DDT_AUDIT_GENERATED_(97)
  6
Continuous
 62
     7
100
AcDbLine
 10
128.8467093329
 20
147.3341245805
 30
0.0
 11
128.4900091566
 21
147.3341245805
 31
0.0
  0
ENDBLK
  5
137
330
E7
100
AcDbEntity
  8
0
100
AcDbBlockEnd
  0
ENDSEC
  0
SECTION
  2
ENTITIES
  0
INSERT
  5
5F
330
1F
100
AcDbEntity
  8
Default
100
AcDbBlockReference
  2
SEANNOT_GROUP
 10
0.0
 20
0.0
 30
0.0
  0
INSERT
  5
6A
330
1F
100
AcDbEntity
  8
Default
100
AcDbBlockReference
  2
SEANNOT_GROUP1
 10
0.0
 20
0.0
 30
0.0
  0
INSERT
  5
70
330
1F
100
AcDbEntity
  8
Default
100
AcDbBlockReference
  2
SEANNOT_GROUP2
 10
0.0
 20
0.0
 30
0.0
  0
INSERT
  5
76
330
1F
100
AcDbEntity
  8
Default
100
AcDbBlockReference
  2
SE
 10
0.0
 20
0.0
 30
0.0
  0
INSERT
  5
9C
330
1F
100
AcDbEntity
  8
Default
100
AcDbBlockReference
  2
SE1
 10
0.0
 20
0.0
 30
0.0
  0
INSERT
  5
E8
330
1F
100
AcDbEntity
  8
Default
100
AcDbBlockReference
  2
SE2
 10
0.0
 20
0.0
 30
0.0
  0
TEXT
  5
139
330
1F
100
AcDbEntity
  8
Default
  6
Continuous
 62
     7
100
AcDbText
 10
5.9362635081
 20
53.4225120485
 30
0.0
 40
10.0
  1
Grohe AG^J
  7
SEACAD_seiso_ttf
 11
5.9362635081
 21
63.4225120485
 31
0.0
100
AcDbText
 73
     3
  0
TEXT
  5
13A
330
1F
100
AcDbEntity
  8
Default
  6
Continuous
 62
     7
100
AcDbText
 10
5.9362635081
 20
37.0588756849
 30
0.0
 40
10.0
  1
 
  7
SEACAD_seiso_ttf
 11
5.9362635081
 21
47.0588756849
 31
0.0
100
AcDbText
 73
     3
  0
TEXT
  5
13B
330
1F
100
AcDbEntity
  8
Default
  6
Continuous
 62
     7
100
AcDbText
 10
5.9362635081
 20
20.6952393213
 30
0.0
 40
10.0
  1
ecn: 
  7
SEACAD_seiso_ttf
 11
5.9362635081
 21
30.6952393213
 31
0.0
100
AcDbText
 73
     3
  0
TEXT
  5
13C
330
1F
100
AcDbEntity
  8
Default
  6
Continuous
 62
     7
100
AcDbText
 10
5.9362635081
 20
4.3316029576
 30
0.0
 40
10.0
  1
unit: mm
  7
SEACAD_seiso_ttf
 11
5.9362635081
 21
14.3316029576
 31
0.0
100
AcDbText
 73
     3
  0
LINE
  5
13D
330
1F
100
AcDbEntity
  8
Default
  6
Continuous
 62
     7
100
AcDbLine
 10
0.0
 20
0.0
 30
0.0
 11
100.0
 21
0.0
 31
0.0
  0
LINE
  5
13E
330
1F
100
AcDbEntity
  8
Default
  6
Continuous
 62
     7
100
AcDbLine
 10
0.0
 20
0.0
 30
0.0
 11
0.0
 21
100.0
 31
0.0
  0
TEXT
  5
13F
330
1F
100
AcDbEntity
  8
Default
  6
Continuous
 62
     7
100
AcDbText
 10
24.3923665681
 20
-18.2375342018
 30
0.0
 40
10.0
  1
100 mm
  7
SEACAD_seiso_ttf
 11
24.3923665681
 21
-8.2375342018
 31
0.0
100
AcDbText
 73
     3
  0
TEXT
  5
140
330
1F
100
AcDbEntity
  8
Default
  6
Continuous
 62
     7
100
AcDbText
 10
-7.6150308803
 20
24.6231930421
 30
0.0
 40
10.0
  1
100 mm
 50
90.0
  7
SEACAD_seiso_ttf
 11
-17.6150308803
 21
24.6231930421
 31
0.0
100
AcDbText
 73
     3
  0
TEXT
  5
141
330
1F
100
AcDbEntity
  8
Default
  6
Continuous
 62
     7
100
AcDbText
 10
28.4878128572
 20
20.0907663715
 30
0.0
 40
10.0
  1
213840
  7
SEACAD_seiso_ttf
 11
28.4878128572
 21
30.0907663715
 31
0.0
100
AcDbText
 73
     3
  0
TEXT
  5
142
330
1F
100
AcDbEntity
  8
Default
  6
Continuous
 62
     7
100
AcDbText
 10
5.9012241913
 20
36.7242780188
 30
0.0
 40
10.0
  1
19469000
  7
SEACAD_seiso_ttf
 11
5.9012241913
 21
46.7242780188
 31
0.0
100
AcDbText
 73
     3
  0
ENDSEC
  0
SECTION
  2
OBJECTS
  0
DICTIONARY
  5
C
330
0
100
AcDbDictionary
281
     1
  3
ACAD_GROUP
350
D
  3
ACAD_LAYOUT
350
1A
  3
ACAD_MLEADERSTYLE
350
146
  3
ACAD_MLINESTYLE
350
17
  3
ACAD_PLOTSETTINGS
350
19
  3
ACAD_PLOTSTYLENAME
350
E
  3
ACAD_SCALELIST
350
3B
  3
ACAD_TABLESTYLE
350
145
  3
ACAD_VISUALSTYLE
350
2A
  3
AcDbVariableDictionary
350
143
  0
DICTIONARY
  5
D
102
{ACAD_REACTORS
330
C
102
}
330
C
100
AcDbDictionary
281
     1
  0
DICTIONARY
  5
1A
102
{ACAD_REACTORS
330
C
102
}
330
C
100
AcDbDictionary
281
     1
  3
Layout1
350
1E
  3
Model
350
22
  0
DICTIONARY
  5
146
102
{ACAD_REACTORS
330
C
102
}
330
C
100
AcDbDictionary
281
     1
  0
DICTIONARY
  5
17
102
{ACAD_REACTORS
330
C
102
}
330
C
100
AcDbDictionary
281
     1
  3
Standard
350
18
  0
DICTIONARY
  5
19
102
{ACAD_REACTORS
330
C
102
}
330
C
100
AcDbDictionary
281
     1
  0
ACDBDICTIONARYWDFLT
  5
E
102
{ACAD_REACTORS
330
C
102
}
330
C
100
AcDbDictionary
281
     1
  3
Normal
350
F
100
AcDbDictionaryWithDefault
340
F
  0
DICTIONARY
  5
3B
102
{ACAD_REACTORS
330
C
102
}
330
C
100
AcDbDictionary
281
     1
  3
A0
350
3C
  3
A1
350
3D
  3
A2
350
3E
  3
A3
350
3F
  3
A4
350
40
  3
A5
350
41
  3
A6
350
42
  3
A7
350
43
  3
A8
350
44
  3
A9
350
45
  3
B0
350
46
  3
B1
350
47
  3
B2
350
48
  3
B3
350
49
  3
B4
350
4A
  3
B5
350
4B
  3
B6
350
4C
  3
B7
350
4D
  3
B8
350
4E
  3
B9
350
4F
  3
C0
350
50
  3
C1
350
51
  3
C2
350
52
  3
C3
350
53
  3
C4
350
54
  3
C5
350
55
  3
C6
350
56
  3
C7
350
57
  3
C8
350
58
  3
C9
350
59
  3
D0
350
5A
  3
D1
350
5B
  3
D2
350
5C
  0
DICTIONARY
  5
145
102
{ACAD_REACTORS
330
C
102
}
330
C
100
AcDbDictionary
281
     1
  0
DICTIONARY
  5
2A
102
{ACAD_REACTORS
330
C
102
}
330
C
100
AcDbDictionary
281
     1
  3
2dWireframe
350
2F
  3
3D Hidden
350
31
  3
3dWireframe
350
30
  3
Basic
350
32
  3
Brighten
350
36
  3
ColorChange
350
3A
  3
Conceptual
350
34
  3
Dim
350
35
  3
Facepattern
350
39
  3
Flat
350
2B
  3
FlatWithEdges
350
2C
  3
Gouraud
350
2D
  3
GouraudWithEdges
350
2E
  3
Linepattern
350
38
  3
Realistic
350
33
  3
Thicken
350
37
  0
DICTIONARY
  5
143
102
{ACAD_REACTORS
330
C
102
}
330
C
100
AcDbDictionary
281
     1
  3
CANNOSCALE
350
144
  3
PSOLHEIGHT
350
148
  3
PSOLWIDTH
350
147
  0
LAYOUT
  5
1E
102
{ACAD_REACTORS
330
1A
102
}
330
1A
100
AcDbPlotSettings
  1

  2
none_device
  4

  6

 40
0.0
 41
0.0
 42
0.0
 43
0.0
 44
0.0
 45
0.0
 46
0.0
 47
0.0
 48
0.0
 49
0.0
140
0.0
141
0.0
142
1.0
143
1.0
 70
   688
 72
     0
 73
     0
 74
     5
  7

 75
    16
147
1.0
148
0.0
149
0.0
100
AcDbLayout
  1
Layout1
 70
     1
 71
     1
 10
0.0
 20
0.0
 11
1682.0
 21
2378.0
 12
0.0
 22
0.0
 32
0.0
 14
0.0
 24
0.0
 34
0.0
 15
1682.0
 25
2378.0
 35
0.0
146
0.0
 13
0.0
 23
0.0
 33
0.0
 16
1.0
 26
0.0
 36
0.0
 17
0.0
 27
1.0
 37
0.0
 76
     0
330
1B
  0
LAYOUT
  5
22
102
{ACAD_REACTORS
330
1A
102
}
330
1A
100
AcDbPlotSettings
  1

  2
none_device
  4

  6

 40
0.0
 41
0.0
 42
0.0
 43
0.0
 44
0.0
 45
0.0
 46
0.0
 47
0.0
 48
0.0
 49
0.0
140
0.0
141
0.0
142
1.0
143
1.0
 70
  1712
 72
     0
 73
     0
 74
     0
  7

 75
     0
147
1.0
148
0.0
149
0.0
100
AcDbLayout
  1
Model
 70
     1
 71
     0
 10
0.0
 20
0.0
 11
1682.0
 21
2378.0
 12
0.0
 22
0.0
 32
0.0
 14
0.0
 24
0.0
 34
0.0
 15
1682.0
 25
2378.0
 35
0.0
146
0.0
 13
0.0
 23
0.0
 33
0.0
 16
1.0
 26
0.0
 36
0.0
 17
0.0
 27
1.0
 37
0.0
 76
     0
330
1F
331
29
  0
MLINESTYLE
  5
18
102
{ACAD_REACTORS
330
17
102
}
330
17
100
AcDbMlineStyle
  2
Standard
 70
     0
  3

 62
   256
 51
90.0
 52
90.0
 71
     2
 49
0.5
 62
   256
  6
BYLAYER
 49
-0.5
 62
   256
  6
BYLAYER
  0
ACDBPLACEHOLDER
  5
F
102
{ACAD_REACTORS
330
E
102
}
330
E
  0
SCALE
  5
3C
102
{ACAD_REACTORS
330
3B
102
}
330
3B
100
AcDbScale
 70
     0
300
1:1
140
1.0
141
1.0
290
     1
  0
SCALE
  5
3D
102
{ACAD_REACTORS
330
3B
102
}
330
3B
100
AcDbScale
 70
     0
300
1:2
140
1.0
141
2.0
290
     0
  0
SCALE
  5
3E
102
{ACAD_REACTORS
330
3B
102
}
330
3B
100
AcDbScale
 70
     0
300
1:4
140
1.0
141
4.0
290
     0
  0
SCALE
  5
3F
102
{ACAD_REACTORS
330
3B
102
}
330
3B
100
AcDbScale
 70
     0
300
1:5
140
1.0
141
5.0
290
     0
  0
SCALE
  5
40
102
{ACAD_REACTORS
330
3B
102
}
330
3B
100
AcDbScale
 70
     0
300
1:8
140
1.0
141
8.0
290
     0
  0
SCALE
  5
41
102
{ACAD_REACTORS
330
3B
102
}
330
3B
100
AcDbScale
 70
     0
300
1:10
140
1.0
141
10.0
290
     0
  0
SCALE
  5
42
102
{ACAD_REACTORS
330
3B
102
}
330
3B
100
AcDbScale
 70
     0
300
1:16
140
1.0
141
16.0
290
     0
  0
SCALE
  5
43
102
{ACAD_REACTORS
330
3B
102
}
330
3B
100
AcDbScale
 70
     0
300
1:20
140
1.0
141
20.0
290
     0
  0
SCALE
  5
44
102
{ACAD_REACTORS
330
3B
102
}
330
3B
100
AcDbScale
 70
     0
300
1:30
140
1.0
141
30.0
290
     0
  0
SCALE
  5
45
102
{ACAD_REACTORS
330
3B
102
}
330
3B
100
AcDbScale
 70
     0
300
1:40
140
1.0
141
40.0
290
     0
  0
SCALE
  5
46
102
{ACAD_REACTORS
330
3B
102
}
330
3B
100
AcDbScale
 70
     0
300
1:50
140
1.0
141
50.0
290
     0
  0
SCALE
  5
47
102
{ACAD_REACTORS
330
3B
102
}
330
3B
100
AcDbScale
 70
     0
300
1:100
140
1.0
141
100.0
290
     0
  0
SCALE
  5
48
102
{ACAD_REACTORS
330
3B
102
}
330
3B
100
AcDbScale
 70
     0
300
2:1
140
2.0
141
1.0
290
     0
  0
SCALE
  5
49
102
{ACAD_REACTORS
330
3B
102
}
330
3B
100
AcDbScale
 70
     0
300
4:1
140
4.0
141
1.0
290
     0
  0
SCALE
  5
4A
102
{ACAD_REACTORS
330
3B
102
}
330
3B
100
AcDbScale
 70
     0
300
8:1
140
8.0
141
1.0
290
     0
  0
SCALE
  5
4B
102
{ACAD_REACTORS
330
3B
102
}
330
3B
100
AcDbScale
 70
     0
300
10:1
140
10.0
141
1.0
290
     0
  0
SCALE
  5
4C
102
{ACAD_REACTORS
330
3B
102
}
330
3B
100
AcDbScale
 70
     0
300
100:1
140
100.0
141
1.0
290
     0
  0
SCALE
  5
4D
102
{ACAD_REACTORS
330
3B
102
}
330
3B
100
AcDbScale
 70
     0
300
1/128" = 1'-0"
140
0.0078125
141
12.0
290
     0
  0
SCALE
  5
4E
102
{ACAD_REACTORS
330
3B
102
}
330
3B
100
AcDbScale
 70
     0
300
1/64" = 1'-0"
140
0.015625
141
12.0
290
     0
  0
SCALE
  5
4F
102
{ACAD_REACTORS
330
3B
102
}
330
3B
100
AcDbScale
 70
     0
300
1/32" = 1'-0"
140
0.03125
141
12.0
290
     0
  0
SCALE
  5
50
102
{ACAD_REACTORS
330
3B
102
}
330
3B
100
AcDbScale
 70
     0
300
1/16" = 1'-0"
140
0.0625
141
12.0
290
     0
  0
SCALE
  5
51
102
{ACAD_REACTORS
330
3B
102
}
330
3B
100
AcDbScale
 70
     0
300
3/32" = 1'-0"
140
0.09375
141
12.0
290
     0
  0
SCALE
  5
52
102
{ACAD_REACTORS
330
3B
102
}
330
3B
100
AcDbScale
 70
     0
300
1/8" = 1'-0"
140
0.125
141
12.0
290
     0
  0
SCALE
  5
53
102
{ACAD_REACTORS
330
3B
102
}
330
3B
100
AcDbScale
 70
     0
300
3/16" = 1'-0"
140
0.1875
141
12.0
290
     0
  0
SCALE
  5
54
102
{ACAD_REACTORS
330
3B
102
}
330
3B
100
AcDbScale
 70
     0
300
1/4" = 1'-0"
140
0.25
141
12.0
290
     0
  0
SCALE
  5
55
102
{ACAD_REACTORS
330
3B
102
}
330
3B
100
AcDbScale
 70
     0
300
3/8" = 1'-0"
140
0.375
141
12.0
290
     0
  0
SCALE
  5
56
102
{ACAD_REACTORS
330
3B
102
}
330
3B
100
AcDbScale
 70
     0
300
1/2" = 1'-0"
140
0.5
141
12.0
290
     0
  0
SCALE
  5
57
102
{ACAD_REACTORS
330
3B
102
}
330
3B
100
AcDbScale
 70
     0
300
3/4" = 1'-0"
140
0.75
141
12.0
290
     0
  0
SCALE
  5
58
102
{ACAD_REACTORS
330
3B
102
}
330
3B
100
AcDbScale
 70
     0
300
1" = 1'-0"
140
1.0
141
12.0
290
     0
  0
SCALE
  5
59
102
{ACAD_REACTORS
330
3B
102
}
330
3B
100
AcDbScale
 70
     0
300
1-1/2" = 1'-0"
140
1.5
141
12.0
290
     0
  0
SCALE
  5
5A
102
{ACAD_REACTORS
330
3B
102
}
330
3B
100
AcDbScale
 70
     0
300
3" = 1'-0"
140
3.0
141
12.0
290
     0
  0
SCALE
  5
5B
102
{ACAD_REACTORS
330
3B
102
}
330
3B
100
AcDbScale
 70
     0
300
6" = 1'-0"
140
6.0
141
12.0
290
     0
  0
SCALE
  5
5C
102
{ACAD_REACTORS
330
3B
102
}
330
3B
100
AcDbScale
 70
     0
300
1'-0" = 1'-0"
140
12.0
141
12.0
290
     0
  0
VISUALSTYLE
  5
2F
102
{ACAD_REACTORS
330
2A
102
}
330
2A
100
AcDbVisualStyle
  2
2dWireframe
 70
     4
 71
     0
 72
     2
 73
     0
 90
        0
 40
-0.6
 41
-30.0
 62
     5
 63
     7
 74
     1
 91
        4
 64
     7
 65
   257
 75
     1
175
     1
 42
1.0
 92
        0
 66
   257
 43
1.0
 76
     1
 77
     6
 78
     2
 67
     7
 79
     5
170
     0
171
     0
290
     0
174
     0
 93
        1
 44
0.0
173
     0
291
     0
 45
0.0
1001
ACAD
1000
AcDbSavedByObjectVersion
1070
     0
  0
VISUALSTYLE
  5
31
102
{ACAD_REACTORS
330
2A
102
}
330
2A
100
AcDbVisualStyle
  2
3D Hidden
 70
     6
 71
     1
 72
     2
 73
     2
 90
        0
 40
-0.6
 41
-30.0
 62
     5
 63
     7
 74
     2
 91
        2
 64
     7
 65
   257
 75
     2
175
     1
 42
40.0
 92
        0
 66
   257
 43
1.0
 76
     1
 77
     6
 78
     2
 67
     7
 79
     3
170
     0
171
     0
290
     0
174
     0
 93
        1
 44
0.0
173
     0
291
     0
 45
0.0
1001
ACAD
1000
AcDbSavedByObjectVersion
1070
     0
  0
VISUALSTYLE
  5
30
102
{ACAD_REACTORS
330
2A
102
}
330
2A
100
AcDbVisualStyle
  2
3dWireframe
 70
     5
 71
     0
 72
     2
 73
     0
 90
        0
 40
-0.6
 41
-30.0
 62
     5
 63
     7
 74
     1
 91
        4
 64
     7
 65
   257
 75
     1
175
     1
 42
1.0
 92
        0
 66
   257
 43
1.0
 76
     1
 77
     6
 78
     2
 67
     7
 79
     5
170
     0
171
     0
290
     0
174
     0
 93
        1
 44
0.0
173
     0
291
     0
 45
0.0
1001
ACAD
1000
AcDbSavedByObjectVersion
1070
     0
  0
VISUALSTYLE
  5
32
102
{ACAD_REACTORS
330
2A
102
}
330
2A
100
AcDbVisualStyle
  2
Basic
 70
     7
 71
     1
 72
     0
 73
     1
 90
        0
 40
-0.6
 41
-30.0
 62
     5
 63
     7
 74
     0
 91
        4
 64
     7
 65
   257
 75
     1
175
     1
 42
1.0
 92
        8
 66
     7
 43
1.0
 76
     1
 77
     6
 78
     2
 67
     7
 79
     5
170
     0
171
     0
290
     0
174
     0
 93
        1
 44
0.0
173
     0
291
     1
 45
0.0
1001
ACAD
1000
AcDbSavedByObjectVersion
1070
     0
  0
VISUALSTYLE
  5
36
102
{ACAD_REACTORS
330
2A
102
}
330
2A
100
AcDbVisualStyle
  2
Brighten
 70
    12
 71
     2
 72
     2
 73
     0
 90
        0
 40
-0.6
 41
-30.0
 62
     5
 63
     7
 74
     1
 91
        4
 64
     7
 65
   257
 75
     1
175
     1
 42
1.0
 92
        8
 66
     7
 43
1.0
 76
     1
 77
     6
 78
     2
 67
     7
 79
     5
170
     0
171
     0
290
     0
174
     0
 93
        1
 44
50.0
173
     0
291
     1
 45
0.0
1001
ACAD
1000
AcDbSavedByObjectVersion
1070
     0
  0
VISUALSTYLE
  5
3A
102
{ACAD_REACTORS
330
2A
102
}
330
2A
100
AcDbVisualStyle
  2
ColorChange
 70
    16
 71
     2
 72
     2
 73
     3
 90
        0
 40
-0.6
 41
-30.0
 62
     5
 63
     8
 74
     1
 91
        4
 64
     7
 65
   257
 75
     1
175
     1
 42
1.0
 92
        8
 66
     8
 43
1.0
 76
     1
 77
     6
 78
     2
 67
     7
 79
     5
170
     0
171
     0
290
     0
174
     0
 93
        1
 44
0.0
173
     0
291
     1
 45
0.0
1001
ACAD
1000
AcDbSavedByObjectVersion
1070
     0
  0
VISUALSTYLE
  5
34
102
{ACAD_REACTORS
330
2A
102
}
330
2A
100
AcDbVisualStyle
  2
Conceptual
 70
     9
 71
     3
 72
     2
 73
     0
 90
        0
 40
-0.6
 41
-30.0
 62
     5
 63
     7
 74
     2
 91
        2
 64
     7
 65
   257
 75
     1
175
     1
 42
40.0
 92
        8
 66
     7
 43
1.0
 76
     1
 77
     6
 78
     2
 67
     7
 79
     3
170
     0
171
     0
290
     0
174
     0
 93
        1
 44
0.0
173
     0
291
     0
 45
0.0
1001
ACAD
1000
AcDbSavedByObjectVersion
1070
     0
  0
VISUALSTYLE
  5
35
102
{ACAD_REACTORS
330
2A
102
}
330
2A
100
AcDbVisualStyle
  2
Dim
 70
    11
 71
     2
 72
     2
 73
     0
 90
        0
 40
-0.6
 41
-30.0
 62
     5
 63
     7
 74
     1
 91
        4
 64
     7
 65
   257
 75
     1
175
     1
 42
1.0
 92
        8
 66
     7
 43
1.0
 76
     1
 77
     6
 78
     2
 67
     7
 79
     5
170
     0
171
     0
290
     0
174
     0
 93
        1
 44
-50.0
173
     0
291
     1
 45
0.0
1001
ACAD
1000
AcDbSavedByObjectVersion
1070
     0
  0
VISUALSTYLE
  5
39
102
{ACAD_REACTORS
330
2A
102
}
330
2A
100
AcDbVisualStyle
  2
Facepattern
 70
    15
 71
     2
 72
     2
 73
     0
 90
        0
 40
-0.6
 41
-30.0
 62
     5
 63
     7
 74
     1
 91
        4
 64
     7
 65
   257
 75
     1
175
     1
 42
1.0
 92
        8
 66
     7
 43
1.0
 76
     1
 77
     6
 78
     2
 67
     7
 79
     5
170
     0
171
     0
290
     0
174
     0
 93
        1
 44
0.0
173
     0
291
     1
 45
0.0
1001
ACAD
1000
AcDbSavedByObjectVersion
1070
     0
  0
VISUALSTYLE
  5
2B
102
{ACAD_REACTORS
330
2A
102
}
330
2A
100
AcDbVisualStyle
  2
Flat
 70
     0
 71
     2
 72
     1
 73
     1
 90
        2
 40
-0.6
 41
30.0
 62
     5
 63
     7
 74
     0
 91
        4
 64
     7
 65
   257
 75
     1
175
     1
 42
1.0
 92
        8
 66
     7
 43
1.0
 76
     1
 77
     6
 78
     2
 67
     7
 79
     5
170
     0
171
     0
290
     0
174
     0
 93
       13
 44
0.0
173
     0
291
     1
 45
0.0
1001
ACAD
1000
AcDbSavedByObjectVersion
1070
     0
  0
VISUALSTYLE
  5
2C
102
{ACAD_REACTORS
330
2A
102
}
330
2A
100
AcDbVisualStyle
  2
FlatWithEdges
 70
     1
 71
     2
 72
     1
 73
     1
 90
        2
 40
-0.6
 41
30.0
 62
     5
 63
     7
 74
     1
 91
        4
 64
     7
 65
   257
 75
     1
175
     1
 42
1.0
 92
        0
 66
   257
 43
1.0
 76
     1
 77
     6
 78
     2
 67
     7
 79
     5
170
     0
171
     0
290
     0
174
     0
 93
       13
 44
0.0
173
     0
291
     1
 45
0.0
1001
ACAD
1000
AcDbSavedByObjectVersion
1070
     0
  0
VISUALSTYLE
  5
2D
102
{ACAD_REACTORS
330
2A
102
}
330
2A
100
AcDbVisualStyle
  2
Gouraud
 70
     2
 71
     2
 72
     2
 73
     1
 90
        2
 40
-0.6
 41
30.0
 62
     5
 63
     7
 74
     0
 91
        4
 64
     7
 65
   257
 75
     1
175
     1
 42
1.0
 92
        0
 66
     7
 43
1.0
 76
     1
 77
     6
 78
     2
 67
     7
 79
     5
170
     0
171
     0
290
     0
174
     0
 93
       13
 44
0.0
173
     0
291
     1
 45
0.0
1001
ACAD
1000
AcDbSavedByObjectVersion
1070
     0
  0
VISUALSTYLE
  5
2E
102
{ACAD_REACTORS
330
2A
102
}
330
2A
100
AcDbVisualStyle
  2
GouraudWithEdges
 70
     3
 71
     2
 72
     2
 73
     1
 90
        2
 40
-0.6
 41
30.0
 62
     5
 63
     7
 74
     1
 91
        4
 64
     7
 65
   257
 75
     1
175
     1
 42
1.0
 92
        0
 66
   257
 43
1.0
 76
     1
 77
     6
 78
     2
 67
     7
 79
     5
170
     0
171
     0
290
     0
174
     0
 93
       13
 44
0.0
173
     0
291
     1
 45
0.0
1001
ACAD
1000
AcDbSavedByObjectVersion
1070
     0
  0
VISUALSTYLE
  5
38
102
{ACAD_REACTORS
330
2A
102
}
330
2A
100
AcDbVisualStyle
  2
Linepattern
 70
    14
 71
     2
 72
     2
 73
     0
 90
        0
 40
-0.6
 41
-30.0
 62
     5
 63
     7
 74
     1
 91
        4
 64
     7
 65
   257
 75
     7
175
     7
 42
1.0
 92
        8
 66
     7
 43
1.0
 76
     1
 77
     6
 78
     2
 67
     7
 79
     5
170
     0
171
     0
290
     0
174
     0
 93
        1
 44
0.0
173
     0
291
     1
 45
0.0
1001
ACAD
1000
AcDbSavedByObjectVersion
1070
     0
  0
VISUALSTYLE
  5
33
102
{ACAD_REACTORS
330
2A
102
}
330
2A
100
AcDbVisualStyle
  2
Realistic
 70
     8
 71
     2
 72
     2
 73
     0
 90
        0
 40
-0.6
 41
-30.0
 62
     5
 63
     7
 74
     1
 91
        0
 64
     7
 65
   257
 75
     1
175
     1
 42
1.0
 92
        8
 66
     8
 43
1.0
 76
     1
 77
     6
 78
     2
 67
     7
 79
     5
170
     0
171
     0
290
     0
174
     0
 93
       13
 44
0.0
173
     0
291
     0
 45
0.0
1001
ACAD
1000
AcDbSavedByObjectVersion
1070
     0
  0
VISUALSTYLE
  5
37
102
{ACAD_REACTORS
330
2A
102
}
330
2A
100
AcDbVisualStyle
  2
Thicken
 70
    13
 71
     2
 72
     2
 73
     0
 90
        0
 40
-0.6
 41
-30.0
 62
     5
 63
     7
 74
     1
 91
        4
 64
     7
 65
   257
 75
     1
175
     1
 42
1.0
 92
       12
 66
     7
 43
1.0
 76
     1
 77
     6
 78
     2
 67
     7
 79
     5
170
     0
171
     0
290
     0
174
     0
 93
        1
 44
0.0
173
     0
291
     1
 45
0.0
1001
ACAD
1000
AcDbSavedByObjectVersion
1070
     0
  0
DICTIONARYVAR
  5
144
102
{ACAD_REACTORS
330
143
102
}
330
143
100
DictionaryVariables
280
     0
  1
1:1
  0
DICTIONARYVAR
  5
148
102
{ACAD_REACTORS
330
143
102
}
330
143
100
DictionaryVariables
280
     0
  1
80.000000
  0
DICTIONARYVAR
  5
147
102
{ACAD_REACTORS
330
143
102
}
330
143
100
DictionaryVariables
280
     0
  1
5.000000
  0
ENDSEC
  0
EOF
