  0
SECTION
  2
HEADER
  9
$ACADVER
  1
AC1015
  9
$ACADMAINTVER
 70
     6
  9
$DWGCODEPAGE
  3
ANSI_1252
  9
$INSBASE
 10
0.0
 20
0.0
 30
0.0
  9
$EXTMIN
 10
0.0
 20
0.0
 30
0.0
  9
$EXTMAX
 10
1682.0
 20
2378.0
 30
0.0
  9
$LIMMIN
 10
0.0
 20
0.0
  9
$LIMMAX
 10
1682.0
 20
2378.0
  9
$ORTHOMODE
 70
     0
  9
$REGENMODE
 70
     1
  9
$FILLMODE
 70
     1
  9
$QTEXTMODE
 70
     0
  9
$MIRRTEXT
 70
     1
  9
$LTSCALE
 40
1.0
  9
$ATTMODE
 70
     1
  9
$TEXTSIZE
 40
2.5
  9
$TRACEWID
 40
1.0
  9
$TEXTSTYLE
  7
Standard
  9
$CLAYER
  8
0
  9
$CELTYPE
  6
ByLayer
  9
$CECOLOR
 62
   256
  9
$CELTSCALE
 40
1.0
  9
$DISPSILH
 70
     0
  9
$DIMSCALE
 40
1.0
  9
$DIMASZ
 40
2.5
  9
$DIMEXO
 40
0.625
  9
$DIMDLI
 40
3.75
  9
$DIMRND
 40
0.0
  9
$DIMDLE
 40
0.0
  9
$DIMEXE
 40
1.25
  9
$DIMTP
 40
0.0
  9
$DIMTM
 40
0.0
  9
$DIMTXT
 40
2.5
  9
$DIMCEN
 40
2.5
  9
$DIMTSZ
 40
0.0
  9
$DIMTOL
 70
     0
  9
$DIMLIM
 70
     0
  9
$DIMTIH
 70
     0
  9
$DIMTOH
 70
     0
  9
$DIMSE1
 70
     0
  9
$DIMSE2
 70
     0
  9
$DIMTAD
 70
     1
  9
$DIMZIN
 70
     8
  9
$DIMBLK
  1

  9
$DIMASO
 70
     1
  9
$DIMSHO
 70
     1
  9
$DIMPOST
  1

  9
$DIMAPOST
  1

  9
$DIMALT
 70
     0
  9
$DIMALTD
 70
     3
  9
$DIMALTF
 40
0.0393700787
  9
$DIMLFAC
 40
1.0
  9
$DIMTOFL
 70
     1
  9
$DIMTVP
 40
0.0
  9
$DIMTIX
 70
     0
  9
$DIMSOXD
 70
     0
  9
$DIMSAH
 70
     0
  9
$DIMBLK1
  1

  9
$DIMBLK2
  1

  9
$DIMSTYLE
  2
ISO-25
  9
$DIMCLRD
 70
     0
  9
$DIMCLRE
 70
     0
  9
$DIMCLRT
 70
     0
  9
$DIMTFAC
 40
1.0
  9
$DIMGAP
 40
0.625
  9
$DIMJUST
 70
     0
  9
$DIMSD1
 70
     0
  9
$DIMSD2
 70
     0
  9
$DIMTOLJ
 70
     0
  9
$DIMTZIN
 70
     8
  9
$DIMALTZ
 70
     0
  9
$DIMALTTZ
 70
     0
  9
$DIMUPT
 70
     0
  9
$DIMDEC
 70
     2
  9
$DIMTDEC
 70
     2
  9
$DIMALTU
 70
     2
  9
$DIMALTTD
 70
     3
  9
$DIMTXSTY
  7
Standard
  9
$DIMAUNIT
 70
     0
  9
$DIMADEC
 70
     0
  9
$DIMALTRND
 40
0.0
  9
$DIMAZIN
 70
     0
  9
$DIMDSEP
 70
    44
  9
$DIMATFIT
 70
     3
  9
$DIMFRAC
 70
     0
  9
$DIMLDRBLK
  1

  9
$DIMLUNIT
 70
     2
  9
$DIMLWD
 70
    -2
  9
$DIMLWE
 70
    -2
  9
$DIMTMOVE
 70
     0
  9
$LUNITS
 70
     2
  9
$LUPREC
 70
     4
  9
$SKETCHINC
 40
1.0
  9
$FILLETRAD
 40
10.0
  9
$AUNITS
 70
     0
  9
$AUPREC
 70
     0
  9
$MENU
  1
.
  9
$ELEVATION
 40
0.0
  9
$PELEVATION
 40
0.0
  9
$THICKNESS
 40
0.0
  9
$LIMCHECK
 70
     0
  9
$CHAMFERA
 40
10.0
  9
$CHAMFERB
 40
10.0
  9
$CHAMFERC
 40
20.0
  9
$CHAMFERD
 40
0.0
  9
$SKPOLY
 70
     0
  9
$TDCREATE
 40
2455510.593072026
  9
$TDUCREATE
 40
2455510.551405359
  9
$TDUPDATE
 40
2455510.593072037
  9
$TDUUPDATE
 40
2455510.55140537
  9
$TDINDWG
 40
0.0000000116
  9
$TDUSRTIMER
 40
0.0000000116
  9
$USRTIMER
 70
     1
  9
$ANGBASE
 50
0.0
  9
$ANGDIR
 70
     0
  9
$PDMODE
 70
     0
  9
$PDSIZE
 40
0.0
  9
$PLINEWID
 40
0.0
  9
$SPLFRAME
 70
     0
  9
$SPLINETYPE
 70
     6
  9
$SPLINESEGS
 70
     8
  9
$HANDSEED
  5
1F2
  9
$SURFTAB1
 70
     6
  9
$SURFTAB2
 70
     6
  9
$SURFTYPE
 70
     6
  9
$SURFU
 70
     6
  9
$SURFV
 70
     6
  9
$UCSBASE
  2

  9
$UCSNAME
  2

  9
$UCSORG
 10
0.0
 20
0.0
 30
0.0
  9
$UCSXDIR
 10
1.0
 20
0.0
 30
0.0
  9
$UCSYDIR
 10
0.0
 20
1.0
 30
0.0
  9
$UCSORTHOREF
  2

  9
$UCSORTHOVIEW
 70
     0
  9
$UCSORGTOP
 10
0.0
 20
0.0
 30
0.0
  9
$UCSORGBOTTOM
 10
0.0
 20
0.0
 30
0.0
  9
$UCSORGLEFT
 10
0.0
 20
0.0
 30
0.0
  9
$UCSORGRIGHT
 10
0.0
 20
0.0
 30
0.0
  9
$UCSORGFRONT
 10
0.0
 20
0.0
 30
0.0
  9
$UCSORGBACK
 10
0.0
 20
0.0
 30
0.0
  9
$PUCSBASE
  2

  9
$PUCSNAME
  2

  9
$PUCSORG
 10
0.0
 20
0.0
 30
0.0
  9
$PUCSXDIR
 10
1.0
 20
0.0
 30
0.0
  9
$PUCSYDIR
 10
0.0
 20
1.0
 30
0.0
  9
$PUCSORTHOREF
  2

  9
$PUCSORTHOVIEW
 70
     0
  9
$PUCSORGTOP
 10
0.0
 20
0.0
 30
0.0
  9
$PUCSORGBOTTOM
 10
0.0
 20
0.0
 30
0.0
  9
$PUCSORGLEFT
 10
0.0
 20
0.0
 30
0.0
  9
$PUCSORGRIGHT
 10
0.0
 20
0.0
 30
0.0
  9
$PUCSORGFRONT
 10
0.0
 20
0.0
 30
0.0
  9
$PUCSORGBACK
 10
0.0
 20
0.0
 30
0.0
  9
$USERI1
 70
     0
  9
$USERI2
 70
     0
  9
$USERI3
 70
     0
  9
$USERI4
 70
     0
  9
$USERI5
 70
     0
  9
$USERR1
 40
0.0
  9
$USERR2
 40
0.0
  9
$USERR3
 40
0.0
  9
$USERR4
 40
0.0
  9
$USERR5
 40
0.0
  9
$WORLDVIEW
 70
     1
  9
$SHADEDGE
 70
     3
  9
$SHADEDIF
 70
    70
  9
$TILEMODE
 70
     1
  9
$MAXACTVP
 70
    64
  9
$PINSBASE
 10
0.0
 20
0.0
 30
0.0
  9
$PLIMCHECK
 70
     0
  9
$PEXTMIN
 10
0.0
 20
0.0
 30
0.0
  9
$PEXTMAX
 10
1682.0
 20
2378.0
 30
0.0
  9
$PLIMMIN
 10
0.0
 20
0.0
  9
$PLIMMAX
 10
1682.0
 20
2378.0
  9
$UNITMODE
 70
     0
  9
$VISRETAIN
 70
     1
  9
$PLINEGEN
 70
     0
  9
$PSLTSCALE
 70
     1
  9
$TREEDEPTH
 70
  3020
  9
$CMLSTYLE
  2
Standard
  9
$CMLJUST
 70
     0
  9
$CMLSCALE
 40
20.0
  9
$PROXYGRAPHICS
 70
     1
  9
$MEASUREMENT
 70
     1
  9
$CELWEIGHT
370
    -1
  9
$ENDCAPS
280
     0
  9
$JOINSTYLE
280
     0
  9
$LWDISPLAY
290
     0
  9
$INSUNITS
 70
     4
  9
$HYPERLINKBASE
  1

  9
$STYLESHEET
  1

  9
$XEDIT
290
     1
  9
$CEPSNTYPE
380
     0
  9
$PSTYLEMODE
290
     1
  9
$FINGERPRINTGUID
  2
{CC334A73-8428-447B-A7C0-1BBB2C19BE0A}
  9
$VERSIONGUID
  2
{FAEB1C32-E019-11D5-929B-00C0DF256EC4}
  9
$EXTNAMES
290
     1
  9
$PSVPSCALE
 40
0.0
  9
$OLESTARTUP
290
     0
  0
ENDSEC
  0
SECTION
  2
CLASSES
  0
CLASS
  1
ACDBDICTIONARYWDFLT
  2
AcDbDictionaryWithDefault
  3
ObjectDBX Classes
 90
        0
280
     0
281
     0
  0
CLASS
  1
VISUALSTYLE
  2
AcDbVisualStyle
  3
ObjectDBX Classes
 90
     4095
280
     0
281
     0
  0
CLASS
  1
SCALE
  2
AcDbScale
  3
ObjectDBX Classes
 90
     1153
280
     0
281
     0
  0
CLASS
  1
DICTIONARYVAR
  2
AcDbDictionaryVar
  3
ObjectDBX Classes
 90
        0
280
     0
281
     0
  0
CLASS
  1
ACDBPLACEHOLDER
  2
AcDbPlaceHolder
  3
ObjectDBX Classes
 90
        0
280
     0
281
     0
  0
CLASS
  1
LAYOUT
  2
AcDbLayout
  3
ObjectDBX Classes
 90
        0
280
     0
281
     0
  0
ENDSEC
  0
SECTION
  2
TABLES
  0
TABLE
  2
VPORT
  5
8
330
0
100
AcDbSymbolTable
 70
     1
  0
VPORT
  5
29
330
8
100
AcDbSymbolTableRecord
100
AcDbViewportTableRecord
  2
*Active
 70
     0
 10
0.0
 20
0.0
 11
1.0
 21
1.0
 12
344.1869158879
 22
148.5
 13
0.0
 23
0.0
 14
10.0
 24
10.0
 15
10.0
 25
10.0
 16
0.0
 26
0.0
 36
1.0
 17
0.0
 27
0.0
 37
0.0
 40
297.0
 41
1.9729729729
 42
50.0
 43
0.0
 44
0.0
 50
0.0
 51
0.0
 71
     0
 72
   100
 73
     1
 74
     3
 75
     0
 76
     0
 77
     0
 78
     0
281
     0
 65
     1
110
0.0
120
0.0
130
0.0
111
1.0
121
0.0
131
0.0
112
0.0
122
1.0
132
0.0
 79
     0
146
0.0
  0
ENDTAB
  0
TABLE
  2
LTYPE
  5
5
330
0
100
AcDbSymbolTable
 70
     2
  0
LTYPE
  5
14
330
5
100
AcDbSymbolTableRecord
100
AcDbLinetypeTableRecord
  2
ByBlock
 70
     0
  3

 72
    65
 73
     0
 40
0.0
  0
LTYPE
  5
15
330
5
100
AcDbSymbolTableRecord
100
AcDbLinetypeTableRecord
  2
ByLayer
 70
     0
  3

 72
    65
 73
     0
 40
0.0
  0
LTYPE
  5
16
330
5
100
AcDbSymbolTableRecord
100
AcDbLinetypeTableRecord
  2
Continuous
 70
     0
  3
Solid line
 72
    65
 73
     0
 40
0.0
  0
LTYPE
  5
60
330
5
100
AcDbSymbolTableRecord
100
AcDbLinetypeTableRecord
  2
CENTER2
 70
     0
  3
Center (.5x) ___ _ ___ _ ___ _ ___ _ ___ _ ___
 72
    65
 73
     4
 40
28.575
 49
19.05
 74
     4
 75
     0
340
0
 46
0.0
 50
0.0
 44
0.0
 45
0.0
 49
-3.175
 74
     4
 75
     0
340
0
 46
0.0
 50
0.0
 44
0.0
 45
0.0
 49
3.175
 74
     4
 75
     0
340
0
 46
0.0
 50
0.0
 44
0.0
 45
0.0
 49
-3.175
 74
     4
 75
     0
340
0
 46
0.0
 50
0.0
 44
0.0
 45
0.0
  0
ENDTAB
  0
TABLE
  2
LAYER
  5
2
330
0
100
AcDbSymbolTable
 70
    13
  0
LAYER
  5
10
330
2
100
AcDbSymbolTableRecord
100
AcDbLayerTableRecord
  2
0
 70
     0
 62
     7
  6
Continuous
370
    -3
390
F
  0
LAYER
  5
5D
330
2
100
AcDbSymbolTableRecord
100
AcDbLayerTableRecord
  2
Default
 70
     0
 62
     7
  6
Continuous
370
    -3
390
F
  0
LAYER
  5
87
330
2
100
AcDbSymbolTableRecord
100
AcDbLayerTableRecord
  2
$DDT_AUDIT_GENERATED_(87)
 70
     0
 62
     7
  6
Continuous
370
    -3
390
F
  0
LAYER
  5
A3
330
2
100
AcDbSymbolTableRecord
100
AcDbLayerTableRecord
  2
$DDT_AUDIT_GENERATED_(A3)
 70
     0
 62
     7
  6
Continuous
370
    -3
390
F
  0
LAYER
  5
B5
330
2
100
AcDbSymbolTableRecord
100
AcDbLayerTableRecord
  2
$DDT_AUDIT_GENERATED_(B5)
 70
     0
 62
     7
  6
Continuous
370
    -3
390
F
  0
LAYER
  5
BD
330
2
100
AcDbSymbolTableRecord
100
AcDbLayerTableRecord
  2
$DDT_AUDIT_GENERATED_(BD)
 70
     0
 62
     7
  6
Continuous
370
    -3
390
F
  0
LAYER
  5
C6
330
2
100
AcDbSymbolTableRecord
100
AcDbLayerTableRecord
  2
$DDT_AUDIT_GENERATED_(C6)
 70
     0
 62
     7
  6
Continuous
370
    -3
390
F
  0
LAYER
  5
D1
330
2
100
AcDbSymbolTableRecord
100
AcDbLayerTableRecord
  2
$DDT_AUDIT_GENERATED_(D1)
 70
     0
 62
     7
  6
Continuous
370
    -3
390
F
  0
LAYER
  5
D9
330
2
100
AcDbSymbolTableRecord
100
AcDbLayerTableRecord
  2
$DDT_AUDIT_GENERATED_(D9)
 70
     0
 62
     7
  6
Continuous
370
    -3
390
F
  0
LAYER
  5
E6
330
2
100
AcDbSymbolTableRecord
100
AcDbLayerTableRecord
  2
$DDT_AUDIT_GENERATED_(E6)
 70
     0
 62
     7
  6
Continuous
370
    -3
390
F
  0
LAYER
  5
107
330
2
100
AcDbSymbolTableRecord
100
AcDbLayerTableRecord
  2
$DDT_AUDIT_GENERATED_(107)
 70
     0
 62
     7
  6
Continuous
370
    -3
390
F
  0
LAYER
  5
10A
330
2
100
AcDbSymbolTableRecord
100
AcDbLayerTableRecord
  2
$DDT_AUDIT_GENERATED_(10A)
 70
     0
 62
     7
  6
Continuous
370
    -3
390
F
  0
LAYER
  5
17C
330
2
100
AcDbSymbolTableRecord
100
AcDbLayerTableRecord
  2
$DDT_AUDIT_GENERATED_(17C)
 70
     0
 62
     7
  6
Continuous
370
    -3
390
F
  0
ENDTAB
  0
TABLE
  2
STYLE
  5
3
330
0
100
AcDbSymbolTable
 70
     2
  0
STYLE
  5
11
330
3
100
AcDbSymbolTableRecord
100
AcDbTextStyleTableRecord
  2
Standard
 70
     0
 40
0.0
 41
1.0
 50
0.0
 71
     0
 42
2.5
  3
txt
  4

  0
STYLE
  5
1E1
330
3
100
AcDbSymbolTableRecord
100
AcDbTextStyleTableRecord
  2
SEACAD_seiso_ttf
 70
     0
 40
0.0
 41
1.0
 50
0.0
 71
     0
 42
0.2
  3
seiso.ttf
  4

  0
ENDTAB
  0
TABLE
  2
VIEW
  5
6
330
0
100
AcDbSymbolTable
 70
     0
  0
ENDTAB
  0
TABLE
  2
UCS
  5
7
330
0
100
AcDbSymbolTable
 70
     0
  0
ENDTAB
  0
TABLE
  2
APPID
  5
9
330
0
100
AcDbSymbolTable
 70
     1
  0
APPID
  5
12
330
9
100
AcDbSymbolTableRecord
100
AcDbRegAppTableRecord
  2
ACAD
 70
     0
  0
ENDTAB
  0
TABLE
  2
DIMSTYLE
  5
A
330
0
100
AcDbSymbolTable
 70
     1
100
AcDbDimStyleTable
  0
DIMSTYLE
105
27
330
A
100
AcDbSymbolTableRecord
100
AcDbDimStyleTableRecord
  2
ISO-25
 70
     0
 41
2.5
 42
0.625
 43
3.75
 44
1.25
 73
     0
 74
     0
 77
     1
 78
     8
140
2.5
141
2.5
143
0.0393700787
147
0.625
171
     3
172
     1
271
     2
272
     2
274
     3
278
    44
283
     0
284
     8
340
11
  0
ENDTAB
  0
TABLE
  2
BLOCK_RECORD
  5
1
330
0
100
AcDbSymbolTable
 70
     9
  0
BLOCK_RECORD
  5
1F
330
1
100
AcDbSymbolTableRecord
100
AcDbBlockTableRecord
  2
*Model_Space
340
22
  0
BLOCK_RECORD
  5
1B
330
1
100
AcDbSymbolTableRecord
100
AcDbBlockTableRecord
  2
*Paper_Space
340
1E
  0
BLOCK_RECORD
  5
5E
330
1
100
AcDbSymbolTableRecord
100
AcDbBlockTableRecord
  2
SEANNOT_GROUP
340
0
102
{BLKREFS
331
5F
102
}
  0
BLOCK_RECORD
  5
69
330
1
100
AcDbSymbolTableRecord
100
AcDbBlockTableRecord
  2
SEANNOT_GROUP1
340
0
102
{BLKREFS
331
6A
102
}
  0
BLOCK_RECORD
  5
73
330
1
100
AcDbSymbolTableRecord
100
AcDbBlockTableRecord
  2
SEANNOT_GROUP2
340
0
102
{BLKREFS
331
74
102
}
  0
BLOCK_RECORD
  5
79
330
1
100
AcDbSymbolTableRecord
100
AcDbBlockTableRecord
  2
SEANNOT_GROUP3
340
0
102
{BLKREFS
331
7A
102
}
  0
BLOCK_RECORD
  5
7F
330
1
100
AcDbSymbolTableRecord
100
AcDbBlockTableRecord
  2
SEANNOT_GROUP4
340
0
102
{BLKREFS
331
80
102
}
  0
BLOCK_RECORD
  5
85
330
1
100
AcDbSymbolTableRecord
100
AcDbBlockTableRecord
  2
SE
340
0
102
{BLKREFS
331
86
102
}
  0
BLOCK_RECORD
  5
110
330
1
100
AcDbSymbolTableRecord
100
AcDbBlockTableRecord
  2
SE1
340
0
102
{BLKREFS
331
111
102
}
  0
BLOCK_RECORD
  5
184
330
1
100
AcDbSymbolTableRecord
100
AcDbBlockTableRecord
  2
SE2
340
0
102
{BLKREFS
331
185
102
}
  0
ENDTAB
  0
ENDSEC
  0
SECTION
  2
BLOCKS
  0
BLOCK
  5
20
330
1F
100
AcDbEntity
  8
0
100
AcDbBlockBegin
  2
*Model_Space
 70
     0
 10
0.0
 20
0.0
 30
0.0
  3
*Model_Space
  1

  0
ENDBLK
  5
21
330
1F
100
AcDbEntity
  8
0
100
AcDbBlockEnd
  0
BLOCK
  5
1C
330
1B
100
AcDbEntity
 67
     1
  8
0
100
AcDbBlockBegin
  2
*Paper_Space
 70
     0
 10
0.0
 20
0.0
 30
0.0
  3
*Paper_Space
  1

  0
ENDBLK
  5
1D
330
1B
100
AcDbEntity
 67
     1
  8
0
100
AcDbBlockEnd
  0
BLOCK
  5
67
330
5E
100
AcDbEntity
  8
0
100
AcDbBlockBegin
  2
SEANNOT_GROUP
 70
     0
 10
0.0
 20
0.0
 30
0.0
  3
SEANNOT_GROUP
  1

  0
LINE
  5
61
330
5E
100
AcDbEntity
  8
Default
  6
CENTER2
 62
     7
100
AcDbLine
 10
61.349999553
 20
420.7989947404
 30
0.0
 11
21.350000447
 21
420.7989947404
 31
0.0
  0
LINE
  5
62
330
5E
100
AcDbEntity
  8
Default
  6
CENTER2
 62
     7
100
AcDbLine
 10
41.35
 20
440.7989942933
 30
0.0
 11
41.35
 21
400.7989951874
 31
0.0
  0
LINE
  5
63
330
5E
100
AcDbEntity
  8
Default
  6
CENTER2
 62
     7
100
AcDbLine
 10
66.3499994412
 20
420.7989947404
 30
0.0
 11
79.85
 21
420.7989947404
 31
0.0
  0
LINE
  5
64
330
5E
100
AcDbEntity
  8
Default
  6
CENTER2
 62
     7
100
AcDbLine
 10
41.35
 20
445.7989941816
 30
0.0
 11
41.35
 21
459.2989947404
 31
0.0
  0
LINE
  5
65
330
5E
100
AcDbEntity
  8
Default
  6
CENTER2
 62
     7
100
AcDbLine
 10
16.3500005588
 20
420.7989947404
 30
0.0
 11
2.85
 21
420.7989947404
 31
0.0
  0
LINE
  5
66
330
5E
100
AcDbEntity
  8
Default
  6
CENTER2
 62
     7
100
AcDbLine
 10
41.35
 20
395.7989952992
 30
0.0
 11
41.35
 21
382.2989947404
 31
0.0
  0
ENDBLK
  5
68
330
5E
100
AcDbEntity
  8
0
100
AcDbBlockEnd
  0
BLOCK
  5
71
330
69
100
AcDbEntity
  8
0
100
AcDbBlockBegin
  2
SEANNOT_GROUP1
 70
     0
 10
0.0
 20
0.0
 30
0.0
  3
SEANNOT_GROUP1
  1

  0
LINE
  5
6B
330
69
100
AcDbEntity
  8
Default
  6
CENTER2
 62
     7
100
AcDbLine
 10
211.349999553
 20
420.7989947404
 30
0.0
 11
171.350000447
 21
420.7989947404
 31
0.0
  0
LINE
  5
6C
330
69
100
AcDbEntity
  8
Default
  6
CENTER2
 62
     7
100
AcDbLine
 10
191.35
 20
440.7989942933
 30
0.0
 11
191.35
 21
400.7989951874
 31
0.0
  0
LINE
  5
6D
330
69
100
AcDbEntity
  8
Default
  6
CENTER2
 62
     7
100
AcDbLine
 10
216.3499994412
 20
420.7989947404
 30
0.0
 11
229.85
 21
420.7989947404
 31
0.0
  0
LINE
  5
6E
330
69
100
AcDbEntity
  8
Default
  6
CENTER2
 62
     7
100
AcDbLine
 10
191.35
 20
445.7989941816
 30
0.0
 11
191.35
 21
459.2989947404
 31
0.0
  0
LINE
  5
6F
330
69
100
AcDbEntity
  8
Default
  6
CENTER2
 62
     7
100
AcDbLine
 10
166.3500005588
 20
420.7989947404
 30
0.0
 11
152.85
 21
420.7989947404
 31
0.0
  0
LINE
  5
70
330
69
100
AcDbEntity
  8
Default
  6
CENTER2
 62
     7
100
AcDbLine
 10
191.35
 20
395.7989952992
 30
0.0
 11
191.35
 21
382.2989947404
 31
0.0
  0
ENDBLK
  5
72
330
69
100
AcDbEntity
  8
0
100
AcDbBlockEnd
  0
BLOCK
  5
77
330
73
100
AcDbEntity
  8
0
100
AcDbBlockBegin
  2
SEANNOT_GROUP2
 70
     0
 10
0.0
 20
0.0
 30
0.0
  3
SEANNOT_GROUP2
  1

  0
LINE
  5
75
330
73
100
AcDbEntity
  8
Default
  6
CENTER2
 62
     7
100
AcDbLine
 10
321.2495426384
 20
420.7989947404
 30
0.0
 11
281.2495435325
 21
420.7989947404
 31
0.0
  0
LINE
  5
76
330
73
100
AcDbEntity
  8
Default
  6
CENTER2
 62
     7
100
AcDbLine
 10
301.2495430855
 20
440.7989942933
 30
0.0
 11
301.2495430855
 21
400.7989951874
 31
0.0
  0
ENDBLK
  5
78
330
73
100
AcDbEntity
  8
0
100
AcDbBlockEnd
  0
BLOCK
  5
7D
330
79
100
AcDbEntity
  8
0
100
AcDbBlockBegin
  2
SEANNOT_GROUP3
 70
     0
 10
0.0
 20
0.0
 30
0.0
  3
SEANNOT_GROUP3
  1

  0
LINE
  5
7B
330
79
100
AcDbEntity
  8
Default
  6
CENTER2
 62
     7
100
AcDbLine
 10
61.349999553
 20
311.3504569145
 30
0.0
 11
21.350000447
 21
311.3504569145
 31
0.0
  0
LINE
  5
7C
330
79
100
AcDbEntity
  8
Default
  6
CENTER2
 62
     7
100
AcDbLine
 10
41.35
 20
331.3504564675
 30
0.0
 11
41.35
 21
291.3504573616
 31
0.0
  0
ENDBLK
  5
7E
330
79
100
AcDbEntity
  8
0
100
AcDbBlockEnd
  0
BLOCK
  5
83
330
7F
100
AcDbEntity
  8
0
100
AcDbBlockBegin
  2
SEANNOT_GROUP4
 70
     0
 10
0.0
 20
0.0
 30
0.0
  3
SEANNOT_GROUP4
  1

  0
LINE
  5
81
330
7F
100
AcDbEntity
  8
Default
  6
CENTER2
 62
     7
100
AcDbLine
 10
211.349999553
 20
311.3504569145
 30
0.0
 11
171.350000447
 21
311.3504569145
 31
0.0
  0
LINE
  5
82
330
7F
100
AcDbEntity
  8
Default
  6
CENTER2
 62
     7
100
AcDbLine
 10
191.35
 20
331.3504564675
 30
0.0
 11
191.35
 21
291.3504573616
 31
0.0
  0
ENDBLK
  5
84
330
7F
100
AcDbEntity
  8
0
100
AcDbBlockEnd
  0
BLOCK
  5
10E
330
85
100
AcDbEntity
  8
0
100
AcDbBlockBegin
  2
SE
 70
     0
 10
0.0
 20
0.0
 30
0.0
  3
SE
  1

  0
LINE
  5
88
330
85
100
AcDbEntity
  8
$DDT_AUDIT_GENERATED_(87)
  6
Continuous
 62
     7
100
AcDbLine
 10
150.35
 20
443.2989947404
 30
0.0
 11
196.35
 21
443.2989947404
 31
0.0
  0
LINE
  5
89
330
85
100
AcDbEntity
  8
$DDT_AUDIT_GENERATED_(87)
  6
Continuous
 62
     7
100
AcDbLine
 10
134.35
 20
443.2989947404
 30
0.0
 11
150.35
 21
443.2989947404
 31
0.0
  0
LINE
  5
8A
330
85
100
AcDbEntity
  8
$DDT_AUDIT_GENERATED_(87)
  6
Continuous
 62
     7
100
AcDbLine
 10
127.35
 20
443.2989947404
 30
0.0
 11
134.35
 21
443.2989947404
 31
0.0
  0
LINE
  5
8B
330
85
100
AcDbEntity
  8
$DDT_AUDIT_GENERATED_(87)
  6
Continuous
 62
     7
100
AcDbLine
 10
105.35
 20
443.2989947404
 30
0.0
 11
127.35
 21
443.2989947404
 31
0.0
  0
LINE
  5
8C
330
85
100
AcDbEntity
  8
$DDT_AUDIT_GENERATED_(87)
  6
Continuous
 62
     7
100
AcDbLine
 10
98.35
 20
443.2989947404
 30
0.0
 11
105.35
 21
443.2989947404
 31
0.0
  0
LINE
  5
8D
330
85
100
AcDbEntity
  8
$DDT_AUDIT_GENERATED_(87)
  6
Continuous
 62
     7
100
AcDbLine
 10
82.35
 20
443.2989947404
 30
0.0
 11
98.35
 21
443.2989947404
 31
0.0
  0
LINE
  5
8E
330
85
100
AcDbEntity
  8
$DDT_AUDIT_GENERATED_(87)
  6
Continuous
 62
     7
100
AcDbLine
 10
36.35
 20
443.2989947404
 30
0.0
 11
82.35
 21
443.2989947404
 31
0.0
  0
ARC
  5
8F
330
85
100
AcDbEntity
  8
$DDT_AUDIT_GENERATED_(87)
  6
Continuous
 62
     7
100
AcDbCircle
 10
36.35
 20
428.2989947404
 30
0.0
 40
15.0
100
AcDbArc
 50
90.0
 51
180.0
  0
LINE
  5
90
330
85
100
AcDbEntity
  8
$DDT_AUDIT_GENERATED_(87)
  6
Continuous
 62
     7
100
AcDbLine
 10
135.35
 20
442.2989947404
 30
0.0
 11
135.35
 21
418.2989947404
 31
0.0
  0
LINE
  5
91
330
85
100
AcDbEntity
  8
$DDT_AUDIT_GENERATED_(87)
  6
Continuous
 62
     7
100
AcDbLine
 10
21.35
 20
413.2989947404
 30
0.0
 11
21.35
 21
428.2989947404
 31
0.0
  0
ARC
  5
92
330
85
100
AcDbEntity
  8
$DDT_AUDIT_GENERATED_(87)
  6
Continuous
 62
     7
100
AcDbCircle
 10
36.35
 20
413.2989947404
 30
0.0
 40
15.0
100
AcDbArc
 50
180.0
 51
270.0
  0
LINE
  5
93
330
85
100
AcDbEntity
  8
$DDT_AUDIT_GENERATED_(87)
  6
Continuous
 62
     7
100
AcDbLine
 10
196.35
 20
398.2989947404
 30
0.0
 11
36.35
 21
398.2989947404
 31
0.0
  0
ARC
  5
94
330
85
100
AcDbEntity
  8
$DDT_AUDIT_GENERATED_(87)
  6
Continuous
 62
     7
100
AcDbCircle
 10
196.35
 20
413.2989947404
 30
0.0
 40
15.0
100
AcDbArc
 50
270.0
 51
0.0
  0
ARC
  5
95
330
85
100
AcDbEntity
  8
$DDT_AUDIT_GENERATED_(87)
  6
Continuous
 62
     7
100
AcDbCircle
 10
196.35
 20
428.2989947404
 30
0.0
 40
15.0
100
AcDbArc
 50
0.0
 51
90.0
  0
LINE
  5
96
330
85
100
AcDbEntity
  8
$DDT_AUDIT_GENERATED_(87)
  6
Continuous
 62
     7
100
AcDbLine
 10
211.35
 20
428.2989947404
 30
0.0
 11
211.35
 21
413.2989947404
 31
0.0
  0
ARC
  5
97
330
85
100
AcDbEntity
  8
$DDT_AUDIT_GENERATED_(87)
  6
Continuous
 62
     7
100
AcDbCircle
 10
134.35
 20
442.2989947404
 30
0.0
 40
1.000000000000001
100
AcDbArc
 50
0.0
 51
90.0
  0
ARC
  5
98
330
85
100
AcDbEntity
  8
$DDT_AUDIT_GENERATED_(87)
  6
Continuous
 62
     7
100
AcDbCircle
 10
98.35
 20
442.2989947404
 30
0.0
 40
1.000000000000001
100
AcDbArc
 50
90.0
 51
180.0
  0
LINE
  5
99
330
85
100
AcDbEntity
  8
$DDT_AUDIT_GENERATED_(87)
  6
Continuous
 62
     7
100
AcDbLine
 10
98.35
 20
417.2989947404
 30
0.0
 11
96.7374945699
 21
417.2989947404
 31
0.0
  0
LINE
  5
9A
330
85
100
AcDbEntity
  8
$DDT_AUDIT_GENERATED_(87)
  6
Continuous
 62
     7
100
AcDbLine
 10
105.35
 20
417.2989947404
 30
0.0
 11
98.35
 21
417.2989947404
 31
0.0
  0
LINE
  5
9B
330
85
100
AcDbEntity
  8
$DDT_AUDIT_GENERATED_(87)
  6
Continuous
 62
     7
100
AcDbLine
 10
127.35
 20
417.2989947404
 30
0.0
 11
105.35
 21
417.2989947404
 31
0.0
  0
LINE
  5
9C
330
85
100
AcDbEntity
  8
$DDT_AUDIT_GENERATED_(87)
  6
Continuous
 62
     7
100
AcDbLine
 10
134.35
 20
417.2989947404
 30
0.0
 11
127.35
 21
417.2989947404
 31
0.0
  0
LINE
  5
9D
330
85
100
AcDbEntity
  8
$DDT_AUDIT_GENERATED_(87)
  6
Continuous
 62
     7
100
AcDbLine
 10
97.35
 20
418.2989947404
 30
0.0
 11
97.35
 21
442.2989947404
 31
0.0
  0
ARC
  5
9E
330
85
100
AcDbEntity
  8
$DDT_AUDIT_GENERATED_(87)
  6
Continuous
 62
     7
100
AcDbCircle
 10
134.35
 20
418.2989947404
 30
0.0
 40
1.000000000000011
100
AcDbArc
 50
270.0
 51
0.0
  0
ARC
  5
9F
330
85
100
AcDbEntity
  8
$DDT_AUDIT_GENERATED_(87)
  6
Continuous
 62
     7
100
AcDbCircle
 10
98.35
 20
418.2989947404
 30
0.0
 40
1.000000000000011
100
AcDbArc
 50
180.0
 51
270.0
  0
LINE
  5
A0
330
85
100
AcDbEntity
  8
$DDT_AUDIT_GENERATED_(87)
  6
Continuous
 62
     7
100
AcDbLine
 10
135.9625054301
 20
417.2989947404
 30
0.0
 11
134.35
 21
417.2989947404
 31
0.0
  0
ARC
  5
A1
330
85
100
AcDbEntity
  8
$DDT_AUDIT_GENERATED_(87)
  6
Continuous
 62
     7
100
AcDbCircle
 10
174.0435509489
 20
-26.5918408795
 30
0.0
 40
445.5213125936415
100
AcDbArc
 50
94.893659561
 51
94.9033541427
  0
ARC
  5
A2
330
85
100
AcDbEntity
  8
$DDT_AUDIT_GENERATED_(87)
  6
Continuous
 62
     7
100
AcDbCircle
 10
58.6564490511
 20
-26.5918408796
 30
0.0
 40
445.5213125936866
100
AcDbArc
 50
85.0966458573
 51
85.1146508743
  0
LINE
  5
A4
330
85
100
AcDbEntity
  8
$DDT_AUDIT_GENERATED_(A3)
  6
Continuous
 62
     7
100
AcDbLine
 10
186.85
 20
395.7989947404
 30
0.0
 11
161.85
 21
395.7989947404
 31
0.0
  0
LINE
  5
A5
330
85
100
AcDbEntity
  8
$DDT_AUDIT_GENERATED_(A3)
  6
Continuous
 62
     7
100
AcDbLine
 10
184.83
 20
392.5339947404
 30
0.0
 11
163.87
 21
392.5339947404
 31
0.0
  0
LINE
  5
A6
330
85
100
AcDbEntity
  8
$DDT_AUDIT_GENERATED_(A3)
  6
Continuous
 62
     7
100
AcDbLine
 10
183.665
 20
393.6989947404
 30
0.0
 11
165.035
 21
393.6989947404
 31
0.0
  0
LINE
  5
A7
330
85
100
AcDbEntity
  8
$DDT_AUDIT_GENERATED_(A3)
  6
Continuous
 62
     7
100
AcDbLine
 10
183.67
 20
385.7989947404
 30
0.0
 11
165.03
 21
385.7989947404
 31
0.0
  0
LINE
  5
A8
330
85
100
AcDbEntity
  8
$DDT_AUDIT_GENERATED_(A3)
  6
Continuous
 62
     7
100
AcDbLine
 10
163.87
 20
386.9589947404
 30
0.0
 11
184.83
 21
386.9589947404
 31
0.0
  0
LINE
  5
A9
330
85
100
AcDbEntity
  8
$DDT_AUDIT_GENERATED_(A3)
  6
Continuous
 62
     7
100
AcDbLine
 10
186.85
 20
395.7989947404
 30
0.0
 11
186.85
 21
398.2989947404
 31
0.0
  0
LINE
  5
AA
330
85
100
AcDbEntity
  8
$DDT_AUDIT_GENERATED_(A3)
  6
Continuous
 62
     7
100
AcDbLine
 10
161.85
 20
398.2989947404
 30
0.0
 11
161.85
 21
395.7989947404
 31
0.0
  0
LINE
  5
AB
330
85
100
AcDbEntity
  8
$DDT_AUDIT_GENERATED_(A3)
  6
Continuous
 62
     7
100
AcDbLine
 10
184.83
 20
386.9589947404
 30
0.0
 11
184.83
 21
392.5339947404
 31
0.0
  0
LINE
  5
AC
330
85
100
AcDbEntity
  8
$DDT_AUDIT_GENERATED_(A3)
  6
Continuous
 62
     7
100
AcDbLine
 10
163.87
 20
392.5339947404
 30
0.0
 11
163.87
 21
386.9589947404
 31
0.0
  0
LINE
  5
AD
330
85
100
AcDbEntity
  8
$DDT_AUDIT_GENERATED_(A3)
  6
Continuous
 62
     7
100
AcDbLine
 10
184.83
 20
392.5339947404
 30
0.0
 11
183.665
 21
393.6989947404
 31
0.0
  0
LINE
  5
AE
330
85
100
AcDbEntity
  8
$DDT_AUDIT_GENERATED_(A3)
  6
Continuous
 62
     7
100
AcDbLine
 10
165.035
 20
393.6989947404
 30
0.0
 11
163.87
 21
392.5339947404
 31
0.0
  0
LINE
  5
AF
330
85
100
AcDbEntity
  8
$DDT_AUDIT_GENERATED_(A3)
  6
Continuous
 62
     7
100
AcDbLine
 10
183.665
 20
393.6989947404
 30
0.0
 11
183.665
 21
395.7989947404
 31
0.0
  0
LINE
  5
B0
330
85
100
AcDbEntity
  8
$DDT_AUDIT_GENERATED_(A3)
  6
Continuous
 62
     7
100
AcDbLine
 10
165.035
 20
395.7989947404
 30
0.0
 11
165.035
 21
393.6989947404
 31
0.0
  0
LINE
  5
B1
330
85
100
AcDbEntity
  8
$DDT_AUDIT_GENERATED_(A3)
  6
Continuous
 62
     7
100
AcDbLine
 10
163.87
 20
386.9589947404
 30
0.0
 11
165.03
 21
385.7989947404
 31
0.0
  0
LINE
  5
B2
330
85
100
AcDbEntity
  8
$DDT_AUDIT_GENERATED_(A3)
  6
Continuous
 62
     7
100
AcDbLine
 10
183.67
 20
385.7989947404
 30
0.0
 11
184.83
 21
386.9589947404
 31
0.0
  0
LINE
  5
B3
330
85
100
AcDbEntity
  8
$DDT_AUDIT_GENERATED_(A3)
  6
Continuous
 62
     7
100
AcDbLine
 10
165.035
 20
385.7989947404
 30
0.0
 11
165.035
 21
393.6989947404
 31
0.0
  0
LINE
  5
B4
330
85
100
AcDbEntity
  8
$DDT_AUDIT_GENERATED_(A3)
  6
Continuous
 62
     7
100
AcDbLine
 10
183.665
 20
385.7989947404
 30
0.0
 11
183.665
 21
393.6989947404
 31
0.0
  0
LINE
  5
B6
330
85
100
AcDbEntity
  8
$DDT_AUDIT_GENERATED_(B5)
  6
Continuous
 62
     7
100
AcDbLine
 10
159.35
 20
478.7489947404
 30
0.0
 11
189.35
 21
478.7489947404
 31
0.0
  0
LINE
  5
B7
330
85
100
AcDbEntity
  8
$DDT_AUDIT_GENERATED_(B5)
  6
Continuous
 62
     7
100
AcDbLine
 10
189.55
 20
477.4489947404
 30
0.0
 11
189.55
 21
478.5489947404
 31
0.0
  0
LINE
  5
B8
330
85
100
AcDbEntity
  8
$DDT_AUDIT_GENERATED_(B5)
  6
Continuous
 62
     7
100
AcDbLine
 10
159.15
 20
478.5489947404
 30
0.0
 11
159.15
 21
477.4489947404
 31
0.0
  0
ARC
  5
B9
330
85
100
AcDbEntity
  8
$DDT_AUDIT_GENERATED_(B5)
  6
Continuous
 62
     7
100
AcDbCircle
 10
159.35
 20
478.5489947404
 30
0.0
 40
0.199999999999978
100
AcDbArc
 50
90.0
 51
180.0
  0
ARC
  5
BA
330
85
100
AcDbEntity
  8
$DDT_AUDIT_GENERATED_(B5)
  6
Continuous
 62
     7
100
AcDbCircle
 10
189.35
 20
478.5489947404
 30
0.0
 40
0.1999999999999919
100
AcDbArc
 50
0.0
 51
90.0
  0
ARC
  5
BB
330
85
100
AcDbEntity
  8
$DDT_AUDIT_GENERATED_(B5)
  6
Continuous
 62
     7
100
AcDbCircle
 10
189.35
 20
477.4489947404
 30
0.0
 40
0.2000000000000335
100
AcDbArc
 50
270.0
 51
0.0
  0
ARC
  5
BC
330
85
100
AcDbEntity
  8
$DDT_AUDIT_GENERATED_(B5)
  6
Continuous
 62
     7
100
AcDbCircle
 10
159.35
 20
477.4489947404
 30
0.0
 40
0.2000000000000057
100
AcDbArc
 50
180.0
 51
270.0
  0
LINE
  5
BE
330
85
100
AcDbEntity
  8
$DDT_AUDIT_GENERATED_(BD)
  6
Continuous
 62
     7
100
AcDbLine
 10
189.1
 20
452.7489947404
 30
0.0
 11
159.6
 21
452.7489947404
 31
0.0
  0
LINE
  5
BF
330
85
100
AcDbEntity
  8
$DDT_AUDIT_GENERATED_(BD)
  6
Continuous
 62
     7
100
AcDbLine
 10
159.266896871
 20
477.2489947404
 30
0.0
 11
189.6
 21
477.2489947404
 31
0.0
  0
LINE
  5
C0
330
85
100
AcDbEntity
  8
$DDT_AUDIT_GENERATED_(BD)
  6
Continuous
 62
     7
100
AcDbLine
 10
159.266896871
 20
476.5489947404
 30
0.0
 11
159.1
 21
476.5489947404
 31
0.0
  0
LINE
  5
C1
330
85
100
AcDbEntity
  8
$DDT_AUDIT_GENERATED_(BD)
  6
Continuous
 62
     7
100
AcDbLine
 10
159.266896871
 20
476.5489947404
 30
0.0
 11
159.266896871
 21
477.2489947404
 31
0.0
  0
LINE
  5
C2
330
85
100
AcDbEntity
  8
$DDT_AUDIT_GENERATED_(BD)
  6
Continuous
 62
     7
100
AcDbLine
 10
189.6
 20
453.2489947404
 30
0.0
 11
189.6
 21
477.2489947404
 31
0.0
  0
LINE
  5
C3
330
85
100
AcDbEntity
  8
$DDT_AUDIT_GENERATED_(BD)
  6
Continuous
 62
     7
100
AcDbLine
 10
159.1
 20
476.5489947404
 30
0.0
 11
159.1
 21
453.2489947404
 31
0.0
  0
ARC
  5
C4
330
85
100
AcDbEntity
  8
$DDT_AUDIT_GENERATED_(BD)
  6
Continuous
 62
     7
100
AcDbCircle
 10
189.1
 20
453.2489947404
 30
0.0
 40
0.5000000000000004
100
AcDbArc
 50
270.0
 51
0.0
  0
ARC
  5
C5
330
85
100
AcDbEntity
  8
$DDT_AUDIT_GENERATED_(BD)
  6
Continuous
 62
     7
100
AcDbCircle
 10
159.6
 20
453.2489947404
 30
0.0
 40
0.5000000000000004
100
AcDbArc
 50
180.0
 51
270.0
  0
LINE
  5
C7
330
85
100
AcDbEntity
  8
$DDT_AUDIT_GENERATED_(C6)
  6
Continuous
 62
     7
100
AcDbLine
 10
160.35
 20
445.88045961
 30
0.0
 11
160.35
 21
443.2989947404
 31
0.0
  0
LINE
  5
C8
330
85
100
AcDbEntity
  8
$DDT_AUDIT_GENERATED_(C6)
  6
Continuous
 62
     7
100
AcDbLine
 10
188.35
 20
443.2989947404
 30
0.0
 11
188.35
 21
445.88045961
 31
0.0
  0
LINE
  5
C9
330
85
100
AcDbEntity
  8
$DDT_AUDIT_GENERATED_(C6)
  6
Continuous
 62
     7
100
AcDbLine
 10
188.0613091309
 20
446.3336135035
 30
0.0
 11
186.4273817383
 21
447.0955263595
 31
0.0
  0
LINE
  5
CA
330
85
100
AcDbEntity
  8
$DDT_AUDIT_GENERATED_(C6)
  6
Continuous
 62
     7
100
AcDbLine
 10
162.2726182617
 20
447.0955263595
 30
0.0
 11
160.6386908691
 21
446.3336135035
 31
0.0
  0
LINE
  5
CB
330
85
100
AcDbEntity
  8
$DDT_AUDIT_GENERATED_(C6)
  6
Continuous
 62
     7
100
AcDbLine
 10
162.85
 20
452.7489947404
 30
0.0
 11
162.85
 21
448.0018341466
 31
0.0
  0
LINE
  5
CC
330
85
100
AcDbEntity
  8
$DDT_AUDIT_GENERATED_(C6)
  6
Continuous
 62
     7
100
AcDbLine
 10
185.85
 20
448.0018341466
 30
0.0
 11
185.85
 21
452.7489947404
 31
0.0
  0
ARC
  5
CD
330
85
100
AcDbEntity
  8
$DDT_AUDIT_GENERATED_(C6)
  6
Continuous
 62
     7
100
AcDbCircle
 10
187.85
 20
445.88045961
 30
0.0
 40
0.5000000000000004
100
AcDbArc
 50
0.0
 51
65.0
  0
ARC
  5
CE
330
85
100
AcDbEntity
  8
$DDT_AUDIT_GENERATED_(C6)
  6
Continuous
 62
     7
100
AcDbCircle
 10
160.85
 20
445.88045961
 30
0.0
 40
0.4999999999999981
100
AcDbArc
 50
115.0
 51
180.0
  0
ARC
  5
CF
330
85
100
AcDbEntity
  8
$DDT_AUDIT_GENERATED_(C6)
  6
Continuous
 62
     7
100
AcDbCircle
 10
161.85
 20
448.0018341466
 30
0.0
 40
1.000000000000001
100
AcDbArc
 50
295.0
 51
0.0
  0
ARC
  5
D0
330
85
100
AcDbEntity
  8
$DDT_AUDIT_GENERATED_(C6)
  6
Continuous
 62
     7
100
AcDbCircle
 10
186.85
 20
448.0018341466
 30
0.0
 40
0.9999999999999991
100
AcDbArc
 50
180.0
 51
245.0
  0
LINE
  5
D2
330
85
100
AcDbEntity
  8
$DDT_AUDIT_GENERATED_(D1)
  6
Continuous
 62
     7
100
AcDbLine
 10
90.8941751439
 20
477.1989947404
 30
0.0
 11
141.8058248561
 21
477.1989947404
 31
0.0
  0
ARC
  5
D3
330
85
100
AcDbEntity
  8
$DDT_AUDIT_GENERATED_(D1)
  6
Continuous
 62
     7
100
AcDbCircle
 10
116.35
 20
471.1989947404
 30
0.0
 40
25.00000000000012
100
AcDbArc
 50
159.5263777666
 51
166.1134596374
  0
ARC
  5
D4
330
85
100
AcDbEntity
  8
$DDT_AUDIT_GENERATED_(D1)
  6
Continuous
 62
     7
100
AcDbCircle
 10
116.35
 20
471.1989947404
 30
0.0
 40
24.99999999999992
100
AcDbArc
 50
13.8865403626
 51
20.4736222334
  0
LINE
  5
D5
330
85
100
AcDbEntity
  8
$DDT_AUDIT_GENERATED_(D1)
  6
Continuous
 62
     7
100
AcDbLine
 10
142.5973063246
 20
443.2989947404
 30
0.0
 11
142.3058058196
 21
476.7033577843
 31
0.0
  0
LINE
  5
D6
330
85
100
AcDbEntity
  8
$DDT_AUDIT_GENERATED_(D1)
  6
Continuous
 62
     7
100
AcDbLine
 10
90.3941941804
 20
476.7033577843
 30
0.0
 11
90.1026936754
 21
443.2989947404
 31
0.0
  0
ARC
  5
D7
330
85
100
AcDbEntity
  8
$DDT_AUDIT_GENERATED_(D1)
  6
Continuous
 62
     7
100
AcDbCircle
 10
90.8941751439
 20
476.6989947404
 30
0.0
 40
0.5000000000000004
100
AcDbArc
 50
90.0
 51
179.500025649
  0
ARC
  5
D8
330
85
100
AcDbEntity
  8
$DDT_AUDIT_GENERATED_(D1)
  6
Continuous
 62
     7
100
AcDbCircle
 10
141.8058248561
 20
476.6989947404
 30
0.0
 40
0.5000000000000007
100
AcDbArc
 50
0.499974351
 51
90.0
  0
LINE
  5
DA
330
85
100
AcDbEntity
  8
$DDT_AUDIT_GENERATED_(D9)
  6
Continuous
 62
     7
100
AcDbLine
 10
103.6
 20
409.9989947404
 30
0.0
 11
129.1
 21
409.9989947404
 31
0.0
  0
LINE
  5
DB
330
85
100
AcDbEntity
  8
$DDT_AUDIT_GENERATED_(D9)
  6
Continuous
 62
     7
100
AcDbLine
 10
129.35
 20
410.7206825769
 30
0.0
 11
103.35
 21
410.7206825769
 31
0.0
  0
LINE
  5
DC
330
85
100
AcDbEntity
  8
$DDT_AUDIT_GENERATED_(D9)
  6
Continuous
 62
     7
100
AcDbLine
 10
129.35
 20
410.7206825769
 30
0.0
 11
129.35
 21
410.1433336086
 31
0.0
  0
LINE
  5
DD
330
85
100
AcDbEntity
  8
$DDT_AUDIT_GENERATED_(D9)
  6
Continuous
 62
     7
100
AcDbLine
 10
129.35
 20
414.9989947404
 30
0.0
 11
130.35
 21
415.9989947404
 31
0.0
  0
LINE
  5
DE
330
85
100
AcDbEntity
  8
$DDT_AUDIT_GENERATED_(D9)
  6
Continuous
 62
     7
100
AcDbLine
 10
129.35
 20
414.9989947404
 30
0.0
 11
129.35
 21
410.7206825769
 31
0.0
  0
LINE
  5
DF
330
85
100
AcDbEntity
  8
$DDT_AUDIT_GENERATED_(D9)
  6
Continuous
 62
     7
100
AcDbLine
 10
103.35
 20
410.7206825769
 30
0.0
 11
103.35
 21
410.1433336086
 31
0.0
  0
LINE
  5
E0
330
85
100
AcDbEntity
  8
$DDT_AUDIT_GENERATED_(D9)
  6
Continuous
 62
     7
100
AcDbLine
 10
103.35
 20
414.9989947404
 30
0.0
 11
102.35
 21
415.9989947404
 31
0.0
  0
LINE
  5
E1
330
85
100
AcDbEntity
  8
$DDT_AUDIT_GENERATED_(D9)
  6
Continuous
 62
     7
100
AcDbLine
 10
103.35
 20
414.9989947404
 30
0.0
 11
103.35
 21
410.7206825769
 31
0.0
  0
LINE
  5
E2
330
85
100
AcDbEntity
  8
$DDT_AUDIT_GENERATED_(D9)
  6
Continuous
 62
     7
100
AcDbLine
 10
103.35
 20
410.1433323077
 30
0.0
 11
103.6
 21
409.9989947404
 31
0.0
  0
LINE
  5
E3
330
85
100
AcDbEntity
  8
$DDT_AUDIT_GENERATED_(D9)
  6
Continuous
 62
     7
100
AcDbLine
 10
129.1
 20
409.9989947404
 30
0.0
 11
129.35
 21
410.1433323077
 31
0.0
  0
LINE
  5
E4
330
85
100
AcDbEntity
  8
$DDT_AUDIT_GENERATED_(D9)
  6
Continuous
 62
     7
100
AcDbLine
 10
130.35
 20
415.9989947404
 30
0.0
 11
130.35
 21
417.2989947404
 31
0.0
  0
LINE
  5
E5
330
85
100
AcDbEntity
  8
$DDT_AUDIT_GENERATED_(D9)
  6
Continuous
 62
     7
100
AcDbLine
 10
102.35
 20
417.2989947404
 30
0.0
 11
102.35
 21
415.9989947404
 31
0.0
  0
SPLINE
  5
E7
330
85
100
AcDbEntity
  8
$DDT_AUDIT_GENERATED_(E6)
  6
Continuous
 62
     7
100
AcDbSpline
210
0.0
220
0.0
230
1.0
 70
     8
 71
     3
 72
     8
 73
     4
 74
     0
 42
0.0000002007397665
 43
0.0000000001
 40
0.9541874495012067
 40
0.9541874495012067
 40
0.9541874495012067
 40
0.9541874495012067
 40
1.0
 40
1.0
 40
1.0
 40
1.0
 10
90.98824044563209
 20
479.7093077895707
 30
0.0
 10
90.98874645896105
 20
479.7093172094085
 30
0.0
 10
90.98939475339688
 20
479.7096604449803
 30
0.0
 10
90.99018618758855
 20
479.7103390540858
 30
0.0
  0
ELLIPSE
  5
E8
330
85
100
AcDbEntity
  8
$DDT_AUDIT_GENERATED_(E6)
  6
Continuous
 62
     7
100
AcDbEllipse
 10
116.35
 20
479.6878206967
 30
0.0
 11
-25.37439975342197
 21
0.0
 31
0.0
210
0.0
220
0.0
230
1.0
 40
0.0261769483
 41
3.200250200529575
 42
6.226875112493922
  0
ELLIPSE
  5
E9
330
85
100
AcDbEntity
  8
$DDT_AUDIT_GENERATED_(E6)
  6
Continuous
 62
     7
100
AcDbEllipse
 10
110.1
 20
504.7192744945
 30
0.0
 11
2.299999999999995
 21
0.0
 31
0.0
210
0.0
220
0.0
230
1.0
 40
0.0261769483
 41
1.570796326794897
 42
2.508748365638737
  0
ELLIPSE
  5
EA
330
85
100
AcDbEntity
  8
$DDT_AUDIT_GENERATED_(E6)
  6
Continuous
 62
     7
100
AcDbEllipse
 10
122.6
 20
504.7192744945
 30
0.0
 11
2.299999999999998
 21
0.0
 31
0.0
210
0.0
220
0.0
230
1.0
 40
0.0261769483
 41
0.6921954333257297
 42
1.570796326794903
  0
LINE
  5
EB
330
85
100
AcDbEntity
  8
$DDT_AUDIT_GENERATED_(E6)
  6
Continuous
 62
     7
100
AcDbLine
 10
125.6
 20
505.419034622
 30
0.0
 11
125.6
 21
503.6468317691
 31
0.0
  0
LINE
  5
EC
330
85
100
AcDbEntity
  8
$DDT_AUDIT_GENERATED_(E6)
  6
Continuous
 62
     7
100
AcDbLine
 10
107.1
 20
505.419034622
 30
0.0
 11
107.1
 21
515.4614840651
 31
0.0
  0
LINE
  5
ED
330
85
100
AcDbEntity
  8
$DDT_AUDIT_GENERATED_(E6)
  6
Continuous
 62
     7
100
AcDbLine
 10
107.1
 20
503.6468317691
 30
0.0
 11
107.1
 21
505.419034622
 31
0.0
  0
ELLIPSE
  5
EE
330
85
100
AcDbEntity
  8
$DDT_AUDIT_GENERATED_(E6)
  6
Continuous
 62
     7
100
AcDbEllipse
 10
116.35
 20
502.1801105086
 30
0.0
 11
-27.50000000000023
 21
0.0
 31
0.0
210
0.0
220
0.0
230
1.0
 40
0.0261769483
 41
4.369677291919245
 42
5.055100668850137
  0
SPLINE
  5
EF
330
85
100
AcDbEntity
  8
$DDT_AUDIT_GENERATED_(E6)
  6
Continuous
 62
     7
100
AcDbSpline
210
0.0
220
0.0
230
1.0
 70
     8
 71
     3
 72
    10
 73
     6
 74
     0
 42
0.0000000004568284
 43
0.0000000001
 40
0.0
 40
0.0
 40
0.0
 40
0.0
 40
0.1249999999999998
 40
0.1249999999999998
 40
0.1999191884350884
 40
0.1999191884350884
 40
0.1999191884350884
 40
0.1999191884350884
 10
116.3499999999999
 20
498.4707031109481
 30
0.0
 10
115.4471163747359
 20
498.4707031109481
 30
0.0
 10
114.5722969681772
 20
498.0586780677868
 30
0.0
 10
113.6286160645053
 20
496.9931558910576
 30
0.0
 10
113.3769611521448
 20
496.5081776532637
 30
0.0
 10
113.2351820433287
 20
495.9905920783195
 30
0.0
  0
SPLINE
  5
F0
330
85
100
AcDbEntity
  8
$DDT_AUDIT_GENERATED_(E6)
  6
Continuous
 62
     7
100
AcDbSpline
210
0.0
220
0.0
230
1.0
 70
     8
 71
     3
 72
    14
 73
    10
 74
     0
 42
0.0000000004530108
 43
0.0000000001
 40
0.3703029687815761
 40
0.3703029687815761
 40
0.3703029687815761
 40
0.3703029687815761
 40
0.3749999999999997
 40
0.3749999999999997
 40
0.4999999999999998
 40
0.4999999999999998
 40
0.6249999999999998
 40
0.6249999999999998
 40
0.6277820191528342
 40
0.6277820191528342
 40
0.6277820191528342
 40
0.6277820191528342
 10
113.946620290447
 20
492.5446930854154
 30
0.0
 10
113.9676749634589
 20
492.5184762620555
 30
0.0
 10
113.989105080877
 20
492.4925247901598
 30
0.0
 10
114.5911584419194
 20
491.7835227066628
 30
0.0
 10
115.4440197396376
 20
491.3332616887991
 30
0.0
 10
117.2354914757505
 20
491.3267550027238
 30
0.0
 10
118.0982210237039
 20
491.7754661314644
 30
0.0
 10
118.6946579322629
 20
492.4733332028845
 30
0.0
 10
118.707512430654
 20
492.4886274449294
 30
0.0
 10
118.7202356014905
 20
492.5040201117421
 30
0.0
  0
SPLINE
  5
F1
330
85
100
AcDbEntity
  8
$DDT_AUDIT_GENERATED_(E6)
  6
Continuous
 62
     7
100
AcDbSpline
210
0.0
220
0.0
230
1.0
 70
     8
 71
     3
 72
    10
 73
     6
 74
     0
 42
0.0000000004550224
 43
0.0000000001
 40
0.7640768119368074
 40
0.7640768119368074
 40
0.7640768119368074
 40
0.7640768119368074
 40
0.8749999999999999
 40
0.8749999999999999
 40
1.0
 40
1.0
 40
1.0
 40
1.0
 10
119.5925184974748
 20
495.22398029218
 30
0.0
 10
119.5428539611108
 20
496.0170048815306
 30
0.0
 10
119.2459280199128
 20
496.7942556964848
 30
0.0
 10
118.1296138168063
 20
498.0585595698577
 30
0.0
 10
117.2528836252639
 20
498.4707031109481
 30
0.0
 10
116.3499999999999
 20
498.4707031109481
 30
0.0
  0
ELLIPSE
  5
F2
330
85
100
AcDbEntity
  8
$DDT_AUDIT_GENERATED_(E6)
  6
Continuous
 62
     7
100
AcDbEllipse
 10
116.35
 20
479.6878206967
 30
0.0
 11
25.70000000000001
 21
0.0
 31
0.0
210
0.0
220
0.0
230
1.0
 40
0.0261769483
 41
0.0560140008269842
 42
3.084404157741513
  0
SPLINE
  5
F3
330
85
100
AcDbEntity
  8
$DDT_AUDIT_GENERATED_(E6)
  6
Continuous
 62
     7
100
AcDbSpline
210
0.0
220
0.0
230
1.0
 70
     8
 71
     3
 72
     8
 73
     4
 74
     0
 42
0.0000001788095541
 43
0.0000000001
 40
0.0
 40
0.0
 40
0.0
 40
0.0
 40
0.0455952314999839
 40
0.0455952314999839
 40
0.0455952314999839
 40
0.0455952314999839
 10
90.66440104350852
 20
479.7103390540858
 30
0.0
 10
90.66362803131203
 20
479.7096677259382
 30
0.0
 10
90.66288776607038
 20
479.7093202129727
 30
0.0
 10
90.6621798598684
 20
479.7092958381371
 30
0.0
  0
SPLINE
  5
F4
330
85
100
AcDbEntity
  8
$DDT_AUDIT_GENERATED_(E6)
  6
Continuous
 62
     7
100
AcDbSpline
210
0.0
220
0.0
230
1.0
 70
     8
 71
     3
 72
     8
 73
     4
 74
     0
 42
0.00000017908065
 43
0.0000000001
 40
0.9537943895858251
 40
0.9537943895858251
 40
0.9537943895858251
 40
0.9537943895858251
 40
1.0
 40
1.0
 40
1.0
 40
1.0
 10
142.0378500389515
 20
479.7093077944829
 30
0.0
 10
142.0371325832947
 20
479.7093153277023
 30
0.0
 10
142.0363823147973
 20
479.7096587407832
 30
0.0
 10
142.0355989564914
 20
479.7103390540858
 30
0.0
  0
ARC
  5
F5
330
85
100
AcDbEntity
  8
$DDT_AUDIT_GENERATED_(E6)
  6
Continuous
 62
     7
100
AcDbCircle
 10
103.358475833
 20
431.2482462781
 30
0.0
 40
82.87671143482595
100
AcDbArc
 50
89.9016957985
 51
98.3574562659
  0
ARC
  5
F6
330
85
100
AcDbEntity
  8
$DDT_AUDIT_GENERATED_(E6)
  6
Continuous
 62
     7
100
AcDbCircle
 10
103.7365418043
 20
545.2699004562
 30
0.0
 40
31.14595788143643
100
AcDbArc
 50
269.5660885171
 51
276.2293394019
  0
ARC
  5
F7
330
85
100
AcDbEntity
  8
$DDT_AUDIT_GENERATED_(E6)
  6
Continuous
 62
     7
100
AcDbCircle
 10
116.3499999999
 20
-160.2062528751
 30
0.0
 40
676.4817935883011
100
AcDbArc
 50
89.4700895204
 51
90.5299104796
  0
ARC
  5
F8
330
85
100
AcDbEntity
  8
$DDT_AUDIT_GENERATED_(E6)
  6
Continuous
 62
     7
100
AcDbCircle
 10
128.963578042
 20
545.2718470678
 30
0.0
 40
31.14790352982882
100
AcDbArc
 50
263.7577891993
 51
270.4336639178
  0
ARC
  5
F9
330
85
100
AcDbEntity
  8
$DDT_AUDIT_GENERATED_(E6)
  6
Continuous
 62
     7
100
AcDbCircle
 10
129.3407259469
 20
431.2374551475
 30
0.0
 40
82.88750118401627
100
AcDbArc
 50
81.6557191601
 51
90.0977396364
  0
LINE
  5
FA
330
85
100
AcDbEntity
  8
$DDT_AUDIT_GENERATED_(E6)
  6
Continuous
 62
     7
100
AcDbLine
 10
125.6
 20
515.4614840651
 30
0.0
 11
125.6
 21
505.419034622
 31
0.0
  0
ELLIPSE
  5
FB
330
85
100
AcDbEntity
  8
$DDT_AUDIT_GENERATED_(E6)
  6
Continuous
 62
     7
100
AcDbEllipse
 10
141.65
 20
512.5026510651
 30
0.0
 11
0.699999999999975
 21
1.985911435298249E-11
 31
0.0
210
0.0
220
0.0
230
1.0
 40
0.999657325
 41
0.0
 42
0.0969876822026053
  0
ELLIPSE
  5
FC
330
85
100
AcDbEntity
  8
$DDT_AUDIT_GENERATED_(E6)
  6
Continuous
 62
     7
100
AcDbEllipse
 10
124.9
 20
515.4614840651
 30
0.0
 11
0.6999999999999472
 21
1.135203042679223E-11
 31
0.0
210
0.0
220
0.0
230
1.0
 40
0.999657325
 41
0.0
 42
0.1794982636020454
  0
LINE
  5
FD
330
85
100
AcDbEntity
  8
$DDT_AUDIT_GENERATED_(E6)
  6
Continuous
 62
     7
100
AcDbLine
 10
90.6632892376
 20
479.709311029
 30
0.0
 11
90.9918328237
 21
479.709311029
 31
0.0
  0
LINE
  5
FE
330
85
100
AcDbEntity
  8
$DDT_AUDIT_GENERATED_(E6)
  6
Continuous
 62
     7
100
AcDbLine
 10
141.70699745
 20
479.709311029
 30
0.0
 11
142.0371299161
 21
479.709311029
 31
0.0
  0
SPLINE
  5
FF
330
85
100
AcDbEntity
  8
$DDT_AUDIT_GENERATED_(E6)
  6
Continuous
 62
     7
100
AcDbSpline
210
0.0
220
0.0
230
1.0
 70
     8
 71
     3
 72
    16
 73
    12
 74
     0
 42
0.0000000164986687
 43
0.0000000001
 40
0.0
 40
0.0
 40
0.0
 40
0.0
 40
0.012964469936754
 40
0.1306657890086464
 40
0.2227185836678411
 40
0.3019255805140705
 40
0.3740581763301329
 40
0.4472976495310545
 40
0.5495562458372713
 40
0.7571060403660728
 40
1.0
 40
1.0
 40
1.0
 40
1.0
 10
142.0361716819358
 20
479.7115216196041
 30
0.0
 10
142.0410237777105
 20
479.7107088201114
 30
0.0
 10
142.0831820981755
 20
479.7037547855292
 30
0.0
 10
142.1641771140079
 20
479.7313463211206
 30
0.0
 10
142.2453598208535
 20
479.7858434826053
 30
0.0
 10
142.2955515919721
 20
479.8481533483248
 30
0.0
 10
142.3227090943939
 20
479.9038980791619
 30
0.0
 10
142.3369049520492
 20
479.9511144459073
 30
0.0
 10
142.3454131830053
 20
480.000597261104
 30
0.0
 10
142.3493045527022
 20
480.0504285240138
 30
0.0
 10
142.3493028741837
 20
480.1021283192261
 30
0.0
 10
142.3488446708895
 20
480.1340280752458
 30
0.0
  0
SPLINE
  5
100
330
85
100
AcDbEntity
  8
$DDT_AUDIT_GENERATED_(E6)
  6
Continuous
 62
     7
100
AcDbSpline
210
0.0
220
0.0
230
1.0
 70
     8
 71
     3
 72
    14
 73
    10
 74
     0
 42
0.0000000107800795
 43
0.0000000001
 40
0.3860633792423582
 40
0.3860633792423582
 40
0.3860633792423582
 40
0.3860633792423582
 40
0.5965202697197004
 40
0.7101091691762619
 40
0.7702532569156317
 40
0.8305422173096499
 40
0.899566726146632
 40
0.973225972045491
 40
1.0
 40
1.0
 40
1.0
 40
1.0
 10
90.35000191872292
 20
480.0969501983186
 30
0.0
 10
90.35043430390853
 20
480.0640764966178
 30
0.0
 10
90.35276969583
 20
480.0182169266168
 30
0.0
 10
90.36096146208288
 20
479.9529557020879
 30
0.0
 10
90.3869764518139
 20
479.8782585372788
 30
0.0
 10
90.43495680873484
 20
479.8043767310716
 30
0.0
 10
90.51437838591056
 20
479.7415905530038
 30
0.0
 10
90.6010859096362
 20
479.7075127246138
 30
0.0
 10
90.64914360987363
 20
479.7128656420464
 30
0.0
 10
90.66402430146427
 20
479.7146625563614
 30
0.0
  0
LINE
  5
101
330
85
100
AcDbEntity
  8
$DDT_AUDIT_GENERATED_(E6)
  6
Continuous
 62
     7
100
AcDbLine
 10
142.35
 20
480.1348130514
 30
0.0
 11
142.35
 21
512.5026510651
 31
0.0
  0
LINE
  5
102
330
85
100
AcDbEntity
  8
$DDT_AUDIT_GENERATED_(E6)
  6
Continuous
 62
     7
100
AcDbLine
 10
90.35
 20
512.5026510651
 30
0.0
 11
90.35
 21
480.1641551858
 31
0.0
  0
SPLINE
  5
103
330
85
100
AcDbEntity
  8
$DDT_AUDIT_GENERATED_(E6)
  6
Continuous
 62
     7
100
AcDbSpline
210
0.0
220
0.0
230
1.0
 70
     8
 71
     3
 72
    14
 73
    10
 74
     0
 42
0.0000000079947999
 43
0.0000000001
 40
0.0
 40
0.0
 40
0.0
 40
0.0
 40
0.3589473654586737
 40
0.5568883308559819
 40
0.6897516309636814
 40
0.7825339936674846
 40
0.8683677617863098
 40
0.9526742378257295
 40
1.0
 40
1.0
 40
1.0
 40
1.0
 10
91.21435851157314
 20
513.2990825718506
 30
0.0
 10
91.1259566529265
 20
513.2812716433929
 30
0.0
 10
91.00633814772033
 20
513.2534547085842
 30
0.0
 10
90.85084837489227
 20
513.1970633364925
 30
0.0
 10
90.72409598584066
 20
513.1315601979991
 30
0.0
 10
90.5964797692451
 20
513.0344226785513
 30
0.0
 10
90.47606951845705
 20
512.889500101778
 30
0.0
 10
90.38675372225647
 20
512.7011538674831
 30
0.0
 10
90.38625148700766
 20
512.580155190607
 30
0.0
 10
90.38623196379064
 20
512.5286550856767
 30
0.0
  0
SPLINE
  5
104
330
85
100
AcDbEntity
  8
$DDT_AUDIT_GENERATED_(E6)
  6
Continuous
 62
     7
100
AcDbSpline
210
0.0
220
0.0
230
1.0
 70
     8
 71
     3
 72
    15
 73
    11
 74
     0
 42
0.0000000080629866
 43
0.0000000001
 40
0.0
 40
0.0
 40
0.0
 40
0.0
 40
0.0676047512166497
 40
0.1468998200629091
 40
0.2270593439859083
 40
0.3170481928958738
 40
0.4301063707476411
 40
0.5880593436464283
 40
0.8391465720720922
 40
1.0
 40
1.0
 40
1.0
 40
1.0
 10
142.3136867039426
 20
512.5640781841615
 30
0.0
 10
142.3046730543338
 20
512.6378777094974
 30
0.0
 10
142.2877522026726
 20
512.7725129232001
 30
0.0
 10
142.1811832875406
 20
512.9467111784182
 30
0.0
 10
142.0669374760796
 20
513.0643579097907
 30
0.0
 10
141.9567061869868
 20
513.1411179700708
 30
0.0
 10
141.8498860989797
 20
513.1953371379695
 30
0.0
 10
141.7264655234446
 20
513.241162354525
 30
0.0
 10
141.6051957909249
 20
513.2759638530243
 30
0.0
 10
141.5040133845755
 20
513.2953674334177
 30
0.0
 10
141.4577731110815
 20
513.303955633341
 30
0.0
  0
SPLINE
  5
105
330
85
100
AcDbEntity
  8
$DDT_AUDIT_GENERATED_(E6)
  6
Continuous
 62
     7
100
AcDbSpline
210
0.0
220
0.0
230
1.0
 70
     8
 71
     3
 72
    21
 73
    17
 74
     0
 42
0.0000000030116629
 43
0.0000000001
 40
0.0
 40
0.0
 40
0.0
 40
0.0
 40
0.0440366101424707
 40
0.1523628933086174
 40
0.26105622082147
 40
0.3694331271807039
 40
0.4787283113036425
 40
0.5894905881037633
 40
0.7043312460467029
 40
0.7564379075337389
 40
0.7879421861900168
 40
0.8186933907955689
 40
0.861115776677176
 40
0.9071355808800652
 40
0.9602017110519458
 40
1.0
 40
1.0
 40
1.0
 40
1.0
 10
110.0073236466737
 20
516.2456557118394
 30
0.0
 10
109.9372786261077
 20
516.2450306704912
 30
0.0
 10
109.7301969510854
 20
516.2431432186885
 30
0.0
 10
109.3494590731224
 20
516.2367717178282
 30
0.0
 10
108.9204091103394
 20
516.2271948036453
 30
0.0
 10
108.5325948084679
 20
516.2154545925666
 30
0.0
 10
108.2065008427077
 20
516.2022915378202
 30
0.0
 10
107.9472578238849
 20
516.187639771431
 30
0.0
 10
107.7995403665748
 20
516.1748467266218
 30
0.0
 10
107.6962067311915
 20
516.1600899394718
 30
0.0
 10
107.5988877844695
 20
516.1370035328772
 30
0.0
 10
107.4745656249479
 20
516.0887205954507
 30
0.0
 10
107.3322777650788
 20
515.9948120626652
 30
0.0
 10
107.1994056518833
 20
515.8409944579759
 30
0.0
 10
107.1110090572471
 20
515.6504114847022
 30
0.0
 10
107.1089046109669
 20
515.5240713288908
 30
0.0
 10
107.1090079155517
 20
515.4609690660712
 30
0.0
  0
SPLINE
  5
106
330
85
100
AcDbEntity
  8
$DDT_AUDIT_GENERATED_(E6)
  6
Continuous
 62
     7
100
AcDbSpline
210
0.0
220
0.0
230
1.0
 70
     8
 71
     3
 72
    22
 73
    18
 74
     0
 42
0.0000000030518701
 43
0.0000000001
 40
0.0
 40
0.0
 40
0.0
 40
0.0
 40
0.0515760084945207
 40
0.0952484777990485
 40
0.1328362289284073
 40
0.1650411981358606
 40
0.1907300907725618
 40
0.2144990236973653
 40
0.248642949625902
 40
0.3110149497497715
 40
0.4238894054674072
 40
0.5301550728974247
 40
0.6422071986266907
 40
0.7531568846956677
 40
0.8629718910533892
 40
0.9731590379796066
 40
1.0
 40
1.0
 40
1.0
 40
1.0
 10
125.5876589514958
 20
515.5866592254891
 30
0.0
 10
125.5673465908288
 20
515.6651239340017
 30
0.0
 10
125.532696813422
 20
515.7881967469984
 30
0.0
 10
125.4161507020292
 20
515.9452820686253
 30
0.0
 10
125.2932325885595
 20
516.0478958717177
 30
0.0
 10
125.1775280078553
 20
516.1090443835823
 30
0.0
 10
125.0874713888613
 20
516.1399562063802
 30
0.0
 10
125.0187485913288
 20
516.1564608677993
 30
0.0
 10
124.9484613070358
 20
516.1683646792495
 30
0.0
 10
124.8458870012081
 20
516.1800646950991
 30
0.0
 10
124.6732952184092
 20
516.1926968138641
 30
0.0
 10
124.3959028661055
 20
516.2066495398411
 30
0.0
 10
124.0505517536288
 20
516.219365967044
 30
0.0
 10
123.641150123067
 20
516.2306648538644
 30
0.0
 10
123.196916501758
 20
516.2395126082035
 30
0.0
 10
122.8335469699148
 20
516.2449473977049
 30
0.0
 10
122.6486819243039
 20
516.2462852248556
 30
0.0
 10
122.606459452436
 20
516.2465859931739
 30
0.0
  0
ELLIPSE
  5
108
330
85
100
AcDbEntity
  8
$DDT_AUDIT_GENERATED_(107)
  6
Continuous
 62
     7
100
AcDbEllipse
 10
116.35
 20
494.9343715021
 30
0.0
 11
-1.694271919167506E-14
 21
-3.722108479915651
 31
0.0
210
0.0
220
0.0
230
1.0
 40
0.9000275027
 41
0.0000000000000008
 42
1.632656093764648
  0
ELLIPSE
  5
109
330
85
100
AcDbEntity
  8
$DDT_AUDIT_GENERATED_(107)
  6
Continuous
 62
     7
100
AcDbEllipse
 10
116.35
 20
494.9343715021
 30
0.0
 11
-1.694271919167506E-14
 21
-3.722108479915651
 31
0.0
210
0.0
220
0.0
230
1.0
 40
0.9000275027
 41
4.203942780667177
 42
6.283185307179583
  0
ARC
  5
10B
330
85
100
AcDbEntity
  8
$DDT_AUDIT_GENERATED_(10A)
  6
Continuous
 62
     7
100
AcDbCircle
 10
41.35
 20
420.7989947404
 30
0.0
 40
35.0
100
AcDbArc
 50
40.0052008849
 51
319.9947991151
  0
ARC
  5
10C
330
85
100
AcDbEntity
  8
$DDT_AUDIT_GENERATED_(10A)
  6
Continuous
 62
     7
100
AcDbCircle
 10
191.35
 20
420.7989947404
 30
0.0
 40
35.0
100
AcDbArc
 50
0.0
 51
92.8659839826
  0
ARC
  5
10D
330
85
100
AcDbEntity
  8
$DDT_AUDIT_GENERATED_(10A)
  6
Continuous
 62
     7
100
AcDbCircle
 10
191.35
 20
420.7989947404
 30
0.0
 40
35.0
100
AcDbArc
 50
258.5007121778
 51
0.0
  0
ENDBLK
  5
10F
330
85
100
AcDbEntity
  8
0
100
AcDbBlockEnd
  0
BLOCK
  5
182
330
110
100
AcDbEntity
  8
0
100
AcDbBlockBegin
  2
SE1
 70
     0
 10
0.0
 20
0.0
 30
0.0
  3
SE1
  1

  0
LINE
  5
112
330
110
100
AcDbEntity
  8
$DDT_AUDIT_GENERATED_(87)
  6
Continuous
 62
     7
100
AcDbLine
 10
354.25
 20
398.2989947404
 30
0.0
 11
349.3804347826
 21
398.2989947404
 31
0.0
  0
LINE
  5
113
330
110
100
AcDbEntity
  8
$DDT_AUDIT_GENERATED_(87)
  6
Continuous
 62
     7
100
AcDbLine
 10
349.3804347826
 20
398.2989947404
 30
0.0
 11
340.25
 21
398.2989947404
 31
0.0
  0
LINE
  5
114
330
110
100
AcDbEntity
  8
$DDT_AUDIT_GENERATED_(87)
  6
Continuous
 62
     7
100
AcDbLine
 10
354.25
 20
443.2989947404
 30
0.0
 11
397.25
 21
443.2989947404
 31
0.0
  0
LINE
  5
115
330
110
100
AcDbEntity
  8
$DDT_AUDIT_GENERATED_(87)
  6
Continuous
 62
     7
100
AcDbLine
 10
349.3804347826
 20
443.2989947404
 30
0.0
 11
354.25
 21
443.2989947404
 31
0.0
  0
LINE
  5
116
330
110
100
AcDbEntity
  8
$DDT_AUDIT_GENERATED_(87)
  6
Continuous
 62
     7
100
AcDbLine
 10
349.3804347826
 20
443.2989947404
 30
0.0
 11
340.25
 21
443.2989947404
 31
0.0
  0
LINE
  5
117
330
110
100
AcDbEntity
  8
$DDT_AUDIT_GENERATED_(87)
  6
Continuous
 62
     7
100
AcDbLine
 10
353.25
 20
428.2989947404
 30
0.0
 11
353.25
 21
442.2989947404
 31
0.0
  0
LINE
  5
118
330
110
100
AcDbEntity
  8
$DDT_AUDIT_GENERATED_(87)
  6
Continuous
 62
     7
100
AcDbLine
 10
353.25
 20
413.2989947404
 30
0.0
 11
353.25
 21
428.2989947404
 31
0.0
  0
LINE
  5
119
330
110
100
AcDbEntity
  8
$DDT_AUDIT_GENERATED_(87)
  6
Continuous
 62
     7
100
AcDbLine
 10
353.25
 20
399.2989947404
 30
0.0
 11
353.25
 21
413.2989947404
 31
0.0
  0
LINE
  5
11A
330
110
100
AcDbEntity
  8
$DDT_AUDIT_GENERATED_(87)
  6
Continuous
 62
     7
100
AcDbLine
 10
354.25
 20
413.2989947404
 30
0.0
 11
397.25
 21
413.2989947404
 31
0.0
  0
ARC
  5
11B
330
110
100
AcDbEntity
  8
$DDT_AUDIT_GENERATED_(87)
  6
Continuous
 62
     7
100
AcDbCircle
 10
354.25
 20
442.2989947404
 30
0.0
 40
1.000000000000001
100
AcDbArc
 50
90.0
 51
180.0
  0
ARC
  5
11C
330
110
100
AcDbEntity
  8
$DDT_AUDIT_GENERATED_(87)
  6
Continuous
 62
     7
100
AcDbCircle
 10
354.25
 20
399.2989947404
 30
0.0
 40
1.000000000000004
100
AcDbArc
 50
180.0
 51
270.0
  0
LINE
  5
11D
330
110
100
AcDbEntity
  8
$DDT_AUDIT_GENERATED_(87)
  6
Continuous
 62
     7
100
AcDbLine
 10
498.25
 20
443.2989947404
 30
0.0
 11
505.25
 21
443.2989947404
 31
0.0
  0
LINE
  5
11E
330
110
100
AcDbEntity
  8
$DDT_AUDIT_GENERATED_(87)
  6
Continuous
 62
     7
100
AcDbLine
 10
413.25
 20
443.2989947404
 30
0.0
 11
498.25
 21
443.2989947404
 31
0.0
  0
LINE
  5
11F
330
110
100
AcDbEntity
  8
$DDT_AUDIT_GENERATED_(87)
  6
Continuous
 62
     7
100
AcDbLine
 10
397.25
 20
443.2989947404
 30
0.0
 11
413.25
 21
443.2989947404
 31
0.0
  0
LINE
  5
120
330
110
100
AcDbEntity
  8
$DDT_AUDIT_GENERATED_(87)
  6
Continuous
 62
     7
100
AcDbLine
 10
506.25
 20
442.2989947404
 30
0.0
 11
506.25
 21
418.2989947404
 31
0.0
  0
LINE
  5
121
330
110
100
AcDbEntity
  8
$DDT_AUDIT_GENERATED_(87)
  6
Continuous
 62
     7
100
AcDbLine
 10
398.25
 20
413.2989947404
 30
0.0
 11
398.25
 21
399.2989947404
 31
0.0
  0
LINE
  5
122
330
110
100
AcDbEntity
  8
$DDT_AUDIT_GENERATED_(87)
  6
Continuous
 62
     7
100
AcDbLine
 10
398.25
 20
428.2989947404
 30
0.0
 11
398.25
 21
413.2989947404
 31
0.0
  0
LINE
  5
123
330
110
100
AcDbEntity
  8
$DDT_AUDIT_GENERATED_(87)
  6
Continuous
 62
     7
100
AcDbLine
 10
398.25
 20
442.2989947404
 30
0.0
 11
398.25
 21
428.2989947404
 31
0.0
  0
LINE
  5
124
330
110
100
AcDbEntity
  8
$DDT_AUDIT_GENERATED_(87)
  6
Continuous
 62
     7
100
AcDbLine
 10
397.25
 20
428.2989947404
 30
0.0
 11
354.25
 21
428.2989947404
 31
0.0
  0
LINE
  5
125
330
110
100
AcDbEntity
  8
$DDT_AUDIT_GENERATED_(87)
  6
Continuous
 62
     7
100
AcDbLine
 10
397.25
 20
398.2989947404
 30
0.0
 11
354.25
 21
398.2989947404
 31
0.0
  0
ARC
  5
126
330
110
100
AcDbEntity
  8
$DDT_AUDIT_GENERATED_(87)
  6
Continuous
 62
     7
100
AcDbCircle
 10
397.25
 20
399.2989947404
 30
0.0
 40
1.000000000000001
100
AcDbArc
 50
270.0
 51
0.0
  0
ARC
  5
127
330
110
100
AcDbEntity
  8
$DDT_AUDIT_GENERATED_(87)
  6
Continuous
 62
     7
100
AcDbCircle
 10
397.25
 20
442.2989947404
 30
0.0
 40
0.9999999999999974
100
AcDbArc
 50
0.0
 51
90.0
  0
ARC
  5
128
330
110
100
AcDbEntity
  8
$DDT_AUDIT_GENERATED_(87)
  6
Continuous
 62
     7
100
AcDbCircle
 10
505.25
 20
442.2989947404
 30
0.0
 40
1.000000000000001
100
AcDbArc
 50
0.0
 51
90.0
  0
LINE
  5
129
330
110
100
AcDbEntity
  8
$DDT_AUDIT_GENERATED_(87)
  6
Continuous
 62
     7
100
AcDbLine
 10
413.25
 20
417.2989947404
 30
0.0
 11
406.25
 21
417.2989947404
 31
0.0
  0
LINE
  5
12A
330
110
100
AcDbEntity
  8
$DDT_AUDIT_GENERATED_(87)
  6
Continuous
 62
     7
100
AcDbLine
 10
498.25
 20
417.2989947404
 30
0.0
 11
413.25
 21
417.2989947404
 31
0.0
  0
LINE
  5
12B
330
110
100
AcDbEntity
  8
$DDT_AUDIT_GENERATED_(87)
  6
Continuous
 62
     7
100
AcDbLine
 10
505.25
 20
417.2989947404
 30
0.0
 11
498.25
 21
417.2989947404
 31
0.0
  0
ARC
  5
12C
330
110
100
AcDbEntity
  8
$DDT_AUDIT_GENERATED_(87)
  6
Continuous
 62
     7
100
AcDbCircle
 10
505.25
 20
418.2989947404
 30
0.0
 40
0.9999999999999983
100
AcDbArc
 50
270.0
 51
0.0
  0
SPLINE
  5
12D
330
110
100
AcDbEntity
  8
$DDT_AUDIT_GENERATED_(87)
  6
Continuous
 62
     7
100
AcDbSpline
210
0.0
220
0.0
230
1.0
 70
     8
 71
     3
 72
     8
 73
     4
 74
     0
 42
0.0000000007461809
 43
0.0000000001
 40
0.993632264066739
 40
0.993632264066739
 40
0.993632264066739
 40
0.993632264066739
 40
1.0
 40
1.0
 40
1.0
 40
1.0
 10
406.1646627371879
 20
417.2992070042396
 30
0.0
 10
406.1930958744948
 20
417.2990662020614
 30
0.0
 10
406.2215422178533
 20
417.2989947403808
 30
0.0
 10
406.25
 20
417.2989947403808
 30
0.0
  0
ARC
  5
12E
330
110
100
AcDbEntity
  8
$DDT_AUDIT_GENERATED_(87)
  6
Continuous
 62
     7
100
AcDbCircle
 10
406.25
 20
409.2989947404
 30
0.0
 40
7.999999999999996
100
AcDbArc
 50
90.0
 51
180.0
  0
LINE
  5
12F
330
110
100
AcDbEntity
  8
$DDT_AUDIT_GENERATED_(87)
  6
Continuous
 62
     7
100
AcDbLine
 10
339.25
 20
442.2989947404
 30
0.0
 11
339.25
 21
440.0489947404
 31
0.0
  0
LINE
  5
130
330
110
100
AcDbEntity
  8
$DDT_AUDIT_GENERATED_(87)
  6
Continuous
 62
     7
100
AcDbLine
 10
339.25
 20
401.5489947404
 30
0.0
 11
339.25
 21
399.2989947404
 31
0.0
  0
ARC
  5
131
330
110
100
AcDbEntity
  8
$DDT_AUDIT_GENERATED_(87)
  6
Continuous
 62
     7
100
AcDbCircle
 10
340.25
 20
442.2989947404
 30
0.0
 40
1.000000000000001
100
AcDbArc
 50
90.0
 51
180.0
  0
ARC
  5
132
330
110
100
AcDbEntity
  8
$DDT_AUDIT_GENERATED_(87)
  6
Continuous
 62
     7
100
AcDbCircle
 10
340.25
 20
399.2989947404
 30
0.0
 40
1.000000000000001
100
AcDbArc
 50
180.0
 51
270.0
  0
LINE
  5
133
330
110
100
AcDbEntity
  8
$DDT_AUDIT_GENERATED_(A3)
  6
Continuous
 62
     7
100
AcDbLine
 10
388.25
 20
395.7989947404
 30
0.0
 11
363.25
 21
395.7989947404
 31
0.0
  0
LINE
  5
134
330
110
100
AcDbEntity
  8
$DDT_AUDIT_GENERATED_(A3)
  6
Continuous
 62
     7
100
AcDbLine
 10
386.23
 20
392.5339947404
 30
0.0
 11
365.27
 21
392.5339947404
 31
0.0
  0
LINE
  5
135
330
110
100
AcDbEntity
  8
$DDT_AUDIT_GENERATED_(A3)
  6
Continuous
 62
     7
100
AcDbLine
 10
385.065
 20
393.6989947404
 30
0.0
 11
366.435
 21
393.6989947404
 31
0.0
  0
LINE
  5
136
330
110
100
AcDbEntity
  8
$DDT_AUDIT_GENERATED_(A3)
  6
Continuous
 62
     7
100
AcDbLine
 10
385.07
 20
385.7989947404
 30
0.0
 11
366.43
 21
385.7989947404
 31
0.0
  0
LINE
  5
137
330
110
100
AcDbEntity
  8
$DDT_AUDIT_GENERATED_(A3)
  6
Continuous
 62
     7
100
AcDbLine
 10
365.27
 20
386.9589947404
 30
0.0
 11
386.23
 21
386.9589947404
 31
0.0
  0
LINE
  5
138
330
110
100
AcDbEntity
  8
$DDT_AUDIT_GENERATED_(A3)
  6
Continuous
 62
     7
100
AcDbLine
 10
388.25
 20
395.7989947404
 30
0.0
 11
388.25
 21
398.2989947404
 31
0.0
  0
LINE
  5
139
330
110
100
AcDbEntity
  8
$DDT_AUDIT_GENERATED_(A3)
  6
Continuous
 62
     7
100
AcDbLine
 10
363.25
 20
398.2989947404
 30
0.0
 11
363.25
 21
395.7989947404
 31
0.0
  0
LINE
  5
13A
330
110
100
AcDbEntity
  8
$DDT_AUDIT_GENERATED_(A3)
  6
Continuous
 62
     7
100
AcDbLine
 10
386.23
 20
386.9589947404
 30
0.0
 11
386.23
 21
392.5339947404
 31
0.0
  0
LINE
  5
13B
330
110
100
AcDbEntity
  8
$DDT_AUDIT_GENERATED_(A3)
  6
Continuous
 62
     7
100
AcDbLine
 10
365.27
 20
392.5339947404
 30
0.0
 11
365.27
 21
386.9589947404
 31
0.0
  0
LINE
  5
13C
330
110
100
AcDbEntity
  8
$DDT_AUDIT_GENERATED_(A3)
  6
Continuous
 62
     7
100
AcDbLine
 10
386.23
 20
392.5339947404
 30
0.0
 11
385.065
 21
393.6989947404
 31
0.0
  0
LINE
  5
13D
330
110
100
AcDbEntity
  8
$DDT_AUDIT_GENERATED_(A3)
  6
Continuous
 62
     7
100
AcDbLine
 10
366.435
 20
393.6989947404
 30
0.0
 11
365.27
 21
392.5339947404
 31
0.0
  0
LINE
  5
13E
330
110
100
AcDbEntity
  8
$DDT_AUDIT_GENERATED_(A3)
  6
Continuous
 62
     7
100
AcDbLine
 10
385.065
 20
393.6989947404
 30
0.0
 11
385.065
 21
395.7989947404
 31
0.0
  0
LINE
  5
13F
330
110
100
AcDbEntity
  8
$DDT_AUDIT_GENERATED_(A3)
  6
Continuous
 62
     7
100
AcDbLine
 10
366.435
 20
395.7989947404
 30
0.0
 11
366.435
 21
393.6989947404
 31
0.0
  0
LINE
  5
140
330
110
100
AcDbEntity
  8
$DDT_AUDIT_GENERATED_(A3)
  6
Continuous
 62
     7
100
AcDbLine
 10
365.27
 20
386.9589947404
 30
0.0
 11
366.43
 21
385.7989947404
 31
0.0
  0
LINE
  5
141
330
110
100
AcDbEntity
  8
$DDT_AUDIT_GENERATED_(A3)
  6
Continuous
 62
     7
100
AcDbLine
 10
385.07
 20
385.7989947404
 30
0.0
 11
386.23
 21
386.9589947404
 31
0.0
  0
LINE
  5
142
330
110
100
AcDbEntity
  8
$DDT_AUDIT_GENERATED_(A3)
  6
Continuous
 62
     7
100
AcDbLine
 10
366.435
 20
385.7989947404
 30
0.0
 11
366.435
 21
393.6989947404
 31
0.0
  0
LINE
  5
143
330
110
100
AcDbEntity
  8
$DDT_AUDIT_GENERATED_(A3)
  6
Continuous
 62
     7
100
AcDbLine
 10
385.065
 20
385.7989947404
 30
0.0
 11
385.065
 21
393.6989947404
 31
0.0
  0
LINE
  5
144
330
110
100
AcDbEntity
  8
$DDT_AUDIT_GENERATED_(D1)
  6
Continuous
 62
     7
100
AcDbLine
 10
395.7058248561
 20
477.1989947404
 30
0.0
 11
344.7941751439
 21
477.1989947404
 31
0.0
  0
ARC
  5
145
330
110
100
AcDbEntity
  8
$DDT_AUDIT_GENERATED_(D1)
  6
Continuous
 62
     7
100
AcDbCircle
 10
370.25
 20
471.1989947404
 30
0.0
 40
25.00000000000006
100
AcDbArc
 50
132.7088192007
 51
166.1134596374
  0
ARC
  5
146
330
110
100
AcDbEntity
  8
$DDT_AUDIT_GENERATED_(D1)
  6
Continuous
 62
     7
100
AcDbCircle
 10
370.25
 20
471.1989947404
 30
0.0
 40
25.00000000000001
100
AcDbArc
 50
13.8865403626
 51
21.3541327163
  0
LINE
  5
147
330
110
100
AcDbEntity
  8
$DDT_AUDIT_GENERATED_(D1)
  6
Continuous
 62
     7
100
AcDbLine
 10
396.4973063246
 20
443.2989947404
 30
0.0
 11
396.2058058196
 21
476.7033577843
 31
0.0
  0
LINE
  5
148
330
110
100
AcDbEntity
  8
$DDT_AUDIT_GENERATED_(D1)
  6
Continuous
 62
     7
100
AcDbLine
 10
344.2941941804
 20
476.7033577843
 30
0.0
 11
344.0026936754
 21
443.2989947404
 31
0.0
  0
ARC
  5
149
330
110
100
AcDbEntity
  8
$DDT_AUDIT_GENERATED_(D1)
  6
Continuous
 62
     7
100
AcDbCircle
 10
344.7941751439
 20
476.6989947404
 30
0.0
 40
0.5000000000000004
100
AcDbArc
 50
90.0
 51
179.500025649
  0
ARC
  5
14A
330
110
100
AcDbEntity
  8
$DDT_AUDIT_GENERATED_(D1)
  6
Continuous
 62
     7
100
AcDbCircle
 10
395.7058248561
 20
476.6989947404
 30
0.0
 40
0.5000000000000007
100
AcDbArc
 50
0.499974351
 51
90.0
  0
LINE
  5
14B
330
110
100
AcDbEntity
  8
$DDT_AUDIT_GENERATED_(D9)
  6
Continuous
 62
     7
100
AcDbLine
 10
474.0
 20
409.9989947404
 30
0.0
 11
499.5
 21
409.9989947404
 31
0.0
  0
LINE
  5
14C
330
110
100
AcDbEntity
  8
$DDT_AUDIT_GENERATED_(D9)
  6
Continuous
 62
     7
100
AcDbLine
 10
500.75
 20
410.7206825769
 30
0.0
 11
491.9461524227
 21
410.7206825769
 31
0.0
  0
LINE
  5
14D
330
110
100
AcDbEntity
  8
$DDT_AUDIT_GENERATED_(D9)
  6
Continuous
 62
     7
100
AcDbLine
 10
481.5538475773
 20
410.7206825769
 30
0.0
 11
472.75
 21
410.7206825769
 31
0.0
  0
SPLINE
  5
14E
330
110
100
AcDbEntity
  8
$DDT_AUDIT_GENERATED_(D9)
  6
Continuous
 62
     7
100
AcDbSpline
210
0.0
220
0.0
230
1.0
 70
     8
 71
     3
 72
    14
 73
    10
 74
     0
 42
0.0000000009541162
 43
0.0000000001
 40
0.0
 40
0.0
 40
0.0
 40
0.0
 40
0.25
 40
0.25
 40
0.5
 40
0.5
 40
0.75
 40
0.75
 40
1.0
 40
1.0
 40
1.0
 40
1.0
 10
491.9461524227066
 20
410.7206825768678
 30
0.0
 10
491.0961295950581
 20
410.538534828086
 30
0.0
 10
490.2357433005635
 20
410.3927078178006
 30
0.0
 10
488.4884554971813
 20
410.1939814036416
 30
0.0
 10
487.6127430875245
 20
410.1430377395931
 30
0.0
 10
485.8719489968766
 20
410.1436294775286
 30
0.0
 10
485.0045496241916
 20
410.1948501056731
 30
0.0
 10
483.2752893848256
 20
410.3913800495606
 30
0.0
 10
482.4132131986672
 20
410.5365328008592
 30
0.0
 10
481.5538475772934
 20
410.7206825768678
 30
0.0
  0
ARC
  5
14F
330
110
100
AcDbEntity
  8
$DDT_AUDIT_GENERATED_(D9)
  6
Continuous
 62
     7
100
AcDbCircle
 10
486.75
 20
401.9989947404
 30
0.0
 40
14.00000000000003
100
AcDbArc
 50
68.2132107017
 51
111.7867892983
  0
LINE
  5
150
330
110
100
AcDbEntity
  8
$DDT_AUDIT_GENERATED_(D9)
  6
Continuous
 62
     7
100
AcDbLine
 10
491.9461524227
 20
414.9989947404
 30
0.0
 11
491.9461524227
 21
410.7206825769
 31
0.0
  0
LINE
  5
151
330
110
100
AcDbEntity
  8
$DDT_AUDIT_GENERATED_(D9)
  6
Continuous
 62
     7
100
AcDbLine
 10
481.5538475773
 20
410.7206825769
 30
0.0
 11
481.5538475773
 21
414.9989947404
 31
0.0
  0
LINE
  5
152
330
110
100
AcDbEntity
  8
$DDT_AUDIT_GENERATED_(D9)
  6
Continuous
 62
     7
100
AcDbLine
 10
491.9461524227
 20
414.9989947404
 30
0.0
 11
481.5538475773
 21
414.9989947404
 31
0.0
  0
LINE
  5
153
330
110
100
AcDbEntity
  8
$DDT_AUDIT_GENERATED_(D9)
  6
Continuous
 62
     7
100
AcDbLine
 10
472.75
 20
410.7206825769
 30
0.0
 11
474.0
 21
409.9989947404
 31
0.0
  0
LINE
  5
154
330
110
100
AcDbEntity
  8
$DDT_AUDIT_GENERATED_(D9)
  6
Continuous
 62
     7
100
AcDbLine
 10
499.5
 20
409.9989947404
 30
0.0
 11
500.75
 21
410.7206825769
 31
0.0
  0
LINE
  5
155
330
110
100
AcDbEntity
  8
$DDT_AUDIT_GENERATED_(D9)
  6
Continuous
 62
     7
100
AcDbLine
 10
500.75
 20
410.7206825769
 30
0.0
 11
500.75
 21
417.2989947404
 31
0.0
  0
LINE
  5
156
330
110
100
AcDbEntity
  8
$DDT_AUDIT_GENERATED_(D9)
  6
Continuous
 62
     7
100
AcDbLine
 10
472.75
 20
417.2989947404
 30
0.0
 11
472.75
 21
410.7206825769
 31
0.0
  0
LINE
  5
157
330
110
100
AcDbEntity
  8
$DDT_AUDIT_GENERATED_(E6)
  6
Continuous
 62
     7
100
AcDbLine
 10
466.4462973237
 20
504.7192744945
 30
0.0
 11
398.7686008117
 21
502.9470716416
 31
0.0
  0
LINE
  5
158
330
110
100
AcDbEntity
  8
$DDT_AUDIT_GENERATED_(E6)
  6
Continuous
 62
     7
100
AcDbLine
 10
468.7455091712
 20
504.7794814756
 30
0.0
 11
466.4462973237
 21
504.7192744945
 31
0.0
  0
LINE
  5
159
330
110
100
AcDbEntity
  8
$DDT_AUDIT_GENERATED_(E6)
  6
Continuous
 62
     7
100
AcDbLine
 10
398.7686008117
 20
502.9470716416
 30
0.0
 11
395.3714506504
 21
502.8581141339
 31
0.0
  0
LINE
  5
15A
330
110
100
AcDbEntity
  8
$DDT_AUDIT_GENERATED_(E6)
  6
Continuous
 62
     7
100
AcDbLine
 10
391.8587324748
 20
503.4663703261
 30
0.0
 11
391.5975378059
 21
513.4409923077
 31
0.0
  0
ARC
  5
15B
330
110
100
AcDbEntity
  8
$DDT_AUDIT_GENERATED_(E6)
  6
Continuous
 62
     7
100
AcDbCircle
 10
468.7271853073
 20
505.4792416031
 30
0.0
 40
0.7000000000000027
100
AcDbArc
 50
271.5
 51
1.5
  0
LINE
  5
15C
330
110
100
AcDbEntity
  8
$DDT_AUDIT_GENERATED_(E6)
  6
Continuous
 62
     7
100
AcDbLine
 10
395.5098926729
 20
501.3612251772
 30
0.0
 11
393.9984298629
 21
501.3216461306
 31
0.0
  0
SPLINE
  5
15D
330
110
100
AcDbEntity
  8
$DDT_AUDIT_GENERATED_(E6)
  6
Continuous
 62
     7
100
AcDbSpline
210
0.0
220
0.0
230
1.0
 70
     8
 71
     3
 72
    12
 73
     8
 74
     0
 42
0.000000003219519
 43
0.0000000001
 40
0.0
 40
0.0
 40
0.0
 40
0.0
 40
0.2500000000000004
 40
0.2500000000000004
 40
0.5000000000000008
 40
0.5000000000000008
 40
1.0
 40
1.0
 40
1.0
 40
1.0
 10
393.9984298628995
 20
501.3216461305578
 30
0.0
 10
393.8427763127759
 20
501.3175701989023
 30
0.0
 10
393.678343893276
 20
501.3986052316375
 30
0.0
 10
393.3328778020899
 20
501.6621167352392
 30
0.0
 10
393.1573276641389
 20
501.8415174777651
 30
0.0
 10
392.6228849205424
 20
502.4528569612597
 30
0.0
 10
392.2544642674345
 20
502.9609075138023
 30
0.0
 10
391.8587324748345
 20
503.4663703260521
 30
0.0
  0
ARC
  5
15E
330
110
100
AcDbEntity
  8
$DDT_AUDIT_GENERATED_(E6)
  6
Continuous
 62
     7
100
AcDbCircle
 10
395.9008738284
 20
516.3627801195
 30
0.0
 40
13.5150394850819
100
AcDbArc
 50
267.3806064502
 51
267.7549842162
  0
ELLIPSE
  5
15F
330
110
100
AcDbEntity
  8
$DDT_AUDIT_GENERATED_(E6)
  6
Continuous
 62
     7
100
AcDbEllipse
 10
395.4107160729
 20
501.3586281465
 30
0.0
 11
0.0392654224619024
 21
-1.499485987463328
 31
0.0
210
0.0
220
0.0
230
1.0
 40
0.9418468874
 41
3.141592653589778
 42
4.712388980384669
  0
ARC
  5
160
330
110
100
AcDbEntity
  8
$DDT_AUDIT_GENERATED_(E6)
  6
Continuous
 62
     7
100
AcDbCircle
 10
426.7242906858
 20
495.713293344
 30
0.0
 40
31.26055636176131
100
AcDbArc
 50
174.9395163504
 51
177.5707582483
  0
LINE
  5
161
330
110
100
AcDbEntity
  8
$DDT_AUDIT_GENERATED_(E6)
  6
Continuous
 62
     7
100
AcDbLine
 10
395.7597113899
 20
480.3605682682
 30
0.0
 11
370.9284595138
 21
479.7103390541
 31
0.0
  0
ARC
  5
162
330
110
100
AcDbEntity
  8
$DDT_AUDIT_GENERATED_(E6)
  6
Continuous
 62
     7
100
AcDbCircle
 10
370.8499286689
 20
482.709311029
 30
0.0
 40
2.999999999999607
100
AcDbArc
 50
239.5
 51
271.5
  0
LINE
  5
163
330
110
100
AcDbEntity
  8
$DDT_AUDIT_GENERATED_(E6)
  6
Continuous
 62
     7
100
AcDbLine
 10
343.7954238506
 20
495.1638559526
 30
0.0
 11
369.32731358
 21
480.1244235477
 31
0.0
  0
LINE
  5
164
330
110
100
AcDbEntity
  8
$DDT_AUDIT_GENERATED_(E6)
  6
Continuous
 62
     7
100
AcDbLine
 10
469.1633150913
 20
515.5652021104
 30
0.0
 11
469.4269454348
 21
505.4975654669
 31
0.0
  0
LINE
  5
165
330
110
100
AcDbEntity
  8
$DDT_AUDIT_GENERATED_(E6)
  6
Continuous
 62
     7
100
AcDbLine
 10
469.1633150913
 20
515.5652021104
 30
0.0
 11
469.1625582569
 21
515.5941044491
 31
0.0
  0
ARC
  5
166
330
110
100
AcDbEntity
  8
$DDT_AUDIT_GENERATED_(E6)
  6
Continuous
 62
     7
100
AcDbCircle
 10
397.0093786604
 20
501.4004905996
 30
0.0
 40
1.500000000000003
100
AcDbArc
 50
91.5
 51
181.5
  0
ARC
  5
167
330
110
100
AcDbEntity
  8
$DDT_AUDIT_GENERATED_(E6)
  6
Continuous
 62
     7
100
AcDbCircle
 10
343.9476853595
 20
495.4223447007
 30
0.0
 40
0.300000000000003
100
AcDbArc
 50
184.9660519082
 51
239.5
  0
ARC
  5
168
330
110
100
AcDbEntity
  8
$DDT_AUDIT_GENERATED_(E6)
  6
Continuous
 62
     7
100
AcDbCircle
 10
395.7518583054
 20
480.6604654657
 30
0.0
 40
0.3000000000000012
100
AcDbArc
 50
271.5
 51
1.5
  0
ARC
  5
169
330
110
100
AcDbEntity
  8
$DDT_AUDIT_GENERATED_(E6)
  6
Continuous
 62
     7
100
AcDbCircle
 10
386.8806631887
 20
-162.3420962687
 30
0.0
 40
676.2499999998118
100
AcDbArc
 50
91.5
 51
93.6462842038
  0
LINE
  5
16A
330
110
100
AcDbEntity
  8
$DDT_AUDIT_GENERATED_(E6)
  6
Continuous
 62
     7
100
AcDbLine
 10
395.585583657
 20
498.4707031109
 30
0.0
 11
395.5098926729
 21
501.3612251772
 31
0.0
  0
LINE
  5
16B
330
110
100
AcDbEntity
  8
$DDT_AUDIT_GENERATED_(E6)
  6
Continuous
 62
     7
100
AcDbLine
 10
396.0517555029
 20
480.6683185502
 30
0.0
 11
395.7754465274
 21
491.2201326131
 31
0.0
  0
LINE
  5
16C
330
110
100
AcDbEntity
  8
$DDT_AUDIT_GENERATED_(E6)
  6
Continuous
 62
     7
100
AcDbLine
 10
343.2181411143
 20
511.8220504091
 30
0.0
 11
343.647788162
 21
495.4144916162
 31
0.0
  0
LINE
  5
16D
330
110
100
AcDbEntity
  8
$DDT_AUDIT_GENERATED_(E6)
  6
Continuous
 62
     7
100
AcDbLine
 10
468.4444742656
 20
516.2755407128
 30
0.0
 11
369.1785018955
 21
513.6761697458
 31
0.0
  0
ARC
  5
16E
330
110
100
AcDbEntity
  8
$DDT_AUDIT_GENERATED_(E6)
  6
Continuous
 62
     7
100
AcDbCircle
 10
343.9179012418
 20
511.8403742729
 30
0.0
 40
0.7000000000001502
100
AcDbArc
 50
93.6462842035
 51
181.5
  0
ARC
  5
16F
330
110
100
AcDbEntity
  8
$DDT_AUDIT_GENERATED_(E6)
  6
Continuous
 62
     7
100
AcDbCircle
 10
468.4627981294
 20
515.5757805853
 30
0.0
 40
0.7000000000000013
100
AcDbArc
 50
1.5
 51
91.5
  0
LINE
  5
170
330
110
100
AcDbEntity
  8
$DDT_AUDIT_GENERATED_(107)
  6
Continuous
 62
     7
100
AcDbLine
 10
395.7939861217
 20
491.2122630222
 30
0.0
 11
395.4882440913
 21
497.0461684962
 31
0.0
  0
LINE
  5
171
330
110
100
AcDbEntity
  8
$DDT_AUDIT_GENERATED_(107)
  6
Continuous
 62
     7
100
AcDbLine
 10
395.7754465274
 20
491.2201326131
 30
0.0
 11
395.7939861217
 21
491.2122630222
 31
0.0
  0
LINE
  5
172
330
110
100
AcDbEntity
  8
$DDT_AUDIT_GENERATED_(10A)
  6
Continuous
 62
     7
100
AcDbLine
 10
301.2495430855
 20
386.2989947404
 30
0.0
 11
301.2495430855
 21
455.2989947404
 31
0.0
  0
LINE
  5
173
330
110
100
AcDbEntity
  8
$DDT_AUDIT_GENERATED_(10A)
  6
Continuous
 62
     7
100
AcDbLine
 10
334.2495230815
 20
400.7989947404
 30
0.0
 11
334.2495230815
 21
440.7989947404
 31
0.0
  0
ARC
  5
174
330
110
100
AcDbEntity
  8
$DDT_AUDIT_GENERATED_(10A)
  6
Continuous
 62
     7
100
AcDbCircle
 10
332.4140600952
 20
453.4956733105
 30
0.0
 40
1.499999999999999
100
AcDbArc
 50
1.8765314455
 51
88.5
  0
ARC
  5
175
330
110
100
AcDbEntity
  8
$DDT_AUDIT_GENERATED_(10A)
  6
Continuous
 62
     7
100
AcDbCircle
 10
332.4140600952
 20
388.1023161702
 30
0.0
 40
1.499999999999999
100
AcDbArc
 50
271.5
 51
358.1234685545
  0
LINE
  5
176
330
110
100
AcDbEntity
  8
$DDT_AUDIT_GENERATED_(10A)
  6
Continuous
 62
     7
100
AcDbLine
 10
301.7626315596
 20
385.7991660779
 30
0.0
 11
332.4533255177
 21
386.6028301828
 31
0.0
  0
LINE
  5
177
330
110
100
AcDbEntity
  8
$DDT_AUDIT_GENERATED_(10A)
  6
Continuous
 62
     7
100
AcDbLine
 10
332.4533255177
 20
454.995159298
 30
0.0
 11
301.7626315596
 21
455.7988234029
 31
0.0
  0
ARC
  5
178
330
110
100
AcDbEntity
  8
$DDT_AUDIT_GENERATED_(10A)
  6
Continuous
 62
     7
100
AcDbCircle
 10
301.7495430855
 20
455.2989947404
 30
0.0
 40
0.500000000000002
100
AcDbArc
 50
88.5
 51
180.0
  0
ARC
  5
179
330
110
100
AcDbEntity
  8
$DDT_AUDIT_GENERATED_(10A)
  6
Continuous
 62
     7
100
AcDbCircle
 10
301.7495430855
 20
386.2989947404
 30
0.0
 40
0.5000000000000004
100
AcDbArc
 50
180.0
 51
271.5
  0
ARC
  5
17A
330
110
100
AcDbEntity
  8
$DDT_AUDIT_GENERATED_(10A)
  6
Continuous
 62
     7
100
AcDbCircle
 10
-665.5504569145
 20
420.7989947404
 30
0.0
 40
1000.0
100
AcDbArc
 50
1.1459919984
 51
1.8765314455
  0
ARC
  5
17B
330
110
100
AcDbEntity
  8
$DDT_AUDIT_GENERATED_(10A)
  6
Continuous
 62
     7
100
AcDbCircle
 10
-665.5504569145
 20
420.7989947404
 30
0.0
 40
1000.0
100
AcDbArc
 50
358.1234685545
 51
358.8540080016
  0
LINE
  5
17D
330
110
100
AcDbEntity
  8
$DDT_AUDIT_GENERATED_(17C)
  6
Continuous
 62
     7
100
AcDbLine
 10
353.25
 20
413.2989947404
 30
0.0
 11
353.25
 21
428.2989947404
 31
0.0
  0
LINE
  5
17E
330
110
100
AcDbEntity
  8
$DDT_AUDIT_GENERATED_(17C)
  6
Continuous
 62
     7
100
AcDbLine
 10
353.05
 20
440.0489947404
 30
0.0
 11
334.2495230815
 21
440.0489947404
 31
0.0
  0
LINE
  5
17F
330
110
100
AcDbEntity
  8
$DDT_AUDIT_GENERATED_(17C)
  6
Continuous
 62
     7
100
AcDbLine
 10
334.2495230815
 20
401.5489947404
 30
0.0
 11
353.05
 21
401.5489947404
 31
0.0
  0
ARC
  5
180
330
110
100
AcDbEntity
  8
$DDT_AUDIT_GENERATED_(17C)
  6
Continuous
 62
     7
100
AcDbCircle
 10
353.05
 20
401.7489947404
 30
0.0
 40
0.1999999999999988
100
AcDbArc
 50
270.0
 51
0.0
  0
ARC
  5
181
330
110
100
AcDbEntity
  8
$DDT_AUDIT_GENERATED_(17C)
  6
Continuous
 62
     7
100
AcDbCircle
 10
353.05
 20
439.8489947404
 30
0.0
 40
0.1999999999999988
100
AcDbArc
 50
0.0
 51
90.0
  0
ENDBLK
  5
183
330
110
100
AcDbEntity
  8
0
100
AcDbBlockEnd
  0
BLOCK
  5
1DF
330
184
100
AcDbEntity
  8
0
100
AcDbBlockBegin
  2
SE2
 70
     0
 10
0.0
 20
0.0
 30
0.0
  3
SE2
  1

  0
LINE
  5
186
330
184
100
AcDbEntity
  8
$DDT_AUDIT_GENERATED_(87)
  6
Continuous
 62
     7
100
AcDbLine
 10
149.3954232837
 20
259.35
 30
0.0
 11
196.35
 21
259.35
 31
0.0
  0
LINE
  5
187
330
184
100
AcDbEntity
  8
$DDT_AUDIT_GENERATED_(87)
  6
Continuous
 62
     7
100
AcDbLine
 10
196.35
 20
259.35
 30
0.0
 11
210.35
 21
259.35
 31
0.0
  0
LINE
  5
188
330
184
100
AcDbEntity
  8
$DDT_AUDIT_GENERATED_(87)
  6
Continuous
 62
     7
100
AcDbLine
 10
211.35
 20
258.35
 30
0.0
 11
211.35
 21
215.35
 31
0.0
  0
ARC
  5
189
330
184
100
AcDbEntity
  8
$DDT_AUDIT_GENERATED_(87)
  6
Continuous
 62
     7
100
AcDbCircle
 10
149.3954232837
 20
274.35
 30
0.0
 40
14.99999999999998
100
AcDbArc
 50
224.0792098479
 51
270.0
  0
LINE
  5
18A
330
184
100
AcDbEntity
  8
$DDT_AUDIT_GENERATED_(87)
  6
Continuous
 62
     7
100
AcDbLine
 10
36.35
 20
258.35
 30
0.0
 11
36.35
 21
215.35
 31
0.0
  0
ARC
  5
18B
330
184
100
AcDbEntity
  8
$DDT_AUDIT_GENERATED_(87)
  6
Continuous
 62
     7
100
AcDbCircle
 10
116.35
 20
242.35
 30
0.0
 40
31.0
100
AcDbArc
 50
44.0792098479
 51
135.9207901521
  0
ARC
  5
18C
330
184
100
AcDbEntity
  8
$DDT_AUDIT_GENERATED_(87)
  6
Continuous
 62
     7
100
AcDbCircle
 10
83.3045767163
 20
274.35
 30
0.0
 40
15.0
100
AcDbArc
 50
270.0
 51
315.9207901521
  0
LINE
  5
18D
330
184
100
AcDbEntity
  8
$DDT_AUDIT_GENERATED_(87)
  6
Continuous
 62
     7
100
AcDbLine
 10
22.35
 20
259.35
 30
0.0
 11
36.35
 21
259.35
 31
0.0
  0
LINE
  5
18E
330
184
100
AcDbEntity
  8
$DDT_AUDIT_GENERATED_(87)
  6
Continuous
 62
     7
100
AcDbLine
 10
36.35
 20
259.35
 30
0.0
 11
83.3045767163
 21
259.35
 31
0.0
  0
ARC
  5
18F
330
184
100
AcDbEntity
  8
$DDT_AUDIT_GENERATED_(87)
  6
Continuous
 62
     7
100
AcDbCircle
 10
22.35
 20
258.35
 30
0.0
 40
1.000000000000001
100
AcDbArc
 50
90.0
 51
180.0
  0
ARC
  5
190
330
184
100
AcDbEntity
  8
$DDT_AUDIT_GENERATED_(87)
  6
Continuous
 62
     7
100
AcDbCircle
 10
210.35
 20
258.35
 30
0.0
 40
1.000000000000001
100
AcDbArc
 50
0.0
 51
90.0
  0
LINE
  5
191
330
184
100
AcDbEntity
  8
$DDT_AUDIT_GENERATED_(87)
  6
Continuous
 62
     7
100
AcDbLine
 10
97.35
 20
114.35
 30
0.0
 11
97.35
 21
199.35
 31
0.0
  0
LINE
  5
192
330
184
100
AcDbEntity
  8
$DDT_AUDIT_GENERATED_(87)
  6
Continuous
 62
     7
100
AcDbLine
 10
196.35
 20
215.35
 30
0.0
 11
196.35
 21
258.35
 31
0.0
  0
ARC
  5
193
330
184
100
AcDbEntity
  8
$DDT_AUDIT_GENERATED_(87)
  6
Continuous
 62
     7
100
AcDbCircle
 10
82.35
 20
199.35
 30
0.0
 40
15.0
100
AcDbArc
 50
0.0
 51
90.0
  0
ARC
  5
194
330
184
100
AcDbEntity
  8
$DDT_AUDIT_GENERATED_(87)
  6
Continuous
 62
     7
100
AcDbCircle
 10
105.35
 20
114.35
 30
0.0
 40
8.000000000000007
100
AcDbArc
 50
180.0
 51
270.0
  0
LINE
  5
195
330
184
100
AcDbEntity
  8
$DDT_AUDIT_GENERATED_(87)
  6
Continuous
 62
     7
100
AcDbLine
 10
210.35
 20
214.35
 30
0.0
 11
196.35
 21
214.35
 31
0.0
  0
LINE
  5
196
330
184
100
AcDbEntity
  8
$DDT_AUDIT_GENERATED_(87)
  6
Continuous
 62
     7
100
AcDbLine
 10
196.35
 20
214.35
 30
0.0
 11
150.35
 21
214.35
 31
0.0
  0
LINE
  5
197
330
184
100
AcDbEntity
  8
$DDT_AUDIT_GENERATED_(87)
  6
Continuous
 62
     7
100
AcDbLine
 10
36.35
 20
214.35
 30
0.0
 11
22.35
 21
214.35
 31
0.0
  0
LINE
  5
198
330
184
100
AcDbEntity
  8
$DDT_AUDIT_GENERATED_(87)
  6
Continuous
 62
     7
100
AcDbLine
 10
82.35
 20
214.35
 30
0.0
 11
36.35
 21
214.35
 31
0.0
  0
LINE
  5
199
330
184
100
AcDbEntity
  8
$DDT_AUDIT_GENERATED_(87)
  6
Continuous
 62
     7
100
AcDbLine
 10
127.35
 20
106.35
 30
0.0
 11
105.35
 21
106.35
 31
0.0
  0
LINE
  5
19A
330
184
100
AcDbEntity
  8
$DDT_AUDIT_GENERATED_(87)
  6
Continuous
 62
     7
100
AcDbLine
 10
21.35
 20
215.35
 30
0.0
 11
21.35
 21
258.35
 31
0.0
  0
ARC
  5
19B
330
184
100
AcDbEntity
  8
$DDT_AUDIT_GENERATED_(87)
  6
Continuous
 62
     7
100
AcDbCircle
 10
127.35
 20
114.35
 30
0.0
 40
8.0
100
AcDbArc
 50
270.0
 51
0.0
  0
LINE
  5
19C
330
184
100
AcDbEntity
  8
$DDT_AUDIT_GENERATED_(87)
  6
Continuous
 62
     7
100
AcDbLine
 10
135.35
 20
199.35
 30
0.0
 11
135.35
 21
114.35
 31
0.0
  0
ARC
  5
19D
330
184
100
AcDbEntity
  8
$DDT_AUDIT_GENERATED_(87)
  6
Continuous
 62
     7
100
AcDbCircle
 10
150.35
 20
199.35
 30
0.0
 40
15.0
100
AcDbArc
 50
90.0
 51
180.0
  0
ARC
  5
19E
330
184
100
AcDbEntity
  8
$DDT_AUDIT_GENERATED_(87)
  6
Continuous
 62
     7
100
AcDbCircle
 10
210.35
 20
215.35
 30
0.0
 40
1.000000000000001
100
AcDbArc
 50
270.0
 51
0.0
  0
ARC
  5
19F
330
184
100
AcDbEntity
  8
$DDT_AUDIT_GENERATED_(87)
  6
Continuous
 62
     7
100
AcDbCircle
 10
22.35
 20
215.35
 30
0.0
 40
1.000000000000001
100
AcDbArc
 50
180.0
 51
270.0
  0
ARC
  5
1A0
330
184
100
AcDbEntity
  8
$DDT_AUDIT_GENERATED_(87)
  6
Continuous
 62
     7
100
AcDbCircle
 10
116.35
 20
242.35
 30
0.0
 40
26.4
100
AcDbArc
 50
0.0
 51
23.7205622957
  0
ARC
  5
1A1
330
184
100
AcDbEntity
  8
$DDT_AUDIT_GENERATED_(87)
  6
Continuous
 62
     7
100
AcDbCircle
 10
116.35
 20
242.35
 30
0.0
 40
26.4
100
AcDbArc
 50
156.2794377043
 51
246.4127276205
  0
ARC
  5
1A2
330
184
100
AcDbEntity
  8
$DDT_AUDIT_GENERATED_(87)
  6
Continuous
 62
     7
100
AcDbCircle
 10
116.35
 20
242.35
 30
0.0
 40
26.4
100
AcDbArc
 50
293.4067182687
 51
0.0
  0
CIRCLE
  5
1A3
330
184
100
AcDbEntity
  8
$DDT_AUDIT_GENERATED_(B5)
  6
Continuous
 62
     7
100
AcDbCircle
 10
174.35
 20
236.85
 30
0.0
 40
15.2
  0
ARC
  5
1A4
330
184
100
AcDbEntity
  8
$DDT_AUDIT_GENERATED_(BD)
  6
Continuous
 62
     7
100
AcDbCircle
 10
174.35
 20
236.85
 30
0.0
 40
15.25
100
AcDbArc
 50
188.4844497414
 51
171.5155502586
  0
ARC
  5
1A5
330
184
100
AcDbEntity
  8
$DDT_AUDIT_GENERATED_(BD)
  6
Continuous
 62
     7
100
AcDbCircle
 10
174.35
 20
236.85
 30
0.0
 40
15.25
100
AcDbArc
 50
171.5155502586
 51
188.4844497414
  0
LINE
  5
1A6
330
184
100
AcDbEntity
  8
$DDT_AUDIT_GENERATED_(BD)
  6
Continuous
 62
     7
100
AcDbLine
 10
159.266896871
 20
239.1
 30
0.0
 11
159.3174519791
 21
239.1
 31
0.0
  0
LINE
  5
1A7
330
184
100
AcDbEntity
  8
$DDT_AUDIT_GENERATED_(BD)
  6
Continuous
 62
     7
100
AcDbLine
 10
159.266896871
 20
234.6
 30
0.0
 11
159.3174519791
 21
234.6
 31
0.0
  0
ARC
  5
1A8
330
184
100
AcDbEntity
  8
$DDT_AUDIT_GENERATED_(D1)
  6
Continuous
 62
     7
100
AcDbCircle
 10
116.35
 20
242.35
 30
0.0
 40
26.25166953461827
100
AcDbArc
 50
293.9025481832
 51
0.0
  0
ARC
  5
1A9
330
184
100
AcDbEntity
  8
$DDT_AUDIT_GENERATED_(D1)
  6
Continuous
 62
     7
100
AcDbCircle
 10
116.35
 20
242.35
 30
0.0
 40
26.25166953461827
100
AcDbArc
 50
164.8766230028
 51
246.0974518168
  0
ARC
  5
1AA
330
184
100
AcDbEntity
  8
$DDT_AUDIT_GENERATED_(D1)
  6
Continuous
 62
     7
100
AcDbCircle
 10
116.35
 20
242.35
 30
0.0
 40
26.25166953461827
100
AcDbArc
 50
0.0
 51
15.1233769972
  0
ELLIPSE
  5
1AB
330
184
100
AcDbEntity
  8
$DDT_AUDIT_GENERATED_(E6)
  6
Continuous
 62
     7
100
AcDbEllipse
 10
133.6
 20
213.8497230521
 30
0.0
 11
-8.000000000000485
 21
2.563921297493721E-12
 31
0.0
210
0.0
220
0.0
230
1.0
 40
0.999657325
 41
5.2444992168207
 42
6.283185307179586
  0
ELLIPSE
  5
1AC
330
184
100
AcDbEntity
  8
$DDT_AUDIT_GENERATED_(E6)
  6
Continuous
 62
     7
100
AcDbEllipse
 10
122.6
 20
146.1720265401
 30
0.0
 11
-3.000000000001025
 21
-3.122502256758253E-12
 31
0.0
210
0.0
220
0.0
230
1.0
 40
0.999657325
 41
1.570796326793856
 42
3.141592653589793
  0
ELLIPSE
  5
1AD
330
184
100
AcDbEntity
  8
$DDT_AUDIT_GENERATED_(E6)
  6
Continuous
 62
     7
100
AcDbEllipse
 10
99.1
 20
213.8497230521
 30
0.0
 11
-7.999999999997652
 21
-8.954642582992278E-12
 31
0.0
210
0.0
220
0.0
230
1.0
 40
0.999657325
 41
3.141592653589793
 42
4.180278743947556
  0
LINE
  5
1AE
330
184
100
AcDbEntity
  8
$DDT_AUDIT_GENERATED_(E6)
  6
Continuous
 62
     7
100
AcDbLine
 10
107.1
 20
146.1720265401
 30
0.0
 11
107.1
 21
146.4349973336
 31
0.0
  0
ELLIPSE
  5
1AF
330
184
100
AcDbEntity
  8
$DDT_AUDIT_GENERATED_(E6)
  6
Continuous
 62
     7
100
AcDbEllipse
 10
110.1
 20
146.1720265401
 30
0.0
 11
-3.000000000001026
 21
-6.647460359943126E-12
 31
0.0
210
0.0
220
0.0
230
1.0
 40
0.999657325
 41
0.0000000000000011
 42
1.570796326792682
  0
LINE
  5
1B0
330
184
100
AcDbEntity
  8
$DDT_AUDIT_GENERATED_(E6)
  6
Continuous
 62
     7
100
AcDbLine
 10
110.1
 20
143.1728146927
 30
0.0
 11
110.1
 21
143.1730545652
 31
0.0
  0
LINE
  5
1B1
330
184
100
AcDbEntity
  8
$DDT_AUDIT_GENERATED_(E6)
  6
Continuous
 62
     7
100
AcDbLine
 10
122.6
 20
143.1728146927
 30
0.0
 11
122.6
 21
143.1730545652
 31
0.0
  0
ARC
  5
1B2
330
184
100
AcDbEntity
  8
$DDT_AUDIT_GENERATED_(E6)
  6
Continuous
 62
     7
100
AcDbCircle
 10
116.0154666946
 20
242.5455981828
 30
0.0
 40
26.33454603178896
100
AcDbArc
 50
358.0932162299
 51
359.9986373492
  0
ARC
  5
1B3
330
184
100
AcDbEntity
  8
$DDT_AUDIT_GENERATED_(E6)
  6
Continuous
 62
     7
100
AcDbCircle
 10
116.6858802005
 20
242.5456057236
 30
0.0
 40
26.33589243206567
100
AcDbArc
 50
179.9818984006
 51
181.906702666
  0
ELLIPSE
  5
1B4
330
184
100
AcDbEntity
  8
$DDT_AUDIT_GENERATED_(E6)
  6
Continuous
 62
     7
100
AcDbEllipse
 10
116.35
 20
242.5393349465
 30
0.0
 11
-26.00000000000864
 21
-8.100693781130236E-10
 31
0.0
210
0.0
220
0.0
230
1.0
 40
0.999657325
 41
0.0334784774636993
 42
1.125377858113049
  0
ELLIPSE
  5
1B5
330
184
100
AcDbEntity
  8
$DDT_AUDIT_GENERATED_(E6)
  6
Continuous
 62
     7
100
AcDbEllipse
 10
116.35
 20
242.5393349465
 30
0.0
 11
-26.00000000000864
 21
-8.100693781130236E-10
 31
0.0
210
0.0
220
0.0
230
1.0
 40
0.999657325
 41
2.01621479541445
 42
3.10811417606377
  0
ARC
  5
1B6
330
184
100
AcDbEntity
  8
$DDT_AUDIT_GENERATED_(E6)
  6
Continuous
 62
     7
100
AcDbCircle
 10
116.35
 20
-25572.2658427923
 30
0.0
 40
25815.68734525291
100
AcDbArc
 50
89.9437905533
 51
90.0562094467
  0
ARC
  5
1B7
330
184
100
AcDbEntity
  8
$DDT_AUDIT_GENERATED_(E6)
  6
Continuous
 62
     7
100
AcDbCircle
 10
116.3499999999
 20
-25662.5159344976
 30
0.0
 40
25805.95337625687
100
AcDbArc
 50
89.9861234104
 51
90.0138765896
  0
LINE
  5
1B8
330
184
100
AcDbEntity
  8
$DDT_AUDIT_GENERATED_(E6)
  6
Continuous
 62
     7
100
AcDbLine
 10
125.6
 20
146.4349973336
 30
0.0
 11
125.6
 21
146.1720265401
 31
0.0
  0
LINE
  5
1B9
330
184
100
AcDbEntity
  8
$DDT_AUDIT_GENERATED_(E6)
  6
Continuous
 62
     7
100
AcDbLine
 10
125.6
 20
214.1126938456
 30
0.0
 11
125.6
 21
146.4349973336
 31
0.0
  0
LINE
  5
1BA
330
184
100
AcDbEntity
  8
$DDT_AUDIT_GENERATED_(E6)
  6
Continuous
 62
     7
100
AcDbLine
 10
107.1
 20
146.4349973336
 30
0.0
 11
107.1
 21
214.1126938456
 31
0.0
  0
ELLIPSE
  5
1BB
330
184
100
AcDbEntity
  8
$DDT_AUDIT_GENERATED_(E6)
  6
Continuous
 62
     7
100
AcDbEllipse
 10
116.35
 20
243.3907684363
 30
0.0
 11
-25.9999999999992
 21
-8.406686805018104E-12
 31
0.0
210
0.0
220
0.0
230
1.0
 40
0.999657325
 41
3.14159265358947
 42
6.283185307179585
  0
ARC
  5
1BC
330
184
100
AcDbEntity
  8
$DDT_AUDIT_GENERATED_(E6)
  6
Continuous
 62
     7
100
AcDbCircle
 10
116.3197462943
 20
243.39035702
 30
0.0
 40
25.96974629755022
100
AcDbArc
 50
179.9990923123
 51
239.5504804808
  0
ARC
  5
1BD
330
184
100
AcDbEntity
  8
$DDT_AUDIT_GENERATED_(E6)
  6
Continuous
 62
     7
100
AcDbCircle
 10
116.3802541879
 20
243.3903567441
 30
0.0
 40
25.96974581531934
100
AcDbArc
 50
300.4495189105
 51
0.0009082965
  0
LINE
  5
1BE
330
184
100
AcDbEntity
  8
$DDT_AUDIT_GENERATED_(E6)
  6
Continuous
 62
     7
100
AcDbLine
 10
110.1
 20
143.1728146927
 30
0.0
 11
122.6
 21
143.1728146927
 31
0.0
  0
LINE
  5
1BF
330
184
100
AcDbEntity
  8
$DDT_AUDIT_GENERATED_(E6)
  6
Continuous
 62
     7
100
AcDbLine
 10
142.35
 20
242.5431867687
 30
0.0
 11
142.35
 21
243.3907684363
 31
0.0
  0
LINE
  5
1C0
330
184
100
AcDbEntity
  8
$DDT_AUDIT_GENERATED_(E6)
  6
Continuous
 62
     7
100
AcDbLine
 10
90.35
 20
243.3907684363
 30
0.0
 11
90.35
 21
242.5439551196
 31
0.0
  0
LINE
  5
1C1
330
184
100
AcDbEntity
  8
$DDT_AUDIT_GENERATED_(10A)
  6
Continuous
 62
     7
100
AcDbLine
 10
75.85
 20
311.3504569145
 30
0.0
 11
6.85
 21
311.3504569145
 31
0.0
  0
LINE
  5
1C2
330
184
100
AcDbEntity
  8
$DDT_AUDIT_GENERATED_(10A)
  6
Continuous
 62
     7
100
AcDbLine
 10
61.35
 20
278.3504769185
 30
0.0
 11
21.35
 21
278.3504769185
 31
0.0
  0
ARC
  5
1C3
330
184
100
AcDbEntity
  8
$DDT_AUDIT_GENERATED_(10A)
  6
Continuous
 62
     7
100
AcDbCircle
 10
74.0466785701
 20
280.1859399048
 30
0.0
 40
1.499999999999999
100
AcDbArc
 50
271.8765314455
 51
358.5
  0
ARC
  5
1C4
330
184
100
AcDbEntity
  8
$DDT_AUDIT_GENERATED_(10A)
  6
Continuous
 62
     7
100
AcDbCircle
 10
8.6533214299
 20
280.1859399048
 30
0.0
 40
1.500000000000006
100
AcDbArc
 50
181.5
 51
268.1234685545
  0
LINE
  5
1C5
330
184
100
AcDbEntity
  8
$DDT_AUDIT_GENERATED_(10A)
  6
Continuous
 62
     7
100
AcDbLine
 10
6.3501713375
 20
310.8373684404
 30
0.0
 11
7.1538354424
 21
280.1466744823
 31
0.0
  0
LINE
  5
1C6
330
184
100
AcDbEntity
  8
$DDT_AUDIT_GENERATED_(10A)
  6
Continuous
 62
     7
100
AcDbLine
 10
75.5461645576
 20
280.1466744823
 30
0.0
 11
76.3498286625
 21
310.8373684404
 31
0.0
  0
ARC
  5
1C7
330
184
100
AcDbEntity
  8
$DDT_AUDIT_GENERATED_(10A)
  6
Continuous
 62
     7
100
AcDbCircle
 10
75.85
 20
310.8504569145
 30
0.0
 40
0.500000000000002
100
AcDbArc
 50
358.5
 51
90.0
  0
ARC
  5
1C8
330
184
100
AcDbEntity
  8
$DDT_AUDIT_GENERATED_(10A)
  6
Continuous
 62
     7
100
AcDbCircle
 10
6.85
 20
310.8504569145
 30
0.0
 40
0.5000000000000004
100
AcDbArc
 50
90.0
 51
181.5
  0
ARC
  5
1C9
330
184
100
AcDbEntity
  8
$DDT_AUDIT_GENERATED_(10A)
  6
Continuous
 62
     7
100
AcDbCircle
 10
41.35
 20
1278.1504569145
 30
0.0
 40
1000.0
100
AcDbArc
 50
268.1234685545
 51
268.8540080016
  0
ARC
  5
1CA
330
184
100
AcDbEntity
  8
$DDT_AUDIT_GENERATED_(10A)
  6
Continuous
 62
     7
100
AcDbCircle
 10
41.35
 20
1278.1504569145
 30
0.0
 40
1000.0
100
AcDbArc
 50
271.1459919984
 51
271.8765314455
  0
LINE
  5
1CB
330
184
100
AcDbEntity
  8
$DDT_AUDIT_GENERATED_(17C)
  6
Continuous
 62
     7
100
AcDbLine
 10
22.35
 20
259.35
 30
0.0
 11
22.3
 21
259.35
 31
0.0
  0
LINE
  5
1CC
330
184
100
AcDbEntity
  8
$DDT_AUDIT_GENERATED_(17C)
  6
Continuous
 62
     7
100
AcDbLine
 10
60.6
 20
259.55
 30
0.0
 11
60.6
 21
278.3504769185
 31
0.0
  0
LINE
  5
1CD
330
184
100
AcDbEntity
  8
$DDT_AUDIT_GENERATED_(17C)
  6
Continuous
 62
     7
100
AcDbLine
 10
22.1
 20
278.3504769185
 30
0.0
 11
22.1
 21
259.55
 31
0.0
  0
ARC
  5
1CE
330
184
100
AcDbEntity
  8
$DDT_AUDIT_GENERATED_(17C)
  6
Continuous
 62
     7
100
AcDbCircle
 10
22.3
 20
259.55
 30
0.0
 40
0.1999999999999919
100
AcDbArc
 50
180.0
 51
270.0
  0
ARC
  5
1CF
330
184
100
AcDbEntity
  8
$DDT_AUDIT_GENERATED_(17C)
  6
Continuous
 62
     7
100
AcDbCircle
 10
60.4
 20
259.55
 30
0.0
 40
0.1999999999999988
100
AcDbArc
 50
270.0
 51
0.0
  0
LINE
  5
1D0
330
184
100
AcDbEntity
  8
$DDT_AUDIT_GENERATED_(10A)
  6
Continuous
 62
     7
100
AcDbLine
 10
225.85
 20
311.3504569145
 30
0.0
 11
156.85
 21
311.3504569145
 31
0.0
  0
LINE
  5
1D1
330
184
100
AcDbEntity
  8
$DDT_AUDIT_GENERATED_(10A)
  6
Continuous
 62
     7
100
AcDbLine
 10
211.35
 20
278.3504769185
 30
0.0
 11
171.35
 21
278.3504769185
 31
0.0
  0
ARC
  5
1D2
330
184
100
AcDbEntity
  8
$DDT_AUDIT_GENERATED_(10A)
  6
Continuous
 62
     7
100
AcDbCircle
 10
224.0466785701
 20
280.1859399048
 30
0.0
 40
1.499999999999999
100
AcDbArc
 50
271.8765314455
 51
358.5
  0
ARC
  5
1D3
330
184
100
AcDbEntity
  8
$DDT_AUDIT_GENERATED_(10A)
  6
Continuous
 62
     7
100
AcDbCircle
 10
158.6533214299
 20
280.1859399048
 30
0.0
 40
1.499999999999999
100
AcDbArc
 50
181.5
 51
268.1234685545
  0
LINE
  5
1D4
330
184
100
AcDbEntity
  8
$DDT_AUDIT_GENERATED_(10A)
  6
Continuous
 62
     7
100
AcDbLine
 10
156.3501713375
 20
310.8373684404
 30
0.0
 11
157.1538354424
 21
280.1466744823
 31
0.0
  0
LINE
  5
1D5
330
184
100
AcDbEntity
  8
$DDT_AUDIT_GENERATED_(10A)
  6
Continuous
 62
     7
100
AcDbLine
 10
225.5461645576
 20
280.1466744823
 30
0.0
 11
226.3498286625
 21
310.8373684404
 31
0.0
  0
ARC
  5
1D6
330
184
100
AcDbEntity
  8
$DDT_AUDIT_GENERATED_(10A)
  6
Continuous
 62
     7
100
AcDbCircle
 10
225.85
 20
310.8504569145
 30
0.0
 40
0.500000000000002
100
AcDbArc
 50
358.5
 51
90.0
  0
ARC
  5
1D7
330
184
100
AcDbEntity
  8
$DDT_AUDIT_GENERATED_(10A)
  6
Continuous
 62
     7
100
AcDbCircle
 10
156.85
 20
310.8504569145
 30
0.0
 40
0.5000000000000004
100
AcDbArc
 50
90.0
 51
181.5
  0
ARC
  5
1D8
330
184
100
AcDbEntity
  8
$DDT_AUDIT_GENERATED_(10A)
  6
Continuous
 62
     7
100
AcDbCircle
 10
191.35
 20
1278.1504569145
 30
0.0
 40
1000.0
100
AcDbArc
 50
268.1234685545
 51
268.8540080016
  0
ARC
  5
1D9
330
184
100
AcDbEntity
  8
$DDT_AUDIT_GENERATED_(10A)
  6
Continuous
 62
     7
100
AcDbCircle
 10
191.35
 20
1278.1504569145
 30
0.0
 40
1000.0
100
AcDbArc
 50
271.1459919984
 51
271.8765314455
  0
LINE
  5
1DA
330
184
100
AcDbEntity
  8
$DDT_AUDIT_GENERATED_(17C)
  6
Continuous
 62
     7
100
AcDbLine
 10
210.4
 20
259.35
 30
0.0
 11
210.35
 21
259.35
 31
0.0
  0
LINE
  5
1DB
330
184
100
AcDbEntity
  8
$DDT_AUDIT_GENERATED_(17C)
  6
Continuous
 62
     7
100
AcDbLine
 10
210.6
 20
259.55
 30
0.0
 11
210.6
 21
278.3504769185
 31
0.0
  0
LINE
  5
1DC
330
184
100
AcDbEntity
  8
$DDT_AUDIT_GENERATED_(17C)
  6
Continuous
 62
     7
100
AcDbLine
 10
172.1
 20
278.3504769185
 30
0.0
 11
172.1
 21
259.55
 31
0.0
  0
ARC
  5
1DD
330
184
100
AcDbEntity
  8
$DDT_AUDIT_GENERATED_(17C)
  6
Continuous
 62
     7
100
AcDbCircle
 10
172.3
 20
259.55
 30
0.0
 40
0.1999999999999988
100
AcDbArc
 50
180.0
 51
270.0
  0
ARC
  5
1DE
330
184
100
AcDbEntity
  8
$DDT_AUDIT_GENERATED_(17C)
  6
Continuous
 62
     7
100
AcDbCircle
 10
210.4
 20
259.55
 30
0.0
 40
0.1999999999999988
100
AcDbArc
 50
270.0
 51
0.0
  0
ENDBLK
  5
1E0
330
184
100
AcDbEntity
  8
0
100
AcDbBlockEnd
  0
ENDSEC
  0
SECTION
  2
ENTITIES
  0
INSERT
  5
5F
330
1F
100
AcDbEntity
  8
Default
100
AcDbBlockReference
  2
SEANNOT_GROUP
 10
0.0
 20
0.0
 30
0.0
  0
INSERT
  5
6A
330
1F
100
AcDbEntity
  8
Default
100
AcDbBlockReference
  2
SEANNOT_GROUP1
 10
0.0
 20
0.0
 30
0.0
  0
INSERT
  5
74
330
1F
100
AcDbEntity
  8
Default
100
AcDbBlockReference
  2
SEANNOT_GROUP2
 10
0.0
 20
0.0
 30
0.0
  0
INSERT
  5
7A
330
1F
100
AcDbEntity
  8
Default
100
AcDbBlockReference
  2
SEANNOT_GROUP3
 10
0.0
 20
0.0
 30
0.0
  0
INSERT
  5
80
330
1F
100
AcDbEntity
  8
Default
100
AcDbBlockReference
  2
SEANNOT_GROUP4
 10
0.0
 20
0.0
 30
0.0
  0
INSERT
  5
86
330
1F
100
AcDbEntity
  8
Default
100
AcDbBlockReference
  2
SE
 10
0.0
 20
0.0
 30
0.0
  0
INSERT
  5
111
330
1F
100
AcDbEntity
  8
Default
100
AcDbBlockReference
  2
SE1
 10
0.0
 20
0.0
 30
0.0
  0
INSERT
  5
185
330
1F
100
AcDbEntity
  8
Default
100
AcDbBlockReference
  2
SE2
 10
0.0
 20
0.0
 30
0.0
  0
TEXT
  5
1E2
330
1F
100
AcDbEntity
  8
Default
  6
Continuous
 62
     7
100
AcDbText
 10
5.9362635081
 20
53.4225120485
 30
0.0
 40
10.0
  1
Grohe AG^J
  7
SEACAD_seiso_ttf
 11
5.9362635081
 21
63.4225120485
 31
0.0
100
AcDbText
 73
     3
  0
TEXT
  5
1E3
330
1F
100
AcDbEntity
  8
Default
  6
Continuous
 62
     7
100
AcDbText
 10
5.9362635081
 20
37.0588756849
 30
0.0
 40
10.0
  1
 
  7
SEACAD_seiso_ttf
 11
5.9362635081
 21
47.0588756849
 31
0.0
100
AcDbText
 73
     3
  0
TEXT
  5
1E4
330
1F
100
AcDbEntity
  8
Default
  6
Continuous
 62
     7
100
AcDbText
 10
5.9362635081
 20
20.6952393213
 30
0.0
 40
10.0
  1
ecn: 
  7
SEACAD_seiso_ttf
 11
5.9362635081
 21
30.6952393213
 31
0.0
100
AcDbText
 73
     3
  0
TEXT
  5
1E5
330
1F
100
AcDbEntity
  8
Default
  6
Continuous
 62
     7
100
AcDbText
 10
5.9362635081
 20
4.3316029576
 30
0.0
 40
10.0
  1
unit: mm
  7
SEACAD_seiso_ttf
 11
5.9362635081
 21
14.3316029576
 31
0.0
100
AcDbText
 73
     3
  0
LINE
  5
1E6
330
1F
100
AcDbEntity
  8
Default
  6
Continuous
 62
     7
100
AcDbLine
 10
0.0
 20
0.0
 30
0.0
 11
100.0
 21
0.0
 31
0.0
  0
LINE
  5
1E7
330
1F
100
AcDbEntity
  8
Default
  6
Continuous
 62
     7
100
AcDbLine
 10
0.0
 20
0.0
 30
0.0
 11
0.0
 21
100.0
 31
0.0
  0
TEXT
  5
1E8
330
1F
100
AcDbEntity
  8
Default
  6
Continuous
 62
     7
100
AcDbText
 10
24.3923665681
 20
-18.2375342018
 30
0.0
 40
10.0
  1
100 mm
  7
SEACAD_seiso_ttf
 11
24.3923665681
 21
-8.2375342018
 31
0.0
100
AcDbText
 73
     3
  0
TEXT
  5
1E9
330
1F
100
AcDbEntity
  8
Default
  6
Continuous
 62
     7
100
AcDbText
 10
-7.6150308803
 20
24.6231930421
 30
0.0
 40
10.0
  1
100 mm
 50
90.0
  7
SEACAD_seiso_ttf
 11
-17.6150308803
 21
24.6231930421
 31
0.0
100
AcDbText
 73
     3
  0
TEXT
  5
1EA
330
1F
100
AcDbEntity
  8
Default
  6
Continuous
 62
     7
100
AcDbText
 10
28.4878128572
 20
20.0907663715
 30
0.0
 40
10.0
  1
214610
  7
SEACAD_seiso_ttf
 11
28.4878128572
 21
30.0907663715
 31
0.0
100
AcDbText
 73
     3
  0
TEXT
  5
1EB
330
1F
100
AcDbEntity
  8
Default
  6
Continuous
 62
     7
100
AcDbText
 10
5.9012241913
 20
36.7242780188
 30
0.0
 40
10.0
  1
33849000
  7
SEACAD_seiso_ttf
 11
5.9012241913
 21
46.7242780188
 31
0.0
100
AcDbText
 73
     3
  0
ENDSEC
  0
SECTION
  2
OBJECTS
  0
DICTIONARY
  5
C
330
0
100
AcDbDictionary
281
     1
  3
ACAD_GROUP
350
D
  3
ACAD_LAYOUT
350
1A
  3
ACAD_MLEADERSTYLE
350
1EF
  3
ACAD_MLINESTYLE
350
17
  3
ACAD_PLOTSETTINGS
350
19
  3
ACAD_PLOTSTYLENAME
350
E
  3
ACAD_SCALELIST
350
3B
  3
ACAD_TABLESTYLE
350
1EE
  3
ACAD_VISUALSTYLE
350
2A
  3
AcDbVariableDictionary
350
1EC
  0
DICTIONARY
  5
D
102
{ACAD_REACTORS
330
C
102
}
330
C
100
AcDbDictionary
281
     1
  0
DICTIONARY
  5
1A
102
{ACAD_REACTORS
330
C
102
}
330
C
100
AcDbDictionary
281
     1
  3
Layout1
350
1E
  3
Model
350
22
  0
DICTIONARY
  5
1EF
102
{ACAD_REACTORS
330
C
102
}
330
C
100
AcDbDictionary
281
     1
  0
DICTIONARY
  5
17
102
{ACAD_REACTORS
330
C
102
}
330
C
100
AcDbDictionary
281
     1
  3
Standard
350
18
  0
DICTIONARY
  5
19
102
{ACAD_REACTORS
330
C
102
}
330
C
100
AcDbDictionary
281
     1
  0
ACDBDICTIONARYWDFLT
  5
E
102
{ACAD_REACTORS
330
C
102
}
330
C
100
AcDbDictionary
281
     1
  3
Normal
350
F
100
AcDbDictionaryWithDefault
340
F
  0
DICTIONARY
  5
3B
102
{ACAD_REACTORS
330
C
102
}
330
C
100
AcDbDictionary
281
     1
  3
A0
350
3C
  3
A1
350
3D
  3
A2
350
3E
  3
A3
350
3F
  3
A4
350
40
  3
A5
350
41
  3
A6
350
42
  3
A7
350
43
  3
A8
350
44
  3
A9
350
45
  3
B0
350
46
  3
B1
350
47
  3
B2
350
48
  3
B3
350
49
  3
B4
350
4A
  3
B5
350
4B
  3
B6
350
4C
  3
B7
350
4D
  3
B8
350
4E
  3
B9
350
4F
  3
C0
350
50
  3
C1
350
51
  3
C2
350
52
  3
C3
350
53
  3
C4
350
54
  3
C5
350
55
  3
C6
350
56
  3
C7
350
57
  3
C8
350
58
  3
C9
350
59
  3
D0
350
5A
  3
D1
350
5B
  3
D2
350
5C
  0
DICTIONARY
  5
1EE
102
{ACAD_REACTORS
330
C
102
}
330
C
100
AcDbDictionary
281
     1
  0
DICTIONARY
  5
2A
102
{ACAD_REACTORS
330
C
102
}
330
C
100
AcDbDictionary
281
     1
  3
2dWireframe
350
2F
  3
3D Hidden
350
31
  3
3dWireframe
350
30
  3
Basic
350
32
  3
Brighten
350
36
  3
ColorChange
350
3A
  3
Conceptual
350
34
  3
Dim
350
35
  3
Facepattern
350
39
  3
Flat
350
2B
  3
FlatWithEdges
350
2C
  3
Gouraud
350
2D
  3
GouraudWithEdges
350
2E
  3
Linepattern
350
38
  3
Realistic
350
33
  3
Thicken
350
37
  0
DICTIONARY
  5
1EC
102
{ACAD_REACTORS
330
C
102
}
330
C
100
AcDbDictionary
281
     1
  3
CANNOSCALE
350
1ED
  3
PSOLHEIGHT
350
1F1
  3
PSOLWIDTH
350
1F0
  0
LAYOUT
  5
1E
102
{ACAD_REACTORS
330
1A
102
}
330
1A
100
AcDbPlotSettings
  1

  2
none_device
  4

  6

 40
0.0
 41
0.0
 42
0.0
 43
0.0
 44
0.0
 45
0.0
 46
0.0
 47
0.0
 48
0.0
 49
0.0
140
0.0
141
0.0
142
1.0
143
1.0
 70
   688
 72
     0
 73
     0
 74
     5
  7

 75
    16
147
1.0
148
0.0
149
0.0
100
AcDbLayout
  1
Layout1
 70
     1
 71
     1
 10
0.0
 20
0.0
 11
1682.0
 21
2378.0
 12
0.0
 22
0.0
 32
0.0
 14
0.0
 24
0.0
 34
0.0
 15
1682.0
 25
2378.0
 35
0.0
146
0.0
 13
0.0
 23
0.0
 33
0.0
 16
1.0
 26
0.0
 36
0.0
 17
0.0
 27
1.0
 37
0.0
 76
     0
330
1B
  0
LAYOUT
  5
22
102
{ACAD_REACTORS
330
1A
102
}
330
1A
100
AcDbPlotSettings
  1

  2
none_device
  4

  6

 40
0.0
 41
0.0
 42
0.0
 43
0.0
 44
0.0
 45
0.0
 46
0.0
 47
0.0
 48
0.0
 49
0.0
140
0.0
141
0.0
142
1.0
143
1.0
 70
  1712
 72
     0
 73
     0
 74
     0
  7

 75
     0
147
1.0
148
0.0
149
0.0
100
AcDbLayout
  1
Model
 70
     1
 71
     0
 10
0.0
 20
0.0
 11
1682.0
 21
2378.0
 12
0.0
 22
0.0
 32
0.0
 14
0.0
 24
0.0
 34
0.0
 15
1682.0
 25
2378.0
 35
0.0
146
0.0
 13
0.0
 23
0.0
 33
0.0
 16
1.0
 26
0.0
 36
0.0
 17
0.0
 27
1.0
 37
0.0
 76
     0
330
1F
331
29
  0
MLINESTYLE
  5
18
102
{ACAD_REACTORS
330
17
102
}
330
17
100
AcDbMlineStyle
  2
Standard
 70
     0
  3

 62
   256
 51
90.0
 52
90.0
 71
     2
 49
0.5
 62
   256
  6
BYLAYER
 49
-0.5
 62
   256
  6
BYLAYER
  0
ACDBPLACEHOLDER
  5
F
102
{ACAD_REACTORS
330
E
102
}
330
E
  0
SCALE
  5
3C
102
{ACAD_REACTORS
330
3B
102
}
330
3B
100
AcDbScale
 70
     0
300
1:1
140
1.0
141
1.0
290
     1
  0
SCALE
  5
3D
102
{ACAD_REACTORS
330
3B
102
}
330
3B
100
AcDbScale
 70
     0
300
1:2
140
1.0
141
2.0
290
     0
  0
SCALE
  5
3E
102
{ACAD_REACTORS
330
3B
102
}
330
3B
100
AcDbScale
 70
     0
300
1:4
140
1.0
141
4.0
290
     0
  0
SCALE
  5
3F
102
{ACAD_REACTORS
330
3B
102
}
330
3B
100
AcDbScale
 70
     0
300
1:5
140
1.0
141
5.0
290
     0
  0
SCALE
  5
40
102
{ACAD_REACTORS
330
3B
102
}
330
3B
100
AcDbScale
 70
     0
300
1:8
140
1.0
141
8.0
290
     0
  0
SCALE
  5
41
102
{ACAD_REACTORS
330
3B
102
}
330
3B
100
AcDbScale
 70
     0
300
1:10
140
1.0
141
10.0
290
     0
  0
SCALE
  5
42
102
{ACAD_REACTORS
330
3B
102
}
330
3B
100
AcDbScale
 70
     0
300
1:16
140
1.0
141
16.0
290
     0
  0
SCALE
  5
43
102
{ACAD_REACTORS
330
3B
102
}
330
3B
100
AcDbScale
 70
     0
300
1:20
140
1.0
141
20.0
290
     0
  0
SCALE
  5
44
102
{ACAD_REACTORS
330
3B
102
}
330
3B
100
AcDbScale
 70
     0
300
1:30
140
1.0
141
30.0
290
     0
  0
SCALE
  5
45
102
{ACAD_REACTORS
330
3B
102
}
330
3B
100
AcDbScale
 70
     0
300
1:40
140
1.0
141
40.0
290
     0
  0
SCALE
  5
46
102
{ACAD_REACTORS
330
3B
102
}
330
3B
100
AcDbScale
 70
     0
300
1:50
140
1.0
141
50.0
290
     0
  0
SCALE
  5
47
102
{ACAD_REACTORS
330
3B
102
}
330
3B
100
AcDbScale
 70
     0
300
1:100
140
1.0
141
100.0
290
     0
  0
SCALE
  5
48
102
{ACAD_REACTORS
330
3B
102
}
330
3B
100
AcDbScale
 70
     0
300
2:1
140
2.0
141
1.0
290
     0
  0
SCALE
  5
49
102
{ACAD_REACTORS
330
3B
102
}
330
3B
100
AcDbScale
 70
     0
300
4:1
140
4.0
141
1.0
290
     0
  0
SCALE
  5
4A
102
{ACAD_REACTORS
330
3B
102
}
330
3B
100
AcDbScale
 70
     0
300
8:1
140
8.0
141
1.0
290
     0
  0
SCALE
  5
4B
102
{ACAD_REACTORS
330
3B
102
}
330
3B
100
AcDbScale
 70
     0
300
10:1
140
10.0
141
1.0
290
     0
  0
SCALE
  5
4C
102
{ACAD_REACTORS
330
3B
102
}
330
3B
100
AcDbScale
 70
     0
300
100:1
140
100.0
141
1.0
290
     0
  0
SCALE
  5
4D
102
{ACAD_REACTORS
330
3B
102
}
330
3B
100
AcDbScale
 70
     0
300
1/128" = 1'-0"
140
0.0078125
141
12.0
290
     0
  0
SCALE
  5
4E
102
{ACAD_REACTORS
330
3B
102
}
330
3B
100
AcDbScale
 70
     0
300
1/64" = 1'-0"
140
0.015625
141
12.0
290
     0
  0
SCALE
  5
4F
102
{ACAD_REACTORS
330
3B
102
}
330
3B
100
AcDbScale
 70
     0
300
1/32" = 1'-0"
140
0.03125
141
12.0
290
     0
  0
SCALE
  5
50
102
{ACAD_REACTORS
330
3B
102
}
330
3B
100
AcDbScale
 70
     0
300
1/16" = 1'-0"
140
0.0625
141
12.0
290
     0
  0
SCALE
  5
51
102
{ACAD_REACTORS
330
3B
102
}
330
3B
100
AcDbScale
 70
     0
300
3/32" = 1'-0"
140
0.09375
141
12.0
290
     0
  0
SCALE
  5
52
102
{ACAD_REACTORS
330
3B
102
}
330
3B
100
AcDbScale
 70
     0
300
1/8" = 1'-0"
140
0.125
141
12.0
290
     0
  0
SCALE
  5
53
102
{ACAD_REACTORS
330
3B
102
}
330
3B
100
AcDbScale
 70
     0
300
3/16" = 1'-0"
140
0.1875
141
12.0
290
     0
  0
SCALE
  5
54
102
{ACAD_REACTORS
330
3B
102
}
330
3B
100
AcDbScale
 70
     0
300
1/4" = 1'-0"
140
0.25
141
12.0
290
     0
  0
SCALE
  5
55
102
{ACAD_REACTORS
330
3B
102
}
330
3B
100
AcDbScale
 70
     0
300
3/8" = 1'-0"
140
0.375
141
12.0
290
     0
  0
SCALE
  5
56
102
{ACAD_REACTORS
330
3B
102
}
330
3B
100
AcDbScale
 70
     0
300
1/2" = 1'-0"
140
0.5
141
12.0
290
     0
  0
SCALE
  5
57
102
{ACAD_REACTORS
330
3B
102
}
330
3B
100
AcDbScale
 70
     0
300
3/4" = 1'-0"
140
0.75
141
12.0
290
     0
  0
SCALE
  5
58
102
{ACAD_REACTORS
330
3B
102
}
330
3B
100
AcDbScale
 70
     0
300
1" = 1'-0"
140
1.0
141
12.0
290
     0
  0
SCALE
  5
59
102
{ACAD_REACTORS
330
3B
102
}
330
3B
100
AcDbScale
 70
     0
300
1-1/2" = 1'-0"
140
1.5
141
12.0
290
     0
  0
SCALE
  5
5A
102
{ACAD_REACTORS
330
3B
102
}
330
3B
100
AcDbScale
 70
     0
300
3" = 1'-0"
140
3.0
141
12.0
290
     0
  0
SCALE
  5
5B
102
{ACAD_REACTORS
330
3B
102
}
330
3B
100
AcDbScale
 70
     0
300
6" = 1'-0"
140
6.0
141
12.0
290
     0
  0
SCALE
  5
5C
102
{ACAD_REACTORS
330
3B
102
}
330
3B
100
AcDbScale
 70
     0
300
1'-0" = 1'-0"
140
12.0
141
12.0
290
     0
  0
VISUALSTYLE
  5
2F
102
{ACAD_REACTORS
330
2A
102
}
330
2A
100
AcDbVisualStyle
  2
2dWireframe
 70
     4
 71
     0
 72
     2
 73
     0
 90
        0
 40
-0.6
 41
-30.0
 62
     5
 63
     7
 74
     1
 91
        4
 64
     7
 65
   257
 75
     1
175
     1
 42
1.0
 92
        0
 66
   257
 43
1.0
 76
     1
 77
     6
 78
     2
 67
     7
 79
     5
170
     0
171
     0
290
     0
174
     0
 93
        1
 44
0.0
173
     0
291
     0
 45
0.0
1001
ACAD
1000
AcDbSavedByObjectVersion
1070
     0
  0
VISUALSTYLE
  5
31
102
{ACAD_REACTORS
330
2A
102
}
330
2A
100
AcDbVisualStyle
  2
3D Hidden
 70
     6
 71
     1
 72
     2
 73
     2
 90
        0
 40
-0.6
 41
-30.0
 62
     5
 63
     7
 74
     2
 91
        2
 64
     7
 65
   257
 75
     2
175
     1
 42
40.0
 92
        0
 66
   257
 43
1.0
 76
     1
 77
     6
 78
     2
 67
     7
 79
     3
170
     0
171
     0
290
     0
174
     0
 93
        1
 44
0.0
173
     0
291
     0
 45
0.0
1001
ACAD
1000
AcDbSavedByObjectVersion
1070
     0
  0
VISUALSTYLE
  5
30
102
{ACAD_REACTORS
330
2A
102
}
330
2A
100
AcDbVisualStyle
  2
3dWireframe
 70
     5
 71
     0
 72
     2
 73
     0
 90
        0
 40
-0.6
 41
-30.0
 62
     5
 63
     7
 74
     1
 91
        4
 64
     7
 65
   257
 75
     1
175
     1
 42
1.0
 92
        0
 66
   257
 43
1.0
 76
     1
 77
     6
 78
     2
 67
     7
 79
     5
170
     0
171
     0
290
     0
174
     0
 93
        1
 44
0.0
173
     0
291
     0
 45
0.0
1001
ACAD
1000
AcDbSavedByObjectVersion
1070
     0
  0
VISUALSTYLE
  5
32
102
{ACAD_REACTORS
330
2A
102
}
330
2A
100
AcDbVisualStyle
  2
Basic
 70
     7
 71
     1
 72
     0
 73
     1
 90
        0
 40
-0.6
 41
-30.0
 62
     5
 63
     7
 74
     0
 91
        4
 64
     7
 65
   257
 75
     1
175
     1
 42
1.0
 92
        8
 66
     7
 43
1.0
 76
     1
 77
     6
 78
     2
 67
     7
 79
     5
170
     0
171
     0
290
     0
174
     0
 93
        1
 44
0.0
173
     0
291
     1
 45
0.0
1001
ACAD
1000
AcDbSavedByObjectVersion
1070
     0
  0
VISUALSTYLE
  5
36
102
{ACAD_REACTORS
330
2A
102
}
330
2A
100
AcDbVisualStyle
  2
Brighten
 70
    12
 71
     2
 72
     2
 73
     0
 90
        0
 40
-0.6
 41
-30.0
 62
     5
 63
     7
 74
     1
 91
        4
 64
     7
 65
   257
 75
     1
175
     1
 42
1.0
 92
        8
 66
     7
 43
1.0
 76
     1
 77
     6
 78
     2
 67
     7
 79
     5
170
     0
171
     0
290
     0
174
     0
 93
        1
 44
50.0
173
     0
291
     1
 45
0.0
1001
ACAD
1000
AcDbSavedByObjectVersion
1070
     0
  0
VISUALSTYLE
  5
3A
102
{ACAD_REACTORS
330
2A
102
}
330
2A
100
AcDbVisualStyle
  2
ColorChange
 70
    16
 71
     2
 72
     2
 73
     3
 90
        0
 40
-0.6
 41
-30.0
 62
     5
 63
     8
 74
     1
 91
        4
 64
     7
 65
   257
 75
     1
175
     1
 42
1.0
 92
        8
 66
     8
 43
1.0
 76
     1
 77
     6
 78
     2
 67
     7
 79
     5
170
     0
171
     0
290
     0
174
     0
 93
        1
 44
0.0
173
     0
291
     1
 45
0.0
1001
ACAD
1000
AcDbSavedByObjectVersion
1070
     0
  0
VISUALSTYLE
  5
34
102
{ACAD_REACTORS
330
2A
102
}
330
2A
100
AcDbVisualStyle
  2
Conceptual
 70
     9
 71
     3
 72
     2
 73
     0
 90
        0
 40
-0.6
 41
-30.0
 62
     5
 63
     7
 74
     2
 91
        2
 64
     7
 65
   257
 75
     1
175
     1
 42
40.0
 92
        8
 66
     7
 43
1.0
 76
     1
 77
     6
 78
     2
 67
     7
 79
     3
170
     0
171
     0
290
     0
174
     0
 93
        1
 44
0.0
173
     0
291
     0
 45
0.0
1001
ACAD
1000
AcDbSavedByObjectVersion
1070
     0
  0
VISUALSTYLE
  5
35
102
{ACAD_REACTORS
330
2A
102
}
330
2A
100
AcDbVisualStyle
  2
Dim
 70
    11
 71
     2
 72
     2
 73
     0
 90
        0
 40
-0.6
 41
-30.0
 62
     5
 63
     7
 74
     1
 91
        4
 64
     7
 65
   257
 75
     1
175
     1
 42
1.0
 92
        8
 66
     7
 43
1.0
 76
     1
 77
     6
 78
     2
 67
     7
 79
     5
170
     0
171
     0
290
     0
174
     0
 93
        1
 44
-50.0
173
     0
291
     1
 45
0.0
1001
ACAD
1000
AcDbSavedByObjectVersion
1070
     0
  0
VISUALSTYLE
  5
39
102
{ACAD_REACTORS
330
2A
102
}
330
2A
100
AcDbVisualStyle
  2
Facepattern
 70
    15
 71
     2
 72
     2
 73
     0
 90
        0
 40
-0.6
 41
-30.0
 62
     5
 63
     7
 74
     1
 91
        4
 64
     7
 65
   257
 75
     1
175
     1
 42
1.0
 92
        8
 66
     7
 43
1.0
 76
     1
 77
     6
 78
     2
 67
     7
 79
     5
170
     0
171
     0
290
     0
174
     0
 93
        1
 44
0.0
173
     0
291
     1
 45
0.0
1001
ACAD
1000
AcDbSavedByObjectVersion
1070
     0
  0
VISUALSTYLE
  5
2B
102
{ACAD_REACTORS
330
2A
102
}
330
2A
100
AcDbVisualStyle
  2
Flat
 70
     0
 71
     2
 72
     1
 73
     1
 90
        2
 40
-0.6
 41
30.0
 62
     5
 63
     7
 74
     0
 91
        4
 64
     7
 65
   257
 75
     1
175
     1
 42
1.0
 92
        8
 66
     7
 43
1.0
 76
     1
 77
     6
 78
     2
 67
     7
 79
     5
170
     0
171
     0
290
     0
174
     0
 93
       13
 44
0.0
173
     0
291
     1
 45
0.0
1001
ACAD
1000
AcDbSavedByObjectVersion
1070
     0
  0
VISUALSTYLE
  5
2C
102
{ACAD_REACTORS
330
2A
102
}
330
2A
100
AcDbVisualStyle
  2
FlatWithEdges
 70
     1
 71
     2
 72
     1
 73
     1
 90
        2
 40
-0.6
 41
30.0
 62
     5
 63
     7
 74
     1
 91
        4
 64
     7
 65
   257
 75
     1
175
     1
 42
1.0
 92
        0
 66
   257
 43
1.0
 76
     1
 77
     6
 78
     2
 67
     7
 79
     5
170
     0
171
     0
290
     0
174
     0
 93
       13
 44
0.0
173
     0
291
     1
 45
0.0
1001
ACAD
1000
AcDbSavedByObjectVersion
1070
     0
  0
VISUALSTYLE
  5
2D
102
{ACAD_REACTORS
330
2A
102
}
330
2A
100
AcDbVisualStyle
  2
Gouraud
 70
     2
 71
     2
 72
     2
 73
     1
 90
        2
 40
-0.6
 41
30.0
 62
     5
 63
     7
 74
     0
 91
        4
 64
     7
 65
   257
 75
     1
175
     1
 42
1.0
 92
        0
 66
     7
 43
1.0
 76
     1
 77
     6
 78
     2
 67
     7
 79
     5
170
     0
171
     0
290
     0
174
     0
 93
       13
 44
0.0
173
     0
291
     1
 45
0.0
1001
ACAD
1000
AcDbSavedByObjectVersion
1070
     0
  0
VISUALSTYLE
  5
2E
102
{ACAD_REACTORS
330
2A
102
}
330
2A
100
AcDbVisualStyle
  2
GouraudWithEdges
 70
     3
 71
     2
 72
     2
 73
     1
 90
        2
 40
-0.6
 41
30.0
 62
     5
 63
     7
 74
     1
 91
        4
 64
     7
 65
   257
 75
     1
175
     1
 42
1.0
 92
        0
 66
   257
 43
1.0
 76
     1
 77
     6
 78
     2
 67
     7
 79
     5
170
     0
171
     0
290
     0
174
     0
 93
       13
 44
0.0
173
     0
291
     1
 45
0.0
1001
ACAD
1000
AcDbSavedByObjectVersion
1070
     0
  0
VISUALSTYLE
  5
38
102
{ACAD_REACTORS
330
2A
102
}
330
2A
100
AcDbVisualStyle
  2
Linepattern
 70
    14
 71
     2
 72
     2
 73
     0
 90
        0
 40
-0.6
 41
-30.0
 62
     5
 63
     7
 74
     1
 91
        4
 64
     7
 65
   257
 75
     7
175
     7
 42
1.0
 92
        8
 66
     7
 43
1.0
 76
     1
 77
     6
 78
     2
 67
     7
 79
     5
170
     0
171
     0
290
     0
174
     0
 93
        1
 44
0.0
173
     0
291
     1
 45
0.0
1001
ACAD
1000
AcDbSavedByObjectVersion
1070
     0
  0
VISUALSTYLE
  5
33
102
{ACAD_REACTORS
330
2A
102
}
330
2A
100
AcDbVisualStyle
  2
Realistic
 70
     8
 71
     2
 72
     2
 73
     0
 90
        0
 40
-0.6
 41
-30.0
 62
     5
 63
     7
 74
     1
 91
        0
 64
     7
 65
   257
 75
     1
175
     1
 42
1.0
 92
        8
 66
     8
 43
1.0
 76
     1
 77
     6
 78
     2
 67
     7
 79
     5
170
     0
171
     0
290
     0
174
     0
 93
       13
 44
0.0
173
     0
291
     0
 45
0.0
1001
ACAD
1000
AcDbSavedByObjectVersion
1070
     0
  0
VISUALSTYLE
  5
37
102
{ACAD_REACTORS
330
2A
102
}
330
2A
100
AcDbVisualStyle
  2
Thicken
 70
    13
 71
     2
 72
     2
 73
     0
 90
        0
 40
-0.6
 41
-30.0
 62
     5
 63
     7
 74
     1
 91
        4
 64
     7
 65
   257
 75
     1
175
     1
 42
1.0
 92
       12
 66
     7
 43
1.0
 76
     1
 77
     6
 78
     2
 67
     7
 79
     5
170
     0
171
     0
290
     0
174
     0
 93
        1
 44
0.0
173
     0
291
     1
 45
0.0
1001
ACAD
1000
AcDbSavedByObjectVersion
1070
     0
  0
DICTIONARYVAR
  5
1ED
102
{ACAD_REACTORS
330
1EC
102
}
330
1EC
100
DictionaryVariables
280
     0
  1
1:1
  0
DICTIONARYVAR
  5
1F1
102
{ACAD_REACTORS
330
1EC
102
}
330
1EC
100
DictionaryVariables
280
     0
  1
80.000000
  0
DICTIONARYVAR
  5
1F0
102
{ACAD_REACTORS
330
1EC
102
}
330
1EC
100
DictionaryVariables
280
     0
  1
5.000000
  0
ENDSEC
  0
EOF
