  0
SECTION
  2
HEADER
  9
$ACADVER
  1
AC1009
  9
$DWGCODEPAGE
  3
ansi_1252
  9
$INSBASE
 10
0.0
 20
0.0
 30
0.0
  9
$EXTMIN
 10
1.000000000000000E+20
 20
1.000000000000000E+20
 30
1.000000000000000E+20
  9
$EXTMAX
 10
-1.000000000000000E+20
 20
-1.000000000000000E+20
 30
-1.000000000000000E+20
  9
$LIMMIN
 10
0.0
 20
0.0
  9
$LIMMAX
 10
12.0
 20
9.0
  9
$ORTHOMODE
 70
     0
  9
$REGENMODE
 70
     1
  9
$FILLMODE
 70
     1
  9
$QTEXTMODE
 70
     0
  9
$MIRRTEXT
 70
     1
  9
$DRAGMODE
 70
     2
  9
$LTSCALE
 40
1.0
  9
$OSMODE
 70
    37
  9
$ATTMODE
 70
     1
  9
$TEXTSIZE
 40
0.2
  9
$TRACEWID
 40
0.05
  9
$TEXTSTYLE
  7
STANDARD
  9
$CLAYER
  8
0
  9
$CELTYPE
  6
BYLAYER
  9
$CECOLOR
 62
   256
  9
$DIMSCALE
 40
1.0
  9
$DIMASZ
 40
0.18
  9
$DIMEXO
 40
0.0625
  9
$DIMDLI
 40
0.38
  9
$DIMRND
 40
0.0
  9
$DIMDLE
 40
0.0
  9
$DIMEXE
 40
0.18
  9
$DIMTP
 40
0.0
  9
$DIMTM
 40
0.0
  9
$DIMTXT
 40
0.18
  9
$DIMCEN
 40
0.09
  9
$DIMTSZ
 40
0.0
  9
$DIMTOL
 70
     0
  9
$DIMLIM
 70
     0
  9
$DIMTIH
 70
     1
  9
$DIMTOH
 70
     1
  9
$DIMSE1
 70
     0
  9
$DIMSE2
 70
     0
  9
$DIMTAD
 70
     0
  9
$DIMZIN
 70
     0
  9
$DIMBLK
  1

  9
$DIMASO
 70
     1
  9
$DIMSHO
 70
     1
  9
$DIMPOST
  1

  9
$DIMAPOST
  1

  9
$DIMALT
 70
     0
  9
$DIMALTD
 70
     2
  9
$DIMALTF
 40
25.4
  9
$DIMLFAC
 40
1.0
  9
$DIMTOFL
 70
     0
  9
$DIMTVP
 40
0.0
  9
$DIMTIX
 70
     0
  9
$DIMSOXD
 70
     0
  9
$DIMSAH
 70
     0
  9
$DIMBLK1
  1

  9
$DIMBLK2
  1

  9
$DIMSTYLE
  2
STANDARD
  9
$DIMCLRD
 70
     0
  9
$DIMCLRE
 70
     0
  9
$DIMCLRT
 70
     0
  9
$DIMTFAC
 40
1.0
  9
$DIMGAP
 40
0.09
  9
$LUNITS
 70
     2
  9
$LUPREC
 70
     4
  9
$SKETCHINC
 40
0.1
  9
$FILLETRAD
 40
0.5
  9
$AUNITS
 70
     0
  9
$AUPREC
 70
     0
  9
$MENU
  1
.
  9
$ELEVATION
 40
0.0
  9
$PELEVATION
 40
0.0
  9
$THICKNESS
 40
0.0
  9
$LIMCHECK
 70
     0
  9
$CHAMFERA
 40
0.5
  9
$CHAMFERB
 40
0.5
  9
$SKPOLY
 70
     0
  9
$TDCREATE
 40
2455497.868220845
  9
$TDUPDATE
 40
2455497.868220845
  9
$TDINDWG
 40
0.0000000116
  9
$TDUSRTIMER
 40
0.0000000116
  9
$USRTIMER
 70
     1
  9
$ANGBASE
 50
0.0
  9
$ANGDIR
 70
     0
  9
$PDMODE
 70
     0
  9
$PDSIZE
 40
0.0
  9
$PLINEWID
 40
0.0
  9
$COORDS
 70
     1
  9
$SPLFRAME
 70
     0
  9
$SPLINETYPE
 70
     6
  9
$SPLINESEGS
 70
     8
  9
$ATTDIA
 70
     0
  9
$ATTREQ
 70
     1
  9
$HANDLING
 70
     1
  9
$HANDSEED
  5
D19
  9
$SURFTAB1
 70
     6
  9
$SURFTAB2
 70
     6
  9
$SURFTYPE
 70
     6
  9
$SURFU
 70
     6
  9
$SURFV
 70
     6
  9
$UCSNAME
  2

  9
$UCSORG
 10
0.0
 20
0.0
 30
0.0
  9
$UCSXDIR
 10
1.0
 20
0.0
 30
0.0
  9
$UCSYDIR
 10
0.0
 20
1.0
 30
0.0
  9
$PUCSNAME
  2

  9
$PUCSORG
 10
0.0
 20
0.0
 30
0.0
  9
$PUCSXDIR
 10
1.0
 20
0.0
 30
0.0
  9
$PUCSYDIR
 10
0.0
 20
1.0
 30
0.0
  9
$USERI1
 70
     0
  9
$USERI2
 70
     0
  9
$USERI3
 70
     0
  9
$USERI4
 70
     0
  9
$USERI5
 70
     0
  9
$USERR1
 40
0.0
  9
$USERR2
 40
0.0
  9
$USERR3
 40
0.0
  9
$USERR4
 40
0.0
  9
$USERR5
 40
0.0
  9
$WORLDVIEW
 70
     1
  9
$SHADEDGE
 70
     3
  9
$SHADEDIF
 70
    70
  9
$TILEMODE
 70
     1
  9
$MAXACTVP
 70
    64
  9
$PLIMCHECK
 70
     0
  9
$PEXTMIN
 10
1.000000000000000E+20
 20
1.000000000000000E+20
 30
1.000000000000000E+20
  9
$PEXTMAX
 10
-1.000000000000000E+20
 20
-1.000000000000000E+20
 30
-1.000000000000000E+20
  9
$PLIMMIN
 10
0.0
 20
0.0
  9
$PLIMMAX
 10
12.0
 20
9.0
  9
$UNITMODE
 70
     0
  9
$VISRETAIN
 70
     1
  9
$PLINEGEN
 70
     0
  9
$PSLTSCALE
 70
     1
  0
ENDSEC
  0
SECTION
  2
TABLES
  0
TABLE
  2
VPORT
 70
     1
  0
VPORT
  2
*ACTIVE
 70
     0
 10
0.0
 20
0.0
 11
1.0
 21
1.0
 12
0.0
 22
0.0
 13
0.0
 23
0.0
 14
0.5
 24
0.5
 15
0.5
 25
0.5
 16
452.3207397460938
 26
258.4467163085938
 36
452.3207397460938
 17
42.45150756835938
 27
0.0
 37
55.35000610351562
 40
252.7224033460554
 41
1.972972972850329
 42
50.0
 43
0.0
 44
0.0
 50
0.0
 51
0.0
 71
     0
 72
   100
 73
     1
 74
     3
 75
     0
 76
     0
 77
     0
 78
     0
  0
ENDTAB
  0
TABLE
  2
LTYPE
 70
     1
  0
LTYPE
  2
CONTINUOUS
 70
     0
  3
Solid line
 72
    65
 73
     0
 40
0.0
  0
ENDTAB
  0
TABLE
  2
LAYER
 70
     2
  0
LAYER
  2
0
 70
     0
 62
     7
  6
CONTINUOUS
  0
LAYER
  2
LAYER_1
 70
     0
 62
     7
  6
CONTINUOUS
  0
ENDTAB
  0
TABLE
  2
STYLE
 70
     1
  0
STYLE
  2
STANDARD
 70
     0
 40
0.0
 41
1.0
 50
0.0
 71
     0
 42
0.2
  3
txt
  4

  0
ENDTAB
  0
TABLE
  2
VIEW
 70
     0
  0
ENDTAB
  0
TABLE
  2
UCS
 70
     0
  0
ENDTAB
  0
TABLE
  2
APPID
 70
     1
  0
APPID
  2
ACAD
 70
     0
  0
ENDTAB
  0
TABLE
  2
DIMSTYLE
 70
     1
  0
DIMSTYLE
  2
STANDARD
 70
     0
  3

  4

  5

  6

  7

 40
1.0
 41
0.18
 42
0.0625
 43
0.38
 44
0.18
 45
0.0
 46
0.0
 47
0.0
 48
0.0
140
0.18
141
0.09
142
0.0
143
25.4
144
1.0
145
0.0
146
1.0
147
0.09
 71
     0
 72
     0
 73
     1
 74
     1
 75
     0
 76
     0
 77
     0
 78
     0
170
     0
171
     2
172
     0
173
     0
174
     0
175
     0
176
     0
177
     0
178
     0
  0
ENDTAB
  0
ENDSEC
  0
SECTION
  2
BLOCKS
  0
BLOCK
  8
0
  2
$MODEL_SPACE
 70
     0
 10
0.0
 20
0.0
 30
0.0
  3
$MODEL_SPACE
  1

  0
ENDBLK
  5
21
  8
0
  0
BLOCK
 67
     1
  8
0
  2
$PAPER_SPACE
 70
     0
 10
0.0
 20
0.0
 30
0.0
  3
$PAPER_SPACE
  1

  0
ENDBLK
  5
1D
 67
     1
  8
0
  0
BLOCK
  8
0
  2
E3_NODE
 70
     0
 10
0.0
 20
0.0
 30
0.0
  3
E3_NODE
  1

  0
POLYLINE
  5
3C
  8
0
 62
     9
 66
     1
 10
0.0
 20
0.0
 30
0.0
 70
    64
 71
    29
 72
    31
  0
VERTEX
  5
3D
  8
0
 10
7.35200023651123
 20
-152.8309936523438
 30
51.59700012207031
 70
   192
  0
VERTEX
  5
3E
  8
0
 10
4.359000205993652
 20
-149.8379974365234
 30
51.59700012207031
 70
   192
  0
VERTEX
  5
3F
  8
0
 10
4.863999843597412
 20
-149.5659942626953
 30
51.40599822998047
 70
   192
  0
VERTEX
  5
40
  8
0
 10
3.522000074386597
 20
-146.3459930419922
 30
51.72499847412109
 70
   192
  0
VERTEX
  5
41
  8
0
 10
4.09499979019165
 20
-146.3459930419922
 30
51.53300094604492
 70
   192
  0
VERTEX
  5
42
  8
0
 10
5.22700023651123
 20
-146.3459930419922
 30
51.15499877929688
 70
   192
  0
VERTEX
  5
43
  8
0
 10
5.614999771118164
 20
-146.3459930419922
 30
51.02500152587891
 70
   192
  0
VERTEX
  5
44
  8
0
 10
7.624000072479248
 20
-152.3260040283203
 30
51.40599822998047
 70
   192
  0
VERTEX
  5
45
  8
0
 10
10.8439998626709
 20
-148.8910064697266
 30
50.69699859619141
 70
   192
  0
VERTEX
  5
46
  8
0
 10
10.8439998626709
 20
-150.4570007324219
 30
50.8390007019043
 70
   192
  0
VERTEX
  5
47
  8
0
 10
10.8439998626709
 20
-146.3459930419922
 30
50.65000152587891
 70
   192
  0
VERTEX
  5
48
  8
0
 10
10.8439998626709
 20
-152.6369934082031
 30
51.30099868774414
 70
   192
  0
VERTEX
  5
49
  8
0
 10
10.8439998626709
 20
-153.1380004882812
 30
51.40599822998047
 70
   192
  0
VERTEX
  5
4A
  8
0
 10
10.8439998626709
 20
-153.1439971923828
 30
51.40800094604492
 70
   192
  0
VERTEX
  5
4B
  8
0
 10
10.8439998626709
 20
-153.4389953613281
 30
51.59700012207031
 70
   192
  0
VERTEX
  5
4C
  8
0
 10
10.8439998626709
 20
-153.6329956054688
 30
51.72000122070312
 70
   192
  0
VERTEX
  5
4D
  8
0
 10
8.744999885559082
 20
-156.4859924316406
 30
53.6870002746582
 70
   192
  0
VERTEX
  5
4E
  8
0
 10
10.8439998626709
 20
-156.6970062255859
 30
53.68099975585938
 70
   192
  0
VERTEX
  5
4F
  8
0
 10
6.991000175476074
 20
-155.8179931640625
 30
53.70399856567383
 70
   192
  0
VERTEX
  5
50
  8
0
 10
3.607000112533569
 20
-153.6450042724609
 30
53.75
 70
   192
  0
VERTEX
  5
51
  8
0
 10
2.834000110626221
 20
-152.9960021972656
 30
53.76399993896484
 70
   192
  0
VERTEX
  5
52
  8
0
 10
5.532000064849854
 20
-155.2610015869141
 30
53.71799850463867
 70
   192
  0
VERTEX
  5
53
  8
0
 10
5.947999954223633
 20
-155.4199981689453
 30
53.7140007019043
 70
   192
  0
VERTEX
  5
54
  8
0
 10
1.307999968528748
 20
-150.3419952392578
 30
53.79800033569336
 70
   192
  0
VERTEX
  5
55
  8
0
 10
2.296000003814697
 20
-146.3459930419922
 30
52.1349983215332
 70
   192
  0
VERTEX
  5
56
  8
0
 10
0.9879999756813049
 20
-149.7850036621094
 30
53.80500030517578
 70
   192
  0
VERTEX
  5
57
  8
0
 10
0.3970000147819519
 20
-146.5079956054688
 30
53.81800079345703
 70
   192
  0
VERTEX
  5
58
  8
0
 10
0.3959999978542328
 20
-146.3459930419922
 30
53.81800079345703
 70
   192
  0
VERTEX
  5
59
  8
0
 10
1.805999994277954
 20
-151.2079925537109
 30
53.7859992980957
 70
   192
  0
VERTEX
  5
5A
  8
0
 62
     9
 10
0.0
 20
0.0
 30
0.0
 70
   128
 71
     3
 72
     2
 73
     1
  0
VERTEX
  5
5B
  8
0
 62
     9
 10
0.0
 20
0.0
 30
0.0
 70
   128
 71
     3
 72
     5
 73
     4
  0
VERTEX
  5
5C
  8
0
 62
     9
 10
0.0
 20
0.0
 30
0.0
 70
   128
 71
     7
 72
     6
 73
     3
  0
VERTEX
  5
5D
  8
0
 62
     9
 10
0.0
 20
0.0
 30
0.0
 70
   128
 71
     6
 72
     5
 73
     3
  0
VERTEX
  5
5E
  8
0
 62
     9
 10
0.0
 20
0.0
 30
0.0
 70
   128
 71
    10
 72
     9
 73
     8
  0
VERTEX
  5
5F
  8
0
 62
     9
 10
0.0
 20
0.0
 30
0.0
 70
   128
 71
     9
 72
    11
 73
     8
  0
VERTEX
  5
60
  8
0
 62
     9
 10
0.0
 20
0.0
 30
0.0
 70
   128
 71
     8
 72
    12
 73
    10
  0
VERTEX
  5
61
  8
0
 62
     9
 10
0.0
 20
0.0
 30
0.0
 70
   128
 71
    13
 72
     8
 73
     1
  0
VERTEX
  5
62
  8
0
 62
     9
 10
0.0
 20
0.0
 30
0.0
 70
   128
 71
     1
 72
    14
 73
    13
  0
VERTEX
  5
63
  8
0
 62
     9
 10
0.0
 20
0.0
 30
0.0
 70
   128
 71
     1
 72
    15
 73
    14
  0
VERTEX
  5
64
  8
0
 62
     9
 10
0.0
 20
0.0
 30
0.0
 70
   128
 71
    17
 72
    16
 73
     1
  0
VERTEX
  5
65
  8
0
 62
     9
 10
0.0
 20
0.0
 30
0.0
 70
   128
 71
    17
 72
    18
 73
    16
  0
VERTEX
  5
66
  8
0
 62
     9
 10
0.0
 20
0.0
 30
0.0
 70
   128
 71
     1
 72
    19
 73
    17
  0
VERTEX
  5
67
  8
0
 62
     9
 10
0.0
 20
0.0
 30
0.0
 70
   128
 71
    21
 72
    20
 73
     2
  0
VERTEX
  5
68
  8
0
 62
     9
 10
0.0
 20
0.0
 30
0.0
 70
   128
 71
    20
 72
    22
 73
     1
  0
VERTEX
  5
69
  8
0
 62
     9
 10
0.0
 20
0.0
 30
0.0
 70
   128
 71
    22
 72
    23
 73
     1
  0
VERTEX
  5
6A
  8
0
 62
     9
 10
0.0
 20
0.0
 30
0.0
 70
   128
 71
     1
 72
     2
 73
    20
  0
VERTEX
  5
6B
  8
0
 62
     9
 10
0.0
 20
0.0
 30
0.0
 70
   128
 71
    25
 72
    24
 73
     2
  0
VERTEX
  5
6C
  8
0
 62
     9
 10
0.0
 20
0.0
 30
0.0
 70
   128
 71
    26
 72
    24
 73
    25
  0
VERTEX
  5
6D
  8
0
 62
     9
 10
0.0
 20
0.0
 30
0.0
 70
   128
 71
    25
 72
    27
 73
    26
  0
VERTEX
  5
6E
  8
0
 62
     9
 10
0.0
 20
0.0
 30
0.0
 70
   128
 71
    25
 72
    28
 73
    27
  0
VERTEX
  5
6F
  8
0
 62
     9
 10
0.0
 20
0.0
 30
0.0
 70
   128
 71
    24
 72
    29
 73
     2
  0
VERTEX
  5
70
  8
0
 62
     9
 10
0.0
 20
0.0
 30
0.0
 70
   128
 71
     2
 72
     4
 73
    25
  0
VERTEX
  5
71
  8
0
 62
     9
 10
0.0
 20
0.0
 30
0.0
 70
   128
 71
     2
 72
    29
 73
    21
  0
VERTEX
  5
72
  8
0
 62
     9
 10
0.0
 20
0.0
 30
0.0
 70
   128
 71
     1
 72
    23
 73
    19
  0
VERTEX
  5
73
  8
0
 62
     9
 10
0.0
 20
0.0
 30
0.0
 70
   128
 71
     1
 72
    16
 73
    15
  0
VERTEX
  5
74
  8
0
 62
     9
 10
0.0
 20
0.0
 30
0.0
 70
   128
 71
     8
 72
    13
 73
    12
  0
VERTEX
  5
75
  8
0
 62
     9
 10
0.0
 20
0.0
 30
0.0
 70
   128
 71
     3
 72
    11
 73
     7
  0
VERTEX
  5
76
  8
0
 62
     9
 10
0.0
 20
0.0
 30
0.0
 70
   128
 71
     4
 72
     2
 73
     3
  0
VERTEX
  5
77
  8
0
 62
     9
 10
0.0
 20
0.0
 30
0.0
 70
   128
 71
     1
 72
     8
 73
     3
  0
VERTEX
  5
78
  8
0
 62
     9
 10
0.0
 20
0.0
 30
0.0
 70
   128
 71
     3
 72
     8
 73
    11
  0
SEQEND
  5
79
  8
0
 62
     9
  0
ENDBLK
  5
7D
  8
0
  0
BLOCK
  8
0
  2
E3_NODE_1_
 70
     0
 10
0.0
 20
0.0
 30
0.0
  3
E3_NODE_1_
  1

  0
POLYLINE
  5
7F
  8
0
 62
     9
 66
     1
 10
0.0
 20
0.0
 30
0.0
 70
    64
 71
    30
 72
    31
  0
VERTEX
  5
80
  8
0
 10
0.2949999868869781
 20
-146.5099945068359
 30
54.30099868774414
 70
   192
  0
VERTEX
  5
81
  8
0
 10
0.3970000147819519
 20
-146.5079956054688
 30
53.81800079345703
 70
   192
  0
VERTEX
  5
82
  8
0
 10
0.9879999756813049
 20
-149.7850036621094
 30
53.80500030517578
 70
   192
  0
VERTEX
  5
83
  8
0
 10
1.184000015258789
 20
-150.4129943847656
 30
54.45999908447266
 70
   192
  0
VERTEX
  5
84
  8
0
 10
0.3980000019073486
 20
-146.5079956054688
 30
54.44699859619141
 70
   192
  0
VERTEX
  5
85
  8
0
 10
1.805999994277954
 20
-151.2079925537109
 30
53.7859992980957
 70
   192
  0
VERTEX
  5
86
  8
0
 10
2.834000110626221
 20
-152.9960021972656
 30
53.76399993896484
 70
   192
  0
VERTEX
  5
87
  8
0
 10
1.307999968528748
 20
-150.3419952392578
 30
53.79800033569336
 70
   192
  0
VERTEX
  5
88
  8
0
 10
3.496999979019165
 20
-153.7830047607422
 30
54.4119987487793
 70
   192
  0
VERTEX
  5
89
  8
0
 10
6.923999786376953
 20
-156.0070037841797
 30
54.3650016784668
 70
   192
  0
VERTEX
  5
8A
  8
0
 10
5.532000064849854
 20
-155.2610015869141
 30
53.71799850463867
 70
   192
  0
VERTEX
  5
8B
  8
0
 10
5.947999954223633
 20
-155.4199981689453
 30
53.7140007019043
 70
   192
  0
VERTEX
  5
8C
  8
0
 10
3.607000112533569
 20
-153.6450042724609
 30
53.75
 70
   192
  0
VERTEX
  5
8D
  8
0
 10
10.8439998626709
 20
-156.8170013427734
 30
54.1619987487793
 70
   192
  0
VERTEX
  5
8E
  8
0
 10
8.744999885559082
 20
-156.4859924316406
 30
53.6870002746582
 70
   192
  0
VERTEX
  5
8F
  8
0
 10
10.8439998626709
 20
-156.6970062255859
 30
53.68099975585938
 70
   192
  0
VERTEX
  5
90
  8
0
 10
6.991000175476074
 20
-155.8179931640625
 30
53.70399856567383
 70
   192
  0
VERTEX
  5
91
  8
0
 10
10.8439998626709
 20
-156.7149963378906
 30
54.31499862670898
 70
   192
  0
VERTEX
  5
92
  8
0
 10
10.52999973297119
 20
-156.1999969482422
 30
54.71599960327148
 70
   192
  0
VERTEX
  5
93
  8
0
 10
7.776000022888184
 20
-155.7230072021484
 30
54.72800064086914
 70
   192
  0
VERTEX
  5
94
  8
0
 10
10.8439998626709
 20
-156.5110015869141
 30
54.62300109863281
 70
   192
  0
VERTEX
  5
95
  8
0
 10
10.8439998626709
 20
-156.2050018310547
 30
54.71599960327148
 70
   192
  0
VERTEX
  5
96
  8
0
 10
7.173999786376953
 20
-155.4120025634766
 30
54.73400115966797
 70
   192
  0
VERTEX
  5
97
  8
0
 10
4.882999897003174
 20
-154.2310028076172
 30
54.7599983215332
 70
   192
  0
VERTEX
  5
98
  8
0
 10
4.004000186920166
 20
-153.2790069580078
 30
54.77500152587891
 70
   192
  0
VERTEX
  5
99
  8
0
 10
2.41700005531311
 20
-151.5590057373047
 30
54.80300140380859
 70
   192
  0
VERTEX
  5
9A
  8
0
 10
0.6129999756813049
 20
-146.5050048828125
 30
54.74900054931641
 70
   192
  0
VERTEX
  5
9B
  8
0
 10
1.090999960899353
 20
-148.1849975585938
 30
54.83100128173828
 70
   192
  0
VERTEX
  5
9C
  8
0
 10
0.9190000295639038
 20
-146.5
 30
54.83399963378906
 70
   192
  0
VERTEX
  5
9D
  8
0
 10
1.85699999332428
 20
-150.1340026855469
 30
54.81499862670898
 70
   192
  0
VERTEX
  5
9E
  8
0
 62
     9
 10
0.0
 20
0.0
 30
0.0
 70
   128
 71
     3
 72
     2
 73
     1
  0
VERTEX
  5
9F
  8
0
 62
     9
 10
0.0
 20
0.0
 30
0.0
 70
   128
 71
     1
 72
     5
 73
     4
  0
VERTEX
  5
A0
  8
0
 62
     9
 10
0.0
 20
0.0
 30
0.0
 70
   128
 71
     1
 72
     4
 73
     3
  0
VERTEX
  5
A1
  8
0
 62
     9
 10
0.0
 20
0.0
 30
0.0
 70
   128
 71
     7
 72
     6
 73
     4
  0
VERTEX
  5
A2
  8
0
 62
     9
 10
0.0
 20
0.0
 30
0.0
 70
   128
 71
     6
 72
     8
 73
     4
  0
VERTEX
  5
A3
  8
0
 62
     9
 10
0.0
 20
0.0
 30
0.0
 70
   128
 71
     4
 72
     9
 73
     7
  0
VERTEX
  5
A4
  8
0
 62
     9
 10
0.0
 20
0.0
 30
0.0
 70
   128
 71
    12
 72
    11
 73
    10
  0
VERTEX
  5
A5
  8
0
 62
     9
 10
0.0
 20
0.0
 30
0.0
 70
   128
 71
    11
 72
    13
 73
     9
  0
VERTEX
  5
A6
  8
0
 62
     9
 10
0.0
 20
0.0
 30
0.0
 70
   128
 71
     9
 72
    10
 73
    11
  0
VERTEX
  5
A7
  8
0
 62
     9
 10
0.0
 20
0.0
 30
0.0
 70
   128
 71
    15
 72
    10
 73
    14
  0
VERTEX
  5
A8
  8
0
 62
     9
 10
0.0
 20
0.0
 30
0.0
 70
   128
 71
    14
 72
    16
 73
    15
  0
VERTEX
  5
A9
  8
0
 62
     9
 10
0.0
 20
0.0
 30
0.0
 70
   128
 71
    15
 72
    17
 73
    10
  0
VERTEX
  5
AA
  8
0
 62
     9
 10
0.0
 20
0.0
 30
0.0
 70
   128
 71
    20
 72
    19
 73
    18
  0
VERTEX
  5
AB
  8
0
 62
     9
 10
0.0
 20
0.0
 30
0.0
 70
   128
 71
    19
 72
    21
 73
    18
  0
VERTEX
  5
AC
  8
0
 62
     9
 10
0.0
 20
0.0
 30
0.0
 70
   128
 71
    19
 72
    22
 73
    21
  0
VERTEX
  5
AD
  8
0
 62
     9
 10
0.0
 20
0.0
 30
0.0
 70
   128
 71
    18
 72
    10
 73
    20
  0
VERTEX
  5
AE
  8
0
 62
     9
 10
0.0
 20
0.0
 30
0.0
 70
   128
 71
    24
 72
    23
 73
    10
  0
VERTEX
  5
AF
  8
0
 62
     9
 10
0.0
 20
0.0
 30
0.0
 70
   128
 71
    10
 72
     9
 73
    24
  0
VERTEX
  5
B0
  8
0
 62
     9
 10
0.0
 20
0.0
 30
0.0
 70
   128
 71
    26
 72
    25
 73
     9
  0
VERTEX
  5
B1
  8
0
 62
     9
 10
0.0
 20
0.0
 30
0.0
 70
   128
 71
     9
 72
     4
 73
    26
  0
VERTEX
  5
B2
  8
0
 62
     9
 10
0.0
 20
0.0
 30
0.0
 70
   128
 71
    28
 72
     4
 73
    27
  0
VERTEX
  5
B3
  8
0
 62
     9
 10
0.0
 20
0.0
 30
0.0
 70
   128
 71
    27
 72
    29
 73
    28
  0
VERTEX
  5
B4
  8
0
 62
     9
 10
0.0
 20
0.0
 30
0.0
 70
   128
 71
    28
 72
    30
 73
     4
  0
VERTEX
  5
B5
  8
0
 62
     9
 10
0.0
 20
0.0
 30
0.0
 70
   128
 71
     4
 72
     5
 73
    27
  0
VERTEX
  5
B6
  8
0
 62
     9
 10
0.0
 20
0.0
 30
0.0
 70
   128
 71
     4
 72
    30
 73
    26
  0
VERTEX
  5
B7
  8
0
 62
     9
 10
0.0
 20
0.0
 30
0.0
 70
   128
 71
     9
 72
    25
 73
    24
  0
VERTEX
  5
B8
  8
0
 62
     9
 10
0.0
 20
0.0
 30
0.0
 70
   128
 71
    10
 72
    23
 73
    20
  0
VERTEX
  5
B9
  8
0
 62
     9
 10
0.0
 20
0.0
 30
0.0
 70
   128
 71
    10
 72
    18
 73
    14
  0
VERTEX
  5
BA
  8
0
 62
     9
 10
0.0
 20
0.0
 30
0.0
 70
   128
 71
    10
 72
    17
 73
    12
  0
VERTEX
  5
BB
  8
0
 62
     9
 10
0.0
 20
0.0
 30
0.0
 70
   128
 71
     9
 72
    13
 73
     7
  0
VERTEX
  5
BC
  8
0
 62
     9
 10
0.0
 20
0.0
 30
0.0
 70
   128
 71
     4
 72
     8
 73
     3
  0
SEQEND
  5
BD
  8
0
 62
     9
  0
ENDBLK
  5
C0
  8
0
  0
BLOCK
  8
0
  2
E3_NODE_2_
 70
     0
 10
0.0
 20
0.0
 30
0.0
  3
E3_NODE_2_
  1

  0
POLYLINE
  5
C2
  8
0
 62
     9
 66
     1
 10
0.0
 20
0.0
 30
0.0
 70
    64
 71
    33
 72
    34
  0
VERTEX
  5
C3
  8
0
 10
12.86699962615967
 20
-156.5019989013672
 30
53.6870002746582
 70
   192
  0
VERTEX
  5
C4
  8
0
 10
10.8439998626709
 20
-156.7149963378906
 30
54.31499862670898
 70
   192
  0
VERTEX
  5
C5
  8
0
 10
10.8439998626709
 20
-156.8170013427734
 30
54.1619987487793
 70
   192
  0
VERTEX
  5
C6
  8
0
 10
14.76399993896484
 20
-156.0070037841797
 30
54.3650016784668
 70
   192
  0
VERTEX
  5
C7
  8
0
 10
10.8439998626709
 20
-156.6970062255859
 30
53.68099975585938
 70
   192
  0
VERTEX
  5
C8
  8
0
 10
18.19099998474121
 20
-153.7830047607422
 30
54.41299819946289
 70
   192
  0
VERTEX
  5
C9
  8
0
 10
16.33600044250488
 20
-155.1540069580078
 30
53.72000122070312
 70
   192
  0
VERTEX
  5
CA
  8
0
 10
14.6870002746582
 20
-155.7949981689453
 30
53.70399856567383
 70
   192
  0
VERTEX
  5
CB
  8
0
 10
15.69900035858154
 20
-155.4010009765625
 30
53.7140007019043
 70
   192
  0
VERTEX
  5
CC
  8
0
 10
20.50300025939941
 20
-150.4129943847656
 30
54.45999908447266
 70
   192
  0
VERTEX
  5
CD
  8
0
 10
18.9330005645752
 20
-152.9010009765625
 30
53.76499938964844
 70
   192
  0
VERTEX
  5
CE
  8
0
 10
19.88400077819824
 20
-151.2850036621094
 30
53.7859992980957
 70
   192
  0
VERTEX
  5
CF
  8
0
 10
18.07699966430664
 20
-153.6430053710938
 30
53.75
 70
   192
  0
VERTEX
  5
D0
  8
0
 10
21.28899955749512
 20
-146.5079956054688
 30
54.44699859619141
 70
   192
  0
VERTEX
  5
D1
  8
0
 10
20.58600044250488
 20
-150.0910034179688
 30
53.80199813842773
 70
   192
  0
VERTEX
  5
D2
  8
0
 10
21.29100036621094
 20
-146.5079956054688
 30
53.81800079345703
 70
   192
  0
VERTEX
  5
D3
  8
0
 10
21.39299964904785
 20
-146.5099945068359
 30
54.30099868774414
 70
   192
  0
VERTEX
  5
D4
  8
0
 10
20.42399978637695
 20
-150.3670043945312
 30
53.79800033569336
 70
   192
  0
VERTEX
  5
D5
  8
0
 10
21.07500076293945
 20
-146.5050048828125
 30
54.74900054931641
 70
   192
  0
VERTEX
  5
D6
  8
0
 10
20.76899909973145
 20
-146.5
 30
54.83399963378906
 70
   192
  0
VERTEX
  5
D7
  8
0
 10
20.08099937438965
 20
-149.9600067138672
 30
54.81999969482422
 70
   192
  0
VERTEX
  5
D8
  8
0
 10
19.94899940490723
 20
-150.1730041503906
 30
54.81700134277344
 70
   192
  0
VERTEX
  5
D9
  8
0
 10
18.23999977111816
 20
-152.9239959716797
 30
54.78300094604492
 70
   192
  0
VERTEX
  5
DA
  8
0
 10
17.73999977111816
 20
-153.3110046386719
 30
54.7760009765625
 70
   192
  0
VERTEX
  5
DB
  8
0
 10
15.4689998626709
 20
-155.0700073242188
 30
54.74200057983398
 70
   192
  0
VERTEX
  5
DC
  8
0
 10
12.06700038909912
 20
-156.1300048828125
 30
54.71799850463867
 70
   192
  0
VERTEX
  5
DD
  8
0
 10
10.8439998626709
 20
-156.2050018310547
 30
54.71599960327148
 70
   192
  0
VERTEX
  5
DE
  8
0
 10
10.8439998626709
 20
-156.5110015869141
 30
54.62300109863281
 70
   192
  0
VERTEX
  5
DF
  8
0
 10
12.78299999237061
 20
-156.0149993896484
 30
54.72100067138672
 70
   192
  0
VERTEX
  5
E0
  8
0
 10
12.8129997253418
 20
-156.0090026855469
 30
54.72100067138672
 70
   192
  0
VERTEX
  5
E1
  8
0
 10
12.8100004196167
 20
-156.0090026855469
 30
54.72100067138672
 70
   192
  0
VERTEX
  5
E2
  8
0
 10
13.10900020599365
 20
-155.9450073242188
 30
54.72200012207031
 70
   192
  0
VERTEX
  5
E3
  8
0
 10
14.52799987792969
 20
-155.4190063476562
 30
54.73400115966797
 70
   192
  0
VERTEX
  5
E4
  8
0
 62
     9
 10
0.0
 20
0.0
 30
0.0
 70
   128
 71
     3
 72
     2
 73
     1
  0
VERTEX
  5
E5
  8
0
 62
     9
 10
0.0
 20
0.0
 30
0.0
 70
   128
 71
     2
 72
     4
 73
     1
  0
VERTEX
  5
E6
  8
0
 62
     9
 10
0.0
 20
0.0
 30
0.0
 70
   128
 71
     1
 72
     5
 73
     3
  0
VERTEX
  5
E7
  8
0
 62
     9
 10
0.0
 20
0.0
 30
0.0
 70
   128
 71
     7
 72
     4
 73
     6
  0
VERTEX
  5
E8
  8
0
 62
     9
 10
0.0
 20
0.0
 30
0.0
 70
   128
 71
     9
 72
     8
 73
     4
  0
VERTEX
  5
E9
  8
0
 62
     9
 10
0.0
 20
0.0
 30
0.0
 70
   128
 71
     4
 72
     7
 73
     9
  0
VERTEX
  5
EA
  8
0
 62
     9
 10
0.0
 20
0.0
 30
0.0
 70
   128
 71
    11
 72
     6
 73
    10
  0
VERTEX
  5
EB
  8
0
 62
     9
 10
0.0
 20
0.0
 30
0.0
 70
   128
 71
    10
 72
    12
 73
    11
  0
VERTEX
  5
EC
  8
0
 62
     9
 10
0.0
 20
0.0
 30
0.0
 70
   128
 71
    11
 72
    13
 73
     6
  0
VERTEX
  5
ED
  8
0
 62
     9
 10
0.0
 20
0.0
 30
0.0
 70
   128
 71
    15
 72
    10
 73
    14
  0
VERTEX
  5
EE
  8
0
 62
     9
 10
0.0
 20
0.0
 30
0.0
 70
   128
 71
    17
 72
    16
 73
    15
  0
VERTEX
  5
EF
  8
0
 62
     9
 10
0.0
 20
0.0
 30
0.0
 70
   128
 71
    15
 72
    14
 73
    17
  0
VERTEX
  5
F0
  8
0
 62
     9
 10
0.0
 20
0.0
 30
0.0
 70
   128
 71
    15
 72
    18
 73
    10
  0
VERTEX
  5
F1
  8
0
 62
     9
 10
0.0
 20
0.0
 30
0.0
 70
   128
 71
    21
 72
    20
 73
    19
  0
VERTEX
  5
F2
  8
0
 62
     9
 10
0.0
 20
0.0
 30
0.0
 70
   128
 71
    19
 72
    14
 73
    10
  0
VERTEX
  5
F3
  8
0
 62
     9
 10
0.0
 20
0.0
 30
0.0
 70
   128
 71
    19
 72
    10
 73
    21
  0
VERTEX
  5
F4
  8
0
 62
     9
 10
0.0
 20
0.0
 30
0.0
 70
   128
 71
    23
 72
    22
 73
    10
  0
VERTEX
  5
F5
  8
0
 62
     9
 10
0.0
 20
0.0
 30
0.0
 70
   128
 71
    10
 72
     6
 73
    23
  0
VERTEX
  5
F6
  8
0
 62
     9
 10
0.0
 20
0.0
 30
0.0
 70
   128
 71
    25
 72
    24
 73
     6
  0
VERTEX
  5
F7
  8
0
 62
     9
 10
0.0
 20
0.0
 30
0.0
 70
   128
 71
     6
 72
     4
 73
    25
  0
VERTEX
  5
F8
  8
0
 62
     9
 10
0.0
 20
0.0
 30
0.0
 70
   128
 71
    28
 72
    27
 73
    26
  0
VERTEX
  5
F9
  8
0
 62
     9
 10
0.0
 20
0.0
 30
0.0
 70
   128
 71
    29
 72
     4
 73
     2
  0
VERTEX
  5
FA
  8
0
 62
     9
 10
0.0
 20
0.0
 30
0.0
 70
   128
 71
    31
 72
    30
 73
     4
  0
VERTEX
  5
FB
  8
0
 62
     9
 10
0.0
 20
0.0
 30
0.0
 70
   128
 71
    30
 72
    32
 73
     4
  0
VERTEX
  5
FC
  8
0
 62
     9
 10
0.0
 20
0.0
 30
0.0
 70
   128
 71
     4
 72
    29
 73
    31
  0
VERTEX
  5
FD
  8
0
 62
     9
 10
0.0
 20
0.0
 30
0.0
 70
   128
 71
     2
 72
    26
 73
    29
  0
VERTEX
  5
FE
  8
0
 62
     9
 10
0.0
 20
0.0
 30
0.0
 70
   128
 71
    32
 72
    33
 73
     4
  0
VERTEX
  5
FF
  8
0
 62
     9
 10
0.0
 20
0.0
 30
0.0
 70
   128
 71
    26
 72
     2
 73
    28
  0
VERTEX
  5
100
  8
0
 62
     9
 10
0.0
 20
0.0
 30
0.0
 70
   128
 71
     4
 72
    33
 73
    25
  0
VERTEX
  5
101
  8
0
 62
     9
 10
0.0
 20
0.0
 30
0.0
 70
   128
 71
     6
 72
    24
 73
    23
  0
VERTEX
  5
102
  8
0
 62
     9
 10
0.0
 20
0.0
 30
0.0
 70
   128
 71
    10
 72
    22
 73
    21
  0
VERTEX
  5
103
  8
0
 62
     9
 10
0.0
 20
0.0
 30
0.0
 70
   128
 71
    10
 72
    18
 73
    12
  0
VERTEX
  5
104
  8
0
 62
     9
 10
0.0
 20
0.0
 30
0.0
 70
   128
 71
     6
 72
    13
 73
     7
  0
VERTEX
  5
105
  8
0
 62
     9
 10
0.0
 20
0.0
 30
0.0
 70
   128
 71
     4
 72
     8
 73
     1
  0
SEQEND
  5
106
  8
0
 62
     9
  0
ENDBLK
  5
109
  8
0
  0
BLOCK
  8
0
  2
E3_NODE_3_
 70
     0
 10
0.0
 20
0.0
 30
0.0
  3
E3_NODE_3_
  1

  0
POLYLINE
  5
10B
  8
0
 62
     9
 66
     1
 10
0.0
 20
0.0
 30
0.0
 70
    64
 71
    28
 72
    30
  0
VERTEX
  5
10C
  8
0
 10
13.8129997253418
 20
-151.8999938964844
 30
51.26699829101562
 70
   192
  0
VERTEX
  5
10D
  8
0
 10
16.3700008392334
 20
-149.3679962158203
 30
51.26699829101562
 70
   192
  0
VERTEX
  5
10E
  8
0
 10
17.11100006103516
 20
-149.7729949951172
 30
51.51900100708008
 70
   192
  0
VERTEX
  5
10F
  8
0
 10
14.21199989318848
 20
-152.6450042724609
 30
51.51900100708008
 70
   192
  0
VERTEX
  5
110
  8
0
 10
10.8439998626709
 20
-153.1380004882812
 30
51.40599822998047
 70
   192
  0
VERTEX
  5
111
  8
0
 10
10.8439998626709
 20
-152.6369934082031
 30
51.30099868774414
 70
   192
  0
VERTEX
  5
112
  8
0
 10
10.8439998626709
 20
-153.4389953613281
 30
51.59700012207031
 70
   192
  0
VERTEX
  5
113
  8
0
 10
10.8439998626709
 20
-153.1439971923828
 30
51.40800094604492
 70
   192
  0
VERTEX
  5
114
  8
0
 10
10.8439998626709
 20
-150.4570007324219
 30
50.8390007019043
 70
   192
  0
VERTEX
  5
115
  8
0
 10
10.8439998626709
 20
-148.8910064697266
 30
50.69699859619141
 70
   192
  0
VERTEX
  5
116
  8
0
 10
10.8439998626709
 20
-146.3459930419922
 30
50.65000152587891
 70
   192
  0
VERTEX
  5
117
  8
0
 10
17.02400016784668
 20
-146.3459930419922
 30
51.25500106811523
 70
   192
  0
VERTEX
  5
118
  8
0
 10
17.98699951171875
 20
-146.3459930419922
 30
51.51900100708008
 70
   192
  0
VERTEX
  5
119
  8
0
 10
19.56599998474121
 20
-146.3459930419922
 30
52.61299896240234
 70
   192
  0
VERTEX
  5
11A
  8
0
 10
21.29100036621094
 20
-146.5079956054688
 30
53.81800079345703
 70
   192
  0
VERTEX
  5
11B
  8
0
 10
20.58600044250488
 20
-150.0910034179688
 30
53.80199813842773
 70
   192
  0
VERTEX
  5
11C
  8
0
 10
21.2810001373291
 20
-146.3459930419922
 30
53.80199813842773
 70
   192
  0
VERTEX
  5
11D
  8
0
 10
20.42399978637695
 20
-150.3670043945312
 30
53.79800033569336
 70
   192
  0
VERTEX
  5
11E
  8
0
 10
18.07699966430664
 20
-153.6430053710938
 30
53.75
 70
   192
  0
VERTEX
  5
11F
  8
0
 10
16.33600044250488
 20
-155.1540069580078
 30
53.72000122070312
 70
   192
  0
VERTEX
  5
120
  8
0
 10
19.88400077819824
 20
-151.2850036621094
 30
53.7859992980957
 70
   192
  0
VERTEX
  5
121
  8
0
 10
18.9330005645752
 20
-152.9010009765625
 30
53.76499938964844
 70
   192
  0
VERTEX
  5
122
  8
0
 10
14.6870002746582
 20
-155.7949981689453
 30
53.70399856567383
 70
   192
  0
VERTEX
  5
123
  8
0
 10
12.86699962615967
 20
-156.5019989013672
 30
53.6870002746582
 70
   192
  0
VERTEX
  5
124
  8
0
 10
10.8439998626709
 20
-153.6329956054688
 30
51.72000122070312
 70
   192
  0
VERTEX
  5
125
  8
0
 10
15.69900035858154
 20
-155.4010009765625
 30
53.7140007019043
 70
   192
  0
VERTEX
  5
126
  8
0
 10
10.8439998626709
 20
-156.6970062255859
 30
53.68099975585938
 70
   192
  0
VERTEX
  5
127
  8
0
 10
17.14200019836426
 20
-146.3459930419922
 30
51.26699829101562
 70
   192
  0
VERTEX
  5
128
  8
0
 62
     9
 10
0.0
 20
0.0
 30
0.0
 70
   128
 71
     3
 72
     2
 73
     1
  0
VERTEX
  5
129
  8
0
 62
     9
 10
0.0
 20
0.0
 30
0.0
 70
   128
 71
     6
 72
     5
 73
     4
  0
VERTEX
  5
12A
  8
0
 62
     9
 10
0.0
 20
0.0
 30
0.0
 70
   128
 71
     8
 72
     7
 73
     4
  0
VERTEX
  5
12B
  8
0
 62
     9
 10
0.0
 20
0.0
 30
0.0
 70
   128
 71
     4
 72
     5
 73
     8
  0
VERTEX
  5
12C
  8
0
 62
     9
 10
0.0
 20
0.0
 30
0.0
 70
   128
 71
     9
 72
     6
 73
     1
  0
VERTEX
  5
12D
  8
0
 62
     9
 10
0.0
 20
0.0
 30
0.0
 70
   128
 71
     1
 72
    10
 73
     9
  0
VERTEX
  5
12E
  8
0
 62
     9
 10
0.0
 20
0.0
 30
0.0
 70
   128
 71
    12
 72
    11
 73
     2
  0
VERTEX
  5
12F
  8
0
 62
     9
 10
0.0
 20
0.0
 30
0.0
 70
   128
 71
     2
 72
     3
 73
    13
  0
VERTEX
  5
130
  8
0
 62
     9
 10
0.0
 20
0.0
 30
0.0
 70
   128
 71
    16
 72
    15
 73
    14
  0
VERTEX
  5
131
  8
0
 62
     9
 10
0.0
 20
0.0
 30
0.0
 70
   128
 71
    15
 72
    17
 73
    14
  0
VERTEX
  5
132
  8
0
 62
     9
 10
0.0
 20
0.0
 30
0.0
 70
   128
 71
    14
 72
    13
 73
     3
  0
VERTEX
  5
133
  8
0
 62
     9
 10
0.0
 20
0.0
 30
0.0
 70
   128
 71
     3
 72
    18
 73
    14
  0
VERTEX
  5
134
  8
0
 62
     9
 10
0.0
 20
0.0
 30
0.0
 70
   128
 71
    14
 72
    18
 73
    16
  0
VERTEX
  5
135
  8
0
 62
     9
 10
0.0
 20
0.0
 30
0.0
 70
   128
 71
    19
 72
     3
 73
     4
  0
VERTEX
  5
136
  8
0
 62
     9
 10
0.0
 20
0.0
 30
0.0
 70
   128
 71
     4
 72
    20
 73
    19
  0
VERTEX
  5
137
  8
0
 62
     9
 10
0.0
 20
0.0
 30
0.0
 70
   128
 71
    22
 72
    21
 73
     3
  0
VERTEX
  5
138
  8
0
 62
     9
 10
0.0
 20
0.0
 30
0.0
 70
   128
 71
     3
 72
    19
 73
    22
  0
VERTEX
  5
139
  8
0
 62
     9
 10
0.0
 20
0.0
 30
0.0
 70
   128
 71
    24
 72
    23
 73
     4
  0
VERTEX
  5
13A
  8
0
 62
     9
 10
0.0
 20
0.0
 30
0.0
 70
   128
 71
     4
 72
    25
 73
    24
  0
VERTEX
  5
13B
  8
0
 62
     9
 10
0.0
 20
0.0
 30
0.0
 70
   128
 71
    23
 72
    26
 73
     4
  0
VERTEX
  5
13C
  8
0
 62
     9
 10
0.0
 20
0.0
 30
0.0
 70
   128
 71
    25
 72
    27
 73
    24
  0
VERTEX
  5
13D
  8
0
 62
     9
 10
0.0
 20
0.0
 30
0.0
 70
   128
 71
     4
 72
     7
 73
    25
  0
VERTEX
  5
13E
  8
0
 62
     9
 10
0.0
 20
0.0
 30
0.0
 70
   128
 71
     4
 72
    26
 73
    20
  0
VERTEX
  5
13F
  8
0
 62
     9
 10
0.0
 20
0.0
 30
0.0
 70
   128
 71
     3
 72
    21
 73
    18
  0
VERTEX
  5
140
  8
0
 62
     9
 10
0.0
 20
0.0
 30
0.0
 70
   128
 71
    13
 72
    28
 73
     2
  0
VERTEX
  5
141
  8
0
 62
     9
 10
0.0
 20
0.0
 30
0.0
 70
   128
 71
     2
 72
    28
 73
    12
  0
VERTEX
  5
142
  8
0
 62
     9
 10
0.0
 20
0.0
 30
0.0
 70
   128
 71
     1
 72
    11
 73
    10
  0
VERTEX
  5
143
  8
0
 62
     9
 10
0.0
 20
0.0
 30
0.0
 70
   128
 71
     4
 72
     1
 73
     6
  0
VERTEX
  5
144
  8
0
 62
     9
 10
0.0
 20
0.0
 30
0.0
 70
   128
 71
    11
 72
     1
 73
     2
  0
VERTEX
  5
145
  8
0
 62
     9
 10
0.0
 20
0.0
 30
0.0
 70
   128
 71
     1
 72
     4
 73
     3
  0
SEQEND
  5
146
  8
0
 62
     9
  0
ENDBLK
  5
149
  8
0
  0
BLOCK
  8
0
  2
E3_NODE_4_
 70
     0
 10
0.0
 20
0.0
 30
0.0
  3
E3_NODE_4_
  1

  0
POLYLINE
  5
14B
  8
0
 62
     9
 66
     1
 10
0.0
 20
0.0
 30
0.0
 70
    64
 71
    23
 72
    22
  0
VERTEX
  5
14C
  8
0
 10
17.64900016784668
 20
-150.9609985351562
 30
54.84600067138672
 70
   192
  0
VERTEX
  5
14D
  8
0
 10
19.94899940490723
 20
-150.1730041503906
 30
54.81700134277344
 70
   192
  0
VERTEX
  5
14E
  8
0
 10
20.08099937438965
 20
-149.9600067138672
 30
54.81999969482422
 70
   192
  0
VERTEX
  5
14F
  8
0
 10
17.73999977111816
 20
-153.3110046386719
 30
54.7760009765625
 70
   192
  0
VERTEX
  5
150
  8
0
 10
18.23999977111816
 20
-152.9239959716797
 30
54.78300094604492
 70
   192
  0
VERTEX
  5
151
  8
0
 10
14.52799987792969
 20
-155.4190063476562
 30
54.73400115966797
 70
   192
  0
VERTEX
  5
152
  8
0
 10
15.4689998626709
 20
-155.0700073242188
 30
54.74200057983398
 70
   192
  0
VERTEX
  5
153
  8
0
 10
12.8129997253418
 20
-156.0090026855469
 30
54.72100067138672
 70
   192
  0
VERTEX
  5
154
  8
0
 10
13.10900020599365
 20
-155.9450073242188
 30
54.72200012207031
 70
   192
  0
VERTEX
  5
155
  8
0
 10
12.8100004196167
 20
-156.0090026855469
 30
54.72100067138672
 70
   192
  0
VERTEX
  5
156
  8
0
 10
10.8439998626709
 20
-156.2050018310547
 30
54.71599960327148
 70
   192
  0
VERTEX
  5
157
  8
0
 10
12.06700038909912
 20
-156.1300048828125
 30
54.71799850463867
 70
   192
  0
VERTEX
  5
158
  8
0
 10
7.173999786376953
 20
-155.4120025634766
 30
54.73400115966797
 70
   192
  0
VERTEX
  5
159
  8
0
 10
7.776000022888184
 20
-155.7230072021484
 30
54.72800064086914
 70
   192
  0
VERTEX
  5
15A
  8
0
 10
10.52999973297119
 20
-156.1999969482422
 30
54.71599960327148
 70
   192
  0
VERTEX
  5
15B
  8
0
 10
12.78299999237061
 20
-156.0149993896484
 30
54.72100067138672
 70
   192
  0
VERTEX
  5
15C
  8
0
 10
20.76899909973145
 20
-146.5
 30
54.83399963378906
 70
   192
  0
VERTEX
  5
15D
  8
0
 10
4.004000186920166
 20
-153.2790069580078
 30
54.77500152587891
 70
   192
  0
VERTEX
  5
15E
  8
0
 10
4.882999897003174
 20
-154.2310028076172
 30
54.7599983215332
 70
   192
  0
VERTEX
  5
15F
  8
0
 10
1.85699999332428
 20
-150.1340026855469
 30
54.81499862670898
 70
   192
  0
VERTEX
  5
160
  8
0
 10
2.41700005531311
 20
-151.5590057373047
 30
54.80300140380859
 70
   192
  0
VERTEX
  5
161
  8
0
 10
0.9190000295639038
 20
-146.5
 30
54.83399963378906
 70
   192
  0
VERTEX
  5
162
  8
0
 10
1.090999960899353
 20
-148.1849975585938
 30
54.83100128173828
 70
   192
  0
VERTEX
  5
163
  8
0
 62
     9
 10
0.0
 20
0.0
 30
0.0
 70
   128
 71
     3
 72
     2
 73
     1
  0
VERTEX
  5
164
  8
0
 62
     9
 10
0.0
 20
0.0
 30
0.0
 70
   128
 71
     5
 72
     4
 73
     1
  0
VERTEX
  5
165
  8
0
 62
     9
 10
0.0
 20
0.0
 30
0.0
 70
   128
 71
     1
 72
     2
 73
     5
  0
VERTEX
  5
166
  8
0
 62
     9
 10
0.0
 20
0.0
 30
0.0
 70
   128
 71
     7
 72
     6
 73
     1
  0
VERTEX
  5
167
  8
0
 62
     9
 10
0.0
 20
0.0
 30
0.0
 70
   128
 71
     1
 72
     4
 73
     7
  0
VERTEX
  5
168
  8
0
 62
     9
 10
0.0
 20
0.0
 30
0.0
 70
   128
 71
     9
 72
     8
 73
     1
  0
VERTEX
  5
169
  8
0
 62
     9
 10
0.0
 20
0.0
 30
0.0
 70
   128
 71
     8
 72
    10
 73
     1
  0
VERTEX
  5
16A
  8
0
 62
     9
 10
0.0
 20
0.0
 30
0.0
 70
   128
 71
    12
 72
    11
 73
     1
  0
VERTEX
  5
16B
  8
0
 62
     9
 10
0.0
 20
0.0
 30
0.0
 70
   128
 71
    14
 72
    13
 73
     1
  0
VERTEX
  5
16C
  8
0
 62
     9
 10
0.0
 20
0.0
 30
0.0
 70
   128
 71
     1
 72
    15
 73
    14
  0
VERTEX
  5
16D
  8
0
 62
     9
 10
0.0
 20
0.0
 30
0.0
 70
   128
 71
     1
 72
    11
 73
    15
  0
VERTEX
  5
16E
  8
0
 62
     9
 10
0.0
 20
0.0
 30
0.0
 70
   128
 71
     1
 72
    16
 73
    12
  0
VERTEX
  5
16F
  8
0
 62
     9
 10
0.0
 20
0.0
 30
0.0
 70
   128
 71
     1
 72
    10
 73
    16
  0
VERTEX
  5
170
  8
0
 62
     9
 10
0.0
 20
0.0
 30
0.0
 70
   128
 71
     1
 72
     6
 73
     9
  0
VERTEX
  5
171
  8
0
 62
     9
 10
0.0
 20
0.0
 30
0.0
 70
   128
 71
    13
 72
    17
 73
     1
  0
VERTEX
  5
172
  8
0
 62
     9
 10
0.0
 20
0.0
 30
0.0
 70
   128
 71
    19
 72
    18
 73
    17
  0
VERTEX
  5
173
  8
0
 62
     9
 10
0.0
 20
0.0
 30
0.0
 70
   128
 71
    17
 72
    13
 73
    19
  0
VERTEX
  5
174
  8
0
 62
     9
 10
0.0
 20
0.0
 30
0.0
 70
   128
 71
    21
 72
    20
 73
    17
  0
VERTEX
  5
175
  8
0
 62
     9
 10
0.0
 20
0.0
 30
0.0
 70
   128
 71
    23
 72
    22
 73
    17
  0
VERTEX
  5
176
  8
0
 62
     9
 10
0.0
 20
0.0
 30
0.0
 70
   128
 71
    17
 72
    20
 73
    23
  0
VERTEX
  5
177
  8
0
 62
     9
 10
0.0
 20
0.0
 30
0.0
 70
   128
 71
    17
 72
    18
 73
    21
  0
VERTEX
  5
178
  8
0
 62
     9
 10
0.0
 20
0.0
 30
0.0
 70
   128
 71
     1
 72
    17
 73
     3
  0
SEQEND
  5
179
  8
0
 62
     9
  0
ENDBLK
  5
17C
  8
0
  0
BLOCK
  8
0
  2
E3_NODE_5_
 70
     0
 10
0.0
 20
0.0
 30
0.0
  3
E3_NODE_5_
  1

  0
POLYLINE
  5
17E
  8
0
 62
     9
 66
     1
 10
0.0
 20
0.0
 30
0.0
 70
    64
 71
    14
 72
    12
  0
VERTEX
  5
17F
  8
0
 10
21.50900077819824
 20
-113.2610015869141
 30
54.51699829101562
 70
   192
  0
VERTEX
  5
180
  8
0
 10
21.29000091552734
 20
-146.5079956054688
 30
54.44599914550781
 70
   192
  0
VERTEX
  5
181
  8
0
 10
21.35099983215332
 20
-139.6289978027344
 30
53.90999984741211
 70
   192
  0
VERTEX
  5
182
  8
0
 10
21.39299964904785
 20
-146.5099945068359
 30
54.30099868774414
 70
   192
  0
VERTEX
  5
183
  8
0
 10
21.29100036621094
 20
-146.5079956054688
 30
53.81800079345703
 70
   192
  0
VERTEX
  5
184
  8
0
 10
21.2810001373291
 20
-146.3459930419922
 30
53.80199813842773
 70
   192
  0
VERTEX
  5
185
  8
0
 10
20.76899909973145
 20
-146.5
 30
54.83399963378906
 70
   192
  0
VERTEX
  5
186
  8
0
 10
21.07500076293945
 20
-146.5050048828125
 30
54.74900054931641
 70
   192
  0
VERTEX
  5
187
  8
0
 10
20.78899955749512
 20
-146.3480072021484
 30
54.83399963378906
 70
   192
  0
VERTEX
  5
188
  8
0
 10
20.79299926757812
 20
-146.2929992675781
 30
54.83399963378906
 70
   192
  0
VERTEX
  5
189
  8
0
 10
21.3430004119873
 20
-112.8610000610352
 30
54.79399871826172
 70
   192
  0
VERTEX
  5
18A
  8
0
 10
21.30299949645996
 20
-112.3809967041016
 30
54.82099914550781
 70
   192
  0
VERTEX
  5
18B
  8
0
 10
20.77000045776367
 20
-146.3459930419922
 30
54.83399963378906
 70
   192
  0
VERTEX
  5
18C
  8
0
 10
21.62199974060059
 20
-113.5339965820312
 30
54.32799911499023
 70
   192
  0
VERTEX
  5
18D
  8
0
 62
     9
 10
0.0
 20
0.0
 30
0.0
 70
   128
 71
     3
 72
     2
 73
     1
  0
VERTEX
  5
18E
  8
0
 62
     9
 10
0.0
 20
0.0
 30
0.0
 70
   128
 71
     6
 72
     5
 73
     4
  0
VERTEX
  5
18F
  8
0
 62
     9
 10
0.0
 20
0.0
 30
0.0
 70
   128
 71
     4
 72
     2
 73
     3
  0
VERTEX
  5
190
  8
0
 62
     9
 10
0.0
 20
0.0
 30
0.0
 70
   128
 71
     4
 72
     3
 73
     6
  0
VERTEX
  5
191
  8
0
 62
     9
 10
0.0
 20
0.0
 30
0.0
 70
   128
 71
     9
 72
     8
 73
     7
  0
VERTEX
  5
192
  8
0
 62
     9
 10
0.0
 20
0.0
 30
0.0
 70
   128
 71
    11
 72
     8
 73
    10
  0
VERTEX
  5
193
  8
0
 62
     9
 10
0.0
 20
0.0
 30
0.0
 70
   128
 71
    10
 72
    12
 73
    11
  0
VERTEX
  5
194
  8
0
 62
     9
 10
0.0
 20
0.0
 30
0.0
 70
   128
 71
     1
 72
     2
 73
     8
  0
VERTEX
  5
195
  8
0
 62
     9
 10
0.0
 20
0.0
 30
0.0
 70
   128
 71
     8
 72
    11
 73
     1
  0
VERTEX
  5
196
  8
0
 62
     9
 10
0.0
 20
0.0
 30
0.0
 70
   128
 71
     8
 72
     9
 73
    10
  0
VERTEX
  5
197
  8
0
 62
     9
 10
0.0
 20
0.0
 30
0.0
 70
   128
 71
     7
 72
    13
 73
     9
  0
VERTEX
  5
198
  8
0
 62
     9
 10
0.0
 20
0.0
 30
0.0
 70
   128
 71
     1
 72
    14
 73
     3
  0
SEQEND
  5
199
  8
0
 62
     9
  0
ENDBLK
  5
19C
  8
0
  0
BLOCK
  8
0
  2
E3_NODE_6_
 70
     0
 10
0.0
 20
0.0
 30
0.0
  3
E3_NODE_6_
  1

  0
POLYLINE
  5
19E
  8
0
 62
     9
 66
     1
 10
0.0
 20
0.0
 30
0.0
 70
    64
 71
    19
 72
    17
  0
VERTEX
  5
19F
  8
0
 10
17.02400016784668
 20
-146.3459930419922
 30
51.25500106811523
 70
   192
  0
VERTEX
  5
1A0
  8
0
 10
10.8439998626709
 20
-146.3459930419922
 30
50.65000152587891
 70
   192
  0
VERTEX
  5
1A1
  8
0
 10
10.8439998626709
 20
-116.0009994506836
 30
50.65000152587891
 70
   192
  0
VERTEX
  5
1A2
  8
0
 10
13.74300003051758
 20
-115.7360000610352
 30
50.72299957275391
 70
   192
  0
VERTEX
  5
1A3
  8
0
 10
19.56599998474121
 20
-146.3459930419922
 30
52.61299896240234
 70
   192
  0
VERTEX
  5
1A4
  8
0
 10
17.27099990844727
 20
-114.6539993286133
 30
51.29600143432617
 70
   192
  0
VERTEX
  5
1A5
  8
0
 10
17.83200073242188
 20
-114.3949966430664
 30
51.46599960327148
 70
   192
  0
VERTEX
  5
1A6
  8
0
 10
17.98699951171875
 20
-146.3459930419922
 30
51.51900100708008
 70
   192
  0
VERTEX
  5
1A7
  8
0
 10
17.14200019836426
 20
-146.3459930419922
 30
51.26699829101562
 70
   192
  0
VERTEX
  5
1A8
  8
0
 10
17.02199935913086
 20
-114.7300033569336
 30
51.25500106811523
 70
   192
  0
VERTEX
  5
1A9
  8
0
 10
21.35099983215332
 20
-139.6289978027344
 30
53.90999984741211
 70
   192
  0
VERTEX
  5
1AA
  8
0
 10
20.10799980163574
 20
-113.0469970703125
 30
52.59999847412109
 70
   192
  0
VERTEX
  5
1AB
  8
0
 10
20.24699974060059
 20
-112.9469985961914
 30
52.70700073242188
 70
   192
  0
VERTEX
  5
1AC
  8
0
 10
21.10400009155273
 20
-112.2289962768555
 30
53.77099990844727
 70
   192
  0
VERTEX
  5
1AD
  8
0
 10
19.7189998626709
 20
-113.2770004272461
 30
52.40700149536133
 70
   192
  0
VERTEX
  5
1AE
  8
0
 10
21.2810001373291
 20
-146.3459930419922
 30
53.80199813842773
 70
   192
  0
VERTEX
  5
1AF
  8
0
 10
21.26899909973145
 20
-112.0899963378906
 30
53.97600173950195
 70
   192
  0
VERTEX
  5
1B0
  8
0
 10
21.90200042724609
 20
-111.5609970092773
 30
54.76100158691406
 70
   192
  0
VERTEX
  5
1B1
  8
0
 10
21.62199974060059
 20
-113.5339965820312
 30
54.32799911499023
 70
   192
  0
VERTEX
  5
1B2
  8
0
 62
     9
 10
0.0
 20
0.0
 30
0.0
 70
   128
 71
     3
 72
     2
 73
     1
  0
VERTEX
  5
1B3
  8
0
 62
     9
 10
0.0
 20
0.0
 30
0.0
 70
   128
 71
     1
 72
     4
 73
     3
  0
VERTEX
  5
1B4
  8
0
 62
     9
 10
0.0
 20
0.0
 30
0.0
 70
   128
 71
     7
 72
     6
 73
     5
  0
VERTEX
  5
1B5
  8
0
 62
     9
 10
0.0
 20
0.0
 30
0.0
 70
   128
 71
    10
 72
     9
 73
     8
  0
VERTEX
  5
1B6
  8
0
 62
     9
 10
0.0
 20
0.0
 30
0.0
 70
   128
 71
     8
 72
     6
 73
    10
  0
VERTEX
  5
1B7
  8
0
 62
     9
 10
0.0
 20
0.0
 30
0.0
 70
   128
 71
     8
 72
     5
 73
     6
  0
VERTEX
  5
1B8
  8
0
 62
     9
 10
0.0
 20
0.0
 30
0.0
 70
   128
 71
    10
 72
     1
 73
     9
  0
VERTEX
  5
1B9
  8
0
 62
     9
 10
0.0
 20
0.0
 30
0.0
 70
   128
 71
    13
 72
    12
 73
    11
  0
VERTEX
  5
1BA
  8
0
 62
     9
 10
0.0
 20
0.0
 30
0.0
 70
   128
 71
    11
 72
    14
 73
    13
  0
VERTEX
  5
1BB
  8
0
 62
     9
 10
0.0
 20
0.0
 30
0.0
 70
   128
 71
    11
 72
    12
 73
    15
  0
VERTEX
  5
1BC
  8
0
 62
     9
 10
0.0
 20
0.0
 30
0.0
 70
   128
 71
    15
 72
     5
 73
    11
  0
VERTEX
  5
1BD
  8
0
 62
     9
 10
0.0
 20
0.0
 30
0.0
 70
   128
 71
     5
 72
    16
 73
    11
  0
VERTEX
  5
1BE
  8
0
 62
     9
 10
0.0
 20
0.0
 30
0.0
 70
   128
 71
    19
 72
    18
 73
    17
  0
VERTEX
  5
1BF
  8
0
 62
     9
 10
0.0
 20
0.0
 30
0.0
 70
   128
 71
    17
 72
    11
 73
    19
  0
VERTEX
  5
1C0
  8
0
 62
     9
 10
0.0
 20
0.0
 30
0.0
 70
   128
 71
    11
 72
    17
 73
    14
  0
VERTEX
  5
1C1
  8
0
 62
     9
 10
0.0
 20
0.0
 30
0.0
 70
   128
 71
     5
 72
    15
 73
     7
  0
VERTEX
  5
1C2
  8
0
 62
     9
 10
0.0
 20
0.0
 30
0.0
 70
   128
 71
     1
 72
    10
 73
     4
  0
SEQEND
  5
1C3
  8
0
 62
     9
  0
ENDBLK
  5
1C6
  8
0
  0
BLOCK
  8
0
  2
E3_NODE_7_
 70
     0
 10
0.0
 20
0.0
 30
0.0
  3
E3_NODE_7_
  1

  0
POLYLINE
  5
1C8
  8
0
 62
     9
 66
     1
 10
0.0
 20
0.0
 30
0.0
 70
    64
 71
     6
 72
     4
  0
VERTEX
  5
1C9
  8
0
 10
21.90200042724609
 20
-111.5609970092773
 30
54.76100158691406
 70
   192
  0
VERTEX
  5
1CA
  8
0
 10
21.45499992370605
 20
-111.9769973754883
 30
54.81800079345703
 70
   192
  0
VERTEX
  5
1CB
  8
0
 10
21.30299949645996
 20
-112.3809967041016
 30
54.82099914550781
 70
   192
  0
VERTEX
  5
1CC
  8
0
 10
21.3430004119873
 20
-112.8610000610352
 30
54.79399871826172
 70
   192
  0
VERTEX
  5
1CD
  8
0
 10
21.50900077819824
 20
-113.2610015869141
 30
54.51699829101562
 70
   192
  0
VERTEX
  5
1CE
  8
0
 10
21.62199974060059
 20
-113.5339965820312
 30
54.32799911499023
 70
   192
  0
VERTEX
  5
1CF
  8
0
 62
     9
 10
0.0
 20
0.0
 30
0.0
 70
   128
 71
     3
 72
     2
 73
     1
  0
VERTEX
  5
1D0
  8
0
 62
     9
 10
0.0
 20
0.0
 30
0.0
 70
   128
 71
     1
 72
     4
 73
     3
  0
VERTEX
  5
1D1
  8
0
 62
     9
 10
0.0
 20
0.0
 30
0.0
 70
   128
 71
     1
 72
     5
 73
     4
  0
VERTEX
  5
1D2
  8
0
 62
     9
 10
0.0
 20
0.0
 30
0.0
 70
   128
 71
     1
 72
     6
 73
     5
  0
SEQEND
  5
1D3
  8
0
 62
     9
  0
ENDBLK
  5
1D6
  8
0
  0
BLOCK
  8
0
  2
E3_NODE_8_
 70
     0
 10
0.0
 20
0.0
 30
0.0
  3
E3_NODE_8_
  1

  0
POLYLINE
  5
1D8
  8
0
 62
     9
 66
     1
 10
0.0
 20
0.0
 30
0.0
 70
    64
 71
    47
 72
    46
  0
VERTEX
  5
1D9
  8
0
 10
9.866999626159668
 20
-101.375
 30
54.94800186157227
 70
   192
  0
VERTEX
  5
1DA
  8
0
 10
-2.980000019073486
 20
-92.02200317382812
 30
54.72499847412109
 70
   192
  0
VERTEX
  5
1DB
  8
0
 10
-3.167999982833862
 20
-92.2760009765625
 30
54.72000122070312
 70
   192
  0
VERTEX
  5
1DC
  8
0
 10
-3.683000087738037
 20
-93.2959976196289
 30
54.70199966430664
 70
   192
  0
VERTEX
  5
1DD
  8
0
 10
21.45499992370605
 20
-111.9769973754883
 30
54.81800079345703
 70
   192
  0
VERTEX
  5
1DE
  8
0
 10
21.75200080871582
 20
-111.7070007324219
 30
54.81000137329102
 70
   192
  0
VERTEX
  5
1DF
  8
0
 10
22.71599960327148
 20
-110.7289962768555
 30
54.78400039672852
 70
   192
  0
VERTEX
  5
1E0
  8
0
 10
4.72599983215332
 20
-85.21600341796875
 30
54.90599822998047
 70
   192
  0
VERTEX
  5
1E1
  8
0
 10
3.683000087738037
 20
-85.69200134277344
 30
54.88999938964844
 70
   192
  0
VERTEX
  5
1E2
  8
0
 10
5.39300012588501
 20
-85.03800201416016
 30
54.9119987487793
 70
   192
  0
VERTEX
  5
1E3
  8
0
 10
0.1770000010728836
 20
-88.07499694824219
 30
54.81600189208984
 70
   192
  0
VERTEX
  5
1E4
  8
0
 10
-0.6480000019073486
 20
-88.86699676513672
 30
54.79499816894531
 70
   192
  0
VERTEX
  5
1E5
  8
0
 10
9.965999603271484
 20
-84.02400207519531
 30
54.94900131225586
 70
   192
  0
VERTEX
  5
1E6
  8
0
 10
8.821999549865723
 20
-84.12799835205078
 30
54.94499969482422
 70
   192
  0
VERTEX
  5
1E7
  8
0
 10
14.19099998474121
 20
-84.35299682617188
 30
54.93600082397461
 70
   192
  0
VERTEX
  5
1E8
  8
0
 10
15.30099964141846
 20
-84.63200378417969
 30
54.92599868774414
 70
   192
  0
VERTEX
  5
1E9
  8
0
 10
16.27599906921387
 20
-85.06199645996094
 30
54.9119987487793
 70
   192
  0
VERTEX
  5
1EA
  8
0
 10
24.59000015258789
 20
-92.05899810791016
 30
54.72700119018555
 70
   192
  0
VERTEX
  5
1EB
  8
0
 10
23.92200088500977
 20
-90.77899932861328
 30
54.74900054931641
 70
   192
  0
VERTEX
  5
1EC
  8
0
 10
23.22900009155273
 20
-89.86799621582031
 30
54.77000045776367
 70
   192
  0
VERTEX
  5
1ED
  8
0
 10
20.13299942016602
 20
-86.97100067138672
 30
54.84799957275391
 70
   192
  0
VERTEX
  5
1EE
  8
0
 10
19.18000030517578
 20
-86.34200286865234
 30
54.86800003051758
 70
   192
  0
VERTEX
  5
1EF
  8
0
 10
26.84499931335449
 20
-99.822998046875
 30
54.65000152587891
 70
   192
  0
VERTEX
  5
1F0
  8
0
 10
26.23699951171875
 20
-95.62799835205078
 30
54.67200088500977
 70
   192
  0
VERTEX
  5
1F1
  8
0
 10
26.46699905395508
 20
-102.7529983520508
 30
54.66299819946289
 70
   192
  0
VERTEX
  5
1F2
  8
0
 10
26.81599998474121
 20
-100.9690017700195
 30
54.6510009765625
 70
   192
  0
VERTEX
  5
1F3
  8
0
 10
25.88400077819824
 20
-94.53600311279297
 30
54.68500137329102
 70
   192
  0
VERTEX
  5
1F4
  8
0
 10
25.59700012207031
 20
-106.197998046875
 30
54.69499969482422
 70
   192
  0
VERTEX
  5
1F5
  8
0
 10
26.00200080871582
 20
-105.1279983520508
 30
54.68000030517578
 70
   192
  0
VERTEX
  5
1F6
  8
0
 10
23.45100021362305
 20
-109.8539962768555
 30
54.76300048828125
 70
   192
  0
VERTEX
  5
1F7
  8
0
 10
-4.688000202178955
 20
-103.8399963378906
 30
54.66699981689453
 70
   192
  0
VERTEX
  5
1F8
  8
0
 10
-3.134999990463257
 20
-107.7839965820312
 30
54.72100067138672
 70
   192
  0
VERTEX
  5
1F9
  8
0
 10
-4.910999774932861
 20
-102.7770004272461
 30
54.65900039672852
 70
   192
  0
VERTEX
  5
1FA
  8
0
 10
-5.083000183105469
 20
-98.48200225830078
 30
54.65200042724609
 70
   192
  0
VERTEX
  5
1FB
  8
0
 10
-4.922999858856201
 20
-102.7170028686523
 30
54.65800094604492
 70
   192
  0
VERTEX
  5
1FC
  8
0
 10
-4.934000015258789
 20
-97.34600067138672
 30
54.65800094604492
 70
   192
  0
VERTEX
  5
1FD
  8
0
 10
20.77000045776367
 20
-146.3459930419922
 30
54.83399963378906
 70
   192
  0
VERTEX
  5
1FE
  8
0
 10
20.78899955749512
 20
-146.3480072021484
 30
54.83399963378906
 70
   192
  0
VERTEX
  5
1FF
  8
0
 10
20.79299926757812
 20
-146.2929992675781
 30
54.83399963378906
 70
   192
  0
VERTEX
  5
200
  8
0
 10
0.9179999828338623
 20
-112.5490036010742
 30
54.83399963378906
 70
   192
  0
VERTEX
  5
201
  8
0
 10
21.30299949645996
 20
-112.3809967041016
 30
54.82099914550781
 70
   192
  0
VERTEX
  5
202
  8
0
 10
-2.54200005531311
 20
-108.7639999389648
 30
54.7400016784668
 70
   192
  0
VERTEX
  5
203
  8
0
 10
0.2300000041723251
 20
-111.9720001220703
 30
54.81800079345703
 70
   192
  0
VERTEX
  5
204
  8
0
 10
0.5630000233650208
 20
-112.2519989013672
 30
54.82600021362305
 70
   192
  0
VERTEX
  5
205
  8
0
 10
0.9179999828338623
 20
-146.3459930419922
 30
54.83399963378906
 70
   192
  0
VERTEX
  5
206
  8
0
 10
0.9190000295639038
 20
-146.5
 30
54.83399963378906
 70
   192
  0
VERTEX
  5
207
  8
0
 10
20.76899909973145
 20
-146.5
 30
54.83399963378906
 70
   192
  0
VERTEX
  5
208
  8
0
 62
     9
 10
0.0
 20
0.0
 30
0.0
 70
   128
 71
     3
 72
     2
 73
     1
  0
VERTEX
  5
209
  8
0
 62
     9
 10
0.0
 20
0.0
 30
0.0
 70
   128
 71
     1
 72
     5
 73
     4
  0
VERTEX
  5
20A
  8
0
 62
     9
 10
0.0
 20
0.0
 30
0.0
 70
   128
 71
     6
 72
     5
 73
     1
  0
VERTEX
  5
20B
  8
0
 62
     9
 10
0.0
 20
0.0
 30
0.0
 70
   128
 71
     1
 72
     7
 73
     6
  0
VERTEX
  5
20C
  8
0
 62
     9
 10
0.0
 20
0.0
 30
0.0
 70
   128
 71
     9
 72
     8
 73
     1
  0
VERTEX
  5
20D
  8
0
 62
     9
 10
0.0
 20
0.0
 30
0.0
 70
   128
 71
     8
 72
    10
 73
     1
  0
VERTEX
  5
20E
  8
0
 62
     9
 10
0.0
 20
0.0
 30
0.0
 70
   128
 71
     1
 72
    11
 73
     9
  0
VERTEX
  5
20F
  8
0
 62
     9
 10
0.0
 20
0.0
 30
0.0
 70
   128
 71
     1
 72
    12
 73
    11
  0
VERTEX
  5
210
  8
0
 62
     9
 10
0.0
 20
0.0
 30
0.0
 70
   128
 71
    14
 72
    13
 73
     1
  0
VERTEX
  5
211
  8
0
 62
     9
 10
0.0
 20
0.0
 30
0.0
 70
   128
 71
    13
 72
    15
 73
     1
  0
VERTEX
  5
212
  8
0
 62
     9
 10
0.0
 20
0.0
 30
0.0
 70
   128
 71
    15
 72
    16
 73
     1
  0
VERTEX
  5
213
  8
0
 62
     9
 10
0.0
 20
0.0
 30
0.0
 70
   128
 71
    16
 72
    17
 73
     1
  0
VERTEX
  5
214
  8
0
 62
     9
 10
0.0
 20
0.0
 30
0.0
 70
   128
 71
    19
 72
    18
 73
     1
  0
VERTEX
  5
215
  8
0
 62
     9
 10
0.0
 20
0.0
 30
0.0
 70
   128
 71
     1
 72
    20
 73
    19
  0
VERTEX
  5
216
  8
0
 62
     9
 10
0.0
 20
0.0
 30
0.0
 70
   128
 71
     1
 72
    21
 73
    20
  0
VERTEX
  5
217
  8
0
 62
     9
 10
0.0
 20
0.0
 30
0.0
 70
   128
 71
     1
 72
    22
 73
    21
  0
VERTEX
  5
218
  8
0
 62
     9
 10
0.0
 20
0.0
 30
0.0
 70
   128
 71
     1
 72
    17
 73
    22
  0
VERTEX
  5
219
  8
0
 62
     9
 10
0.0
 20
0.0
 30
0.0
 70
   128
 71
    24
 72
    23
 73
     1
  0
VERTEX
  5
21A
  8
0
 62
     9
 10
0.0
 20
0.0
 30
0.0
 70
   128
 71
    26
 72
    25
 73
     1
  0
VERTEX
  5
21B
  8
0
 62
     9
 10
0.0
 20
0.0
 30
0.0
 70
   128
 71
     1
 72
    23
 73
    26
  0
VERTEX
  5
21C
  8
0
 62
     9
 10
0.0
 20
0.0
 30
0.0
 70
   128
 71
     1
 72
    27
 73
    24
  0
VERTEX
  5
21D
  8
0
 62
     9
 10
0.0
 20
0.0
 30
0.0
 70
   128
 71
     1
 72
    18
 73
    27
  0
VERTEX
  5
21E
  8
0
 62
     9
 10
0.0
 20
0.0
 30
0.0
 70
   128
 71
    29
 72
    28
 73
     1
  0
VERTEX
  5
21F
  8
0
 62
     9
 10
0.0
 20
0.0
 30
0.0
 70
   128
 71
    28
 72
    30
 73
     1
  0
VERTEX
  5
220
  8
0
 62
     9
 10
0.0
 20
0.0
 30
0.0
 70
   128
 71
    30
 72
     7
 73
     1
  0
VERTEX
  5
221
  8
0
 62
     9
 10
0.0
 20
0.0
 30
0.0
 70
   128
 71
     1
 72
    25
 73
    29
  0
VERTEX
  5
222
  8
0
 62
     9
 10
0.0
 20
0.0
 30
0.0
 70
   128
 71
     1
 72
    10
 73
    14
  0
VERTEX
  5
223
  8
0
 62
     9
 10
0.0
 20
0.0
 30
0.0
 70
   128
 71
     1
 72
     2
 73
    12
  0
VERTEX
  5
224
  8
0
 62
     9
 10
0.0
 20
0.0
 30
0.0
 70
   128
 71
    32
 72
    31
 73
     5
  0
VERTEX
  5
225
  8
0
 62
     9
 10
0.0
 20
0.0
 30
0.0
 70
   128
 71
    31
 72
    33
 73
     5
  0
VERTEX
  5
226
  8
0
 62
     9
 10
0.0
 20
0.0
 30
0.0
 70
   128
 71
    35
 72
    34
 73
     5
  0
VERTEX
  5
227
  8
0
 62
     9
 10
0.0
 20
0.0
 30
0.0
 70
   128
 71
    34
 72
    36
 73
     5
  0
VERTEX
  5
228
  8
0
 62
     9
 10
0.0
 20
0.0
 30
0.0
 70
   128
 71
    36
 72
     4
 73
     5
  0
VERTEX
  5
229
  8
0
 62
     9
 10
0.0
 20
0.0
 30
0.0
 70
   128
 71
     5
 72
    33
 73
    35
  0
VERTEX
  5
22A
  8
0
 62
     9
 10
0.0
 20
0.0
 30
0.0
 70
   128
 71
    39
 72
    38
 73
    37
  0
VERTEX
  5
22B
  8
0
 62
     9
 10
0.0
 20
0.0
 30
0.0
 70
   128
 71
    37
 72
    40
 73
    39
  0
VERTEX
  5
22C
  8
0
 62
     9
 10
0.0
 20
0.0
 30
0.0
 70
   128
 71
    42
 72
    32
 73
    41
  0
VERTEX
  5
22D
  8
0
 62
     9
 10
0.0
 20
0.0
 30
0.0
 70
   128
 71
    41
 72
    43
 73
    42
  0
VERTEX
  5
22E
  8
0
 62
     9
 10
0.0
 20
0.0
 30
0.0
 70
   128
 71
    41
 72
    44
 73
    43
  0
VERTEX
  5
22F
  8
0
 62
     9
 10
0.0
 20
0.0
 30
0.0
 70
   128
 71
    41
 72
    40
 73
    44
  0
VERTEX
  5
230
  8
0
 62
     9
 10
0.0
 20
0.0
 30
0.0
 70
   128
 71
    40
 72
    41
 73
    39
  0
VERTEX
  5
231
  8
0
 62
     9
 10
0.0
 20
0.0
 30
0.0
 70
   128
 71
     5
 72
    41
 73
    32
  0
VERTEX
  5
232
  8
0
 62
     9
 10
0.0
 20
0.0
 30
0.0
 70
   128
 71
    47
 72
    46
 73
    45
  0
VERTEX
  5
233
  8
0
 62
     9
 10
0.0
 20
0.0
 30
0.0
 70
   128
 71
    45
 72
    40
 73
    37
  0
VERTEX
  5
234
  8
0
 62
     9
 10
0.0
 20
0.0
 30
0.0
 70
   128
 71
    45
 72
    37
 73
    47
  0
VERTEX
  5
235
  8
0
 62
     9
 10
0.0
 20
0.0
 30
0.0
 70
   128
 71
     1
 72
     4
 73
     3
  0
SEQEND
  5
236
  8
0
 62
     9
  0
ENDBLK
  5
239
  8
0
  0
BLOCK
  8
0
  2
E3_NODE_9_
 70
     0
 10
0.0
 20
0.0
 30
0.0
  3
E3_NODE_9_
  1

  0
POLYLINE
  5
23B
  8
0
 62
     9
 66
     1
 10
0.0
 20
0.0
 30
0.0
 70
    64
 71
    71
 72
    71
  0
VERTEX
  5
23C
  8
0
 10
-3.010999917984009
 20
-91.9990005493164
 30
8.649999618530273
 70
   192
  0
VERTEX
  5
23D
  8
0
 10
-3.683000087738037
 20
-93.2959976196289
 30
54.70199966430664
 70
   192
  0
VERTEX
  5
23E
  8
0
 10
-3.167999982833862
 20
-92.2760009765625
 30
54.72000122070312
 70
   192
  0
VERTEX
  5
23F
  8
0
 10
-4.934000015258789
 20
-97.34600067138672
 30
54.65800094604492
 70
   192
  0
VERTEX
  5
240
  8
0
 10
-5.083000183105469
 20
-98.48200225830078
 30
54.65200042724609
 70
   192
  0
VERTEX
  5
241
  8
0
 10
-4.922999858856201
 20
-102.7170028686523
 30
54.65800094604492
 70
   192
  0
VERTEX
  5
242
  8
0
 10
-4.913000106811523
 20
-102.7770004272461
 30
8.649999618530273
 70
   192
  0
VERTEX
  5
243
  8
0
 10
-4.910999774932861
 20
-102.7770004272461
 30
54.65900039672852
 70
   192
  0
VERTEX
  5
244
  8
0
 10
-2.980000019073486
 20
-92.02200317382812
 30
54.72499847412109
 70
   192
  0
VERTEX
  5
245
  8
0
 10
5.374000072479248
 20
-84.96399688720703
 30
8.649999618530273
 70
   192
  0
VERTEX
  5
246
  8
0
 10
3.683000087738037
 20
-85.69200134277344
 30
54.88999938964844
 70
   192
  0
VERTEX
  5
247
  8
0
 10
4.72599983215332
 20
-85.21600341796875
 30
54.90599822998047
 70
   192
  0
VERTEX
  5
248
  8
0
 10
0.1770000010728836
 20
-88.07499694824219
 30
54.81600189208984
 70
   192
  0
VERTEX
  5
249
  8
0
 10
-0.6480000019073486
 20
-88.86699676513672
 30
54.79499816894531
 70
   192
  0
VERTEX
  5
24A
  8
0
 10
5.39300012588501
 20
-85.03800201416016
 30
54.9119987487793
 70
   192
  0
VERTEX
  5
24B
  8
0
 10
8.821999549865723
 20
-84.12799835205078
 30
54.94499969482422
 70
   192
  0
VERTEX
  5
24C
  8
0
 10
10.8439998626709
 20
-83.9990005493164
 30
8.649999618530273
 70
   192
  0
VERTEX
  5
24D
  8
0
 10
9.965999603271484
 20
-84.02400207519531
 30
54.94900131225586
 70
   192
  0
VERTEX
  5
24E
  8
0
 10
14.19099998474121
 20
-84.35299682617188
 30
54.93600082397461
 70
   192
  0
VERTEX
  5
24F
  8
0
 10
16.31900024414062
 20
-84.96499633789062
 30
8.649999618530273
 70
   192
  0
VERTEX
  5
250
  8
0
 10
15.30099964141846
 20
-84.63200378417969
 30
54.92599868774414
 70
   192
  0
VERTEX
  5
251
  8
0
 10
16.27599906921387
 20
-85.06199645996094
 30
54.9119987487793
 70
   192
  0
VERTEX
  5
252
  8
0
 10
24.70299911499023
 20
-92.0009994506836
 30
8.649999618530273
 70
   192
  0
VERTEX
  5
253
  8
0
 10
20.13299942016602
 20
-86.97100067138672
 30
54.84799957275391
 70
   192
  0
VERTEX
  5
254
  8
0
 10
19.18000030517578
 20
-86.34200286865234
 30
54.86800003051758
 70
   192
  0
VERTEX
  5
255
  8
0
 10
23.22900009155273
 20
-89.86799621582031
 30
54.77000045776367
 70
   192
  0
VERTEX
  5
256
  8
0
 10
23.92200088500977
 20
-90.77899932861328
 30
54.74900054931641
 70
   192
  0
VERTEX
  5
257
  8
0
 10
26.60199928283691
 20
-102.7799987792969
 30
8.649999618530273
 70
   192
  0
VERTEX
  5
258
  8
0
 10
26.23699951171875
 20
-95.62799835205078
 30
54.67200088500977
 70
   192
  0
VERTEX
  5
259
  8
0
 10
24.59000015258789
 20
-92.05899810791016
 30
54.72700119018555
 70
   192
  0
VERTEX
  5
25A
  8
0
 10
25.88400077819824
 20
-94.53600311279297
 30
54.68500137329102
 70
   192
  0
VERTEX
  5
25B
  8
0
 10
26.84499931335449
 20
-99.822998046875
 30
54.65000152587891
 70
   192
  0
VERTEX
  5
25C
  8
0
 10
26.81599998474121
 20
-100.9690017700195
 30
54.6510009765625
 70
   192
  0
VERTEX
  5
25D
  8
0
 10
21.12899971008301
 20
-112.2580032348633
 30
8.649999618530273
 70
   192
  0
VERTEX
  5
25E
  8
0
 10
22.71599960327148
 20
-110.7289962768555
 30
54.78400039672852
 70
   192
  0
VERTEX
  5
25F
  8
0
 10
21.90200042724609
 20
-111.5609970092773
 30
54.76100158691406
 70
   192
  0
VERTEX
  5
260
  8
0
 10
23.45100021362305
 20
-109.8539962768555
 30
54.76300048828125
 70
   192
  0
VERTEX
  5
261
  8
0
 10
21.26899909973145
 20
-112.0899963378906
 30
53.97600173950195
 70
   192
  0
VERTEX
  5
262
  8
0
 10
25.59700012207031
 20
-106.197998046875
 30
54.69499969482422
 70
   192
  0
VERTEX
  5
263
  8
0
 10
26.00200080871582
 20
-105.1279983520508
 30
54.68000030517578
 70
   192
  0
VERTEX
  5
264
  8
0
 10
26.46699905395508
 20
-102.7529983520508
 30
54.66299819946289
 70
   192
  0
VERTEX
  5
265
  8
0
 10
21.75200080871582
 20
-111.7070007324219
 30
54.81000137329102
 70
   192
  0
VERTEX
  5
266
  8
0
 10
21.45499992370605
 20
-111.9769973754883
 30
54.81800079345703
 70
   192
  0
VERTEX
  5
267
  8
0
 10
10.8439998626709
 20
-116.0009994506836
 30
8.649999618530273
 70
   192
  0
VERTEX
  5
268
  8
0
 10
17.27099990844727
 20
-114.6539993286133
 30
51.29600143432617
 70
   192
  0
VERTEX
  5
269
  8
0
 10
17.02199935913086
 20
-114.7300033569336
 30
51.25500106811523
 70
   192
  0
VERTEX
  5
26A
  8
0
 10
17.83200073242188
 20
-114.3949966430664
 30
51.46599960327148
 70
   192
  0
VERTEX
  5
26B
  8
0
 10
13.74300003051758
 20
-115.7360000610352
 30
50.72299957275391
 70
   192
  0
VERTEX
  5
26C
  8
0
 10
20.10799980163574
 20
-113.0469970703125
 30
52.59999847412109
 70
   192
  0
VERTEX
  5
26D
  8
0
 10
19.7189998626709
 20
-113.2770004272461
 30
52.40700149536133
 70
   192
  0
VERTEX
  5
26E
  8
0
 10
20.24699974060059
 20
-112.9469985961914
 30
52.70700073242188
 70
   192
  0
VERTEX
  5
26F
  8
0
 10
10.8439998626709
 20
-116.0009994506836
 30
50.65000152587891
 70
   192
  0
VERTEX
  5
270
  8
0
 10
21.10400009155273
 20
-112.2289962768555
 30
53.77099990844727
 70
   192
  0
VERTEX
  5
271
  8
0
 10
0.5590000152587891
 20
-112.2559967041016
 30
8.649999618530273
 70
   192
  0
VERTEX
  5
272
  8
0
 10
8.265000343322754
 20
-115.7910003662109
 30
50.70299911499023
 70
   192
  0
VERTEX
  5
273
  8
0
 10
5.217000007629395
 20
-114.9150009155273
 30
51.15000152587891
 70
   192
  0
VERTEX
  5
274
  8
0
 10
8.803999900817871
 20
-115.870002746582
 30
50.67900085449219
 70
   192
  0
VERTEX
  5
275
  8
0
 10
4.64900016784668
 20
-114.7519989013672
 30
51.23300170898438
 70
   192
  0
VERTEX
  5
276
  8
0
 10
1.924000024795532
 20
-113.2829971313477
 30
52.36299896240234
 70
   192
  0
VERTEX
  5
277
  8
0
 10
0.2300000041723251
 20
-111.9720001220703
 30
54.81800079345703
 70
   192
  0
VERTEX
  5
278
  8
0
 10
0.3549999892711639
 20
-112.0830001831055
 30
54.48300170898438
 70
   192
  0
VERTEX
  5
279
  8
0
 10
0.5600000023841858
 20
-112.254997253418
 30
54.67100143432617
 70
   192
  0
VERTEX
  5
27A
  8
0
 10
0.5630000233650208
 20
-112.2519989013672
 30
54.82600021362305
 70
   192
  0
VERTEX
  5
27B
  8
0
 10
0.3549999892711639
 20
-112.0830001831055
 30
54.48199844360352
 70
   192
  0
VERTEX
  5
27C
  8
0
 10
-2.54200005531311
 20
-108.7639999389648
 30
54.7400016784668
 70
   192
  0
VERTEX
  5
27D
  8
0
 10
-3.134999990463257
 20
-107.7839965820312
 30
54.72100067138672
 70
   192
  0
VERTEX
  5
27E
  8
0
 10
0.3950000107288361
 20
-112.1169967651367
 30
53.81900024414062
 70
   192
  0
VERTEX
  5
27F
  8
0
 10
-4.688000202178955
 20
-103.8399963378906
 30
54.66699981689453
 70
   192
  0
VERTEX
  5
280
  8
0
 10
0.5659999847412109
 20
-112.2470016479492
 30
53.65599822998047
 70
   192
  0
VERTEX
  5
281
  8
0
 10
0.6830000281333923
 20
-112.359001159668
 30
54.78400039672852
 70
   192
  0
VERTEX
  5
282
  8
0
 10
0.9179999828338623
 20
-112.5490036010742
 30
54.83399963378906
 70
   192
  0
VERTEX
  5
283
  8
0
 62
     9
 10
0.0
 20
0.0
 30
0.0
 70
   128
 71
     3
 72
     2
 73
     1
  0
VERTEX
  5
284
  8
0
 62
     9
 10
0.0
 20
0.0
 30
0.0
 70
   128
 71
     2
 72
     4
 73
     1
  0
VERTEX
  5
285
  8
0
 62
     9
 10
0.0
 20
0.0
 30
0.0
 70
   128
 71
     4
 72
     5
 73
     1
  0
VERTEX
  5
286
  8
0
 62
     9
 10
0.0
 20
0.0
 30
0.0
 70
   128
 71
     5
 72
     6
 73
     1
  0
VERTEX
  5
287
  8
0
 62
     9
 10
0.0
 20
0.0
 30
0.0
 70
   128
 71
     6
 72
     8
 73
     7
  0
VERTEX
  5
288
  8
0
 62
     9
 10
0.0
 20
0.0
 30
0.0
 70
   128
 71
     7
 72
     1
 73
     6
  0
VERTEX
  5
289
  8
0
 62
     9
 10
0.0
 20
0.0
 30
0.0
 70
   128
 71
     1
 72
     9
 73
     3
  0
VERTEX
  5
28A
  8
0
 62
     9
 10
0.0
 20
0.0
 30
0.0
 70
   128
 71
    12
 72
    11
 73
    10
  0
VERTEX
  5
28B
  8
0
 62
     9
 10
0.0
 20
0.0
 30
0.0
 70
   128
 71
    11
 72
    13
 73
    10
  0
VERTEX
  5
28C
  8
0
 62
     9
 10
0.0
 20
0.0
 30
0.0
 70
   128
 71
    13
 72
    14
 73
     1
  0
VERTEX
  5
28D
  8
0
 62
     9
 10
0.0
 20
0.0
 30
0.0
 70
   128
 71
     1
 72
    10
 73
    13
  0
VERTEX
  5
28E
  8
0
 62
     9
 10
0.0
 20
0.0
 30
0.0
 70
   128
 71
    14
 72
     9
 73
     1
  0
VERTEX
  5
28F
  8
0
 62
     9
 10
0.0
 20
0.0
 30
0.0
 70
   128
 71
    16
 72
    15
 73
    10
  0
VERTEX
  5
290
  8
0
 62
     9
 10
0.0
 20
0.0
 30
0.0
 70
   128
 71
    10
 72
    17
 73
    16
  0
VERTEX
  5
291
  8
0
 62
     9
 10
0.0
 20
0.0
 30
0.0
 70
   128
 71
    19
 72
    18
 73
    17
  0
VERTEX
  5
292
  8
0
 62
     9
 10
0.0
 20
0.0
 30
0.0
 70
   128
 71
    17
 72
    20
 73
    19
  0
VERTEX
  5
293
  8
0
 62
     9
 10
0.0
 20
0.0
 30
0.0
 70
   128
 71
    20
 72
    21
 73
    19
  0
VERTEX
  5
294
  8
0
 62
     9
 10
0.0
 20
0.0
 30
0.0
 70
   128
 71
    20
 72
    22
 73
    21
  0
VERTEX
  5
295
  8
0
 62
     9
 10
0.0
 20
0.0
 30
0.0
 70
   128
 71
    24
 72
    20
 73
    23
  0
VERTEX
  5
296
  8
0
 62
     9
 10
0.0
 20
0.0
 30
0.0
 70
   128
 71
    25
 72
    22
 73
    20
  0
VERTEX
  5
297
  8
0
 62
     9
 10
0.0
 20
0.0
 30
0.0
 70
   128
 71
    20
 72
    24
 73
    25
  0
VERTEX
  5
298
  8
0
 62
     9
 10
0.0
 20
0.0
 30
0.0
 70
   128
 71
    23
 72
    26
 73
    24
  0
VERTEX
  5
299
  8
0
 62
     9
 10
0.0
 20
0.0
 30
0.0
 70
   128
 71
    23
 72
    27
 73
    26
  0
VERTEX
  5
29A
  8
0
 62
     9
 10
0.0
 20
0.0
 30
0.0
 70
   128
 71
    29
 72
    23
 73
    28
  0
VERTEX
  5
29B
  8
0
 62
     9
 10
0.0
 20
0.0
 30
0.0
 70
   128
 71
    31
 72
    30
 73
    23
  0
VERTEX
  5
29C
  8
0
 62
     9
 10
0.0
 20
0.0
 30
0.0
 70
   128
 71
    23
 72
    29
 73
    31
  0
VERTEX
  5
29D
  8
0
 62
     9
 10
0.0
 20
0.0
 30
0.0
 70
   128
 71
    28
 72
    32
 73
    29
  0
VERTEX
  5
29E
  8
0
 62
     9
 10
0.0
 20
0.0
 30
0.0
 70
   128
 71
    28
 72
    33
 73
    32
  0
VERTEX
  5
29F
  8
0
 62
     9
 10
0.0
 20
0.0
 30
0.0
 70
   128
 71
    36
 72
    35
 73
    34
  0
VERTEX
  5
2A0
  8
0
 62
     9
 10
0.0
 20
0.0
 30
0.0
 70
   128
 71
    35
 72
    37
 73
    34
  0
VERTEX
  5
2A1
  8
0
 62
     9
 10
0.0
 20
0.0
 30
0.0
 70
   128
 71
    34
 72
    38
 73
    36
  0
VERTEX
  5
2A2
  8
0
 62
     9
 10
0.0
 20
0.0
 30
0.0
 70
   128
 71
    39
 72
    28
 73
    34
  0
VERTEX
  5
2A3
  8
0
 62
     9
 10
0.0
 20
0.0
 30
0.0
 70
   128
 71
    34
 72
    37
 73
    39
  0
VERTEX
  5
2A4
  8
0
 62
     9
 10
0.0
 20
0.0
 30
0.0
 70
   128
 71
    39
 72
    40
 73
    28
  0
VERTEX
  5
2A5
  8
0
 62
     9
 10
0.0
 20
0.0
 30
0.0
 70
   128
 71
    40
 72
    41
 73
    28
  0
VERTEX
  5
2A6
  8
0
 62
     9
 10
0.0
 20
0.0
 30
0.0
 70
   128
 71
    42
 72
    35
 73
    36
  0
VERTEX
  5
2A7
  8
0
 62
     9
 10
0.0
 20
0.0
 30
0.0
 70
   128
 71
    36
 72
    43
 73
    42
  0
VERTEX
  5
2A8
  8
0
 62
     9
 10
0.0
 20
0.0
 30
0.0
 70
   128
 71
    46
 72
    45
 73
    44
  0
VERTEX
  5
2A9
  8
0
 62
     9
 10
0.0
 20
0.0
 30
0.0
 70
   128
 71
    45
 72
    47
 73
    44
  0
VERTEX
  5
2AA
  8
0
 62
     9
 10
0.0
 20
0.0
 30
0.0
 70
   128
 71
    44
 72
    48
 73
    46
  0
VERTEX
  5
2AB
  8
0
 62
     9
 10
0.0
 20
0.0
 30
0.0
 70
   128
 71
    50
 72
    49
 73
    44
  0
VERTEX
  5
2AC
  8
0
 62
     9
 10
0.0
 20
0.0
 30
0.0
 70
   128
 71
    44
 72
    47
 73
    50
  0
VERTEX
  5
2AD
  8
0
 62
     9
 10
0.0
 20
0.0
 30
0.0
 70
   128
 71
    49
 72
    51
 73
    34
  0
VERTEX
  5
2AE
  8
0
 62
     9
 10
0.0
 20
0.0
 30
0.0
 70
   128
 71
    34
 72
    44
 73
    49
  0
VERTEX
  5
2AF
  8
0
 62
     9
 10
0.0
 20
0.0
 30
0.0
 70
   128
 71
    44
 72
    52
 73
    48
  0
VERTEX
  5
2B0
  8
0
 62
     9
 10
0.0
 20
0.0
 30
0.0
 70
   128
 71
    51
 72
    53
 73
    34
  0
VERTEX
  5
2B1
  8
0
 62
     9
 10
0.0
 20
0.0
 30
0.0
 70
   128
 71
    56
 72
    55
 73
    54
  0
VERTEX
  5
2B2
  8
0
 62
     9
 10
0.0
 20
0.0
 30
0.0
 70
   128
 71
    57
 72
    52
 73
    54
  0
VERTEX
  5
2B3
  8
0
 62
     9
 10
0.0
 20
0.0
 30
0.0
 70
   128
 71
    44
 72
    54
 73
    52
  0
VERTEX
  5
2B4
  8
0
 62
     9
 10
0.0
 20
0.0
 30
0.0
 70
   128
 71
    54
 72
    55
 73
    57
  0
VERTEX
  5
2B5
  8
0
 62
     9
 10
0.0
 20
0.0
 30
0.0
 70
   128
 71
    54
 72
    58
 73
    56
  0
VERTEX
  5
2B6
  8
0
 62
     9
 10
0.0
 20
0.0
 30
0.0
 70
   128
 71
    54
 72
    59
 73
    58
  0
VERTEX
  5
2B7
  8
0
 62
     9
 10
0.0
 20
0.0
 30
0.0
 70
   128
 71
    62
 72
    61
 73
    60
  0
VERTEX
  5
2B8
  8
0
 62
     9
 10
0.0
 20
0.0
 30
0.0
 70
   128
 71
    60
 72
    63
 73
    62
  0
VERTEX
  5
2B9
  8
0
 62
     9
 10
0.0
 20
0.0
 30
0.0
 70
   128
 71
    65
 72
    61
 73
    64
  0
VERTEX
  5
2BA
  8
0
 62
     9
 10
0.0
 20
0.0
 30
0.0
 70
   128
 71
    64
 72
    67
 73
    66
  0
VERTEX
  5
2BB
  8
0
 62
     9
 10
0.0
 20
0.0
 30
0.0
 70
   128
 71
    64
 72
    66
 73
    65
  0
VERTEX
  5
2BC
  8
0
 62
     9
 10
0.0
 20
0.0
 30
0.0
 70
   128
 71
    67
 72
    68
 73
    66
  0
VERTEX
  5
2BD
  8
0
 62
     9
 10
0.0
 20
0.0
 30
0.0
 70
   128
 71
    69
 72
    54
 73
     7
  0
VERTEX
  5
2BE
  8
0
 62
     9
 10
0.0
 20
0.0
 30
0.0
 70
   128
 71
     7
 72
    67
 73
    69
  0
VERTEX
  5
2BF
  8
0
 62
     9
 10
0.0
 20
0.0
 30
0.0
 70
   128
 71
     7
 72
     8
 73
    67
  0
VERTEX
  5
2C0
  8
0
 62
     9
 10
0.0
 20
0.0
 30
0.0
 70
   128
 71
    67
 72
     8
 73
    68
  0
VERTEX
  5
2C1
  8
0
 62
     9
 10
0.0
 20
0.0
 30
0.0
 70
   128
 71
    70
 72
    62
 73
    63
  0
VERTEX
  5
2C2
  8
0
 62
     9
 10
0.0
 20
0.0
 30
0.0
 70
   128
 71
    63
 72
    71
 73
    70
  0
VERTEX
  5
2C3
  8
0
 62
     9
 10
0.0
 20
0.0
 30
0.0
 70
   128
 71
    61
 72
    65
 73
    60
  0
VERTEX
  5
2C4
  8
0
 62
     9
 10
0.0
 20
0.0
 30
0.0
 70
   128
 71
    54
 72
    69
 73
    59
  0
VERTEX
  5
2C5
  8
0
 62
     9
 10
0.0
 20
0.0
 30
0.0
 70
   128
 71
    34
 72
    53
 73
    38
  0
VERTEX
  5
2C6
  8
0
 62
     9
 10
0.0
 20
0.0
 30
0.0
 70
   128
 71
    28
 72
    41
 73
    33
  0
VERTEX
  5
2C7
  8
0
 62
     9
 10
0.0
 20
0.0
 30
0.0
 70
   128
 71
    23
 72
    30
 73
    27
  0
VERTEX
  5
2C8
  8
0
 62
     9
 10
0.0
 20
0.0
 30
0.0
 70
   128
 71
    17
 72
    18
 73
    16
  0
VERTEX
  5
2C9
  8
0
 62
     9
 10
0.0
 20
0.0
 30
0.0
 70
   128
 71
    10
 72
    15
 73
    12
  0
SEQEND
  5
2CA
  8
0
 62
     9
  0
ENDBLK
  5
2CD
  8
0
  0
BLOCK
  8
0
  2
E3_NODE_10_
 70
     0
 10
0.0
 20
0.0
 30
0.0
  3
E3_NODE_10_
  1

  0
POLYLINE
  5
2CF
  8
0
 62
     9
 66
     1
 10
0.0
 20
0.0
 30
0.0
 70
    64
 71
    15
 72
    13
  0
VERTEX
  5
2D0
  8
0
 10
5.614999771118164
 20
-146.3459930419922
 30
51.02500152587891
 70
   192
  0
VERTEX
  5
2D1
  8
0
 10
8.803999900817871
 20
-115.870002746582
 30
50.67900085449219
 70
   192
  0
VERTEX
  5
2D2
  8
0
 10
10.8439998626709
 20
-116.0009994506836
 30
50.65000152587891
 70
   192
  0
VERTEX
  5
2D3
  8
0
 10
8.265000343322754
 20
-115.7910003662109
 30
50.70299911499023
 70
   192
  0
VERTEX
  5
2D4
  8
0
 10
5.22700023651123
 20
-146.3459930419922
 30
51.15499877929688
 70
   192
  0
VERTEX
  5
2D5
  8
0
 10
5.217000007629395
 20
-114.9150009155273
 30
51.15000152587891
 70
   192
  0
VERTEX
  5
2D6
  8
0
 10
4.64900016784668
 20
-114.7519989013672
 30
51.23300170898438
 70
   192
  0
VERTEX
  5
2D7
  8
0
 10
3.522000074386597
 20
-146.3459930419922
 30
51.72499847412109
 70
   192
  0
VERTEX
  5
2D8
  8
0
 10
2.296000003814697
 20
-146.3459930419922
 30
52.1349983215332
 70
   192
  0
VERTEX
  5
2D9
  8
0
 10
4.09499979019165
 20
-146.3459930419922
 30
51.53300094604492
 70
   192
  0
VERTEX
  5
2DA
  8
0
 10
0.3959999978542328
 20
-146.3459930419922
 30
53.81800079345703
 70
   192
  0
VERTEX
  5
2DB
  8
0
 10
0.3950000107288361
 20
-112.1169967651367
 30
53.81900024414062
 70
   192
  0
VERTEX
  5
2DC
  8
0
 10
0.5659999847412109
 20
-112.2470016479492
 30
53.65599822998047
 70
   192
  0
VERTEX
  5
2DD
  8
0
 10
1.924000024795532
 20
-113.2829971313477
 30
52.36299896240234
 70
   192
  0
VERTEX
  5
2DE
  8
0
 10
10.8439998626709
 20
-146.3459930419922
 30
50.65000152587891
 70
   192
  0
VERTEX
  5
2DF
  8
0
 62
     9
 10
0.0
 20
0.0
 30
0.0
 70
   128
 71
     3
 72
     2
 73
     1
  0
VERTEX
  5
2E0
  8
0
 62
     9
 10
0.0
 20
0.0
 30
0.0
 70
   128
 71
     1
 72
     2
 73
     4
  0
VERTEX
  5
2E1
  8
0
 62
     9
 10
0.0
 20
0.0
 30
0.0
 70
   128
 71
     4
 72
     5
 73
     1
  0
VERTEX
  5
2E2
  8
0
 62
     9
 10
0.0
 20
0.0
 30
0.0
 70
   128
 71
     4
 72
     6
 73
     5
  0
VERTEX
  5
2E3
  8
0
 62
     9
 10
0.0
 20
0.0
 30
0.0
 70
   128
 71
     9
 72
     8
 73
     7
  0
VERTEX
  5
2E4
  8
0
 62
     9
 10
0.0
 20
0.0
 30
0.0
 70
   128
 71
     6
 72
     7
 73
    10
  0
VERTEX
  5
2E5
  8
0
 62
     9
 10
0.0
 20
0.0
 30
0.0
 70
   128
 71
    10
 72
     5
 73
     6
  0
VERTEX
  5
2E6
  8
0
 62
     9
 10
0.0
 20
0.0
 30
0.0
 70
   128
 71
     7
 72
     8
 73
    10
  0
VERTEX
  5
2E7
  8
0
 62
     9
 10
0.0
 20
0.0
 30
0.0
 70
   128
 71
    13
 72
    12
 73
    11
  0
VERTEX
  5
2E8
  8
0
 62
     9
 10
0.0
 20
0.0
 30
0.0
 70
   128
 71
    11
 72
    14
 73
    13
  0
VERTEX
  5
2E9
  8
0
 62
     9
 10
0.0
 20
0.0
 30
0.0
 70
   128
 71
    11
 72
     7
 73
    14
  0
VERTEX
  5
2EA
  8
0
 62
     9
 10
0.0
 20
0.0
 30
0.0
 70
   128
 71
     7
 72
    11
 73
     9
  0
VERTEX
  5
2EB
  8
0
 62
     9
 10
0.0
 20
0.0
 30
0.0
 70
   128
 71
     1
 72
    15
 73
     3
  0
SEQEND
  5
2EC
  8
0
 62
     9
  0
ENDBLK
  5
2EF
  8
0
  0
BLOCK
  8
0
  2
E3_NODE_11_
 70
     0
 10
0.0
 20
0.0
 30
0.0
  3
E3_NODE_11_
  1

  0
POLYLINE
  5
2F1
  8
0
 62
     9
 66
     1
 10
0.0
 20
0.0
 30
0.0
 70
    64
 71
     9
 72
     7
  0
VERTEX
  5
2F2
  8
0
 10
0.3549999892711639
 20
-146.3459930419922
 30
54.48099899291992
 70
   192
  0
VERTEX
  5
2F3
  8
0
 10
0.5600000023841858
 20
-112.254997253418
 30
54.67100143432617
 70
   192
  0
VERTEX
  5
2F4
  8
0
 10
0.3549999892711639
 20
-112.0830001831055
 30
54.48300170898438
 70
   192
  0
VERTEX
  5
2F5
  8
0
 10
0.9179999828338623
 20
-146.3459930419922
 30
54.83399963378906
 70
   192
  0
VERTEX
  5
2F6
  8
0
 10
0.9179999828338623
 20
-112.5490036010742
 30
54.83399963378906
 70
   192
  0
VERTEX
  5
2F7
  8
0
 10
0.6830000281333923
 20
-112.359001159668
 30
54.78400039672852
 70
   192
  0
VERTEX
  5
2F8
  8
0
 10
0.3549999892711639
 20
-112.0830001831055
 30
54.48199844360352
 70
   192
  0
VERTEX
  5
2F9
  8
0
 10
0.3950000107288361
 20
-112.1169967651367
 30
53.81900024414062
 70
   192
  0
VERTEX
  5
2FA
  8
0
 10
0.3959999978542328
 20
-146.3459930419922
 30
53.81800079345703
 70
   192
  0
VERTEX
  5
2FB
  8
0
 62
     9
 10
0.0
 20
0.0
 30
0.0
 70
   128
 71
     3
 72
     2
 73
     1
  0
VERTEX
  5
2FC
  8
0
 62
     9
 10
0.0
 20
0.0
 30
0.0
 70
   128
 71
     5
 72
     4
 73
     1
  0
VERTEX
  5
2FD
  8
0
 62
     9
 10
0.0
 20
0.0
 30
0.0
 70
   128
 71
     1
 72
     6
 73
     5
  0
VERTEX
  5
2FE
  8
0
 62
     9
 10
0.0
 20
0.0
 30
0.0
 70
   128
 71
     1
 72
     2
 73
     6
  0
VERTEX
  5
2FF
  8
0
 62
     9
 10
0.0
 20
0.0
 30
0.0
 70
   128
 71
     8
 72
     7
 73
     1
  0
VERTEX
  5
300
  8
0
 62
     9
 10
0.0
 20
0.0
 30
0.0
 70
   128
 71
     1
 72
     9
 73
     8
  0
VERTEX
  5
301
  8
0
 62
     9
 10
0.0
 20
0.0
 30
0.0
 70
   128
 71
     1
 72
     7
 73
     3
  0
SEQEND
  5
302
  8
0
 62
     9
  0
ENDBLK
  5
305
  8
0
  0
BLOCK
  8
0
  2
E3_NODE_12_
 70
     0
 10
0.0
 20
0.0
 30
0.0
  3
E3_NODE_12_
  1

  0
POLYLINE
  5
307
  8
0
 62
     9
 66
     1
 10
0.0
 20
0.0
 30
0.0
 70
    64
 71
     8
 72
     6
  0
VERTEX
  5
308
  8
0
 10
109.879997253418
 20
0.0
 30
89.96099853515625
 70
   192
  0
VERTEX
  5
309
  8
0
 10
94.1520004272461
 20
3.796000003814697
 30
84.5459976196289
 70
   192
  0
VERTEX
  5
30A
  8
0
 10
99.76499938964844
 20
8.531000137329102
 30
86.47899627685547
 70
   192
  0
VERTEX
  5
30B
  8
0
 10
106.7649993896484
 20
-6.841000080108643
 30
88.88899993896484
 70
   192
  0
VERTEX
  5
30C
  8
0
 10
99.76499938964844
 20
-8.531000137329102
 30
86.47899627685547
 70
   192
  0
VERTEX
  5
30D
  8
0
 10
93.33300018310547
 20
0.0
 30
84.26399993896484
 70
   192
  0
VERTEX
  5
30E
  8
0
 10
94.1520004272461
 20
-3.796000003814697
 30
84.5459976196289
 70
   192
  0
VERTEX
  5
30F
  8
0
 10
106.7649993896484
 20
6.841000080108643
 30
88.88899993896484
 70
   192
  0
VERTEX
  5
310
  8
0
 62
     9
 10
0.0
 20
0.0
 30
0.0
 70
   128
 71
     3
 72
     2
 73
     1
  0
VERTEX
  5
311
  8
0
 62
     9
 10
0.0
 20
0.0
 30
0.0
 70
   128
 71
     5
 72
     4
 73
     1
  0
VERTEX
  5
312
  8
0
 62
     9
 10
0.0
 20
0.0
 30
0.0
 70
   128
 71
     2
 72
     6
 73
     1
  0
VERTEX
  5
313
  8
0
 62
     9
 10
0.0
 20
0.0
 30
0.0
 70
   128
 71
     1
 72
     7
 73
     5
  0
VERTEX
  5
314
  8
0
 62
     9
 10
0.0
 20
0.0
 30
0.0
 70
   128
 71
     1
 72
     6
 73
     7
  0
VERTEX
  5
315
  8
0
 62
     9
 10
0.0
 20
0.0
 30
0.0
 70
   128
 71
     1
 72
     8
 73
     3
  0
SEQEND
  5
316
  8
0
 62
     9
  0
ENDBLK
  5
319
  8
0
  0
BLOCK
  8
0
  2
E3_NODE_13_
 70
     0
 10
0.0
 20
0.0
 30
0.0
  3
E3_NODE_13_
  1

  0
POLYLINE
  5
31B
  8
0
 62
     9
 66
     1
 10
0.0
 20
0.0
 30
0.0
 70
    64
 71
    16
 72
    16
  0
VERTEX
  5
31C
  8
0
 10
106.8619995117188
 20
6.841000080108643
 30
88.6050033569336
 70
   192
  0
VERTEX
  5
31D
  8
0
 10
109.9769973754883
 20
0.0
 30
89.6780014038086
 70
   192
  0
VERTEX
  5
31E
  8
0
 10
109.879997253418
 20
0.0
 30
89.96099853515625
 70
   192
  0
VERTEX
  5
31F
  8
0
 10
99.86299896240234
 20
8.531000137329102
 30
86.19499969482422
 70
   192
  0
VERTEX
  5
320
  8
0
 10
106.7649993896484
 20
6.841000080108643
 30
88.88899993896484
 70
   192
  0
VERTEX
  5
321
  8
0
 10
94.25
 20
3.796000003814697
 30
84.26200103759766
 70
   192
  0
VERTEX
  5
322
  8
0
 10
99.76499938964844
 20
8.531000137329102
 30
86.47899627685547
 70
   192
  0
VERTEX
  5
323
  8
0
 10
94.1520004272461
 20
-3.796000003814697
 30
84.5459976196289
 70
   192
  0
VERTEX
  5
324
  8
0
 10
94.25
 20
-3.796000003814697
 30
84.26200103759766
 70
   192
  0
VERTEX
  5
325
  8
0
 10
93.43099975585938
 20
0.0
 30
83.9800033569336
 70
   192
  0
VERTEX
  5
326
  8
0
 10
94.1520004272461
 20
3.796000003814697
 30
84.5459976196289
 70
   192
  0
VERTEX
  5
327
  8
0
 10
93.33300018310547
 20
0.0
 30
84.26399993896484
 70
   192
  0
VERTEX
  5
328
  8
0
 10
99.76499938964844
 20
-8.531000137329102
 30
86.47899627685547
 70
   192
  0
VERTEX
  5
329
  8
0
 10
99.86299896240234
 20
-8.531000137329102
 30
86.19499969482422
 70
   192
  0
VERTEX
  5
32A
  8
0
 10
106.7649993896484
 20
-6.841000080108643
 30
88.88899993896484
 70
   192
  0
VERTEX
  5
32B
  8
0
 10
106.8619995117188
 20
-6.841000080108643
 30
88.6050033569336
 70
   192
  0
VERTEX
  5
32C
  8
0
 62
     9
 10
0.0
 20
0.0
 30
0.0
 70
   128
 71
     3
 72
     2
 73
     1
  0
VERTEX
  5
32D
  8
0
 62
     9
 10
0.0
 20
0.0
 30
0.0
 70
   128
 71
     5
 72
     1
 73
     4
  0
VERTEX
  5
32E
  8
0
 62
     9
 10
0.0
 20
0.0
 30
0.0
 70
   128
 71
     7
 72
     4
 73
     6
  0
VERTEX
  5
32F
  8
0
 62
     9
 10
0.0
 20
0.0
 30
0.0
 70
   128
 71
    10
 72
     9
 73
     8
  0
VERTEX
  5
330
  8
0
 62
     9
 10
0.0
 20
0.0
 30
0.0
 70
   128
 71
    12
 72
    11
 73
     6
  0
VERTEX
  5
331
  8
0
 62
     9
 10
0.0
 20
0.0
 30
0.0
 70
   128
 71
     6
 72
    10
 73
    12
  0
VERTEX
  5
332
  8
0
 62
     9
 10
0.0
 20
0.0
 30
0.0
 70
   128
 71
     9
 72
    14
 73
    13
  0
VERTEX
  5
333
  8
0
 62
     9
 10
0.0
 20
0.0
 30
0.0
 70
   128
 71
    14
 72
    16
 73
    15
  0
VERTEX
  5
334
  8
0
 62
     9
 10
0.0
 20
0.0
 30
0.0
 70
   128
 71
    16
 72
     2
 73
     3
  0
VERTEX
  5
335
  8
0
 62
     9
 10
0.0
 20
0.0
 30
0.0
 70
   128
 71
     3
 72
    15
 73
    16
  0
VERTEX
  5
336
  8
0
 62
     9
 10
0.0
 20
0.0
 30
0.0
 70
   128
 71
    15
 72
    13
 73
    14
  0
VERTEX
  5
337
  8
0
 62
     9
 10
0.0
 20
0.0
 30
0.0
 70
   128
 71
    13
 72
     8
 73
     9
  0
VERTEX
  5
338
  8
0
 62
     9
 10
0.0
 20
0.0
 30
0.0
 70
   128
 71
     8
 72
    12
 73
    10
  0
VERTEX
  5
339
  8
0
 62
     9
 10
0.0
 20
0.0
 30
0.0
 70
   128
 71
     6
 72
    11
 73
     7
  0
VERTEX
  5
33A
  8
0
 62
     9
 10
0.0
 20
0.0
 30
0.0
 70
   128
 71
     4
 72
     7
 73
     5
  0
VERTEX
  5
33B
  8
0
 62
     9
 10
0.0
 20
0.0
 30
0.0
 70
   128
 71
     1
 72
     5
 73
     3
  0
SEQEND
  5
33C
  8
0
 62
     9
  0
ENDBLK
  5
33F
  8
0
  0
BLOCK
  8
0
  2
E3_NODE_14_
 70
     0
 10
0.0
 20
0.0
 30
0.0
  3
E3_NODE_14_
  1

  0
POLYLINE
  5
341
  8
0
 62
     9
 66
     1
 10
0.0
 20
0.0
 30
0.0
 70
    64
 71
    16
 72
    16
  0
VERTEX
  5
342
  8
0
 10
108.3560028076172
 20
7.035999774932861
 30
89.12000274658203
 70
   192
  0
VERTEX
  5
343
  8
0
 10
111.1119995117188
 20
0.0
 30
90.06800079345703
 70
   192
  0
VERTEX
  5
344
  8
0
 10
109.9769973754883
 20
0.0
 30
89.6780014038086
 70
   192
  0
VERTEX
  5
345
  8
0
 10
108.3560028076172
 20
-7.035999774932861
 30
89.12000274658203
 70
   192
  0
VERTEX
  5
346
  8
0
 10
106.8619995117188
 20
-6.841000080108643
 30
88.6050033569336
 70
   192
  0
VERTEX
  5
347
  8
0
 10
92.2959976196289
 20
0.0
 30
83.58999633789062
 70
   192
  0
VERTEX
  5
348
  8
0
 10
95.052001953125
 20
7.035999774932861
 30
84.53800201416016
 70
   192
  0
VERTEX
  5
349
  8
0
 10
94.25
 20
3.796000003814697
 30
84.26200103759766
 70
   192
  0
VERTEX
  5
34A
  8
0
 10
101.7040023803711
 20
9.949999809265137
 30
86.8290023803711
 70
   192
  0
VERTEX
  5
34B
  8
0
 10
99.86299896240234
 20
8.531000137329102
 30
86.19499969482422
 70
   192
  0
VERTEX
  5
34C
  8
0
 10
101.7040023803711
 20
-9.949999809265137
 30
86.8290023803711
 70
   192
  0
VERTEX
  5
34D
  8
0
 10
99.86299896240234
 20
-8.531000137329102
 30
86.19499969482422
 70
   192
  0
VERTEX
  5
34E
  8
0
 10
95.052001953125
 20
-7.035999774932861
 30
84.53800201416016
 70
   192
  0
VERTEX
  5
34F
  8
0
 10
94.25
 20
-3.796000003814697
 30
84.26200103759766
 70
   192
  0
VERTEX
  5
350
  8
0
 10
93.43099975585938
 20
0.0
 30
83.9800033569336
 70
   192
  0
VERTEX
  5
351
  8
0
 10
106.8619995117188
 20
6.841000080108643
 30
88.6050033569336
 70
   192
  0
VERTEX
  5
352
  8
0
 62
     9
 10
0.0
 20
0.0
 30
0.0
 70
   128
 71
     3
 72
     2
 73
     1
  0
VERTEX
  5
353
  8
0
 62
     9
 10
0.0
 20
0.0
 30
0.0
 70
   128
 71
     3
 72
     5
 73
     4
  0
VERTEX
  5
354
  8
0
 62
     9
 10
0.0
 20
0.0
 30
0.0
 70
   128
 71
     8
 72
     7
 73
     6
  0
VERTEX
  5
355
  8
0
 62
     9
 10
0.0
 20
0.0
 30
0.0
 70
   128
 71
    10
 72
     9
 73
     7
  0
VERTEX
  5
356
  8
0
 62
     9
 10
0.0
 20
0.0
 30
0.0
 70
   128
 71
     4
 72
     2
 73
     3
  0
VERTEX
  5
357
  8
0
 62
     9
 10
0.0
 20
0.0
 30
0.0
 70
   128
 71
     5
 72
    12
 73
    11
  0
VERTEX
  5
358
  8
0
 62
     9
 10
0.0
 20
0.0
 30
0.0
 70
   128
 71
    12
 72
    14
 73
    13
  0
VERTEX
  5
359
  8
0
 62
     9
 10
0.0
 20
0.0
 30
0.0
 70
   128
 71
    14
 72
    15
 73
     6
  0
VERTEX
  5
35A
  8
0
 62
     9
 10
0.0
 20
0.0
 30
0.0
 70
   128
 71
     7
 72
     8
 73
    10
  0
VERTEX
  5
35B
  8
0
 62
     9
 10
0.0
 20
0.0
 30
0.0
 70
   128
 71
    16
 72
     1
 73
     9
  0
VERTEX
  5
35C
  8
0
 62
     9
 10
0.0
 20
0.0
 30
0.0
 70
   128
 71
    11
 72
     4
 73
     5
  0
VERTEX
  5
35D
  8
0
 62
     9
 10
0.0
 20
0.0
 30
0.0
 70
   128
 71
     6
 72
    13
 73
    14
  0
VERTEX
  5
35E
  8
0
 62
     9
 10
0.0
 20
0.0
 30
0.0
 70
   128
 71
     9
 72
    10
 73
    16
  0
VERTEX
  5
35F
  8
0
 62
     9
 10
0.0
 20
0.0
 30
0.0
 70
   128
 71
    13
 72
    11
 73
    12
  0
VERTEX
  5
360
  8
0
 62
     9
 10
0.0
 20
0.0
 30
0.0
 70
   128
 71
     1
 72
    16
 73
     3
  0
VERTEX
  5
361
  8
0
 62
     9
 10
0.0
 20
0.0
 30
0.0
 70
   128
 71
     6
 72
    15
 73
     8
  0
SEQEND
  5
362
  8
0
 62
     9
  0
ENDBLK
  5
365
  8
0
  0
BLOCK
  8
0
  2
E3_NODE_15_
 70
     0
 10
0.0
 20
0.0
 30
0.0
  3
E3_NODE_15_
  1

  0
POLYLINE
  5
367
  8
0
 62
     9
 66
     1
 10
0.0
 20
0.0
 30
0.0
 70
    64
 71
    16
 72
    16
  0
VERTEX
  5
368
  8
0
 10
104.4589996337891
 20
-7.035999774932861
 30
100.4380035400391
 70
   192
  0
VERTEX
  5
369
  8
0
 10
108.3560028076172
 20
-7.035999774932861
 30
89.12000274658203
 70
   192
  0
VERTEX
  5
36A
  8
0
 10
111.1119995117188
 20
0.0
 30
90.06800079345703
 70
   192
  0
VERTEX
  5
36B
  8
0
 10
97.80699920654297
 20
-9.949999809265137
 30
98.14700317382812
 70
   192
  0
VERTEX
  5
36C
  8
0
 10
101.7040023803711
 20
-9.949999809265137
 30
86.8290023803711
 70
   192
  0
VERTEX
  5
36D
  8
0
 10
91.15399932861328
 20
-7.035999774932861
 30
95.85700225830078
 70
   192
  0
VERTEX
  5
36E
  8
0
 10
95.052001953125
 20
-7.035999774932861
 30
84.53800201416016
 70
   192
  0
VERTEX
  5
36F
  8
0
 10
88.39900207519531
 20
0.0
 30
94.90799713134766
 70
   192
  0
VERTEX
  5
370
  8
0
 10
92.2959976196289
 20
0.0
 30
83.58999633789062
 70
   192
  0
VERTEX
  5
371
  8
0
 10
95.052001953125
 20
7.035999774932861
 30
84.53800201416016
 70
   192
  0
VERTEX
  5
372
  8
0
 10
101.7040023803711
 20
9.949999809265137
 30
86.8290023803711
 70
   192
  0
VERTEX
  5
373
  8
0
 10
91.15399932861328
 20
7.035999774932861
 30
95.85700225830078
 70
   192
  0
VERTEX
  5
374
  8
0
 10
108.3560028076172
 20
7.035999774932861
 30
89.12000274658203
 70
   192
  0
VERTEX
  5
375
  8
0
 10
97.80699920654297
 20
9.949999809265137
 30
98.14700317382812
 70
   192
  0
VERTEX
  5
376
  8
0
 10
104.4589996337891
 20
7.035999774932861
 30
100.4380035400391
 70
   192
  0
VERTEX
  5
377
  8
0
 10
107.2149963378906
 20
0.0
 30
101.3870010375977
 70
   192
  0
VERTEX
  5
378
  8
0
 62
     9
 10
0.0
 20
0.0
 30
0.0
 70
   128
 71
     3
 72
     2
 73
     1
  0
VERTEX
  5
379
  8
0
 62
     9
 10
0.0
 20
0.0
 30
0.0
 70
   128
 71
     2
 72
     5
 73
     4
  0
VERTEX
  5
37A
  8
0
 62
     9
 10
0.0
 20
0.0
 30
0.0
 70
   128
 71
     5
 72
     7
 73
     6
  0
VERTEX
  5
37B
  8
0
 62
     9
 10
0.0
 20
0.0
 30
0.0
 70
   128
 71
     7
 72
     9
 73
     8
  0
VERTEX
  5
37C
  8
0
 62
     9
 10
0.0
 20
0.0
 30
0.0
 70
   128
 71
     8
 72
     9
 73
    10
  0
VERTEX
  5
37D
  8
0
 62
     9
 10
0.0
 20
0.0
 30
0.0
 70
   128
 71
    12
 72
    10
 73
    11
  0
VERTEX
  5
37E
  8
0
 62
     9
 10
0.0
 20
0.0
 30
0.0
 70
   128
 71
    14
 72
    11
 73
    13
  0
VERTEX
  5
37F
  8
0
 62
     9
 10
0.0
 20
0.0
 30
0.0
 70
   128
 71
    15
 72
    13
 73
     3
  0
VERTEX
  5
380
  8
0
 62
     9
 10
0.0
 20
0.0
 30
0.0
 70
   128
 71
     3
 72
    16
 73
    15
  0
VERTEX
  5
381
  8
0
 62
     9
 10
0.0
 20
0.0
 30
0.0
 70
   128
 71
    13
 72
    15
 73
    14
  0
VERTEX
  5
382
  8
0
 62
     9
 10
0.0
 20
0.0
 30
0.0
 70
   128
 71
    11
 72
    14
 73
    12
  0
VERTEX
  5
383
  8
0
 62
     9
 10
0.0
 20
0.0
 30
0.0
 70
   128
 71
    10
 72
    12
 73
     8
  0
VERTEX
  5
384
  8
0
 62
     9
 10
0.0
 20
0.0
 30
0.0
 70
   128
 71
     8
 72
     6
 73
     7
  0
VERTEX
  5
385
  8
0
 62
     9
 10
0.0
 20
0.0
 30
0.0
 70
   128
 71
     6
 72
     4
 73
     5
  0
VERTEX
  5
386
  8
0
 62
     9
 10
0.0
 20
0.0
 30
0.0
 70
   128
 71
     4
 72
     1
 73
     2
  0
VERTEX
  5
387
  8
0
 62
     9
 10
0.0
 20
0.0
 30
0.0
 70
   128
 71
     1
 72
    16
 73
     3
  0
SEQEND
  5
388
  8
0
 62
     9
  0
ENDBLK
  5
38B
  8
0
  0
BLOCK
  8
0
  2
E3_NODE_16_
 70
     0
 10
0.0
 20
0.0
 30
0.0
  3
E3_NODE_16_
  1

  0
POLYLINE
  5
38D
  8
0
 62
     9
 66
     1
 10
0.0
 20
0.0
 30
0.0
 70
    64
 71
    41
 72
    54
  0
VERTEX
  5
38E
  8
0
 10
10.8439998626709
 20
85.75
 30
7.849999904632568
 70
   192
  0
VERTEX
  5
38F
  8
0
 10
17.31900024414062
 20
87.30599975585938
 30
7.849999904632568
 70
   192
  0
VERTEX
  5
390
  8
0
 10
16.92600059509277
 20
88.0780029296875
 30
8.350000381469727
 70
   192
  0
VERTEX
  5
391
  8
0
 10
10.68900012969971
 20
86.61699676513672
 30
8.350000381469727
 70
   192
  0
VERTEX
  5
392
  8
0
 10
10.67899990081787
 20
85.7509994506836
 30
7.849999904632568
 70
   192
  0
VERTEX
  5
393
  8
0
 10
22.47699928283691
 20
91.7699966430664
 30
7.849999904632568
 70
   192
  0
VERTEX
  5
394
  8
0
 10
21.77000045776367
 20
92.2699966430664
 30
8.350000381469727
 70
   192
  0
VERTEX
  5
395
  8
0
 10
24.9689998626709
 20
98.11799621582031
 30
7.849999904632568
 70
   192
  0
VERTEX
  5
396
  8
0
 10
24.11100006103516
 20
98.23300170898438
 30
8.350000381469727
 70
   192
  0
VERTEX
  5
397
  8
0
 10
24.22599983215332
 20
104.8980026245117
 30
7.849999904632568
 70
   192
  0
VERTEX
  5
398
  8
0
 10
23.41200065612793
 20
104.5999984741211
 30
8.350000381469727
 70
   192
  0
VERTEX
  5
399
  8
0
 10
20.41699981689453
 20
110.5559997558594
 30
7.849999904632568
 70
   192
  0
VERTEX
  5
39A
  8
0
 10
19.83499908447266
 20
109.9140014648438
 30
8.350000381469727
 70
   192
  0
VERTEX
  5
39B
  8
0
 10
14.41399955749512
 20
113.7949981689453
 30
7.849999904632568
 70
   192
  0
VERTEX
  5
39C
  8
0
 10
14.19699954986572
 20
112.9570007324219
 30
8.350000381469727
 70
   192
  0
VERTEX
  5
39D
  8
0
 10
7.593999862670898
 20
113.875
 30
7.849999904632568
 70
   192
  0
VERTEX
  5
39E
  8
0
 10
7.791999816894531
 20
113.0309982299805
 30
8.350000381469727
 70
   192
  0
VERTEX
  5
39F
  8
0
 10
1.519000053405762
 20
110.7750015258789
 30
7.849999904632568
 70
   192
  0
VERTEX
  5
3A0
  8
0
 10
2.085999965667725
 20
110.120002746582
 30
8.350000381469727
 70
   192
  0
VERTEX
  5
3A1
  8
0
 10
-2.421000003814697
 20
105.2070007324219
 30
7.849999904632568
 70
   192
  0
VERTEX
  5
3A2
  8
0
 10
-1.613999962806702
 20
104.890998840332
 30
8.350000381469727
 70
   192
  0
VERTEX
  5
3A3
  8
0
 10
-3.321000099182129
 20
98.4469985961914
 30
7.849999904632568
 70
   192
  0
VERTEX
  5
3A4
  8
0
 10
-2.460000038146973
 20
98.54100036621094
 30
8.350000381469727
 70
   192
  0
VERTEX
  5
3A5
  8
0
 10
-0.9769999980926514
 20
92.04199981689453
 30
7.849999904632568
 70
   192
  0
VERTEX
  5
3A6
  8
0
 10
-0.257999986410141
 20
92.5250015258789
 30
8.350000381469727
 70
   192
  0
VERTEX
  5
3A7
  8
0
 10
4.076000213623047
 20
87.45999908447266
 30
7.849999904632568
 70
   192
  0
VERTEX
  5
3A8
  8
0
 10
4.486999988555908
 20
88.22200012207031
 30
8.350000381469727
 70
   192
  0
VERTEX
  5
3A9
  8
0
 10
16.92600059509277
 20
88.0780029296875
 30
9.350000381469727
 70
   192
  0
VERTEX
  5
3AA
  8
0
 10
10.68900012969971
 20
86.61699676513672
 30
9.350000381469727
 70
   192
  0
VERTEX
  5
3AB
  8
0
 10
21.77000045776367
 20
92.2699966430664
 30
9.350000381469727
 70
   192
  0
VERTEX
  5
3AC
  8
0
 10
24.11100006103516
 20
98.23300170898438
 30
9.350000381469727
 70
   192
  0
VERTEX
  5
3AD
  8
0
 10
23.41200065612793
 20
104.5999984741211
 30
9.350000381469727
 70
   192
  0
VERTEX
  5
3AE
  8
0
 10
14.19699954986572
 20
112.9570007324219
 30
9.350000381469727
 70
   192
  0
VERTEX
  5
3AF
  8
0
 10
19.83499908447266
 20
109.9140014648438
 30
9.350000381469727
 70
   192
  0
VERTEX
  5
3B0
  8
0
 10
2.085999965667725
 20
110.120002746582
 30
9.350000381469727
 70
   192
  0
VERTEX
  5
3B1
  8
0
 10
7.791999816894531
 20
113.0309982299805
 30
9.350000381469727
 70
   192
  0
VERTEX
  5
3B2
  8
0
 10
-2.539999961853027
 20
100.0
 30
9.350000381469727
 70
   192
  0
VERTEX
  5
3B3
  8
0
 10
-2.460000038146973
 20
98.54100036621094
 30
9.350000381469727
 70
   192
  0
VERTEX
  5
3B4
  8
0
 10
-0.257999986410141
 20
92.5250015258789
 30
9.350000381469727
 70
   192
  0
VERTEX
  5
3B5
  8
0
 10
4.486999988555908
 20
88.22200012207031
 30
9.350000381469727
 70
   192
  0
VERTEX
  5
3B6
  8
0
 10
-1.613999962806702
 20
104.890998840332
 30
9.350000381469727
 70
   192
  0
VERTEX
  5
3B7
  8
0
 62
     9
 10
0.0
 20
0.0
 30
0.0
 70
   128
 71
     3
 72
     2
 73
     1
  0
VERTEX
  5
3B8
  8
0
 62
     9
 10
0.0
 20
0.0
 30
0.0
 70
   128
 71
     1
 72
     5
 73
     4
  0
VERTEX
  5
3B9
  8
0
 62
     9
 10
0.0
 20
0.0
 30
0.0
 70
   128
 71
     3
 72
     7
 73
     6
  0
VERTEX
  5
3BA
  8
0
 62
     9
 10
0.0
 20
0.0
 30
0.0
 70
   128
 71
     7
 72
     9
 73
     8
  0
VERTEX
  5
3BB
  8
0
 62
     9
 10
0.0
 20
0.0
 30
0.0
 70
   128
 71
     9
 72
    11
 73
    10
  0
VERTEX
  5
3BC
  8
0
 62
     9
 10
0.0
 20
0.0
 30
0.0
 70
   128
 71
    11
 72
    13
 73
    12
  0
VERTEX
  5
3BD
  8
0
 62
     9
 10
0.0
 20
0.0
 30
0.0
 70
   128
 71
    15
 72
    14
 73
    12
  0
VERTEX
  5
3BE
  8
0
 62
     9
 10
0.0
 20
0.0
 30
0.0
 70
   128
 71
    15
 72
    17
 73
    16
  0
VERTEX
  5
3BF
  8
0
 62
     9
 10
0.0
 20
0.0
 30
0.0
 70
   128
 71
    19
 72
    18
 73
    16
  0
VERTEX
  5
3C0
  8
0
 62
     9
 10
0.0
 20
0.0
 30
0.0
 70
   128
 71
    19
 72
    21
 73
    20
  0
VERTEX
  5
3C1
  8
0
 62
     9
 10
0.0
 20
0.0
 30
0.0
 70
   128
 71
    21
 72
    23
 73
    22
  0
VERTEX
  5
3C2
  8
0
 62
     9
 10
0.0
 20
0.0
 30
0.0
 70
   128
 71
    23
 72
    25
 73
    24
  0
VERTEX
  5
3C3
  8
0
 62
     9
 10
0.0
 20
0.0
 30
0.0
 70
   128
 71
    25
 72
    27
 73
    26
  0
VERTEX
  5
3C4
  8
0
 62
     9
 10
0.0
 20
0.0
 30
0.0
 70
   128
 71
    27
 72
     4
 73
     5
  0
VERTEX
  5
3C5
  8
0
 62
     9
 10
0.0
 20
0.0
 30
0.0
 70
   128
 71
     4
 72
    29
 73
    28
  0
VERTEX
  5
3C6
  8
0
 62
     9
 10
0.0
 20
0.0
 30
0.0
 70
   128
 71
     3
 72
    28
 73
    30
  0
VERTEX
  5
3C7
  8
0
 62
     9
 10
0.0
 20
0.0
 30
0.0
 70
   128
 71
     7
 72
    30
 73
    31
  0
VERTEX
  5
3C8
  8
0
 62
     9
 10
0.0
 20
0.0
 30
0.0
 70
   128
 71
     9
 72
    31
 73
    32
  0
VERTEX
  5
3C9
  8
0
 62
     9
 10
0.0
 20
0.0
 30
0.0
 70
   128
 71
    13
 72
    11
 73
    32
  0
VERTEX
  5
3CA
  8
0
 62
     9
 10
0.0
 20
0.0
 30
0.0
 70
   128
 71
    13
 72
    34
 73
    33
  0
VERTEX
  5
3CB
  8
0
 62
     9
 10
0.0
 20
0.0
 30
0.0
 70
   128
 71
    17
 72
    15
 73
    33
  0
VERTEX
  5
3CC
  8
0
 62
     9
 10
0.0
 20
0.0
 30
0.0
 70
   128
 71
    17
 72
    36
 73
    35
  0
VERTEX
  5
3CD
  8
0
 62
     9
 10
0.0
 20
0.0
 30
0.0
 70
   128
 71
    21
 72
    19
 73
    35
  0
VERTEX
  5
3CE
  8
0
 62
     9
 10
0.0
 20
0.0
 30
0.0
 70
   128
 71
    37
 72
    23
 73
    21
  0
VERTEX
  5
3CF
  8
0
 62
     9
 10
0.0
 20
0.0
 30
0.0
 70
   128
 71
    37
 72
    38
 73
    23
  0
VERTEX
  5
3D0
  8
0
 62
     9
 10
0.0
 20
0.0
 30
0.0
 70
   128
 71
    23
 72
    38
 73
    39
  0
VERTEX
  5
3D1
  8
0
 62
     9
 10
0.0
 20
0.0
 30
0.0
 70
   128
 71
    27
 72
    25
 73
    39
  0
VERTEX
  5
3D2
  8
0
 62
     9
 10
0.0
 20
0.0
 30
0.0
 70
   128
 71
     4
 72
    27
 73
    40
  0
VERTEX
  5
3D3
  8
0
 62
     9
 10
0.0
 20
0.0
 30
0.0
 70
   128
 71
    40
 72
    29
 73
     4
  0
VERTEX
  5
3D4
  8
0
 62
     9
 10
0.0
 20
0.0
 30
0.0
 70
   128
 71
    39
 72
    40
 73
    27
  0
VERTEX
  5
3D5
  8
0
 62
     9
 10
0.0
 20
0.0
 30
0.0
 70
   128
 71
    39
 72
    25
 73
    23
  0
VERTEX
  5
3D6
  8
0
 62
     9
 10
0.0
 20
0.0
 30
0.0
 70
   128
 71
    21
 72
    41
 73
    37
  0
VERTEX
  5
3D7
  8
0
 62
     9
 10
0.0
 20
0.0
 30
0.0
 70
   128
 71
    35
 72
    41
 73
    21
  0
VERTEX
  5
3D8
  8
0
 62
     9
 10
0.0
 20
0.0
 30
0.0
 70
   128
 71
    35
 72
    19
 73
    17
  0
VERTEX
  5
3D9
  8
0
 62
     9
 10
0.0
 20
0.0
 30
0.0
 70
   128
 71
    33
 72
    36
 73
    17
  0
VERTEX
  5
3DA
  8
0
 62
     9
 10
0.0
 20
0.0
 30
0.0
 70
   128
 71
    33
 72
    15
 73
    13
  0
VERTEX
  5
3DB
  8
0
 62
     9
 10
0.0
 20
0.0
 30
0.0
 70
   128
 71
    32
 72
    34
 73
    13
  0
VERTEX
  5
3DC
  8
0
 62
     9
 10
0.0
 20
0.0
 30
0.0
 70
   128
 71
    32
 72
    11
 73
     9
  0
VERTEX
  5
3DD
  8
0
 62
     9
 10
0.0
 20
0.0
 30
0.0
 70
   128
 71
    31
 72
     9
 73
     7
  0
VERTEX
  5
3DE
  8
0
 62
     9
 10
0.0
 20
0.0
 30
0.0
 70
   128
 71
    30
 72
     7
 73
     3
  0
VERTEX
  5
3DF
  8
0
 62
     9
 10
0.0
 20
0.0
 30
0.0
 70
   128
 71
    28
 72
     3
 73
     4
  0
VERTEX
  5
3E0
  8
0
 62
     9
 10
0.0
 20
0.0
 30
0.0
 70
   128
 71
     5
 72
    26
 73
    27
  0
VERTEX
  5
3E1
  8
0
 62
     9
 10
0.0
 20
0.0
 30
0.0
 70
   128
 71
    26
 72
    24
 73
    25
  0
VERTEX
  5
3E2
  8
0
 62
     9
 10
0.0
 20
0.0
 30
0.0
 70
   128
 71
    24
 72
    22
 73
    23
  0
VERTEX
  5
3E3
  8
0
 62
     9
 10
0.0
 20
0.0
 30
0.0
 70
   128
 71
    22
 72
    20
 73
    21
  0
VERTEX
  5
3E4
  8
0
 62
     9
 10
0.0
 20
0.0
 30
0.0
 70
   128
 71
    20
 72
    18
 73
    19
  0
VERTEX
  5
3E5
  8
0
 62
     9
 10
0.0
 20
0.0
 30
0.0
 70
   128
 71
    16
 72
    17
 73
    19
  0
VERTEX
  5
3E6
  8
0
 62
     9
 10
0.0
 20
0.0
 30
0.0
 70
   128
 71
    16
 72
    14
 73
    15
  0
VERTEX
  5
3E7
  8
0
 62
     9
 10
0.0
 20
0.0
 30
0.0
 70
   128
 71
    12
 72
    13
 73
    15
  0
VERTEX
  5
3E8
  8
0
 62
     9
 10
0.0
 20
0.0
 30
0.0
 70
   128
 71
    12
 72
    10
 73
    11
  0
VERTEX
  5
3E9
  8
0
 62
     9
 10
0.0
 20
0.0
 30
0.0
 70
   128
 71
    10
 72
     8
 73
     9
  0
VERTEX
  5
3EA
  8
0
 62
     9
 10
0.0
 20
0.0
 30
0.0
 70
   128
 71
     8
 72
     6
 73
     7
  0
VERTEX
  5
3EB
  8
0
 62
     9
 10
0.0
 20
0.0
 30
0.0
 70
   128
 71
     6
 72
     2
 73
     3
  0
VERTEX
  5
3EC
  8
0
 62
     9
 10
0.0
 20
0.0
 30
0.0
 70
   128
 71
     1
 72
     4
 73
     3
  0
SEQEND
  5
3ED
  8
0
 62
     9
  0
ENDBLK
  5
3F0
  8
0
  0
BLOCK
  8
0
  2
E3_NODE_17_
 70
     0
 10
0.0
 20
0.0
 30
0.0
  3
E3_NODE_17_
  1

  0
POLYLINE
  5
3F2
  8
0
 62
     9
 66
     1
 10
0.0
 20
0.0
 30
0.0
 70
    64
 71
    26
 72
    26
  0
VERTEX
  5
3F3
  8
0
 10
10.8439998626709
 20
75.0
 30
7.849999904632568
 70
   192
  0
VERTEX
  5
3F4
  8
0
 10
23.3439998626709
 20
78.3489990234375
 30
7.849999904632568
 70
   192
  0
VERTEX
  5
3F5
  8
0
 10
17.31900024414062
 20
87.30599975585938
 30
7.849999904632568
 70
   192
  0
VERTEX
  5
3F6
  8
0
 10
-10.80700016021729
 20
112.5
 30
7.849999904632568
 70
   192
  0
VERTEX
  5
3F7
  8
0
 10
-2.421000003814697
 20
105.2070007324219
 30
7.849999904632568
 70
   192
  0
VERTEX
  5
3F8
  8
0
 10
1.519000053405762
 20
110.7750015258789
 30
7.849999904632568
 70
   192
  0
VERTEX
  5
3F9
  8
0
 10
-14.1560001373291
 20
100.0
 30
7.849999904632568
 70
   192
  0
VERTEX
  5
3FA
  8
0
 10
-3.321000099182129
 20
98.4469985961914
 30
7.849999904632568
 70
   192
  0
VERTEX
  5
3FB
  8
0
 10
-10.80700016021729
 20
87.5
 30
7.849999904632568
 70
   192
  0
VERTEX
  5
3FC
  8
0
 10
-0.9769999980926514
 20
92.04199981689453
 30
7.849999904632568
 70
   192
  0
VERTEX
  5
3FD
  8
0
 10
-1.656000018119812
 20
78.3489990234375
 30
7.849999904632568
 70
   192
  0
VERTEX
  5
3FE
  8
0
 10
4.076000213623047
 20
87.45999908447266
 30
7.849999904632568
 70
   192
  0
VERTEX
  5
3FF
  8
0
 10
10.67899990081787
 20
85.7509994506836
 30
7.849999904632568
 70
   192
  0
VERTEX
  5
400
  8
0
 10
10.8439998626709
 20
85.75
 30
7.849999904632568
 70
   192
  0
VERTEX
  5
401
  8
0
 10
23.3439998626709
 20
121.6510009765625
 30
7.849999904632568
 70
   192
  0
VERTEX
  5
402
  8
0
 10
10.8439998626709
 20
125.0
 30
7.849999904632568
 70
   192
  0
VERTEX
  5
403
  8
0
 10
14.41399955749512
 20
113.7949981689453
 30
7.849999904632568
 70
   192
  0
VERTEX
  5
404
  8
0
 10
32.49499893188477
 20
87.5
 30
7.849999904632568
 70
   192
  0
VERTEX
  5
405
  8
0
 10
22.47699928283691
 20
91.7699966430664
 30
7.849999904632568
 70
   192
  0
VERTEX
  5
406
  8
0
 10
35.84400177001953
 20
100.0
 30
7.849999904632568
 70
   192
  0
VERTEX
  5
407
  8
0
 10
32.49499893188477
 20
112.5
 30
7.849999904632568
 70
   192
  0
VERTEX
  5
408
  8
0
 10
24.22599983215332
 20
104.8980026245117
 30
7.849999904632568
 70
   192
  0
VERTEX
  5
409
  8
0
 10
20.41699981689453
 20
110.5559997558594
 30
7.849999904632568
 70
   192
  0
VERTEX
  5
40A
  8
0
 10
7.593999862670898
 20
113.875
 30
7.849999904632568
 70
   192
  0
VERTEX
  5
40B
  8
0
 10
-1.656000018119812
 20
121.6510009765625
 30
7.849999904632568
 70
   192
  0
VERTEX
  5
40C
  8
0
 10
24.9689998626709
 20
98.11799621582031
 30
7.849999904632568
 70
   192
  0
VERTEX
  5
40D
  8
0
 62
     9
 10
0.0
 20
0.0
 30
0.0
 70
   128
 71
     3
 72
     2
 73
     1
  0
VERTEX
  5
40E
  8
0
 62
     9
 10
0.0
 20
0.0
 30
0.0
 70
   128
 71
     6
 72
     5
 73
     4
  0
VERTEX
  5
40F
  8
0
 62
     9
 10
0.0
 20
0.0
 30
0.0
 70
   128
 71
     5
 72
     8
 73
     7
  0
VERTEX
  5
410
  8
0
 62
     9
 10
0.0
 20
0.0
 30
0.0
 70
   128
 71
     8
 72
    10
 73
     9
  0
VERTEX
  5
411
  8
0
 62
     9
 10
0.0
 20
0.0
 30
0.0
 70
   128
 71
    10
 72
    12
 73
    11
  0
VERTEX
  5
412
  8
0
 62
     9
 10
0.0
 20
0.0
 30
0.0
 70
   128
 71
    12
 72
    13
 73
     1
  0
VERTEX
  5
413
  8
0
 62
     9
 10
0.0
 20
0.0
 30
0.0
 70
   128
 71
     1
 72
    14
 73
     3
  0
VERTEX
  5
414
  8
0
 62
     9
 10
0.0
 20
0.0
 30
0.0
 70
   128
 71
    17
 72
    16
 73
    15
  0
VERTEX
  5
415
  8
0
 62
     9
 10
0.0
 20
0.0
 30
0.0
 70
   128
 71
     7
 72
     4
 73
     5
  0
VERTEX
  5
416
  8
0
 62
     9
 10
0.0
 20
0.0
 30
0.0
 70
   128
 71
    11
 72
     9
 73
    10
  0
VERTEX
  5
417
  8
0
 62
     9
 10
0.0
 20
0.0
 30
0.0
 70
   128
 71
     1
 72
    13
 73
    14
  0
VERTEX
  5
418
  8
0
 62
     9
 10
0.0
 20
0.0
 30
0.0
 70
   128
 71
    19
 72
    18
 73
     2
  0
VERTEX
  5
419
  8
0
 62
     9
 10
0.0
 20
0.0
 30
0.0
 70
   128
 71
    22
 72
    21
 73
    20
  0
VERTEX
  5
41A
  8
0
 62
     9
 10
0.0
 20
0.0
 30
0.0
 70
   128
 71
    23
 72
    15
 73
    21
  0
VERTEX
  5
41B
  8
0
 62
     9
 10
0.0
 20
0.0
 30
0.0
 70
   128
 71
    17
 72
    24
 73
    16
  0
VERTEX
  5
41C
  8
0
 62
     9
 10
0.0
 20
0.0
 30
0.0
 70
   128
 71
    24
 72
     6
 73
    25
  0
VERTEX
  5
41D
  8
0
 62
     9
 10
0.0
 20
0.0
 30
0.0
 70
   128
 71
     9
 72
     7
 73
     8
  0
VERTEX
  5
41E
  8
0
 62
     9
 10
0.0
 20
0.0
 30
0.0
 70
   128
 71
     2
 72
     3
 73
    19
  0
VERTEX
  5
41F
  8
0
 62
     9
 10
0.0
 20
0.0
 30
0.0
 70
   128
 71
    21
 72
    22
 73
    23
  0
VERTEX
  5
420
  8
0
 62
     9
 10
0.0
 20
0.0
 30
0.0
 70
   128
 71
    25
 72
    16
 73
    24
  0
VERTEX
  5
421
  8
0
 62
     9
 10
0.0
 20
0.0
 30
0.0
 70
   128
 71
     1
 72
    11
 73
    12
  0
VERTEX
  5
422
  8
0
 62
     9
 10
0.0
 20
0.0
 30
0.0
 70
   128
 71
    26
 72
    20
 73
    18
  0
VERTEX
  5
423
  8
0
 62
     9
 10
0.0
 20
0.0
 30
0.0
 70
   128
 71
    15
 72
    23
 73
    17
  0
VERTEX
  5
424
  8
0
 62
     9
 10
0.0
 20
0.0
 30
0.0
 70
   128
 71
    18
 72
    19
 73
    26
  0
VERTEX
  5
425
  8
0
 62
     9
 10
0.0
 20
0.0
 30
0.0
 70
   128
 71
     4
 72
    25
 73
     6
  0
VERTEX
  5
426
  8
0
 62
     9
 10
0.0
 20
0.0
 30
0.0
 70
   128
 71
    20
 72
    26
 73
    22
  0
SEQEND
  5
427
  8
0
 62
     9
  0
ENDBLK
  5
42A
  8
0
  0
BLOCK
  8
0
  2
E3_NODE_18_
 70
     0
 10
0.0
 20
0.0
 30
0.0
  3
E3_NODE_18_
  1

  0
POLYLINE
  5
42C
  8
0
 62
     9
 66
     1
 10
0.0
 20
0.0
 30
0.0
 70
    64
 71
    24
 72
    24
  0
VERTEX
  5
42D
  8
0
 10
-1.656000018119812
 20
121.6510009765625
 30
7.849999904632568
 70
   192
  0
VERTEX
  5
42E
  8
0
 10
10.8439998626709
 20
125.0
 30
7.849999904632568
 70
   192
  0
VERTEX
  5
42F
  8
0
 10
10.8439998626709
 20
125.0
 30
1.850000023841858
 70
   192
  0
VERTEX
  5
430
  8
0
 10
-10.80700016021729
 20
112.5
 30
7.849999904632568
 70
   192
  0
VERTEX
  5
431
  8
0
 10
-1.656000018119812
 20
121.6510009765625
 30
1.850000023841858
 70
   192
  0
VERTEX
  5
432
  8
0
 10
-10.80700016021729
 20
112.5
 30
1.850000023841858
 70
   192
  0
VERTEX
  5
433
  8
0
 10
-14.1560001373291
 20
100.0
 30
1.850000023841858
 70
   192
  0
VERTEX
  5
434
  8
0
 10
-14.1560001373291
 20
100.0
 30
7.849999904632568
 70
   192
  0
VERTEX
  5
435
  8
0
 10
-10.80700016021729
 20
87.5
 30
1.850000023841858
 70
   192
  0
VERTEX
  5
436
  8
0
 10
-10.80700016021729
 20
87.5
 30
7.849999904632568
 70
   192
  0
VERTEX
  5
437
  8
0
 10
-1.656000018119812
 20
78.3489990234375
 30
1.850000023841858
 70
   192
  0
VERTEX
  5
438
  8
0
 10
10.8439998626709
 20
75.0
 30
1.850000023841858
 70
   192
  0
VERTEX
  5
439
  8
0
 10
10.8439998626709
 20
75.0
 30
7.849999904632568
 70
   192
  0
VERTEX
  5
43A
  8
0
 10
-1.656000018119812
 20
78.3489990234375
 30
7.849999904632568
 70
   192
  0
VERTEX
  5
43B
  8
0
 10
23.3439998626709
 20
78.3489990234375
 30
1.850000023841858
 70
   192
  0
VERTEX
  5
43C
  8
0
 10
23.3439998626709
 20
78.3489990234375
 30
7.849999904632568
 70
   192
  0
VERTEX
  5
43D
  8
0
 10
32.49499893188477
 20
87.5
 30
1.850000023841858
 70
   192
  0
VERTEX
  5
43E
  8
0
 10
35.84400177001953
 20
100.0
 30
1.850000023841858
 70
   192
  0
VERTEX
  5
43F
  8
0
 10
35.84400177001953
 20
100.0
 30
7.849999904632568
 70
   192
  0
VERTEX
  5
440
  8
0
 10
32.49499893188477
 20
87.5
 30
7.849999904632568
 70
   192
  0
VERTEX
  5
441
  8
0
 10
32.49499893188477
 20
112.5
 30
1.850000023841858
 70
   192
  0
VERTEX
  5
442
  8
0
 10
32.49499893188477
 20
112.5
 30
7.849999904632568
 70
   192
  0
VERTEX
  5
443
  8
0
 10
23.3439998626709
 20
121.6510009765625
 30
7.849999904632568
 70
   192
  0
VERTEX
  5
444
  8
0
 10
23.3439998626709
 20
121.6510009765625
 30
1.850000023841858
 70
   192
  0
VERTEX
  5
445
  8
0
 62
     9
 10
0.0
 20
0.0
 30
0.0
 70
   128
 71
     3
 72
     2
 73
     1
  0
VERTEX
  5
446
  8
0
 62
     9
 10
0.0
 20
0.0
 30
0.0
 70
   128
 71
     5
 72
     1
 73
     4
  0
VERTEX
  5
447
  8
0
 62
     9
 10
0.0
 20
0.0
 30
0.0
 70
   128
 71
     8
 72
     7
 73
     6
  0
VERTEX
  5
448
  8
0
 62
     9
 10
0.0
 20
0.0
 30
0.0
 70
   128
 71
     8
 72
    10
 73
     9
  0
VERTEX
  5
449
  8
0
 62
     9
 10
0.0
 20
0.0
 30
0.0
 70
   128
 71
    11
 72
     9
 73
    10
  0
VERTEX
  5
44A
  8
0
 62
     9
 10
0.0
 20
0.0
 30
0.0
 70
   128
 71
    14
 72
    13
 73
    12
  0
VERTEX
  5
44B
  8
0
 62
     9
 10
0.0
 20
0.0
 30
0.0
 70
   128
 71
    13
 72
    16
 73
    15
  0
VERTEX
  5
44C
  8
0
 62
     9
 10
0.0
 20
0.0
 30
0.0
 70
   128
 71
    17
 72
    15
 73
    16
  0
VERTEX
  5
44D
  8
0
 62
     9
 10
0.0
 20
0.0
 30
0.0
 70
   128
 71
    20
 72
    19
 73
    18
  0
VERTEX
  5
44E
  8
0
 62
     9
 10
0.0
 20
0.0
 30
0.0
 70
   128
 71
    22
 72
    21
 73
    18
  0
VERTEX
  5
44F
  8
0
 62
     9
 10
0.0
 20
0.0
 30
0.0
 70
   128
 71
    21
 72
    22
 73
    23
  0
VERTEX
  5
450
  8
0
 62
     9
 10
0.0
 20
0.0
 30
0.0
 70
   128
 71
    24
 72
    23
 73
     2
  0
VERTEX
  5
451
  8
0
 62
     9
 10
0.0
 20
0.0
 30
0.0
 70
   128
 71
     2
 72
     3
 73
    24
  0
VERTEX
  5
452
  8
0
 62
     9
 10
0.0
 20
0.0
 30
0.0
 70
   128
 71
    23
 72
    24
 73
    21
  0
VERTEX
  5
453
  8
0
 62
     9
 10
0.0
 20
0.0
 30
0.0
 70
   128
 71
    18
 72
    19
 73
    22
  0
VERTEX
  5
454
  8
0
 62
     9
 10
0.0
 20
0.0
 30
0.0
 70
   128
 71
    18
 72
    17
 73
    20
  0
VERTEX
  5
455
  8
0
 62
     9
 10
0.0
 20
0.0
 30
0.0
 70
   128
 71
    16
 72
    20
 73
    17
  0
VERTEX
  5
456
  8
0
 62
     9
 10
0.0
 20
0.0
 30
0.0
 70
   128
 71
    15
 72
    12
 73
    13
  0
VERTEX
  5
457
  8
0
 62
     9
 10
0.0
 20
0.0
 30
0.0
 70
   128
 71
    12
 72
    11
 73
    14
  0
VERTEX
  5
458
  8
0
 62
     9
 10
0.0
 20
0.0
 30
0.0
 70
   128
 71
    10
 72
    14
 73
    11
  0
VERTEX
  5
459
  8
0
 62
     9
 10
0.0
 20
0.0
 30
0.0
 70
   128
 71
     9
 72
     7
 73
     8
  0
VERTEX
  5
45A
  8
0
 62
     9
 10
0.0
 20
0.0
 30
0.0
 70
   128
 71
     6
 72
     4
 73
     8
  0
VERTEX
  5
45B
  8
0
 62
     9
 10
0.0
 20
0.0
 30
0.0
 70
   128
 71
     4
 72
     6
 73
     5
  0
VERTEX
  5
45C
  8
0
 62
     9
 10
0.0
 20
0.0
 30
0.0
 70
   128
 71
     1
 72
     5
 73
     3
  0
SEQEND
  5
45D
  8
0
 62
     9
  0
ENDBLK
  5
460
  8
0
  0
BLOCK
  8
0
  2
E3_NODE_19_
 70
     0
 10
0.0
 20
0.0
 30
0.0
  3
E3_NODE_19_
  1

  0
POLYLINE
  5
462
  8
0
 62
     9
 66
     1
 10
0.0
 20
0.0
 30
0.0
 70
    64
 71
    12
 72
    10
  0
VERTEX
  5
463
  8
0
 10
-10.80700016021729
 20
112.5
 30
1.850000023841858
 70
   192
  0
VERTEX
  5
464
  8
0
 10
-1.656000018119812
 20
78.3489990234375
 30
1.850000023841858
 70
   192
  0
VERTEX
  5
465
  8
0
 10
-10.80700016021729
 20
87.5
 30
1.850000023841858
 70
   192
  0
VERTEX
  5
466
  8
0
 10
10.8439998626709
 20
125.0
 30
1.850000023841858
 70
   192
  0
VERTEX
  5
467
  8
0
 10
32.49499893188477
 20
112.5
 30
1.850000023841858
 70
   192
  0
VERTEX
  5
468
  8
0
 10
35.84400177001953
 20
100.0
 30
1.850000023841858
 70
   192
  0
VERTEX
  5
469
  8
0
 10
10.8439998626709
 20
75.0
 30
1.850000023841858
 70
   192
  0
VERTEX
  5
46A
  8
0
 10
32.49499893188477
 20
87.5
 30
1.850000023841858
 70
   192
  0
VERTEX
  5
46B
  8
0
 10
23.3439998626709
 20
78.3489990234375
 30
1.850000023841858
 70
   192
  0
VERTEX
  5
46C
  8
0
 10
23.3439998626709
 20
121.6510009765625
 30
1.850000023841858
 70
   192
  0
VERTEX
  5
46D
  8
0
 10
-1.656000018119812
 20
121.6510009765625
 30
1.850000023841858
 70
   192
  0
VERTEX
  5
46E
  8
0
 10
-14.1560001373291
 20
100.0
 30
1.850000023841858
 70
   192
  0
VERTEX
  5
46F
  8
0
 62
     9
 10
0.0
 20
0.0
 30
0.0
 70
   128
 71
     3
 72
     2
 73
     1
  0
VERTEX
  5
470
  8
0
 62
     9
 10
0.0
 20
0.0
 30
0.0
 70
   128
 71
     6
 72
     5
 73
     4
  0
VERTEX
  5
471
  8
0
 62
     9
 10
0.0
 20
0.0
 30
0.0
 70
   128
 71
     2
 72
     7
 73
     1
  0
VERTEX
  5
472
  8
0
 62
     9
 10
0.0
 20
0.0
 30
0.0
 70
   128
 71
     9
 72
     8
 73
     1
  0
VERTEX
  5
473
  8
0
 62
     9
 10
0.0
 20
0.0
 30
0.0
 70
   128
 71
     5
 72
    10
 73
     4
  0
VERTEX
  5
474
  8
0
 62
     9
 10
0.0
 20
0.0
 30
0.0
 70
   128
 71
    11
 72
     1
 73
     8
  0
VERTEX
  5
475
  8
0
 62
     9
 10
0.0
 20
0.0
 30
0.0
 70
   128
 71
     1
 72
     7
 73
     9
  0
VERTEX
  5
476
  8
0
 62
     9
 10
0.0
 20
0.0
 30
0.0
 70
   128
 71
     8
 72
     4
 73
    11
  0
VERTEX
  5
477
  8
0
 62
     9
 10
0.0
 20
0.0
 30
0.0
 70
   128
 71
     4
 72
     8
 73
     6
  0
VERTEX
  5
478
  8
0
 62
     9
 10
0.0
 20
0.0
 30
0.0
 70
   128
 71
     1
 72
    12
 73
     3
  0
SEQEND
  5
479
  8
0
 62
     9
  0
ENDBLK
  5
47C
  8
0
  0
BLOCK
  8
0
  2
E3_NODE_20_
 70
     0
 10
0.0
 20
0.0
 30
0.0
  3
E3_NODE_20_
  1

  0
POLYLINE
  5
47E
  8
0
 62
     9
 66
     1
 10
0.0
 20
0.0
 30
0.0
 70
    64
 71
    29
 72
    31
  0
VERTEX
  5
47F
  8
0
 10
14.60999965667725
 20
153.3410034179688
 30
51.83200073242188
 70
   192
  0
VERTEX
  5
480
  8
0
 10
17.8390007019043
 20
150.1130065917969
 30
51.83200073242188
 70
   192
  0
VERTEX
  5
481
  8
0
 10
16.62899971008301
 20
149.4620056152344
 30
51.34099960327148
 70
   192
  0
VERTEX
  5
482
  8
0
 10
18.47200012207031
 20
146.3459930419922
 30
51.83000183105469
 70
   192
  0
VERTEX
  5
483
  8
0
 10
17.3799991607666
 20
146.3459930419922
 30
51.4379997253418
 70
   192
  0
VERTEX
  5
484
  8
0
 10
18.75300025939941
 20
146.3459930419922
 30
51.93000030517578
 70
   192
  0
VERTEX
  5
485
  8
0
 10
16.42799949645996
 20
146.3459930419922
 30
51.09799957275391
 70
   192
  0
VERTEX
  5
486
  8
0
 10
13.95899963378906
 20
152.1309967041016
 30
51.34099960327148
 70
   192
  0
VERTEX
  5
487
  8
0
 10
10.8439998626709
 20
148.8910064697266
 30
50.69699859619141
 70
   192
  0
VERTEX
  5
488
  8
0
 10
10.8439998626709
 20
150.4570007324219
 30
50.8390007019043
 70
   192
  0
VERTEX
  5
489
  8
0
 10
10.8439998626709
 20
146.3459930419922
 30
50.65000152587891
 70
   192
  0
VERTEX
  5
48A
  8
0
 10
10.8439998626709
 20
151.822998046875
 30
51.12799835205078
 70
   192
  0
VERTEX
  5
48B
  8
0
 10
10.8439998626709
 20
152.9129943847656
 30
51.35900115966797
 70
   192
  0
VERTEX
  5
48C
  8
0
 10
10.8439998626709
 20
153.1439971923828
 30
51.40800094604492
 70
   192
  0
VERTEX
  5
48D
  8
0
 10
10.8439998626709
 20
153.64599609375
 30
51.72900009155273
 70
   192
  0
VERTEX
  5
48E
  8
0
 10
10.8439998626709
 20
154.1499938964844
 30
52.05199813842773
 70
   192
  0
VERTEX
  5
48F
  8
0
 10
10.8439998626709
 20
156.6970062255859
 30
53.68099975585938
 70
   192
  0
VERTEX
  5
490
  8
0
 10
13.92000007629395
 20
156.2389984130859
 30
53.69400024414062
 70
   192
  0
VERTEX
  5
491
  8
0
 10
14.71000003814697
 20
155.8699951171875
 30
53.70299911499023
 70
   192
  0
VERTEX
  5
492
  8
0
 10
18.06800079345703
 20
153.6390075683594
 30
53.75
 70
   192
  0
VERTEX
  5
493
  8
0
 10
19.10600090026855
 20
152.6849975585938
 30
53.76900100708008
 70
   192
  0
VERTEX
  5
494
  8
0
 10
16.60600090026855
 20
154.9830017089844
 30
53.7239990234375
 70
   192
  0
VERTEX
  5
495
  8
0
 10
15.72299957275391
 20
155.39599609375
 30
53.7140007019043
 70
   192
  0
VERTEX
  5
496
  8
0
 10
20.37100028991699
 20
150.3399963378906
 30
53.79700088500977
 70
   192
  0
VERTEX
  5
497
  8
0
 10
19.50200080871582
 20
146.3459930419922
 30
52.19900131225586
 70
   192
  0
VERTEX
  5
498
  8
0
 10
20.75399971008301
 20
149.6300048828125
 30
53.80599975585938
 70
   192
  0
VERTEX
  5
499
  8
0
 10
21.29100036621094
 20
146.5079956054688
 30
53.81800079345703
 70
   192
  0
VERTEX
  5
49A
  8
0
 10
21.29199981689453
 20
146.3459930419922
 30
53.81800079345703
 70
   192
  0
VERTEX
  5
49B
  8
0
 10
19.89599990844727
 20
151.2209930419922
 30
53.7869987487793
 70
   192
  0
VERTEX
  5
49C
  8
0
 62
     9
 10
0.0
 20
0.0
 30
0.0
 70
   128
 71
     3
 72
     2
 73
     1
  0
VERTEX
  5
49D
  8
0
 62
     9
 10
0.0
 20
0.0
 30
0.0
 70
   128
 71
     5
 72
     4
 73
     2
  0
VERTEX
  5
49E
  8
0
 62
     9
 10
0.0
 20
0.0
 30
0.0
 70
   128
 71
     4
 72
     6
 73
     2
  0
VERTEX
  5
49F
  8
0
 62
     9
 10
0.0
 20
0.0
 30
0.0
 70
   128
 71
     7
 72
     5
 73
     3
  0
VERTEX
  5
4A0
  8
0
 62
     9
 10
0.0
 20
0.0
 30
0.0
 70
   128
 71
    10
 72
     9
 73
     8
  0
VERTEX
  5
4A1
  8
0
 62
     9
 10
0.0
 20
0.0
 30
0.0
 70
   128
 71
     9
 72
    11
 73
     8
  0
VERTEX
  5
4A2
  8
0
 62
     9
 10
0.0
 20
0.0
 30
0.0
 70
   128
 71
     8
 72
    12
 73
    10
  0
VERTEX
  5
4A3
  8
0
 62
     9
 10
0.0
 20
0.0
 30
0.0
 70
   128
 71
    13
 72
     8
 73
     1
  0
VERTEX
  5
4A4
  8
0
 62
     9
 10
0.0
 20
0.0
 30
0.0
 70
   128
 71
     1
 72
    14
 73
    13
  0
VERTEX
  5
4A5
  8
0
 62
     9
 10
0.0
 20
0.0
 30
0.0
 70
   128
 71
     1
 72
    15
 73
    14
  0
VERTEX
  5
4A6
  8
0
 62
     9
 10
0.0
 20
0.0
 30
0.0
 70
   128
 71
    18
 72
    17
 73
    16
  0
VERTEX
  5
4A7
  8
0
 62
     9
 10
0.0
 20
0.0
 30
0.0
 70
   128
 71
    16
 72
     1
 73
    18
  0
VERTEX
  5
4A8
  8
0
 62
     9
 10
0.0
 20
0.0
 30
0.0
 70
   128
 71
     1
 72
    19
 73
    18
  0
VERTEX
  5
4A9
  8
0
 62
     9
 10
0.0
 20
0.0
 30
0.0
 70
   128
 71
    21
 72
    20
 73
     2
  0
VERTEX
  5
4AA
  8
0
 62
     9
 10
0.0
 20
0.0
 30
0.0
 70
   128
 71
    20
 72
    22
 73
     1
  0
VERTEX
  5
4AB
  8
0
 62
     9
 10
0.0
 20
0.0
 30
0.0
 70
   128
 71
    22
 72
    23
 73
     1
  0
VERTEX
  5
4AC
  8
0
 62
     9
 10
0.0
 20
0.0
 30
0.0
 70
   128
 71
     1
 72
     2
 73
    20
  0
VERTEX
  5
4AD
  8
0
 62
     9
 10
0.0
 20
0.0
 30
0.0
 70
   128
 71
    25
 72
    24
 73
     2
  0
VERTEX
  5
4AE
  8
0
 62
     9
 10
0.0
 20
0.0
 30
0.0
 70
   128
 71
    26
 72
    24
 73
    25
  0
VERTEX
  5
4AF
  8
0
 62
     9
 10
0.0
 20
0.0
 30
0.0
 70
   128
 71
    25
 72
    27
 73
    26
  0
VERTEX
  5
4B0
  8
0
 62
     9
 10
0.0
 20
0.0
 30
0.0
 70
   128
 71
    25
 72
    28
 73
    27
  0
VERTEX
  5
4B1
  8
0
 62
     9
 10
0.0
 20
0.0
 30
0.0
 70
   128
 71
    24
 72
    29
 73
     2
  0
VERTEX
  5
4B2
  8
0
 62
     9
 10
0.0
 20
0.0
 30
0.0
 70
   128
 71
     2
 72
     6
 73
    25
  0
VERTEX
  5
4B3
  8
0
 62
     9
 10
0.0
 20
0.0
 30
0.0
 70
   128
 71
     2
 72
    29
 73
    21
  0
VERTEX
  5
4B4
  8
0
 62
     9
 10
0.0
 20
0.0
 30
0.0
 70
   128
 71
     1
 72
    23
 73
    19
  0
VERTEX
  5
4B5
  8
0
 62
     9
 10
0.0
 20
0.0
 30
0.0
 70
   128
 71
     1
 72
    16
 73
    15
  0
VERTEX
  5
4B6
  8
0
 62
     9
 10
0.0
 20
0.0
 30
0.0
 70
   128
 71
     8
 72
    13
 73
    12
  0
VERTEX
  5
4B7
  8
0
 62
     9
 10
0.0
 20
0.0
 30
0.0
 70
   128
 71
     3
 72
    11
 73
     7
  0
VERTEX
  5
4B8
  8
0
 62
     9
 10
0.0
 20
0.0
 30
0.0
 70
   128
 71
     2
 72
     3
 73
     5
  0
VERTEX
  5
4B9
  8
0
 62
     9
 10
0.0
 20
0.0
 30
0.0
 70
   128
 71
     1
 72
     8
 73
     3
  0
VERTEX
  5
4BA
  8
0
 62
     9
 10
0.0
 20
0.0
 30
0.0
 70
   128
 71
     3
 72
     8
 73
    11
  0
SEQEND
  5
4BB
  8
0
 62
     9
  0
ENDBLK
  5
4BE
  8
0
  0
BLOCK
  8
0
  2
E3_NODE_21_
 70
     0
 10
0.0
 20
0.0
 30
0.0
  3
E3_NODE_21_
  1

  0
POLYLINE
  5
4C0
  8
0
 62
     9
 66
     1
 10
0.0
 20
0.0
 30
0.0
 70
    64
 71
    30
 72
    31
  0
VERTEX
  5
4C1
  8
0
 10
21.39299964904785
 20
146.5099945068359
 30
54.30099868774414
 70
   192
  0
VERTEX
  5
4C2
  8
0
 10
21.29100036621094
 20
146.5079956054688
 30
53.81800079345703
 70
   192
  0
VERTEX
  5
4C3
  8
0
 10
20.75399971008301
 20
149.6300048828125
 30
53.80599975585938
 70
   192
  0
VERTEX
  5
4C4
  8
0
 10
20.50399971008301
 20
150.4129943847656
 30
54.45999908447266
 70
   192
  0
VERTEX
  5
4C5
  8
0
 10
21.29000091552734
 20
146.5079956054688
 30
54.44699859619141
 70
   192
  0
VERTEX
  5
4C6
  8
0
 10
19.89599990844727
 20
151.2209930419922
 30
53.7869987487793
 70
   192
  0
VERTEX
  5
4C7
  8
0
 10
19.10600090026855
 20
152.6849975585938
 30
53.76900100708008
 70
   192
  0
VERTEX
  5
4C8
  8
0
 10
20.37100028991699
 20
150.3399963378906
 30
53.79700088500977
 70
   192
  0
VERTEX
  5
4C9
  8
0
 10
18.19099998474121
 20
153.7830047607422
 30
54.4119987487793
 70
   192
  0
VERTEX
  5
4CA
  8
0
 10
14.76399993896484
 20
156.0070037841797
 30
54.3650016784668
 70
   192
  0
VERTEX
  5
4CB
  8
0
 10
16.60600090026855
 20
154.9830017089844
 30
53.7239990234375
 70
   192
  0
VERTEX
  5
4CC
  8
0
 10
15.72299957275391
 20
155.39599609375
 30
53.7140007019043
 70
   192
  0
VERTEX
  5
4CD
  8
0
 10
18.06800079345703
 20
153.6390075683594
 30
53.75
 70
   192
  0
VERTEX
  5
4CE
  8
0
 10
10.8439998626709
 20
156.8170013427734
 30
54.1619987487793
 70
   192
  0
VERTEX
  5
4CF
  8
0
 10
13.92000007629395
 20
156.2389984130859
 30
53.69400024414062
 70
   192
  0
VERTEX
  5
4D0
  8
0
 10
10.8439998626709
 20
156.6970062255859
 30
53.68099975585938
 70
   192
  0
VERTEX
  5
4D1
  8
0
 10
14.71000003814697
 20
155.8699951171875
 30
53.70299911499023
 70
   192
  0
VERTEX
  5
4D2
  8
0
 10
10.8439998626709
 20
156.7149963378906
 30
54.31499862670898
 70
   192
  0
VERTEX
  5
4D3
  8
0
 10
11.1569995880127
 20
156.1999969482422
 30
54.71599960327148
 70
   192
  0
VERTEX
  5
4D4
  8
0
 10
13.80700016021729
 20
155.7559967041016
 30
54.72700119018555
 70
   192
  0
VERTEX
  5
4D5
  8
0
 10
10.8439998626709
 20
156.5110015869141
 30
54.62300109863281
 70
   192
  0
VERTEX
  5
4D6
  8
0
 10
10.8439998626709
 20
156.2050018310547
 30
54.71599960327148
 70
   192
  0
VERTEX
  5
4D7
  8
0
 10
14.51399993896484
 20
155.4080047607422
 30
54.73400115966797
 70
   192
  0
VERTEX
  5
4D8
  8
0
 10
16.59099960327148
 20
154.3860015869141
 30
54.75699996948242
 70
   192
  0
VERTEX
  5
4D9
  8
0
 10
18.99699974060059
 20
151.9720001220703
 30
54.79700088500977
 70
   192
  0
VERTEX
  5
4DA
  8
0
 10
17.69300079345703
 20
153.2799987792969
 30
54.77500152587891
 70
   192
  0
VERTEX
  5
4DB
  8
0
 10
21.07500076293945
 20
146.5050048828125
 30
54.74900054931641
 70
   192
  0
VERTEX
  5
4DC
  8
0
 10
20.43499946594238
 20
148.8880004882812
 30
54.82799911499023
 70
   192
  0
VERTEX
  5
4DD
  8
0
 10
20.76899909973145
 20
146.5
 30
54.83399963378906
 70
   192
  0
VERTEX
  5
4DE
  8
0
 10
19.85400009155273
 20
150.1340026855469
 30
54.81499862670898
 70
   192
  0
VERTEX
  5
4DF
  8
0
 62
     9
 10
0.0
 20
0.0
 30
0.0
 70
   128
 71
     3
 72
     2
 73
     1
  0
VERTEX
  5
4E0
  8
0
 62
     9
 10
0.0
 20
0.0
 30
0.0
 70
   128
 71
     1
 72
     5
 73
     4
  0
VERTEX
  5
4E1
  8
0
 62
     9
 10
0.0
 20
0.0
 30
0.0
 70
   128
 71
     1
 72
     4
 73
     3
  0
VERTEX
  5
4E2
  8
0
 62
     9
 10
0.0
 20
0.0
 30
0.0
 70
   128
 71
     7
 72
     6
 73
     4
  0
VERTEX
  5
4E3
  8
0
 62
     9
 10
0.0
 20
0.0
 30
0.0
 70
   128
 71
     6
 72
     8
 73
     4
  0
VERTEX
  5
4E4
  8
0
 62
     9
 10
0.0
 20
0.0
 30
0.0
 70
   128
 71
     4
 72
     9
 73
     7
  0
VERTEX
  5
4E5
  8
0
 62
     9
 10
0.0
 20
0.0
 30
0.0
 70
   128
 71
    11
 72
     9
 73
    10
  0
VERTEX
  5
4E6
  8
0
 62
     9
 10
0.0
 20
0.0
 30
0.0
 70
   128
 71
    10
 72
    12
 73
    11
  0
VERTEX
  5
4E7
  8
0
 62
     9
 10
0.0
 20
0.0
 30
0.0
 70
   128
 71
    11
 72
    13
 73
     9
  0
VERTEX
  5
4E8
  8
0
 62
     9
 10
0.0
 20
0.0
 30
0.0
 70
   128
 71
    15
 72
    10
 73
    14
  0
VERTEX
  5
4E9
  8
0
 62
     9
 10
0.0
 20
0.0
 30
0.0
 70
   128
 71
    14
 72
    16
 73
    15
  0
VERTEX
  5
4EA
  8
0
 62
     9
 10
0.0
 20
0.0
 30
0.0
 70
   128
 71
    15
 72
    17
 73
    10
  0
VERTEX
  5
4EB
  8
0
 62
     9
 10
0.0
 20
0.0
 30
0.0
 70
   128
 71
    20
 72
    19
 73
    18
  0
VERTEX
  5
4EC
  8
0
 62
     9
 10
0.0
 20
0.0
 30
0.0
 70
   128
 71
    19
 72
    21
 73
    18
  0
VERTEX
  5
4ED
  8
0
 62
     9
 10
0.0
 20
0.0
 30
0.0
 70
   128
 71
    19
 72
    22
 73
    21
  0
VERTEX
  5
4EE
  8
0
 62
     9
 10
0.0
 20
0.0
 30
0.0
 70
   128
 71
    18
 72
    10
 73
    20
  0
VERTEX
  5
4EF
  8
0
 62
     9
 10
0.0
 20
0.0
 30
0.0
 70
   128
 71
    24
 72
    23
 73
    10
  0
VERTEX
  5
4F0
  8
0
 62
     9
 10
0.0
 20
0.0
 30
0.0
 70
   128
 71
    10
 72
     9
 73
    24
  0
VERTEX
  5
4F1
  8
0
 62
     9
 10
0.0
 20
0.0
 30
0.0
 70
   128
 71
    25
 72
     9
 73
     4
  0
VERTEX
  5
4F2
  8
0
 62
     9
 10
0.0
 20
0.0
 30
0.0
 70
   128
 71
    25
 72
    26
 73
     9
  0
VERTEX
  5
4F3
  8
0
 62
     9
 10
0.0
 20
0.0
 30
0.0
 70
   128
 71
    28
 72
     4
 73
    27
  0
VERTEX
  5
4F4
  8
0
 62
     9
 10
0.0
 20
0.0
 30
0.0
 70
   128
 71
    27
 72
    29
 73
    28
  0
VERTEX
  5
4F5
  8
0
 62
     9
 10
0.0
 20
0.0
 30
0.0
 70
   128
 71
    28
 72
    30
 73
     4
  0
VERTEX
  5
4F6
  8
0
 62
     9
 10
0.0
 20
0.0
 30
0.0
 70
   128
 71
     4
 72
     5
 73
    27
  0
VERTEX
  5
4F7
  8
0
 62
     9
 10
0.0
 20
0.0
 30
0.0
 70
   128
 71
     4
 72
    30
 73
    25
  0
VERTEX
  5
4F8
  8
0
 62
     9
 10
0.0
 20
0.0
 30
0.0
 70
   128
 71
     9
 72
    26
 73
    24
  0
VERTEX
  5
4F9
  8
0
 62
     9
 10
0.0
 20
0.0
 30
0.0
 70
   128
 71
    10
 72
    23
 73
    20
  0
VERTEX
  5
4FA
  8
0
 62
     9
 10
0.0
 20
0.0
 30
0.0
 70
   128
 71
    10
 72
    18
 73
    14
  0
VERTEX
  5
4FB
  8
0
 62
     9
 10
0.0
 20
0.0
 30
0.0
 70
   128
 71
    10
 72
    17
 73
    12
  0
VERTEX
  5
4FC
  8
0
 62
     9
 10
0.0
 20
0.0
 30
0.0
 70
   128
 71
     9
 72
    13
 73
     7
  0
VERTEX
  5
4FD
  8
0
 62
     9
 10
0.0
 20
0.0
 30
0.0
 70
   128
 71
     4
 72
     8
 73
     3
  0
SEQEND
  5
4FE
  8
0
 62
     9
  0
ENDBLK
  5
501
  8
0
  0
BLOCK
  8
0
  2
E3_NODE_22_
 70
     0
 10
0.0
 20
0.0
 30
0.0
  3
E3_NODE_22_
  1

  0
POLYLINE
  5
503
  8
0
 62
     9
 66
     1
 10
0.0
 20
0.0
 30
0.0
 70
    64
 71
    33
 72
    34
  0
VERTEX
  5
504
  8
0
 10
7.907000064849854
 20
156.2799987792969
 30
53.69200134277344
 70
   192
  0
VERTEX
  5
505
  8
0
 10
10.8439998626709
 20
156.7149963378906
 30
54.31499862670898
 70
   192
  0
VERTEX
  5
506
  8
0
 10
10.8439998626709
 20
156.8170013427734
 30
54.1619987487793
 70
   192
  0
VERTEX
  5
507
  8
0
 10
6.923999786376953
 20
156.0070037841797
 30
54.3650016784668
 70
   192
  0
VERTEX
  5
508
  8
0
 10
10.8439998626709
 20
156.6970062255859
 30
53.68099975585938
 70
   192
  0
VERTEX
  5
509
  8
0
 10
6.000999927520752
 20
155.3919982910156
 30
53.7140007019043
 70
   192
  0
VERTEX
  5
50A
  8
0
 10
4.986000061035156
 20
154.9190063476562
 30
53.72600173950195
 70
   192
  0
VERTEX
  5
50B
  8
0
 10
6.986999988555908
 20
155.8520050048828
 30
53.70299911499023
 70
   192
  0
VERTEX
  5
50C
  8
0
 10
3.496999979019165
 20
153.7830047607422
 30
54.41299819946289
 70
   192
  0
VERTEX
  5
50D
  8
0
 10
1.184999942779541
 20
150.4129943847656
 30
54.45999908447266
 70
   192
  0
VERTEX
  5
50E
  8
0
 10
2.562000036239624
 20
152.6600036621094
 30
53.76900100708008
 70
   192
  0
VERTEX
  5
50F
  8
0
 10
1.799999952316284
 20
151.2910003662109
 30
53.7859992980957
 70
   192
  0
VERTEX
  5
510
  8
0
 10
3.617000102996826
 20
153.6430053710938
 30
53.75
 70
   192
  0
VERTEX
  5
511
  8
0
 10
0.3980000019073486
 20
146.5079956054688
 30
54.44699859619141
 70
   192
  0
VERTEX
  5
512
  8
0
 10
1.034999966621399
 20
149.9170074462891
 30
53.80400085449219
 70
   192
  0
VERTEX
  5
513
  8
0
 10
0.3970000147819519
 20
146.5079956054688
 30
53.81800079345703
 70
   192
  0
VERTEX
  5
514
  8
0
 10
0.2949999868869781
 20
146.5099945068359
 30
54.30099868774414
 70
   192
  0
VERTEX
  5
515
  8
0
 10
1.281000018119812
 20
150.3580017089844
 30
53.79800033569336
 70
   192
  0
VERTEX
  5
516
  8
0
 10
0.6129999756813049
 20
146.5050048828125
 30
54.74900054931641
 70
   192
  0
VERTEX
  5
517
  8
0
 10
0.9190000295639038
 20
146.5
 30
54.83399963378906
 70
   192
  0
VERTEX
  5
518
  8
0
 10
1.534000039100647
 20
149.7700042724609
 30
54.82199859619141
 70
   192
  0
VERTEX
  5
519
  8
0
 10
1.76199996471405
 20
150.1609954833984
 30
54.81700134277344
 70
   192
  0
VERTEX
  5
51A
  8
0
 10
3.206000089645386
 20
152.6439971923828
 30
54.78799819946289
 70
   192
  0
VERTEX
  5
51B
  8
0
 10
5.388000011444092
 20
154.5829925537109
 30
54.75299835205078
 70
   192
  0
VERTEX
  5
51C
  8
0
 10
3.956000089645386
 20
153.3110046386719
 30
54.7760009765625
 70
   192
  0
VERTEX
  5
51D
  8
0
 10
10.82800006866455
 20
156.2050018310547
 30
54.71599960327148
 70
   192
  0
VERTEX
  5
51E
  8
0
 10
10.8439998626709
 20
156.2050018310547
 30
54.71599960327148
 70
   192
  0
VERTEX
  5
51F
  8
0
 10
10.8439998626709
 20
156.5110015869141
 30
54.62300109863281
 70
   192
  0
VERTEX
  5
520
  8
0
 10
8.95199966430664
 20
156.0240020751953
 30
54.72100067138672
 70
   192
  0
VERTEX
  5
521
  8
0
 10
8.843000411987305
 20
156.0019989013672
 30
54.72100067138672
 70
   192
  0
VERTEX
  5
522
  8
0
 10
8.876999855041504
 20
156.0090026855469
 30
54.72100067138672
 70
   192
  0
VERTEX
  5
523
  8
0
 10
8.229000091552734
 20
155.8569946289062
 30
54.72499847412109
 70
   192
  0
VERTEX
  5
524
  8
0
 10
7.179999828338623
 20
155.3869934082031
 30
54.73500061035156
 70
   192
  0
VERTEX
  5
525
  8
0
 62
     9
 10
0.0
 20
0.0
 30
0.0
 70
   128
 71
     3
 72
     2
 73
     1
  0
VERTEX
  5
526
  8
0
 62
     9
 10
0.0
 20
0.0
 30
0.0
 70
   128
 71
     2
 72
     4
 73
     1
  0
VERTEX
  5
527
  8
0
 62
     9
 10
0.0
 20
0.0
 30
0.0
 70
   128
 71
     1
 72
     5
 73
     3
  0
VERTEX
  5
528
  8
0
 62
     9
 10
0.0
 20
0.0
 30
0.0
 70
   128
 71
     7
 72
     6
 73
     4
  0
VERTEX
  5
529
  8
0
 62
     9
 10
0.0
 20
0.0
 30
0.0
 70
   128
 71
     6
 72
     8
 73
     4
  0
VERTEX
  5
52A
  8
0
 62
     9
 10
0.0
 20
0.0
 30
0.0
 70
   128
 71
     4
 72
     9
 73
     7
  0
VERTEX
  5
52B
  8
0
 62
     9
 10
0.0
 20
0.0
 30
0.0
 70
   128
 71
    11
 72
     9
 73
    10
  0
VERTEX
  5
52C
  8
0
 62
     9
 10
0.0
 20
0.0
 30
0.0
 70
   128
 71
    10
 72
    12
 73
    11
  0
VERTEX
  5
52D
  8
0
 62
     9
 10
0.0
 20
0.0
 30
0.0
 70
   128
 71
    11
 72
    13
 73
     9
  0
VERTEX
  5
52E
  8
0
 62
     9
 10
0.0
 20
0.0
 30
0.0
 70
   128
 71
    15
 72
    10
 73
    14
  0
VERTEX
  5
52F
  8
0
 62
     9
 10
0.0
 20
0.0
 30
0.0
 70
   128
 71
    17
 72
    16
 73
    15
  0
VERTEX
  5
530
  8
0
 62
     9
 10
0.0
 20
0.0
 30
0.0
 70
   128
 71
    15
 72
    14
 73
    17
  0
VERTEX
  5
531
  8
0
 62
     9
 10
0.0
 20
0.0
 30
0.0
 70
   128
 71
    15
 72
    18
 73
    10
  0
VERTEX
  5
532
  8
0
 62
     9
 10
0.0
 20
0.0
 30
0.0
 70
   128
 71
    21
 72
    20
 73
    19
  0
VERTEX
  5
533
  8
0
 62
     9
 10
0.0
 20
0.0
 30
0.0
 70
   128
 71
    19
 72
    14
 73
    10
  0
VERTEX
  5
534
  8
0
 62
     9
 10
0.0
 20
0.0
 30
0.0
 70
   128
 71
    19
 72
    10
 73
    21
  0
VERTEX
  5
535
  8
0
 62
     9
 10
0.0
 20
0.0
 30
0.0
 70
   128
 71
    23
 72
    22
 73
    10
  0
VERTEX
  5
536
  8
0
 62
     9
 10
0.0
 20
0.0
 30
0.0
 70
   128
 71
    10
 72
     9
 73
    23
  0
VERTEX
  5
537
  8
0
 62
     9
 10
0.0
 20
0.0
 30
0.0
 70
   128
 71
    24
 72
     9
 73
     4
  0
VERTEX
  5
538
  8
0
 62
     9
 10
0.0
 20
0.0
 30
0.0
 70
   128
 71
    24
 72
    25
 73
     9
  0
VERTEX
  5
539
  8
0
 62
     9
 10
0.0
 20
0.0
 30
0.0
 70
   128
 71
    28
 72
    27
 73
    26
  0
VERTEX
  5
53A
  8
0
 62
     9
 10
0.0
 20
0.0
 30
0.0
 70
   128
 71
    26
 72
    29
 73
     2
  0
VERTEX
  5
53B
  8
0
 62
     9
 10
0.0
 20
0.0
 30
0.0
 70
   128
 71
    31
 72
    30
 73
     4
  0
VERTEX
  5
53C
  8
0
 62
     9
 10
0.0
 20
0.0
 30
0.0
 70
   128
 71
     4
 72
     2
 73
    31
  0
VERTEX
  5
53D
  8
0
 62
     9
 10
0.0
 20
0.0
 30
0.0
 70
   128
 71
     2
 72
    29
 73
    31
  0
VERTEX
  5
53E
  8
0
 62
     9
 10
0.0
 20
0.0
 30
0.0
 70
   128
 71
    30
 72
    32
 73
     4
  0
VERTEX
  5
53F
  8
0
 62
     9
 10
0.0
 20
0.0
 30
0.0
 70
   128
 71
    32
 72
    33
 73
     4
  0
VERTEX
  5
540
  8
0
 62
     9
 10
0.0
 20
0.0
 30
0.0
 70
   128
 71
    26
 72
     2
 73
    28
  0
VERTEX
  5
541
  8
0
 62
     9
 10
0.0
 20
0.0
 30
0.0
 70
   128
 71
     4
 72
    33
 73
    24
  0
VERTEX
  5
542
  8
0
 62
     9
 10
0.0
 20
0.0
 30
0.0
 70
   128
 71
     9
 72
    25
 73
    23
  0
VERTEX
  5
543
  8
0
 62
     9
 10
0.0
 20
0.0
 30
0.0
 70
   128
 71
    10
 72
    22
 73
    21
  0
VERTEX
  5
544
  8
0
 62
     9
 10
0.0
 20
0.0
 30
0.0
 70
   128
 71
    10
 72
    18
 73
    12
  0
VERTEX
  5
545
  8
0
 62
     9
 10
0.0
 20
0.0
 30
0.0
 70
   128
 71
     9
 72
    13
 73
     7
  0
VERTEX
  5
546
  8
0
 62
     9
 10
0.0
 20
0.0
 30
0.0
 70
   128
 71
     4
 72
     8
 73
     1
  0
SEQEND
  5
547
  8
0
 62
     9
  0
ENDBLK
  5
54A
  8
0
  0
BLOCK
  8
0
  2
E3_NODE_23_
 70
     0
 10
0.0
 20
0.0
 30
0.0
  3
E3_NODE_23_
  1

  0
POLYLINE
  5
54C
  8
0
 62
     9
 66
     1
 10
0.0
 20
0.0
 30
0.0
 70
    64
 71
    28
 72
    30
  0
VERTEX
  5
54D
  8
0
 10
8.256999969482422
 20
151.1849975585938
 30
51.07699966430664
 70
   192
  0
VERTEX
  5
54E
  8
0
 10
6.03000020980835
 20
148.97900390625
 30
51.07699966430664
 70
   192
  0
VERTEX
  5
54F
  8
0
 10
4.36899995803833
 20
149.8869934082031
 30
51.60300064086914
 70
   192
  0
VERTEX
  5
550
  8
0
 10
7.363999843597412
 20
152.8549957275391
 30
51.60300064086914
 70
   192
  0
VERTEX
  5
551
  8
0
 10
10.8439998626709
 20
152.9129943847656
 30
51.35900115966797
 70
   192
  0
VERTEX
  5
552
  8
0
 10
10.8439998626709
 20
151.822998046875
 30
51.12799835205078
 70
   192
  0
VERTEX
  5
553
  8
0
 10
10.8439998626709
 20
153.64599609375
 30
51.72900009155273
 70
   192
  0
VERTEX
  5
554
  8
0
 10
10.8439998626709
 20
153.1439971923828
 30
51.40800094604492
 70
   192
  0
VERTEX
  5
555
  8
0
 10
10.8439998626709
 20
150.4570007324219
 30
50.8390007019043
 70
   192
  0
VERTEX
  5
556
  8
0
 10
10.8439998626709
 20
148.8910064697266
 30
50.69699859619141
 70
   192
  0
VERTEX
  5
557
  8
0
 10
4.671999931335449
 20
146.3459930419922
 30
51.26699829101562
 70
   192
  0
VERTEX
  5
558
  8
0
 10
5.35699987411499
 20
146.3459930419922
 30
51.07699966430664
 70
   192
  0
VERTEX
  5
559
  8
0
 10
2.105000019073486
 20
146.3459930419922
 30
52.58000183105469
 70
   192
  0
VERTEX
  5
55A
  8
0
 10
0.4070000052452087
 20
146.3459930419922
 30
53.80199813842773
 70
   192
  0
VERTEX
  5
55B
  8
0
 10
0.3970000147819519
 20
146.5079956054688
 30
53.81800079345703
 70
   192
  0
VERTEX
  5
55C
  8
0
 10
1.034999966621399
 20
149.9170074462891
 30
53.80400085449219
 70
   192
  0
VERTEX
  5
55D
  8
0
 10
1.281000018119812
 20
150.3580017089844
 30
53.79800033569336
 70
   192
  0
VERTEX
  5
55E
  8
0
 10
1.799999952316284
 20
151.2910003662109
 30
53.7859992980957
 70
   192
  0
VERTEX
  5
55F
  8
0
 10
3.46399998664856
 20
146.3459930419922
 30
51.60300064086914
 70
   192
  0
VERTEX
  5
560
  8
0
 10
3.617000102996826
 20
153.6430053710938
 30
53.75
 70
   192
  0
VERTEX
  5
561
  8
0
 10
4.986000061035156
 20
154.9190063476562
 30
53.72600173950195
 70
   192
  0
VERTEX
  5
562
  8
0
 10
2.562000036239624
 20
152.6600036621094
 30
53.76900100708008
 70
   192
  0
VERTEX
  5
563
  8
0
 10
7.907000064849854
 20
156.2799987792969
 30
53.69200134277344
 70
   192
  0
VERTEX
  5
564
  8
0
 10
10.8439998626709
 20
156.6970062255859
 30
53.68099975585938
 70
   192
  0
VERTEX
  5
565
  8
0
 10
10.8439998626709
 20
154.1499938964844
 30
52.05199813842773
 70
   192
  0
VERTEX
  5
566
  8
0
 10
6.986999988555908
 20
155.8520050048828
 30
53.70299911499023
 70
   192
  0
VERTEX
  5
567
  8
0
 10
6.000999927520752
 20
155.3919982910156
 30
53.7140007019043
 70
   192
  0
VERTEX
  5
568
  8
0
 10
10.8439998626709
 20
146.3459930419922
 30
50.65000152587891
 70
   192
  0
VERTEX
  5
569
  8
0
 62
     9
 10
0.0
 20
0.0
 30
0.0
 70
   128
 71
     3
 72
     2
 73
     1
  0
VERTEX
  5
56A
  8
0
 62
     9
 10
0.0
 20
0.0
 30
0.0
 70
   128
 71
     6
 72
     5
 73
     4
  0
VERTEX
  5
56B
  8
0
 62
     9
 10
0.0
 20
0.0
 30
0.0
 70
   128
 71
     8
 72
     7
 73
     4
  0
VERTEX
  5
56C
  8
0
 62
     9
 10
0.0
 20
0.0
 30
0.0
 70
   128
 71
     4
 72
     5
 73
     8
  0
VERTEX
  5
56D
  8
0
 62
     9
 10
0.0
 20
0.0
 30
0.0
 70
   128
 71
     9
 72
     6
 73
     1
  0
VERTEX
  5
56E
  8
0
 62
     9
 10
0.0
 20
0.0
 30
0.0
 70
   128
 71
     1
 72
    10
 73
     9
  0
VERTEX
  5
56F
  8
0
 62
     9
 10
0.0
 20
0.0
 30
0.0
 70
   128
 71
     2
 72
     3
 73
    11
  0
VERTEX
  5
570
  8
0
 62
     9
 10
0.0
 20
0.0
 30
0.0
 70
   128
 71
    11
 72
    12
 73
     2
  0
VERTEX
  5
571
  8
0
 62
     9
 10
0.0
 20
0.0
 30
0.0
 70
   128
 71
    15
 72
    14
 73
    13
  0
VERTEX
  5
572
  8
0
 62
     9
 10
0.0
 20
0.0
 30
0.0
 70
   128
 71
    13
 72
    16
 73
    15
  0
VERTEX
  5
573
  8
0
 62
     9
 10
0.0
 20
0.0
 30
0.0
 70
   128
 71
    13
 72
    17
 73
    16
  0
VERTEX
  5
574
  8
0
 62
     9
 10
0.0
 20
0.0
 30
0.0
 70
   128
 71
     3
 72
    18
 73
    13
  0
VERTEX
  5
575
  8
0
 62
     9
 10
0.0
 20
0.0
 30
0.0
 70
   128
 71
    13
 72
    19
 73
     3
  0
VERTEX
  5
576
  8
0
 62
     9
 10
0.0
 20
0.0
 30
0.0
 70
   128
 71
    20
 72
     3
 73
     4
  0
VERTEX
  5
577
  8
0
 62
     9
 10
0.0
 20
0.0
 30
0.0
 70
   128
 71
     4
 72
    21
 73
    20
  0
VERTEX
  5
578
  8
0
 62
     9
 10
0.0
 20
0.0
 30
0.0
 70
   128
 71
    22
 72
    18
 73
     3
  0
VERTEX
  5
579
  8
0
 62
     9
 10
0.0
 20
0.0
 30
0.0
 70
   128
 71
     3
 72
    20
 73
    22
  0
VERTEX
  5
57A
  8
0
 62
     9
 10
0.0
 20
0.0
 30
0.0
 70
   128
 71
    25
 72
    24
 73
    23
  0
VERTEX
  5
57B
  8
0
 62
     9
 10
0.0
 20
0.0
 30
0.0
 70
   128
 71
    23
 72
    26
 73
     4
  0
VERTEX
  5
57C
  8
0
 62
     9
 10
0.0
 20
0.0
 30
0.0
 70
   128
 71
    26
 72
    27
 73
     4
  0
VERTEX
  5
57D
  8
0
 62
     9
 10
0.0
 20
0.0
 30
0.0
 70
   128
 71
    23
 72
     4
 73
    25
  0
VERTEX
  5
57E
  8
0
 62
     9
 10
0.0
 20
0.0
 30
0.0
 70
   128
 71
     4
 72
     7
 73
    25
  0
VERTEX
  5
57F
  8
0
 62
     9
 10
0.0
 20
0.0
 30
0.0
 70
   128
 71
     4
 72
    27
 73
    21
  0
VERTEX
  5
580
  8
0
 62
     9
 10
0.0
 20
0.0
 30
0.0
 70
   128
 71
    13
 72
    18
 73
    17
  0
VERTEX
  5
581
  8
0
 62
     9
 10
0.0
 20
0.0
 30
0.0
 70
   128
 71
     3
 72
    19
 73
    11
  0
VERTEX
  5
582
  8
0
 62
     9
 10
0.0
 20
0.0
 30
0.0
 70
   128
 71
    28
 72
     2
 73
    12
  0
VERTEX
  5
583
  8
0
 62
     9
 10
0.0
 20
0.0
 30
0.0
 70
   128
 71
     1
 72
    28
 73
    10
  0
VERTEX
  5
584
  8
0
 62
     9
 10
0.0
 20
0.0
 30
0.0
 70
   128
 71
     4
 72
     1
 73
     6
  0
VERTEX
  5
585
  8
0
 62
     9
 10
0.0
 20
0.0
 30
0.0
 70
   128
 71
    28
 72
     1
 73
     2
  0
VERTEX
  5
586
  8
0
 62
     9
 10
0.0
 20
0.0
 30
0.0
 70
   128
 71
     1
 72
     4
 73
     3
  0
SEQEND
  5
587
  8
0
 62
     9
  0
ENDBLK
  5
58A
  8
0
  0
BLOCK
  8
0
  2
E3_NODE_24_
 70
     0
 10
0.0
 20
0.0
 30
0.0
  3
E3_NODE_24_
  1

  0
POLYLINE
  5
58C
  8
0
 62
     9
 66
     1
 10
0.0
 20
0.0
 30
0.0
 70
    64
 71
    23
 72
    22
  0
VERTEX
  5
58D
  8
0
 10
20.76899909973145
 20
146.5
 30
54.83399963378906
 70
   192
  0
VERTEX
  5
58E
  8
0
 10
1.76199996471405
 20
150.1609954833984
 30
54.81700134277344
 70
   192
  0
VERTEX
  5
58F
  8
0
 10
1.534000039100647
 20
149.7700042724609
 30
54.82199859619141
 70
   192
  0
VERTEX
  5
590
  8
0
 10
3.956000089645386
 20
153.3110046386719
 30
54.7760009765625
 70
   192
  0
VERTEX
  5
591
  8
0
 10
3.206000089645386
 20
152.6439971923828
 30
54.78799819946289
 70
   192
  0
VERTEX
  5
592
  8
0
 10
14.51399993896484
 20
155.4080047607422
 30
54.73400115966797
 70
   192
  0
VERTEX
  5
593
  8
0
 10
7.179999828338623
 20
155.3869934082031
 30
54.73500061035156
 70
   192
  0
VERTEX
  5
594
  8
0
 10
5.388000011444092
 20
154.5829925537109
 30
54.75299835205078
 70
   192
  0
VERTEX
  5
595
  8
0
 10
8.843000411987305
 20
156.0019989013672
 30
54.72100067138672
 70
   192
  0
VERTEX
  5
596
  8
0
 10
8.229000091552734
 20
155.8569946289062
 30
54.72499847412109
 70
   192
  0
VERTEX
  5
597
  8
0
 10
8.876999855041504
 20
156.0090026855469
 30
54.72100067138672
 70
   192
  0
VERTEX
  5
598
  8
0
 10
12.67899990081787
 20
155.8070068359375
 30
54.73099899291992
 70
   192
  0
VERTEX
  5
599
  8
0
 10
10.82800006866455
 20
156.2050018310547
 30
54.71599960327148
 70
   192
  0
VERTEX
  5
59A
  8
0
 10
8.95199966430664
 20
156.0240020751953
 30
54.72100067138672
 70
   192
  0
VERTEX
  5
59B
  8
0
 10
10.8439998626709
 20
156.2050018310547
 30
54.71599960327148
 70
   192
  0
VERTEX
  5
59C
  8
0
 10
13.80700016021729
 20
155.7559967041016
 30
54.72700119018555
 70
   192
  0
VERTEX
  5
59D
  8
0
 10
11.1569995880127
 20
156.1999969482422
 30
54.71599960327148
 70
   192
  0
VERTEX
  5
59E
  8
0
 10
17.69300079345703
 20
153.2799987792969
 30
54.77500152587891
 70
   192
  0
VERTEX
  5
59F
  8
0
 10
16.59099960327148
 20
154.3860015869141
 30
54.75699996948242
 70
   192
  0
VERTEX
  5
5A0
  8
0
 10
19.85400009155273
 20
150.1340026855469
 30
54.81499862670898
 70
   192
  0
VERTEX
  5
5A1
  8
0
 10
18.99699974060059
 20
151.9720001220703
 30
54.79700088500977
 70
   192
  0
VERTEX
  5
5A2
  8
0
 10
20.43499946594238
 20
148.8880004882812
 30
54.82799911499023
 70
   192
  0
VERTEX
  5
5A3
  8
0
 10
0.9190000295639038
 20
146.5
 30
54.83399963378906
 70
   192
  0
VERTEX
  5
5A4
  8
0
 62
     9
 10
0.0
 20
0.0
 30
0.0
 70
   128
 71
     3
 72
     2
 73
     1
  0
VERTEX
  5
5A5
  8
0
 62
     9
 10
0.0
 20
0.0
 30
0.0
 70
   128
 71
     5
 72
     4
 73
     1
  0
VERTEX
  5
5A6
  8
0
 62
     9
 10
0.0
 20
0.0
 30
0.0
 70
   128
 71
     1
 72
     2
 73
     5
  0
VERTEX
  5
5A7
  8
0
 62
     9
 10
0.0
 20
0.0
 30
0.0
 70
   128
 71
     8
 72
     7
 73
     6
  0
VERTEX
  5
5A8
  8
0
 62
     9
 10
0.0
 20
0.0
 30
0.0
 70
   128
 71
    10
 72
     9
 73
     6
  0
VERTEX
  5
5A9
  8
0
 62
     9
 10
0.0
 20
0.0
 30
0.0
 70
   128
 71
     9
 72
    11
 73
     6
  0
VERTEX
  5
5AA
  8
0
 62
     9
 10
0.0
 20
0.0
 30
0.0
 70
   128
 71
    14
 72
    13
 73
    12
  0
VERTEX
  5
5AB
  8
0
 62
     9
 10
0.0
 20
0.0
 30
0.0
 70
   128
 71
    13
 72
    15
 73
    12
  0
VERTEX
  5
5AC
  8
0
 62
     9
 10
0.0
 20
0.0
 30
0.0
 70
   128
 71
    12
 72
     6
 73
    11
  0
VERTEX
  5
5AD
  8
0
 62
     9
 10
0.0
 20
0.0
 30
0.0
 70
   128
 71
    17
 72
    16
 73
    12
  0
VERTEX
  5
5AE
  8
0
 62
     9
 10
0.0
 20
0.0
 30
0.0
 70
   128
 71
    12
 72
    15
 73
    17
  0
VERTEX
  5
5AF
  8
0
 62
     9
 10
0.0
 20
0.0
 30
0.0
 70
   128
 71
    16
 72
     6
 73
    12
  0
VERTEX
  5
5B0
  8
0
 62
     9
 10
0.0
 20
0.0
 30
0.0
 70
   128
 71
    12
 72
    11
 73
    14
  0
VERTEX
  5
5B1
  8
0
 62
     9
 10
0.0
 20
0.0
 30
0.0
 70
   128
 71
     6
 72
     7
 73
    10
  0
VERTEX
  5
5B2
  8
0
 62
     9
 10
0.0
 20
0.0
 30
0.0
 70
   128
 71
    19
 72
    18
 73
     4
  0
VERTEX
  5
5B3
  8
0
 62
     9
 10
0.0
 20
0.0
 30
0.0
 70
   128
 71
    21
 72
    20
 73
     4
  0
VERTEX
  5
5B4
  8
0
 62
     9
 10
0.0
 20
0.0
 30
0.0
 70
   128
 71
    22
 72
     1
 73
     4
  0
VERTEX
  5
5B5
  8
0
 62
     9
 10
0.0
 20
0.0
 30
0.0
 70
   128
 71
     4
 72
    20
 73
    22
  0
VERTEX
  5
5B6
  8
0
 62
     9
 10
0.0
 20
0.0
 30
0.0
 70
   128
 71
     4
 72
    18
 73
    21
  0
VERTEX
  5
5B7
  8
0
 62
     9
 10
0.0
 20
0.0
 30
0.0
 70
   128
 71
     4
 72
     6
 73
    19
  0
VERTEX
  5
5B8
  8
0
 62
     9
 10
0.0
 20
0.0
 30
0.0
 70
   128
 71
     6
 72
     4
 73
     8
  0
VERTEX
  5
5B9
  8
0
 62
     9
 10
0.0
 20
0.0
 30
0.0
 70
   128
 71
     1
 72
    23
 73
     3
  0
SEQEND
  5
5BA
  8
0
 62
     9
  0
ENDBLK
  5
5BD
  8
0
  0
BLOCK
  8
0
  2
E3_NODE_25_
 70
     0
 10
0.0
 20
0.0
 30
0.0
  3
E3_NODE_25_
  1

  0
POLYLINE
  5
5BF
  8
0
 62
     9
 66
     1
 10
0.0
 20
0.0
 30
0.0
 70
    64
 71
    14
 72
    12
  0
VERTEX
  5
5C0
  8
0
 10
0.1790000051259995
 20
113.2610015869141
 30
54.51699829101562
 70
   192
  0
VERTEX
  5
5C1
  8
0
 10
0.3980000019073486
 20
146.5079956054688
 30
54.44599914550781
 70
   192
  0
VERTEX
  5
5C2
  8
0
 10
0.3370000123977661
 20
139.6289978027344
 30
53.90999984741211
 70
   192
  0
VERTEX
  5
5C3
  8
0
 10
0.2949999868869781
 20
146.5099945068359
 30
54.30099868774414
 70
   192
  0
VERTEX
  5
5C4
  8
0
 10
0.3970000147819519
 20
146.5079956054688
 30
53.81800079345703
 70
   192
  0
VERTEX
  5
5C5
  8
0
 10
0.4070000052452087
 20
146.3459930419922
 30
53.80199813842773
 70
   192
  0
VERTEX
  5
5C6
  8
0
 10
0.9190000295639038
 20
146.5
 30
54.83399963378906
 70
   192
  0
VERTEX
  5
5C7
  8
0
 10
0.6129999756813049
 20
146.5050048828125
 30
54.74900054931641
 70
   192
  0
VERTEX
  5
5C8
  8
0
 10
0.8989999890327454
 20
146.3480072021484
 30
54.83399963378906
 70
   192
  0
VERTEX
  5
5C9
  8
0
 10
0.8949999809265137
 20
146.2929992675781
 30
54.83399963378906
 70
   192
  0
VERTEX
  5
5CA
  8
0
 10
0.3449999988079071
 20
112.8610000610352
 30
54.79399871826172
 70
   192
  0
VERTEX
  5
5CB
  8
0
 10
0.3849999904632568
 20
112.3809967041016
 30
54.82099914550781
 70
   192
  0
VERTEX
  5
5CC
  8
0
 10
0.9179999828338623
 20
146.3459930419922
 30
54.83399963378906
 70
   192
  0
VERTEX
  5
5CD
  8
0
 10
0.0659999996423721
 20
113.5339965820312
 30
54.32799911499023
 70
   192
  0
VERTEX
  5
5CE
  8
0
 62
     9
 10
0.0
 20
0.0
 30
0.0
 70
   128
 71
     3
 72
     2
 73
     1
  0
VERTEX
  5
5CF
  8
0
 62
     9
 10
0.0
 20
0.0
 30
0.0
 70
   128
 71
     6
 72
     5
 73
     4
  0
VERTEX
  5
5D0
  8
0
 62
     9
 10
0.0
 20
0.0
 30
0.0
 70
   128
 71
     4
 72
     2
 73
     3
  0
VERTEX
  5
5D1
  8
0
 62
     9
 10
0.0
 20
0.0
 30
0.0
 70
   128
 71
     4
 72
     3
 73
     6
  0
VERTEX
  5
5D2
  8
0
 62
     9
 10
0.0
 20
0.0
 30
0.0
 70
   128
 71
     9
 72
     8
 73
     7
  0
VERTEX
  5
5D3
  8
0
 62
     9
 10
0.0
 20
0.0
 30
0.0
 70
   128
 71
    11
 72
     8
 73
    10
  0
VERTEX
  5
5D4
  8
0
 62
     9
 10
0.0
 20
0.0
 30
0.0
 70
   128
 71
    10
 72
    12
 73
    11
  0
VERTEX
  5
5D5
  8
0
 62
     9
 10
0.0
 20
0.0
 30
0.0
 70
   128
 71
     1
 72
     2
 73
     8
  0
VERTEX
  5
5D6
  8
0
 62
     9
 10
0.0
 20
0.0
 30
0.0
 70
   128
 71
     8
 72
    11
 73
     1
  0
VERTEX
  5
5D7
  8
0
 62
     9
 10
0.0
 20
0.0
 30
0.0
 70
   128
 71
     8
 72
     9
 73
    10
  0
VERTEX
  5
5D8
  8
0
 62
     9
 10
0.0
 20
0.0
 30
0.0
 70
   128
 71
     7
 72
    13
 73
     9
  0
VERTEX
  5
5D9
  8
0
 62
     9
 10
0.0
 20
0.0
 30
0.0
 70
   128
 71
     1
 72
    14
 73
     3
  0
SEQEND
  5
5DA
  8
0
 62
     9
  0
ENDBLK
  5
5DD
  8
0
  0
BLOCK
  8
0
  2
E3_NODE_26_
 70
     0
 10
0.0
 20
0.0
 30
0.0
  3
E3_NODE_26_
  1

  0
POLYLINE
  5
5DF
  8
0
 62
     9
 66
     1
 10
0.0
 20
0.0
 30
0.0
 70
    64
 71
    19
 72
    17
  0
VERTEX
  5
5E0
  8
0
 10
7.945000171661377
 20
115.7360000610352
 30
50.72299957275391
 70
   192
  0
VERTEX
  5
5E1
  8
0
 10
4.671999931335449
 20
146.3459930419922
 30
51.26699829101562
 70
   192
  0
VERTEX
  5
5E2
  8
0
 10
5.35699987411499
 20
146.3459930419922
 30
51.07699966430664
 70
   192
  0
VERTEX
  5
5E3
  8
0
 10
10.8439998626709
 20
146.3459930419922
 30
50.65000152587891
 70
   192
  0
VERTEX
  5
5E4
  8
0
 10
10.8439998626709
 20
116.0009994506836
 30
50.65000152587891
 70
   192
  0
VERTEX
  5
5E5
  8
0
 10
2.105000019073486
 20
146.3459930419922
 30
52.58000183105469
 70
   192
  0
VERTEX
  5
5E6
  8
0
 10
4.583000183105469
 20
114.7249984741211
 30
51.25099945068359
 70
   192
  0
VERTEX
  5
5E7
  8
0
 10
3.855999946594238
 20
114.3949966430664
 30
51.46599960327148
 70
   192
  0
VERTEX
  5
5E8
  8
0
 10
3.46399998664856
 20
146.3459930419922
 30
51.60300064086914
 70
   192
  0
VERTEX
  5
5E9
  8
0
 10
4.663000106811523
 20
114.7490005493164
 30
51.23799896240234
 70
   192
  0
VERTEX
  5
5EA
  8
0
 10
0.3370000123977661
 20
139.6289978027344
 30
53.90999984741211
 70
   192
  0
VERTEX
  5
5EB
  8
0
 10
1.580000042915344
 20
113.0469970703125
 30
52.59999847412109
 70
   192
  0
VERTEX
  5
5EC
  8
0
 10
1.440999984741211
 20
112.9469985961914
 30
52.70700073242188
 70
   192
  0
VERTEX
  5
5ED
  8
0
 10
1.439000010490417
 20
112.9449996948242
 30
52.70999908447266
 70
   192
  0
VERTEX
  5
5EE
  8
0
 10
1.968999981880188
 20
113.2770004272461
 30
52.40700149536133
 70
   192
  0
VERTEX
  5
5EF
  8
0
 10
0.4070000052452087
 20
146.3459930419922
 30
53.80199813842773
 70
   192
  0
VERTEX
  5
5F0
  8
0
 10
0.4189999997615814
 20
112.0899963378906
 30
53.97600173950195
 70
   192
  0
VERTEX
  5
5F1
  8
0
 10
-0.2140000015497208
 20
111.5609970092773
 30
54.76100158691406
 70
   192
  0
VERTEX
  5
5F2
  8
0
 10
0.0659999996423721
 20
113.5339965820312
 30
54.32799911499023
 70
   192
  0
VERTEX
  5
5F3
  8
0
 62
     9
 10
0.0
 20
0.0
 30
0.0
 70
   128
 71
     3
 72
     2
 73
     1
  0
VERTEX
  5
5F4
  8
0
 62
     9
 10
0.0
 20
0.0
 30
0.0
 70
   128
 71
     5
 72
     4
 73
     3
  0
VERTEX
  5
5F5
  8
0
 62
     9
 10
0.0
 20
0.0
 30
0.0
 70
   128
 71
     1
 72
     5
 73
     3
  0
VERTEX
  5
5F6
  8
0
 62
     9
 10
0.0
 20
0.0
 30
0.0
 70
   128
 71
     8
 72
     7
 73
     6
  0
VERTEX
  5
5F7
  8
0
 62
     9
 10
0.0
 20
0.0
 30
0.0
 70
   128
 71
    10
 72
     2
 73
     9
  0
VERTEX
  5
5F8
  8
0
 62
     9
 10
0.0
 20
0.0
 30
0.0
 70
   128
 71
     9
 72
     6
 73
     7
  0
VERTEX
  5
5F9
  8
0
 62
     9
 10
0.0
 20
0.0
 30
0.0
 70
   128
 71
     9
 72
     7
 73
    10
  0
VERTEX
  5
5FA
  8
0
 62
     9
 10
0.0
 20
0.0
 30
0.0
 70
   128
 71
    13
 72
    12
 73
    11
  0
VERTEX
  5
5FB
  8
0
 62
     9
 10
0.0
 20
0.0
 30
0.0
 70
   128
 71
    11
 72
    14
 73
    13
  0
VERTEX
  5
5FC
  8
0
 62
     9
 10
0.0
 20
0.0
 30
0.0
 70
   128
 71
    11
 72
    12
 73
    15
  0
VERTEX
  5
5FD
  8
0
 62
     9
 10
0.0
 20
0.0
 30
0.0
 70
   128
 71
    15
 72
     6
 73
    11
  0
VERTEX
  5
5FE
  8
0
 62
     9
 10
0.0
 20
0.0
 30
0.0
 70
   128
 71
     6
 72
    16
 73
    11
  0
VERTEX
  5
5FF
  8
0
 62
     9
 10
0.0
 20
0.0
 30
0.0
 70
   128
 71
    19
 72
    18
 73
    17
  0
VERTEX
  5
600
  8
0
 62
     9
 10
0.0
 20
0.0
 30
0.0
 70
   128
 71
    17
 72
    11
 73
    19
  0
VERTEX
  5
601
  8
0
 62
     9
 10
0.0
 20
0.0
 30
0.0
 70
   128
 71
    11
 72
    17
 73
    14
  0
VERTEX
  5
602
  8
0
 62
     9
 10
0.0
 20
0.0
 30
0.0
 70
   128
 71
     6
 72
    15
 73
     8
  0
VERTEX
  5
603
  8
0
 62
     9
 10
0.0
 20
0.0
 30
0.0
 70
   128
 71
     2
 72
    10
 73
     1
  0
SEQEND
  5
604
  8
0
 62
     9
  0
ENDBLK
  5
607
  8
0
  0
BLOCK
  8
0
  2
E3_NODE_27_
 70
     0
 10
0.0
 20
0.0
 30
0.0
  3
E3_NODE_27_
  1

  0
POLYLINE
  5
609
  8
0
 62
     9
 66
     1
 10
0.0
 20
0.0
 30
0.0
 70
    64
 71
     6
 72
     4
  0
VERTEX
  5
60A
  8
0
 10
-0.2140000015497208
 20
111.5609970092773
 30
54.76100158691406
 70
   192
  0
VERTEX
  5
60B
  8
0
 10
0.2329999953508377
 20
111.9769973754883
 30
54.81800079345703
 70
   192
  0
VERTEX
  5
60C
  8
0
 10
0.3849999904632568
 20
112.3809967041016
 30
54.82099914550781
 70
   192
  0
VERTEX
  5
60D
  8
0
 10
0.3449999988079071
 20
112.8610000610352
 30
54.79399871826172
 70
   192
  0
VERTEX
  5
60E
  8
0
 10
0.1790000051259995
 20
113.2610015869141
 30
54.51699829101562
 70
   192
  0
VERTEX
  5
60F
  8
0
 10
0.0659999996423721
 20
113.5339965820312
 30
54.32799911499023
 70
   192
  0
VERTEX
  5
610
  8
0
 62
     9
 10
0.0
 20
0.0
 30
0.0
 70
   128
 71
     3
 72
     2
 73
     1
  0
VERTEX
  5
611
  8
0
 62
     9
 10
0.0
 20
0.0
 30
0.0
 70
   128
 71
     1
 72
     4
 73
     3
  0
VERTEX
  5
612
  8
0
 62
     9
 10
0.0
 20
0.0
 30
0.0
 70
   128
 71
     1
 72
     5
 73
     4
  0
VERTEX
  5
613
  8
0
 62
     9
 10
0.0
 20
0.0
 30
0.0
 70
   128
 71
     1
 72
     6
 73
     5
  0
SEQEND
  5
614
  8
0
 62
     9
  0
ENDBLK
  5
617
  8
0
  0
BLOCK
  8
0
  2
E3_NODE_28_
 70
     0
 10
0.0
 20
0.0
 30
0.0
  3
E3_NODE_28_
  1

  0
POLYLINE
  5
619
  8
0
 62
     9
 66
     1
 10
0.0
 20
0.0
 30
0.0
 70
    64
 71
    47
 72
    46
  0
VERTEX
  5
61A
  8
0
 10
0.2329999953508377
 20
111.9769973754883
 30
54.81800079345703
 70
   192
  0
VERTEX
  5
61B
  8
0
 10
22.48100090026855
 20
89.0199966430664
 30
54.79100036621094
 70
   192
  0
VERTEX
  5
61C
  8
0
 10
24.85600090026855
 20
92.2760009765625
 30
54.72000122070312
 70
   192
  0
VERTEX
  5
61D
  8
0
 10
21.51099967956543
 20
88.07499694824219
 30
54.81600189208984
 70
   192
  0
VERTEX
  5
61E
  8
0
 10
20.17700004577637
 20
87.15499877929688
 30
54.84400177001953
 70
   192
  0
VERTEX
  5
61F
  8
0
 10
25.45800018310547
 20
93.48799896240234
 30
54.69900131225586
 70
   192
  0
VERTEX
  5
620
  8
0
 10
7.907000064849854
 20
91.10800170898438
 30
54.93899917602539
 70
   192
  0
VERTEX
  5
621
  8
0
 10
16.96199989318848
 20
85.21600341796875
 30
54.90599822998047
 70
   192
  0
VERTEX
  5
622
  8
0
 10
18.19300079345703
 20
85.78800201416016
 30
54.88600158691406
 70
   192
  0
VERTEX
  5
623
  8
0
 10
11.72200012207031
 20
84.02400207519531
 30
54.94900131225586
 70
   192
  0
VERTEX
  5
624
  8
0
 10
13.07400035858154
 20
84.15599822998047
 30
54.94400024414062
 70
   192
  0
VERTEX
  5
625
  8
0
 10
10.84799957275391
 20
84.08599853515625
 30
54.94599914550781
 70
   192
  0
VERTEX
  5
626
  8
0
 10
6.38700008392334
 20
84.63200378417969
 30
54.92599868774414
 70
   192
  0
VERTEX
  5
627
  8
0
 10
7.703000068664551
 20
84.30999755859375
 30
54.9379997253418
 70
   192
  0
VERTEX
  5
628
  8
0
 10
2.688999891281128
 20
86.23300170898438
 30
54.87200164794922
 70
   192
  0
VERTEX
  5
629
  8
0
 10
1.449000000953674
 20
87.06900024414062
 30
54.84600067138672
 70
   192
  0
VERTEX
  5
62A
  8
0
 10
1.554999947547913
 20
86.97100067138672
 30
54.84799957275391
 70
   192
  0
VERTEX
  5
62B
  8
0
 10
-4.361999988555908
 20
95.06099700927734
 30
54.67900085449219
 70
   192
  0
VERTEX
  5
62C
  8
0
 10
-4.123000144958496
 20
94.33799743652344
 30
54.6870002746582
 70
   192
  0
VERTEX
  5
62D
  8
0
 10
-2.233999967575073
 20
90.77899932861328
 30
54.74900054931641
 70
   192
  0
VERTEX
  5
62E
  8
0
 10
-1.406000018119812
 20
89.70500183105469
 30
54.77399826049805
 70
   192
  0
VERTEX
  5
62F
  8
0
 10
-5.152999877929688
 20
99.61199951171875
 30
54.65000152587891
 70
   192
  0
VERTEX
  5
630
  8
0
 10
-4.548999786376953
 20
95.62799835205078
 30
54.67200088500977
 70
   192
  0
VERTEX
  5
631
  8
0
 10
-4.380000114440918
 20
104.9280014038086
 30
54.67800140380859
 70
   192
  0
VERTEX
  5
632
  8
0
 10
-5.129000186920166
 20
100.9690017700195
 30
54.6510009765625
 70
   192
  0
VERTEX
  5
633
  8
0
 10
-4.374000072479248
 20
104.9449996948242
 30
54.67800140380859
 70
   192
  0
VERTEX
  5
634
  8
0
 10
-1.891999959945679
 20
109.6869964599609
 30
54.7599983215332
 70
   192
  0
VERTEX
  5
635
  8
0
 10
-3.908999919891357
 20
106.197998046875
 30
54.69499969482422
 70
   192
  0
VERTEX
  5
636
  8
0
 10
-1.027999997138977
 20
110.7289962768555
 30
54.78400039672852
 70
   192
  0
VERTEX
  5
637
  8
0
 10
-0.0640000030398369
 20
111.7070007324219
 30
54.81000137329102
 70
   192
  0
VERTEX
  5
638
  8
0
 10
25.97599983215332
 20
104.9100036621094
 30
54.68099975585938
 70
   192
  0
VERTEX
  5
639
  8
0
 10
24.82299995422363
 20
107.7839965820312
 30
54.72100067138672
 70
   192
  0
VERTEX
  5
63A
  8
0
 10
26.79000091552734
 20
98.69200134277344
 30
54.65200042724609
 70
   192
  0
VERTEX
  5
63B
  8
0
 10
26.61100006103516
 20
102.7170028686523
 30
54.65800094604492
 70
   192
  0
VERTEX
  5
63C
  8
0
 10
26.32399940490723
 20
104.0449981689453
 30
54.66899871826172
 70
   192
  0
VERTEX
  5
63D
  8
0
 10
26.62199974060059
 20
97.34600067138672
 30
54.65800094604492
 70
   192
  0
VERTEX
  5
63E
  8
0
 10
25.94099998474121
 20
95.08999633789062
 30
54.68199920654297
 70
   192
  0
VERTEX
  5
63F
  8
0
 10
0.9179999828338623
 20
146.3459930419922
 30
54.83399963378906
 70
   192
  0
VERTEX
  5
640
  8
0
 10
0.8989999890327454
 20
146.3480072021484
 30
54.83399963378906
 70
   192
  0
VERTEX
  5
641
  8
0
 10
0.8949999809265137
 20
146.2929992675781
 30
54.83399963378906
 70
   192
  0
VERTEX
  5
642
  8
0
 10
20.77000045776367
 20
112.5490036010742
 30
54.83399963378906
 70
   192
  0
VERTEX
  5
643
  8
0
 10
0.3849999904632568
 20
112.3809967041016
 30
54.82099914550781
 70
   192
  0
VERTEX
  5
644
  8
0
 10
24.11300086975098
 20
108.9400024414062
 30
54.74300003051758
 70
   192
  0
VERTEX
  5
645
  8
0
 10
21.45800018310547
 20
111.9720001220703
 30
54.81800079345703
 70
   192
  0
VERTEX
  5
646
  8
0
 10
20.77000045776367
 20
146.3459930419922
 30
54.83399963378906
 70
   192
  0
VERTEX
  5
647
  8
0
 10
20.76899909973145
 20
146.5
 30
54.83399963378906
 70
   192
  0
VERTEX
  5
648
  8
0
 10
0.9190000295639038
 20
146.5
 30
54.83399963378906
 70
   192
  0
VERTEX
  5
649
  8
0
 62
     9
 10
0.0
 20
0.0
 30
0.0
 70
   128
 71
     3
 72
     2
 73
     1
  0
VERTEX
  5
64A
  8
0
 62
     9
 10
0.0
 20
0.0
 30
0.0
 70
   128
 71
     2
 72
     4
 73
     1
  0
VERTEX
  5
64B
  8
0
 62
     9
 10
0.0
 20
0.0
 30
0.0
 70
   128
 71
     4
 72
     5
 73
     1
  0
VERTEX
  5
64C
  8
0
 62
     9
 10
0.0
 20
0.0
 30
0.0
 70
   128
 71
     1
 72
     6
 73
     3
  0
VERTEX
  5
64D
  8
0
 62
     9
 10
0.0
 20
0.0
 30
0.0
 70
   128
 71
     9
 72
     8
 73
     7
  0
VERTEX
  5
64E
  8
0
 62
     9
 10
0.0
 20
0.0
 30
0.0
 70
   128
 71
    11
 72
    10
 73
     7
  0
VERTEX
  5
64F
  8
0
 62
     9
 10
0.0
 20
0.0
 30
0.0
 70
   128
 71
     7
 72
     8
 73
    11
  0
VERTEX
  5
650
  8
0
 62
     9
 10
0.0
 20
0.0
 30
0.0
 70
   128
 71
    10
 72
    12
 73
     7
  0
VERTEX
  5
651
  8
0
 62
     9
 10
0.0
 20
0.0
 30
0.0
 70
   128
 71
    14
 72
    13
 73
     7
  0
VERTEX
  5
652
  8
0
 62
     9
 10
0.0
 20
0.0
 30
0.0
 70
   128
 71
    13
 72
    15
 73
     7
  0
VERTEX
  5
653
  8
0
 62
     9
 10
0.0
 20
0.0
 30
0.0
 70
   128
 71
    17
 72
    16
 73
     7
  0
VERTEX
  5
654
  8
0
 62
     9
 10
0.0
 20
0.0
 30
0.0
 70
   128
 71
     7
 72
    15
 73
    17
  0
VERTEX
  5
655
  8
0
 62
     9
 10
0.0
 20
0.0
 30
0.0
 70
   128
 71
    19
 72
    18
 73
     7
  0
VERTEX
  5
656
  8
0
 62
     9
 10
0.0
 20
0.0
 30
0.0
 70
   128
 71
     7
 72
    20
 73
    19
  0
VERTEX
  5
657
  8
0
 62
     9
 10
0.0
 20
0.0
 30
0.0
 70
   128
 71
     7
 72
    21
 73
    20
  0
VERTEX
  5
658
  8
0
 62
     9
 10
0.0
 20
0.0
 30
0.0
 70
   128
 71
     7
 72
    16
 73
    21
  0
VERTEX
  5
659
  8
0
 62
     9
 10
0.0
 20
0.0
 30
0.0
 70
   128
 71
     7
 72
    12
 73
    14
  0
VERTEX
  5
65A
  8
0
 62
     9
 10
0.0
 20
0.0
 30
0.0
 70
   128
 71
    23
 72
    22
 73
     7
  0
VERTEX
  5
65B
  8
0
 62
     9
 10
0.0
 20
0.0
 30
0.0
 70
   128
 71
    25
 72
    24
 73
     7
  0
VERTEX
  5
65C
  8
0
 62
     9
 10
0.0
 20
0.0
 30
0.0
 70
   128
 71
     7
 72
    22
 73
    25
  0
VERTEX
  5
65D
  8
0
 62
     9
 10
0.0
 20
0.0
 30
0.0
 70
   128
 71
    24
 72
    26
 73
     7
  0
VERTEX
  5
65E
  8
0
 62
     9
 10
0.0
 20
0.0
 30
0.0
 70
   128
 71
    28
 72
    27
 73
     7
  0
VERTEX
  5
65F
  8
0
 62
     9
 10
0.0
 20
0.0
 30
0.0
 70
   128
 71
    27
 72
    29
 73
     7
  0
VERTEX
  5
660
  8
0
 62
     9
 10
0.0
 20
0.0
 30
0.0
 70
   128
 71
    29
 72
    30
 73
     7
  0
VERTEX
  5
661
  8
0
 62
     9
 10
0.0
 20
0.0
 30
0.0
 70
   128
 71
    30
 72
     1
 73
     7
  0
VERTEX
  5
662
  8
0
 62
     9
 10
0.0
 20
0.0
 30
0.0
 70
   128
 71
     7
 72
    26
 73
    28
  0
VERTEX
  5
663
  8
0
 62
     9
 10
0.0
 20
0.0
 30
0.0
 70
   128
 71
     7
 72
    18
 73
    23
  0
VERTEX
  5
664
  8
0
 62
     9
 10
0.0
 20
0.0
 30
0.0
 70
   128
 71
     1
 72
     5
 73
     7
  0
VERTEX
  5
665
  8
0
 62
     9
 10
0.0
 20
0.0
 30
0.0
 70
   128
 71
     7
 72
     5
 73
     9
  0
VERTEX
  5
666
  8
0
 62
     9
 10
0.0
 20
0.0
 30
0.0
 70
   128
 71
    32
 72
    31
 73
     1
  0
VERTEX
  5
667
  8
0
 62
     9
 10
0.0
 20
0.0
 30
0.0
 70
   128
 71
    34
 72
    33
 73
     1
  0
VERTEX
  5
668
  8
0
 62
     9
 10
0.0
 20
0.0
 30
0.0
 70
   128
 71
     1
 72
    35
 73
    34
  0
VERTEX
  5
669
  8
0
 62
     9
 10
0.0
 20
0.0
 30
0.0
 70
   128
 71
    33
 72
    36
 73
     1
  0
VERTEX
  5
66A
  8
0
 62
     9
 10
0.0
 20
0.0
 30
0.0
 70
   128
 71
    36
 72
    37
 73
     1
  0
VERTEX
  5
66B
  8
0
 62
     9
 10
0.0
 20
0.0
 30
0.0
 70
   128
 71
     1
 72
    31
 73
    35
  0
VERTEX
  5
66C
  8
0
 62
     9
 10
0.0
 20
0.0
 30
0.0
 70
   128
 71
    40
 72
    39
 73
    38
  0
VERTEX
  5
66D
  8
0
 62
     9
 10
0.0
 20
0.0
 30
0.0
 70
   128
 71
    38
 72
    41
 73
    40
  0
VERTEX
  5
66E
  8
0
 62
     9
 10
0.0
 20
0.0
 30
0.0
 70
   128
 71
    43
 72
    32
 73
    42
  0
VERTEX
  5
66F
  8
0
 62
     9
 10
0.0
 20
0.0
 30
0.0
 70
   128
 71
    42
 72
    44
 73
    43
  0
VERTEX
  5
670
  8
0
 62
     9
 10
0.0
 20
0.0
 30
0.0
 70
   128
 71
    42
 72
    41
 73
    44
  0
VERTEX
  5
671
  8
0
 62
     9
 10
0.0
 20
0.0
 30
0.0
 70
   128
 71
    41
 72
    42
 73
    40
  0
VERTEX
  5
672
  8
0
 62
     9
 10
0.0
 20
0.0
 30
0.0
 70
   128
 71
     1
 72
    42
 73
    32
  0
VERTEX
  5
673
  8
0
 62
     9
 10
0.0
 20
0.0
 30
0.0
 70
   128
 71
    47
 72
    46
 73
    45
  0
VERTEX
  5
674
  8
0
 62
     9
 10
0.0
 20
0.0
 30
0.0
 70
   128
 71
    45
 72
    41
 73
    38
  0
VERTEX
  5
675
  8
0
 62
     9
 10
0.0
 20
0.0
 30
0.0
 70
   128
 71
    45
 72
    38
 73
    47
  0
VERTEX
  5
676
  8
0
 62
     9
 10
0.0
 20
0.0
 30
0.0
 70
   128
 71
     1
 72
    37
 73
     6
  0
SEQEND
  5
677
  8
0
 62
     9
  0
ENDBLK
  5
67A
  8
0
  0
BLOCK
  8
0
  2
E3_NODE_29_
 70
     0
 10
0.0
 20
0.0
 30
0.0
  3
E3_NODE_29_
  1

  0
POLYLINE
  5
67C
  8
0
 62
     9
 66
     1
 10
0.0
 20
0.0
 30
0.0
 70
    64
 71
    71
 72
    71
  0
VERTEX
  5
67D
  8
0
 10
26.05999946594238
 20
95.05400085449219
 30
8.649999618530273
 70
   192
  0
VERTEX
  5
67E
  8
0
 10
26.79000091552734
 20
98.69200134277344
 30
54.65200042724609
 70
   192
  0
VERTEX
  5
67F
  8
0
 10
26.62199974060059
 20
97.34600067138672
 30
54.65800094604492
 70
   192
  0
VERTEX
  5
680
  8
0
 10
26.06100082397461
 20
104.943000793457
 30
8.649999618530273
 70
   192
  0
VERTEX
  5
681
  8
0
 10
26.61100006103516
 20
102.7170028686523
 30
54.65800094604492
 70
   192
  0
VERTEX
  5
682
  8
0
 10
25.97599983215332
 20
104.9100036621094
 30
54.68099975585938
 70
   192
  0
VERTEX
  5
683
  8
0
 10
26.32399940490723
 20
104.0449981689453
 30
54.66899871826172
 70
   192
  0
VERTEX
  5
684
  8
0
 10
20.24699974060059
 20
87.05500030517578
 30
8.649999618530273
 70
   192
  0
VERTEX
  5
685
  8
0
 10
22.48100090026855
 20
89.0199966430664
 30
54.79100036621094
 70
   192
  0
VERTEX
  5
686
  8
0
 10
21.51099967956543
 20
88.07499694824219
 30
54.81600189208984
 70
   192
  0
VERTEX
  5
687
  8
0
 10
24.85600090026855
 20
92.2760009765625
 30
54.72000122070312
 70
   192
  0
VERTEX
  5
688
  8
0
 10
25.45800018310547
 20
93.48799896240234
 30
54.69900131225586
 70
   192
  0
VERTEX
  5
689
  8
0
 10
25.94099998474121
 20
95.08999633789062
 30
54.68199920654297
 70
   192
  0
VERTEX
  5
68A
  8
0
 10
10.84799957275391
 20
84.08599853515625
 30
54.94599914550781
 70
   192
  0
VERTEX
  5
68B
  8
0
 10
10.84200000762939
 20
83.9990005493164
 30
8.649999618530273
 70
   192
  0
VERTEX
  5
68C
  8
0
 10
10.8439998626709
 20
83.9990005493164
 30
8.649999618530273
 70
   192
  0
VERTEX
  5
68D
  8
0
 10
13.07400035858154
 20
84.15599822998047
 30
54.94400024414062
 70
   192
  0
VERTEX
  5
68E
  8
0
 10
11.72200012207031
 20
84.02400207519531
 30
54.94900131225586
 70
   192
  0
VERTEX
  5
68F
  8
0
 10
16.96199989318848
 20
85.21600341796875
 30
54.90599822998047
 70
   192
  0
VERTEX
  5
690
  8
0
 10
18.19300079345703
 20
85.78800201416016
 30
54.88600158691406
 70
   192
  0
VERTEX
  5
691
  8
0
 10
20.17700004577637
 20
87.15499877929688
 30
54.84400177001953
 70
   192
  0
VERTEX
  5
692
  8
0
 10
1.437000036239624
 20
87.05599975585938
 30
8.649999618530273
 70
   192
  0
VERTEX
  5
693
  8
0
 10
6.38700008392334
 20
84.63200378417969
 30
54.92599868774414
 70
   192
  0
VERTEX
  5
694
  8
0
 10
7.703000068664551
 20
84.30999755859375
 30
54.9379997253418
 70
   192
  0
VERTEX
  5
695
  8
0
 10
2.688999891281128
 20
86.23300170898438
 30
54.87200164794922
 70
   192
  0
VERTEX
  5
696
  8
0
 10
1.554999947547913
 20
86.97100067138672
 30
54.84799957275391
 70
   192
  0
VERTEX
  5
697
  8
0
 10
-4.375
 20
95.05699920654297
 30
8.649999618530273
 70
   192
  0
VERTEX
  5
698
  8
0
 10
-2.233999967575073
 20
90.77899932861328
 30
54.74900054931641
 70
   192
  0
VERTEX
  5
699
  8
0
 10
1.449000000953674
 20
87.06900024414062
 30
54.84600067138672
 70
   192
  0
VERTEX
  5
69A
  8
0
 10
-1.406000018119812
 20
89.70500183105469
 30
54.77399826049805
 70
   192
  0
VERTEX
  5
69B
  8
0
 10
-4.123000144958496
 20
94.33799743652344
 30
54.6870002746582
 70
   192
  0
VERTEX
  5
69C
  8
0
 10
-4.374000072479248
 20
104.9459991455078
 30
8.649999618530273
 70
   192
  0
VERTEX
  5
69D
  8
0
 10
-5.129000186920166
 20
100.9690017700195
 30
54.6510009765625
 70
   192
  0
VERTEX
  5
69E
  8
0
 10
-4.380000114440918
 20
104.9280014038086
 30
54.67800140380859
 70
   192
  0
VERTEX
  5
69F
  8
0
 10
-5.152999877929688
 20
99.61199951171875
 30
54.65000152587891
 70
   192
  0
VERTEX
  5
6A0
  8
0
 10
-4.361999988555908
 20
95.06099700927734
 30
54.67900085449219
 70
   192
  0
VERTEX
  5
6A1
  8
0
 10
-4.548999786376953
 20
95.62799835205078
 30
54.67200088500977
 70
   192
  0
VERTEX
  5
6A2
  8
0
 10
1.439000010490417
 20
112.9459991455078
 30
8.649999618530273
 70
   192
  0
VERTEX
  5
6A3
  8
0
 10
-1.027999997138977
 20
110.7289962768555
 30
54.78400039672852
 70
   192
  0
VERTEX
  5
6A4
  8
0
 10
-0.2140000015497208
 20
111.5609970092773
 30
54.76100158691406
 70
   192
  0
VERTEX
  5
6A5
  8
0
 10
-1.891999959945679
 20
109.6869964599609
 30
54.7599983215332
 70
   192
  0
VERTEX
  5
6A6
  8
0
 10
0.4189999997615814
 20
112.0899963378906
 30
53.97600173950195
 70
   192
  0
VERTEX
  5
6A7
  8
0
 10
-3.908999919891357
 20
106.197998046875
 30
54.69499969482422
 70
   192
  0
VERTEX
  5
6A8
  8
0
 10
-4.374000072479248
 20
104.9449996948242
 30
54.67800140380859
 70
   192
  0
VERTEX
  5
6A9
  8
0
 10
-0.0640000030398369
 20
111.7070007324219
 30
54.81000137329102
 70
   192
  0
VERTEX
  5
6AA
  8
0
 10
0.2329999953508377
 20
111.9769973754883
 30
54.81800079345703
 70
   192
  0
VERTEX
  5
6AB
  8
0
 10
10.8439998626709
 20
116.0009994506836
 30
8.649999618530273
 70
   192
  0
VERTEX
  5
6AC
  8
0
 10
4.583000183105469
 20
114.7249984741211
 30
51.25099945068359
 70
   192
  0
VERTEX
  5
6AD
  8
0
 10
4.663000106811523
 20
114.7490005493164
 30
51.23799896240234
 70
   192
  0
VERTEX
  5
6AE
  8
0
 10
3.855999946594238
 20
114.3949966430664
 30
51.46599960327148
 70
   192
  0
VERTEX
  5
6AF
  8
0
 10
7.945000171661377
 20
115.7360000610352
 30
50.72299957275391
 70
   192
  0
VERTEX
  5
6B0
  8
0
 10
1.968999981880188
 20
113.2770004272461
 30
52.40700149536133
 70
   192
  0
VERTEX
  5
6B1
  8
0
 10
1.440999984741211
 20
112.9469985961914
 30
52.70700073242188
 70
   192
  0
VERTEX
  5
6B2
  8
0
 10
1.580000042915344
 20
113.0469970703125
 30
52.59999847412109
 70
   192
  0
VERTEX
  5
6B3
  8
0
 10
10.8439998626709
 20
116.0009994506836
 30
50.65000152587891
 70
   192
  0
VERTEX
  5
6B4
  8
0
 10
1.439000010490417
 20
112.9449996948242
 30
52.70999908447266
 70
   192
  0
VERTEX
  5
6B5
  8
0
 10
20.24900054931641
 20
112.9440002441406
 30
8.649999618530273
 70
   192
  0
VERTEX
  5
6B6
  8
0
 10
17.03800010681152
 20
114.7519989013672
 30
51.23300170898438
 70
   192
  0
VERTEX
  5
6B7
  8
0
 10
18.46699905395508
 20
113.9820022583008
 30
51.82500076293945
 70
   192
  0
VERTEX
  5
6B8
  8
0
 10
12.88399982452393
 20
115.870002746582
 30
50.67900085449219
 70
   192
  0
VERTEX
  5
6B9
  8
0
 10
13.60999965667725
 20
115.7600021362305
 30
50.7140007019043
 70
   192
  0
VERTEX
  5
6BA
  8
0
 10
19.76399993896484
 20
113.2829971313477
 30
52.36299896240234
 70
   192
  0
VERTEX
  5
6BB
  8
0
 10
21.33200073242188
 20
112.0830001831055
 30
54.48300170898438
 70
   192
  0
VERTEX
  5
6BC
  8
0
 10
21.0049991607666
 20
112.359001159668
 30
54.78400039672852
 70
   192
  0
VERTEX
  5
6BD
  8
0
 10
21.45800018310547
 20
111.9720001220703
 30
54.81800079345703
 70
   192
  0
VERTEX
  5
6BE
  8
0
 10
24.11300086975098
 20
108.9400024414062
 30
54.74300003051758
 70
   192
  0
VERTEX
  5
6BF
  8
0
 10
21.33200073242188
 20
112.0830001831055
 30
54.48199844360352
 70
   192
  0
VERTEX
  5
6C0
  8
0
 10
24.82299995422363
 20
107.7839965820312
 30
54.72100067138672
 70
   192
  0
VERTEX
  5
6C1
  8
0
 10
21.29299926757812
 20
112.1169967651367
 30
53.81900024414062
 70
   192
  0
VERTEX
  5
6C2
  8
0
 10
20.23399925231934
 20
112.9250030517578
 30
52.81000137329102
 70
   192
  0
VERTEX
  5
6C3
  8
0
 10
20.77000045776367
 20
112.5490036010742
 30
54.83399963378906
 70
   192
  0
VERTEX
  5
6C4
  8
0
 62
     9
 10
0.0
 20
0.0
 30
0.0
 70
   128
 71
     3
 72
     2
 73
     1
  0
VERTEX
  5
6C5
  8
0
 62
     9
 10
0.0
 20
0.0
 30
0.0
 70
   128
 71
     2
 72
     5
 73
     4
  0
VERTEX
  5
6C6
  8
0
 62
     9
 10
0.0
 20
0.0
 30
0.0
 70
   128
 71
     7
 72
     6
 73
     4
  0
VERTEX
  5
6C7
  8
0
 62
     9
 10
0.0
 20
0.0
 30
0.0
 70
   128
 71
     4
 72
     5
 73
     7
  0
VERTEX
  5
6C8
  8
0
 62
     9
 10
0.0
 20
0.0
 30
0.0
 70
   128
 71
     4
 72
     1
 73
     2
  0
VERTEX
  5
6C9
  8
0
 62
     9
 10
0.0
 20
0.0
 30
0.0
 70
   128
 71
    10
 72
     9
 73
     8
  0
VERTEX
  5
6CA
  8
0
 62
     9
 10
0.0
 20
0.0
 30
0.0
 70
   128
 71
    11
 72
     1
 73
     8
  0
VERTEX
  5
6CB
  8
0
 62
     9
 10
0.0
 20
0.0
 30
0.0
 70
   128
 71
     8
 72
     9
 73
    11
  0
VERTEX
  5
6CC
  8
0
 62
     9
 10
0.0
 20
0.0
 30
0.0
 70
   128
 71
    11
 72
    12
 73
     1
  0
VERTEX
  5
6CD
  8
0
 62
     9
 10
0.0
 20
0.0
 30
0.0
 70
   128
 71
    12
 72
    13
 73
     1
  0
VERTEX
  5
6CE
  8
0
 62
     9
 10
0.0
 20
0.0
 30
0.0
 70
   128
 71
    16
 72
    15
 73
    14
  0
VERTEX
  5
6CF
  8
0
 62
     9
 10
0.0
 20
0.0
 30
0.0
 70
   128
 71
    18
 72
    17
 73
    16
  0
VERTEX
  5
6D0
  8
0
 62
     9
 10
0.0
 20
0.0
 30
0.0
 70
   128
 71
    17
 72
    19
 73
    16
  0
VERTEX
  5
6D1
  8
0
 62
     9
 10
0.0
 20
0.0
 30
0.0
 70
   128
 71
    19
 72
    20
 73
    16
  0
VERTEX
  5
6D2
  8
0
 62
     9
 10
0.0
 20
0.0
 30
0.0
 70
   128
 71
    20
 72
    21
 73
    16
  0
VERTEX
  5
6D3
  8
0
 62
     9
 10
0.0
 20
0.0
 30
0.0
 70
   128
 71
    14
 72
    18
 73
    16
  0
VERTEX
  5
6D4
  8
0
 62
     9
 10
0.0
 20
0.0
 30
0.0
 70
   128
 71
    21
 72
     8
 73
    16
  0
VERTEX
  5
6D5
  8
0
 62
     9
 10
0.0
 20
0.0
 30
0.0
 70
   128
 71
    23
 72
    15
 73
    22
  0
VERTEX
  5
6D6
  8
0
 62
     9
 10
0.0
 20
0.0
 30
0.0
 70
   128
 71
    24
 72
    14
 73
    15
  0
VERTEX
  5
6D7
  8
0
 62
     9
 10
0.0
 20
0.0
 30
0.0
 70
   128
 71
    15
 72
    23
 73
    24
  0
VERTEX
  5
6D8
  8
0
 62
     9
 10
0.0
 20
0.0
 30
0.0
 70
   128
 71
    22
 72
    25
 73
    23
  0
VERTEX
  5
6D9
  8
0
 62
     9
 10
0.0
 20
0.0
 30
0.0
 70
   128
 71
    22
 72
    26
 73
    25
  0
VERTEX
  5
6DA
  8
0
 62
     9
 10
0.0
 20
0.0
 30
0.0
 70
   128
 71
    28
 72
    22
 73
    27
  0
VERTEX
  5
6DB
  8
0
 62
     9
 10
0.0
 20
0.0
 30
0.0
 70
   128
 71
    30
 72
    29
 73
    22
  0
VERTEX
  5
6DC
  8
0
 62
     9
 10
0.0
 20
0.0
 30
0.0
 70
   128
 71
    22
 72
    28
 73
    30
  0
VERTEX
  5
6DD
  8
0
 62
     9
 10
0.0
 20
0.0
 30
0.0
 70
   128
 71
    27
 72
    31
 73
    28
  0
VERTEX
  5
6DE
  8
0
 62
     9
 10
0.0
 20
0.0
 30
0.0
 70
   128
 71
    34
 72
    33
 73
    32
  0
VERTEX
  5
6DF
  8
0
 62
     9
 10
0.0
 20
0.0
 30
0.0
 70
   128
 71
    35
 72
    27
 73
    32
  0
VERTEX
  5
6E0
  8
0
 62
     9
 10
0.0
 20
0.0
 30
0.0
 70
   128
 71
    32
 72
    33
 73
    35
  0
VERTEX
  5
6E1
  8
0
 62
     9
 10
0.0
 20
0.0
 30
0.0
 70
   128
 71
    37
 72
    36
 73
    27
  0
VERTEX
  5
6E2
  8
0
 62
     9
 10
0.0
 20
0.0
 30
0.0
 70
   128
 71
    27
 72
    35
 73
    37
  0
VERTEX
  5
6E3
  8
0
 62
     9
 10
0.0
 20
0.0
 30
0.0
 70
   128
 71
    40
 72
    39
 73
    38
  0
VERTEX
  5
6E4
  8
0
 62
     9
 10
0.0
 20
0.0
 30
0.0
 70
   128
 71
    39
 72
    41
 73
    38
  0
VERTEX
  5
6E5
  8
0
 62
     9
 10
0.0
 20
0.0
 30
0.0
 70
   128
 71
    38
 72
    42
 73
    40
  0
VERTEX
  5
6E6
  8
0
 62
     9
 10
0.0
 20
0.0
 30
0.0
 70
   128
 71
    41
 72
    43
 73
    32
  0
VERTEX
  5
6E7
  8
0
 62
     9
 10
0.0
 20
0.0
 30
0.0
 70
   128
 71
    32
 72
    38
 73
    41
  0
VERTEX
  5
6E8
  8
0
 62
     9
 10
0.0
 20
0.0
 30
0.0
 70
   128
 71
    43
 72
    44
 73
    32
  0
VERTEX
  5
6E9
  8
0
 62
     9
 10
0.0
 20
0.0
 30
0.0
 70
   128
 71
    45
 72
    39
 73
    40
  0
VERTEX
  5
6EA
  8
0
 62
     9
 10
0.0
 20
0.0
 30
0.0
 70
   128
 71
    40
 72
    46
 73
    45
  0
VERTEX
  5
6EB
  8
0
 62
     9
 10
0.0
 20
0.0
 30
0.0
 70
   128
 71
    49
 72
    48
 73
    47
  0
VERTEX
  5
6EC
  8
0
 62
     9
 10
0.0
 20
0.0
 30
0.0
 70
   128
 71
    48
 72
    50
 73
    47
  0
VERTEX
  5
6ED
  8
0
 62
     9
 10
0.0
 20
0.0
 30
0.0
 70
   128
 71
    47
 72
    51
 73
    49
  0
VERTEX
  5
6EE
  8
0
 62
     9
 10
0.0
 20
0.0
 30
0.0
 70
   128
 71
    50
 72
    52
 73
    47
  0
VERTEX
  5
6EF
  8
0
 62
     9
 10
0.0
 20
0.0
 30
0.0
 70
   128
 71
    54
 72
    53
 73
    47
  0
VERTEX
  5
6F0
  8
0
 62
     9
 10
0.0
 20
0.0
 30
0.0
 70
   128
 71
    47
 72
    52
 73
    54
  0
VERTEX
  5
6F1
  8
0
 62
     9
 10
0.0
 20
0.0
 30
0.0
 70
   128
 71
    47
 72
    55
 73
    51
  0
VERTEX
  5
6F2
  8
0
 62
     9
 10
0.0
 20
0.0
 30
0.0
 70
   128
 71
    53
 72
    56
 73
    38
  0
VERTEX
  5
6F3
  8
0
 62
     9
 10
0.0
 20
0.0
 30
0.0
 70
   128
 71
    38
 72
    47
 73
    53
  0
VERTEX
  5
6F4
  8
0
 62
     9
 10
0.0
 20
0.0
 30
0.0
 70
   128
 71
    59
 72
    58
 73
    57
  0
VERTEX
  5
6F5
  8
0
 62
     9
 10
0.0
 20
0.0
 30
0.0
 70
   128
 71
    60
 72
    55
 73
    57
  0
VERTEX
  5
6F6
  8
0
 62
     9
 10
0.0
 20
0.0
 30
0.0
 70
   128
 71
    47
 72
    57
 73
    55
  0
VERTEX
  5
6F7
  8
0
 62
     9
 10
0.0
 20
0.0
 30
0.0
 70
   128
 71
    57
 72
    61
 73
    60
  0
VERTEX
  5
6F8
  8
0
 62
     9
 10
0.0
 20
0.0
 30
0.0
 70
   128
 71
    57
 72
    58
 73
    61
  0
VERTEX
  5
6F9
  8
0
 62
     9
 10
0.0
 20
0.0
 30
0.0
 70
   128
 71
    57
 72
    62
 73
    59
  0
VERTEX
  5
6FA
  8
0
 62
     9
 10
0.0
 20
0.0
 30
0.0
 70
   128
 71
    65
 72
    64
 73
    63
  0
VERTEX
  5
6FB
  8
0
 62
     9
 10
0.0
 20
0.0
 30
0.0
 70
   128
 71
    63
 72
    66
 73
    65
  0
VERTEX
  5
6FC
  8
0
 62
     9
 10
0.0
 20
0.0
 30
0.0
 70
   128
 71
    66
 72
    63
 73
    67
  0
VERTEX
  5
6FD
  8
0
 62
     9
 10
0.0
 20
0.0
 30
0.0
 70
   128
 71
    67
 72
    69
 73
    68
  0
VERTEX
  5
6FE
  8
0
 62
     9
 10
0.0
 20
0.0
 30
0.0
 70
   128
 71
    67
 72
    68
 73
    66
  0
VERTEX
  5
6FF
  8
0
 62
     9
 10
0.0
 20
0.0
 30
0.0
 70
   128
 71
    70
 72
    57
 73
     4
  0
VERTEX
  5
700
  8
0
 62
     9
 10
0.0
 20
0.0
 30
0.0
 70
   128
 71
     4
 72
    69
 73
    70
  0
VERTEX
  5
701
  8
0
 62
     9
 10
0.0
 20
0.0
 30
0.0
 70
   128
 71
     4
 72
     6
 73
    69
  0
VERTEX
  5
702
  8
0
 62
     9
 10
0.0
 20
0.0
 30
0.0
 70
   128
 71
    69
 72
     6
 73
    68
  0
VERTEX
  5
703
  8
0
 62
     9
 10
0.0
 20
0.0
 30
0.0
 70
   128
 71
    65
 72
    71
 73
    64
  0
VERTEX
  5
704
  8
0
 62
     9
 10
0.0
 20
0.0
 30
0.0
 70
   128
 71
    57
 72
    70
 73
    62
  0
VERTEX
  5
705
  8
0
 62
     9
 10
0.0
 20
0.0
 30
0.0
 70
   128
 71
    38
 72
    56
 73
    42
  0
VERTEX
  5
706
  8
0
 62
     9
 10
0.0
 20
0.0
 30
0.0
 70
   128
 71
    32
 72
    44
 73
    34
  0
VERTEX
  5
707
  8
0
 62
     9
 10
0.0
 20
0.0
 30
0.0
 70
   128
 71
    27
 72
    36
 73
    31
  0
VERTEX
  5
708
  8
0
 62
     9
 10
0.0
 20
0.0
 30
0.0
 70
   128
 71
    22
 72
    29
 73
    26
  0
VERTEX
  5
709
  8
0
 62
     9
 10
0.0
 20
0.0
 30
0.0
 70
   128
 71
     8
 72
    21
 73
    10
  0
VERTEX
  5
70A
  8
0
 62
     9
 10
0.0
 20
0.0
 30
0.0
 70
   128
 71
     1
 72
    13
 73
     3
  0
SEQEND
  5
70B
  8
0
 62
     9
  0
ENDBLK
  5
70E
  8
0
  0
BLOCK
  8
0
  2
E3_NODE_30_
 70
     0
 10
0.0
 20
0.0
 30
0.0
  3
E3_NODE_30_
  1

  0
POLYLINE
  5
710
  8
0
 62
     9
 66
     1
 10
0.0
 20
0.0
 30
0.0
 70
    64
 71
    15
 72
    13
  0
VERTEX
  5
711
  8
0
 10
16.42799949645996
 20
146.3459930419922
 30
51.09799957275391
 70
   192
  0
VERTEX
  5
712
  8
0
 10
12.88399982452393
 20
115.870002746582
 30
50.67900085449219
 70
   192
  0
VERTEX
  5
713
  8
0
 10
10.8439998626709
 20
116.0009994506836
 30
50.65000152587891
 70
   192
  0
VERTEX
  5
714
  8
0
 10
13.60999965667725
 20
115.7600021362305
 30
50.7140007019043
 70
   192
  0
VERTEX
  5
715
  8
0
 10
17.3799991607666
 20
146.3459930419922
 30
51.4379997253418
 70
   192
  0
VERTEX
  5
716
  8
0
 10
18.47200012207031
 20
146.3459930419922
 30
51.83000183105469
 70
   192
  0
VERTEX
  5
717
  8
0
 10
17.03800010681152
 20
114.7519989013672
 30
51.23300170898438
 70
   192
  0
VERTEX
  5
718
  8
0
 10
18.46699905395508
 20
113.9820022583008
 30
51.82500076293945
 70
   192
  0
VERTEX
  5
719
  8
0
 10
19.50200080871582
 20
146.3459930419922
 30
52.19900131225586
 70
   192
  0
VERTEX
  5
71A
  8
0
 10
19.76399993896484
 20
113.2829971313477
 30
52.36299896240234
 70
   192
  0
VERTEX
  5
71B
  8
0
 10
18.75300025939941
 20
146.3459930419922
 30
51.93000030517578
 70
   192
  0
VERTEX
  5
71C
  8
0
 10
21.29199981689453
 20
146.3459930419922
 30
53.81800079345703
 70
   192
  0
VERTEX
  5
71D
  8
0
 10
21.29299926757812
 20
112.1169967651367
 30
53.81900024414062
 70
   192
  0
VERTEX
  5
71E
  8
0
 10
20.23399925231934
 20
112.9250030517578
 30
52.81000137329102
 70
   192
  0
VERTEX
  5
71F
  8
0
 10
10.8439998626709
 20
146.3459930419922
 30
50.65000152587891
 70
   192
  0
VERTEX
  5
720
  8
0
 62
     9
 10
0.0
 20
0.0
 30
0.0
 70
   128
 71
     3
 72
     2
 73
     1
  0
VERTEX
  5
721
  8
0
 62
     9
 10
0.0
 20
0.0
 30
0.0
 70
   128
 71
     1
 72
     2
 73
     4
  0
VERTEX
  5
722
  8
0
 62
     9
 10
0.0
 20
0.0
 30
0.0
 70
   128
 71
     4
 72
     5
 73
     1
  0
VERTEX
  5
723
  8
0
 62
     9
 10
0.0
 20
0.0
 30
0.0
 70
   128
 71
     4
 72
     6
 73
     5
  0
VERTEX
  5
724
  8
0
 62
     9
 10
0.0
 20
0.0
 30
0.0
 70
   128
 71
     4
 72
     7
 73
     6
  0
VERTEX
  5
725
  8
0
 62
     9
 10
0.0
 20
0.0
 30
0.0
 70
   128
 71
     7
 72
     8
 73
     6
  0
VERTEX
  5
726
  8
0
 62
     9
 10
0.0
 20
0.0
 30
0.0
 70
   128
 71
     8
 72
    10
 73
     9
  0
VERTEX
  5
727
  8
0
 62
     9
 10
0.0
 20
0.0
 30
0.0
 70
   128
 71
     9
 72
    11
 73
     8
  0
VERTEX
  5
728
  8
0
 62
     9
 10
0.0
 20
0.0
 30
0.0
 70
   128
 71
    11
 72
     6
 73
     8
  0
VERTEX
  5
729
  8
0
 62
     9
 10
0.0
 20
0.0
 30
0.0
 70
   128
 71
    14
 72
    13
 73
    12
  0
VERTEX
  5
72A
  8
0
 62
     9
 10
0.0
 20
0.0
 30
0.0
 70
   128
 71
    12
 72
    10
 73
    14
  0
VERTEX
  5
72B
  8
0
 62
     9
 10
0.0
 20
0.0
 30
0.0
 70
   128
 71
    10
 72
    12
 73
     9
  0
VERTEX
  5
72C
  8
0
 62
     9
 10
0.0
 20
0.0
 30
0.0
 70
   128
 71
     1
 72
    15
 73
     3
  0
SEQEND
  5
72D
  8
0
 62
     9
  0
ENDBLK
  5
730
  8
0
  0
BLOCK
  8
0
  2
E3_NODE_31_
 70
     0
 10
0.0
 20
0.0
 30
0.0
  3
E3_NODE_31_
  1

  0
POLYLINE
  5
732
  8
0
 62
     9
 66
     1
 10
0.0
 20
0.0
 30
0.0
 70
    64
 71
     8
 72
     6
  0
VERTEX
  5
733
  8
0
 10
21.33300018310547
 20
146.3459930419922
 30
54.48099899291992
 70
   192
  0
VERTEX
  5
734
  8
0
 10
21.0049991607666
 20
112.359001159668
 30
54.78400039672852
 70
   192
  0
VERTEX
  5
735
  8
0
 10
21.33200073242188
 20
112.0830001831055
 30
54.48300170898438
 70
   192
  0
VERTEX
  5
736
  8
0
 10
20.77000045776367
 20
146.3459930419922
 30
54.83399963378906
 70
   192
  0
VERTEX
  5
737
  8
0
 10
20.77000045776367
 20
112.5490036010742
 30
54.83399963378906
 70
   192
  0
VERTEX
  5
738
  8
0
 10
21.33200073242188
 20
112.0830001831055
 30
54.48199844360352
 70
   192
  0
VERTEX
  5
739
  8
0
 10
21.29299926757812
 20
112.1169967651367
 30
53.81900024414062
 70
   192
  0
VERTEX
  5
73A
  8
0
 10
21.29199981689453
 20
146.3459930419922
 30
53.81800079345703
 70
   192
  0
VERTEX
  5
73B
  8
0
 62
     9
 10
0.0
 20
0.0
 30
0.0
 70
   128
 71
     3
 72
     2
 73
     1
  0
VERTEX
  5
73C
  8
0
 62
     9
 10
0.0
 20
0.0
 30
0.0
 70
   128
 71
     5
 72
     4
 73
     1
  0
VERTEX
  5
73D
  8
0
 62
     9
 10
0.0
 20
0.0
 30
0.0
 70
   128
 71
     1
 72
     2
 73
     5
  0
VERTEX
  5
73E
  8
0
 62
     9
 10
0.0
 20
0.0
 30
0.0
 70
   128
 71
     7
 72
     6
 73
     1
  0
VERTEX
  5
73F
  8
0
 62
     9
 10
0.0
 20
0.0
 30
0.0
 70
   128
 71
     1
 72
     8
 73
     7
  0
VERTEX
  5
740
  8
0
 62
     9
 10
0.0
 20
0.0
 30
0.0
 70
   128
 71
     1
 72
     6
 73
     3
  0
SEQEND
  5
741
  8
0
 62
     9
  0
ENDBLK
  5
744
  8
0
  0
BLOCK
  8
0
  2
E3_NODE_32_
 70
     0
 10
0.0
 20
0.0
 30
0.0
  3
E3_NODE_32_
  1

  0
POLYLINE
  5
746
  8
0
 62
     9
 66
     1
 10
0.0
 20
0.0
 30
0.0
 70
    64
 71
     4
 72
     2
  0
VERTEX
  5
747
  8
0
 10
-31.77099990844727
 20
-2.0
 30
66.5260009765625
 70
   192
  0
VERTEX
  5
748
  8
0
 10
-31.77099990844727
 20
0.0
 30
68.5260009765625
 70
   192
  0
VERTEX
  5
749
  8
0
 10
-31.77099990844727
 20
2.0
 30
66.5260009765625
 70
   192
  0
VERTEX
  5
74A
  8
0
 10
-31.77099990844727
 20
0.0
 30
64.5260009765625
 70
   192
  0
VERTEX
  5
74B
  8
0
 62
     9
 10
0.0
 20
0.0
 30
0.0
 70
   128
 71
     3
 72
     2
 73
     1
  0
VERTEX
  5
74C
  8
0
 62
     9
 10
0.0
 20
0.0
 30
0.0
 70
   128
 71
     1
 72
     4
 73
     3
  0
SEQEND
  5
74D
  8
0
 62
     9
  0
ENDBLK
  5
750
  8
0
  0
BLOCK
  8
0
  2
E3_NODE_33_
 70
     0
 10
0.0
 20
0.0
 30
0.0
  3
E3_NODE_33_
  1

  0
POLYLINE
  5
752
  8
0
 62
     9
 66
     1
 10
0.0
 20
0.0
 30
0.0
 70
    64
 71
    12
 72
    12
  0
VERTEX
  5
753
  8
0
 10
-31.77099990844727
 20
0.0
 30
64.5260009765625
 70
   192
  0
VERTEX
  5
754
  8
0
 10
-31.77099990844727
 20
2.0
 30
66.5260009765625
 70
   192
  0
VERTEX
  5
755
  8
0
 10
-18.40099906921387
 20
1.901999950408936
 30
65.90799713134766
 70
   192
  0
VERTEX
  5
756
  8
0
 10
-18.40099906921387
 20
1.730000019073486
 30
66.43800354003906
 70
   192
  0
VERTEX
  5
757
  8
0
 10
-31.77099990844727
 20
0.0
 30
68.5260009765625
 70
   192
  0
VERTEX
  5
758
  8
0
 10
-18.40099906921387
 20
1.175999999046326
 30
68.14399719238281
 70
   192
  0
VERTEX
  5
759
  8
0
 10
-18.40099906921387
 20
0.0
 30
68.14399719238281
 70
   192
  0
VERTEX
  5
75A
  8
0
 10
-31.77099990844727
 20
-2.0
 30
66.5260009765625
 70
   192
  0
VERTEX
  5
75B
  8
0
 10
-18.40099906921387
 20
-2.0
 30
66.5260009765625
 70
   192
  0
VERTEX
  5
75C
  8
0
 10
-18.40099906921387
 20
-1.175999999046326
 30
68.14399719238281
 70
   192
  0
VERTEX
  5
75D
  8
0
 10
-18.40099906921387
 20
0.0
 30
64.5260009765625
 70
   192
  0
VERTEX
  5
75E
  8
0
 10
-18.40099906921387
 20
-1.901999950408936
 30
65.90799713134766
 70
   192
  0
VERTEX
  5
75F
  8
0
 62
     9
 10
0.0
 20
0.0
 30
0.0
 70
   128
 71
     3
 72
     2
 73
     1
  0
VERTEX
  5
760
  8
0
 62
     9
 10
0.0
 20
0.0
 30
0.0
 70
   128
 71
     3
 72
     4
 73
     2
  0
VERTEX
  5
761
  8
0
 62
     9
 10
0.0
 20
0.0
 30
0.0
 70
   128
 71
     6
 72
     5
 73
     2
  0
VERTEX
  5
762
  8
0
 62
     9
 10
0.0
 20
0.0
 30
0.0
 70
   128
 71
     6
 72
     7
 73
     5
  0
VERTEX
  5
763
  8
0
 62
     9
 10
0.0
 20
0.0
 30
0.0
 70
   128
 71
    10
 72
     9
 73
     8
  0
VERTEX
  5
764
  8
0
 62
     9
 10
0.0
 20
0.0
 30
0.0
 70
   128
 71
     8
 72
     5
 73
    10
  0
VERTEX
  5
765
  8
0
 62
     9
 10
0.0
 20
0.0
 30
0.0
 70
   128
 71
    12
 72
    11
 73
     1
  0
VERTEX
  5
766
  8
0
 62
     9
 10
0.0
 20
0.0
 30
0.0
 70
   128
 71
     1
 72
     8
 73
    12
  0
VERTEX
  5
767
  8
0
 62
     9
 10
0.0
 20
0.0
 30
0.0
 70
   128
 71
     8
 72
     9
 73
    12
  0
VERTEX
  5
768
  8
0
 62
     9
 10
0.0
 20
0.0
 30
0.0
 70
   128
 71
     5
 72
     7
 73
    10
  0
VERTEX
  5
769
  8
0
 62
     9
 10
0.0
 20
0.0
 30
0.0
 70
   128
 71
     2
 72
     4
 73
     6
  0
VERTEX
  5
76A
  8
0
 62
     9
 10
0.0
 20
0.0
 30
0.0
 70
   128
 71
     1
 72
    11
 73
     3
  0
SEQEND
  5
76B
  8
0
 62
     9
  0
ENDBLK
  5
76E
  8
0
  0
BLOCK
  8
0
  2
E3_NODE_34_
 70
     0
 10
0.0
 20
0.0
 30
0.0
  3
E3_NODE_34_
  1

  0
POLYLINE
  5
770
  8
0
 62
     9
 66
     1
 10
0.0
 20
0.0
 30
0.0
 70
    64
 71
    21
 72
    26
  0
VERTEX
  5
771
  8
0
 10
-17.00099945068359
 20
-1.901999950408936
 30
65.4530029296875
 70
   192
  0
VERTEX
  5
772
  8
0
 10
-18.40099906921387
 20
-1.901999950408936
 30
65.90799713134766
 70
   192
  0
VERTEX
  5
773
  8
0
 10
-18.40099906921387
 20
0.0
 30
64.5260009765625
 70
   192
  0
VERTEX
  5
774
  8
0
 10
-17.8129997253418
 20
0.0
 30
64.33499908447266
 70
   192
  0
VERTEX
  5
775
  8
0
 10
-17.45000076293945
 20
0.0
 30
63.83499908447266
 70
   192
  0
VERTEX
  5
776
  8
0
 10
-15.68599987030029
 20
-1.175999999046326
 30
67.26200103759766
 70
   192
  0
VERTEX
  5
777
  8
0
 10
-18.40099906921387
 20
-2.0
 30
66.5260009765625
 70
   192
  0
VERTEX
  5
778
  8
0
 10
-18.40099906921387
 20
-1.175999999046326
 30
68.14399719238281
 70
   192
  0
VERTEX
  5
779
  8
0
 10
-16.13500022888184
 20
-1.901999950408936
 30
64.26200103759766
 70
   192
  0
VERTEX
  5
77A
  8
0
 10
-15.54800033569336
 20
-2.0
 30
64.4530029296875
 70
   192
  0
VERTEX
  5
77B
  8
0
 10
-15.68599987030029
 20
1.175999999046326
 30
67.26200103759766
 70
   192
  0
VERTEX
  5
77C
  8
0
 10
-18.40099906921387
 20
0.0
 30
68.14399719238281
 70
   192
  0
VERTEX
  5
77D
  8
0
 10
-18.40099906921387
 20
1.175999999046326
 30
68.14399719238281
 70
   192
  0
VERTEX
  5
77E
  8
0
 10
-14.00899982452393
 20
-1.175999999046326
 30
64.9530029296875
 70
   192
  0
VERTEX
  5
77F
  8
0
 10
-14.00899982452393
 20
0.0
 30
64.9530029296875
 70
   192
  0
VERTEX
  5
780
  8
0
 10
-18.40099906921387
 20
1.730000019073486
 30
66.43800354003906
 70
   192
  0
VERTEX
  5
781
  8
0
 10
-17.00099945068359
 20
1.901999950408936
 30
65.4530029296875
 70
   192
  0
VERTEX
  5
782
  8
0
 10
-18.40099906921387
 20
1.901999950408936
 30
65.90799713134766
 70
   192
  0
VERTEX
  5
783
  8
0
 10
-15.63099956512451
 20
1.730000019073486
 30
64.4260025024414
 70
   192
  0
VERTEX
  5
784
  8
0
 10
-14.00899982452393
 20
1.175999999046326
 30
64.9530029296875
 70
   192
  0
VERTEX
  5
785
  8
0
 10
-16.13500022888184
 20
1.901999950408936
 30
64.26200103759766
 70
   192
  0
VERTEX
  5
786
  8
0
 62
     9
 10
0.0
 20
0.0
 30
0.0
 70
   128
 71
     3
 72
     2
 73
     1
  0
VERTEX
  5
787
  8
0
 62
     9
 10
0.0
 20
0.0
 30
0.0
 70
   128
 71
     5
 72
     4
 73
     1
  0
VERTEX
  5
788
  8
0
 62
     9
 10
0.0
 20
0.0
 30
0.0
 70
   128
 71
     2
 72
     7
 73
     6
  0
VERTEX
  5
789
  8
0
 62
     9
 10
0.0
 20
0.0
 30
0.0
 70
   128
 71
     7
 72
     8
 73
     6
  0
VERTEX
  5
78A
  8
0
 62
     9
 10
0.0
 20
0.0
 30
0.0
 70
   128
 71
     9
 72
     1
 73
     6
  0
VERTEX
  5
78B
  8
0
 62
     9
 10
0.0
 20
0.0
 30
0.0
 70
   128
 71
     6
 72
    10
 73
     9
  0
VERTEX
  5
78C
  8
0
 62
     9
 10
0.0
 20
0.0
 30
0.0
 70
   128
 71
    12
 72
    11
 73
     6
  0
VERTEX
  5
78D
  8
0
 62
     9
 10
0.0
 20
0.0
 30
0.0
 70
   128
 71
    12
 72
    13
 73
    11
  0
VERTEX
  5
78E
  8
0
 62
     9
 10
0.0
 20
0.0
 30
0.0
 70
   128
 71
    15
 72
    14
 73
     6
  0
VERTEX
  5
78F
  8
0
 62
     9
 10
0.0
 20
0.0
 30
0.0
 70
   128
 71
     6
 72
    11
 73
    15
  0
VERTEX
  5
790
  8
0
 62
     9
 10
0.0
 20
0.0
 30
0.0
 70
   128
 71
    17
 72
    11
 73
    16
  0
VERTEX
  5
791
  8
0
 62
     9
 10
0.0
 20
0.0
 30
0.0
 70
   128
 71
    16
 72
    18
 73
    17
  0
VERTEX
  5
792
  8
0
 62
     9
 10
0.0
 20
0.0
 30
0.0
 70
   128
 71
    19
 72
    11
 73
    17
  0
VERTEX
  5
793
  8
0
 62
     9
 10
0.0
 20
0.0
 30
0.0
 70
   128
 71
    19
 72
    20
 73
    11
  0
VERTEX
  5
794
  8
0
 62
     9
 10
0.0
 20
0.0
 30
0.0
 70
   128
 71
     3
 72
     4
 73
    17
  0
VERTEX
  5
795
  8
0
 62
     9
 10
0.0
 20
0.0
 30
0.0
 70
   128
 71
     5
 72
    21
 73
    17
  0
VERTEX
  5
796
  8
0
 62
     9
 10
0.0
 20
0.0
 30
0.0
 70
   128
 71
    17
 72
     4
 73
     5
  0
VERTEX
  5
797
  8
0
 62
     9
 10
0.0
 20
0.0
 30
0.0
 70
   128
 71
    17
 72
    18
 73
     3
  0
VERTEX
  5
798
  8
0
 62
     9
 10
0.0
 20
0.0
 30
0.0
 70
   128
 71
    17
 72
    21
 73
    19
  0
VERTEX
  5
799
  8
0
 62
     9
 10
0.0
 20
0.0
 30
0.0
 70
   128
 71
    11
 72
    13
 73
    16
  0
VERTEX
  5
79A
  8
0
 62
     9
 10
0.0
 20
0.0
 30
0.0
 70
   128
 71
    11
 72
    20
 73
    15
  0
VERTEX
  5
79B
  8
0
 62
     9
 10
0.0
 20
0.0
 30
0.0
 70
   128
 71
     6
 72
     8
 73
    12
  0
VERTEX
  5
79C
  8
0
 62
     9
 10
0.0
 20
0.0
 30
0.0
 70
   128
 71
     6
 72
    14
 73
    10
  0
VERTEX
  5
79D
  8
0
 62
     9
 10
0.0
 20
0.0
 30
0.0
 70
   128
 71
     6
 72
     1
 73
     2
  0
VERTEX
  5
79E
  8
0
 62
     9
 10
0.0
 20
0.0
 30
0.0
 70
   128
 71
     1
 72
     9
 73
     5
  0
VERTEX
  5
79F
  8
0
 62
     9
 10
0.0
 20
0.0
 30
0.0
 70
   128
 71
     1
 72
     4
 73
     3
  0
SEQEND
  5
7A0
  8
0
 62
     9
  0
ENDBLK
  5
7A3
  8
0
  0
BLOCK
  8
0
  2
E3_NODE_35_
 70
     0
 10
0.0
 20
0.0
 30
0.0
  3
E3_NODE_35_
  1

  0
POLYLINE
  5
7A5
  8
0
 62
     9
 66
     1
 10
0.0
 20
0.0
 30
0.0
 70
    64
 71
    12
 72
    12
  0
VERTEX
  5
7A6
  8
0
 10
-14.00899982452393
 20
1.175999999046326
 30
64.9530029296875
 70
   192
  0
VERTEX
  5
7A7
  8
0
 10
3.328999996185303
 20
0.0
 30
12.82900047302246
 70
   192
  0
VERTEX
  5
7A8
  8
0
 10
1.22599995136261
 20
2.0
 30
12.82900047302246
 70
   192
  0
VERTEX
  5
7A9
  8
0
 10
-15.63099956512451
 20
1.730000019073486
 30
64.4260025024414
 70
   192
  0
VERTEX
  5
7AA
  8
0
 10
-16.13500022888184
 20
1.901999950408936
 30
64.26200103759766
 70
   192
  0
VERTEX
  5
7AB
  8
0
 10
-0.8769999742507935
 20
0.0
 30
12.82900047302246
 70
   192
  0
VERTEX
  5
7AC
  8
0
 10
-17.45000076293945
 20
0.0
 30
63.83499908447266
 70
   192
  0
VERTEX
  5
7AD
  8
0
 10
-16.13500022888184
 20
-1.901999950408936
 30
64.26200103759766
 70
   192
  0
VERTEX
  5
7AE
  8
0
 10
1.22599995136261
 20
-2.0
 30
12.82900047302246
 70
   192
  0
VERTEX
  5
7AF
  8
0
 10
-15.54800033569336
 20
-2.0
 30
64.4530029296875
 70
   192
  0
VERTEX
  5
7B0
  8
0
 10
-14.00899982452393
 20
-1.175999999046326
 30
64.9530029296875
 70
   192
  0
VERTEX
  5
7B1
  8
0
 10
-14.00899982452393
 20
0.0
 30
64.9530029296875
 70
   192
  0
VERTEX
  5
7B2
  8
0
 62
     9
 10
0.0
 20
0.0
 30
0.0
 70
   128
 71
     3
 72
     2
 73
     1
  0
VERTEX
  5
7B3
  8
0
 62
     9
 10
0.0
 20
0.0
 30
0.0
 70
   128
 71
     1
 72
     4
 73
     3
  0
VERTEX
  5
7B4
  8
0
 62
     9
 10
0.0
 20
0.0
 30
0.0
 70
   128
 71
     6
 72
     3
 73
     5
  0
VERTEX
  5
7B5
  8
0
 62
     9
 10
0.0
 20
0.0
 30
0.0
 70
   128
 71
     5
 72
     7
 73
     6
  0
VERTEX
  5
7B6
  8
0
 62
     9
 10
0.0
 20
0.0
 30
0.0
 70
   128
 71
     6
 72
     7
 73
     8
  0
VERTEX
  5
7B7
  8
0
 62
     9
 10
0.0
 20
0.0
 30
0.0
 70
   128
 71
     8
 72
    10
 73
     9
  0
VERTEX
  5
7B8
  8
0
 62
     9
 10
0.0
 20
0.0
 30
0.0
 70
   128
 71
     9
 72
    10
 73
    11
  0
VERTEX
  5
7B9
  8
0
 62
     9
 10
0.0
 20
0.0
 30
0.0
 70
   128
 71
    11
 72
    12
 73
     2
  0
VERTEX
  5
7BA
  8
0
 62
     9
 10
0.0
 20
0.0
 30
0.0
 70
   128
 71
    11
 72
     2
 73
     9
  0
VERTEX
  5
7BB
  8
0
 62
     9
 10
0.0
 20
0.0
 30
0.0
 70
   128
 71
     8
 72
     9
 73
     6
  0
VERTEX
  5
7BC
  8
0
 62
     9
 10
0.0
 20
0.0
 30
0.0
 70
   128
 71
     3
 72
     4
 73
     5
  0
VERTEX
  5
7BD
  8
0
 62
     9
 10
0.0
 20
0.0
 30
0.0
 70
   128
 71
     2
 72
    12
 73
     1
  0
SEQEND
  5
7BE
  8
0
 62
     9
  0
ENDBLK
  5
7C1
  8
0
  0
BLOCK
  8
0
  2
E3_NODE_36_
 70
     0
 10
0.0
 20
0.0
 30
0.0
  3
E3_NODE_36_
  1

  0
POLYLINE
  5
7C3
  8
0
 62
     9
 66
     1
 10
0.0
 20
0.0
 30
0.0
 70
    64
 71
    12
 72
    10
  0
VERTEX
  5
7C4
  8
0
 10
32.49499893188477
 20
12.5
 30
1.850000023841858
 70
   192
  0
VERTEX
  5
7C5
  8
0
 10
-1.656000018119812
 20
21.65099906921387
 30
1.850000023841858
 70
   192
  0
VERTEX
  5
7C6
  8
0
 10
10.8439998626709
 20
25.0
 30
1.850000023841858
 70
   192
  0
VERTEX
  5
7C7
  8
0
 10
-10.80700016021729
 20
-12.5
 30
1.850000023841858
 70
   192
  0
VERTEX
  5
7C8
  8
0
 10
23.3439998626709
 20
-21.65099906921387
 30
1.850000023841858
 70
   192
  0
VERTEX
  5
7C9
  8
0
 10
10.8439998626709
 20
-25.0
 30
1.850000023841858
 70
   192
  0
VERTEX
  5
7CA
  8
0
 10
-10.80700016021729
 20
12.5
 30
1.850000023841858
 70
   192
  0
VERTEX
  5
7CB
  8
0
 10
32.49499893188477
 20
-12.5
 30
1.850000023841858
 70
   192
  0
VERTEX
  5
7CC
  8
0
 10
35.84400177001953
 20
0.0
 30
1.850000023841858
 70
   192
  0
VERTEX
  5
7CD
  8
0
 10
-14.1560001373291
 20
0.0
 30
1.850000023841858
 70
   192
  0
VERTEX
  5
7CE
  8
0
 10
23.3439998626709
 20
21.65099906921387
 30
1.850000023841858
 70
   192
  0
VERTEX
  5
7CF
  8
0
 10
-1.656000018119812
 20
-21.65099906921387
 30
1.850000023841858
 70
   192
  0
VERTEX
  5
7D0
  8
0
 62
     9
 10
0.0
 20
0.0
 30
0.0
 70
   128
 71
     3
 72
     2
 73
     1
  0
VERTEX
  5
7D1
  8
0
 62
     9
 10
0.0
 20
0.0
 30
0.0
 70
   128
 71
     6
 72
     5
 73
     4
  0
VERTEX
  5
7D2
  8
0
 62
     9
 10
0.0
 20
0.0
 30
0.0
 70
   128
 71
     2
 72
     7
 73
     1
  0
VERTEX
  5
7D3
  8
0
 62
     9
 10
0.0
 20
0.0
 30
0.0
 70
   128
 71
     5
 72
     8
 73
     4
  0
VERTEX
  5
7D4
  8
0
 62
     9
 10
0.0
 20
0.0
 30
0.0
 70
   128
 71
     9
 72
     1
 73
     4
  0
VERTEX
  5
7D5
  8
0
 62
     9
 10
0.0
 20
0.0
 30
0.0
 70
   128
 71
     7
 72
    10
 73
     1
  0
VERTEX
  5
7D6
  8
0
 62
     9
 10
0.0
 20
0.0
 30
0.0
 70
   128
 71
     4
 72
     8
 73
     9
  0
VERTEX
  5
7D7
  8
0
 62
     9
 10
0.0
 20
0.0
 30
0.0
 70
   128
 71
    10
 72
     4
 73
     1
  0
VERTEX
  5
7D8
  8
0
 62
     9
 10
0.0
 20
0.0
 30
0.0
 70
   128
 71
     1
 72
    11
 73
     3
  0
VERTEX
  5
7D9
  8
0
 62
     9
 10
0.0
 20
0.0
 30
0.0
 70
   128
 71
     4
 72
    12
 73
     6
  0
SEQEND
  5
7DA
  8
0
 62
     9
  0
ENDBLK
  5
7DD
  8
0
  0
BLOCK
  8
0
  2
E3_NODE_37_
 70
     0
 10
0.0
 20
0.0
 30
0.0
  3
E3_NODE_37_
  1

  0
POLYLINE
  5
7DF
  8
0
 62
     9
 66
     1
 10
0.0
 20
0.0
 30
0.0
 70
    64
 71
    24
 72
    24
  0
VERTEX
  5
7E0
  8
0
 10
-1.656000018119812
 20
21.65099906921387
 30
7.849999904632568
 70
   192
  0
VERTEX
  5
7E1
  8
0
 10
10.8439998626709
 20
25.0
 30
7.849999904632568
 70
   192
  0
VERTEX
  5
7E2
  8
0
 10
10.8439998626709
 20
25.0
 30
1.850000023841858
 70
   192
  0
VERTEX
  5
7E3
  8
0
 10
-10.80700016021729
 20
12.5
 30
7.849999904632568
 70
   192
  0
VERTEX
  5
7E4
  8
0
 10
-1.656000018119812
 20
21.65099906921387
 30
1.850000023841858
 70
   192
  0
VERTEX
  5
7E5
  8
0
 10
-14.1560001373291
 20
0.0
 30
1.850000023841858
 70
   192
  0
VERTEX
  5
7E6
  8
0
 10
-14.1560001373291
 20
0.0
 30
7.849999904632568
 70
   192
  0
VERTEX
  5
7E7
  8
0
 10
-10.80700016021729
 20
-12.5
 30
1.850000023841858
 70
   192
  0
VERTEX
  5
7E8
  8
0
 10
-10.80700016021729
 20
-12.5
 30
7.849999904632568
 70
   192
  0
VERTEX
  5
7E9
  8
0
 10
-1.656000018119812
 20
-21.65099906921387
 30
1.850000023841858
 70
   192
  0
VERTEX
  5
7EA
  8
0
 10
-1.656000018119812
 20
-21.65099906921387
 30
7.849999904632568
 70
   192
  0
VERTEX
  5
7EB
  8
0
 10
10.8439998626709
 20
-25.0
 30
1.850000023841858
 70
   192
  0
VERTEX
  5
7EC
  8
0
 10
10.8439998626709
 20
-25.0
 30
7.849999904632568
 70
   192
  0
VERTEX
  5
7ED
  8
0
 10
23.3439998626709
 20
-21.65099906921387
 30
1.850000023841858
 70
   192
  0
VERTEX
  5
7EE
  8
0
 10
32.49499893188477
 20
-12.5
 30
1.850000023841858
 70
   192
  0
VERTEX
  5
7EF
  8
0
 10
32.49499893188477
 20
-12.5
 30
7.849999904632568
 70
   192
  0
VERTEX
  5
7F0
  8
0
 10
23.3439998626709
 20
-21.65099906921387
 30
7.849999904632568
 70
   192
  0
VERTEX
  5
7F1
  8
0
 10
35.84400177001953
 20
0.0
 30
1.850000023841858
 70
   192
  0
VERTEX
  5
7F2
  8
0
 10
35.84400177001953
 20
0.0
 30
7.849999904632568
 70
   192
  0
VERTEX
  5
7F3
  8
0
 10
32.49499893188477
 20
12.5
 30
1.850000023841858
 70
   192
  0
VERTEX
  5
7F4
  8
0
 10
32.49499893188477
 20
12.5
 30
7.849999904632568
 70
   192
  0
VERTEX
  5
7F5
  8
0
 10
23.3439998626709
 20
21.65099906921387
 30
7.849999904632568
 70
   192
  0
VERTEX
  5
7F6
  8
0
 10
23.3439998626709
 20
21.65099906921387
 30
1.850000023841858
 70
   192
  0
VERTEX
  5
7F7
  8
0
 10
-10.80700016021729
 20
12.5
 30
1.850000023841858
 70
   192
  0
VERTEX
  5
7F8
  8
0
 62
     9
 10
0.0
 20
0.0
 30
0.0
 70
   128
 71
     3
 72
     2
 73
     1
  0
VERTEX
  5
7F9
  8
0
 62
     9
 10
0.0
 20
0.0
 30
0.0
 70
   128
 71
     5
 72
     1
 73
     4
  0
VERTEX
  5
7FA
  8
0
 62
     9
 10
0.0
 20
0.0
 30
0.0
 70
   128
 71
     4
 72
     7
 73
     6
  0
VERTEX
  5
7FB
  8
0
 62
     9
 10
0.0
 20
0.0
 30
0.0
 70
   128
 71
     7
 72
     9
 73
     8
  0
VERTEX
  5
7FC
  8
0
 62
     9
 10
0.0
 20
0.0
 30
0.0
 70
   128
 71
     9
 72
    11
 73
    10
  0
VERTEX
  5
7FD
  8
0
 62
     9
 10
0.0
 20
0.0
 30
0.0
 70
   128
 71
    11
 72
    13
 73
    12
  0
VERTEX
  5
7FE
  8
0
 62
     9
 10
0.0
 20
0.0
 30
0.0
 70
   128
 71
    14
 72
    12
 73
    13
  0
VERTEX
  5
7FF
  8
0
 62
     9
 10
0.0
 20
0.0
 30
0.0
 70
   128
 71
    17
 72
    16
 73
    15
  0
VERTEX
  5
800
  8
0
 62
     9
 10
0.0
 20
0.0
 30
0.0
 70
   128
 71
    16
 72
    19
 73
    18
  0
VERTEX
  5
801
  8
0
 62
     9
 10
0.0
 20
0.0
 30
0.0
 70
   128
 71
    19
 72
    21
 73
    20
  0
VERTEX
  5
802
  8
0
 62
     9
 10
0.0
 20
0.0
 30
0.0
 70
   128
 71
    20
 72
    21
 73
    22
  0
VERTEX
  5
803
  8
0
 62
     9
 10
0.0
 20
0.0
 30
0.0
 70
   128
 71
    23
 72
    22
 73
     2
  0
VERTEX
  5
804
  8
0
 62
     9
 10
0.0
 20
0.0
 30
0.0
 70
   128
 71
     2
 72
     3
 73
    23
  0
VERTEX
  5
805
  8
0
 62
     9
 10
0.0
 20
0.0
 30
0.0
 70
   128
 71
    22
 72
    23
 73
    20
  0
VERTEX
  5
806
  8
0
 62
     9
 10
0.0
 20
0.0
 30
0.0
 70
   128
 71
    20
 72
    18
 73
    19
  0
VERTEX
  5
807
  8
0
 62
     9
 10
0.0
 20
0.0
 30
0.0
 70
   128
 71
    18
 72
    15
 73
    16
  0
VERTEX
  5
808
  8
0
 62
     9
 10
0.0
 20
0.0
 30
0.0
 70
   128
 71
    15
 72
    14
 73
    17
  0
VERTEX
  5
809
  8
0
 62
     9
 10
0.0
 20
0.0
 30
0.0
 70
   128
 71
    13
 72
    17
 73
    14
  0
VERTEX
  5
80A
  8
0
 62
     9
 10
0.0
 20
0.0
 30
0.0
 70
   128
 71
    12
 72
    10
 73
    11
  0
VERTEX
  5
80B
  8
0
 62
     9
 10
0.0
 20
0.0
 30
0.0
 70
   128
 71
    10
 72
     8
 73
     9
  0
VERTEX
  5
80C
  8
0
 62
     9
 10
0.0
 20
0.0
 30
0.0
 70
   128
 71
     8
 72
     6
 73
     7
  0
VERTEX
  5
80D
  8
0
 62
     9
 10
0.0
 20
0.0
 30
0.0
 70
   128
 71
     6
 72
    24
 73
     4
  0
VERTEX
  5
80E
  8
0
 62
     9
 10
0.0
 20
0.0
 30
0.0
 70
   128
 71
     4
 72
    24
 73
     5
  0
VERTEX
  5
80F
  8
0
 62
     9
 10
0.0
 20
0.0
 30
0.0
 70
   128
 71
     1
 72
     5
 73
     3
  0
SEQEND
  5
810
  8
0
 62
     9
  0
ENDBLK
  5
813
  8
0
  0
BLOCK
  8
0
  2
E3_NODE_38_
 70
     0
 10
0.0
 20
0.0
 30
0.0
  3
E3_NODE_38_
  1

  0
POLYLINE
  5
815
  8
0
 62
     9
 66
     1
 10
0.0
 20
0.0
 30
0.0
 70
    64
 71
    24
 72
    24
  0
VERTEX
  5
816
  8
0
 10
-14.1560001373291
 20
0.0
 30
7.849999904632568
 70
   192
  0
VERTEX
  5
817
  8
0
 10
-7.156000137329102
 20
0.0
 30
7.849999904632568
 70
   192
  0
VERTEX
  5
818
  8
0
 10
-4.744999885559082
 20
9.0
 30
7.849999904632568
 70
   192
  0
VERTEX
  5
819
  8
0
 10
-10.80700016021729
 20
-12.5
 30
7.849999904632568
 70
   192
  0
VERTEX
  5
81A
  8
0
 10
-4.744999885559082
 20
-9.0
 30
7.849999904632568
 70
   192
  0
VERTEX
  5
81B
  8
0
 10
-1.656000018119812
 20
-21.65099906921387
 30
7.849999904632568
 70
   192
  0
VERTEX
  5
81C
  8
0
 10
1.843999981880188
 20
-15.58800029754639
 30
7.849999904632568
 70
   192
  0
VERTEX
  5
81D
  8
0
 10
10.8439998626709
 20
-25.0
 30
7.849999904632568
 70
   192
  0
VERTEX
  5
81E
  8
0
 10
10.8439998626709
 20
-18.0
 30
7.849999904632568
 70
   192
  0
VERTEX
  5
81F
  8
0
 10
23.3439998626709
 20
-21.65099906921387
 30
7.849999904632568
 70
   192
  0
VERTEX
  5
820
  8
0
 10
19.8439998626709
 20
-15.58800029754639
 30
7.849999904632568
 70
   192
  0
VERTEX
  5
821
  8
0
 10
32.49499893188477
 20
-12.5
 30
7.849999904632568
 70
   192
  0
VERTEX
  5
822
  8
0
 10
26.43199920654297
 20
-9.0
 30
7.849999904632568
 70
   192
  0
VERTEX
  5
823
  8
0
 10
32.49499893188477
 20
12.5
 30
7.849999904632568
 70
   192
  0
VERTEX
  5
824
  8
0
 10
26.43199920654297
 20
9.0
 30
7.849999904632568
 70
   192
  0
VERTEX
  5
825
  8
0
 10
28.8439998626709
 20
0.0
 30
7.849999904632568
 70
   192
  0
VERTEX
  5
826
  8
0
 10
23.3439998626709
 20
21.65099906921387
 30
7.849999904632568
 70
   192
  0
VERTEX
  5
827
  8
0
 10
19.8439998626709
 20
15.58800029754639
 30
7.849999904632568
 70
   192
  0
VERTEX
  5
828
  8
0
 10
-1.656000018119812
 20
21.65099906921387
 30
7.849999904632568
 70
   192
  0
VERTEX
  5
829
  8
0
 10
1.843999981880188
 20
15.58800029754639
 30
7.849999904632568
 70
   192
  0
VERTEX
  5
82A
  8
0
 10
10.8439998626709
 20
18.0
 30
7.849999904632568
 70
   192
  0
VERTEX
  5
82B
  8
0
 10
-10.80700016021729
 20
12.5
 30
7.849999904632568
 70
   192
  0
VERTEX
  5
82C
  8
0
 10
35.84400177001953
 20
0.0
 30
7.849999904632568
 70
   192
  0
VERTEX
  5
82D
  8
0
 10
10.8439998626709
 20
25.0
 30
7.849999904632568
 70
   192
  0
VERTEX
  5
82E
  8
0
 62
     9
 10
0.0
 20
0.0
 30
0.0
 70
   128
 71
     3
 72
     2
 73
     1
  0
VERTEX
  5
82F
  8
0
 62
     9
 10
0.0
 20
0.0
 30
0.0
 70
   128
 71
     2
 72
     5
 73
     4
  0
VERTEX
  5
830
  8
0
 62
     9
 10
0.0
 20
0.0
 30
0.0
 70
   128
 71
     4
 72
     1
 73
     2
  0
VERTEX
  5
831
  8
0
 62
     9
 10
0.0
 20
0.0
 30
0.0
 70
   128
 71
     5
 72
     7
 73
     6
  0
VERTEX
  5
832
  8
0
 62
     9
 10
0.0
 20
0.0
 30
0.0
 70
   128
 71
     6
 72
     4
 73
     5
  0
VERTEX
  5
833
  8
0
 62
     9
 10
0.0
 20
0.0
 30
0.0
 70
   128
 71
     7
 72
     9
 73
     8
  0
VERTEX
  5
834
  8
0
 62
     9
 10
0.0
 20
0.0
 30
0.0
 70
   128
 71
     9
 72
    11
 73
    10
  0
VERTEX
  5
835
  8
0
 62
     9
 10
0.0
 20
0.0
 30
0.0
 70
   128
 71
    11
 72
    13
 73
    12
  0
VERTEX
  5
836
  8
0
 62
     9
 10
0.0
 20
0.0
 30
0.0
 70
   128
 71
     8
 72
     6
 73
     7
  0
VERTEX
  5
837
  8
0
 62
     9
 10
0.0
 20
0.0
 30
0.0
 70
   128
 71
    12
 72
    10
 73
    11
  0
VERTEX
  5
838
  8
0
 62
     9
 10
0.0
 20
0.0
 30
0.0
 70
   128
 71
    16
 72
    15
 73
    14
  0
VERTEX
  5
839
  8
0
 62
     9
 10
0.0
 20
0.0
 30
0.0
 70
   128
 71
    15
 72
    18
 73
    17
  0
VERTEX
  5
83A
  8
0
 62
     9
 10
0.0
 20
0.0
 30
0.0
 70
   128
 71
    21
 72
    20
 73
    19
  0
VERTEX
  5
83B
  8
0
 62
     9
 10
0.0
 20
0.0
 30
0.0
 70
   128
 71
    20
 72
     3
 73
    22
  0
VERTEX
  5
83C
  8
0
 62
     9
 10
0.0
 20
0.0
 30
0.0
 70
   128
 71
    10
 72
     8
 73
     9
  0
VERTEX
  5
83D
  8
0
 62
     9
 10
0.0
 20
0.0
 30
0.0
 70
   128
 71
    13
 72
    16
 73
    23
  0
VERTEX
  5
83E
  8
0
 62
     9
 10
0.0
 20
0.0
 30
0.0
 70
   128
 71
    17
 72
    14
 73
    15
  0
VERTEX
  5
83F
  8
0
 62
     9
 10
0.0
 20
0.0
 30
0.0
 70
   128
 71
    18
 72
    21
 73
    24
  0
VERTEX
  5
840
  8
0
 62
     9
 10
0.0
 20
0.0
 30
0.0
 70
   128
 71
    22
 72
    19
 73
    20
  0
VERTEX
  5
841
  8
0
 62
     9
 10
0.0
 20
0.0
 30
0.0
 70
   128
 71
    23
 72
    12
 73
    13
  0
VERTEX
  5
842
  8
0
 62
     9
 10
0.0
 20
0.0
 30
0.0
 70
   128
 71
    24
 72
    17
 73
    18
  0
VERTEX
  5
843
  8
0
 62
     9
 10
0.0
 20
0.0
 30
0.0
 70
   128
 71
     1
 72
    22
 73
     3
  0
VERTEX
  5
844
  8
0
 62
     9
 10
0.0
 20
0.0
 30
0.0
 70
   128
 71
    19
 72
    24
 73
    21
  0
VERTEX
  5
845
  8
0
 62
     9
 10
0.0
 20
0.0
 30
0.0
 70
   128
 71
    14
 72
    23
 73
    16
  0
SEQEND
  5
846
  8
0
 62
     9
  0
ENDBLK
  5
849
  8
0
  0
BLOCK
  8
0
  2
E3_NODE_39_
 70
     0
 10
0.0
 20
0.0
 30
0.0
  3
E3_NODE_39_
  1

  0
POLYLINE
  5
84B
  8
0
 62
     9
 66
     1
 10
0.0
 20
0.0
 30
0.0
 70
    64
 71
    41
 72
    54
  0
VERTEX
  5
84C
  8
0
 10
10.8439998626709
 20
-114.25
 30
7.849999904632568
 70
   192
  0
VERTEX
  5
84D
  8
0
 10
17.31900024414062
 20
-112.6940002441406
 30
7.849999904632568
 70
   192
  0
VERTEX
  5
84E
  8
0
 10
16.92600059509277
 20
-111.9219970703125
 30
8.350000381469727
 70
   192
  0
VERTEX
  5
84F
  8
0
 10
10.68900012969971
 20
-113.3830032348633
 30
8.350000381469727
 70
   192
  0
VERTEX
  5
850
  8
0
 10
10.67899990081787
 20
-114.2490005493164
 30
7.849999904632568
 70
   192
  0
VERTEX
  5
851
  8
0
 10
22.47699928283691
 20
-108.2300033569336
 30
7.849999904632568
 70
   192
  0
VERTEX
  5
852
  8
0
 10
21.77000045776367
 20
-107.7300033569336
 30
8.350000381469727
 70
   192
  0
VERTEX
  5
853
  8
0
 10
24.9689998626709
 20
-101.8820037841797
 30
7.849999904632568
 70
   192
  0
VERTEX
  5
854
  8
0
 10
24.11100006103516
 20
-101.7669982910156
 30
8.350000381469727
 70
   192
  0
VERTEX
  5
855
  8
0
 10
24.22599983215332
 20
-95.10199737548828
 30
7.849999904632568
 70
   192
  0
VERTEX
  5
856
  8
0
 10
23.41200065612793
 20
-95.4000015258789
 30
8.350000381469727
 70
   192
  0
VERTEX
  5
857
  8
0
 10
20.41699981689453
 20
-89.44400024414062
 30
7.849999904632568
 70
   192
  0
VERTEX
  5
858
  8
0
 10
19.83499908447266
 20
-90.08599853515625
 30
8.350000381469727
 70
   192
  0
VERTEX
  5
859
  8
0
 10
14.41399955749512
 20
-86.20500183105469
 30
7.849999904632568
 70
   192
  0
VERTEX
  5
85A
  8
0
 10
14.19699954986572
 20
-87.04299926757812
 30
8.350000381469727
 70
   192
  0
VERTEX
  5
85B
  8
0
 10
7.593999862670898
 20
-86.125
 30
7.849999904632568
 70
   192
  0
VERTEX
  5
85C
  8
0
 10
7.791999816894531
 20
-86.96900177001953
 30
8.350000381469727
 70
   192
  0
VERTEX
  5
85D
  8
0
 10
1.519000053405762
 20
-89.2249984741211
 30
7.849999904632568
 70
   192
  0
VERTEX
  5
85E
  8
0
 10
2.085999965667725
 20
-89.87999725341797
 30
8.350000381469727
 70
   192
  0
VERTEX
  5
85F
  8
0
 10
-2.421000003814697
 20
-94.79299926757812
 30
7.849999904632568
 70
   192
  0
VERTEX
  5
860
  8
0
 10
-1.613999962806702
 20
-95.10900115966797
 30
8.350000381469727
 70
   192
  0
VERTEX
  5
861
  8
0
 10
-3.321000099182129
 20
-101.5530014038086
 30
7.849999904632568
 70
   192
  0
VERTEX
  5
862
  8
0
 10
-2.460000038146973
 20
-101.4589996337891
 30
8.350000381469727
 70
   192
  0
VERTEX
  5
863
  8
0
 10
-0.9769999980926514
 20
-107.9580001831055
 30
7.849999904632568
 70
   192
  0
VERTEX
  5
864
  8
0
 10
-0.257999986410141
 20
-107.4749984741211
 30
8.350000381469727
 70
   192
  0
VERTEX
  5
865
  8
0
 10
4.076000213623047
 20
-112.5400009155273
 30
7.849999904632568
 70
   192
  0
VERTEX
  5
866
  8
0
 10
4.486999988555908
 20
-111.7779998779297
 30
8.350000381469727
 70
   192
  0
VERTEX
  5
867
  8
0
 10
16.92600059509277
 20
-111.9219970703125
 30
9.350000381469727
 70
   192
  0
VERTEX
  5
868
  8
0
 10
10.68900012969971
 20
-113.3830032348633
 30
9.350000381469727
 70
   192
  0
VERTEX
  5
869
  8
0
 10
21.77000045776367
 20
-107.7300033569336
 30
9.350000381469727
 70
   192
  0
VERTEX
  5
86A
  8
0
 10
24.11100006103516
 20
-101.7669982910156
 30
9.350000381469727
 70
   192
  0
VERTEX
  5
86B
  8
0
 10
23.41200065612793
 20
-95.4000015258789
 30
9.350000381469727
 70
   192
  0
VERTEX
  5
86C
  8
0
 10
14.19699954986572
 20
-87.04299926757812
 30
9.350000381469727
 70
   192
  0
VERTEX
  5
86D
  8
0
 10
19.83499908447266
 20
-90.08599853515625
 30
9.350000381469727
 70
   192
  0
VERTEX
  5
86E
  8
0
 10
2.085999965667725
 20
-89.87999725341797
 30
9.350000381469727
 70
   192
  0
VERTEX
  5
86F
  8
0
 10
7.791999816894531
 20
-86.96900177001953
 30
9.350000381469727
 70
   192
  0
VERTEX
  5
870
  8
0
 10
-2.539999961853027
 20
-100.0
 30
9.350000381469727
 70
   192
  0
VERTEX
  5
871
  8
0
 10
-2.460000038146973
 20
-101.4589996337891
 30
9.350000381469727
 70
   192
  0
VERTEX
  5
872
  8
0
 10
-0.257999986410141
 20
-107.4749984741211
 30
9.350000381469727
 70
   192
  0
VERTEX
  5
873
  8
0
 10
4.486999988555908
 20
-111.7779998779297
 30
9.350000381469727
 70
   192
  0
VERTEX
  5
874
  8
0
 10
-1.613999962806702
 20
-95.10900115966797
 30
9.350000381469727
 70
   192
  0
VERTEX
  5
875
  8
0
 62
     9
 10
0.0
 20
0.0
 30
0.0
 70
   128
 71
     3
 72
     2
 73
     1
  0
VERTEX
  5
876
  8
0
 62
     9
 10
0.0
 20
0.0
 30
0.0
 70
   128
 71
     1
 72
     5
 73
     4
  0
VERTEX
  5
877
  8
0
 62
     9
 10
0.0
 20
0.0
 30
0.0
 70
   128
 71
     3
 72
     7
 73
     6
  0
VERTEX
  5
878
  8
0
 62
     9
 10
0.0
 20
0.0
 30
0.0
 70
   128
 71
     7
 72
     9
 73
     8
  0
VERTEX
  5
879
  8
0
 62
     9
 10
0.0
 20
0.0
 30
0.0
 70
   128
 71
     9
 72
    11
 73
    10
  0
VERTEX
  5
87A
  8
0
 62
     9
 10
0.0
 20
0.0
 30
0.0
 70
   128
 71
    11
 72
    13
 73
    12
  0
VERTEX
  5
87B
  8
0
 62
     9
 10
0.0
 20
0.0
 30
0.0
 70
   128
 71
    15
 72
    14
 73
    12
  0
VERTEX
  5
87C
  8
0
 62
     9
 10
0.0
 20
0.0
 30
0.0
 70
   128
 71
    15
 72
    17
 73
    16
  0
VERTEX
  5
87D
  8
0
 62
     9
 10
0.0
 20
0.0
 30
0.0
 70
   128
 71
    19
 72
    18
 73
    16
  0
VERTEX
  5
87E
  8
0
 62
     9
 10
0.0
 20
0.0
 30
0.0
 70
   128
 71
    19
 72
    21
 73
    20
  0
VERTEX
  5
87F
  8
0
 62
     9
 10
0.0
 20
0.0
 30
0.0
 70
   128
 71
    21
 72
    23
 73
    22
  0
VERTEX
  5
880
  8
0
 62
     9
 10
0.0
 20
0.0
 30
0.0
 70
   128
 71
    23
 72
    25
 73
    24
  0
VERTEX
  5
881
  8
0
 62
     9
 10
0.0
 20
0.0
 30
0.0
 70
   128
 71
    25
 72
    27
 73
    26
  0
VERTEX
  5
882
  8
0
 62
     9
 10
0.0
 20
0.0
 30
0.0
 70
   128
 71
    27
 72
     4
 73
     5
  0
VERTEX
  5
883
  8
0
 62
     9
 10
0.0
 20
0.0
 30
0.0
 70
   128
 71
     4
 72
    29
 73
    28
  0
VERTEX
  5
884
  8
0
 62
     9
 10
0.0
 20
0.0
 30
0.0
 70
   128
 71
     3
 72
    28
 73
    30
  0
VERTEX
  5
885
  8
0
 62
     9
 10
0.0
 20
0.0
 30
0.0
 70
   128
 71
     7
 72
    30
 73
    31
  0
VERTEX
  5
886
  8
0
 62
     9
 10
0.0
 20
0.0
 30
0.0
 70
   128
 71
     9
 72
    31
 73
    32
  0
VERTEX
  5
887
  8
0
 62
     9
 10
0.0
 20
0.0
 30
0.0
 70
   128
 71
    13
 72
    11
 73
    32
  0
VERTEX
  5
888
  8
0
 62
     9
 10
0.0
 20
0.0
 30
0.0
 70
   128
 71
    13
 72
    34
 73
    33
  0
VERTEX
  5
889
  8
0
 62
     9
 10
0.0
 20
0.0
 30
0.0
 70
   128
 71
    17
 72
    15
 73
    33
  0
VERTEX
  5
88A
  8
0
 62
     9
 10
0.0
 20
0.0
 30
0.0
 70
   128
 71
    17
 72
    36
 73
    35
  0
VERTEX
  5
88B
  8
0
 62
     9
 10
0.0
 20
0.0
 30
0.0
 70
   128
 71
    21
 72
    19
 73
    35
  0
VERTEX
  5
88C
  8
0
 62
     9
 10
0.0
 20
0.0
 30
0.0
 70
   128
 71
    37
 72
    23
 73
    21
  0
VERTEX
  5
88D
  8
0
 62
     9
 10
0.0
 20
0.0
 30
0.0
 70
   128
 71
    37
 72
    38
 73
    23
  0
VERTEX
  5
88E
  8
0
 62
     9
 10
0.0
 20
0.0
 30
0.0
 70
   128
 71
    23
 72
    38
 73
    39
  0
VERTEX
  5
88F
  8
0
 62
     9
 10
0.0
 20
0.0
 30
0.0
 70
   128
 71
    27
 72
    25
 73
    39
  0
VERTEX
  5
890
  8
0
 62
     9
 10
0.0
 20
0.0
 30
0.0
 70
   128
 71
     4
 72
    27
 73
    40
  0
VERTEX
  5
891
  8
0
 62
     9
 10
0.0
 20
0.0
 30
0.0
 70
   128
 71
    40
 72
    29
 73
     4
  0
VERTEX
  5
892
  8
0
 62
     9
 10
0.0
 20
0.0
 30
0.0
 70
   128
 71
    39
 72
    40
 73
    27
  0
VERTEX
  5
893
  8
0
 62
     9
 10
0.0
 20
0.0
 30
0.0
 70
   128
 71
    39
 72
    25
 73
    23
  0
VERTEX
  5
894
  8
0
 62
     9
 10
0.0
 20
0.0
 30
0.0
 70
   128
 71
    21
 72
    41
 73
    37
  0
VERTEX
  5
895
  8
0
 62
     9
 10
0.0
 20
0.0
 30
0.0
 70
   128
 71
    35
 72
    41
 73
    21
  0
VERTEX
  5
896
  8
0
 62
     9
 10
0.0
 20
0.0
 30
0.0
 70
   128
 71
    35
 72
    19
 73
    17
  0
VERTEX
  5
897
  8
0
 62
     9
 10
0.0
 20
0.0
 30
0.0
 70
   128
 71
    33
 72
    36
 73
    17
  0
VERTEX
  5
898
  8
0
 62
     9
 10
0.0
 20
0.0
 30
0.0
 70
   128
 71
    33
 72
    15
 73
    13
  0
VERTEX
  5
899
  8
0
 62
     9
 10
0.0
 20
0.0
 30
0.0
 70
   128
 71
    32
 72
    34
 73
    13
  0
VERTEX
  5
89A
  8
0
 62
     9
 10
0.0
 20
0.0
 30
0.0
 70
   128
 71
    32
 72
    11
 73
     9
  0
VERTEX
  5
89B
  8
0
 62
     9
 10
0.0
 20
0.0
 30
0.0
 70
   128
 71
    31
 72
     9
 73
     7
  0
VERTEX
  5
89C
  8
0
 62
     9
 10
0.0
 20
0.0
 30
0.0
 70
   128
 71
    30
 72
     7
 73
     3
  0
VERTEX
  5
89D
  8
0
 62
     9
 10
0.0
 20
0.0
 30
0.0
 70
   128
 71
    28
 72
     3
 73
     4
  0
VERTEX
  5
89E
  8
0
 62
     9
 10
0.0
 20
0.0
 30
0.0
 70
   128
 71
     5
 72
    26
 73
    27
  0
VERTEX
  5
89F
  8
0
 62
     9
 10
0.0
 20
0.0
 30
0.0
 70
   128
 71
    26
 72
    24
 73
    25
  0
VERTEX
  5
8A0
  8
0
 62
     9
 10
0.0
 20
0.0
 30
0.0
 70
   128
 71
    24
 72
    22
 73
    23
  0
VERTEX
  5
8A1
  8
0
 62
     9
 10
0.0
 20
0.0
 30
0.0
 70
   128
 71
    22
 72
    20
 73
    21
  0
VERTEX
  5
8A2
  8
0
 62
     9
 10
0.0
 20
0.0
 30
0.0
 70
   128
 71
    20
 72
    18
 73
    19
  0
VERTEX
  5
8A3
  8
0
 62
     9
 10
0.0
 20
0.0
 30
0.0
 70
   128
 71
    16
 72
    17
 73
    19
  0
VERTEX
  5
8A4
  8
0
 62
     9
 10
0.0
 20
0.0
 30
0.0
 70
   128
 71
    16
 72
    14
 73
    15
  0
VERTEX
  5
8A5
  8
0
 62
     9
 10
0.0
 20
0.0
 30
0.0
 70
   128
 71
    12
 72
    13
 73
    15
  0
VERTEX
  5
8A6
  8
0
 62
     9
 10
0.0
 20
0.0
 30
0.0
 70
   128
 71
    12
 72
    10
 73
    11
  0
VERTEX
  5
8A7
  8
0
 62
     9
 10
0.0
 20
0.0
 30
0.0
 70
   128
 71
    10
 72
     8
 73
     9
  0
VERTEX
  5
8A8
  8
0
 62
     9
 10
0.0
 20
0.0
 30
0.0
 70
   128
 71
     8
 72
     6
 73
     7
  0
VERTEX
  5
8A9
  8
0
 62
     9
 10
0.0
 20
0.0
 30
0.0
 70
   128
 71
     6
 72
     2
 73
     3
  0
VERTEX
  5
8AA
  8
0
 62
     9
 10
0.0
 20
0.0
 30
0.0
 70
   128
 71
     1
 72
     4
 73
     3
  0
SEQEND
  5
8AB
  8
0
 62
     9
  0
ENDBLK
  5
8AE
  8
0
  0
BLOCK
  8
0
  2
E3_NODE_40_
 70
     0
 10
0.0
 20
0.0
 30
0.0
  3
E3_NODE_40_
  1

  0
POLYLINE
  5
8B0
  8
0
 62
     9
 66
     1
 10
0.0
 20
0.0
 30
0.0
 70
    64
 71
    26
 72
    26
  0
VERTEX
  5
8B1
  8
0
 10
10.8439998626709
 20
-125.0
 30
7.849999904632568
 70
   192
  0
VERTEX
  5
8B2
  8
0
 10
23.3439998626709
 20
-121.6510009765625
 30
7.849999904632568
 70
   192
  0
VERTEX
  5
8B3
  8
0
 10
17.31900024414062
 20
-112.6940002441406
 30
7.849999904632568
 70
   192
  0
VERTEX
  5
8B4
  8
0
 10
-10.80700016021729
 20
-87.5
 30
7.849999904632568
 70
   192
  0
VERTEX
  5
8B5
  8
0
 10
-2.421000003814697
 20
-94.79299926757812
 30
7.849999904632568
 70
   192
  0
VERTEX
  5
8B6
  8
0
 10
1.519000053405762
 20
-89.2249984741211
 30
7.849999904632568
 70
   192
  0
VERTEX
  5
8B7
  8
0
 10
-14.1560001373291
 20
-100.0
 30
7.849999904632568
 70
   192
  0
VERTEX
  5
8B8
  8
0
 10
-3.321000099182129
 20
-101.5530014038086
 30
7.849999904632568
 70
   192
  0
VERTEX
  5
8B9
  8
0
 10
-10.80700016021729
 20
-112.5
 30
7.849999904632568
 70
   192
  0
VERTEX
  5
8BA
  8
0
 10
-0.9769999980926514
 20
-107.9580001831055
 30
7.849999904632568
 70
   192
  0
VERTEX
  5
8BB
  8
0
 10
-1.656000018119812
 20
-121.6510009765625
 30
7.849999904632568
 70
   192
  0
VERTEX
  5
8BC
  8
0
 10
4.076000213623047
 20
-112.5400009155273
 30
7.849999904632568
 70
   192
  0
VERTEX
  5
8BD
  8
0
 10
10.67899990081787
 20
-114.2490005493164
 30
7.849999904632568
 70
   192
  0
VERTEX
  5
8BE
  8
0
 10
10.8439998626709
 20
-114.25
 30
7.849999904632568
 70
   192
  0
VERTEX
  5
8BF
  8
0
 10
23.3439998626709
 20
-78.3489990234375
 30
7.849999904632568
 70
   192
  0
VERTEX
  5
8C0
  8
0
 10
10.8439998626709
 20
-75.0
 30
7.849999904632568
 70
   192
  0
VERTEX
  5
8C1
  8
0
 10
14.41399955749512
 20
-86.20500183105469
 30
7.849999904632568
 70
   192
  0
VERTEX
  5
8C2
  8
0
 10
32.49499893188477
 20
-112.5
 30
7.849999904632568
 70
   192
  0
VERTEX
  5
8C3
  8
0
 10
22.47699928283691
 20
-108.2300033569336
 30
7.849999904632568
 70
   192
  0
VERTEX
  5
8C4
  8
0
 10
35.84400177001953
 20
-100.0
 30
7.849999904632568
 70
   192
  0
VERTEX
  5
8C5
  8
0
 10
32.49499893188477
 20
-87.5
 30
7.849999904632568
 70
   192
  0
VERTEX
  5
8C6
  8
0
 10
24.22599983215332
 20
-95.10199737548828
 30
7.849999904632568
 70
   192
  0
VERTEX
  5
8C7
  8
0
 10
20.41699981689453
 20
-89.44400024414062
 30
7.849999904632568
 70
   192
  0
VERTEX
  5
8C8
  8
0
 10
7.593999862670898
 20
-86.125
 30
7.849999904632568
 70
   192
  0
VERTEX
  5
8C9
  8
0
 10
-1.656000018119812
 20
-78.3489990234375
 30
7.849999904632568
 70
   192
  0
VERTEX
  5
8CA
  8
0
 10
24.9689998626709
 20
-101.8820037841797
 30
7.849999904632568
 70
   192
  0
VERTEX
  5
8CB
  8
0
 62
     9
 10
0.0
 20
0.0
 30
0.0
 70
   128
 71
     3
 72
     2
 73
     1
  0
VERTEX
  5
8CC
  8
0
 62
     9
 10
0.0
 20
0.0
 30
0.0
 70
   128
 71
     6
 72
     5
 73
     4
  0
VERTEX
  5
8CD
  8
0
 62
     9
 10
0.0
 20
0.0
 30
0.0
 70
   128
 71
     5
 72
     8
 73
     7
  0
VERTEX
  5
8CE
  8
0
 62
     9
 10
0.0
 20
0.0
 30
0.0
 70
   128
 71
     8
 72
    10
 73
     9
  0
VERTEX
  5
8CF
  8
0
 62
     9
 10
0.0
 20
0.0
 30
0.0
 70
   128
 71
    10
 72
    12
 73
    11
  0
VERTEX
  5
8D0
  8
0
 62
     9
 10
0.0
 20
0.0
 30
0.0
 70
   128
 71
    12
 72
    13
 73
     1
  0
VERTEX
  5
8D1
  8
0
 62
     9
 10
0.0
 20
0.0
 30
0.0
 70
   128
 71
     1
 72
    14
 73
     3
  0
VERTEX
  5
8D2
  8
0
 62
     9
 10
0.0
 20
0.0
 30
0.0
 70
   128
 71
    17
 72
    16
 73
    15
  0
VERTEX
  5
8D3
  8
0
 62
     9
 10
0.0
 20
0.0
 30
0.0
 70
   128
 71
     7
 72
     4
 73
     5
  0
VERTEX
  5
8D4
  8
0
 62
     9
 10
0.0
 20
0.0
 30
0.0
 70
   128
 71
    11
 72
     9
 73
    10
  0
VERTEX
  5
8D5
  8
0
 62
     9
 10
0.0
 20
0.0
 30
0.0
 70
   128
 71
     1
 72
    13
 73
    14
  0
VERTEX
  5
8D6
  8
0
 62
     9
 10
0.0
 20
0.0
 30
0.0
 70
   128
 71
    19
 72
    18
 73
     2
  0
VERTEX
  5
8D7
  8
0
 62
     9
 10
0.0
 20
0.0
 30
0.0
 70
   128
 71
    22
 72
    21
 73
    20
  0
VERTEX
  5
8D8
  8
0
 62
     9
 10
0.0
 20
0.0
 30
0.0
 70
   128
 71
    23
 72
    15
 73
    21
  0
VERTEX
  5
8D9
  8
0
 62
     9
 10
0.0
 20
0.0
 30
0.0
 70
   128
 71
    17
 72
    24
 73
    16
  0
VERTEX
  5
8DA
  8
0
 62
     9
 10
0.0
 20
0.0
 30
0.0
 70
   128
 71
    24
 72
     6
 73
    25
  0
VERTEX
  5
8DB
  8
0
 62
     9
 10
0.0
 20
0.0
 30
0.0
 70
   128
 71
     9
 72
     7
 73
     8
  0
VERTEX
  5
8DC
  8
0
 62
     9
 10
0.0
 20
0.0
 30
0.0
 70
   128
 71
     2
 72
     3
 73
    19
  0
VERTEX
  5
8DD
  8
0
 62
     9
 10
0.0
 20
0.0
 30
0.0
 70
   128
 71
    21
 72
    22
 73
    23
  0
VERTEX
  5
8DE
  8
0
 62
     9
 10
0.0
 20
0.0
 30
0.0
 70
   128
 71
    25
 72
    16
 73
    24
  0
VERTEX
  5
8DF
  8
0
 62
     9
 10
0.0
 20
0.0
 30
0.0
 70
   128
 71
     1
 72
    11
 73
    12
  0
VERTEX
  5
8E0
  8
0
 62
     9
 10
0.0
 20
0.0
 30
0.0
 70
   128
 71
    26
 72
    20
 73
    18
  0
VERTEX
  5
8E1
  8
0
 62
     9
 10
0.0
 20
0.0
 30
0.0
 70
   128
 71
    15
 72
    23
 73
    17
  0
VERTEX
  5
8E2
  8
0
 62
     9
 10
0.0
 20
0.0
 30
0.0
 70
   128
 71
    18
 72
    19
 73
    26
  0
VERTEX
  5
8E3
  8
0
 62
     9
 10
0.0
 20
0.0
 30
0.0
 70
   128
 71
     4
 72
    25
 73
     6
  0
VERTEX
  5
8E4
  8
0
 62
     9
 10
0.0
 20
0.0
 30
0.0
 70
   128
 71
    20
 72
    26
 73
    22
  0
SEQEND
  5
8E5
  8
0
 62
     9
  0
ENDBLK
  5
8E8
  8
0
  0
BLOCK
  8
0
  2
E3_NODE_41_
 70
     0
 10
0.0
 20
0.0
 30
0.0
  3
E3_NODE_41_
  1

  0
POLYLINE
  5
8EA
  8
0
 62
     9
 66
     1
 10
0.0
 20
0.0
 30
0.0
 70
    64
 71
    24
 72
    24
  0
VERTEX
  5
8EB
  8
0
 10
-1.656000018119812
 20
-78.3489990234375
 30
7.849999904632568
 70
   192
  0
VERTEX
  5
8EC
  8
0
 10
10.8439998626709
 20
-75.0
 30
7.849999904632568
 70
   192
  0
VERTEX
  5
8ED
  8
0
 10
10.8439998626709
 20
-75.0
 30
1.850000023841858
 70
   192
  0
VERTEX
  5
8EE
  8
0
 10
-10.80700016021729
 20
-87.5
 30
7.849999904632568
 70
   192
  0
VERTEX
  5
8EF
  8
0
 10
-1.656000018119812
 20
-78.3489990234375
 30
1.850000023841858
 70
   192
  0
VERTEX
  5
8F0
  8
0
 10
-10.80700016021729
 20
-87.5
 30
1.850000023841858
 70
   192
  0
VERTEX
  5
8F1
  8
0
 10
-14.1560001373291
 20
-100.0
 30
1.850000023841858
 70
   192
  0
VERTEX
  5
8F2
  8
0
 10
-14.1560001373291
 20
-100.0
 30
7.849999904632568
 70
   192
  0
VERTEX
  5
8F3
  8
0
 10
-10.80700016021729
 20
-112.5
 30
1.850000023841858
 70
   192
  0
VERTEX
  5
8F4
  8
0
 10
-10.80700016021729
 20
-112.5
 30
7.849999904632568
 70
   192
  0
VERTEX
  5
8F5
  8
0
 10
-1.656000018119812
 20
-121.6510009765625
 30
1.850000023841858
 70
   192
  0
VERTEX
  5
8F6
  8
0
 10
10.8439998626709
 20
-125.0
 30
1.850000023841858
 70
   192
  0
VERTEX
  5
8F7
  8
0
 10
10.8439998626709
 20
-125.0
 30
7.849999904632568
 70
   192
  0
VERTEX
  5
8F8
  8
0
 10
-1.656000018119812
 20
-121.6510009765625
 30
7.849999904632568
 70
   192
  0
VERTEX
  5
8F9
  8
0
 10
23.3439998626709
 20
-121.6510009765625
 30
1.850000023841858
 70
   192
  0
VERTEX
  5
8FA
  8
0
 10
23.3439998626709
 20
-121.6510009765625
 30
7.849999904632568
 70
   192
  0
VERTEX
  5
8FB
  8
0
 10
32.49499893188477
 20
-112.5
 30
1.850000023841858
 70
   192
  0
VERTEX
  5
8FC
  8
0
 10
35.84400177001953
 20
-100.0
 30
1.850000023841858
 70
   192
  0
VERTEX
  5
8FD
  8
0
 10
35.84400177001953
 20
-100.0
 30
7.849999904632568
 70
   192
  0
VERTEX
  5
8FE
  8
0
 10
32.49499893188477
 20
-112.5
 30
7.849999904632568
 70
   192
  0
VERTEX
  5
8FF
  8
0
 10
32.49499893188477
 20
-87.5
 30
1.850000023841858
 70
   192
  0
VERTEX
  5
900
  8
0
 10
32.49499893188477
 20
-87.5
 30
7.849999904632568
 70
   192
  0
VERTEX
  5
901
  8
0
 10
23.3439998626709
 20
-78.3489990234375
 30
7.849999904632568
 70
   192
  0
VERTEX
  5
902
  8
0
 10
23.3439998626709
 20
-78.3489990234375
 30
1.850000023841858
 70
   192
  0
VERTEX
  5
903
  8
0
 62
     9
 10
0.0
 20
0.0
 30
0.0
 70
   128
 71
     3
 72
     2
 73
     1
  0
VERTEX
  5
904
  8
0
 62
     9
 10
0.0
 20
0.0
 30
0.0
 70
   128
 71
     5
 72
     1
 73
     4
  0
VERTEX
  5
905
  8
0
 62
     9
 10
0.0
 20
0.0
 30
0.0
 70
   128
 71
     8
 72
     7
 73
     6
  0
VERTEX
  5
906
  8
0
 62
     9
 10
0.0
 20
0.0
 30
0.0
 70
   128
 71
     8
 72
    10
 73
     9
  0
VERTEX
  5
907
  8
0
 62
     9
 10
0.0
 20
0.0
 30
0.0
 70
   128
 71
    11
 72
     9
 73
    10
  0
VERTEX
  5
908
  8
0
 62
     9
 10
0.0
 20
0.0
 30
0.0
 70
   128
 71
    14
 72
    13
 73
    12
  0
VERTEX
  5
909
  8
0
 62
     9
 10
0.0
 20
0.0
 30
0.0
 70
   128
 71
    13
 72
    16
 73
    15
  0
VERTEX
  5
90A
  8
0
 62
     9
 10
0.0
 20
0.0
 30
0.0
 70
   128
 71
    17
 72
    15
 73
    16
  0
VERTEX
  5
90B
  8
0
 62
     9
 10
0.0
 20
0.0
 30
0.0
 70
   128
 71
    20
 72
    19
 73
    18
  0
VERTEX
  5
90C
  8
0
 62
     9
 10
0.0
 20
0.0
 30
0.0
 70
   128
 71
    22
 72
    21
 73
    18
  0
VERTEX
  5
90D
  8
0
 62
     9
 10
0.0
 20
0.0
 30
0.0
 70
   128
 71
    21
 72
    22
 73
    23
  0
VERTEX
  5
90E
  8
0
 62
     9
 10
0.0
 20
0.0
 30
0.0
 70
   128
 71
    24
 72
    23
 73
     2
  0
VERTEX
  5
90F
  8
0
 62
     9
 10
0.0
 20
0.0
 30
0.0
 70
   128
 71
     2
 72
     3
 73
    24
  0
VERTEX
  5
910
  8
0
 62
     9
 10
0.0
 20
0.0
 30
0.0
 70
   128
 71
    23
 72
    24
 73
    21
  0
VERTEX
  5
911
  8
0
 62
     9
 10
0.0
 20
0.0
 30
0.0
 70
   128
 71
    18
 72
    19
 73
    22
  0
VERTEX
  5
912
  8
0
 62
     9
 10
0.0
 20
0.0
 30
0.0
 70
   128
 71
    18
 72
    17
 73
    20
  0
VERTEX
  5
913
  8
0
 62
     9
 10
0.0
 20
0.0
 30
0.0
 70
   128
 71
    16
 72
    20
 73
    17
  0
VERTEX
  5
914
  8
0
 62
     9
 10
0.0
 20
0.0
 30
0.0
 70
   128
 71
    15
 72
    12
 73
    13
  0
VERTEX
  5
915
  8
0
 62
     9
 10
0.0
 20
0.0
 30
0.0
 70
   128
 71
    12
 72
    11
 73
    14
  0
VERTEX
  5
916
  8
0
 62
     9
 10
0.0
 20
0.0
 30
0.0
 70
   128
 71
    10
 72
    14
 73
    11
  0
VERTEX
  5
917
  8
0
 62
     9
 10
0.0
 20
0.0
 30
0.0
 70
   128
 71
     9
 72
     7
 73
     8
  0
VERTEX
  5
918
  8
0
 62
     9
 10
0.0
 20
0.0
 30
0.0
 70
   128
 71
     6
 72
     4
 73
     8
  0
VERTEX
  5
919
  8
0
 62
     9
 10
0.0
 20
0.0
 30
0.0
 70
   128
 71
     4
 72
     6
 73
     5
  0
VERTEX
  5
91A
  8
0
 62
     9
 10
0.0
 20
0.0
 30
0.0
 70
   128
 71
     1
 72
     5
 73
     3
  0
SEQEND
  5
91B
  8
0
 62
     9
  0
ENDBLK
  5
91E
  8
0
  0
BLOCK
  8
0
  2
E3_NODE_42_
 70
     0
 10
0.0
 20
0.0
 30
0.0
  3
E3_NODE_42_
  1

  0
POLYLINE
  5
920
  8
0
 62
     9
 66
     1
 10
0.0
 20
0.0
 30
0.0
 70
    64
 71
    12
 72
    10
  0
VERTEX
  5
921
  8
0
 10
-10.80700016021729
 20
-87.5
 30
1.850000023841858
 70
   192
  0
VERTEX
  5
922
  8
0
 10
-1.656000018119812
 20
-121.6510009765625
 30
1.850000023841858
 70
   192
  0
VERTEX
  5
923
  8
0
 10
-10.80700016021729
 20
-112.5
 30
1.850000023841858
 70
   192
  0
VERTEX
  5
924
  8
0
 10
10.8439998626709
 20
-75.0
 30
1.850000023841858
 70
   192
  0
VERTEX
  5
925
  8
0
 10
32.49499893188477
 20
-87.5
 30
1.850000023841858
 70
   192
  0
VERTEX
  5
926
  8
0
 10
35.84400177001953
 20
-100.0
 30
1.850000023841858
 70
   192
  0
VERTEX
  5
927
  8
0
 10
10.8439998626709
 20
-125.0
 30
1.850000023841858
 70
   192
  0
VERTEX
  5
928
  8
0
 10
32.49499893188477
 20
-112.5
 30
1.850000023841858
 70
   192
  0
VERTEX
  5
929
  8
0
 10
23.3439998626709
 20
-121.6510009765625
 30
1.850000023841858
 70
   192
  0
VERTEX
  5
92A
  8
0
 10
23.3439998626709
 20
-78.3489990234375
 30
1.850000023841858
 70
   192
  0
VERTEX
  5
92B
  8
0
 10
-1.656000018119812
 20
-78.3489990234375
 30
1.850000023841858
 70
   192
  0
VERTEX
  5
92C
  8
0
 10
-14.1560001373291
 20
-100.0
 30
1.850000023841858
 70
   192
  0
VERTEX
  5
92D
  8
0
 62
     9
 10
0.0
 20
0.0
 30
0.0
 70
   128
 71
     3
 72
     2
 73
     1
  0
VERTEX
  5
92E
  8
0
 62
     9
 10
0.0
 20
0.0
 30
0.0
 70
   128
 71
     6
 72
     5
 73
     4
  0
VERTEX
  5
92F
  8
0
 62
     9
 10
0.0
 20
0.0
 30
0.0
 70
   128
 71
     2
 72
     7
 73
     1
  0
VERTEX
  5
930
  8
0
 62
     9
 10
0.0
 20
0.0
 30
0.0
 70
   128
 71
     9
 72
     8
 73
     1
  0
VERTEX
  5
931
  8
0
 62
     9
 10
0.0
 20
0.0
 30
0.0
 70
   128
 71
     5
 72
    10
 73
     4
  0
VERTEX
  5
932
  8
0
 62
     9
 10
0.0
 20
0.0
 30
0.0
 70
   128
 71
    11
 72
     1
 73
     8
  0
VERTEX
  5
933
  8
0
 62
     9
 10
0.0
 20
0.0
 30
0.0
 70
   128
 71
     1
 72
     7
 73
     9
  0
VERTEX
  5
934
  8
0
 62
     9
 10
0.0
 20
0.0
 30
0.0
 70
   128
 71
     8
 72
     4
 73
    11
  0
VERTEX
  5
935
  8
0
 62
     9
 10
0.0
 20
0.0
 30
0.0
 70
   128
 71
     4
 72
     8
 73
     6
  0
VERTEX
  5
936
  8
0
 62
     9
 10
0.0
 20
0.0
 30
0.0
 70
   128
 71
     1
 72
    12
 73
     3
  0
SEQEND
  5
937
  8
0
 62
     9
  0
ENDBLK
  5
93A
  8
0
  0
BLOCK
  8
0
  2
E3_NODE_43_
 70
     0
 10
0.0
 20
0.0
 30
0.0
  3
E3_NODE_43_
  1

  0
POLYLINE
  5
93C
  8
0
 62
     9
 66
     1
 10
0.0
 20
0.0
 30
0.0
 70
    64
 71
    29
 72
    27
  0
VERTEX
  5
93D
  8
0
 10
19.30500030517578
 20
19.73299980163574
 30
8.050999641418457
 70
   192
  0
VERTEX
  5
93E
  8
0
 10
23.39100074768066
 20
17.42300033569336
 30
8.050999641418457
 70
   192
  0
VERTEX
  5
93F
  8
0
 10
20.39299964904785
 20
19.22999954223633
 30
8.043999671936035
 70
   192
  0
VERTEX
  5
940
  8
0
 10
19.26899909973145
 20
19.63400077819824
 30
8.043999671936035
 70
   192
  0
VERTEX
  5
941
  8
0
 10
18.60499954223633
 20
19.87199974060059
 30
8.043000221252441
 70
   192
  0
VERTEX
  5
942
  8
0
 10
18.625
 20
19.87199974060059
 30
8.050999641418457
 70
   192
  0
VERTEX
  5
943
  8
0
 10
15.71399974822998
 20
20.9109992980957
 30
8.041000366210938
 70
   192
  0
VERTEX
  5
944
  8
0
 10
12.0
 20
21.23299980163574
 30
8.050999641418457
 70
   192
  0
VERTEX
  5
945
  8
0
 10
10.8439998626709
 20
21.46999931335449
 30
8.038999557495117
 70
   192
  0
VERTEX
  5
946
  8
0
 10
10.8439998626709
 20
21.46999931335449
 30
8.050999641418457
 70
   192
  0
VERTEX
  5
947
  8
0
 10
7.020999908447266
 20
21.12700080871582
 30
8.041999816894531
 70
   192
  0
VERTEX
  5
948
  8
0
 10
6.236000061035156
 20
20.96999931335449
 30
8.041999816894531
 70
   192
  0
VERTEX
  5
949
  8
0
 10
5.314000129699707
 20
20.7450008392334
 30
8.043000221252441
 70
   192
  0
VERTEX
  5
94A
  8
0
 10
7.73199987411499
 20
21.24399948120117
 30
8.041999816894531
 70
   192
  0
VERTEX
  5
94B
  8
0
 10
8.38700008392334
 20
21.32900047302246
 30
8.041000366210938
 70
   192
  0
VERTEX
  5
94C
  8
0
 10
5.348999977111816
 20
20.7549991607666
 30
8.043000221252441
 70
   192
  0
VERTEX
  5
94D
  8
0
 10
8.994999885559082
 20
21.38999938964844
 30
8.041000366210938
 70
   192
  0
VERTEX
  5
94E
  8
0
 10
9.5649995803833
 20
21.43199920654297
 30
8.039999961853027
 70
   192
  0
VERTEX
  5
94F
  8
0
 10
5.394999980926514
 20
20.35199928283691
 30
8.050999641418457
 70
   192
  0
VERTEX
  5
950
  8
0
 10
10.10299968719482
 20
21.45700073242188
 30
8.039999961853027
 70
   192
  0
VERTEX
  5
951
  8
0
 10
10.61299991607666
 20
21.4689998626709
 30
8.039999961853027
 70
   192
  0
VERTEX
  5
952
  8
0
 10
12.02999973297119
 20
21.33399963378906
 30
8.039999961853027
 70
   192
  0
VERTEX
  5
953
  8
0
 10
2.384999990463257
 20
19.73399925231934
 30
8.050999641418457
 70
   192
  0
VERTEX
  5
954
  8
0
 10
2.394000053405762
 20
19.71299934387207
 30
8.045999526977539
 70
   192
  0
VERTEX
  5
955
  8
0
 10
1.062999963760376
 20
19.11300086975098
 30
8.04800033569336
 70
   192
  0
VERTEX
  5
956
  8
0
 10
0.6439999938011169
 20
18.89299964904785
 30
8.048999786376953
 70
   192
  0
VERTEX
  5
957
  8
0
 10
3.00600004196167
 20
19.98900032043457
 30
8.045000076293945
 70
   192
  0
VERTEX
  5
958
  8
0
 10
0.3160000145435333
 20
18.71199989318848
 30
8.050999641418457
 70
   192
  0
VERTEX
  5
959
  8
0
 10
4.309999942779541
 20
20.45199966430664
 30
8.043999671936035
 70
   192
  0
VERTEX
  5
95A
  8
0
 62
     9
 10
0.0
 20
0.0
 30
0.0
 70
   128
 71
     3
 72
     2
 73
     1
  0
VERTEX
  5
95B
  8
0
 62
     9
 10
0.0
 20
0.0
 30
0.0
 70
   128
 71
     1
 72
     4
 73
     3
  0
VERTEX
  5
95C
  8
0
 62
     9
 10
0.0
 20
0.0
 30
0.0
 70
   128
 71
     1
 72
     5
 73
     4
  0
VERTEX
  5
95D
  8
0
 62
     9
 10
0.0
 20
0.0
 30
0.0
 70
   128
 71
     1
 72
     6
 73
     5
  0
VERTEX
  5
95E
  8
0
 62
     9
 10
0.0
 20
0.0
 30
0.0
 70
   128
 71
     7
 72
     5
 73
     6
  0
VERTEX
  5
95F
  8
0
 62
     9
 10
0.0
 20
0.0
 30
0.0
 70
   128
 71
     6
 72
     8
 73
     7
  0
VERTEX
  5
960
  8
0
 62
     9
 10
0.0
 20
0.0
 30
0.0
 70
   128
 71
     8
 72
    10
 73
     9
  0
VERTEX
  5
961
  8
0
 62
     9
 10
0.0
 20
0.0
 30
0.0
 70
   128
 71
    13
 72
    12
 73
    11
  0
VERTEX
  5
962
  8
0
 62
     9
 10
0.0
 20
0.0
 30
0.0
 70
   128
 71
    11
 72
    14
 73
    13
  0
VERTEX
  5
963
  8
0
 62
     9
 10
0.0
 20
0.0
 30
0.0
 70
   128
 71
    14
 72
    15
 73
    13
  0
VERTEX
  5
964
  8
0
 62
     9
 10
0.0
 20
0.0
 30
0.0
 70
   128
 71
    13
 72
    16
 73
    12
  0
VERTEX
  5
965
  8
0
 62
     9
 10
0.0
 20
0.0
 30
0.0
 70
   128
 71
    15
 72
    17
 73
    10
  0
VERTEX
  5
966
  8
0
 62
     9
 10
0.0
 20
0.0
 30
0.0
 70
   128
 71
    15
 72
    10
 73
    13
  0
VERTEX
  5
967
  8
0
 62
     9
 10
0.0
 20
0.0
 30
0.0
 70
   128
 71
    17
 72
    18
 73
    10
  0
VERTEX
  5
968
  8
0
 62
     9
 10
0.0
 20
0.0
 30
0.0
 70
   128
 71
    10
 72
    19
 73
    13
  0
VERTEX
  5
969
  8
0
 62
     9
 10
0.0
 20
0.0
 30
0.0
 70
   128
 71
    18
 72
    20
 73
    10
  0
VERTEX
  5
96A
  8
0
 62
     9
 10
0.0
 20
0.0
 30
0.0
 70
   128
 71
    20
 72
    21
 73
    10
  0
VERTEX
  5
96B
  8
0
 62
     9
 10
0.0
 20
0.0
 30
0.0
 70
   128
 71
    21
 72
     9
 73
    10
  0
VERTEX
  5
96C
  8
0
 62
     9
 10
0.0
 20
0.0
 30
0.0
 70
   128
 71
     9
 72
    22
 73
     8
  0
VERTEX
  5
96D
  8
0
 62
     9
 10
0.0
 20
0.0
 30
0.0
 70
   128
 71
    25
 72
    24
 73
    23
  0
VERTEX
  5
96E
  8
0
 62
     9
 10
0.0
 20
0.0
 30
0.0
 70
   128
 71
    23
 72
    26
 73
    25
  0
VERTEX
  5
96F
  8
0
 62
     9
 10
0.0
 20
0.0
 30
0.0
 70
   128
 71
    24
 72
    27
 73
    23
  0
VERTEX
  5
970
  8
0
 62
     9
 10
0.0
 20
0.0
 30
0.0
 70
   128
 71
    23
 72
    28
 73
    26
  0
VERTEX
  5
971
  8
0
 62
     9
 10
0.0
 20
0.0
 30
0.0
 70
   128
 71
    29
 72
    19
 73
    23
  0
VERTEX
  5
972
  8
0
 62
     9
 10
0.0
 20
0.0
 30
0.0
 70
   128
 71
    29
 72
    13
 73
    19
  0
VERTEX
  5
973
  8
0
 62
     9
 10
0.0
 20
0.0
 30
0.0
 70
   128
 71
    23
 72
    27
 73
    29
  0
VERTEX
  5
974
  8
0
 62
     9
 10
0.0
 20
0.0
 30
0.0
 70
   128
 71
     8
 72
    22
 73
     7
  0
SEQEND
  5
975
  8
0
 62
     9
  0
ENDBLK
  5
978
  8
0
  0
BLOCK
  8
0
  2
E3_NODE_44_
 70
     0
 10
0.0
 20
0.0
 30
0.0
  3
E3_NODE_44_
  1

  0
POLYLINE
  5
97A
  8
0
 62
     9
 66
     1
 10
0.0
 20
0.0
 30
0.0
 70
    64
 71
    68
 72
    66
  0
VERTEX
  5
97B
  8
0
 10
19.13699913024902
 20
19.34000015258789
 30
98.3239974975586
 70
   192
  0
VERTEX
  5
97C
  8
0
 10
18.625
 20
19.87199974060059
 30
8.050999641418457
 70
   192
  0
VERTEX
  5
97D
  8
0
 10
10.8439998626709
 20
21.23600006103516
 30
58.17800140380859
 70
   192
  0
VERTEX
  5
97E
  8
0
 10
12.0
 20
21.23299980163574
 30
8.050999641418457
 70
   192
  0
VERTEX
  5
97F
  8
0
 10
16.8129997253418
 20
20.07699966430664
 30
101.7649993896484
 70
   192
  0
VERTEX
  5
980
  8
0
 10
19.30500030517578
 20
19.73299980163574
 30
8.050999641418457
 70
   192
  0
VERTEX
  5
981
  8
0
 10
11.05900001525879
 20
21.0
 30
108.322998046875
 70
   192
  0
VERTEX
  5
982
  8
0
 10
11.62800025939941
 20
20.98800086975098
 30
108.1449966430664
 70
   192
  0
VERTEX
  5
983
  8
0
 10
12.74899959564209
 20
20.92000007629395
 30
107.2939987182617
 70
   192
  0
VERTEX
  5
984
  8
0
 10
10.8439998626709
 20
21.00200080871582
 30
108.3430023193359
 70
   192
  0
VERTEX
  5
985
  8
0
 10
15.41899967193604
 20
20.51899909973145
 30
103.8290023803711
 70
   192
  0
VERTEX
  5
986
  8
0
 10
31.77700042724609
 20
4.777999877929688
 30
7.849999904632568
 70
   192
  0
VERTEX
  5
987
  8
0
 10
31.84199905395508
 20
2.270999908447266
 30
82.9800033569336
 70
   192
  0
VERTEX
  5
988
  8
0
 10
31.95100021362305
 20
0.7649999856948853
 30
82.87300109863281
 70
   192
  0
VERTEX
  5
989
  8
0
 10
31.77700042724609
 20
0.0
 30
7.849999904632568
 70
   192
  0
VERTEX
  5
98A
  8
0
 10
28.45899963378906
 20
11.66800022125244
 30
7.849999904632568
 70
   192
  0
VERTEX
  5
98B
  8
0
 10
29.07099914550781
 20
10.64400005340576
 30
85.822998046875
 70
   192
  0
VERTEX
  5
98C
  8
0
 10
30.66900062561035
 20
7.248000144958496
 30
84.15499877929688
 70
   192
  0
VERTEX
  5
98D
  8
0
 10
30.69700050354004
 20
7.190000057220459
 30
84.1259994506836
 70
   192
  0
VERTEX
  5
98E
  8
0
 10
31.07299995422363
 20
6.059000015258789
 30
83.74500274658203
 70
   192
  0
VERTEX
  5
98F
  8
0
 10
28.43600082397461
 20
11.59799957275391
 30
86.51699829101562
 70
   192
  0
VERTEX
  5
990
  8
0
 10
28.45899963378906
 20
-11.66800022125244
 30
7.849999904632568
 70
   192
  0
VERTEX
  5
991
  8
0
 10
31.5319995880127
 20
-4.24399995803833
 30
83.28600311279297
 70
   192
  0
VERTEX
  5
992
  8
0
 10
30.61899948120117
 20
-7.234000205993652
 30
84.20800018310547
 70
   192
  0
VERTEX
  5
993
  8
0
 10
31.72900009155273
 20
-3.138999938964844
 30
83.09100341796875
 70
   192
  0
VERTEX
  5
994
  8
0
 10
31.77700042724609
 20
-4.777999877929688
 30
7.849999904632568
 70
   192
  0
VERTEX
  5
995
  8
0
 10
31.9069995880127
 20
0.0020000000949949
 30
82.91600036621094
 70
   192
  0
VERTEX
  5
996
  8
0
 10
30.39200019836426
 20
-7.978000164031982
 30
84.43699645996094
 70
   192
  0
VERTEX
  5
997
  8
0
 10
29.83300018310547
 20
-9.222999572753906
 30
85.01599884033203
 70
   192
  0
VERTEX
  5
998
  8
0
 10
19.26300048828125
 20
-19.54999923706055
 30
7.849999904632568
 70
   192
  0
VERTEX
  5
999
  8
0
 10
21.77300071716309
 20
-18.00900077819824
 30
94.62699890136719
 70
   192
  0
VERTEX
  5
99A
  8
0
 10
20.77300071716309
 20
-18.47800064086914
 30
96.04900360107422
 70
   192
  0
VERTEX
  5
99B
  8
0
 10
23.78000068664551
 20
-16.64200019836426
 30
91.99800109863281
 70
   192
  0
VERTEX
  5
99C
  8
0
 10
26.67700004577637
 20
-13.93900012969971
 30
88.48699951171875
 70
   192
  0
VERTEX
  5
99D
  8
0
 10
24.09499931335449
 20
-16.34700012207031
 30
91.61599731445312
 70
   192
  0
VERTEX
  5
99E
  8
0
 10
27.79700088500977
 20
-12.5620002746582
 30
87.21499633789062
 70
   192
  0
VERTEX
  5
99F
  8
0
 10
26.87599945068359
 20
-13.69499969482422
 30
88.26200103759766
 70
   192
  0
VERTEX
  5
9A0
  8
0
 10
27.63100051879883
 20
-13.38700008392334
 30
7.849999904632568
 70
   192
  0
VERTEX
  5
9A1
  8
0
 10
28.39800071716309
 20
-11.57600021362305
 30
86.56600189208984
 70
   192
  0
VERTEX
  5
9A2
  8
0
 10
20.15999984741211
 20
-19.34499931335449
 30
7.849999904632568
 70
   192
  0
VERTEX
  5
9A3
  8
0
 10
10.8439998626709
 20
-21.47100067138672
 30
7.849999904632568
 70
   192
  0
VERTEX
  5
9A4
  8
0
 10
12.31599998474121
 20
-20.95299911499023
 30
107.6910018920898
 70
   192
  0
VERTEX
  5
9A5
  8
0
 10
11.52099990844727
 20
-20.99099922180176
 30
108.193000793457
 70
   192
  0
VERTEX
  5
9A6
  8
0
 10
14.46700000762939
 20
-20.70199966430664
 30
105.1890029907227
 70
   192
  0
VERTEX
  5
9A7
  8
0
 10
11.00500011444092
 20
-21.00099945068359
 30
108.3290023803711
 70
   192
  0
VERTEX
  5
9A8
  8
0
 10
16.80200004577637
 20
-20.10099983215332
 30
101.7529983520508
 70
   192
  0
VERTEX
  5
9A9
  8
0
 10
17.92499923706055
 20
-19.8129997253418
 30
100.1009979248047
 70
   192
  0
VERTEX
  5
9AA
  8
0
 10
19.10000038146973
 20
-19.26199913024902
 30
98.42900085449219
 70
   192
  0
VERTEX
  5
9AB
  8
0
 10
19.26300048828125
 20
19.54999923706055
 30
7.849999904632568
 70
   192
  0
VERTEX
  5
9AC
  8
0
 10
15.71399974822998
 20
20.9109992980957
 30
8.041000366210938
 70
   192
  0
VERTEX
  5
9AD
  8
0
 10
18.60499954223633
 20
19.87199974060059
 30
8.043000221252441
 70
   192
  0
VERTEX
  5
9AE
  8
0
 10
10.8439998626709
 20
21.47100067138672
 30
7.849999904632568
 70
   192
  0
VERTEX
  5
9AF
  8
0
 10
12.02999973297119
 20
21.33399963378906
 30
8.039999961853027
 70
   192
  0
VERTEX
  5
9B0
  8
0
 10
10.8439998626709
 20
21.46999931335449
 30
8.038999557495117
 70
   192
  0
VERTEX
  5
9B1
  8
0
 10
23.39100074768066
 20
17.42300033569336
 30
8.050999641418457
 70
   192
  0
VERTEX
  5
9B2
  8
0
 10
27.77199935913086
 20
12.5959997177124
 30
87.24400329589844
 70
   192
  0
VERTEX
  5
9B3
  8
0
 10
25.29800033569336
 20
15.35299968719482
 30
90.11699676513672
 70
   192
  0
VERTEX
  5
9B4
  8
0
 10
26.84000015258789
 20
13.63399982452393
 30
88.32599639892578
 70
   192
  0
VERTEX
  5
9B5
  8
0
 10
22.38800048828125
 20
17.625
 30
93.80400085449219
 70
   192
  0
VERTEX
  5
9B6
  8
0
 10
24.08699989318848
 20
16.29899978637695
 30
91.6510009765625
 70
   192
  0
VERTEX
  5
9B7
  8
0
 10
19.1879997253418
 20
19.32399940490723
 30
98.24800109863281
 70
   192
  0
VERTEX
  5
9B8
  8
0
 10
20.77499961853027
 20
18.48200035095215
 30
96.04499816894531
 70
   192
  0
VERTEX
  5
9B9
  8
0
 10
27.63100051879883
 20
13.38700008392334
 30
7.849999904632568
 70
   192
  0
VERTEX
  5
9BA
  8
0
 10
20.39299964904785
 20
19.22999954223633
 30
8.043999671936035
 70
   192
  0
VERTEX
  5
9BB
  8
0
 10
20.15999984741211
 20
19.34499931335449
 30
7.849999904632568
 70
   192
  0
VERTEX
  5
9BC
  8
0
 10
19.26899909973145
 20
19.63400077819824
 30
8.043999671936035
 70
   192
  0
VERTEX
  5
9BD
  8
0
 10
10.8439998626709
 20
-21.00200080871582
 30
108.3440017700195
 70
   192
  0
VERTEX
  5
9BE
  8
0
 10
10.8439998626709
 20
21.46999931335449
 30
8.050999641418457
 70
   192
  0
VERTEX
  5
9BF
  8
0
 62
     9
 10
0.0
 20
0.0
 30
0.0
 70
   128
 71
     3
 72
     2
 73
     1
  0
VERTEX
  5
9C0
  8
0
 62
     9
 10
0.0
 20
0.0
 30
0.0
 70
   128
 71
     3
 72
     4
 73
     2
  0
VERTEX
  5
9C1
  8
0
 62
     9
 10
0.0
 20
0.0
 30
0.0
 70
   128
 71
     1
 72
     5
 73
     3
  0
VERTEX
  5
9C2
  8
0
 62
     9
 10
0.0
 20
0.0
 30
0.0
 70
   128
 71
     2
 72
     6
 73
     1
  0
VERTEX
  5
9C3
  8
0
 62
     9
 10
0.0
 20
0.0
 30
0.0
 70
   128
 71
     8
 72
     7
 73
     3
  0
VERTEX
  5
9C4
  8
0
 62
     9
 10
0.0
 20
0.0
 30
0.0
 70
   128
 71
     3
 72
     9
 73
     8
  0
VERTEX
  5
9C5
  8
0
 62
     9
 10
0.0
 20
0.0
 30
0.0
 70
   128
 71
     7
 72
    10
 73
     3
  0
VERTEX
  5
9C6
  8
0
 62
     9
 10
0.0
 20
0.0
 30
0.0
 70
   128
 71
     3
 72
    11
 73
     9
  0
VERTEX
  5
9C7
  8
0
 62
     9
 10
0.0
 20
0.0
 30
0.0
 70
   128
 71
     3
 72
     5
 73
    11
  0
VERTEX
  5
9C8
  8
0
 62
     9
 10
0.0
 20
0.0
 30
0.0
 70
   128
 71
    14
 72
    13
 73
    12
  0
VERTEX
  5
9C9
  8
0
 62
     9
 10
0.0
 20
0.0
 30
0.0
 70
   128
 71
    12
 72
    15
 73
    14
  0
VERTEX
  5
9CA
  8
0
 62
     9
 10
0.0
 20
0.0
 30
0.0
 70
   128
 71
    18
 72
    17
 73
    16
  0
VERTEX
  5
9CB
  8
0
 62
     9
 10
0.0
 20
0.0
 30
0.0
 70
   128
 71
    16
 72
    19
 73
    18
  0
VERTEX
  5
9CC
  8
0
 62
     9
 10
0.0
 20
0.0
 30
0.0
 70
   128
 71
    16
 72
    20
 73
    19
  0
VERTEX
  5
9CD
  8
0
 62
     9
 10
0.0
 20
0.0
 30
0.0
 70
   128
 71
    16
 72
    13
 73
    20
  0
VERTEX
  5
9CE
  8
0
 62
     9
 10
0.0
 20
0.0
 30
0.0
 70
   128
 71
    13
 72
    16
 73
    12
  0
VERTEX
  5
9CF
  8
0
 62
     9
 10
0.0
 20
0.0
 30
0.0
 70
   128
 71
    17
 72
    21
 73
    16
  0
VERTEX
  5
9D0
  8
0
 62
     9
 10
0.0
 20
0.0
 30
0.0
 70
   128
 71
    24
 72
    23
 73
    22
  0
VERTEX
  5
9D1
  8
0
 62
     9
 10
0.0
 20
0.0
 30
0.0
 70
   128
 71
    23
 72
    25
 73
    22
  0
VERTEX
  5
9D2
  8
0
 62
     9
 10
0.0
 20
0.0
 30
0.0
 70
   128
 71
    25
 72
    27
 73
    26
  0
VERTEX
  5
9D3
  8
0
 62
     9
 10
0.0
 20
0.0
 30
0.0
 70
   128
 71
    27
 72
    15
 73
    26
  0
VERTEX
  5
9D4
  8
0
 62
     9
 10
0.0
 20
0.0
 30
0.0
 70
   128
 71
    26
 72
    22
 73
    25
  0
VERTEX
  5
9D5
  8
0
 62
     9
 10
0.0
 20
0.0
 30
0.0
 70
   128
 71
    22
 72
    28
 73
    24
  0
VERTEX
  5
9D6
  8
0
 62
     9
 10
0.0
 20
0.0
 30
0.0
 70
   128
 71
    22
 72
    29
 73
    28
  0
VERTEX
  5
9D7
  8
0
 62
     9
 10
0.0
 20
0.0
 30
0.0
 70
   128
 71
    32
 72
    31
 73
    30
  0
VERTEX
  5
9D8
  8
0
 62
     9
 10
0.0
 20
0.0
 30
0.0
 70
   128
 71
    31
 72
    33
 73
    30
  0
VERTEX
  5
9D9
  8
0
 62
     9
 10
0.0
 20
0.0
 30
0.0
 70
   128
 71
    35
 72
    34
 73
    30
  0
VERTEX
  5
9DA
  8
0
 62
     9
 10
0.0
 20
0.0
 30
0.0
 70
   128
 71
    37
 72
    36
 73
    30
  0
VERTEX
  5
9DB
  8
0
 62
     9
 10
0.0
 20
0.0
 30
0.0
 70
   128
 71
    39
 72
    22
 73
    38
  0
VERTEX
  5
9DC
  8
0
 62
     9
 10
0.0
 20
0.0
 30
0.0
 70
   128
 71
    40
 72
    30
 73
    36
  0
VERTEX
  5
9DD
  8
0
 62
     9
 10
0.0
 20
0.0
 30
0.0
 70
   128
 71
    36
 72
    38
 73
    40
  0
VERTEX
  5
9DE
  8
0
 62
     9
 10
0.0
 20
0.0
 30
0.0
 70
   128
 71
    38
 72
    36
 73
    39
  0
VERTEX
  5
9DF
  8
0
 62
     9
 10
0.0
 20
0.0
 30
0.0
 70
   128
 71
    30
 72
    34
 73
    37
  0
VERTEX
  5
9E0
  8
0
 62
     9
 10
0.0
 20
0.0
 30
0.0
 70
   128
 71
    30
 72
    33
 73
    35
  0
VERTEX
  5
9E1
  8
0
 62
     9
 10
0.0
 20
0.0
 30
0.0
 70
   128
 71
    43
 72
    42
 73
    41
  0
VERTEX
  5
9E2
  8
0
 62
     9
 10
0.0
 20
0.0
 30
0.0
 70
   128
 71
    42
 72
    44
 73
    41
  0
VERTEX
  5
9E3
  8
0
 62
     9
 10
0.0
 20
0.0
 30
0.0
 70
   128
 71
    41
 72
    45
 73
    43
  0
VERTEX
  5
9E4
  8
0
 62
     9
 10
0.0
 20
0.0
 30
0.0
 70
   128
 71
    44
 72
    46
 73
    41
  0
VERTEX
  5
9E5
  8
0
 62
     9
 10
0.0
 20
0.0
 30
0.0
 70
   128
 71
    46
 72
    47
 73
    41
  0
VERTEX
  5
9E6
  8
0
 62
     9
 10
0.0
 20
0.0
 30
0.0
 70
   128
 71
    48
 72
    30
 73
    41
  0
VERTEX
  5
9E7
  8
0
 62
     9
 10
0.0
 20
0.0
 30
0.0
 70
   128
 71
    41
 72
    47
 73
    48
  0
VERTEX
  5
9E8
  8
0
 62
     9
 10
0.0
 20
0.0
 30
0.0
 70
   128
 71
    51
 72
    50
 73
    49
  0
VERTEX
  5
9E9
  8
0
 62
     9
 10
0.0
 20
0.0
 30
0.0
 70
   128
 71
    50
 72
    53
 73
    52
  0
VERTEX
  5
9EA
  8
0
 62
     9
 10
0.0
 20
0.0
 30
0.0
 70
   128
 71
    53
 72
    54
 73
    52
  0
VERTEX
  5
9EB
  8
0
 62
     9
 10
0.0
 20
0.0
 30
0.0
 70
   128
 71
    52
 72
    49
 73
    50
  0
VERTEX
  5
9EC
  8
0
 62
     9
 10
0.0
 20
0.0
 30
0.0
 70
   128
 71
    21
 72
    56
 73
    55
  0
VERTEX
  5
9ED
  8
0
 62
     9
 10
0.0
 20
0.0
 30
0.0
 70
   128
 71
    55
 72
    16
 73
    21
  0
VERTEX
  5
9EE
  8
0
 62
     9
 10
0.0
 20
0.0
 30
0.0
 70
   128
 71
    58
 72
    57
 73
     6
  0
VERTEX
  5
9EF
  8
0
 62
     9
 10
0.0
 20
0.0
 30
0.0
 70
   128
 71
     6
 72
    56
 73
    58
  0
VERTEX
  5
9F0
  8
0
 62
     9
 10
0.0
 20
0.0
 30
0.0
 70
   128
 71
    60
 72
    59
 73
     6
  0
VERTEX
  5
9F1
  8
0
 62
     9
 10
0.0
 20
0.0
 30
0.0
 70
   128
 71
    61
 72
     1
 73
     6
  0
VERTEX
  5
9F2
  8
0
 62
     9
 10
0.0
 20
0.0
 30
0.0
 70
   128
 71
     6
 72
    62
 73
    61
  0
VERTEX
  5
9F3
  8
0
 62
     9
 10
0.0
 20
0.0
 30
0.0
 70
   128
 71
     6
 72
    59
 73
    62
  0
VERTEX
  5
9F4
  8
0
 62
     9
 10
0.0
 20
0.0
 30
0.0
 70
   128
 71
     6
 72
    57
 73
    60
  0
VERTEX
  5
9F5
  8
0
 62
     9
 10
0.0
 20
0.0
 30
0.0
 70
   128
 71
    63
 72
    16
 73
    55
  0
VERTEX
  5
9F6
  8
0
 62
     9
 10
0.0
 20
0.0
 30
0.0
 70
   128
 71
    55
 72
    64
 73
    63
  0
VERTEX
  5
9F7
  8
0
 62
     9
 10
0.0
 20
0.0
 30
0.0
 70
   128
 71
    64
 72
    65
 73
    63
  0
VERTEX
  5
9F8
  8
0
 62
     9
 10
0.0
 20
0.0
 30
0.0
 70
   128
 71
    65
 72
    64
 73
    66
  0
VERTEX
  5
9F9
  8
0
 62
     9
 10
0.0
 20
0.0
 30
0.0
 70
   128
 71
    66
 72
    49
 73
    65
  0
VERTEX
  5
9FA
  8
0
 62
     9
 10
0.0
 20
0.0
 30
0.0
 70
   128
 71
    56
 72
     6
 73
    55
  0
VERTEX
  5
9FB
  8
0
 62
     9
 10
0.0
 20
0.0
 30
0.0
 70
   128
 71
    49
 72
    66
 73
    51
  0
VERTEX
  5
9FC
  8
0
 62
     9
 10
0.0
 20
0.0
 30
0.0
 70
   128
 71
    41
 72
    67
 73
    45
  0
VERTEX
  5
9FD
  8
0
 62
     9
 10
0.0
 20
0.0
 30
0.0
 70
   128
 71
    30
 72
    48
 73
    32
  0
VERTEX
  5
9FE
  8
0
 62
     9
 10
0.0
 20
0.0
 30
0.0
 70
   128
 71
    22
 72
    39
 73
    29
  0
VERTEX
  5
9FF
  8
0
 62
     9
 10
0.0
 20
0.0
 30
0.0
 70
   128
 71
    15
 72
    27
 73
    14
  0
VERTEX
  5
A00
  8
0
 62
     9
 10
0.0
 20
0.0
 30
0.0
 70
   128
 71
     3
 72
    68
 73
     4
  0
SEQEND
  5
A01
  8
0
 62
     9
  0
ENDBLK
  5
A04
  8
0
  0
BLOCK
  8
0
  2
E3_NODE_45_
 70
     0
 10
0.0
 20
0.0
 30
0.0
  3
E3_NODE_45_
  1

  0
POLYLINE
  5
A06
  8
0
 62
     9
 66
     1
 10
0.0
 20
0.0
 30
0.0
 70
    64
 71
    43
 72
    41
  0
VERTEX
  5
A07
  8
0
 10
2.424999952316284
 20
-19.54899978637695
 30
7.849999904632568
 70
   192
  0
VERTEX
  5
A08
  8
0
 10
10.8439998626709
 20
-21.47100067138672
 30
7.849999904632568
 70
   192
  0
VERTEX
  5
A09
  8
0
 10
10.8439998626709
 20
-21.00200080871582
 30
108.3440017700195
 70
   192
  0
VERTEX
  5
A0A
  8
0
 10
2.569000005722046
 20
-19.29999923706055
 30
108.8499984741211
 70
   192
  0
VERTEX
  5
A0B
  8
0
 10
-6.688000202178955
 20
-11.55799961090088
 30
108.8499984741211
 70
   192
  0
VERTEX
  5
A0C
  8
0
 10
-5.942999839782715
 20
-13.38700008392334
 30
7.849999904632568
 70
   192
  0
VERTEX
  5
A0D
  8
0
 10
1.527999997138977
 20
-19.34499931335449
 30
7.849999904632568
 70
   192
  0
VERTEX
  5
A0E
  8
0
 10
-6.770999908447266
 20
-11.66800022125244
 30
7.849999904632568
 70
   192
  0
VERTEX
  5
A0F
  8
0
 10
-10.15499973297119
 20
0.0010000000474975
 30
108.8499984741211
 70
   192
  0
VERTEX
  5
A10
  8
0
 10
-10.08899974822998
 20
-4.777999877929688
 30
7.849999904632568
 70
   192
  0
VERTEX
  5
A11
  8
0
 10
-10.08899974822998
 20
0.0010000000474975
 30
7.849999904632568
 70
   192
  0
VERTEX
  5
A12
  8
0
 10
-6.686999797821045
 20
11.5600004196167
 30
108.8499984741211
 70
   192
  0
VERTEX
  5
A13
  8
0
 10
-6.769999980926514
 20
11.67000007629395
 30
7.849999904632568
 70
   192
  0
VERTEX
  5
A14
  8
0
 10
-10.08899974822998
 20
4.777999877929688
 30
7.849999904632568
 70
   192
  0
VERTEX
  5
A15
  8
0
 10
10.8439998626709
 20
21.23600006103516
 30
58.17800140380859
 70
   192
  0
VERTEX
  5
A16
  8
0
 10
10.8439998626709
 20
21.46999931335449
 30
8.050999641418457
 70
   192
  0
VERTEX
  5
A17
  8
0
 10
5.394999980926514
 20
20.35199928283691
 30
8.050999641418457
 70
   192
  0
VERTEX
  5
A18
  8
0
 10
2.569999933242798
 20
19.30100059509277
 30
108.8499984741211
 70
   192
  0
VERTEX
  5
A19
  8
0
 10
10.8439998626709
 20
21.00200080871582
 30
108.3430023193359
 70
   192
  0
VERTEX
  5
A1A
  8
0
 10
2.384999990463257
 20
19.73399925231934
 30
8.050999641418457
 70
   192
  0
VERTEX
  5
A1B
  8
0
 10
10.8459997177124
 20
21.0
 30
108.8499984741211
 70
   192
  0
VERTEX
  5
A1C
  8
0
 10
2.394000053405762
 20
19.71299934387207
 30
8.045999526977539
 70
   192
  0
VERTEX
  5
A1D
  8
0
 10
2.427000045776367
 20
19.54999923706055
 30
7.849999904632568
 70
   192
  0
VERTEX
  5
A1E
  8
0
 10
1.527999997138977
 20
19.34499931335449
 30
7.849999904632568
 70
   192
  0
VERTEX
  5
A1F
  8
0
 10
0.6439999938011169
 20
18.89299964904785
 30
8.048999786376953
 70
   192
  0
VERTEX
  5
A20
  8
0
 10
1.062999963760376
 20
19.11300086975098
 30
8.04800033569336
 70
   192
  0
VERTEX
  5
A21
  8
0
 10
0.3160000145435333
 20
18.71199989318848
 30
8.050999641418457
 70
   192
  0
VERTEX
  5
A22
  8
0
 10
-5.942999839782715
 20
13.38700008392334
 30
7.849999904632568
 70
   192
  0
VERTEX
  5
A23
  8
0
 10
10.8439998626709
 20
21.47100067138672
 30
7.849999904632568
 70
   192
  0
VERTEX
  5
A24
  8
0
 10
10.10299968719482
 20
21.45700073242188
 30
8.039999961853027
 70
   192
  0
VERTEX
  5
A25
  8
0
 10
10.61299991607666
 20
21.4689998626709
 30
8.039999961853027
 70
   192
  0
VERTEX
  5
A26
  8
0
 10
9.5649995803833
 20
21.43199920654297
 30
8.039999961853027
 70
   192
  0
VERTEX
  5
A27
  8
0
 10
8.994999885559082
 20
21.38999938964844
 30
8.041000366210938
 70
   192
  0
VERTEX
  5
A28
  8
0
 10
8.38700008392334
 20
21.32900047302246
 30
8.041000366210938
 70
   192
  0
VERTEX
  5
A29
  8
0
 10
7.73199987411499
 20
21.24399948120117
 30
8.041999816894531
 70
   192
  0
VERTEX
  5
A2A
  8
0
 10
7.020999908447266
 20
21.12700080871582
 30
8.041999816894531
 70
   192
  0
VERTEX
  5
A2B
  8
0
 10
6.236000061035156
 20
20.96999931335449
 30
8.041999816894531
 70
   192
  0
VERTEX
  5
A2C
  8
0
 10
5.348999977111816
 20
20.7549991607666
 30
8.043000221252441
 70
   192
  0
VERTEX
  5
A2D
  8
0
 10
4.309999942779541
 20
20.45199966430664
 30
8.043999671936035
 70
   192
  0
VERTEX
  5
A2E
  8
0
 10
5.314000129699707
 20
20.7450008392334
 30
8.043000221252441
 70
   192
  0
VERTEX
  5
A2F
  8
0
 10
3.00600004196167
 20
19.98900032043457
 30
8.045000076293945
 70
   192
  0
VERTEX
  5
A30
  8
0
 10
10.8439998626709
 20
21.46999931335449
 30
8.038999557495117
 70
   192
  0
VERTEX
  5
A31
  8
0
 10
10.8439998626709
 20
-21.0
 30
108.8499984741211
 70
   192
  0
VERTEX
  5
A32
  8
0
 62
     9
 10
0.0
 20
0.0
 30
0.0
 70
   128
 71
     3
 72
     2
 73
     1
  0
VERTEX
  5
A33
  8
0
 62
     9
 10
0.0
 20
0.0
 30
0.0
 70
   128
 71
     1
 72
     4
 73
     3
  0
VERTEX
  5
A34
  8
0
 62
     9
 10
0.0
 20
0.0
 30
0.0
 70
   128
 71
     6
 72
     5
 73
     4
  0
VERTEX
  5
A35
  8
0
 62
     9
 10
0.0
 20
0.0
 30
0.0
 70
   128
 71
     4
 72
     7
 73
     6
  0
VERTEX
  5
A36
  8
0
 62
     9
 10
0.0
 20
0.0
 30
0.0
 70
   128
 71
     6
 72
     8
 73
     5
  0
VERTEX
  5
A37
  8
0
 62
     9
 10
0.0
 20
0.0
 30
0.0
 70
   128
 71
    10
 72
     9
 73
     5
  0
VERTEX
  5
A38
  8
0
 62
     9
 10
0.0
 20
0.0
 30
0.0
 70
   128
 71
    10
 72
    11
 73
     9
  0
VERTEX
  5
A39
  8
0
 62
     9
 10
0.0
 20
0.0
 30
0.0
 70
   128
 71
    14
 72
    13
 73
    12
  0
VERTEX
  5
A3A
  8
0
 62
     9
 10
0.0
 20
0.0
 30
0.0
 70
   128
 71
    12
 72
     9
 73
    14
  0
VERTEX
  5
A3B
  8
0
 62
     9
 10
0.0
 20
0.0
 30
0.0
 70
   128
 71
    17
 72
    16
 73
    15
  0
VERTEX
  5
A3C
  8
0
 62
     9
 10
0.0
 20
0.0
 30
0.0
 70
   128
 71
    15
 72
    19
 73
    18
  0
VERTEX
  5
A3D
  8
0
 62
     9
 10
0.0
 20
0.0
 30
0.0
 70
   128
 71
    18
 72
    20
 73
    15
  0
VERTEX
  5
A3E
  8
0
 62
     9
 10
0.0
 20
0.0
 30
0.0
 70
   128
 71
    19
 72
    21
 73
    18
  0
VERTEX
  5
A3F
  8
0
 62
     9
 10
0.0
 20
0.0
 30
0.0
 70
   128
 71
    24
 72
    23
 73
    22
  0
VERTEX
  5
A40
  8
0
 62
     9
 10
0.0
 20
0.0
 30
0.0
 70
   128
 71
    26
 72
    25
 73
    24
  0
VERTEX
  5
A41
  8
0
 62
     9
 10
0.0
 20
0.0
 30
0.0
 70
   128
 71
    28
 72
    24
 73
    27
  0
VERTEX
  5
A42
  8
0
 62
     9
 10
0.0
 20
0.0
 30
0.0
 70
   128
 71
    27
 72
    13
 73
    28
  0
VERTEX
  5
A43
  8
0
 62
     9
 10
0.0
 20
0.0
 30
0.0
 70
   128
 71
    24
 72
    25
 73
    27
  0
VERTEX
  5
A44
  8
0
 62
     9
 10
0.0
 20
0.0
 30
0.0
 70
   128
 71
    27
 72
    18
 73
    12
  0
VERTEX
  5
A45
  8
0
 62
     9
 10
0.0
 20
0.0
 30
0.0
 70
   128
 71
    27
 72
    20
 73
    18
  0
VERTEX
  5
A46
  8
0
 62
     9
 10
0.0
 20
0.0
 30
0.0
 70
   128
 71
    12
 72
    13
 73
    27
  0
VERTEX
  5
A47
  8
0
 62
     9
 10
0.0
 20
0.0
 30
0.0
 70
   128
 71
    31
 72
    30
 73
    29
  0
VERTEX
  5
A48
  8
0
 62
     9
 10
0.0
 20
0.0
 30
0.0
 70
   128
 71
    30
 72
    32
 73
    29
  0
VERTEX
  5
A49
  8
0
 62
     9
 10
0.0
 20
0.0
 30
0.0
 70
   128
 71
    32
 72
    33
 73
    29
  0
VERTEX
  5
A4A
  8
0
 62
     9
 10
0.0
 20
0.0
 30
0.0
 70
   128
 71
    33
 72
    34
 73
    29
  0
VERTEX
  5
A4B
  8
0
 62
     9
 10
0.0
 20
0.0
 30
0.0
 70
   128
 71
    34
 72
    35
 73
    29
  0
VERTEX
  5
A4C
  8
0
 62
     9
 10
0.0
 20
0.0
 30
0.0
 70
   128
 71
    35
 72
    36
 73
    29
  0
VERTEX
  5
A4D
  8
0
 62
     9
 10
0.0
 20
0.0
 30
0.0
 70
   128
 71
    37
 72
    23
 73
    29
  0
VERTEX
  5
A4E
  8
0
 62
     9
 10
0.0
 20
0.0
 30
0.0
 70
   128
 71
    29
 72
    36
 73
    37
  0
VERTEX
  5
A4F
  8
0
 62
     9
 10
0.0
 20
0.0
 30
0.0
 70
   128
 71
    37
 72
    38
 73
    23
  0
VERTEX
  5
A50
  8
0
 62
     9
 10
0.0
 20
0.0
 30
0.0
 70
   128
 71
    40
 72
    39
 73
    23
  0
VERTEX
  5
A51
  8
0
 62
     9
 10
0.0
 20
0.0
 30
0.0
 70
   128
 71
    23
 72
    38
 73
    40
  0
VERTEX
  5
A52
  8
0
 62
     9
 10
0.0
 20
0.0
 30
0.0
 70
   128
 71
    39
 72
    41
 73
    23
  0
VERTEX
  5
A53
  8
0
 62
     9
 10
0.0
 20
0.0
 30
0.0
 70
   128
 71
    41
 72
    22
 73
    23
  0
VERTEX
  5
A54
  8
0
 62
     9
 10
0.0
 20
0.0
 30
0.0
 70
   128
 71
    29
 72
    42
 73
    31
  0
VERTEX
  5
A55
  8
0
 62
     9
 10
0.0
 20
0.0
 30
0.0
 70
   128
 71
    22
 72
    26
 73
    24
  0
VERTEX
  5
A56
  8
0
 62
     9
 10
0.0
 20
0.0
 30
0.0
 70
   128
 71
    15
 72
    20
 73
    17
  0
VERTEX
  5
A57
  8
0
 62
     9
 10
0.0
 20
0.0
 30
0.0
 70
   128
 71
     9
 72
    11
 73
    14
  0
VERTEX
  5
A58
  8
0
 62
     9
 10
0.0
 20
0.0
 30
0.0
 70
   128
 71
     5
 72
     8
 73
    10
  0
VERTEX
  5
A59
  8
0
 62
     9
 10
0.0
 20
0.0
 30
0.0
 70
   128
 71
     4
 72
     1
 73
     7
  0
VERTEX
  5
A5A
  8
0
 62
     9
 10
0.0
 20
0.0
 30
0.0
 70
   128
 71
     4
 72
    43
 73
     3
  0
SEQEND
  5
A5B
  8
0
 62
     9
  0
ENDBLK
  5
A5E
  8
0
  0
BLOCK
  8
0
  2
E3_NODE_46_
 70
     0
 10
0.0
 20
0.0
 30
0.0
  3
E3_NODE_46_
  1

  0
POLYLINE
  5
A60
  8
0
 62
     9
 66
     1
 10
0.0
 20
0.0
 30
0.0
 70
    64
 71
     6
 72
     4
  0
VERTEX
  5
A61
  8
0
 10
95.6709976196289
 20
21.0
 30
108.8499984741211
 70
   192
  0
VERTEX
  5
A62
  8
0
 10
95.6709976196289
 20
21.00099945068359
 30
108.6009979248047
 70
   192
  0
VERTEX
  5
A63
  8
0
 10
54.23500061035156
 20
21.00200080871582
 30
108.3460006713867
 70
   192
  0
VERTEX
  5
A64
  8
0
 10
10.8459997177124
 20
21.0
 30
108.8499984741211
 70
   192
  0
VERTEX
  5
A65
  8
0
 10
10.8439998626709
 20
21.00200080871582
 30
108.3430023193359
 70
   192
  0
VERTEX
  5
A66
  8
0
 10
95.6709976196289
 20
21.00200080871582
 30
108.3489990234375
 70
   192
  0
VERTEX
  5
A67
  8
0
 62
     9
 10
0.0
 20
0.0
 30
0.0
 70
   128
 71
     3
 72
     2
 73
     1
  0
VERTEX
  5
A68
  8
0
 62
     9
 10
0.0
 20
0.0
 30
0.0
 70
   128
 71
     1
 72
     4
 73
     3
  0
VERTEX
  5
A69
  8
0
 62
     9
 10
0.0
 20
0.0
 30
0.0
 70
   128
 71
     4
 72
     5
 73
     3
  0
VERTEX
  5
A6A
  8
0
 62
     9
 10
0.0
 20
0.0
 30
0.0
 70
   128
 71
     3
 72
     6
 73
     2
  0
SEQEND
  5
A6B
  8
0
 62
     9
  0
ENDBLK
  5
A6E
  8
0
  0
BLOCK
  8
0
  2
E3_NODE_47_
 70
     0
 10
0.0
 20
0.0
 30
0.0
  3
E3_NODE_47_
  1

  0
POLYLINE
  5
A70
  8
0
 62
     9
 66
     1
 10
0.0
 20
0.0
 30
0.0
 70
    64
 71
    35
 72
    33
  0
VERTEX
  5
A71
  8
0
 10
2.569000005722046
 20
-19.29999923706055
 30
108.8499984741211
 70
   192
  0
VERTEX
  5
A72
  8
0
 10
-6.686999797821045
 20
11.5600004196167
 30
108.8499984741211
 70
   192
  0
VERTEX
  5
A73
  8
0
 10
-10.15499973297119
 20
0.0010000000474975
 30
108.8499984741211
 70
   192
  0
VERTEX
  5
A74
  8
0
 10
115.0449981689453
 20
-7.921999931335449
 30
108.8499984741211
 70
   192
  0
VERTEX
  5
A75
  8
0
 10
116.5920028686523
 20
1.847000002861023
 30
108.8499984741211
 70
   192
  0
VERTEX
  5
A76
  8
0
 10
115.6800003051758
 20
6.377999782562256
 30
108.8499984741211
 70
   192
  0
VERTEX
  5
A77
  8
0
 10
116.2030029296875
 20
-4.410999774932861
 30
108.8499984741211
 70
   192
  0
VERTEX
  5
A78
  8
0
 10
116.4089965820312
 20
-3.315999984741211
 30
108.8499984741211
 70
   192
  0
VERTEX
  5
A79
  8
0
 10
2.569999933242798
 20
19.30100059509277
 30
108.8499984741211
 70
   192
  0
VERTEX
  5
A7A
  8
0
 10
110.4919967651367
 20
-14.8129997253418
 30
108.8499984741211
 70
   192
  0
VERTEX
  5
A7B
  8
0
 10
108.302001953125
 20
16.77300071716309
 30
108.8499984741211
 70
   192
  0
VERTEX
  5
A7C
  8
0
 10
104.3239974975586
 20
19.13199996948242
 30
108.8499984741211
 70
   192
  0
VERTEX
  5
A7D
  8
0
 10
114.3570022583008
 20
9.581000328063965
 30
108.8499984741211
 70
   192
  0
VERTEX
  5
A7E
  8
0
 10
112.5080032348633
 20
12.54800033569336
 30
108.8499984741211
 70
   192
  0
VERTEX
  5
A7F
  8
0
 10
116.6669998168945
 20
-0.5580000281333923
 30
108.8499984741211
 70
   192
  0
VERTEX
  5
A80
  8
0
 10
116.6669998168945
 20
-0.5789999961853027
 30
108.8499984741211
 70
   192
  0
VERTEX
  5
A81
  8
0
 10
10.8459997177124
 20
21.0
 30
108.8499984741211
 70
   192
  0
VERTEX
  5
A82
  8
0
 10
103.7300033569336
 20
19.32799911499023
 30
108.8499984741211
 70
   192
  0
VERTEX
  5
A83
  8
0
 10
100.0790023803711
 20
20.52899932861328
 30
108.8499984741211
 70
   192
  0
VERTEX
  5
A84
  8
0
 10
110.1920013427734
 20
15.16800022125244
 30
108.8499984741211
 70
   192
  0
VERTEX
  5
A85
  8
0
 10
115.2109985351562
 20
7.513999938964844
 30
108.8499984741211
 70
   192
  0
VERTEX
  5
A86
  8
0
 10
110.6869964599609
 20
14.60900020599365
 30
108.8499984741211
 70
   192
  0
VERTEX
  5
A87
  8
0
 10
112.4380035400391
 20
-12.64099979400635
 30
108.8499984741211
 70
   192
  0
VERTEX
  5
A88
  8
0
 10
114.8000030517578
 20
-8.663999557495117
 30
108.8499984741211
 70
   192
  0
VERTEX
  5
A89
  8
0
 10
110.8300018310547
 20
-14.5310001373291
 30
108.8499984741211
 70
   192
  0
VERTEX
  5
A8A
  8
0
 10
95.6709976196289
 20
21.0
 30
108.8499984741211
 70
   192
  0
VERTEX
  5
A8B
  8
0
 10
98.5
 20
-20.80599975585938
 30
108.8499984741211
 70
   192
  0
VERTEX
  5
A8C
  8
0
 10
101.9100036621094
 20
-20.04999923706055
 30
108.8499984741211
 70
   192
  0
VERTEX
  5
A8D
  8
0
 10
-6.688000202178955
 20
-11.55799961090088
 30
108.8499984741211
 70
   192
  0
VERTEX
  5
A8E
  8
0
 10
95.6719970703125
 20
-21.0
 30
108.8499984741211
 70
   192
  0
VERTEX
  5
A8F
  8
0
 10
98.98699951171875
 20
20.73399925231934
 30
108.8499984741211
 70
   192
  0
VERTEX
  5
A90
  8
0
 10
105.1460037231445
 20
-18.73800086975098
 30
108.8499984741211
 70
   192
  0
VERTEX
  5
A91
  8
0
 10
107.286003112793
 20
-17.49099922180176
 30
108.8499984741211
 70
   192
  0
VERTEX
  5
A92
  8
0
 10
10.8439998626709
 20
-21.0
 30
108.8499984741211
 70
   192
  0
VERTEX
  5
A93
  8
0
 10
103.5879974365234
 20
-19.36899948120117
 30
108.8499984741211
 70
   192
  0
VERTEX
  5
A94
  8
0
 62
     9
 10
0.0
 20
0.0
 30
0.0
 70
   128
 71
     3
 72
     2
 73
     1
  0
VERTEX
  5
A95
  8
0
 62
     9
 10
0.0
 20
0.0
 30
0.0
 70
   128
 71
     6
 72
     5
 73
     4
  0
VERTEX
  5
A96
  8
0
 62
     9
 10
0.0
 20
0.0
 30
0.0
 70
   128
 71
     8
 72
     7
 73
     4
  0
VERTEX
  5
A97
  8
0
 62
     9
 10
0.0
 20
0.0
 30
0.0
 70
   128
 71
     2
 72
     9
 73
     1
  0
VERTEX
  5
A98
  8
0
 62
     9
 10
0.0
 20
0.0
 30
0.0
 70
   128
 71
    12
 72
    11
 73
    10
  0
VERTEX
  5
A99
  8
0
 62
     9
 10
0.0
 20
0.0
 30
0.0
 70
   128
 71
    14
 72
    13
 73
     4
  0
VERTEX
  5
A9A
  8
0
 62
     9
 10
0.0
 20
0.0
 30
0.0
 70
   128
 71
     5
 72
    15
 73
     4
  0
VERTEX
  5
A9B
  8
0
 62
     9
 10
0.0
 20
0.0
 30
0.0
 70
   128
 71
     4
 72
    16
 73
     8
  0
VERTEX
  5
A9C
  8
0
 62
     9
 10
0.0
 20
0.0
 30
0.0
 70
   128
 71
     9
 72
    17
 73
     1
  0
VERTEX
  5
A9D
  8
0
 62
     9
 10
0.0
 20
0.0
 30
0.0
 70
   128
 71
    19
 72
    18
 73
    10
  0
VERTEX
  5
A9E
  8
0
 62
     9
 10
0.0
 20
0.0
 30
0.0
 70
   128
 71
    11
 72
    20
 73
    10
  0
VERTEX
  5
A9F
  8
0
 62
     9
 10
0.0
 20
0.0
 30
0.0
 70
   128
 71
    13
 72
    21
 73
     4
  0
VERTEX
  5
AA0
  8
0
 62
     9
 10
0.0
 20
0.0
 30
0.0
 70
   128
 71
     4
 72
    15
 73
    16
  0
VERTEX
  5
AA1
  8
0
 62
     9
 10
0.0
 20
0.0
 30
0.0
 70
   128
 71
    24
 72
    23
 73
    22
  0
VERTEX
  5
AA2
  8
0
 62
     9
 10
0.0
 20
0.0
 30
0.0
 70
   128
 71
    25
 72
    10
 73
    22
  0
VERTEX
  5
AA3
  8
0
 62
     9
 10
0.0
 20
0.0
 30
0.0
 70
   128
 71
    28
 72
    27
 73
    26
  0
VERTEX
  5
AA4
  8
0
 62
     9
 10
0.0
 20
0.0
 30
0.0
 70
   128
 71
     1
 72
    29
 73
     3
  0
VERTEX
  5
AA5
  8
0
 62
     9
 10
0.0
 20
0.0
 30
0.0
 70
   128
 71
    17
 72
    26
 73
    30
  0
VERTEX
  5
AA6
  8
0
 62
     9
 10
0.0
 20
0.0
 30
0.0
 70
   128
 71
    10
 72
    31
 73
    19
  0
VERTEX
  5
AA7
  8
0
 62
     9
 10
0.0
 20
0.0
 30
0.0
 70
   128
 71
    20
 72
    22
 73
    10
  0
VERTEX
  5
AA8
  8
0
 62
     9
 10
0.0
 20
0.0
 30
0.0
 70
   128
 71
     4
 72
    21
 73
     6
  0
VERTEX
  5
AA9
  8
0
 62
     9
 10
0.0
 20
0.0
 30
0.0
 70
   128
 71
    22
 72
    23
 73
    25
  0
VERTEX
  5
AAA
  8
0
 62
     9
 10
0.0
 20
0.0
 30
0.0
 70
   128
 71
    33
 72
    32
 73
    26
  0
VERTEX
  5
AAB
  8
0
 62
     9
 10
0.0
 20
0.0
 30
0.0
 70
   128
 71
    27
 72
    30
 73
    26
  0
VERTEX
  5
AAC
  8
0
 62
     9
 10
0.0
 20
0.0
 30
0.0
 70
   128
 71
    30
 72
    34
 73
    17
  0
VERTEX
  5
AAD
  8
0
 62
     9
 10
0.0
 20
0.0
 30
0.0
 70
   128
 71
    10
 72
    18
 73
    12
  0
VERTEX
  5
AAE
  8
0
 62
     9
 10
0.0
 20
0.0
 30
0.0
 70
   128
 71
    22
 72
     4
 73
    24
  0
VERTEX
  5
AAF
  8
0
 62
     9
 10
0.0
 20
0.0
 30
0.0
 70
   128
 71
    32
 72
    35
 73
    26
  0
VERTEX
  5
AB0
  8
0
 62
     9
 10
0.0
 20
0.0
 30
0.0
 70
   128
 71
    17
 72
    34
 73
     1
  0
VERTEX
  5
AB1
  8
0
 62
     9
 10
0.0
 20
0.0
 30
0.0
 70
   128
 71
     4
 72
    22
 73
    14
  0
VERTEX
  5
AB2
  8
0
 62
     9
 10
0.0
 20
0.0
 30
0.0
 70
   128
 71
    26
 72
    35
 73
    28
  0
VERTEX
  5
AB3
  8
0
 62
     9
 10
0.0
 20
0.0
 30
0.0
 70
   128
 71
    26
 72
    10
 73
    33
  0
VERTEX
  5
AB4
  8
0
 62
     9
 10
0.0
 20
0.0
 30
0.0
 70
   128
 71
    10
 72
    26
 73
    31
  0
SEQEND
  5
AB5
  8
0
 62
     9
  0
ENDBLK
  5
AB8
  8
0
  0
BLOCK
  8
0
  2
E3_NODE_48_
 70
     0
 10
0.0
 20
0.0
 30
0.0
  3
E3_NODE_48_
  1

  0
POLYLINE
  5
ABA
  8
0
 62
     9
 66
     1
 10
0.0
 20
0.0
 30
0.0
 70
    64
 71
     6
 72
     4
  0
VERTEX
  5
ABB
  8
0
 10
54.23500061035156
 20
-21.00200080871582
 30
108.3470001220703
 70
   192
  0
VERTEX
  5
ABC
  8
0
 10
95.6709976196289
 20
-21.00200080871582
 30
108.3489990234375
 70
   192
  0
VERTEX
  5
ABD
  8
0
 10
95.6719970703125
 20
-21.00099945068359
 30
108.6009979248047
 70
   192
  0
VERTEX
  5
ABE
  8
0
 10
10.8439998626709
 20
-21.0
 30
108.8499984741211
 70
   192
  0
VERTEX
  5
ABF
  8
0
 10
10.8439998626709
 20
-21.00200080871582
 30
108.3440017700195
 70
   192
  0
VERTEX
  5
AC0
  8
0
 10
95.6719970703125
 20
-21.0
 30
108.8499984741211
 70
   192
  0
VERTEX
  5
AC1
  8
0
 62
     9
 10
0.0
 20
0.0
 30
0.0
 70
   128
 71
     3
 72
     2
 73
     1
  0
VERTEX
  5
AC2
  8
0
 62
     9
 10
0.0
 20
0.0
 30
0.0
 70
   128
 71
     1
 72
     5
 73
     4
  0
VERTEX
  5
AC3
  8
0
 62
     9
 10
0.0
 20
0.0
 30
0.0
 70
   128
 71
     4
 72
     6
 73
     1
  0
VERTEX
  5
AC4
  8
0
 62
     9
 10
0.0
 20
0.0
 30
0.0
 70
   128
 71
     1
 72
     6
 73
     3
  0
SEQEND
  5
AC5
  8
0
 62
     9
  0
ENDBLK
  5
AC8
  8
0
  0
BLOCK
  8
0
  2
E3_NODE_49_
 70
     0
 10
0.0
 20
0.0
 30
0.0
  3
E3_NODE_49_
  1

  0
POLYLINE
  5
ACA
  8
0
 62
     9
 66
     1
 10
0.0
 20
0.0
 30
0.0
 70
    64
 71
    34
 72
    35
  0
VERTEX
  5
ACB
  8
0
 10
115.2720031738281
 20
7.539999961853027
 30
108.6009979248047
 70
   192
  0
VERTEX
  5
ACC
  8
0
 10
114.8330001831055
 20
8.595000267028809
 30
108.3489990234375
 70
   192
  0
VERTEX
  5
ACD
  8
0
 10
112.370002746582
 20
12.73299980163574
 30
108.3489990234375
 70
   192
  0
VERTEX
  5
ACE
  8
0
 10
115.1100006103516
 20
7.718999862670898
 30
108.3489990234375
 70
   192
  0
VERTEX
  5
ACF
  8
0
 10
110.7239990234375
 20
14.64299964904785
 30
108.6009979248047
 70
   192
  0
VERTEX
  5
AD0
  8
0
 10
110.6689987182617
 20
14.50100040435791
 30
108.3489990234375
 70
   192
  0
VERTEX
  5
AD1
  8
0
 10
115.1760025024414
 20
7.510000228881836
 30
108.3489990234375
 70
   192
  0
VERTEX
  5
AD2
  8
0
 10
103.7480010986328
 20
19.38400077819824
 30
108.6009979248047
 70
   192
  0
VERTEX
  5
AD3
  8
0
 10
109.036003112793
 20
16.19799995422363
 30
108.3489990234375
 70
   192
  0
VERTEX
  5
AD4
  8
0
 10
105.0289993286133
 20
18.80100059509277
 30
108.3489990234375
 70
   192
  0
VERTEX
  5
AD5
  8
0
 10
110.6240005493164
 20
14.54800033569336
 30
108.3489990234375
 70
   192
  0
VERTEX
  5
AD6
  8
0
 10
103.8740005493164
 20
19.21699905395508
 30
108.3489990234375
 70
   192
  0
VERTEX
  5
AD7
  8
0
 10
95.6709976196289
 20
21.00099945068359
 30
108.6009979248047
 70
   192
  0
VERTEX
  5
AD8
  8
0
 10
100.4649963378906
 20
20.44700050354004
 30
108.3489990234375
 70
   192
  0
VERTEX
  5
AD9
  8
0
 10
103.7089996337891
 20
19.27700042724609
 30
108.3489990234375
 70
   192
  0
VERTEX
  5
ADA
  8
0
 10
98.98699951171875
 20
20.73399925231934
 30
108.8499984741211
 70
   192
  0
VERTEX
  5
ADB
  8
0
 10
100.0790023803711
 20
20.52899932861328
 30
108.8499984741211
 70
   192
  0
VERTEX
  5
ADC
  8
0
 10
95.6709976196289
 20
21.0
 30
108.8499984741211
 70
   192
  0
VERTEX
  5
ADD
  8
0
 10
108.302001953125
 20
16.77300071716309
 30
108.8499984741211
 70
   192
  0
VERTEX
  5
ADE
  8
0
 10
110.1920013427734
 20
15.16800022125244
 30
108.8499984741211
 70
   192
  0
VERTEX
  5
ADF
  8
0
 10
104.3239974975586
 20
19.13199996948242
 30
108.8499984741211
 70
   192
  0
VERTEX
  5
AE0
  8
0
 10
103.7300033569336
 20
19.32799911499023
 30
108.8499984741211
 70
   192
  0
VERTEX
  5
AE1
  8
0
 10
112.5080032348633
 20
12.54800033569336
 30
108.8499984741211
 70
   192
  0
VERTEX
  5
AE2
  8
0
 10
110.6869964599609
 20
14.60900020599365
 30
108.8499984741211
 70
   192
  0
VERTEX
  5
AE3
  8
0
 10
114.3570022583008
 20
9.581000328063965
 30
108.8499984741211
 70
   192
  0
VERTEX
  5
AE4
  8
0
 10
116.6699981689453
 20
-0.2910000085830688
 30
108.6009979248047
 70
   192
  0
VERTEX
  5
AE5
  8
0
 10
116.5920028686523
 20
1.847000002861023
 30
108.8499984741211
 70
   192
  0
VERTEX
  5
AE6
  8
0
 10
116.6669998168945
 20
-0.5580000281333923
 30
108.8499984741211
 70
   192
  0
VERTEX
  5
AE7
  8
0
 10
115.6800003051758
 20
6.377999782562256
 30
108.8499984741211
 70
   192
  0
VERTEX
  5
AE8
  8
0
 10
115.2109985351562
 20
7.513999938964844
 30
108.8499984741211
 70
   192
  0
VERTEX
  5
AE9
  8
0
 10
116.2910003662109
 20
3.984999895095825
 30
108.3489990234375
 70
   192
  0
VERTEX
  5
AEA
  8
0
 10
116.6740036010742
 20
0.0
 30
108.3489990234375
 70
   192
  0
VERTEX
  5
AEB
  8
0
 10
116.6669998168945
 20
-0.5789999961853027
 30
108.8499984741211
 70
   192
  0
VERTEX
  5
AEC
  8
0
 10
95.6709976196289
 20
21.00200080871582
 30
108.3489990234375
 70
   192
  0
VERTEX
  5
AED
  8
0
 62
     9
 10
0.0
 20
0.0
 30
0.0
 70
   128
 71
     3
 72
     2
 73
     1
  0
VERTEX
  5
AEE
  8
0
 62
     9
 10
0.0
 20
0.0
 30
0.0
 70
   128
 71
     2
 72
     4
 73
     1
  0
VERTEX
  5
AEF
  8
0
 62
     9
 10
0.0
 20
0.0
 30
0.0
 70
   128
 71
     1
 72
     5
 73
     3
  0
VERTEX
  5
AF0
  8
0
 62
     9
 10
0.0
 20
0.0
 30
0.0
 70
   128
 71
     5
 72
     6
 73
     3
  0
VERTEX
  5
AF1
  8
0
 62
     9
 10
0.0
 20
0.0
 30
0.0
 70
   128
 71
     4
 72
     7
 73
     1
  0
VERTEX
  5
AF2
  8
0
 62
     9
 10
0.0
 20
0.0
 30
0.0
 70
   128
 71
     9
 72
     5
 73
     8
  0
VERTEX
  5
AF3
  8
0
 62
     9
 10
0.0
 20
0.0
 30
0.0
 70
   128
 71
     8
 72
    10
 73
     9
  0
VERTEX
  5
AF4
  8
0
 62
     9
 10
0.0
 20
0.0
 30
0.0
 70
   128
 71
     9
 72
    11
 73
     5
  0
VERTEX
  5
AF5
  8
0
 62
     9
 10
0.0
 20
0.0
 30
0.0
 70
   128
 71
     8
 72
    12
 73
    10
  0
VERTEX
  5
AF6
  8
0
 62
     9
 10
0.0
 20
0.0
 30
0.0
 70
   128
 71
    14
 72
     8
 73
    13
  0
VERTEX
  5
AF7
  8
0
 62
     9
 10
0.0
 20
0.0
 30
0.0
 70
   128
 71
    14
 72
    15
 73
     8
  0
VERTEX
  5
AF8
  8
0
 62
     9
 10
0.0
 20
0.0
 30
0.0
 70
   128
 71
    17
 72
    16
 73
    13
  0
VERTEX
  5
AF9
  8
0
 62
     9
 10
0.0
 20
0.0
 30
0.0
 70
   128
 71
    16
 72
    18
 73
    13
  0
VERTEX
  5
AFA
  8
0
 62
     9
 10
0.0
 20
0.0
 30
0.0
 70
   128
 71
    13
 72
     8
 73
    17
  0
VERTEX
  5
AFB
  8
0
 62
     9
 10
0.0
 20
0.0
 30
0.0
 70
   128
 71
    20
 72
    19
 73
     5
  0
VERTEX
  5
AFC
  8
0
 62
     9
 10
0.0
 20
0.0
 30
0.0
 70
   128
 71
    19
 72
    21
 73
     8
  0
VERTEX
  5
AFD
  8
0
 62
     9
 10
0.0
 20
0.0
 30
0.0
 70
   128
 71
     8
 72
     5
 73
    19
  0
VERTEX
  5
AFE
  8
0
 62
     9
 10
0.0
 20
0.0
 30
0.0
 70
   128
 71
    21
 72
    22
 73
     8
  0
VERTEX
  5
AFF
  8
0
 62
     9
 10
0.0
 20
0.0
 30
0.0
 70
   128
 71
    23
 72
     5
 73
     1
  0
VERTEX
  5
B00
  8
0
 62
     9
 10
0.0
 20
0.0
 30
0.0
 70
   128
 71
    23
 72
    24
 73
     5
  0
VERTEX
  5
B01
  8
0
 62
     9
 10
0.0
 20
0.0
 30
0.0
 70
   128
 71
     1
 72
    25
 73
    23
  0
VERTEX
  5
B02
  8
0
 62
     9
 10
0.0
 20
0.0
 30
0.0
 70
   128
 71
    28
 72
    27
 73
    26
  0
VERTEX
  5
B03
  8
0
 62
     9
 10
0.0
 20
0.0
 30
0.0
 70
   128
 71
    27
 72
    29
 73
     1
  0
VERTEX
  5
B04
  8
0
 62
     9
 10
0.0
 20
0.0
 30
0.0
 70
   128
 71
     1
 72
    26
 73
    27
  0
VERTEX
  5
B05
  8
0
 62
     9
 10
0.0
 20
0.0
 30
0.0
 70
   128
 71
    29
 72
    30
 73
     1
  0
VERTEX
  5
B06
  8
0
 62
     9
 10
0.0
 20
0.0
 30
0.0
 70
   128
 71
     1
 72
    31
 73
    26
  0
VERTEX
  5
B07
  8
0
 62
     9
 10
0.0
 20
0.0
 30
0.0
 70
   128
 71
     1
 72
     7
 73
    31
  0
VERTEX
  5
B08
  8
0
 62
     9
 10
0.0
 20
0.0
 30
0.0
 70
   128
 71
    31
 72
    32
 73
    26
  0
VERTEX
  5
B09
  8
0
 62
     9
 10
0.0
 20
0.0
 30
0.0
 70
   128
 71
    26
 72
    33
 73
    28
  0
VERTEX
  5
B0A
  8
0
 62
     9
 10
0.0
 20
0.0
 30
0.0
 70
   128
 71
     1
 72
    30
 73
    25
  0
VERTEX
  5
B0B
  8
0
 62
     9
 10
0.0
 20
0.0
 30
0.0
 70
   128
 71
     5
 72
    24
 73
    20
  0
VERTEX
  5
B0C
  8
0
 62
     9
 10
0.0
 20
0.0
 30
0.0
 70
   128
 71
     8
 72
    22
 73
    17
  0
VERTEX
  5
B0D
  8
0
 62
     9
 10
0.0
 20
0.0
 30
0.0
 70
   128
 71
    13
 72
    34
 73
    14
  0
VERTEX
  5
B0E
  8
0
 62
     9
 10
0.0
 20
0.0
 30
0.0
 70
   128
 71
     8
 72
    15
 73
    12
  0
VERTEX
  5
B0F
  8
0
 62
     9
 10
0.0
 20
0.0
 30
0.0
 70
   128
 71
     5
 72
    11
 73
     6
  0
SEQEND
  5
B10
  8
0
 62
     9
  0
ENDBLK
  5
B13
  8
0
  0
BLOCK
  8
0
  2
E3_NODE_50_
 70
     0
 10
0.0
 20
0.0
 30
0.0
  3
E3_NODE_50_
  1

  0
POLYLINE
  5
B15
  8
0
 62
     9
 66
     1
 10
0.0
 20
0.0
 30
0.0
 70
    64
 71
    94
 72
   103
  0
VERTEX
  5
B16
  8
0
 10
54.23500061035156
 20
-20.01899909973145
 30
103.0839996337891
 70
   192
  0
VERTEX
  5
B17
  8
0
 10
19.10000038146973
 20
-19.26199913024902
 30
98.42900085449219
 70
   192
  0
VERTEX
  5
B18
  8
0
 10
20.77300071716309
 20
-18.47800064086914
 30
96.04900360107422
 70
   192
  0
VERTEX
  5
B19
  8
0
 10
17.92499923706055
 20
-19.8129997253418
 30
100.1009979248047
 70
   192
  0
VERTEX
  5
B1A
  8
0
 10
16.80200004577637
 20
-20.10099983215332
 30
101.7529983520508
 70
   192
  0
VERTEX
  5
B1B
  8
0
 10
54.23500061035156
 20
-18.37299919128418
 30
98.20700073242188
 70
   192
  0
VERTEX
  5
B1C
  8
0
 10
23.78000068664551
 20
-16.64200019836426
 30
91.99800109863281
 70
   192
  0
VERTEX
  5
B1D
  8
0
 10
24.09499931335449
 20
-16.34700012207031
 30
91.61599731445312
 70
   192
  0
VERTEX
  5
B1E
  8
0
 10
21.77300071716309
 20
-18.00900077819824
 30
94.62699890136719
 70
   192
  0
VERTEX
  5
B1F
  8
0
 10
54.23500061035156
 20
-16.18899917602539
 30
94.21800231933594
 70
   192
  0
VERTEX
  5
B20
  8
0
 10
26.67700004577637
 20
-13.93900012969971
 30
88.48699951171875
 70
   192
  0
VERTEX
  5
B21
  8
0
 10
26.87599945068359
 20
-13.69499969482422
 30
88.26200103759766
 70
   192
  0
VERTEX
  5
B22
  8
0
 10
54.23500061035156
 20
-13.53999996185303
 30
91.04399871826172
 70
   192
  0
VERTEX
  5
B23
  8
0
 10
30.39200019836426
 20
-7.978000164031982
 30
84.43699645996094
 70
   192
  0
VERTEX
  5
B24
  8
0
 10
30.61899948120117
 20
-7.234000205993652
 30
84.20800018310547
 70
   192
  0
VERTEX
  5
B25
  8
0
 10
27.79700088500977
 20
-12.5620002746582
 30
87.21499633789062
 70
   192
  0
VERTEX
  5
B26
  8
0
 10
28.39800071716309
 20
-11.57600021362305
 30
86.56600189208984
 70
   192
  0
VERTEX
  5
B27
  8
0
 10
29.83300018310547
 20
-9.222999572753906
 30
85.01599884033203
 70
   192
  0
VERTEX
  5
B28
  8
0
 10
54.23500061035156
 20
-0.0010000000474975
 30
85.58399963378906
 70
   192
  0
VERTEX
  5
B29
  8
0
 10
54.23500061035156
 20
-7.171999931335449
 30
86.9280014038086
 70
   192
  0
VERTEX
  5
B2A
  8
0
 10
31.72900009155273
 20
-3.138999938964844
 30
83.09100341796875
 70
   192
  0
VERTEX
  5
B2B
  8
0
 10
31.5319995880127
 20
-4.24399995803833
 30
83.28600311279297
 70
   192
  0
VERTEX
  5
B2C
  8
0
 10
54.23500061035156
 20
7.170000076293945
 30
86.927001953125
 70
   192
  0
VERTEX
  5
B2D
  8
0
 10
31.07299995422363
 20
6.059000015258789
 30
83.74500274658203
 70
   192
  0
VERTEX
  5
B2E
  8
0
 10
30.69700050354004
 20
7.190000057220459
 30
84.1259994506836
 70
   192
  0
VERTEX
  5
B2F
  8
0
 10
31.84199905395508
 20
2.270999908447266
 30
82.9800033569336
 70
   192
  0
VERTEX
  5
B30
  8
0
 10
31.95100021362305
 20
0.7649999856948853
 30
82.87300109863281
 70
   192
  0
VERTEX
  5
B31
  8
0
 10
31.9069995880127
 20
0.0020000000949949
 30
82.91600036621094
 70
   192
  0
VERTEX
  5
B32
  8
0
 10
54.23500061035156
 20
13.53800010681152
 30
91.04299926757812
 70
   192
  0
VERTEX
  5
B33
  8
0
 10
29.07099914550781
 20
10.64400005340576
 30
85.822998046875
 70
   192
  0
VERTEX
  5
B34
  8
0
 10
28.43600082397461
 20
11.59799957275391
 30
86.51699829101562
 70
   192
  0
VERTEX
  5
B35
  8
0
 10
27.77199935913086
 20
12.5959997177124
 30
87.24400329589844
 70
   192
  0
VERTEX
  5
B36
  8
0
 10
30.66900062561035
 20
7.248000144958496
 30
84.15499877929688
 70
   192
  0
VERTEX
  5
B37
  8
0
 10
54.23500061035156
 20
16.1879997253418
 30
94.21600341796875
 70
   192
  0
VERTEX
  5
B38
  8
0
 10
26.84000015258789
 20
13.63399982452393
 30
88.32599639892578
 70
   192
  0
VERTEX
  5
B39
  8
0
 10
25.29800033569336
 20
15.35299968719482
 30
90.11699676513672
 70
   192
  0
VERTEX
  5
B3A
  8
0
 10
54.23500061035156
 20
18.37100028991699
 30
98.2040023803711
 70
   192
  0
VERTEX
  5
B3B
  8
0
 10
24.08699989318848
 20
16.29899978637695
 30
91.6510009765625
 70
   192
  0
VERTEX
  5
B3C
  8
0
 10
22.38800048828125
 20
17.625
 30
93.80400085449219
 70
   192
  0
VERTEX
  5
B3D
  8
0
 10
54.23500061035156
 20
20.01899909973145
 30
103.0810012817383
 70
   192
  0
VERTEX
  5
B3E
  8
0
 10
20.77499961853027
 20
18.48200035095215
 30
96.04499816894531
 70
   192
  0
VERTEX
  5
B3F
  8
0
 10
19.1879997253418
 20
19.32399940490723
 30
98.24800109863281
 70
   192
  0
VERTEX
  5
B40
  8
0
 10
19.13699913024902
 20
19.34000015258789
 30
98.3239974975586
 70
   192
  0
VERTEX
  5
B41
  8
0
 10
54.23500061035156
 20
21.00200080871582
 30
108.3460006713867
 70
   192
  0
VERTEX
  5
B42
  8
0
 10
11.62800025939941
 20
20.98800086975098
 30
108.1449966430664
 70
   192
  0
VERTEX
  5
B43
  8
0
 10
11.05900001525879
 20
21.0
 30
108.322998046875
 70
   192
  0
VERTEX
  5
B44
  8
0
 10
16.8129997253418
 20
20.07699966430664
 30
101.7649993896484
 70
   192
  0
VERTEX
  5
B45
  8
0
 10
15.41899967193604
 20
20.51899909973145
 30
103.8290023803711
 70
   192
  0
VERTEX
  5
B46
  8
0
 10
12.74899959564209
 20
20.92000007629395
 30
107.2939987182617
 70
   192
  0
VERTEX
  5
B47
  8
0
 10
95.96099853515625
 20
19.20199966430664
 30
103.036003112793
 70
   192
  0
VERTEX
  5
B48
  8
0
 10
95.93900299072266
 20
19.33699989318848
 30
103.4349975585938
 70
   192
  0
VERTEX
  5
B49
  8
0
 10
95.6709976196289
 20
21.00200080871582
 30
108.3489990234375
 70
   192
  0
VERTEX
  5
B4A
  8
0
 10
96.13800048828125
 20
13.7209997177124
 30
95.68399810791016
 70
   192
  0
VERTEX
  5
B4B
  8
0
 10
96.12899780273438
 20
16.93400001525879
 30
99.1729965209961
 70
   192
  0
VERTEX
  5
B4C
  8
0
 10
96.13800048828125
 20
13.80000019073486
 30
95.76899719238281
 70
   192
  0
VERTEX
  5
B4D
  8
0
 10
96.10099792480469
 20
17.28800010681152
 30
99.66300201416016
 70
   192
  0
VERTEX
  5
B4E
  8
0
 10
96.12899780273438
 20
16.96100044250488
 30
99.2030029296875
 70
   192
  0
VERTEX
  5
B4F
  8
0
 10
96.04499816894531
 20
18.0580005645752
 30
101.0210037231445
 70
   192
  0
VERTEX
  5
B50
  8
0
 10
96.24800109863281
 20
11.42199993133545
 30
93.99199676513672
 70
   192
  0
VERTEX
  5
B51
  8
0
 10
96.91300201416016
 20
9.684000015258789
 30
93.08000183105469
 70
   192
  0
VERTEX
  5
B52
  8
0
 10
94.06700134277344
 20
8.354999542236328
 30
92.13200378417969
 70
   192
  0
VERTEX
  5
B53
  8
0
 10
96.98799896240234
 20
10.48499965667725
 30
93.51499938964844
 70
   192
  0
VERTEX
  5
B54
  8
0
 10
97.6259994506836
 20
9.843000411987305
 30
93.24299621582031
 70
   192
  0
VERTEX
  5
B55
  8
0
 10
96.16000366210938
 20
13.26900005340576
 30
95.35099792480469
 70
   192
  0
VERTEX
  5
B56
  8
0
 10
90.15599822998047
 20
1.577000021934509
 30
90.03399658203125
 70
   192
  0
VERTEX
  5
B57
  8
0
 10
90.0479965209961
 20
-0.0010000000474975
 30
89.96399688720703
 70
   192
  0
VERTEX
  5
B58
  8
0
 10
91.05000305175781
 20
4.660999774932861
 30
90.59400177001953
 70
   192
  0
VERTEX
  5
B59
  8
0
 10
91.8949966430664
 20
6.14300012588501
 30
91.08000183105469
 70
   192
  0
VERTEX
  5
B5A
  8
0
 10
92.76100158691406
 20
7.025000095367432
 30
91.4990005493164
 70
   192
  0
VERTEX
  5
B5B
  8
0
 10
90.0479965209961
 20
-0.003000000026077
 30
89.96399688720703
 70
   192
  0
VERTEX
  5
B5C
  8
0
 10
90.53500366210938
 20
-3.305000066757202
 30
90.2770004272461
 70
   192
  0
VERTEX
  5
B5D
  8
0
 10
91.9520034790039
 20
-6.223999977111816
 30
91.11100006103516
 70
   192
  0
VERTEX
  5
B5E
  8
0
 10
96.27100372314453
 20
-11.43299961090088
 30
94.00199890136719
 70
   192
  0
VERTEX
  5
B5F
  8
0
 10
93.97200012207031
 20
-8.286999702453613
 30
92.09200286865234
 70
   192
  0
VERTEX
  5
B60
  8
0
 10
96.5780029296875
 20
-9.588000297546387
 30
92.99299621582031
 70
   192
  0
VERTEX
  5
B61
  8
0
 10
92.73999786376953
 20
-7.027999877929688
 30
91.49400329589844
 70
   192
  0
VERTEX
  5
B62
  8
0
 10
97.60800170898438
 20
-9.83899974822998
 30
93.23899841308594
 70
   192
  0
VERTEX
  5
B63
  8
0
 10
96.15799713134766
 20
-16.42499923706055
 30
98.5
 70
   192
  0
VERTEX
  5
B64
  8
0
 10
96.16699981689453
 20
-16.67700004577637
 30
98.82499694824219
 70
   192
  0
VERTEX
  5
B65
  8
0
 10
96.15699768066406
 20
-17.06599998474121
 30
99.35199737548828
 70
   192
  0
VERTEX
  5
B66
  8
0
 10
96.1729965209961
 20
-13.73099994659424
 30
95.69599914550781
 70
   192
  0
VERTEX
  5
B67
  8
0
 10
96.1719970703125
 20
-13.79300022125244
 30
95.76000213623047
 70
   192
  0
VERTEX
  5
B68
  8
0
 10
96.19200134277344
 20
-13.27000045776367
 30
95.35600280761719
 70
   192
  0
VERTEX
  5
B69
  8
0
 10
95.96099853515625
 20
-19.40399932861328
 30
103.4879989624023
 70
   192
  0
VERTEX
  5
B6A
  8
0
 10
95.6709976196289
 20
-21.00200080871582
 30
108.3489990234375
 70
   192
  0
VERTEX
  5
B6B
  8
0
 10
95.96399688720703
 20
-19.36700057983398
 30
103.4229965209961
 70
   192
  0
VERTEX
  5
B6C
  8
0
 10
96.0770034790039
 20
-18.02400016784668
 30
101.0449981689453
 70
   192
  0
VERTEX
  5
B6D
  8
0
 10
12.31599998474121
 20
-20.95299911499023
 30
107.6910018920898
 70
   192
  0
VERTEX
  5
B6E
  8
0
 10
14.46700000762939
 20
-20.70199966430664
 30
105.1890029907227
 70
   192
  0
VERTEX
  5
B6F
  8
0
 10
11.52099990844727
 20
-20.99099922180176
 30
108.193000793457
 70
   192
  0
VERTEX
  5
B70
  8
0
 10
54.23500061035156
 20
-21.00200080871582
 30
108.3470001220703
 70
   192
  0
VERTEX
  5
B71
  8
0
 10
10.8439998626709
 20
-21.00200080871582
 30
108.3440017700195
 70
   192
  0
VERTEX
  5
B72
  8
0
 10
11.00500011444092
 20
-21.00099945068359
 30
108.3290023803711
 70
   192
  0
VERTEX
  5
B73
  8
0
 10
10.8439998626709
 20
21.00200080871582
 30
108.3430023193359
 70
   192
  0
VERTEX
  5
B74
  8
0
 62
     9
 10
0.0
 20
0.0
 30
0.0
 70
   128
 71
     3
 72
     2
 73
     1
  0
VERTEX
  5
B75
  8
0
 62
     9
 10
0.0
 20
0.0
 30
0.0
 70
   128
 71
     2
 72
     4
 73
     1
  0
VERTEX
  5
B76
  8
0
 62
     9
 10
0.0
 20
0.0
 30
0.0
 70
   128
 71
     4
 72
     5
 73
     1
  0
VERTEX
  5
B77
  8
0
 62
     9
 10
0.0
 20
0.0
 30
0.0
 70
   128
 71
     8
 72
     7
 73
     6
  0
VERTEX
  5
B78
  8
0
 62
     9
 10
0.0
 20
0.0
 30
0.0
 70
   128
 71
     9
 72
     3
 73
     6
  0
VERTEX
  5
B79
  8
0
 62
     9
 10
0.0
 20
0.0
 30
0.0
 70
   128
 71
     6
 72
     7
 73
     9
  0
VERTEX
  5
B7A
  8
0
 62
     9
 10
0.0
 20
0.0
 30
0.0
 70
   128
 71
    12
 72
    11
 73
    10
  0
VERTEX
  5
B7B
  8
0
 62
     9
 10
0.0
 20
0.0
 30
0.0
 70
   128
 71
    11
 72
     8
 73
    10
  0
VERTEX
  5
B7C
  8
0
 62
     9
 10
0.0
 20
0.0
 30
0.0
 70
   128
 71
    15
 72
    14
 73
    13
  0
VERTEX
  5
B7D
  8
0
 62
     9
 10
0.0
 20
0.0
 30
0.0
 70
   128
 71
    17
 72
    16
 73
    13
  0
VERTEX
  5
B7E
  8
0
 62
     9
 10
0.0
 20
0.0
 30
0.0
 70
   128
 71
    16
 72
    12
 73
    13
  0
VERTEX
  5
B7F
  8
0
 62
     9
 10
0.0
 20
0.0
 30
0.0
 70
   128
 71
    13
 72
    18
 73
    17
  0
VERTEX
  5
B80
  8
0
 62
     9
 10
0.0
 20
0.0
 30
0.0
 70
   128
 71
    13
 72
    14
 73
    18
  0
VERTEX
  5
B81
  8
0
 62
     9
 10
0.0
 20
0.0
 30
0.0
 70
   128
 71
    21
 72
    20
 73
    19
  0
VERTEX
  5
B82
  8
0
 62
     9
 10
0.0
 20
0.0
 30
0.0
 70
   128
 71
    22
 72
    15
 73
    20
  0
VERTEX
  5
B83
  8
0
 62
     9
 10
0.0
 20
0.0
 30
0.0
 70
   128
 71
    20
 72
    21
 73
    22
  0
VERTEX
  5
B84
  8
0
 62
     9
 10
0.0
 20
0.0
 30
0.0
 70
   128
 71
    25
 72
    24
 73
    23
  0
VERTEX
  5
B85
  8
0
 62
     9
 10
0.0
 20
0.0
 30
0.0
 70
   128
 71
    24
 72
    26
 73
    23
  0
VERTEX
  5
B86
  8
0
 62
     9
 10
0.0
 20
0.0
 30
0.0
 70
   128
 71
    26
 72
    27
 73
    19
  0
VERTEX
  5
B87
  8
0
 62
     9
 10
0.0
 20
0.0
 30
0.0
 70
   128
 71
    19
 72
    23
 73
    26
  0
VERTEX
  5
B88
  8
0
 62
     9
 10
0.0
 20
0.0
 30
0.0
 70
   128
 71
    19
 72
    27
 73
    28
  0
VERTEX
  5
B89
  8
0
 62
     9
 10
0.0
 20
0.0
 30
0.0
 70
   128
 71
    31
 72
    30
 73
    29
  0
VERTEX
  5
B8A
  8
0
 62
     9
 10
0.0
 20
0.0
 30
0.0
 70
   128
 71
    29
 72
    32
 73
    31
  0
VERTEX
  5
B8B
  8
0
 62
     9
 10
0.0
 20
0.0
 30
0.0
 70
   128
 71
    33
 72
    23
 73
    29
  0
VERTEX
  5
B8C
  8
0
 62
     9
 10
0.0
 20
0.0
 30
0.0
 70
   128
 71
    29
 72
    30
 73
    33
  0
VERTEX
  5
B8D
  8
0
 62
     9
 10
0.0
 20
0.0
 30
0.0
 70
   128
 71
    35
 72
    29
 73
    34
  0
VERTEX
  5
B8E
  8
0
 62
     9
 10
0.0
 20
0.0
 30
0.0
 70
   128
 71
    34
 72
    36
 73
    35
  0
VERTEX
  5
B8F
  8
0
 62
     9
 10
0.0
 20
0.0
 30
0.0
 70
   128
 71
    38
 72
    34
 73
    37
  0
VERTEX
  5
B90
  8
0
 62
     9
 10
0.0
 20
0.0
 30
0.0
 70
   128
 71
    37
 72
    39
 73
    38
  0
VERTEX
  5
B91
  8
0
 62
     9
 10
0.0
 20
0.0
 30
0.0
 70
   128
 71
    41
 72
    37
 73
    40
  0
VERTEX
  5
B92
  8
0
 62
     9
 10
0.0
 20
0.0
 30
0.0
 70
   128
 71
    40
 72
    42
 73
    41
  0
VERTEX
  5
B93
  8
0
 62
     9
 10
0.0
 20
0.0
 30
0.0
 70
   128
 71
    40
 72
    43
 73
    42
  0
VERTEX
  5
B94
  8
0
 62
     9
 10
0.0
 20
0.0
 30
0.0
 70
   128
 71
    46
 72
    45
 73
    44
  0
VERTEX
  5
B95
  8
0
 62
     9
 10
0.0
 20
0.0
 30
0.0
 70
   128
 71
    47
 72
    40
 73
    44
  0
VERTEX
  5
B96
  8
0
 62
     9
 10
0.0
 20
0.0
 30
0.0
 70
   128
 71
    44
 72
    48
 73
    47
  0
VERTEX
  5
B97
  8
0
 62
     9
 10
0.0
 20
0.0
 30
0.0
 70
   128
 71
    44
 72
    49
 73
    48
  0
VERTEX
  5
B98
  8
0
 62
     9
 10
0.0
 20
0.0
 30
0.0
 70
   128
 71
    44
 72
    45
 73
    49
  0
VERTEX
  5
B99
  8
0
 62
     9
 10
0.0
 20
0.0
 30
0.0
 70
   128
 71
    50
 72
    40
 73
    37
  0
VERTEX
  5
B9A
  8
0
 62
     9
 10
0.0
 20
0.0
 30
0.0
 70
   128
 71
    50
 72
    51
 73
    40
  0
VERTEX
  5
B9B
  8
0
 62
     9
 10
0.0
 20
0.0
 30
0.0
 70
   128
 71
    52
 72
    44
 73
    40
  0
VERTEX
  5
B9C
  8
0
 62
     9
 10
0.0
 20
0.0
 30
0.0
 70
   128
 71
    40
 72
    51
 73
    52
  0
VERTEX
  5
B9D
  8
0
 62
     9
 10
0.0
 20
0.0
 30
0.0
 70
   128
 71
    53
 72
    34
 73
    29
  0
VERTEX
  5
B9E
  8
0
 62
     9
 10
0.0
 20
0.0
 30
0.0
 70
   128
 71
    54
 72
    37
 73
    34
  0
VERTEX
  5
B9F
  8
0
 62
     9
 10
0.0
 20
0.0
 30
0.0
 70
   128
 71
    34
 72
    55
 73
    54
  0
VERTEX
  5
BA0
  8
0
 62
     9
 10
0.0
 20
0.0
 30
0.0
 70
   128
 71
    57
 72
    56
 73
    37
  0
VERTEX
  5
BA1
  8
0
 62
     9
 10
0.0
 20
0.0
 30
0.0
 70
   128
 71
    37
 72
    54
 73
    57
  0
VERTEX
  5
BA2
  8
0
 62
     9
 10
0.0
 20
0.0
 30
0.0
 70
   128
 71
    56
 72
    58
 73
    37
  0
VERTEX
  5
BA3
  8
0
 62
     9
 10
0.0
 20
0.0
 30
0.0
 70
   128
 71
    34
 72
    53
 73
    55
  0
VERTEX
  5
BA4
  8
0
 62
     9
 10
0.0
 20
0.0
 30
0.0
 70
   128
 71
    61
 72
    60
 73
    59
  0
VERTEX
  5
BA5
  8
0
 62
     9
 10
0.0
 20
0.0
 30
0.0
 70
   128
 71
    62
 72
    59
 73
    60
  0
VERTEX
  5
BA6
  8
0
 62
     9
 10
0.0
 20
0.0
 30
0.0
 70
   128
 71
    60
 72
    63
 73
    62
  0
VERTEX
  5
BA7
  8
0
 62
     9
 10
0.0
 20
0.0
 30
0.0
 70
   128
 71
    59
 72
    23
 73
    61
  0
VERTEX
  5
BA8
  8
0
 62
     9
 10
0.0
 20
0.0
 30
0.0
 70
   128
 71
    59
 72
    64
 73
    29
  0
VERTEX
  5
BA9
  8
0
 62
     9
 10
0.0
 20
0.0
 30
0.0
 70
   128
 71
    29
 72
    23
 73
    59
  0
VERTEX
  5
BAA
  8
0
 62
     9
 10
0.0
 20
0.0
 30
0.0
 70
   128
 71
    65
 72
    23
 73
    19
  0
VERTEX
  5
BAB
  8
0
 62
     9
 10
0.0
 20
0.0
 30
0.0
 70
   128
 71
    19
 72
    66
 73
    65
  0
VERTEX
  5
BAC
  8
0
 62
     9
 10
0.0
 20
0.0
 30
0.0
 70
   128
 71
    65
 72
    67
 73
    23
  0
VERTEX
  5
BAD
  8
0
 62
     9
 10
0.0
 20
0.0
 30
0.0
 70
   128
 71
    67
 72
    68
 73
    23
  0
VERTEX
  5
BAE
  8
0
 62
     9
 10
0.0
 20
0.0
 30
0.0
 70
   128
 71
    68
 72
    69
 73
    23
  0
VERTEX
  5
BAF
  8
0
 62
     9
 10
0.0
 20
0.0
 30
0.0
 70
   128
 71
    70
 72
    66
 73
    19
  0
VERTEX
  5
BB0
  8
0
 62
     9
 10
0.0
 20
0.0
 30
0.0
 70
   128
 71
    19
 72
    20
 73
    70
  0
VERTEX
  5
BB1
  8
0
 62
     9
 10
0.0
 20
0.0
 30
0.0
 70
   128
 71
    20
 72
    71
 73
    70
  0
VERTEX
  5
BB2
  8
0
 62
     9
 10
0.0
 20
0.0
 30
0.0
 70
   128
 71
    20
 72
    72
 73
    71
  0
VERTEX
  5
BB3
  8
0
 62
     9
 10
0.0
 20
0.0
 30
0.0
 70
   128
 71
    73
 72
    20
 73
    13
  0
VERTEX
  5
BB4
  8
0
 62
     9
 10
0.0
 20
0.0
 30
0.0
 70
   128
 71
    74
 72
    20
 73
    73
  0
VERTEX
  5
BB5
  8
0
 62
     9
 10
0.0
 20
0.0
 30
0.0
 70
   128
 71
    73
 72
    75
 73
    74
  0
VERTEX
  5
BB6
  8
0
 62
     9
 10
0.0
 20
0.0
 30
0.0
 70
   128
 71
    74
 72
    76
 73
    20
  0
VERTEX
  5
BB7
  8
0
 62
     9
 10
0.0
 20
0.0
 30
0.0
 70
   128
 71
    73
 72
    77
 73
    75
  0
VERTEX
  5
BB8
  8
0
 62
     9
 10
0.0
 20
0.0
 30
0.0
 70
   128
 71
    79
 72
    78
 73
     6
  0
VERTEX
  5
BB9
  8
0
 62
     9
 10
0.0
 20
0.0
 30
0.0
 70
   128
 71
     6
 72
    80
 73
    79
  0
VERTEX
  5
BBA
  8
0
 62
     9
 10
0.0
 20
0.0
 30
0.0
 70
   128
 71
    82
 72
    81
 73
    10
  0
VERTEX
  5
BBB
  8
0
 62
     9
 10
0.0
 20
0.0
 30
0.0
 70
   128
 71
    10
 72
     6
 73
    82
  0
VERTEX
  5
BBC
  8
0
 62
     9
 10
0.0
 20
0.0
 30
0.0
 70
   128
 71
     6
 72
    78
 73
    82
  0
VERTEX
  5
BBD
  8
0
 62
     9
 10
0.0
 20
0.0
 30
0.0
 70
   128
 71
    81
 72
    83
 73
    13
  0
VERTEX
  5
BBE
  8
0
 62
     9
 10
0.0
 20
0.0
 30
0.0
 70
   128
 71
    13
 72
    10
 73
    81
  0
VERTEX
  5
BBF
  8
0
 62
     9
 10
0.0
 20
0.0
 30
0.0
 70
   128
 71
    85
 72
    84
 73
     1
  0
VERTEX
  5
BC0
  8
0
 62
     9
 10
0.0
 20
0.0
 30
0.0
 70
   128
 71
    84
 72
    86
 73
     1
  0
VERTEX
  5
BC1
  8
0
 62
     9
 10
0.0
 20
0.0
 30
0.0
 70
   128
 71
    86
 72
    87
 73
     6
  0
VERTEX
  5
BC2
  8
0
 62
     9
 10
0.0
 20
0.0
 30
0.0
 70
   128
 71
     6
 72
     1
 73
    86
  0
VERTEX
  5
BC3
  8
0
 62
     9
 10
0.0
 20
0.0
 30
0.0
 70
   128
 71
    89
 72
    88
 73
     1
  0
VERTEX
  5
BC4
  8
0
 62
     9
 10
0.0
 20
0.0
 30
0.0
 70
   128
 71
    88
 72
    90
 73
     1
  0
VERTEX
  5
BC5
  8
0
 62
     9
 10
0.0
 20
0.0
 30
0.0
 70
   128
 71
    93
 72
    92
 73
    91
  0
VERTEX
  5
BC6
  8
0
 62
     9
 10
0.0
 20
0.0
 30
0.0
 70
   128
 71
    91
 72
     1
 73
    93
  0
VERTEX
  5
BC7
  8
0
 62
     9
 10
0.0
 20
0.0
 30
0.0
 70
   128
 71
     1
 72
    90
 73
    93
  0
VERTEX
  5
BC8
  8
0
 62
     9
 10
0.0
 20
0.0
 30
0.0
 70
   128
 71
     1
 72
     5
 73
    89
  0
VERTEX
  5
BC9
  8
0
 62
     9
 10
0.0
 20
0.0
 30
0.0
 70
   128
 71
     1
 72
    91
 73
    85
  0
VERTEX
  5
BCA
  8
0
 62
     9
 10
0.0
 20
0.0
 30
0.0
 70
   128
 71
     6
 72
    87
 73
    80
  0
VERTEX
  5
BCB
  8
0
 62
     9
 10
0.0
 20
0.0
 30
0.0
 70
   128
 71
    13
 72
    83
 73
    73
  0
VERTEX
  5
BCC
  8
0
 62
     9
 10
0.0
 20
0.0
 30
0.0
 70
   128
 71
    20
 72
    76
 73
    72
  0
VERTEX
  5
BCD
  8
0
 62
     9
 10
0.0
 20
0.0
 30
0.0
 70
   128
 71
    23
 72
    69
 73
    61
  0
VERTEX
  5
BCE
  8
0
 62
     9
 10
0.0
 20
0.0
 30
0.0
 70
   128
 71
    29
 72
    64
 73
    53
  0
VERTEX
  5
BCF
  8
0
 62
     9
 10
0.0
 20
0.0
 30
0.0
 70
   128
 71
    37
 72
    58
 73
    50
  0
VERTEX
  5
BD0
  8
0
 62
     9
 10
0.0
 20
0.0
 30
0.0
 70
   128
 71
    44
 72
    94
 73
    46
  0
VERTEX
  5
BD1
  8
0
 62
     9
 10
0.0
 20
0.0
 30
0.0
 70
   128
 71
    40
 72
    47
 73
    43
  0
VERTEX
  5
BD2
  8
0
 62
     9
 10
0.0
 20
0.0
 30
0.0
 70
   128
 71
    37
 72
    41
 73
    39
  0
VERTEX
  5
BD3
  8
0
 62
     9
 10
0.0
 20
0.0
 30
0.0
 70
   128
 71
    34
 72
    38
 73
    36
  0
VERTEX
  5
BD4
  8
0
 62
     9
 10
0.0
 20
0.0
 30
0.0
 70
   128
 71
    29
 72
    35
 73
    32
  0
VERTEX
  5
BD5
  8
0
 62
     9
 10
0.0
 20
0.0
 30
0.0
 70
   128
 71
    23
 72
    33
 73
    25
  0
VERTEX
  5
BD6
  8
0
 62
     9
 10
0.0
 20
0.0
 30
0.0
 70
   128
 71
    19
 72
    28
 73
    21
  0
VERTEX
  5
BD7
  8
0
 62
     9
 10
0.0
 20
0.0
 30
0.0
 70
   128
 71
    13
 72
    20
 73
    15
  0
VERTEX
  5
BD8
  8
0
 62
     9
 10
0.0
 20
0.0
 30
0.0
 70
   128
 71
    10
 72
    13
 73
    12
  0
VERTEX
  5
BD9
  8
0
 62
     9
 10
0.0
 20
0.0
 30
0.0
 70
   128
 71
     6
 72
    10
 73
     8
  0
VERTEX
  5
BDA
  8
0
 62
     9
 10
0.0
 20
0.0
 30
0.0
 70
   128
 71
     1
 72
     6
 73
     3
  0
SEQEND
  5
BDB
  8
0
 62
     9
  0
ENDBLK
  5
BDE
  8
0
  0
BLOCK
  8
0
  2
E3_NODE_51_
 70
     0
 10
0.0
 20
0.0
 30
0.0
  3
E3_NODE_51_
  1

  0
POLYLINE
  5
BE0
  8
0
 62
     9
 66
     1
 10
0.0
 20
0.0
 30
0.0
 70
    64
 71
    33
 72
    34
  0
VERTEX
  5
BE1
  8
0
 10
103.6159973144531
 20
-19.43899917602539
 30
108.6009979248047
 70
   192
  0
VERTEX
  5
BE2
  8
0
 10
104.0029983520508
 20
-19.27799987792969
 30
108.3489990234375
 70
   192
  0
VERTEX
  5
BE3
  8
0
 10
108.1500015258789
 20
-16.88899993896484
 30
108.3489990234375
 70
   192
  0
VERTEX
  5
BE4
  8
0
 10
110.5210037231445
 20
-14.84899997711182
 30
108.6009979248047
 70
   192
  0
VERTEX
  5
BE5
  8
0
 10
103.859001159668
 20
-19.32299995422363
 30
108.3489990234375
 70
   192
  0
VERTEX
  5
BE6
  8
0
 10
103.6050033569336
 20
-19.40399932861328
 30
108.3489990234375
 70
   192
  0
VERTEX
  5
BE7
  8
0
 10
115.1119995117188
 20
-7.945000171661377
 30
108.6009979248047
 70
   192
  0
VERTEX
  5
BE8
  8
0
 10
111.7429962158203
 20
-13.51799964904785
 30
108.3489990234375
 70
   192
  0
VERTEX
  5
BE9
  8
0
 10
110.6149978637695
 20
-14.57600021362305
 30
108.3489990234375
 70
   192
  0
VERTEX
  5
BEA
  8
0
 10
114.4410018920898
 20
-9.420999526977539
 30
108.3489990234375
 70
   192
  0
VERTEX
  5
BEB
  8
0
 10
110.4290008544922
 20
-14.75100040435791
 30
108.3489990234375
 70
   192
  0
VERTEX
  5
BEC
  8
0
 10
95.6719970703125
 20
-21.00099945068359
 30
108.6009979248047
 70
   192
  0
VERTEX
  5
BED
  8
0
 10
95.6709976196289
 20
-21.00200080871582
 30
108.3489990234375
 70
   192
  0
VERTEX
  5
BEE
  8
0
 10
99.96900177001953
 20
-20.55699920654297
 30
108.3489990234375
 70
   192
  0
VERTEX
  5
BEF
  8
0
 10
116.6699981689453
 20
-0.2910000085830688
 30
108.6009979248047
 70
   192
  0
VERTEX
  5
BF0
  8
0
 10
116.1100006103516
 20
-4.829999923706055
 30
108.3489990234375
 70
   192
  0
VERTEX
  5
BF1
  8
0
 10
115.0169982910156
 20
-7.835999965667725
 30
108.3489990234375
 70
   192
  0
VERTEX
  5
BF2
  8
0
 10
114.9929962158203
 20
-7.901999950408936
 30
108.3489990234375
 70
   192
  0
VERTEX
  5
BF3
  8
0
 10
116.4089965820312
 20
-3.315999984741211
 30
108.8499984741211
 70
   192
  0
VERTEX
  5
BF4
  8
0
 10
116.2030029296875
 20
-4.410999774932861
 30
108.8499984741211
 70
   192
  0
VERTEX
  5
BF5
  8
0
 10
115.0449981689453
 20
-7.921999931335449
 30
108.8499984741211
 70
   192
  0
VERTEX
  5
BF6
  8
0
 10
116.6669998168945
 20
-0.5789999961853027
 30
108.8499984741211
 70
   192
  0
VERTEX
  5
BF7
  8
0
 10
114.8000030517578
 20
-8.663999557495117
 30
108.8499984741211
 70
   192
  0
VERTEX
  5
BF8
  8
0
 10
112.4380035400391
 20
-12.64099979400635
 30
108.8499984741211
 70
   192
  0
VERTEX
  5
BF9
  8
0
 10
110.8300018310547
 20
-14.5310001373291
 30
108.8499984741211
 70
   192
  0
VERTEX
  5
BFA
  8
0
 10
107.286003112793
 20
-17.49099922180176
 30
108.8499984741211
 70
   192
  0
VERTEX
  5
BFB
  8
0
 10
105.1460037231445
 20
-18.73800086975098
 30
108.8499984741211
 70
   192
  0
VERTEX
  5
BFC
  8
0
 10
110.4919967651367
 20
-14.8129997253418
 30
108.8499984741211
 70
   192
  0
VERTEX
  5
BFD
  8
0
 10
101.9100036621094
 20
-20.04999923706055
 30
108.8499984741211
 70
   192
  0
VERTEX
  5
BFE
  8
0
 10
98.5
 20
-20.80599975585938
 30
108.8499984741211
 70
   192
  0
VERTEX
  5
BFF
  8
0
 10
103.5879974365234
 20
-19.36899948120117
 30
108.8499984741211
 70
   192
  0
VERTEX
  5
C00
  8
0
 10
95.6719970703125
 20
-21.0
 30
108.8499984741211
 70
   192
  0
VERTEX
  5
C01
  8
0
 10
116.6740036010742
 20
0.0
 30
108.3489990234375
 70
   192
  0
VERTEX
  5
C02
  8
0
 62
     9
 10
0.0
 20
0.0
 30
0.0
 70
   128
 71
     3
 72
     2
 73
     1
  0
VERTEX
  5
C03
  8
0
 62
     9
 10
0.0
 20
0.0
 30
0.0
 70
   128
 71
     1
 72
     4
 73
     3
  0
VERTEX
  5
C04
  8
0
 62
     9
 10
0.0
 20
0.0
 30
0.0
 70
   128
 71
     2
 72
     5
 73
     1
  0
VERTEX
  5
C05
  8
0
 62
     9
 10
0.0
 20
0.0
 30
0.0
 70
   128
 71
     5
 72
     6
 73
     1
  0
VERTEX
  5
C06
  8
0
 62
     9
 10
0.0
 20
0.0
 30
0.0
 70
   128
 71
     8
 72
     4
 73
     7
  0
VERTEX
  5
C07
  8
0
 62
     9
 10
0.0
 20
0.0
 30
0.0
 70
   128
 71
     8
 72
     9
 73
     4
  0
VERTEX
  5
C08
  8
0
 62
     9
 10
0.0
 20
0.0
 30
0.0
 70
   128
 71
     7
 72
    10
 73
     8
  0
VERTEX
  5
C09
  8
0
 62
     9
 10
0.0
 20
0.0
 30
0.0
 70
   128
 71
     9
 72
    11
 73
     4
  0
VERTEX
  5
C0A
  8
0
 62
     9
 10
0.0
 20
0.0
 30
0.0
 70
   128
 71
    14
 72
    13
 73
    12
  0
VERTEX
  5
C0B
  8
0
 62
     9
 10
0.0
 20
0.0
 30
0.0
 70
   128
 71
    12
 72
     1
 73
    14
  0
VERTEX
  5
C0C
  8
0
 62
     9
 10
0.0
 20
0.0
 30
0.0
 70
   128
 71
    16
 72
     7
 73
    15
  0
VERTEX
  5
C0D
  8
0
 62
     9
 10
0.0
 20
0.0
 30
0.0
 70
   128
 71
    16
 72
    17
 73
     7
  0
VERTEX
  5
C0E
  8
0
 62
     9
 10
0.0
 20
0.0
 30
0.0
 70
   128
 71
    17
 72
    18
 73
     7
  0
VERTEX
  5
C0F
  8
0
 62
     9
 10
0.0
 20
0.0
 30
0.0
 70
   128
 71
    20
 72
    19
 73
    15
  0
VERTEX
  5
C10
  8
0
 62
     9
 10
0.0
 20
0.0
 30
0.0
 70
   128
 71
    15
 72
     7
 73
    20
  0
VERTEX
  5
C11
  8
0
 62
     9
 10
0.0
 20
0.0
 30
0.0
 70
   128
 71
     7
 72
    21
 73
    20
  0
VERTEX
  5
C12
  8
0
 62
     9
 10
0.0
 20
0.0
 30
0.0
 70
   128
 71
    19
 72
    22
 73
    15
  0
VERTEX
  5
C13
  8
0
 62
     9
 10
0.0
 20
0.0
 30
0.0
 70
   128
 71
    24
 72
    23
 73
     7
  0
VERTEX
  5
C14
  8
0
 62
     9
 10
0.0
 20
0.0
 30
0.0
 70
   128
 71
     7
 72
     4
 73
    24
  0
VERTEX
  5
C15
  8
0
 62
     9
 10
0.0
 20
0.0
 30
0.0
 70
   128
 71
     4
 72
    25
 73
    24
  0
VERTEX
  5
C16
  8
0
 62
     9
 10
0.0
 20
0.0
 30
0.0
 70
   128
 71
    23
 72
    21
 73
     7
  0
VERTEX
  5
C17
  8
0
 62
     9
 10
0.0
 20
0.0
 30
0.0
 70
   128
 71
    26
 72
     4
 73
     1
  0
VERTEX
  5
C18
  8
0
 62
     9
 10
0.0
 20
0.0
 30
0.0
 70
   128
 71
     1
 72
    27
 73
    26
  0
VERTEX
  5
C19
  8
0
 62
     9
 10
0.0
 20
0.0
 30
0.0
 70
   128
 71
    26
 72
    28
 73
     4
  0
VERTEX
  5
C1A
  8
0
 62
     9
 10
0.0
 20
0.0
 30
0.0
 70
   128
 71
    30
 72
    29
 73
     1
  0
VERTEX
  5
C1B
  8
0
 62
     9
 10
0.0
 20
0.0
 30
0.0
 70
   128
 71
     1
 72
    12
 73
    30
  0
VERTEX
  5
C1C
  8
0
 62
     9
 10
0.0
 20
0.0
 30
0.0
 70
   128
 71
    29
 72
    31
 73
     1
  0
VERTEX
  5
C1D
  8
0
 62
     9
 10
0.0
 20
0.0
 30
0.0
 70
   128
 71
    12
 72
    32
 73
    30
  0
VERTEX
  5
C1E
  8
0
 62
     9
 10
0.0
 20
0.0
 30
0.0
 70
   128
 71
     1
 72
    31
 73
    27
  0
VERTEX
  5
C1F
  8
0
 62
     9
 10
0.0
 20
0.0
 30
0.0
 70
   128
 71
     4
 72
    28
 73
    25
  0
VERTEX
  5
C20
  8
0
 62
     9
 10
0.0
 20
0.0
 30
0.0
 70
   128
 71
    15
 72
    33
 73
    16
  0
VERTEX
  5
C21
  8
0
 62
     9
 10
0.0
 20
0.0
 30
0.0
 70
   128
 71
     1
 72
     6
 73
    14
  0
VERTEX
  5
C22
  8
0
 62
     9
 10
0.0
 20
0.0
 30
0.0
 70
   128
 71
     7
 72
    18
 73
    10
  0
VERTEX
  5
C23
  8
0
 62
     9
 10
0.0
 20
0.0
 30
0.0
 70
   128
 71
     4
 72
    11
 73
     3
  0
SEQEND
  5
C24
  8
0
 62
     9
  0
ENDBLK
  5
C27
  8
0
  0
BLOCK
  8
0
  2
E3_NODE_52_
 70
     0
 10
0.0
 20
0.0
 30
0.0
  3
E3_NODE_52_
  1

  0
POLYLINE
  5
C29
  8
0
 62
     9
 66
     1
 10
0.0
 20
0.0
 30
0.0
 70
    64
 71
    52
 72
    59
  0
VERTEX
  5
C2A
  8
0
 10
109.2289962768555
 20
-13.22599983215332
 30
103.4509963989258
 70
   192
  0
VERTEX
  5
C2B
  8
0
 10
103.0039978027344
 20
-17.63299942016602
 30
103.4169998168945
 70
   192
  0
VERTEX
  5
C2C
  8
0
 10
101.9440002441406
 20
-15.26099967956543
 30
99.17400360107422
 70
   192
  0
VERTEX
  5
C2D
  8
0
 10
113.4720001220703
 20
-6.989999771118164
 30
103.4810028076172
 70
   192
  0
VERTEX
  5
C2E
  8
0
 10
112.6959991455078
 20
0.0
 30
99.33000183105469
 70
   192
  0
VERTEX
  5
C2F
  8
0
 10
115.0019989013672
 20
0.0
 30
103.3010025024414
 70
   192
  0
VERTEX
  5
C30
  8
0
 10
111.1729965209961
 20
-5.932000160217285
 30
99.27899932861328
 70
   192
  0
VERTEX
  5
C31
  8
0
 10
112.693000793457
 20
0.0
 30
99.32599639892578
 70
   192
  0
VERTEX
  5
C32
  8
0
 10
115.068000793457
 20
0.0
 30
103.5029983520508
 70
   192
  0
VERTEX
  5
C33
  8
0
 10
107.3460006713867
 20
-11.36299991607666
 30
99.22799682617188
 70
   192
  0
VERTEX
  5
C34
  8
0
 10
100.7119979858398
 20
-12.3430004119873
 30
95.79199981689453
 70
   192
  0
VERTEX
  5
C35
  8
0
 10
109.6539993286133
 20
0.0
 30
95.98799896240234
 70
   192
  0
VERTEX
  5
C36
  8
0
 10
112.4960021972656
 20
0.0
 30
98.98500061035156
 70
   192
  0
VERTEX
  5
C37
  8
0
 10
108.3259963989258
 20
-4.738999843597412
 30
95.90699768066406
 70
   192
  0
VERTEX
  5
C38
  8
0
 10
109.6490020751953
 20
0.0
 30
95.98200225830078
 70
   192
  0
VERTEX
  5
C39
  8
0
 10
115.0690002441406
 20
0.0
 30
103.504997253418
 70
   192
  0
VERTEX
  5
C3A
  8
0
 10
116.1100006103516
 20
-4.829999923706055
 30
108.3489990234375
 70
   192
  0
VERTEX
  5
C3B
  8
0
 10
115.0169982910156
 20
-7.835999965667725
 30
108.3489990234375
 70
   192
  0
VERTEX
  5
C3C
  8
0
 10
116.6740036010742
 20
0.0
 30
108.3489990234375
 70
   192
  0
VERTEX
  5
C3D
  8
0
 10
114.4410018920898
 20
-9.420999526977539
 30
108.3489990234375
 70
   192
  0
VERTEX
  5
C3E
  8
0
 10
111.7429962158203
 20
-13.51799964904785
 30
108.3489990234375
 70
   192
  0
VERTEX
  5
C3F
  8
0
 10
114.9929962158203
 20
-7.901999950408936
 30
108.3489990234375
 70
   192
  0
VERTEX
  5
C40
  8
0
 10
108.1500015258789
 20
-16.88899993896484
 30
108.3489990234375
 70
   192
  0
VERTEX
  5
C41
  8
0
 10
110.4290008544922
 20
-14.75100040435791
 30
108.3489990234375
 70
   192
  0
VERTEX
  5
C42
  8
0
 10
104.0029983520508
 20
-19.27799987792969
 30
108.3489990234375
 70
   192
  0
VERTEX
  5
C43
  8
0
 10
110.6149978637695
 20
-14.57600021362305
 30
108.3489990234375
 70
   192
  0
VERTEX
  5
C44
  8
0
 10
95.96099853515625
 20
-19.40399932861328
 30
103.4879989624023
 70
   192
  0
VERTEX
  5
C45
  8
0
 10
99.96900177001953
 20
-20.55699920654297
 30
108.3489990234375
 70
   192
  0
VERTEX
  5
C46
  8
0
 10
103.6050033569336
 20
-19.40399932861328
 30
108.3489990234375
 70
   192
  0
VERTEX
  5
C47
  8
0
 10
95.6709976196289
 20
-21.00200080871582
 30
108.3489990234375
 70
   192
  0
VERTEX
  5
C48
  8
0
 10
103.859001159668
 20
-19.32299995422363
 30
108.3489990234375
 70
   192
  0
VERTEX
  5
C49
  8
0
 10
96.0770034790039
 20
-18.02400016784668
 30
101.0449981689453
 70
   192
  0
VERTEX
  5
C4A
  8
0
 10
95.96399688720703
 20
-19.36700057983398
 30
103.4229965209961
 70
   192
  0
VERTEX
  5
C4B
  8
0
 10
96.15799713134766
 20
-16.42499923706055
 30
98.5
 70
   192
  0
VERTEX
  5
C4C
  8
0
 10
96.1719970703125
 20
-13.79300022125244
 30
95.76000213623047
 70
   192
  0
VERTEX
  5
C4D
  8
0
 10
96.16699981689453
 20
-16.67700004577637
 30
98.82499694824219
 70
   192
  0
VERTEX
  5
C4E
  8
0
 10
96.15699768066406
 20
-17.06599998474121
 30
99.35199737548828
 70
   192
  0
VERTEX
  5
C4F
  8
0
 10
96.27100372314453
 20
-11.43299961090088
 30
94.00199890136719
 70
   192
  0
VERTEX
  5
C50
  8
0
 10
97.60800170898438
 20
-9.83899974822998
 30
93.23899841308594
 70
   192
  0
VERTEX
  5
C51
  8
0
 10
99.63700103759766
 20
-9.994000434875488
 30
93.87100219726562
 70
   192
  0
VERTEX
  5
C52
  8
0
 10
96.19200134277344
 20
-13.27000045776367
 30
95.35600280761719
 70
   192
  0
VERTEX
  5
C53
  8
0
 10
96.1729965209961
 20
-13.73099994659424
 30
95.69599914550781
 70
   192
  0
VERTEX
  5
C54
  8
0
 10
105.1129989624023
 20
-9.152000427246094
 30
95.8489990234375
 70
   192
  0
VERTEX
  5
C55
  8
0
 10
102.8430023193359
 20
-9.312999725341797
 30
94.70500183105469
 70
   192
  0
VERTEX
  5
C56
  8
0
 10
99.73600006103516
 20
-9.972999572753906
 30
93.89700317382812
 70
   192
  0
VERTEX
  5
C57
  8
0
 10
106.3089981079102
 20
-6.985000133514404
 30
95.43599700927734
 70
   192
  0
VERTEX
  5
C58
  8
0
 10
107.9960021972656
 20
-4.597000122070312
 30
95.62799835205078
 70
   192
  0
VERTEX
  5
C59
  8
0
 10
105.3470001220703
 20
-7.854000091552734
 30
95.26100158691406
 70
   192
  0
VERTEX
  5
C5A
  8
0
 10
104.3880004882812
 20
-8.413000106811523
 30
95.0479965209961
 70
   192
  0
VERTEX
  5
C5B
  8
0
 10
108.2310028076172
 20
-4.264999866485596
 30
95.65499877929688
 70
   192
  0
VERTEX
  5
C5C
  8
0
 10
109.1910018920898
 20
-1.134999990463257
 30
95.60199737548828
 70
   192
  0
VERTEX
  5
C5D
  8
0
 10
109.2669982910156
 20
0.0
 30
95.58000183105469
 70
   192
  0
VERTEX
  5
C5E
  8
0
 62
     9
 10
0.0
 20
0.0
 30
0.0
 70
   128
 71
     3
 72
     2
 73
     1
  0
VERTEX
  5
C5F
  8
0
 62
     9
 10
0.0
 20
0.0
 30
0.0
 70
   128
 71
     6
 72
     5
 73
     4
  0
VERTEX
  5
C60
  8
0
 62
     9
 10
0.0
 20
0.0
 30
0.0
 70
   128
 71
     5
 72
     8
 73
     7
  0
VERTEX
  5
C61
  8
0
 62
     9
 10
0.0
 20
0.0
 30
0.0
 70
   128
 71
     7
 72
     4
 73
     5
  0
VERTEX
  5
C62
  8
0
 62
     9
 10
0.0
 20
0.0
 30
0.0
 70
   128
 71
     4
 72
     9
 73
     6
  0
VERTEX
  5
C63
  8
0
 62
     9
 10
0.0
 20
0.0
 30
0.0
 70
   128
 71
    11
 72
     3
 73
    10
  0
VERTEX
  5
C64
  8
0
 62
     9
 10
0.0
 20
0.0
 30
0.0
 70
   128
 71
    13
 72
    12
 73
     7
  0
VERTEX
  5
C65
  8
0
 62
     9
 10
0.0
 20
0.0
 30
0.0
 70
   128
 71
    12
 72
    15
 73
    14
  0
VERTEX
  5
C66
  8
0
 62
     9
 10
0.0
 20
0.0
 30
0.0
 70
   128
 71
    14
 72
     7
 73
    12
  0
VERTEX
  5
C67
  8
0
 62
     9
 10
0.0
 20
0.0
 30
0.0
 70
   128
 71
     7
 72
     8
 73
    13
  0
VERTEX
  5
C68
  8
0
 62
     9
 10
0.0
 20
0.0
 30
0.0
 70
   128
 71
     7
 72
    10
 73
     1
  0
VERTEX
  5
C69
  8
0
 62
     9
 10
0.0
 20
0.0
 30
0.0
 70
   128
 71
    17
 72
    16
 73
     4
  0
VERTEX
  5
C6A
  8
0
 62
     9
 10
0.0
 20
0.0
 30
0.0
 70
   128
 71
    16
 72
     9
 73
     4
  0
VERTEX
  5
C6B
  8
0
 62
     9
 10
0.0
 20
0.0
 30
0.0
 70
   128
 71
     4
 72
    18
 73
    17
  0
VERTEX
  5
C6C
  8
0
 62
     9
 10
0.0
 20
0.0
 30
0.0
 70
   128
 71
    17
 72
    19
 73
    16
  0
VERTEX
  5
C6D
  8
0
 62
     9
 10
0.0
 20
0.0
 30
0.0
 70
   128
 71
    20
 72
     4
 73
     1
  0
VERTEX
  5
C6E
  8
0
 62
     9
 10
0.0
 20
0.0
 30
0.0
 70
   128
 71
     1
 72
    21
 73
    20
  0
VERTEX
  5
C6F
  8
0
 62
     9
 10
0.0
 20
0.0
 30
0.0
 70
   128
 71
    20
 72
    22
 73
     4
  0
VERTEX
  5
C70
  8
0
 62
     9
 10
0.0
 20
0.0
 30
0.0
 70
   128
 71
    22
 72
    18
 73
     4
  0
VERTEX
  5
C71
  8
0
 62
     9
 10
0.0
 20
0.0
 30
0.0
 70
   128
 71
    23
 72
     1
 73
     2
  0
VERTEX
  5
C72
  8
0
 62
     9
 10
0.0
 20
0.0
 30
0.0
 70
   128
 71
    23
 72
    24
 73
     1
  0
VERTEX
  5
C73
  8
0
 62
     9
 10
0.0
 20
0.0
 30
0.0
 70
   128
 71
     2
 72
    25
 73
    23
  0
VERTEX
  5
C74
  8
0
 62
     9
 10
0.0
 20
0.0
 30
0.0
 70
   128
 71
    24
 72
    26
 73
     1
  0
VERTEX
  5
C75
  8
0
 62
     9
 10
0.0
 20
0.0
 30
0.0
 70
   128
 71
    28
 72
     2
 73
    27
  0
VERTEX
  5
C76
  8
0
 62
     9
 10
0.0
 20
0.0
 30
0.0
 70
   128
 71
    28
 72
    29
 73
     2
  0
VERTEX
  5
C77
  8
0
 62
     9
 10
0.0
 20
0.0
 30
0.0
 70
   128
 71
    27
 72
    30
 73
    28
  0
VERTEX
  5
C78
  8
0
 62
     9
 10
0.0
 20
0.0
 30
0.0
 70
   128
 71
    29
 72
    31
 73
     2
  0
VERTEX
  5
C79
  8
0
 62
     9
 10
0.0
 20
0.0
 30
0.0
 70
   128
 71
    32
 72
     2
 73
     3
  0
VERTEX
  5
C7A
  8
0
 62
     9
 10
0.0
 20
0.0
 30
0.0
 70
   128
 71
    32
 72
    33
 73
     2
  0
VERTEX
  5
C7B
  8
0
 62
     9
 10
0.0
 20
0.0
 30
0.0
 70
   128
 71
    35
 72
    34
 73
     3
  0
VERTEX
  5
C7C
  8
0
 62
     9
 10
0.0
 20
0.0
 30
0.0
 70
   128
 71
    34
 72
    36
 73
     3
  0
VERTEX
  5
C7D
  8
0
 62
     9
 10
0.0
 20
0.0
 30
0.0
 70
   128
 71
    36
 72
    37
 73
     3
  0
VERTEX
  5
C7E
  8
0
 62
     9
 10
0.0
 20
0.0
 30
0.0
 70
   128
 71
    40
 72
    39
 73
    38
  0
VERTEX
  5
C7F
  8
0
 62
     9
 10
0.0
 20
0.0
 30
0.0
 70
   128
 71
    38
 72
    41
 73
    11
  0
VERTEX
  5
C80
  8
0
 62
     9
 10
0.0
 20
0.0
 30
0.0
 70
   128
 71
    42
 72
    35
 73
    11
  0
VERTEX
  5
C81
  8
0
 62
     9
 10
0.0
 20
0.0
 30
0.0
 70
   128
 71
    11
 72
    41
 73
    42
  0
VERTEX
  5
C82
  8
0
 62
     9
 10
0.0
 20
0.0
 30
0.0
 70
   128
 71
    38
 72
    11
 73
    40
  0
VERTEX
  5
C83
  8
0
 62
     9
 10
0.0
 20
0.0
 30
0.0
 70
   128
 71
    44
 72
    11
 73
    43
  0
VERTEX
  5
C84
  8
0
 62
     9
 10
0.0
 20
0.0
 30
0.0
 70
   128
 71
    44
 72
    45
 73
    11
  0
VERTEX
  5
C85
  8
0
 62
     9
 10
0.0
 20
0.0
 30
0.0
 70
   128
 71
    46
 72
    10
 73
     7
  0
VERTEX
  5
C86
  8
0
 62
     9
 10
0.0
 20
0.0
 30
0.0
 70
   128
 71
    14
 72
    47
 73
    46
  0
VERTEX
  5
C87
  8
0
 62
     9
 10
0.0
 20
0.0
 30
0.0
 70
   128
 71
    43
 72
    10
 73
    48
  0
VERTEX
  5
C88
  8
0
 62
     9
 10
0.0
 20
0.0
 30
0.0
 70
   128
 71
    48
 72
    49
 73
    43
  0
VERTEX
  5
C89
  8
0
 62
     9
 10
0.0
 20
0.0
 30
0.0
 70
   128
 71
    10
 72
    46
 73
    48
  0
VERTEX
  5
C8A
  8
0
 62
     9
 10
0.0
 20
0.0
 30
0.0
 70
   128
 71
    51
 72
    50
 73
    14
  0
VERTEX
  5
C8B
  8
0
 62
     9
 10
0.0
 20
0.0
 30
0.0
 70
   128
 71
    14
 72
    15
 73
    51
  0
VERTEX
  5
C8C
  8
0
 62
     9
 10
0.0
 20
0.0
 30
0.0
 70
   128
 71
    50
 72
    47
 73
    14
  0
VERTEX
  5
C8D
  8
0
 62
     9
 10
0.0
 20
0.0
 30
0.0
 70
   128
 71
    15
 72
    52
 73
    51
  0
VERTEX
  5
C8E
  8
0
 62
     9
 10
0.0
 20
0.0
 30
0.0
 70
   128
 71
     7
 72
    14
 73
    46
  0
VERTEX
  5
C8F
  8
0
 62
     9
 10
0.0
 20
0.0
 30
0.0
 70
   128
 71
    43
 72
    49
 73
    44
  0
VERTEX
  5
C90
  8
0
 62
     9
 10
0.0
 20
0.0
 30
0.0
 70
   128
 71
    11
 72
    45
 73
    40
  0
VERTEX
  5
C91
  8
0
 62
     9
 10
0.0
 20
0.0
 30
0.0
 70
   128
 71
     3
 72
    11
 73
    35
  0
VERTEX
  5
C92
  8
0
 62
     9
 10
0.0
 20
0.0
 30
0.0
 70
   128
 71
     3
 72
    37
 73
    32
  0
VERTEX
  5
C93
  8
0
 62
     9
 10
0.0
 20
0.0
 30
0.0
 70
   128
 71
     2
 72
    33
 73
    27
  0
VERTEX
  5
C94
  8
0
 62
     9
 10
0.0
 20
0.0
 30
0.0
 70
   128
 71
     2
 72
    31
 73
    25
  0
VERTEX
  5
C95
  8
0
 62
     9
 10
0.0
 20
0.0
 30
0.0
 70
   128
 71
     1
 72
    26
 73
    21
  0
VERTEX
  5
C96
  8
0
 62
     9
 10
0.0
 20
0.0
 30
0.0
 70
   128
 71
     1
 72
     4
 73
     7
  0
VERTEX
  5
C97
  8
0
 62
     9
 10
0.0
 20
0.0
 30
0.0
 70
   128
 71
    10
 72
    43
 73
    11
  0
VERTEX
  5
C98
  8
0
 62
     9
 10
0.0
 20
0.0
 30
0.0
 70
   128
 71
     1
 72
    10
 73
     3
  0
SEQEND
  5
C99
  8
0
 62
     9
  0
ENDBLK
  5
C9C
  8
0
  0
BLOCK
  8
0
  2
E3_NODE_53_
 70
     0
 10
0.0
 20
0.0
 30
0.0
  3
E3_NODE_53_
  1

  0
POLYLINE
  5
C9E
  8
0
 62
     9
 66
     1
 10
0.0
 20
0.0
 30
0.0
 70
    64
 71
    53
 72
    60
  0
VERTEX
  5
C9F
  8
0
 10
109.302001953125
 20
13.1870002746582
 30
103.4349975585938
 70
   192
  0
VERTEX
  5
CA0
  8
0
 10
107.4150009155273
 20
11.34700012207031
 30
99.18900299072266
 70
   192
  0
VERTEX
  5
CA1
  8
0
 10
101.9860000610352
 20
15.2480001449585
 30
99.1719970703125
 70
   192
  0
VERTEX
  5
CA2
  8
0
 10
113.5240020751953
 20
6.962999820709229
 30
103.4369964599609
 70
   192
  0
VERTEX
  5
CA3
  8
0
 10
111.197998046875
 20
5.973999977111816
 30
99.18299865722656
 70
   192
  0
VERTEX
  5
CA4
  8
0
 10
108.2969970703125
 20
4.811999797821045
 30
95.7969970703125
 70
   192
  0
VERTEX
  5
CA5
  8
0
 10
100.7480010986328
 20
12.33600044250488
 30
95.78900146484375
 70
   192
  0
VERTEX
  5
CA6
  8
0
 10
96.13800048828125
 20
13.80000019073486
 30
95.76899719238281
 70
   192
  0
VERTEX
  5
CA7
  8
0
 10
103.0500030517578
 20
17.61599922180176
 30
103.4169998168945
 70
   192
  0
VERTEX
  5
CA8
  8
0
 10
96.04499816894531
 20
18.0580005645752
 30
101.0210037231445
 70
   192
  0
VERTEX
  5
CA9
  8
0
 10
95.96099853515625
 20
19.20199966430664
 30
103.036003112793
 70
   192
  0
VERTEX
  5
CAA
  8
0
 10
96.10099792480469
 20
17.28800010681152
 30
99.66300201416016
 70
   192
  0
VERTEX
  5
CAB
  8
0
 10
96.12899780273438
 20
16.96100044250488
 30
99.2030029296875
 70
   192
  0
VERTEX
  5
CAC
  8
0
 10
96.12899780273438
 20
16.93400001525879
 30
99.1729965209961
 70
   192
  0
VERTEX
  5
CAD
  8
0
 10
95.93900299072266
 20
19.33699989318848
 30
103.4349975585938
 70
   192
  0
VERTEX
  5
CAE
  8
0
 10
95.6709976196289
 20
21.00200080871582
 30
108.3489990234375
 70
   192
  0
VERTEX
  5
CAF
  8
0
 10
100.4649963378906
 20
20.44700050354004
 30
108.3489990234375
 70
   192
  0
VERTEX
  5
CB0
  8
0
 10
103.7089996337891
 20
19.27700042724609
 30
108.3489990234375
 70
   192
  0
VERTEX
  5
CB1
  8
0
 10
105.0289993286133
 20
18.80100059509277
 30
108.3489990234375
 70
   192
  0
VERTEX
  5
CB2
  8
0
 10
109.036003112793
 20
16.19799995422363
 30
108.3489990234375
 70
   192
  0
VERTEX
  5
CB3
  8
0
 10
103.8740005493164
 20
19.21699905395508
 30
108.3489990234375
 70
   192
  0
VERTEX
  5
CB4
  8
0
 10
110.6240005493164
 20
14.54800033569336
 30
108.3489990234375
 70
   192
  0
VERTEX
  5
CB5
  8
0
 10
112.370002746582
 20
12.73299980163574
 30
108.3489990234375
 70
   192
  0
VERTEX
  5
CB6
  8
0
 10
114.8330001831055
 20
8.595000267028809
 30
108.3489990234375
 70
   192
  0
VERTEX
  5
CB7
  8
0
 10
110.6689987182617
 20
14.50100040435791
 30
108.3489990234375
 70
   192
  0
VERTEX
  5
CB8
  8
0
 10
115.0690002441406
 20
0.0
 30
103.504997253418
 70
   192
  0
VERTEX
  5
CB9
  8
0
 10
116.2910003662109
 20
3.984999895095825
 30
108.3489990234375
 70
   192
  0
VERTEX
  5
CBA
  8
0
 10
115.1760025024414
 20
7.510000228881836
 30
108.3489990234375
 70
   192
  0
VERTEX
  5
CBB
  8
0
 10
115.1100006103516
 20
7.718999862670898
 30
108.3489990234375
 70
   192
  0
VERTEX
  5
CBC
  8
0
 10
115.068000793457
 20
0.0
 30
103.5029983520508
 70
   192
  0
VERTEX
  5
CBD
  8
0
 10
115.0019989013672
 20
0.0
 30
103.3010025024414
 70
   192
  0
VERTEX
  5
CBE
  8
0
 10
112.6959991455078
 20
0.0
 30
99.33000183105469
 70
   192
  0
VERTEX
  5
CBF
  8
0
 10
112.693000793457
 20
0.0
 30
99.32599639892578
 70
   192
  0
VERTEX
  5
CC0
  8
0
 10
112.4960021972656
 20
0.0
 30
98.98500061035156
 70
   192
  0
VERTEX
  5
CC1
  8
0
 10
109.6539993286133
 20
0.0
 30
95.98799896240234
 70
   192
  0
VERTEX
  5
CC2
  8
0
 10
108.9260025024414
 20
2.50600004196167
 30
95.58999633789062
 70
   192
  0
VERTEX
  5
CC3
  8
0
 10
109.6490020751953
 20
0.0
 30
95.98200225830078
 70
   192
  0
VERTEX
  5
CC4
  8
0
 10
109.2669982910156
 20
0.0
 30
95.58000183105469
 70
   192
  0
VERTEX
  5
CC5
  8
0
 10
105.1589965820312
 20
9.151000022888184
 30
95.8030014038086
 70
   192
  0
VERTEX
  5
CC6
  8
0
 10
105.1350021362305
 20
8.03499984741211
 30
95.14800262451172
 70
   192
  0
VERTEX
  5
CC7
  8
0
 10
104.5500030517578
 20
8.440999984741211
 30
95.03500366210938
 70
   192
  0
VERTEX
  5
CC8
  8
0
 10
107.4850006103516
 20
5.592999935150146
 30
95.50299835205078
 70
   192
  0
VERTEX
  5
CC9
  8
0
 10
107.9209976196289
 20
4.658999919891357
 30
95.52999877929688
 70
   192
  0
VERTEX
  5
CCA
  8
0
 10
101.5699996948242
 20
9.72599983215332
 30
94.36599731445312
 70
   192
  0
VERTEX
  5
CCB
  8
0
 10
99.75499725341797
 20
9.869999885559082
 30
93.87100219726562
 70
   192
  0
VERTEX
  5
CCC
  8
0
 10
104.4680023193359
 20
8.47599983215332
 30
95.01699829101562
 70
   192
  0
VERTEX
  5
CCD
  8
0
 10
98.53399658203125
 20
9.967000007629395
 30
93.53800201416016
 70
   192
  0
VERTEX
  5
CCE
  8
0
 10
96.16000366210938
 20
13.26900005340576
 30
95.35099792480469
 70
   192
  0
VERTEX
  5
CCF
  8
0
 10
96.13800048828125
 20
13.7209997177124
 30
95.68399810791016
 70
   192
  0
VERTEX
  5
CD0
  8
0
 10
96.98799896240234
 20
10.48499965667725
 30
93.51499938964844
 70
   192
  0
VERTEX
  5
CD1
  8
0
 10
96.24800109863281
 20
11.42199993133545
 30
93.99199676513672
 70
   192
  0
VERTEX
  5
CD2
  8
0
 10
97.6259994506836
 20
9.843000411987305
 30
93.24299621582031
 70
   192
  0
VERTEX
  5
CD3
  8
0
 10
116.6740036010742
 20
0.0
 30
108.3489990234375
 70
   192
  0
VERTEX
  5
CD4
  8
0
 62
     9
 10
0.0
 20
0.0
 30
0.0
 70
   128
 71
     3
 72
     2
 73
     1
  0
VERTEX
  5
CD5
  8
0
 62
     9
 10
0.0
 20
0.0
 30
0.0
 70
   128
 71
     5
 72
     4
 73
     1
  0
VERTEX
  5
CD6
  8
0
 62
     9
 10
0.0
 20
0.0
 30
0.0
 70
   128
 71
     6
 72
     5
 73
     2
  0
VERTEX
  5
CD7
  8
0
 62
     9
 10
0.0
 20
0.0
 30
0.0
 70
   128
 71
     8
 72
     7
 73
     3
  0
VERTEX
  5
CD8
  8
0
 62
     9
 10
0.0
 20
0.0
 30
0.0
 70
   128
 71
    11
 72
    10
 73
     9
  0
VERTEX
  5
CD9
  8
0
 62
     9
 10
0.0
 20
0.0
 30
0.0
 70
   128
 71
    12
 72
     3
 73
     9
  0
VERTEX
  5
CDA
  8
0
 62
     9
 10
0.0
 20
0.0
 30
0.0
 70
   128
 71
    12
 72
    13
 73
     3
  0
VERTEX
  5
CDB
  8
0
 62
     9
 10
0.0
 20
0.0
 30
0.0
 70
   128
 71
     9
 72
    10
 73
    12
  0
VERTEX
  5
CDC
  8
0
 62
     9
 10
0.0
 20
0.0
 30
0.0
 70
   128
 71
    13
 72
    14
 73
     3
  0
VERTEX
  5
CDD
  8
0
 62
     9
 10
0.0
 20
0.0
 30
0.0
 70
   128
 71
    17
 72
    16
 73
    15
  0
VERTEX
  5
CDE
  8
0
 62
     9
 10
0.0
 20
0.0
 30
0.0
 70
   128
 71
    15
 72
     9
 73
    17
  0
VERTEX
  5
CDF
  8
0
 62
     9
 10
0.0
 20
0.0
 30
0.0
 70
   128
 71
     9
 72
    18
 73
    17
  0
VERTEX
  5
CE0
  8
0
 62
     9
 10
0.0
 20
0.0
 30
0.0
 70
   128
 71
    20
 72
    19
 73
     9
  0
VERTEX
  5
CE1
  8
0
 62
     9
 10
0.0
 20
0.0
 30
0.0
 70
   128
 71
    19
 72
    21
 73
     9
  0
VERTEX
  5
CE2
  8
0
 62
     9
 10
0.0
 20
0.0
 30
0.0
 70
   128
 71
     9
 72
     1
 73
    20
  0
VERTEX
  5
CE3
  8
0
 62
     9
 10
0.0
 20
0.0
 30
0.0
 70
   128
 71
     1
 72
    22
 73
    20
  0
VERTEX
  5
CE4
  8
0
 62
     9
 10
0.0
 20
0.0
 30
0.0
 70
   128
 71
    23
 72
     1
 73
     4
  0
VERTEX
  5
CE5
  8
0
 62
     9
 10
0.0
 20
0.0
 30
0.0
 70
   128
 71
     4
 72
    24
 73
    23
  0
VERTEX
  5
CE6
  8
0
 62
     9
 10
0.0
 20
0.0
 30
0.0
 70
   128
 71
    23
 72
    25
 73
     1
  0
VERTEX
  5
CE7
  8
0
 62
     9
 10
0.0
 20
0.0
 30
0.0
 70
   128
 71
    27
 72
     4
 73
    26
  0
VERTEX
  5
CE8
  8
0
 62
     9
 10
0.0
 20
0.0
 30
0.0
 70
   128
 71
    27
 72
    28
 73
     4
  0
VERTEX
  5
CE9
  8
0
 62
     9
 10
0.0
 20
0.0
 30
0.0
 70
   128
 71
    28
 72
    29
 73
     4
  0
VERTEX
  5
CEA
  8
0
 62
     9
 10
0.0
 20
0.0
 30
0.0
 70
   128
 71
    31
 72
    30
 73
     5
  0
VERTEX
  5
CEB
  8
0
 62
     9
 10
0.0
 20
0.0
 30
0.0
 70
   128
 71
    30
 72
    26
 73
     4
  0
VERTEX
  5
CEC
  8
0
 62
     9
 10
0.0
 20
0.0
 30
0.0
 70
   128
 71
     4
 72
     5
 73
    30
  0
VERTEX
  5
CED
  8
0
 62
     9
 10
0.0
 20
0.0
 30
0.0
 70
   128
 71
     5
 72
    32
 73
    31
  0
VERTEX
  5
CEE
  8
0
 62
     9
 10
0.0
 20
0.0
 30
0.0
 70
   128
 71
    34
 72
    33
 73
     6
  0
VERTEX
  5
CEF
  8
0
 62
     9
 10
0.0
 20
0.0
 30
0.0
 70
   128
 71
    33
 72
    32
 73
     5
  0
VERTEX
  5
CF0
  8
0
 62
     9
 10
0.0
 20
0.0
 30
0.0
 70
   128
 71
     5
 72
     6
 73
    33
  0
VERTEX
  5
CF1
  8
0
 62
     9
 10
0.0
 20
0.0
 30
0.0
 70
   128
 71
     6
 72
    35
 73
    34
  0
VERTEX
  5
CF2
  8
0
 62
     9
 10
0.0
 20
0.0
 30
0.0
 70
   128
 71
    36
 72
    35
 73
     6
  0
VERTEX
  5
CF3
  8
0
 62
     9
 10
0.0
 20
0.0
 30
0.0
 70
   128
 71
    37
 72
    35
 73
    36
  0
VERTEX
  5
CF4
  8
0
 62
     9
 10
0.0
 20
0.0
 30
0.0
 70
   128
 71
    36
 72
    38
 73
    37
  0
VERTEX
  5
CF5
  8
0
 62
     9
 10
0.0
 20
0.0
 30
0.0
 70
   128
 71
    41
 72
    40
 73
    39
  0
VERTEX
  5
CF6
  8
0
 62
     9
 10
0.0
 20
0.0
 30
0.0
 70
   128
 71
    42
 72
     6
 73
    39
  0
VERTEX
  5
CF7
  8
0
 62
     9
 10
0.0
 20
0.0
 30
0.0
 70
   128
 71
    39
 72
    40
 73
    42
  0
VERTEX
  5
CF8
  8
0
 62
     9
 10
0.0
 20
0.0
 30
0.0
 70
   128
 71
    42
 72
    43
 73
     6
  0
VERTEX
  5
CF9
  8
0
 62
     9
 10
0.0
 20
0.0
 30
0.0
 70
   128
 71
     7
 72
    45
 73
    44
  0
VERTEX
  5
CFA
  8
0
 62
     9
 10
0.0
 20
0.0
 30
0.0
 70
   128
 71
    39
 72
     3
 73
    44
  0
VERTEX
  5
CFB
  8
0
 62
     9
 10
0.0
 20
0.0
 30
0.0
 70
   128
 71
    39
 72
     2
 73
     3
  0
VERTEX
  5
CFC
  8
0
 62
     9
 10
0.0
 20
0.0
 30
0.0
 70
   128
 71
    44
 72
    46
 73
    39
  0
VERTEX
  5
CFD
  8
0
 62
     9
 10
0.0
 20
0.0
 30
0.0
 70
   128
 71
    49
 72
    48
 73
    47
  0
VERTEX
  5
CFE
  8
0
 62
     9
 10
0.0
 20
0.0
 30
0.0
 70
   128
 71
    51
 72
    50
 73
    47
  0
VERTEX
  5
CFF
  8
0
 62
     9
 10
0.0
 20
0.0
 30
0.0
 70
   128
 71
    50
 72
    52
 73
    47
  0
VERTEX
  5
D00
  8
0
 62
     9
 10
0.0
 20
0.0
 30
0.0
 70
   128
 71
    47
 72
    48
 73
    51
  0
VERTEX
  5
D01
  8
0
 62
     9
 10
0.0
 20
0.0
 30
0.0
 70
   128
 71
    47
 72
    45
 73
     7
  0
VERTEX
  5
D02
  8
0
 62
     9
 10
0.0
 20
0.0
 30
0.0
 70
   128
 71
     7
 72
     8
 73
    47
  0
VERTEX
  5
D03
  8
0
 62
     9
 10
0.0
 20
0.0
 30
0.0
 70
   128
 71
    47
 72
     8
 73
    49
  0
VERTEX
  5
D04
  8
0
 62
     9
 10
0.0
 20
0.0
 30
0.0
 70
   128
 71
    44
 72
     3
 73
     7
  0
VERTEX
  5
D05
  8
0
 62
     9
 10
0.0
 20
0.0
 30
0.0
 70
   128
 71
    39
 72
    46
 73
    41
  0
VERTEX
  5
D06
  8
0
 62
     9
 10
0.0
 20
0.0
 30
0.0
 70
   128
 71
     6
 72
    43
 73
    36
  0
VERTEX
  5
D07
  8
0
 62
     9
 10
0.0
 20
0.0
 30
0.0
 70
   128
 71
    26
 72
    53
 73
    27
  0
VERTEX
  5
D08
  8
0
 62
     9
 10
0.0
 20
0.0
 30
0.0
 70
   128
 71
     4
 72
    29
 73
    24
  0
VERTEX
  5
D09
  8
0
 62
     9
 10
0.0
 20
0.0
 30
0.0
 70
   128
 71
     1
 72
    25
 73
    22
  0
VERTEX
  5
D0A
  8
0
 62
     9
 10
0.0
 20
0.0
 30
0.0
 70
   128
 71
     9
 72
    21
 73
    18
  0
VERTEX
  5
D0B
  8
0
 62
     9
 10
0.0
 20
0.0
 30
0.0
 70
   128
 71
     9
 72
    15
 73
    11
  0
VERTEX
  5
D0C
  8
0
 62
     9
 10
0.0
 20
0.0
 30
0.0
 70
   128
 71
     3
 72
    14
 73
     8
  0
VERTEX
  5
D0D
  8
0
 62
     9
 10
0.0
 20
0.0
 30
0.0
 70
   128
 71
     2
 72
    39
 73
     6
  0
VERTEX
  5
D0E
  8
0
 62
     9
 10
0.0
 20
0.0
 30
0.0
 70
   128
 71
     1
 72
     2
 73
     5
  0
VERTEX
  5
D0F
  8
0
 62
     9
 10
0.0
 20
0.0
 30
0.0
 70
   128
 71
     1
 72
     9
 73
     3
  0
SEQEND
  5
D10
  8
0
 62
     9
  0
ENDBLK
  5
D13
  8
0
  0
ENDSEC
  0
SECTION
  2
ENTITIES
  0
INSERT
  5
7A
  8
LAYER_1
  2
E3_NODE
 10
0.0
 20
0.0
 30
0.0
  0
INSERT
  5
BE
  8
LAYER_1
  2
E3_NODE_1_
 10
0.0
 20
0.0
 30
0.0
  0
INSERT
  5
107
  8
LAYER_1
  2
E3_NODE_2_
 10
0.0
 20
0.0
 30
0.0
  0
INSERT
  5
147
  8
LAYER_1
  2
E3_NODE_3_
 10
0.0
 20
0.0
 30
0.0
  0
INSERT
  5
17A
  8
LAYER_1
  2
E3_NODE_4_
 10
0.0
 20
0.0
 30
0.0
  0
INSERT
  5
19A
  8
LAYER_1
  2
E3_NODE_5_
 10
0.0
 20
0.0
 30
0.0
  0
INSERT
  5
1C4
  8
LAYER_1
  2
E3_NODE_6_
 10
0.0
 20
0.0
 30
0.0
  0
INSERT
  5
1D4
  8
LAYER_1
  2
E3_NODE_7_
 10
0.0
 20
0.0
 30
0.0
  0
INSERT
  5
237
  8
LAYER_1
  2
E3_NODE_8_
 10
0.0
 20
0.0
 30
0.0
  0
INSERT
  5
2CB
  8
LAYER_1
  2
E3_NODE_9_
 10
0.0
 20
0.0
 30
0.0
  0
INSERT
  5
2ED
  8
LAYER_1
  2
E3_NODE_10_
 10
0.0
 20
0.0
 30
0.0
  0
INSERT
  5
303
  8
LAYER_1
  2
E3_NODE_11_
 10
0.0
 20
0.0
 30
0.0
  0
INSERT
  5
317
  8
LAYER_1
  2
E3_NODE_12_
 10
0.0
 20
0.0
 30
0.0
  0
INSERT
  5
33D
  8
LAYER_1
  2
E3_NODE_13_
 10
0.0
 20
0.0
 30
0.0
  0
INSERT
  5
363
  8
LAYER_1
  2
E3_NODE_14_
 10
0.0
 20
0.0
 30
0.0
  0
INSERT
  5
389
  8
LAYER_1
  2
E3_NODE_15_
 10
0.0
 20
0.0
 30
0.0
  0
INSERT
  5
3EE
  8
LAYER_1
  2
E3_NODE_16_
 10
0.0
 20
0.0
 30
0.0
  0
INSERT
  5
428
  8
LAYER_1
  2
E3_NODE_17_
 10
0.0
 20
0.0
 30
0.0
  0
INSERT
  5
45E
  8
LAYER_1
  2
E3_NODE_18_
 10
0.0
 20
0.0
 30
0.0
  0
INSERT
  5
47A
  8
LAYER_1
  2
E3_NODE_19_
 10
0.0
 20
0.0
 30
0.0
  0
INSERT
  5
4BC
  8
LAYER_1
  2
E3_NODE_20_
 10
0.0
 20
0.0
 30
0.0
  0
INSERT
  5
4FF
  8
LAYER_1
  2
E3_NODE_21_
 10
0.0
 20
0.0
 30
0.0
  0
INSERT
  5
548
  8
LAYER_1
  2
E3_NODE_22_
 10
0.0
 20
0.0
 30
0.0
  0
INSERT
  5
588
  8
LAYER_1
  2
E3_NODE_23_
 10
0.0
 20
0.0
 30
0.0
  0
INSERT
  5
5BB
  8
LAYER_1
  2
E3_NODE_24_
 10
0.0
 20
0.0
 30
0.0
  0
INSERT
  5
5DB
  8
LAYER_1
  2
E3_NODE_25_
 10
0.0
 20
0.0
 30
0.0
  0
INSERT
  5
605
  8
LAYER_1
  2
E3_NODE_26_
 10
0.0
 20
0.0
 30
0.0
  0
INSERT
  5
615
  8
LAYER_1
  2
E3_NODE_27_
 10
0.0
 20
0.0
 30
0.0
  0
INSERT
  5
678
  8
LAYER_1
  2
E3_NODE_28_
 10
0.0
 20
0.0
 30
0.0
  0
INSERT
  5
70C
  8
LAYER_1
  2
E3_NODE_29_
 10
0.0
 20
0.0
 30
0.0
  0
INSERT
  5
72E
  8
LAYER_1
  2
E3_NODE_30_
 10
0.0
 20
0.0
 30
0.0
  0
INSERT
  5
742
  8
LAYER_1
  2
E3_NODE_31_
 10
0.0
 20
0.0
 30
0.0
  0
INSERT
  5
74E
  8
LAYER_1
  2
E3_NODE_32_
 10
0.0
 20
0.0
 30
0.0
  0
INSERT
  5
76C
  8
LAYER_1
  2
E3_NODE_33_
 10
0.0
 20
0.0
 30
0.0
  0
INSERT
  5
7A1
  8
LAYER_1
  2
E3_NODE_34_
 10
0.0
 20
0.0
 30
0.0
  0
INSERT
  5
7BF
  8
LAYER_1
  2
E3_NODE_35_
 10
0.0
 20
0.0
 30
0.0
  0
INSERT
  5
7DB
  8
LAYER_1
  2
E3_NODE_36_
 10
0.0
 20
0.0
 30
0.0
  0
INSERT
  5
811
  8
LAYER_1
  2
E3_NODE_37_
 10
0.0
 20
0.0
 30
0.0
  0
INSERT
  5
847
  8
LAYER_1
  2
E3_NODE_38_
 10
0.0
 20
0.0
 30
0.0
  0
INSERT
  5
8AC
  8
LAYER_1
  2
E3_NODE_39_
 10
0.0
 20
0.0
 30
0.0
  0
INSERT
  5
8E6
  8
LAYER_1
  2
E3_NODE_40_
 10
0.0
 20
0.0
 30
0.0
  0
INSERT
  5
91C
  8
LAYER_1
  2
E3_NODE_41_
 10
0.0
 20
0.0
 30
0.0
  0
INSERT
  5
938
  8
LAYER_1
  2
E3_NODE_42_
 10
0.0
 20
0.0
 30
0.0
  0
INSERT
  5
976
  8
LAYER_1
  2
E3_NODE_43_
 10
0.0
 20
0.0
 30
0.0
  0
INSERT
  5
A02
  8
LAYER_1
  2
E3_NODE_44_
 10
0.0
 20
0.0
 30
0.0
  0
INSERT
  5
A5C
  8
LAYER_1
  2
E3_NODE_45_
 10
0.0
 20
0.0
 30
0.0
  0
INSERT
  5
A6C
  8
LAYER_1
  2
E3_NODE_46_
 10
0.0
 20
0.0
 30
0.0
  0
INSERT
  5
AB6
  8
LAYER_1
  2
E3_NODE_47_
 10
0.0
 20
0.0
 30
0.0
  0
INSERT
  5
AC6
  8
LAYER_1
  2
E3_NODE_48_
 10
0.0
 20
0.0
 30
0.0
  0
INSERT
  5
B11
  8
LAYER_1
  2
E3_NODE_49_
 10
0.0
 20
0.0
 30
0.0
  0
INSERT
  5
BDC
  8
LAYER_1
  2
E3_NODE_50_
 10
0.0
 20
0.0
 30
0.0
  0
INSERT
  5
C25
  8
LAYER_1
  2
E3_NODE_51_
 10
0.0
 20
0.0
 30
0.0
  0
INSERT
  5
C9A
  8
LAYER_1
  2
E3_NODE_52_
 10
0.0
 20
0.0
 30
0.0
  0
INSERT
  5
D11
  8
LAYER_1
  2
E3_NODE_53_
 10
0.0
 20
0.0
 30
0.0
  0
ENDSEC
  0
EOF
