  0
SECTION
  2
HEADER
  9
$ACADVER
  1
AC1015
  9
$ACADMAINTVER
 70
     6
  9
$DWGCODEPAGE
  3
ANSI_1252
  9
$INSBASE
 10
0.0
 20
0.0
 30
0.0
  9
$EXTMIN
 10
0.0
 20
0.0
 30
0.0
  9
$EXTMAX
 10
1682.0
 20
2378.0
 30
0.0
  9
$LIMMIN
 10
0.0
 20
0.0
  9
$LIMMAX
 10
1682.0
 20
2378.0
  9
$ORTHOMODE
 70
     0
  9
$REGENMODE
 70
     1
  9
$FILLMODE
 70
     1
  9
$QTEXTMODE
 70
     0
  9
$MIRRTEXT
 70
     1
  9
$LTSCALE
 40
1.0
  9
$ATTMODE
 70
     1
  9
$TEXTSIZE
 40
2.5
  9
$TRACEWID
 40
1.0
  9
$TEXTSTYLE
  7
Standard
  9
$CLAYER
  8
0
  9
$CELTYPE
  6
ByLayer
  9
$CECOLOR
 62
   256
  9
$CELTSCALE
 40
1.0
  9
$DISPSILH
 70
     0
  9
$DIMSCALE
 40
1.0
  9
$DIMASZ
 40
2.5
  9
$DIMEXO
 40
0.625
  9
$DIMDLI
 40
3.75
  9
$DIMRND
 40
0.0
  9
$DIMDLE
 40
0.0
  9
$DIMEXE
 40
1.25
  9
$DIMTP
 40
0.0
  9
$DIMTM
 40
0.0
  9
$DIMTXT
 40
2.5
  9
$DIMCEN
 40
2.5
  9
$DIMTSZ
 40
0.0
  9
$DIMTOL
 70
     0
  9
$DIMLIM
 70
     0
  9
$DIMTIH
 70
     0
  9
$DIMTOH
 70
     0
  9
$DIMSE1
 70
     0
  9
$DIMSE2
 70
     0
  9
$DIMTAD
 70
     1
  9
$DIMZIN
 70
     8
  9
$DIMBLK
  1

  9
$DIMASO
 70
     1
  9
$DIMSHO
 70
     1
  9
$DIMPOST
  1

  9
$DIMAPOST
  1

  9
$DIMALT
 70
     0
  9
$DIMALTD
 70
     3
  9
$DIMALTF
 40
0.0393700787
  9
$DIMLFAC
 40
1.0
  9
$DIMTOFL
 70
     1
  9
$DIMTVP
 40
0.0
  9
$DIMTIX
 70
     0
  9
$DIMSOXD
 70
     0
  9
$DIMSAH
 70
     0
  9
$DIMBLK1
  1

  9
$DIMBLK2
  1

  9
$DIMSTYLE
  2
ISO-25
  9
$DIMCLRD
 70
     0
  9
$DIMCLRE
 70
     0
  9
$DIMCLRT
 70
     0
  9
$DIMTFAC
 40
1.0
  9
$DIMGAP
 40
0.625
  9
$DIMJUST
 70
     0
  9
$DIMSD1
 70
     0
  9
$DIMSD2
 70
     0
  9
$DIMTOLJ
 70
     0
  9
$DIMTZIN
 70
     8
  9
$DIMALTZ
 70
     0
  9
$DIMALTTZ
 70
     0
  9
$DIMUPT
 70
     0
  9
$DIMDEC
 70
     2
  9
$DIMTDEC
 70
     2
  9
$DIMALTU
 70
     2
  9
$DIMALTTD
 70
     3
  9
$DIMTXSTY
  7
Standard
  9
$DIMAUNIT
 70
     0
  9
$DIMADEC
 70
     0
  9
$DIMALTRND
 40
0.0
  9
$DIMAZIN
 70
     0
  9
$DIMDSEP
 70
    44
  9
$DIMATFIT
 70
     3
  9
$DIMFRAC
 70
     0
  9
$DIMLDRBLK
  1

  9
$DIMLUNIT
 70
     2
  9
$DIMLWD
 70
    -2
  9
$DIMLWE
 70
    -2
  9
$DIMTMOVE
 70
     0
  9
$LUNITS
 70
     2
  9
$LUPREC
 70
     4
  9
$SKETCHINC
 40
1.0
  9
$FILLETRAD
 40
10.0
  9
$AUNITS
 70
     0
  9
$AUPREC
 70
     0
  9
$MENU
  1
.
  9
$ELEVATION
 40
0.0
  9
$PELEVATION
 40
0.0
  9
$THICKNESS
 40
0.0
  9
$LIMCHECK
 70
     0
  9
$CHAMFERA
 40
10.0
  9
$CHAMFERB
 40
10.0
  9
$CHAMFERC
 40
20.0
  9
$CHAMFERD
 40
0.0
  9
$SKPOLY
 70
     0
  9
$TDCREATE
 40
2455505.604730995
  9
$TDUCREATE
 40
2455505.563064329
  9
$TDUPDATE
 40
2455505.604731007
  9
$TDUUPDATE
 40
2455505.563064341
  9
$TDINDWG
 40
0.0000000116
  9
$TDUSRTIMER
 40
0.0000000116
  9
$USRTIMER
 70
     1
  9
$ANGBASE
 50
0.0
  9
$ANGDIR
 70
     0
  9
$PDMODE
 70
     0
  9
$PDSIZE
 40
0.0
  9
$PLINEWID
 40
0.0
  9
$SPLFRAME
 70
     0
  9
$SPLINETYPE
 70
     6
  9
$SPLINESEGS
 70
     8
  9
$HANDSEED
  5
422
  9
$SURFTAB1
 70
     6
  9
$SURFTAB2
 70
     6
  9
$SURFTYPE
 70
     6
  9
$SURFU
 70
     6
  9
$SURFV
 70
     6
  9
$UCSBASE
  2

  9
$UCSNAME
  2

  9
$UCSORG
 10
0.0
 20
0.0
 30
0.0
  9
$UCSXDIR
 10
1.0
 20
0.0
 30
0.0
  9
$UCSYDIR
 10
0.0
 20
1.0
 30
0.0
  9
$UCSORTHOREF
  2

  9
$UCSORTHOVIEW
 70
     0
  9
$UCSORGTOP
 10
0.0
 20
0.0
 30
0.0
  9
$UCSORGBOTTOM
 10
0.0
 20
0.0
 30
0.0
  9
$UCSORGLEFT
 10
0.0
 20
0.0
 30
0.0
  9
$UCSORGRIGHT
 10
0.0
 20
0.0
 30
0.0
  9
$UCSORGFRONT
 10
0.0
 20
0.0
 30
0.0
  9
$UCSORGBACK
 10
0.0
 20
0.0
 30
0.0
  9
$PUCSBASE
  2

  9
$PUCSNAME
  2

  9
$PUCSORG
 10
0.0
 20
0.0
 30
0.0
  9
$PUCSXDIR
 10
1.0
 20
0.0
 30
0.0
  9
$PUCSYDIR
 10
0.0
 20
1.0
 30
0.0
  9
$PUCSORTHOREF
  2

  9
$PUCSORTHOVIEW
 70
     0
  9
$PUCSORGTOP
 10
0.0
 20
0.0
 30
0.0
  9
$PUCSORGBOTTOM
 10
0.0
 20
0.0
 30
0.0
  9
$PUCSORGLEFT
 10
0.0
 20
0.0
 30
0.0
  9
$PUCSORGRIGHT
 10
0.0
 20
0.0
 30
0.0
  9
$PUCSORGFRONT
 10
0.0
 20
0.0
 30
0.0
  9
$PUCSORGBACK
 10
0.0
 20
0.0
 30
0.0
  9
$USERI1
 70
     0
  9
$USERI2
 70
     0
  9
$USERI3
 70
     0
  9
$USERI4
 70
     0
  9
$USERI5
 70
     0
  9
$USERR1
 40
0.0
  9
$USERR2
 40
0.0
  9
$USERR3
 40
0.0
  9
$USERR4
 40
0.0
  9
$USERR5
 40
0.0
  9
$WORLDVIEW
 70
     1
  9
$SHADEDGE
 70
     3
  9
$SHADEDIF
 70
    70
  9
$TILEMODE
 70
     1
  9
$MAXACTVP
 70
    64
  9
$PINSBASE
 10
0.0
 20
0.0
 30
0.0
  9
$PLIMCHECK
 70
     0
  9
$PEXTMIN
 10
0.0
 20
0.0
 30
0.0
  9
$PEXTMAX
 10
1682.0
 20
2378.0
 30
0.0
  9
$PLIMMIN
 10
0.0
 20
0.0
  9
$PLIMMAX
 10
1682.0
 20
2378.0
  9
$UNITMODE
 70
     0
  9
$VISRETAIN
 70
     1
  9
$PLINEGEN
 70
     0
  9
$PSLTSCALE
 70
     1
  9
$TREEDEPTH
 70
  3020
  9
$CMLSTYLE
  2
Standard
  9
$CMLJUST
 70
     0
  9
$CMLSCALE
 40
20.0
  9
$PROXYGRAPHICS
 70
     1
  9
$MEASUREMENT
 70
     1
  9
$CELWEIGHT
370
    -1
  9
$ENDCAPS
280
     0
  9
$JOINSTYLE
280
     0
  9
$LWDISPLAY
290
     0
  9
$INSUNITS
 70
     4
  9
$HYPERLINKBASE
  1

  9
$STYLESHEET
  1

  9
$XEDIT
290
     1
  9
$CEPSNTYPE
380
     0
  9
$PSTYLEMODE
290
     1
  9
$FINGERPRINTGUID
  2
{4CF60BC8-1397-4C89-908F-3D7C6E413ED5}
  9
$VERSIONGUID
  2
{FAEB1C32-E019-11D5-929B-00C0DF256EC4}
  9
$EXTNAMES
290
     1
  9
$PSVPSCALE
 40
0.0
  9
$OLESTARTUP
290
     0
  0
ENDSEC
  0
SECTION
  2
CLASSES
  0
CLASS
  1
ACDBDICTIONARYWDFLT
  2
AcDbDictionaryWithDefault
  3
ObjectDBX Classes
 90
        0
280
     0
281
     0
  0
CLASS
  1
VISUALSTYLE
  2
AcDbVisualStyle
  3
ObjectDBX Classes
 90
     4095
280
     0
281
     0
  0
CLASS
  1
SCALE
  2
AcDbScale
  3
ObjectDBX Classes
 90
     1153
280
     0
281
     0
  0
CLASS
  1
DICTIONARYVAR
  2
AcDbDictionaryVar
  3
ObjectDBX Classes
 90
        0
280
     0
281
     0
  0
CLASS
  1
ACDBPLACEHOLDER
  2
AcDbPlaceHolder
  3
ObjectDBX Classes
 90
        0
280
     0
281
     0
  0
CLASS
  1
LAYOUT
  2
AcDbLayout
  3
ObjectDBX Classes
 90
        0
280
     0
281
     0
  0
ENDSEC
  0
SECTION
  2
TABLES
  0
TABLE
  2
VPORT
  5
8
330
0
100
AcDbSymbolTable
 70
     1
  0
VPORT
  5
29
330
8
100
AcDbSymbolTableRecord
100
AcDbViewportTableRecord
  2
*Active
 70
     0
 10
0.0
 20
0.0
 11
1.0
 21
1.0
 12
344.1869158879
 22
148.5
 13
0.0
 23
0.0
 14
10.0
 24
10.0
 15
10.0
 25
10.0
 16
0.0
 26
0.0
 36
1.0
 17
0.0
 27
0.0
 37
0.0
 40
297.0
 41
1.9729729729
 42
50.0
 43
0.0
 44
0.0
 50
0.0
 51
0.0
 71
     0
 72
   100
 73
     1
 74
     3
 75
     0
 76
     0
 77
     0
 78
     0
281
     0
 65
     1
110
0.0
120
0.0
130
0.0
111
1.0
121
0.0
131
0.0
112
0.0
122
1.0
132
0.0
 79
     0
146
0.0
  0
ENDTAB
  0
TABLE
  2
LTYPE
  5
5
330
0
100
AcDbSymbolTable
 70
     2
  0
LTYPE
  5
14
330
5
100
AcDbSymbolTableRecord
100
AcDbLinetypeTableRecord
  2
ByBlock
 70
     0
  3

 72
    65
 73
     0
 40
0.0
  0
LTYPE
  5
15
330
5
100
AcDbSymbolTableRecord
100
AcDbLinetypeTableRecord
  2
ByLayer
 70
     0
  3

 72
    65
 73
     0
 40
0.0
  0
LTYPE
  5
16
330
5
100
AcDbSymbolTableRecord
100
AcDbLinetypeTableRecord
  2
Continuous
 70
     0
  3
Solid line
 72
    65
 73
     0
 40
0.0
  0
LTYPE
  5
60
330
5
100
AcDbSymbolTableRecord
100
AcDbLinetypeTableRecord
  2
CENTER2
 70
     0
  3
Center (.5x) ___ _ ___ _ ___ _ ___ _ ___ _ ___
 72
    65
 73
     4
 40
28.575
 49
19.05
 74
     4
 75
     0
340
0
 46
0.0
 50
0.0
 44
0.0
 45
0.0
 49
-3.175
 74
     4
 75
     0
340
0
 46
0.0
 50
0.0
 44
0.0
 45
0.0
 49
3.175
 74
     4
 75
     0
340
0
 46
0.0
 50
0.0
 44
0.0
 45
0.0
 49
-3.175
 74
     4
 75
     0
340
0
 46
0.0
 50
0.0
 44
0.0
 45
0.0
  0
ENDTAB
  0
TABLE
  2
LAYER
  5
2
330
0
100
AcDbSymbolTable
 70
     9
  0
LAYER
  5
10
330
2
100
AcDbSymbolTableRecord
100
AcDbLayerTableRecord
  2
0
 70
     0
 62
     7
  6
Continuous
370
    -3
390
F
  0
LAYER
  5
5D
330
2
100
AcDbSymbolTableRecord
100
AcDbLayerTableRecord
  2
Default
 70
     0
 62
     7
  6
Continuous
370
    -3
390
F
  0
LAYER
  5
77
330
2
100
AcDbSymbolTableRecord
100
AcDbLayerTableRecord
  2
$DDT_AUDIT_GENERATED_(77)
 70
     0
 62
     7
  6
Continuous
370
    -3
390
F
  0
LAYER
  5
B1
330
2
100
AcDbSymbolTableRecord
100
AcDbLayerTableRecord
  2
$DDT_AUDIT_GENERATED_(B1)
 70
     0
 62
     7
  6
Continuous
370
    -3
390
F
  0
LAYER
  5
B3
330
2
100
AcDbSymbolTableRecord
100
AcDbLayerTableRecord
  2
02636038_GEHÄUSE
 70
     0
 62
     7
  6
Continuous
370
    -3
390
F
  0
LAYER
  5
CA
330
2
100
AcDbSymbolTableRecord
100
AcDbLayerTableRecord
  2
$DDT_AUDIT_GENERATED_(CA)
 70
     0
 62
     7
  6
Continuous
370
    -3
390
F
  0
LAYER
  5
345
330
2
100
AcDbSymbolTableRecord
100
AcDbLayerTableRecord
  2
$DDT_AUDIT_GENERATED_(345)
 70
     0
 62
     7
  6
Continuous
370
    -3
390
F
  0
LAYER
  5
37E
330
2
100
AcDbSymbolTableRecord
100
AcDbLayerTableRecord
  2
$DDT_AUDIT_GENERATED_(37E)
 70
     0
 62
     7
  6
Continuous
370
    -3
390
F
  0
LAYER
  5
3D1
330
2
100
AcDbSymbolTableRecord
100
AcDbLayerTableRecord
  2
$DDT_AUDIT_GENERATED_(3D1)
 70
     0
 62
     7
  6
Continuous
370
    -3
390
F
  0
ENDTAB
  0
TABLE
  2
STYLE
  5
3
330
0
100
AcDbSymbolTable
 70
     2
  0
STYLE
  5
11
330
3
100
AcDbSymbolTableRecord
100
AcDbTextStyleTableRecord
  2
Standard
 70
     0
 40
0.0
 41
1.0
 50
0.0
 71
     0
 42
2.5
  3
txt
  4

  0
STYLE
  5
411
330
3
100
AcDbSymbolTableRecord
100
AcDbTextStyleTableRecord
  2
SEACAD_seiso_ttf
 70
     0
 40
0.0
 41
1.0
 50
0.0
 71
     0
 42
0.2
  3
seiso.ttf
  4

  0
ENDTAB
  0
TABLE
  2
VIEW
  5
6
330
0
100
AcDbSymbolTable
 70
     0
  0
ENDTAB
  0
TABLE
  2
UCS
  5
7
330
0
100
AcDbSymbolTable
 70
     0
  0
ENDTAB
  0
TABLE
  2
APPID
  5
9
330
0
100
AcDbSymbolTable
 70
     1
  0
APPID
  5
12
330
9
100
AcDbSymbolTableRecord
100
AcDbRegAppTableRecord
  2
ACAD
 70
     0
  0
ENDTAB
  0
TABLE
  2
DIMSTYLE
  5
A
330
0
100
AcDbSymbolTable
 70
     1
100
AcDbDimStyleTable
  0
DIMSTYLE
105
27
330
A
100
AcDbSymbolTableRecord
100
AcDbDimStyleTableRecord
  2
ISO-25
 70
     0
 41
2.5
 42
0.625
 43
3.75
 44
1.25
 73
     0
 74
     0
 77
     1
 78
     8
140
2.5
141
2.5
143
0.0393700787
147
0.625
171
     3
172
     1
271
     2
272
     2
274
     3
278
    44
283
     0
284
     8
340
11
  0
ENDTAB
  0
TABLE
  2
BLOCK_RECORD
  5
1
330
0
100
AcDbSymbolTable
 70
     7
  0
BLOCK_RECORD
  5
1F
330
1
100
AcDbSymbolTableRecord
100
AcDbBlockTableRecord
  2
*Model_Space
340
22
  0
BLOCK_RECORD
  5
1B
330
1
100
AcDbSymbolTableRecord
100
AcDbBlockTableRecord
  2
*Paper_Space
340
1E
  0
BLOCK_RECORD
  5
5E
330
1
100
AcDbSymbolTableRecord
100
AcDbBlockTableRecord
  2
SEANNOT_GROUP
340
0
102
{BLKREFS
331
5F
102
}
  0
BLOCK_RECORD
  5
65
330
1
100
AcDbSymbolTableRecord
100
AcDbBlockTableRecord
  2
SEANNOT_GROUP1
340
0
102
{BLKREFS
331
66
102
}
  0
BLOCK_RECORD
  5
6B
330
1
100
AcDbSymbolTableRecord
100
AcDbBlockTableRecord
  2
SEANNOT_GROUP2
340
0
102
{BLKREFS
331
6C
102
}
  0
BLOCK_RECORD
  5
75
330
1
100
AcDbSymbolTableRecord
100
AcDbBlockTableRecord
  2
SE
340
0
102
{BLKREFS
331
76
102
}
  0
BLOCK_RECORD
  5
383
330
1
100
AcDbSymbolTableRecord
100
AcDbBlockTableRecord
  2
SE1
340
0
102
{BLKREFS
331
384
102
}
  0
BLOCK_RECORD
  5
3D5
330
1
100
AcDbSymbolTableRecord
100
AcDbBlockTableRecord
  2
SE2
340
0
102
{BLKREFS
331
3D6
102
}
  0
ENDTAB
  0
ENDSEC
  0
SECTION
  2
BLOCKS
  0
BLOCK
  5
20
330
1F
100
AcDbEntity
  8
0
100
AcDbBlockBegin
  2
*Model_Space
 70
     0
 10
0.0
 20
0.0
 30
0.0
  3
*Model_Space
  1

  0
ENDBLK
  5
21
330
1F
100
AcDbEntity
  8
0
100
AcDbBlockEnd
  0
BLOCK
  5
1C
330
1B
100
AcDbEntity
 67
     1
  8
0
100
AcDbBlockBegin
  2
*Paper_Space
 70
     0
 10
0.0
 20
0.0
 30
0.0
  3
*Paper_Space
  1

  0
ENDBLK
  5
1D
330
1B
100
AcDbEntity
 67
     1
  8
0
100
AcDbBlockEnd
  0
BLOCK
  5
63
330
5E
100
AcDbEntity
  8
0
100
AcDbBlockBegin
  2
SEANNOT_GROUP
 70
     0
 10
0.0
 20
0.0
 30
0.0
  3
SEANNOT_GROUP
  1

  0
LINE
  5
61
330
5E
100
AcDbEntity
  8
Default
  6
CENTER2
 62
     7
100
AcDbLine
 10
69.7773114034
 20
365.8161963589
 30
0.0
 11
29.7773122975
 21
365.8161963589
 31
0.0
  0
LINE
  5
62
330
5E
100
AcDbEntity
  8
Default
  6
CENTER2
 62
     7
100
AcDbLine
 10
49.7773118504
 20
385.8161959118
 30
0.0
 11
49.7773118504
 21
345.8161968059
 31
0.0
  0
ENDBLK
  5
64
330
5E
100
AcDbEntity
  8
0
100
AcDbBlockEnd
  0
BLOCK
  5
69
330
65
100
AcDbEntity
  8
0
100
AcDbBlockBegin
  2
SEANNOT_GROUP1
 70
     0
 10
0.0
 20
0.0
 30
0.0
  3
SEANNOT_GROUP1
  1

  0
LINE
  5
67
330
65
100
AcDbEntity
  8
Default
  6
CENTER2
 62
     7
100
AcDbLine
 10
215.0662018121
 20
365.8161963589
 30
0.0
 11
175.0662027061
 21
365.8161963589
 31
0.0
  0
LINE
  5
68
330
65
100
AcDbEntity
  8
Default
  6
CENTER2
 62
     7
100
AcDbLine
 10
195.0662022591
 20
385.8161959118
 30
0.0
 11
195.0662022591
 21
345.8161968059
 31
0.0
  0
ENDBLK
  5
6A
330
65
100
AcDbEntity
  8
0
100
AcDbBlockEnd
  0
BLOCK
  5
73
330
6B
100
AcDbEntity
  8
0
100
AcDbBlockBegin
  2
SEANNOT_GROUP2
 70
     0
 10
0.0
 20
0.0
 30
0.0
  3
SEANNOT_GROUP2
  1

  0
LINE
  5
6D
330
6B
100
AcDbEntity
  8
Default
  6
CENTER2
 62
     7
100
AcDbLine
 10
49.7773118504
 20
230.6134699105
 30
0.0
 11
49.7773118504
 21
270.6134690165
 31
0.0
  0
LINE
  5
6E
330
6B
100
AcDbEntity
  8
Default
  6
CENTER2
 62
     7
100
AcDbLine
 10
69.7773114034
 20
250.6134694635
 30
0.0
 11
29.7773122975
 21
250.6134694635
 31
0.0
  0
LINE
  5
6F
330
6B
100
AcDbEntity
  8
Default
  6
CENTER2
 62
     7
100
AcDbLine
 10
49.7773118504
 20
225.6134700223
 30
0.0
 11
49.7773118504
 21
220.7123775544
 31
0.0
  0
LINE
  5
70
330
6B
100
AcDbEntity
  8
Default
  6
CENTER2
 62
     7
100
AcDbLine
 10
74.7773112916
 20
250.6134694635
 30
0.0
 11
79.2773118505
 21
250.6134694635
 31
0.0
  0
LINE
  5
71
330
6B
100
AcDbEntity
  8
Default
  6
CENTER2
 62
     7
100
AcDbLine
 10
49.7773118504
 20
275.6134689047
 30
0.0
 11
49.7773118504
 21
280.5145613726
 31
0.0
  0
LINE
  5
72
330
6B
100
AcDbEntity
  8
Default
  6
CENTER2
 62
     7
100
AcDbLine
 10
24.7773124092
 20
250.6134694635
 30
0.0
 11
20.2773118504
 21
250.6134694635
 31
0.0
  0
ENDBLK
  5
74
330
6B
100
AcDbEntity
  8
0
100
AcDbBlockEnd
  0
BLOCK
  5
381
330
75
100
AcDbEntity
  8
0
100
AcDbBlockBegin
  2
SE
 70
     0
 10
0.0
 20
0.0
 30
0.0
  3
SE
  1

  0
SPLINE
  5
78
330
75
100
AcDbEntity
  8
$DDT_AUDIT_GENERATED_(77)
  6
Continuous
 62
     7
100
AcDbSpline
210
0.0
220
0.0
230
1.0
 70
     8
 71
     3
 72
     8
 73
     4
 74
     0
 42
0.0000000020347592
 43
0.0000000001
 40
0.1788005524993219
 40
0.1788005524993219
 40
0.1788005524993219
 40
0.1788005524993219
 40
0.1793231855442381
 40
0.1793231855442381
 40
0.1793231855442381
 40
0.1793231855442381
 10
23.3759137894034
 20
447.6341757585333
 30
0.0
 10
23.37591111270557
 20
447.6350321480344
 30
0.0
 10
23.37590964124329
 20
447.6358883212581
 30
0.0
 10
23.37590937502573
 20
447.6367442782918
 30
0.0
  0
SPLINE
  5
79
330
75
100
AcDbEntity
  8
$DDT_AUDIT_GENERATED_(77)
  6
Continuous
 62
     7
100
AcDbSpline
210
0.0
220
0.0
230
1.0
 70
     8
 71
     3
 72
    14
 73
    10
 74
     0
 42
0.0000000008394507
 43
0.0000000001
 40
0.1793231855442381
 40
0.1793231855442381
 40
0.1793231855442381
 40
0.1793231855442381
 40
0.25
 40
0.25
 40
0.5
 40
0.5
 40
0.75
 40
0.75
 40
1.0
 40
1.0
 40
1.0
 40
1.0
 10
23.37590937502574
 20
447.6367442782918
 30
0.0
 10
23.37587337384225
 20
447.7524972277956
 30
0.0
 10
23.39787858343502
 20
447.8642965520528
 30
0.0
 10
23.59783054270706
 20
448.3546016634822
 30
0.0
 10
24.0288627044156
 20
448.6900624406105
 30
0.0
 10
25.4439891418557
 20
449.1991571884437
 30
0.0
 10
26.42794183770779
 20
449.3719676405773
 30
0.0
 10
28.96357961675778
 20
449.4134116819762
 30
0.0
 10
30.51687163398076
 20
449.2799709963159
 30
0.0
 10
32.35120369571217
 20
448.9011428970756
 30
0.0
  0
SPLINE
  5
7A
330
75
100
AcDbEntity
  8
$DDT_AUDIT_GENERATED_(77)
  6
Continuous
 62
     7
100
AcDbSpline
210
0.0
220
0.0
230
1.0
 70
     8
 71
     3
 72
    10
 73
     6
 74
     0
 42
0.0000000003235645
 43
0.0000000001
 40
0.2154530258384887
 40
0.2154530258384887
 40
0.2154530258384887
 40
0.2154530258384887
 40
0.2500000000000002
 40
0.2500000000000002
 40
0.2694127387485139
 40
0.2694127387485139
 40
0.2694127387485139
 40
0.2694127387485139
 10
76.17019368678416
 20
431.0679644042188
 30
0.0
 10
76.17590037143226
 20
431.4371660689223
 30
0.0
 10
76.17879117210218
 20
431.7979464300208
 30
0.0
 10
76.17879047450704
 20
432.3479182771075
 30
0.0
 10
76.1778774282018
 20
432.5430897241604
 30
0.0
 10
76.17603669245115
 20
432.7355623364423
 30
0.0
  0
SPLINE
  5
7B
330
75
100
AcDbEntity
  8
$DDT_AUDIT_GENERATED_(77)
  6
Continuous
 62
     7
100
AcDbSpline
210
0.0
220
0.0
230
1.0
 70
     8
 71
     3
 72
    12
 73
     8
 74
     0
 42
0.0000000005511035
 43
0.0000000001
 40
0.0
 40
0.0
 40
0.0
 40
0.0
 40
0.5000000000000001
 40
0.5000000000000001
 40
0.625
 40
0.625
 40
0.7302478560356029
 40
0.7302478560356029
 40
0.7302478560356029
 40
0.7302478560356029
 10
28.08587070809292
 20
443.5332805911388
 30
0.0
 10
25.8992194059422
 20
443.1135048305398
 30
0.0
 10
24.52463336180956
 20
441.7012400131864
 30
0.0
 10
23.69495095847802
 20
437.6178970724337
 30
0.0
 10
23.57302192044281
 20
436.6832890804048
 30
0.0
 10
23.42627129835671
 20
434.752312317657
 30
0.0
 10
23.38883991310271
 20
433.7886507660521
 30
0.0
 10
23.37868432145552
 20
432.7456553539755
 30
0.0
  0
SPLINE
  5
7C
330
75
100
AcDbEntity
  8
$DDT_AUDIT_GENERATED_(77)
  6
Continuous
 62
     7
100
AcDbSpline
210
0.0
220
0.0
230
1.0
 70
     8
 71
     3
 72
    10
 73
     6
 74
     0
 42
0.0000000003235042
 43
0.0000000001
 40
0.7302478560356029
 40
0.7302478560356029
 40
0.7302478560356029
 40
0.7302478560356029
 40
0.7499999999999999
 40
0.7499999999999999
 40
0.7851544896176547
 40
0.7851544896176547
 40
0.7851544896176547
 40
0.7851544896176547
 10
23.37868432145552
 20
432.7456553539755
 30
0.0
 10
23.37677839466694
 20
432.5499136418919
 30
0.0
 10
23.37583314923931
 20
432.3513777100636
 30
0.0
 10
23.37583244561059
 20
431.7917545849936
 30
0.0
 10
23.37882582277552
 20
431.4244747081822
 30
0.0
 10
23.38473361813062
 20
431.0484792414475
 30
0.0
  0
SPLINE
  5
7D
330
75
100
AcDbEntity
  8
$DDT_AUDIT_GENERATED_(77)
  6
Continuous
 62
     7
100
AcDbSpline
210
0.0
220
0.0
230
1.0
 70
     8
 71
     3
 72
    32
 73
    28
 74
     0
 42
0.0000000001667896
 43
0.0000000001
 40
0.0
 40
0.0
 40
0.0
 40
0.0
 40
0.0625
 40
0.0625
 40
0.125
 40
0.125
 40
0.2499999999999999
 40
0.2499999999999999
 40
0.3749999999999998
 40
0.3749999999999998
 40
0.4374999999999999
 40
0.4374999999999999
 40
0.4999999999999999
 40
0.4999999999999999
 40
0.5625
 40
0.5625
 40
0.625
 40
0.625
 40
0.6875
 40
0.6875
 40
0.75
 40
0.75
 40
0.875
 40
0.875
 40
0.9375
 40
0.9375
 40
1.0
 40
1.0
 40
1.0
 40
1.0
 10
26.14535446799417
 20
415.1337280412387
 30
0.0
 10
26.67480791926176
 20
414.3527646684373
 30
0.0
 10
27.25127535845673
 20
413.4848823101364
 30
0.0
 10
28.5075924865858
 20
411.7065499876307
 30
0.0
 10
29.18731717899839
 20
410.7923609043597
 30
0.0
 10
31.4045718512623
 20
408.0551652179985
 30
0.0
 10
33.11232061698225
 20
406.2503332171585
 30
0.0
 10
37.02821616378669
 20
403.0276751369262
 30
0.0
 10
39.27014401167981
 20
401.5879870998457
 30
0.0
 10
42.97184157956109
 20
400.053367907247
 30
0.0
 10
44.2891718040141
 20
399.635773185306
 30
0.0
 10
46.97993842544222
 20
399.0724582654231
 30
0.0
 10
48.34623414532242
 20
398.9242128103508
 30
0.0
 10
51.12392018736936
 20
398.9182833906739
 30
0.0
 10
52.53515494881387
 20
399.066943348104
 30
0.0
 10
55.22575968283824
 20
399.624782892901
 30
0.0
 10
56.51817540031437
 20
400.0302065444607
 30
0.0
 10
59.01137323743878
 20
401.0567181931174
 30
0.0
 10
60.20988182574975
 20
401.6798107685074
 30
0.0
 10
62.45886328954837
 20
403.0708858389207
 30
0.0
 10
63.50059083828223
 20
403.8298552271386
 30
0.0
 10
66.4316605088801
 20
406.2406632989025
 30
0.0
 10
68.14407411178246
 20
408.0483951562345
 30
0.0
 10
70.36349072778431
 20
410.7873469940255
 30
0.0
 10
71.04396088928507
 20
411.7023191902713
 30
0.0
 10
72.30179220668019
 20
413.4825647187362
 30
0.0
 10
72.8790265795659
 20
414.3516005643768
 30
0.0
 10
73.40926917106057
 20
415.1337279500625
 30
0.0
  0
ARC
  5
7E
330
75
100
AcDbEntity
  8
$DDT_AUDIT_GENERATED_(77)
  6
Continuous
 62
     7
100
AcDbCircle
 10
36.936339829
 20
422.6456857368
 30
0.0
 40
13.14818898102042
100
AcDbArc
 50
180.6127638438
 51
214.8430381836
  0
ARC
  5
7F
330
75
100
AcDbEntity
  8
$DDT_AUDIT_GENERATED_(77)
  6
Continuous
 62
     7
100
AcDbCircle
 10
37.5272177887
 20
425.1164197138
 30
0.0
 40
13.8537176354252
100
AcDbArc
 50
184.3571891868
 51
184.431562348
  0
ARC
  5
80
330
75
100
AcDbEntity
  8
$DDT_AUDIT_GENERATED_(77)
  6
Continuous
 62
     7
100
AcDbCircle
 10
62.0382142285
 20
425.1169361741
 30
0.0
 40
13.84307935082666
100
AcDbArc
 50
355.5473635539
 51
355.648891293
  0
ARC
  5
81
330
75
100
AcDbEntity
  8
$DDT_AUDIT_GENERATED_(77)
  6
Continuous
 62
     7
100
AcDbCircle
 10
49.777311837
 20
481.7626529945
 30
0.0
 40
59.33751182786485
100
AcDbArc
 50
244.2980849239
 51
295.7019150328
  0
ELLIPSE
  5
82
330
75
100
AcDbEntity
  8
$DDT_AUDIT_GENERATED_(77)
  6
Continuous
 62
     7
100
AcDbEllipse
 10
100.6769122333
 20
412.9615590029
 30
0.0
 11
-19.91500356366165
 21
22.43641310591707
 31
0.0
210
0.0
220
0.0
230
0.9999999999999998
 40
0.8384265071
 41
0.3507018709657299
 42
0.8532696353095448
  0
ELLIPSE
  5
83
330
75
100
AcDbEntity
  8
$DDT_AUDIT_GENERATED_(77)
  6
Continuous
 62
     7
100
AcDbEllipse
 10
-1.1222886656
 20
412.9615591211
 30
0.0
 11
19.91500358065701
 21
22.43641309082754
 31
0.0
210
0.0
220
0.0
230
1.0
 40
0.8384265109
 41
5.429915673706567
 42
5.932483433930047
  0
LINE
  5
84
330
75
100
AcDbEntity
  8
$DDT_AUDIT_GENERATED_(77)
  6
Continuous
 62
     7
100
AcDbLine
 10
23.7773118504
 20
365.8161963589
 30
0.0
 11
75.7773118505
 21
365.8161963589
 31
0.0
  0
ARC
  5
85
330
75
100
AcDbEntity
  8
$DDT_AUDIT_GENERATED_(77)
  6
Continuous
 62
     7
100
AcDbCircle
 10
50.334852064
 20
438.8119322831
 30
0.0
 40
31.57179392851528
100
AcDbArc
 50
99.0486342668
 51
130.2778762345
  0
ARC
  5
86
330
75
100
AcDbEntity
  8
$DDT_AUDIT_GENERATED_(77)
  6
Continuous
 62
     7
100
AcDbCircle
 10
43.7779978568
 20
448.4035058052
 30
0.0
 40
20.05108908374707
100
AcDbArc
 50
133.7048044808
 51
172.8314763177
  0
ARC
  5
87
330
75
100
AcDbEntity
  8
$DDT_AUDIT_GENERATED_(77)
  6
Continuous
 62
     7
100
AcDbCircle
 10
49.186204814
 20
438.7388293246
 30
0.0
 40
31.64927368932622
100
AcDbArc
 50
49.7613213748
 51
80.9121683905
  0
ARC
  5
88
330
75
100
AcDbEntity
  8
$DDT_AUDIT_GENERATED_(77)
  6
Continuous
 62
     7
100
AcDbCircle
 10
55.7766256974
 20
448.4035057365
 30
0.0
 40
20.0510892245927
100
AcDbArc
 50
7.164110237
 51
46.2951957828
  0
ELLIPSE
  5
89
330
75
100
AcDbEntity
  8
$DDT_AUDIT_GENERATED_(77)
  6
Continuous
 62
     7
100
AcDbEllipse
 10
44.0132084425
 20
468.6217450996
 30
0.0
 11
-0.8738429801984959
 21
7.952131691940105
 31
0.0
210
0.0
220
0.0
230
0.9999999999999997
 40
0.1894000208
 41
3.288799411413041
 42
4.864568142613288
  0
ELLIPSE
  5
8A
330
75
100
AcDbEntity
  8
$DDT_AUDIT_GENERATED_(77)
  6
Continuous
 62
     7
100
AcDbEllipse
 10
55.5414152583
 20
468.6217450996
 30
0.0
 11
0.8738429801985956
 21
7.95213169194002
 31
0.0
210
0.0
220
0.0
230
1.0
 40
0.1894000208
 41
1.418617164566344
 42
2.994385908064496
  0
ELLIPSE
  5
8B
330
75
100
AcDbEntity
  8
$DDT_AUDIT_GENERATED_(77)
  6
Continuous
 62
     7
100
AcDbEllipse
 10
49.7773214565
 20
484.2287050599
 30
0.0
 11
-45.74156952607921
 21
0.00236459090920127
 31
0.0
210
0.0
220
0.0
230
1.0
 40
0.8917323109
 41
1.241097987243975
 42
1.32892228911215
  0
ARC
  5
8C
330
75
100
AcDbEntity
  8
$DDT_AUDIT_GENERATED_(77)
  6
Continuous
 62
     7
100
AcDbCircle
 10
49.7771072508
 20
370.9457826206
 30
0.0
 40
81.10756312341637
100
AcDbArc
 50
84.7690092632
 51
95.230771576
  0
SPLINE
  5
8D
330
75
100
AcDbEntity
  8
$DDT_AUDIT_GENERATED_(77)
  6
Continuous
 62
     7
100
AcDbSpline
210
0.0
220
0.0
230
1.0
 70
    12
 71
     3
 72
    18
 73
    14
 74
     0
 42
0.0000000010022736
 43
0.0000000001
 40
0.0
 40
0.0
 40
0.0
 40
0.0
 40
0.2500000000000002
 40
0.2500000000000002
 40
0.5000000000000003
 40
0.5000000000000003
 40
0.7500000000000007
 40
0.7500000000000007
 40
0.8749999999999997
 40
0.8749999999999997
 40
0.9375000000000006
 40
0.9375000000000006
 40
1.0
 40
1.0
 40
1.0
 40
1.0
 10
34.97800285207841
 20
445.6630843467765
 30
0.0
 41
1.0
 10
35.25321470423977
 20
446.264744797923
 30
0.0
 41
1.0
 10
35.63579270337887
 20
446.8339391298436
 30
0.0
 41
1.0
 10
36.4797078053158
 20
447.976259510701
 30
0.0
 41
1.0
 10
36.94155527151378
 20
448.5437687087028
 30
0.0
 41
1.0
 10
37.97990117643785
 20
449.6450013573866
 30
0.0
 41
1.0
 10
38.55764360478229
 20
450.1830376603124
 30
0.0
 41
1.0
 10
39.68188291629111
 20
450.8958302303142
 30
0.0
 41
1.0
 10
40.10030974669185
 20
451.1173575069946
 30
0.0
 41
1.0
 10
40.84361106009914
 20
451.3980865116311
 30
0.0
 41
1.0
 10
41.11123064057247
 20
451.4829844136453
 30
0.0
 41
1.0
 10
41.70079597159509
 20
451.6249994371437
 30
0.0
 41
1.0
 10
42.02095372011719
 20
451.6823198396098
 30
0.0
 41
1.0
 10
42.38273981031597
 20
451.7155797354486
 30
0.0
 41
1.0
  0
SPLINE
  5
8E
330
75
100
AcDbEntity
  8
$DDT_AUDIT_GENERATED_(77)
  6
Continuous
 62
     7
100
AcDbSpline
210
0.0
220
0.0
230
1.0
 70
    12
 71
     3
 72
    18
 73
    14
 74
     0
 42
0.0000000010023642
 43
0.0000000001
 40
0.0
 40
0.0
 40
0.0
 40
0.0
 40
0.0625000000000003
 40
0.0625000000000003
 40
0.1249999999999996
 40
0.1249999999999996
 40
0.2500000000000001
 40
0.2500000000000001
 40
0.500000000000001
 40
0.500000000000001
 40
0.7499999999999993
 40
0.7499999999999993
 40
1.0
 40
1.0
 40
1.0
 40
1.0
 10
57.17178364195025
 20
451.7155514508245
 30
0.0
 41
1.0
 10
57.5340300553511
 20
451.6822481608793
 30
0.0
 41
1.0
 10
57.85281637414614
 20
451.625045321965
 30
0.0
 41
1.0
 10
58.43732859702538
 20
451.4841405470366
 30
0.0
 41
1.0
 10
58.70250817353718
 20
451.3999864198891
 30
0.0
 41
1.0
 10
59.44123950346991
 20
451.1210702034808
 30
0.0
 41
1.0
 10
59.85884137164624
 20
450.9004411373745
 30
0.0
 41
1.0
 10
60.98426458014793
 20
450.1886116348693
 30
0.0
 41
1.0
 10
61.56770732715926
 20
449.6490192067469
 30
0.0
 41
1.0
 10
62.62118660882597
 20
448.5389416349151
 30
0.0
 41
1.0
 10
63.08349835262965
 20
447.9695879882915
 30
0.0
 41
1.0
 10
63.92475426475527
 20
446.8272634984514
 30
0.0
 41
1.0
 10
64.30374718106283
 20
446.2595528369772
 30
0.0
 41
1.0
 10
64.57661411944221
 20
445.6630588784276
 30
0.0
 41
1.0
  0
SPLINE
  5
8F
330
75
100
AcDbEntity
  8
$DDT_AUDIT_GENERATED_(77)
  6
Continuous
 62
     7
100
AcDbSpline
210
0.0
220
0.0
230
1.0
 70
    12
 71
     3
 72
    18
 73
    14
 74
     0
 42
0.0000000007557699
 43
0.0000000001
 40
0.0
 40
0.0
 40
0.0
 40
0.0
 40
0.2500000000000007
 40
0.2500000000000007
 40
0.4999999999999991
 40
0.4999999999999991
 40
0.7499999999999997
 40
0.7499999999999997
 40
0.8750000000000003
 40
0.8750000000000003
 40
0.9374999999999997
 40
0.9374999999999997
 40
1.0
 40
1.0
 40
1.0
 40
1.0
 10
67.20341578758466
 20
448.9011422256307
 30
0.0
 41
1.0
 10
66.96857458035326
 20
450.1477100909887
 30
0.0
 41
1.0
 10
66.41796335606996
 20
451.1542302157517
 30
0.0
 41
1.0
 10
65.13568039642227
 20
452.7441752138556
 30
0.0
 41
1.0
 10
64.40811204918403
 20
453.3296632261631
 30
0.0
 41
1.0
 10
62.8611357384415
 20
454.3099301071509
 30
0.0
 41
1.0
 10
62.04923043299586
 20
454.7053515246755
 30
0.0
 41
1.0
 10
60.57977890468067
 20
455.281497626279
 30
0.0
 41
1.0
 10
60.04673154883636
 20
455.4701605505958
 30
0.0
 41
1.0
 10
59.11135513431781
 20
455.7411623122815
 30
0.0
 41
1.0
 10
58.77655550400765
 20
455.8293291210443
 30
0.0
 41
1.0
 10
58.03575097405872
 20
455.9930934409296
 30
0.0
 41
1.0
 10
57.63037173601364
 20
456.0694013143164
 30
0.0
 41
1.0
 10
57.16425543531141
 20
456.1276023827398
 30
0.0
 41
1.0
  0
SPLINE
  5
90
330
75
100
AcDbEntity
  8
$DDT_AUDIT_GENERATED_(77)
  6
Continuous
 62
     7
100
AcDbSpline
210
0.0
220
0.0
230
1.0
 70
     8
 71
     3
 72
     8
 73
     4
 74
     0
 42
0.0000000011175886
 43
0.0000000001
 40
0.7569667821405627
 40
0.7569667821405627
 40
0.7569667821405627
 40
0.7569667821405627
 40
0.7603731792434055
 40
0.7603731792434055
 40
0.7603731792434055
 40
0.7603731792434055
 10
28.79286408658125
 20
456.0589052171259
 30
0.0
 10
28.78376808118379
 20
456.0542879106471
 30
0.0
 10
28.77472272184459
 20
456.049661255222
 30
0.0
 10
28.76572800344334
 20
456.0450253614722
 30
0.0
  0
SPLINE
  5
91
330
75
100
AcDbEntity
  8
$DDT_AUDIT_GENERATED_(77)
  6
Continuous
 62
     7
100
AcDbSpline
210
0.0
220
0.0
230
1.0
 70
    12
 71
     3
 72
    18
 73
    14
 74
     0
 42
0.0000000007557321
 43
0.0000000001
 40
0.0
 40
0.0
 40
0.0
 40
0.0
 40
0.0624999999999996
 40
0.0624999999999996
 40
0.1250000000000002
 40
0.1250000000000002
 40
0.2499999999999994
 40
0.2499999999999994
 40
0.4999999999999997
 40
0.4999999999999997
 40
0.7499999999999998
 40
0.7499999999999998
 40
1.0
 40
1.0
 40
1.0
 40
1.0
 10
42.39030562503645
 20
456.1276172510661
 30
0.0
 41
1.0
 10
41.92477361757609
 20
456.0694895626925
 30
0.0
 41
1.0
 10
41.51763970585512
 20
455.9929760032293
 30
0.0
 41
1.0
 10
40.77043028660508
 20
455.8274236207917
 30
0.0
 41
1.0
 10
40.43255881621926
 20
455.7380736025824
 30
0.0
 41
1.0
 10
39.49142932001644
 20
455.4641656357091
 30
0.0
 41
1.0
 10
38.95732055660967
 20
455.2740096081664
 30
0.0
 41
1.0
 10
37.48922254230189
 20
454.6960102078508
 30
0.0
 41
1.0
 10
36.68440567768867
 20
454.3025985984497
 30
0.0
 41
1.0
 10
35.15714596748588
 20
453.3383482481775
 30
0.0
 41
1.0
 10
34.43028411736172
 20
452.757156064496
 30
0.0
 41
1.0
 10
33.14406742468737
 20
451.1680001934319
 30
0.0
 41
1.0
 10
32.58806238506821
 20
450.1584752595867
 30
0.0
 41
1.0
 10
32.35120369571217
 20
448.9011428970756
 30
0.0
 41
1.0
  0
ARC
  5
92
330
75
100
AcDbEntity
  8
$DDT_AUDIT_GENERATED_(77)
  6
Continuous
 62
     7
100
AcDbCircle
 10
938.3430251576
 20
65.1462334142
 30
0.0
 40
983.9151219781903
100
AcDbArc
 50
157.0453561409
 51
157.3744184698
  0
ARC
  5
93
330
75
100
AcDbEntity
  8
$DDT_AUDIT_GENERATED_(77)
  6
Continuous
 62
     7
100
AcDbCircle
 10
49.777399369
 20
461.3859385349
 30
0.0
 40
27.11365601946909
100
AcDbArc
 50
295.2382433846
 51
309.3428427202
  0
ARC
  5
94
330
75
100
AcDbEntity
  8
$DDT_AUDIT_GENERATED_(77)
  6
Continuous
 62
     7
100
AcDbCircle
 10
49.777399369
 20
461.3859385349
 30
0.0
 40
27.11365601946909
100
AcDbArc
 50
230.6571473691
 51
244.7199379711
  0
ARC
  5
95
330
75
100
AcDbEntity
  8
$DDT_AUDIT_GENERATED_(77)
  6
Continuous
 62
     7
100
AcDbCircle
 10
-870.2807722231
 20
16.6207637642
 30
0.0
 40
1028.608551590407
100
AcDbArc
 50
24.3311243586
 51
24.6506270157
  0
ARC
  5
96
330
75
100
AcDbEntity
  8
$DDT_AUDIT_GENERATED_(77)
  6
Continuous
 62
     7
100
AcDbCircle
 10
968.5610769216
 20
17.2349710877
 30
0.0
 40
1027.194204547999
100
AcDbArc
 50
155.3508471704
 51
155.6708027166
  0
ARC
  5
97
330
75
100
AcDbEntity
  8
$DDT_AUDIT_GENERATED_(77)
  6
Continuous
 62
     7
100
AcDbCircle
 10
36.3841288376
 20
449.4882650381
 30
0.0
 40
4.075438333313585
100
AcDbArc
 50
188.2830555938
 51
249.816709969
  0
ELLIPSE
  5
98
330
75
100
AcDbEntity
  8
$DDT_AUDIT_GENERATED_(77)
  6
Continuous
 62
     7
100
AcDbEllipse
 10
42.7706295403
 20
453.7732465282
 30
0.0
 11
0.2461606500824588
 21
-2.387342747050742
 31
0.0
210
0.0
220
0.0
230
0.9999999999999999
 40
0.4535691971
 41
3.2676304767905
 42
5.702820290034769
  0
ELLIPSE
  5
99
330
75
100
AcDbEntity
  8
$DDT_AUDIT_GENERATED_(77)
  6
Continuous
 62
     7
100
AcDbEllipse
 10
56.7839347271
 20
453.7732312365
 30
0.0
 11
-0.2461642313366799
 21
-2.387342377818624
 31
0.0
210
0.0
220
0.0
230
1.0
 40
0.4535501696
 41
0.5803526953131977
 42
3.015555816452873
  0
ARC
  5
9A
330
75
100
AcDbEntity
  8
$DDT_AUDIT_GENERATED_(77)
  6
Continuous
 62
     7
100
AcDbCircle
 10
63.1704794302
 20
449.4882452627
 30
0.0
 40
4.075446679667465
100
AcDbArc
 50
290.1833772662
 51
351.7172328982
  0
ARC
  5
9B
330
75
100
AcDbEntity
  8
$DDT_AUDIT_GENERATED_(77)
  6
Continuous
 62
     7
100
AcDbCircle
 10
40.498805502
 20
441.8967616227
 30
0.0
 40
3.083447466862024
100
AcDbArc
 50
119.1700477145
 51
157.4285025934
  0
ARC
  5
9C
330
75
100
AcDbEntity
  8
$DDT_AUDIT_GENERATED_(77)
  6
Continuous
 62
     7
100
AcDbCircle
 10
59.1583139607
 20
441.9881474235
 30
0.0
 40
2.954013554067368
100
AcDbArc
 50
21.6646208026
 51
61.6956678863
  0
ARC
  5
9D
330
75
100
AcDbEntity
  8
$DDT_AUDIT_GENERATED_(77)
  6
Continuous
 62
     7
100
AcDbCircle
 10
49.7772102783
 20
414.9882320583
 30
0.0
 40
31.5031888892864
100
AcDbArc
 50
69.9863774105
 51
110.0127008293
  0
SPLINE
  5
9E
330
75
100
AcDbEntity
  8
$DDT_AUDIT_GENERATED_(77)
  6
Continuous
 62
     7
100
AcDbSpline
210
0.0
220
0.0
230
1.0
 70
     8
 71
     3
 72
    10
 73
     6
 74
     0
 42
0.0000000005053436
 43
0.0000000001
 40
0.0
 40
0.0
 40
0.0
 40
0.0
 40
0.0625000000000006
 40
0.0625000000000006
 40
0.1197618268032243
 40
0.1197618268032243
 40
0.1197618268032243
 40
0.1197618268032243
 10
61.90365808555151
 20
443.0786893593765
 30
0.0
 10
62.02883561038999
 20
442.7230904718863
 30
0.0
 10
62.05856002899284
 20
442.347034090379
 30
0.0
 10
61.93730252436827
 20
441.5873030862706
 30
0.0
 10
61.79806597947277
 20
441.2042685082895
 30
0.0
 10
61.58495555010265
 20
440.8207077609718
 30
0.0
  0
SPLINE
  5
9F
330
75
100
AcDbEntity
  8
$DDT_AUDIT_GENERATED_(77)
  6
Continuous
 62
     7
100
AcDbSpline
210
0.0
220
0.0
230
1.0
 70
     8
 71
     3
 72
    10
 73
     6
 74
     0
 42
0.0000000005058091
 43
0.0000000001
 40
0.8802994042063564
 40
0.8802994042063564
 40
0.8802994042063564
 40
0.8802994042063564
 40
0.9375000000000002
 40
0.9375000000000002
 40
1.0
 40
1.0
 40
1.0
 40
1.0
 10
37.96713289337827
 20
440.8250851230475
 30
0.0
 10
37.75349888636967
 20
441.2099425696408
 30
0.0
 10
37.6182327864606
 20
441.5845077176917
 30
0.0
 10
37.49614013447105
 20
442.3432635641677
 30
0.0
 10
37.527218838388
 20
442.7280088519021
 30
0.0
 10
37.65154617661924
 20
443.080299799119
 30
0.0
  0
ELLIPSE
  5
A0
330
75
100
AcDbEntity
  8
$DDT_AUDIT_GENERATED_(77)
  6
Continuous
 62
     7
100
AcDbEllipse
 10
49.7773118504
 20
444.0445482083
 30
0.0
 11
-12.25
 21
-1.387778780781446E-14
 31
0.0
210
0.0
220
0.0
230
1.0
 40
0.4226182617
 41
-3.413481710702618
 42
-3.304418131931065
  0
ELLIPSE
  5
A1
330
75
100
AcDbEntity
  8
$DDT_AUDIT_GENERATED_(77)
  6
Continuous
 62
     7
100
AcDbEllipse
 10
49.7773118504
 20
444.0445482083
 30
0.0
 11
-12.25
 21
-1.387778780781446E-14
 31
0.0
210
0.0
220
0.0
230
1.0
 40
0.4226182617
 41
0.1630661983712456
 42
0.2718890571128189
  0
LINE
  5
A2
330
75
100
AcDbEntity
  8
$DDT_AUDIT_GENERATED_(77)
  6
Continuous
 62
     7
100
AcDbLine
 10
76.1787907255
 20
432.147593184
 30
0.0
 11
76.1787907255
 21
447.6355601425
 31
0.0
  0
LINE
  5
A3
330
75
100
AcDbEntity
  8
$DDT_AUDIT_GENERATED_(77)
  6
Continuous
 62
     7
100
AcDbLine
 10
23.3758328961
 20
447.6326602871
 30
0.0
 11
23.3758328961
 21
432.1455788312
 31
0.0
  0
ARC
  5
A4
330
75
100
AcDbEntity
  8
$DDT_AUDIT_GENERATED_(77)
  6
Continuous
 62
     7
100
AcDbCircle
 10
49.7773427922
 20
414.5189919125
 30
0.0
 40
46.50939076026432
100
AcDbArc
 50
63.7695322258
 51
116.3674589613
  0
SPLINE
  5
A5
330
75
100
AcDbEntity
  8
$DDT_AUDIT_GENERATED_(77)
  6
Continuous
 62
     7
100
AcDbSpline
210
0.0
220
0.0
230
1.0
 70
     8
 71
     3
 72
    13
 73
     9
 74
     0
 42
0.0000000006901895
 43
0.0000000001
 40
0.0
 40
0.0
 40
0.0
 40
0.0
 40
0.0113724189325279
 40
0.0305347149141839
 40
0.0498684689868795
 40
0.0699280362545672
 40
0.0913004371171904
 40
0.1122247547568035
 40
0.1122247547568035
 40
0.1122247547568035
 40
0.1122247547568035
 10
75.77137383967776
 20
474.4410303226968
 30
0.0
 10
75.77233140666405
 20
474.5043150930621
 30
0.0
 10
75.77358459883195
 20
474.6480710862651
 30
0.0
 10
75.72314404937099
 20
474.9007769433297
 30
0.0
 10
75.62918143994649
 20
475.1704870520985
 30
0.0
 10
75.49335976672
 20
475.4285189394056
 30
0.0
 10
75.32461874175944
 20
475.6661290608366
 30
0.0
 10
75.19372197771168
 20
475.811587638874
 30
0.0
 10
75.12548631693015
 20
475.8804378778624
 30
0.0
  0
SPLINE
  5
A6
330
75
100
AcDbEntity
  8
$DDT_AUDIT_GENERATED_(77)
  6
Continuous
 62
     7
100
AcDbSpline
210
0.0
220
0.0
230
1.0
 70
     8
 71
     3
 72
    13
 73
     9
 74
     0
 42
0.0000000006901498
 43
0.0000000001
 40
0.8878794430338199
 40
0.8878794430338199
 40
0.8878794430338199
 40
0.8878794430338199
 40
0.9109550565578857
 40
0.9326486172730387
 40
0.9526731894438382
 40
0.9716063917352796
 40
0.9917603966859547
 40
1.0
 40
1.0
 40
1.0
 40
1.0
 10
24.42875256536263
 20
475.8800487052171
 30
0.0
 10
24.35352236696717
 20
475.8041102523364
 30
0.0
 10
24.21573456546903
 20
475.6494398419311
 30
0.0
 10
24.04354897574401
 20
475.3996148140739
 30
0.0
 10
23.91190759125787
 20
475.1388439002577
 30
0.0
 10
23.82221952863067
 20
474.8642983280872
 30
0.0
 10
23.77753581654321
 20
474.6221449778221
 30
0.0
 10
23.78167279934427
 20
474.4880611436631
 30
0.0
 10
23.7833041275636
 20
474.4422865144994
 30
0.0
  0
ARC
  5
A7
330
75
100
AcDbEntity
  8
$DDT_AUDIT_GENERATED_(77)
  6
Continuous
 62
     7
100
AcDbCircle
 10
66.7814056826
 20
447.5373630889
 30
0.0
 40
9.395328938124358
100
AcDbArc
 50
0.5997864789
 51
65.1578414051
  0
ARC
  5
A8
330
75
100
AcDbEntity
  8
$DDT_AUDIT_GENERATED_(77)
  6
Continuous
 62
     7
100
AcDbCircle
 10
32.7417889208
 20
447.5615385484
 30
0.0
 40
9.35987279768084
100
AcDbArc
 50
114.9203445982
 51
179.5798115506
  0
ARC
  5
A9
330
75
100
AcDbEntity
  8
$DDT_AUDIT_GENERATED_(77)
  6
Continuous
 62
     7
100
AcDbCircle
 10
-41.1530255942
 20
433.1828338198
 30
0.0
 40
117.3424036668147
100
AcDbArc
 50
355.5440252083
 51
358.9345107925
  0
ARC
  5
AA
330
75
100
AcDbEntity
  8
$DDT_AUDIT_GENERATED_(77)
  6
Continuous
 62
     7
100
AcDbCircle
 10
141.6362560655
 20
433.2361628722
 30
0.0
 40
118.2724390114211
100
AcDbArc
 50
181.0922513698
 51
184.4485936309
  0
ARC
  5
AB
330
75
100
AcDbEntity
  8
$DDT_AUDIT_GENERATED_(77)
  6
Continuous
 62
     7
100
AcDbCircle
 10
90.0094702919
 20
422.7812091565
 30
0.0
 40
14.23062168764893
100
AcDbArc
 50
174.9178797847
 51
181.0307889901
  0
ARC
  5
AC
330
75
100
AcDbEntity
  8
$DDT_AUDIT_GENERATED_(77)
  6
Continuous
 62
     7
100
AcDbCircle
 10
7.4341383584
 20
422.6779385333
 30
0.0
 40
16.34116982652796
100
AcDbArc
 50
359.4331214497
 51
4.795835606
  0
LINE
  5
AD
330
75
100
AcDbEntity
  8
$DDT_AUDIT_GENERATED_(77)
  6
Continuous
 62
     7
100
AcDbLine
 10
23.7773118504
 20
422.5012495368
 30
0.0
 11
23.7773118504
 21
365.8161963589
 31
0.0
  0
LINE
  5
AE
330
75
100
AcDbEntity
  8
$DDT_AUDIT_GENERATED_(77)
  6
Continuous
 62
     7
100
AcDbLine
 10
23.7773118504
 20
474.4403198583
 30
0.0
 11
23.7773118504
 21
450.2882240358
 31
0.0
  0
LINE
  5
AF
330
75
100
AcDbEntity
  8
$DDT_AUDIT_GENERATED_(77)
  6
Continuous
 62
     7
100
AcDbLine
 10
75.7773118505
 20
450.286695536
 30
0.0
 11
75.7773118505
 21
474.4403198583
 31
0.0
  0
LINE
  5
B0
330
75
100
AcDbEntity
  8
$DDT_AUDIT_GENERATED_(77)
  6
Continuous
 62
     7
100
AcDbLine
 10
75.7773118505
 20
365.8161963589
 30
0.0
 11
75.7773118505
 21
422.5035112231
 31
0.0
  0
ELLIPSE
  5
B2
330
75
100
AcDbEntity
  8
$DDT_AUDIT_GENERATED_(B1)
  6
Continuous
 62
     7
100
AcDbEllipse
 10
49.7773118504
 20
484.8740883237
 30
0.0
 11
0.0
 21
3.450000000000003
 31
0.0
210
0.0
220
0.0
230
1.0
 40
1.0
 41
1.570796326794897
 42
4.71238898038469
  0
ELLIPSE
  5
B4
330
75
100
AcDbEntity
  8
02636038_GEHÄUSE
  6
Continuous
 62
     7
100
AcDbEllipse
 10
49.7773118504
 20
435.1627318953
 30
0.0
 11
10.02278736572428
 21
0.0
 31
0.0
210
0.0
220
0.0
230
1.0
 40
0.4226182617
 41
0.0
 42
6.283185307179586
  0
ELLIPSE
  5
B5
330
75
100
AcDbEntity
  8
02636038_GEHÄUSE
  6
Continuous
 62
     7
100
AcDbEllipse
 10
49.7773118504
 20
435.1627318953
 30
0.0
 11
10.75000000000001
 21
0.0
 31
0.0
210
0.0
220
0.0
230
1.0
 40
0.4226182617
 41
0.0
 42
6.283185307179586
  0
ELLIPSE
  5
B6
330
75
100
AcDbEntity
  8
02636038_GEHÄUSE
  6
Continuous
 62
     7
100
AcDbEllipse
 10
49.7773118504
 20
442.8663480851
 30
0.0
 11
11.80000000000001
 21
0.0
 31
0.0
210
0.0
220
0.0
230
1.0
 40
0.4226182617
 41
2.883428633503744
 42
3.141592653589793
  0
ELLIPSE
  5
B7
330
75
100
AcDbEntity
  8
02636038_GEHÄUSE
  6
Continuous
 62
     7
100
AcDbEllipse
 10
49.7773118504
 20
442.8663480851
 30
0.0
 11
11.80000000000001
 21
0.0
 31
0.0
210
0.0
220
0.0
230
1.0
 40
0.4226182617
 41
0.0
 42
0.2461934777161295
  0
LINE
  5
B8
330
75
100
AcDbEntity
  8
02636038_GEHÄUSE
  6
Continuous
 62
     7
100
AcDbLine
 10
38.7773118504
 20
436.5436268541
 30
0.0
 11
38.7773118504
 21
434.3574196859
 31
0.0
  0
ELLIPSE
  5
B9
330
75
100
AcDbEntity
  8
02636038_GEHÄUSE
  6
Continuous
 62
     7
100
AcDbEllipse
 10
49.7773118504
 20
437.8816552564
 30
0.0
 11
11.79999999999992
 21
1.804112415015879E-13
 31
0.0
210
0.0
220
0.0
230
1.0
 40
0.4226182617
 41
2.771250021498066
 42
3.511935285681498
  0
LINE
  5
BA
330
75
100
AcDbEntity
  8
02636038_GEHÄUSE
  6
Continuous
 62
     7
100
AcDbLine
 10
38.7773118504
 20
439.686586557
 30
0.0
 11
38.7773118504
 21
438.0403401377
 31
0.0
  0
LINE
  5
BB
330
75
100
AcDbEntity
  8
02636038_GEHÄUSE
  6
Continuous
 62
     7
100
AcDbLine
 10
38.7773118504
 20
438.0403401377
 30
0.0
 11
38.7773118504
 21
436.5436268541
 31
0.0
  0
LINE
  5
BC
330
75
100
AcDbEntity
  8
02636038_GEHÄUSE
  6
Continuous
 62
     7
100
AcDbLine
 10
38.7773118504
 20
434.1339994761
 30
0.0
 11
38.7773118504
 21
434.3574196859
 31
0.0
  0
ELLIPSE
  5
BD
330
75
100
AcDbEntity
  8
02636038_GEHÄUSE
  6
Continuous
 62
     7
100
AcDbEllipse
 10
49.7773118504
 20
435.45052327
 30
0.0
 11
11.29999999999998
 21
-1.387778780781446E-14
 31
0.0
210
0.0
220
0.0
230
1.0
 40
0.4226182617
 41
-0.9401873039794717
 42
-0.8505335476798432
  0
ELLIPSE
  5
BE
330
75
100
AcDbEntity
  8
02636038_GEHÄUSE
  6
Continuous
 62
     7
100
AcDbEllipse
 10
49.7773118504
 20
435.45052327
 30
0.0
 11
11.29999999999998
 21
-1.387778780781446E-14
 31
0.0
210
0.0
220
0.0
230
1.0
 40
0.4226182617
 41
3.968514643712418
 42
4.081779957569271
  0
LINE
  5
BF
330
75
100
AcDbEntity
  8
02636038_GEHÄUSE
  6
Continuous
 62
     7
100
AcDbLine
 10
60.7773118504
 20
434.3574196859
 30
0.0
 11
60.7773118504
 21
436.5436268541
 31
0.0
  0
ELLIPSE
  5
C0
330
75
100
AcDbEntity
  8
02636038_GEHÄUSE
  6
Continuous
 62
     7
100
AcDbEllipse
 10
49.7773118504
 20
437.8816552564
 30
0.0
 11
-11.79999999999996
 21
0.0
 31
0.0
210
0.0
220
0.0
230
1.0
 40
0.4226182617
 41
2.771250021498075
 42
3.51193528568151
  0
LINE
  5
C1
330
75
100
AcDbEntity
  8
02636038_GEHÄUSE
  6
Continuous
 62
     7
100
AcDbLine
 10
60.7773118504
 20
434.3574196859
 30
0.0
 11
60.7773118504
 21
434.1336870633
 31
0.0
  0
LINE
  5
C2
330
75
100
AcDbEntity
  8
02636038_GEHÄUSE
  6
Continuous
 62
     7
100
AcDbLine
 10
60.7773118504
 20
436.5436268541
 30
0.0
 11
60.7773118504
 21
438.0403401377
 31
0.0
  0
LINE
  5
C3
330
75
100
AcDbEntity
  8
02636038_GEHÄUSE
  6
Continuous
 62
     7
100
AcDbLine
 10
60.7773118504
 20
438.0403401377
 30
0.0
 11
60.7773118504
 21
439.686586557
 31
0.0
  0
LINE
  5
C4
330
75
100
AcDbEntity
  8
02636038_GEHÄUSE
  6
Continuous
 62
     7
100
AcDbLine
 10
43.1144165094
 20
431.593432333
 30
0.0
 11
43.4387167251
 21
431.493375473
 31
0.0
  0
LINE
  5
C5
330
75
100
AcDbEntity
  8
02636038_GEHÄUSE
  6
Continuous
 62
     7
100
AcDbLine
 10
56.1159069757
 20
431.493375473
 30
0.0
 11
56.4402071914
 21
431.593432333
 31
0.0
  0
ARC
  5
C6
330
75
100
AcDbEntity
  8
02636038_GEHÄUSE
  6
Continuous
 62
     7
100
AcDbCircle
 10
54.8375166565
 20
439.4860253786
 30
0.0
 40
7.98952022917678
100
AcDbArc
 50
287.5486914414
 51
318.0264152583
  0
ARC
  5
C7
330
75
100
AcDbEntity
  8
02636038_GEHÄUSE
  6
Continuous
 62
     7
100
AcDbCircle
 10
44.5970815934
 20
439.3410545862
 30
0.0
 40
7.804431309040859
100
AcDbArc
 50
221.777969001
 51
251.3558460266
  0
LINE
  5
C8
330
75
100
AcDbEntity
  8
02636038_GEHÄUSE
  6
Continuous
 62
     7
100
AcDbLine
 10
37.9773118504
 20
442.8663480851
 30
0.0
 11
37.9773118504
 21
437.8816552564
 31
0.0
  0
LINE
  5
C9
330
75
100
AcDbEntity
  8
02636038_GEHÄUSE
  6
Continuous
 62
     7
100
AcDbLine
 10
61.5773118504
 20
437.8816552564
 30
0.0
 11
61.5773118504
 21
442.8663480851
 31
0.0
  0
ELLIPSE
  5
CB
330
75
100
AcDbEntity
  8
$DDT_AUDIT_GENERATED_(CA)
  6
Continuous
 62
     7
100
AcDbEllipse
 10
49.7773118504
 20
435.253362674
 30
0.0
 11
8.250000000000002
 21
0.0
 31
0.0
210
0.0
220
0.0
230
1.0
 40
0.4226182617
 41
0.0
 42
6.283185307179586
  0
ELLIPSE
  5
CC
330
75
100
AcDbEntity
  8
$DDT_AUDIT_GENERATED_(CA)
  6
Continuous
 62
     7
100
AcDbEllipse
 10
49.7773118504
 20
435.253362674
 30
0.0
 11
9.400000000000004
 21
0.0
 31
0.0
210
0.0
220
0.0
230
1.0
 40
0.4226182617
 41
0.0
 42
6.283185307179586
  0
ELLIPSE
  5
CD
330
75
100
AcDbEntity
  8
$DDT_AUDIT_GENERATED_(CA)
  6
Continuous
 62
     7
100
AcDbEllipse
 10
49.7773118504
 20
436.3182743238
 30
0.0
 11
-9.400000000001295
 21
0.0
 31
0.0
210
0.0
220
0.0
230
1.0
 40
0.4226182617
 41
3.141592653589793
 42
3.231593862224925
  0
ELLIPSE
  5
CE
330
75
100
AcDbEntity
  8
$DDT_AUDIT_GENERATED_(CA)
  6
Continuous
 62
     7
100
AcDbEllipse
 10
49.7773118504
 20
436.8847166907
 30
0.0
 11
-10.02500000000202
 21
0.0
 31
0.0
210
0.0
220
0.0
230
1.0
 40
0.4226182617
 41
-3.361282931559347
 42
-3.346792771233053
  0
LINE
  5
CF
330
75
100
AcDbEntity
  8
$DDT_AUDIT_GENERATED_(CA)
  6
Continuous
 62
     7
100
AcDbLine
 10
59.1773118504
 20
435.6728843991
 30
0.0
 11
59.5613609057
 21
435.9614133863
 31
0.0
  0
LINE
  5
D0
330
75
100
AcDbEntity
  8
$DDT_AUDIT_GENERATED_(CA)
  6
Continuous
 62
     7
100
AcDbLine
 10
39.9932627952
 20
435.9614133863
 30
0.0
 11
40.3773118504
 21
435.6728843991
 31
0.0
  0
ELLIPSE
  5
D1
330
75
100
AcDbEntity
  8
$DDT_AUDIT_GENERATED_(CA)
  6
Continuous
 62
     7
100
AcDbEllipse
 10
49.7773118504
 20
436.3182743238
 30
0.0
 11
9.399999999999075
 21
-1.387778780781446E-14
 31
0.0
210
0.0
220
0.0
230
1.0
 40
0.4226182617
 41
3.051591444954671
 42
3.141592653589782
  0
ELLIPSE
  5
D2
330
75
100
AcDbEntity
  8
$DDT_AUDIT_GENERATED_(CA)
  6
Continuous
 62
     7
100
AcDbEllipse
 10
49.7773118504
 20
436.8847166907
 30
0.0
 11
10.02499999999919
 21
1.387778780781446E-14
 31
0.0
210
0.0
220
0.0
230
1.0
 40
0.4226182617
 41
3.346792771233074
 42
3.361282931559373
  0
LINE
  5
D3
330
75
100
AcDbEntity
  8
$DDT_AUDIT_GENERATED_(CA)
  6
Continuous
 62
     7
100
AcDbLine
 10
49.2773118504
 20
435.4952074367
 30
0.0
 11
49.2773118504
 21
435.9178256984
 31
0.0
  0
LINE
  5
D4
330
75
100
AcDbEntity
  8
$DDT_AUDIT_GENERATED_(CA)
  6
Continuous
 62
     7
100
AcDbLine
 10
49.2773118504
 20
435.9178256984
 30
0.0
 11
50.2773118504
 21
435.9178256984
 31
0.0
  0
LINE
  5
D5
330
75
100
AcDbEntity
  8
$DDT_AUDIT_GENERATED_(CA)
  6
Continuous
 62
     7
100
AcDbLine
 10
49.2773118504
 20
436.0023493508
 30
0.0
 11
49.2773118504
 21
436.4249676125
 31
0.0
  0
LINE
  5
D6
330
75
100
AcDbEntity
  8
$DDT_AUDIT_GENERATED_(CA)
  6
Continuous
 62
     7
100
AcDbLine
 10
49.2773118504
 20
436.4249676125
 30
0.0
 11
50.2773118504
 21
436.4249676125
 31
0.0
  0
LINE
  5
D7
330
75
100
AcDbEntity
  8
$DDT_AUDIT_GENERATED_(CA)
  6
Continuous
 62
     7
100
AcDbLine
 10
50.2773118504
 20
436.0023493508
 30
0.0
 11
49.2773118504
 21
436.0023493508
 31
0.0
  0
LINE
  5
D8
330
75
100
AcDbEntity
  8
$DDT_AUDIT_GENERATED_(CA)
  6
Continuous
 62
     7
100
AcDbLine
 10
49.2773118504
 20
436.5094912649
 30
0.0
 11
49.2773118504
 21
436.9321095266
 31
0.0
  0
LINE
  5
D9
330
75
100
AcDbEntity
  8
$DDT_AUDIT_GENERATED_(CA)
  6
Continuous
 62
     7
100
AcDbLine
 10
49.2773118504
 20
436.9321095266
 30
0.0
 11
50.2773118504
 21
436.9321095266
 31
0.0
  0
LINE
  5
DA
330
75
100
AcDbEntity
  8
$DDT_AUDIT_GENERATED_(CA)
  6
Continuous
 62
     7
100
AcDbLine
 10
50.2773118504
 20
436.5094912649
 30
0.0
 11
49.2773118504
 21
436.5094912649
 31
0.0
  0
LINE
  5
DB
330
75
100
AcDbEntity
  8
$DDT_AUDIT_GENERATED_(CA)
  6
Continuous
 62
     7
100
AcDbLine
 10
49.2773118504
 20
437.0166331789
 30
0.0
 11
49.2773118504
 21
437.4392514407
 31
0.0
  0
LINE
  5
DC
330
75
100
AcDbEntity
  8
$DDT_AUDIT_GENERATED_(CA)
  6
Continuous
 62
     7
100
AcDbLine
 10
49.2773118504
 20
437.4392514407
 30
0.0
 11
50.2773118504
 21
437.4392514407
 31
0.0
  0
LINE
  5
DD
330
75
100
AcDbEntity
  8
$DDT_AUDIT_GENERATED_(CA)
  6
Continuous
 62
     7
100
AcDbLine
 10
50.2773118504
 20
437.0166331789
 30
0.0
 11
49.2773118504
 21
437.0166331789
 31
0.0
  0
LINE
  5
DE
330
75
100
AcDbEntity
  8
$DDT_AUDIT_GENERATED_(CA)
  6
Continuous
 62
     7
100
AcDbLine
 10
49.2773118504
 20
437.523775093
 30
0.0
 11
49.2773118504
 21
437.9463933548
 31
0.0
  0
LINE
  5
DF
330
75
100
AcDbEntity
  8
$DDT_AUDIT_GENERATED_(CA)
  6
Continuous
 62
     7
100
AcDbLine
 10
49.2773118504
 20
437.9463933548
 30
0.0
 11
50.2773118504
 21
437.9463933548
 31
0.0
  0
LINE
  5
E0
330
75
100
AcDbEntity
  8
$DDT_AUDIT_GENERATED_(CA)
  6
Continuous
 62
     7
100
AcDbLine
 10
50.2773118504
 20
437.523775093
 30
0.0
 11
49.2773118504
 21
437.523775093
 31
0.0
  0
LINE
  5
E1
330
75
100
AcDbEntity
  8
$DDT_AUDIT_GENERATED_(CA)
  6
Continuous
 62
     7
100
AcDbLine
 10
49.2773118504
 20
438.0309170071
 30
0.0
 11
49.2773118504
 21
438.4535352689
 31
0.0
  0
LINE
  5
E2
330
75
100
AcDbEntity
  8
$DDT_AUDIT_GENERATED_(CA)
  6
Continuous
 62
     7
100
AcDbLine
 10
49.2773118504
 20
438.4535352689
 30
0.0
 11
50.2773118504
 21
438.4535352689
 31
0.0
  0
LINE
  5
E3
330
75
100
AcDbEntity
  8
$DDT_AUDIT_GENERATED_(CA)
  6
Continuous
 62
     7
100
AcDbLine
 10
50.2773118504
 20
438.0309170071
 30
0.0
 11
49.2773118504
 21
438.0309170071
 31
0.0
  0
LINE
  5
E4
330
75
100
AcDbEntity
  8
$DDT_AUDIT_GENERATED_(CA)
  6
Continuous
 62
     7
100
AcDbLine
 10
49.2773118504
 20
438.5380589212
 30
0.0
 11
49.2773118504
 21
438.7335541356
 31
0.0
  0
LINE
  5
E5
330
75
100
AcDbEntity
  8
$DDT_AUDIT_GENERATED_(CA)
  6
Continuous
 62
     7
100
AcDbLine
 10
50.2773118504
 20
438.5380589212
 30
0.0
 11
49.2773118504
 21
438.5380589212
 31
0.0
  0
LINE
  5
E6
330
75
100
AcDbEntity
  8
$DDT_AUDIT_GENERATED_(CA)
  6
Continuous
 62
     7
100
AcDbLine
 10
48.0773118504
 20
435.4952074367
 30
0.0
 11
48.0773118504
 21
435.9178256984
 31
0.0
  0
LINE
  5
E7
330
75
100
AcDbEntity
  8
$DDT_AUDIT_GENERATED_(CA)
  6
Continuous
 62
     7
100
AcDbLine
 10
48.0773118504
 20
435.9178256984
 30
0.0
 11
49.0773118504
 21
435.9178256984
 31
0.0
  0
LINE
  5
E8
330
75
100
AcDbEntity
  8
$DDT_AUDIT_GENERATED_(CA)
  6
Continuous
 62
     7
100
AcDbLine
 10
49.0773118504
 20
435.9178256984
 30
0.0
 11
49.0773118504
 21
435.4952074367
 31
0.0
  0
LINE
  5
E9
330
75
100
AcDbEntity
  8
$DDT_AUDIT_GENERATED_(CA)
  6
Continuous
 62
     7
100
AcDbLine
 10
48.0773118504
 20
436.0023493508
 30
0.0
 11
48.0773118504
 21
436.4249676125
 31
0.0
  0
LINE
  5
EA
330
75
100
AcDbEntity
  8
$DDT_AUDIT_GENERATED_(CA)
  6
Continuous
 62
     7
100
AcDbLine
 10
48.0773118504
 20
436.4249676125
 30
0.0
 11
49.0773118504
 21
436.4249676125
 31
0.0
  0
LINE
  5
EB
330
75
100
AcDbEntity
  8
$DDT_AUDIT_GENERATED_(CA)
  6
Continuous
 62
     7
100
AcDbLine
 10
49.0773118504
 20
436.4249676125
 30
0.0
 11
49.0773118504
 21
436.0023493508
 31
0.0
  0
LINE
  5
EC
330
75
100
AcDbEntity
  8
$DDT_AUDIT_GENERATED_(CA)
  6
Continuous
 62
     7
100
AcDbLine
 10
49.0773118504
 20
436.0023493508
 30
0.0
 11
48.0773118504
 21
436.0023493508
 31
0.0
  0
LINE
  5
ED
330
75
100
AcDbEntity
  8
$DDT_AUDIT_GENERATED_(CA)
  6
Continuous
 62
     7
100
AcDbLine
 10
48.0773118504
 20
436.5094912649
 30
0.0
 11
48.0773118504
 21
436.9321095266
 31
0.0
  0
LINE
  5
EE
330
75
100
AcDbEntity
  8
$DDT_AUDIT_GENERATED_(CA)
  6
Continuous
 62
     7
100
AcDbLine
 10
48.0773118504
 20
436.9321095266
 30
0.0
 11
49.0773118504
 21
436.9321095266
 31
0.0
  0
LINE
  5
EF
330
75
100
AcDbEntity
  8
$DDT_AUDIT_GENERATED_(CA)
  6
Continuous
 62
     7
100
AcDbLine
 10
49.0773118504
 20
436.9321095266
 30
0.0
 11
49.0773118504
 21
436.5094912649
 31
0.0
  0
LINE
  5
F0
330
75
100
AcDbEntity
  8
$DDT_AUDIT_GENERATED_(CA)
  6
Continuous
 62
     7
100
AcDbLine
 10
49.0773118504
 20
436.5094912649
 30
0.0
 11
48.0773118504
 21
436.5094912649
 31
0.0
  0
LINE
  5
F1
330
75
100
AcDbEntity
  8
$DDT_AUDIT_GENERATED_(CA)
  6
Continuous
 62
     7
100
AcDbLine
 10
48.0773118504
 20
437.0166331789
 30
0.0
 11
48.0773118504
 21
437.4392514407
 31
0.0
  0
LINE
  5
F2
330
75
100
AcDbEntity
  8
$DDT_AUDIT_GENERATED_(CA)
  6
Continuous
 62
     7
100
AcDbLine
 10
48.0773118504
 20
437.4392514407
 30
0.0
 11
49.0773118504
 21
437.4392514407
 31
0.0
  0
LINE
  5
F3
330
75
100
AcDbEntity
  8
$DDT_AUDIT_GENERATED_(CA)
  6
Continuous
 62
     7
100
AcDbLine
 10
49.0773118504
 20
437.4392514407
 30
0.0
 11
49.0773118504
 21
437.0166331789
 31
0.0
  0
LINE
  5
F4
330
75
100
AcDbEntity
  8
$DDT_AUDIT_GENERATED_(CA)
  6
Continuous
 62
     7
100
AcDbLine
 10
49.0773118504
 20
437.0166331789
 30
0.0
 11
48.0773118504
 21
437.0166331789
 31
0.0
  0
LINE
  5
F5
330
75
100
AcDbEntity
  8
$DDT_AUDIT_GENERATED_(CA)
  6
Continuous
 62
     7
100
AcDbLine
 10
48.0773118504
 20
437.523775093
 30
0.0
 11
48.0773118504
 21
437.9463933548
 31
0.0
  0
LINE
  5
F6
330
75
100
AcDbEntity
  8
$DDT_AUDIT_GENERATED_(CA)
  6
Continuous
 62
     7
100
AcDbLine
 10
48.0773118504
 20
437.9463933548
 30
0.0
 11
49.0773118504
 21
437.9463933548
 31
0.0
  0
LINE
  5
F7
330
75
100
AcDbEntity
  8
$DDT_AUDIT_GENERATED_(CA)
  6
Continuous
 62
     7
100
AcDbLine
 10
49.0773118504
 20
437.9463933548
 30
0.0
 11
49.0773118504
 21
437.523775093
 31
0.0
  0
LINE
  5
F8
330
75
100
AcDbEntity
  8
$DDT_AUDIT_GENERATED_(CA)
  6
Continuous
 62
     7
100
AcDbLine
 10
49.0773118504
 20
437.523775093
 30
0.0
 11
48.0773118504
 21
437.523775093
 31
0.0
  0
LINE
  5
F9
330
75
100
AcDbEntity
  8
$DDT_AUDIT_GENERATED_(CA)
  6
Continuous
 62
     7
100
AcDbLine
 10
48.0773118504
 20
438.0309170071
 30
0.0
 11
48.0773118504
 21
438.4535352689
 31
0.0
  0
LINE
  5
FA
330
75
100
AcDbEntity
  8
$DDT_AUDIT_GENERATED_(CA)
  6
Continuous
 62
     7
100
AcDbLine
 10
48.0773118504
 20
438.4535352689
 30
0.0
 11
49.0773118504
 21
438.4535352689
 31
0.0
  0
LINE
  5
FB
330
75
100
AcDbEntity
  8
$DDT_AUDIT_GENERATED_(CA)
  6
Continuous
 62
     7
100
AcDbLine
 10
49.0773118504
 20
438.4535352689
 30
0.0
 11
49.0773118504
 21
438.0309170071
 31
0.0
  0
LINE
  5
FC
330
75
100
AcDbEntity
  8
$DDT_AUDIT_GENERATED_(CA)
  6
Continuous
 62
     7
100
AcDbLine
 10
49.0773118504
 20
438.0309170071
 30
0.0
 11
48.0773118504
 21
438.0309170071
 31
0.0
  0
LINE
  5
FD
330
75
100
AcDbEntity
  8
$DDT_AUDIT_GENERATED_(CA)
  6
Continuous
 62
     7
100
AcDbLine
 10
48.0773118504
 20
438.5380589212
 30
0.0
 11
48.0773118504
 21
438.6651382021
 31
0.0
  0
LINE
  5
FE
330
75
100
AcDbEntity
  8
$DDT_AUDIT_GENERATED_(CA)
  6
Continuous
 62
     7
100
AcDbLine
 10
49.0773118504
 20
438.7273901814
 30
0.0
 11
49.0773118504
 21
438.5380589212
 31
0.0
  0
LINE
  5
FF
330
75
100
AcDbEntity
  8
$DDT_AUDIT_GENERATED_(CA)
  6
Continuous
 62
     7
100
AcDbLine
 10
49.0773118504
 20
438.5380589212
 30
0.0
 11
48.0773118504
 21
438.5380589212
 31
0.0
  0
LINE
  5
100
330
75
100
AcDbEntity
  8
$DDT_AUDIT_GENERATED_(CA)
  6
Continuous
 62
     7
100
AcDbLine
 10
46.8773118504
 20
435.4952074367
 30
0.0
 11
46.8773118504
 21
435.9178256984
 31
0.0
  0
LINE
  5
101
330
75
100
AcDbEntity
  8
$DDT_AUDIT_GENERATED_(CA)
  6
Continuous
 62
     7
100
AcDbLine
 10
46.8773118504
 20
435.9178256984
 30
0.0
 11
47.8773118504
 21
435.9178256984
 31
0.0
  0
LINE
  5
102
330
75
100
AcDbEntity
  8
$DDT_AUDIT_GENERATED_(CA)
  6
Continuous
 62
     7
100
AcDbLine
 10
47.8773118504
 20
435.9178256984
 30
0.0
 11
47.8773118504
 21
435.4952074367
 31
0.0
  0
LINE
  5
103
330
75
100
AcDbEntity
  8
$DDT_AUDIT_GENERATED_(CA)
  6
Continuous
 62
     7
100
AcDbLine
 10
46.8773118504
 20
436.0023493508
 30
0.0
 11
46.8773118504
 21
436.4249676125
 31
0.0
  0
LINE
  5
104
330
75
100
AcDbEntity
  8
$DDT_AUDIT_GENERATED_(CA)
  6
Continuous
 62
     7
100
AcDbLine
 10
46.8773118504
 20
436.4249676125
 30
0.0
 11
47.8773118504
 21
436.4249676125
 31
0.0
  0
LINE
  5
105
330
75
100
AcDbEntity
  8
$DDT_AUDIT_GENERATED_(CA)
  6
Continuous
 62
     7
100
AcDbLine
 10
47.8773118504
 20
436.4249676125
 30
0.0
 11
47.8773118504
 21
436.0023493508
 31
0.0
  0
LINE
  5
106
330
75
100
AcDbEntity
  8
$DDT_AUDIT_GENERATED_(CA)
  6
Continuous
 62
     7
100
AcDbLine
 10
47.8773118504
 20
436.0023493508
 30
0.0
 11
46.8773118504
 21
436.0023493508
 31
0.0
  0
LINE
  5
107
330
75
100
AcDbEntity
  8
$DDT_AUDIT_GENERATED_(CA)
  6
Continuous
 62
     7
100
AcDbLine
 10
46.8773118504
 20
436.5094912649
 30
0.0
 11
46.8773118504
 21
436.9321095266
 31
0.0
  0
LINE
  5
108
330
75
100
AcDbEntity
  8
$DDT_AUDIT_GENERATED_(CA)
  6
Continuous
 62
     7
100
AcDbLine
 10
46.8773118504
 20
436.9321095266
 30
0.0
 11
47.8773118504
 21
436.9321095266
 31
0.0
  0
LINE
  5
109
330
75
100
AcDbEntity
  8
$DDT_AUDIT_GENERATED_(CA)
  6
Continuous
 62
     7
100
AcDbLine
 10
47.8773118504
 20
436.9321095266
 30
0.0
 11
47.8773118504
 21
436.5094912649
 31
0.0
  0
LINE
  5
10A
330
75
100
AcDbEntity
  8
$DDT_AUDIT_GENERATED_(CA)
  6
Continuous
 62
     7
100
AcDbLine
 10
47.8773118504
 20
436.5094912649
 30
0.0
 11
46.8773118504
 21
436.5094912649
 31
0.0
  0
LINE
  5
10B
330
75
100
AcDbEntity
  8
$DDT_AUDIT_GENERATED_(CA)
  6
Continuous
 62
     7
100
AcDbLine
 10
46.8773118504
 20
437.0166331789
 30
0.0
 11
46.8773118504
 21
437.4392514407
 31
0.0
  0
LINE
  5
10C
330
75
100
AcDbEntity
  8
$DDT_AUDIT_GENERATED_(CA)
  6
Continuous
 62
     7
100
AcDbLine
 10
46.8773118504
 20
437.4392514407
 30
0.0
 11
47.8773118504
 21
437.4392514407
 31
0.0
  0
LINE
  5
10D
330
75
100
AcDbEntity
  8
$DDT_AUDIT_GENERATED_(CA)
  6
Continuous
 62
     7
100
AcDbLine
 10
47.8773118504
 20
437.4392514407
 30
0.0
 11
47.8773118504
 21
437.0166331789
 31
0.0
  0
LINE
  5
10E
330
75
100
AcDbEntity
  8
$DDT_AUDIT_GENERATED_(CA)
  6
Continuous
 62
     7
100
AcDbLine
 10
47.8773118504
 20
437.0166331789
 30
0.0
 11
46.8773118504
 21
437.0166331789
 31
0.0
  0
LINE
  5
10F
330
75
100
AcDbEntity
  8
$DDT_AUDIT_GENERATED_(CA)
  6
Continuous
 62
     7
100
AcDbLine
 10
46.8773118504
 20
437.523775093
 30
0.0
 11
46.8773118504
 21
437.9463933548
 31
0.0
  0
LINE
  5
110
330
75
100
AcDbEntity
  8
$DDT_AUDIT_GENERATED_(CA)
  6
Continuous
 62
     7
100
AcDbLine
 10
46.8773118504
 20
437.9463933548
 30
0.0
 11
47.8773118504
 21
437.9463933548
 31
0.0
  0
LINE
  5
111
330
75
100
AcDbEntity
  8
$DDT_AUDIT_GENERATED_(CA)
  6
Continuous
 62
     7
100
AcDbLine
 10
47.8773118504
 20
437.9463933548
 30
0.0
 11
47.8773118504
 21
437.523775093
 31
0.0
  0
LINE
  5
112
330
75
100
AcDbEntity
  8
$DDT_AUDIT_GENERATED_(CA)
  6
Continuous
 62
     7
100
AcDbLine
 10
47.8773118504
 20
437.523775093
 30
0.0
 11
46.8773118504
 21
437.523775093
 31
0.0
  0
LINE
  5
113
330
75
100
AcDbEntity
  8
$DDT_AUDIT_GENERATED_(CA)
  6
Continuous
 62
     7
100
AcDbLine
 10
46.8773118504
 20
438.0309170071
 30
0.0
 11
46.8773118504
 21
438.4535352689
 31
0.0
  0
LINE
  5
114
330
75
100
AcDbEntity
  8
$DDT_AUDIT_GENERATED_(CA)
  6
Continuous
 62
     7
100
AcDbLine
 10
46.8773118504
 20
438.4535352689
 30
0.0
 11
47.8773118504
 21
438.4535352689
 31
0.0
  0
LINE
  5
115
330
75
100
AcDbEntity
  8
$DDT_AUDIT_GENERATED_(CA)
  6
Continuous
 62
     7
100
AcDbLine
 10
47.8773118504
 20
438.4535352689
 30
0.0
 11
47.8773118504
 21
438.0309170071
 31
0.0
  0
LINE
  5
116
330
75
100
AcDbEntity
  8
$DDT_AUDIT_GENERATED_(CA)
  6
Continuous
 62
     7
100
AcDbLine
 10
47.8773118504
 20
438.0309170071
 30
0.0
 11
46.8773118504
 21
438.0309170071
 31
0.0
  0
LINE
  5
117
330
75
100
AcDbEntity
  8
$DDT_AUDIT_GENERATED_(CA)
  6
Continuous
 62
     7
100
AcDbLine
 10
45.6773118504
 20
435.4952074367
 30
0.0
 11
45.6773118504
 21
435.9178256984
 31
0.0
  0
LINE
  5
118
330
75
100
AcDbEntity
  8
$DDT_AUDIT_GENERATED_(CA)
  6
Continuous
 62
     7
100
AcDbLine
 10
45.6773118504
 20
435.9178256984
 30
0.0
 11
46.6773118504
 21
435.9178256984
 31
0.0
  0
LINE
  5
119
330
75
100
AcDbEntity
  8
$DDT_AUDIT_GENERATED_(CA)
  6
Continuous
 62
     7
100
AcDbLine
 10
46.6773118504
 20
435.9178256984
 30
0.0
 11
46.6773118504
 21
435.4952074367
 31
0.0
  0
LINE
  5
11A
330
75
100
AcDbEntity
  8
$DDT_AUDIT_GENERATED_(CA)
  6
Continuous
 62
     7
100
AcDbLine
 10
45.6773118504
 20
436.0023493508
 30
0.0
 11
45.6773118504
 21
436.4249676125
 31
0.0
  0
LINE
  5
11B
330
75
100
AcDbEntity
  8
$DDT_AUDIT_GENERATED_(CA)
  6
Continuous
 62
     7
100
AcDbLine
 10
45.6773118504
 20
436.4249676125
 30
0.0
 11
46.6773118504
 21
436.4249676125
 31
0.0
  0
LINE
  5
11C
330
75
100
AcDbEntity
  8
$DDT_AUDIT_GENERATED_(CA)
  6
Continuous
 62
     7
100
AcDbLine
 10
46.6773118504
 20
436.4249676125
 30
0.0
 11
46.6773118504
 21
436.0023493508
 31
0.0
  0
LINE
  5
11D
330
75
100
AcDbEntity
  8
$DDT_AUDIT_GENERATED_(CA)
  6
Continuous
 62
     7
100
AcDbLine
 10
46.6773118504
 20
436.0023493508
 30
0.0
 11
45.6773118504
 21
436.0023493508
 31
0.0
  0
LINE
  5
11E
330
75
100
AcDbEntity
  8
$DDT_AUDIT_GENERATED_(CA)
  6
Continuous
 62
     7
100
AcDbLine
 10
45.6773118504
 20
436.5094912649
 30
0.0
 11
45.6773118504
 21
436.9321095266
 31
0.0
  0
LINE
  5
11F
330
75
100
AcDbEntity
  8
$DDT_AUDIT_GENERATED_(CA)
  6
Continuous
 62
     7
100
AcDbLine
 10
45.6773118504
 20
436.9321095266
 30
0.0
 11
46.6773118504
 21
436.9321095266
 31
0.0
  0
LINE
  5
120
330
75
100
AcDbEntity
  8
$DDT_AUDIT_GENERATED_(CA)
  6
Continuous
 62
     7
100
AcDbLine
 10
46.6773118504
 20
436.9321095266
 30
0.0
 11
46.6773118504
 21
436.5094912649
 31
0.0
  0
LINE
  5
121
330
75
100
AcDbEntity
  8
$DDT_AUDIT_GENERATED_(CA)
  6
Continuous
 62
     7
100
AcDbLine
 10
46.6773118504
 20
436.5094912649
 30
0.0
 11
45.6773118504
 21
436.5094912649
 31
0.0
  0
LINE
  5
122
330
75
100
AcDbEntity
  8
$DDT_AUDIT_GENERATED_(CA)
  6
Continuous
 62
     7
100
AcDbLine
 10
45.6773118504
 20
437.0166331789
 30
0.0
 11
45.6773118504
 21
437.4392514407
 31
0.0
  0
LINE
  5
123
330
75
100
AcDbEntity
  8
$DDT_AUDIT_GENERATED_(CA)
  6
Continuous
 62
     7
100
AcDbLine
 10
45.6773118504
 20
437.4392514407
 30
0.0
 11
46.6773118504
 21
437.4392514407
 31
0.0
  0
LINE
  5
124
330
75
100
AcDbEntity
  8
$DDT_AUDIT_GENERATED_(CA)
  6
Continuous
 62
     7
100
AcDbLine
 10
46.6773118504
 20
437.4392514407
 30
0.0
 11
46.6773118504
 21
437.0166331789
 31
0.0
  0
LINE
  5
125
330
75
100
AcDbEntity
  8
$DDT_AUDIT_GENERATED_(CA)
  6
Continuous
 62
     7
100
AcDbLine
 10
46.6773118504
 20
437.0166331789
 30
0.0
 11
45.6773118504
 21
437.0166331789
 31
0.0
  0
LINE
  5
126
330
75
100
AcDbEntity
  8
$DDT_AUDIT_GENERATED_(CA)
  6
Continuous
 62
     7
100
AcDbLine
 10
45.6773118504
 20
437.523775093
 30
0.0
 11
45.6773118504
 21
437.9463933548
 31
0.0
  0
LINE
  5
127
330
75
100
AcDbEntity
  8
$DDT_AUDIT_GENERATED_(CA)
  6
Continuous
 62
     7
100
AcDbLine
 10
45.6773118504
 20
437.9463933548
 30
0.0
 11
46.6773118504
 21
437.9463933548
 31
0.0
  0
LINE
  5
128
330
75
100
AcDbEntity
  8
$DDT_AUDIT_GENERATED_(CA)
  6
Continuous
 62
     7
100
AcDbLine
 10
46.6773118504
 20
437.9463933548
 30
0.0
 11
46.6773118504
 21
437.523775093
 31
0.0
  0
LINE
  5
129
330
75
100
AcDbEntity
  8
$DDT_AUDIT_GENERATED_(CA)
  6
Continuous
 62
     7
100
AcDbLine
 10
46.6773118504
 20
437.523775093
 30
0.0
 11
45.6773118504
 21
437.523775093
 31
0.0
  0
LINE
  5
12A
330
75
100
AcDbEntity
  8
$DDT_AUDIT_GENERATED_(CA)
  6
Continuous
 62
     7
100
AcDbLine
 10
46.5026397243
 20
438.4535352689
 30
0.0
 11
46.6773118504
 21
438.4535352689
 31
0.0
  0
LINE
  5
12B
330
75
100
AcDbEntity
  8
$DDT_AUDIT_GENERATED_(CA)
  6
Continuous
 62
     7
100
AcDbLine
 10
45.6773118504
 20
438.0309170071
 30
0.0
 11
45.6773118504
 21
438.2789227903
 31
0.0
  0
LINE
  5
12C
330
75
100
AcDbEntity
  8
$DDT_AUDIT_GENERATED_(CA)
  6
Continuous
 62
     7
100
AcDbLine
 10
46.6773118504
 20
438.4535352689
 30
0.0
 11
46.6773118504
 21
438.0309170071
 31
0.0
  0
LINE
  5
12D
330
75
100
AcDbEntity
  8
$DDT_AUDIT_GENERATED_(CA)
  6
Continuous
 62
     7
100
AcDbLine
 10
46.6773118504
 20
438.0309170071
 30
0.0
 11
45.6773118504
 21
438.0309170071
 31
0.0
  0
LINE
  5
12E
330
75
100
AcDbEntity
  8
$DDT_AUDIT_GENERATED_(CA)
  6
Continuous
 62
     7
100
AcDbLine
 10
44.4773118504
 20
435.4952074367
 30
0.0
 11
44.4773118504
 21
435.9178256984
 31
0.0
  0
LINE
  5
12F
330
75
100
AcDbEntity
  8
$DDT_AUDIT_GENERATED_(CA)
  6
Continuous
 62
     7
100
AcDbLine
 10
44.4773118504
 20
435.9178256984
 30
0.0
 11
45.4773118504
 21
435.9178256984
 31
0.0
  0
LINE
  5
130
330
75
100
AcDbEntity
  8
$DDT_AUDIT_GENERATED_(CA)
  6
Continuous
 62
     7
100
AcDbLine
 10
45.4773118504
 20
435.9178256984
 30
0.0
 11
45.4773118504
 21
435.4952074367
 31
0.0
  0
LINE
  5
131
330
75
100
AcDbEntity
  8
$DDT_AUDIT_GENERATED_(CA)
  6
Continuous
 62
     7
100
AcDbLine
 10
44.4773118504
 20
436.0023493508
 30
0.0
 11
44.4773118504
 21
436.4249676125
 31
0.0
  0
LINE
  5
132
330
75
100
AcDbEntity
  8
$DDT_AUDIT_GENERATED_(CA)
  6
Continuous
 62
     7
100
AcDbLine
 10
44.4773118504
 20
436.4249676125
 30
0.0
 11
45.4773118504
 21
436.4249676125
 31
0.0
  0
LINE
  5
133
330
75
100
AcDbEntity
  8
$DDT_AUDIT_GENERATED_(CA)
  6
Continuous
 62
     7
100
AcDbLine
 10
45.4773118504
 20
436.4249676125
 30
0.0
 11
45.4773118504
 21
436.0023493508
 31
0.0
  0
LINE
  5
134
330
75
100
AcDbEntity
  8
$DDT_AUDIT_GENERATED_(CA)
  6
Continuous
 62
     7
100
AcDbLine
 10
45.4773118504
 20
436.0023493508
 30
0.0
 11
44.4773118504
 21
436.0023493508
 31
0.0
  0
LINE
  5
135
330
75
100
AcDbEntity
  8
$DDT_AUDIT_GENERATED_(CA)
  6
Continuous
 62
     7
100
AcDbLine
 10
44.4773118504
 20
436.5094912649
 30
0.0
 11
44.4773118504
 21
436.9321095266
 31
0.0
  0
LINE
  5
136
330
75
100
AcDbEntity
  8
$DDT_AUDIT_GENERATED_(CA)
  6
Continuous
 62
     7
100
AcDbLine
 10
44.4773118504
 20
436.9321095266
 30
0.0
 11
45.4773118504
 21
436.9321095266
 31
0.0
  0
LINE
  5
137
330
75
100
AcDbEntity
  8
$DDT_AUDIT_GENERATED_(CA)
  6
Continuous
 62
     7
100
AcDbLine
 10
45.4773118504
 20
436.9321095266
 30
0.0
 11
45.4773118504
 21
436.5094912649
 31
0.0
  0
LINE
  5
138
330
75
100
AcDbEntity
  8
$DDT_AUDIT_GENERATED_(CA)
  6
Continuous
 62
     7
100
AcDbLine
 10
45.4773118504
 20
436.5094912649
 30
0.0
 11
44.4773118504
 21
436.5094912649
 31
0.0
  0
LINE
  5
139
330
75
100
AcDbEntity
  8
$DDT_AUDIT_GENERATED_(CA)
  6
Continuous
 62
     7
100
AcDbLine
 10
44.4773118504
 20
437.0166331789
 30
0.0
 11
44.4773118504
 21
437.4392514407
 31
0.0
  0
LINE
  5
13A
330
75
100
AcDbEntity
  8
$DDT_AUDIT_GENERATED_(CA)
  6
Continuous
 62
     7
100
AcDbLine
 10
44.4773118504
 20
437.4392514407
 30
0.0
 11
45.4773118504
 21
437.4392514407
 31
0.0
  0
LINE
  5
13B
330
75
100
AcDbEntity
  8
$DDT_AUDIT_GENERATED_(CA)
  6
Continuous
 62
     7
100
AcDbLine
 10
45.4773118504
 20
437.4392514407
 30
0.0
 11
45.4773118504
 21
437.0166331789
 31
0.0
  0
LINE
  5
13C
330
75
100
AcDbEntity
  8
$DDT_AUDIT_GENERATED_(CA)
  6
Continuous
 62
     7
100
AcDbLine
 10
45.4773118504
 20
437.0166331789
 30
0.0
 11
44.4773118504
 21
437.0166331789
 31
0.0
  0
LINE
  5
13D
330
75
100
AcDbEntity
  8
$DDT_AUDIT_GENERATED_(CA)
  6
Continuous
 62
     7
100
AcDbLine
 10
44.4773118504
 20
437.523775093
 30
0.0
 11
44.4773118504
 21
437.9253162919
 31
0.0
  0
LINE
  5
13E
330
75
100
AcDbEntity
  8
$DDT_AUDIT_GENERATED_(CA)
  6
Continuous
 62
     7
100
AcDbLine
 10
44.5373799961
 20
437.9463933548
 30
0.0
 11
45.4773118504
 21
437.9463933548
 31
0.0
  0
LINE
  5
13F
330
75
100
AcDbEntity
  8
$DDT_AUDIT_GENERATED_(CA)
  6
Continuous
 62
     7
100
AcDbLine
 10
45.4773118504
 20
437.9463933548
 30
0.0
 11
45.4773118504
 21
437.523775093
 31
0.0
  0
LINE
  5
140
330
75
100
AcDbEntity
  8
$DDT_AUDIT_GENERATED_(CA)
  6
Continuous
 62
     7
100
AcDbLine
 10
45.4773118504
 20
437.523775093
 30
0.0
 11
44.4773118504
 21
437.523775093
 31
0.0
  0
LINE
  5
141
330
75
100
AcDbEntity
  8
$DDT_AUDIT_GENERATED_(CA)
  6
Continuous
 62
     7
100
AcDbLine
 10
43.2773118504
 20
435.4952074367
 30
0.0
 11
43.2773118504
 21
435.9178256984
 31
0.0
  0
LINE
  5
142
330
75
100
AcDbEntity
  8
$DDT_AUDIT_GENERATED_(CA)
  6
Continuous
 62
     7
100
AcDbLine
 10
43.2773118504
 20
435.9178256984
 30
0.0
 11
44.2773118504
 21
435.9178256984
 31
0.0
  0
LINE
  5
143
330
75
100
AcDbEntity
  8
$DDT_AUDIT_GENERATED_(CA)
  6
Continuous
 62
     7
100
AcDbLine
 10
44.2773118504
 20
435.9178256984
 30
0.0
 11
44.2773118504
 21
435.4952074367
 31
0.0
  0
LINE
  5
144
330
75
100
AcDbEntity
  8
$DDT_AUDIT_GENERATED_(CA)
  6
Continuous
 62
     7
100
AcDbLine
 10
43.2773118504
 20
436.0023493508
 30
0.0
 11
43.2773118504
 21
436.4249676125
 31
0.0
  0
LINE
  5
145
330
75
100
AcDbEntity
  8
$DDT_AUDIT_GENERATED_(CA)
  6
Continuous
 62
     7
100
AcDbLine
 10
43.2773118504
 20
436.4249676125
 30
0.0
 11
44.2773118504
 21
436.4249676125
 31
0.0
  0
LINE
  5
146
330
75
100
AcDbEntity
  8
$DDT_AUDIT_GENERATED_(CA)
  6
Continuous
 62
     7
100
AcDbLine
 10
44.2773118504
 20
436.4249676125
 30
0.0
 11
44.2773118504
 21
436.0023493508
 31
0.0
  0
LINE
  5
147
330
75
100
AcDbEntity
  8
$DDT_AUDIT_GENERATED_(CA)
  6
Continuous
 62
     7
100
AcDbLine
 10
44.2773118504
 20
436.0023493508
 30
0.0
 11
43.2773118504
 21
436.0023493508
 31
0.0
  0
LINE
  5
148
330
75
100
AcDbEntity
  8
$DDT_AUDIT_GENERATED_(CA)
  6
Continuous
 62
     7
100
AcDbLine
 10
43.2773118504
 20
436.5094912649
 30
0.0
 11
43.2773118504
 21
436.9321095266
 31
0.0
  0
LINE
  5
149
330
75
100
AcDbEntity
  8
$DDT_AUDIT_GENERATED_(CA)
  6
Continuous
 62
     7
100
AcDbLine
 10
43.2773118504
 20
436.9321095266
 30
0.0
 11
44.2773118504
 21
436.9321095266
 31
0.0
  0
LINE
  5
14A
330
75
100
AcDbEntity
  8
$DDT_AUDIT_GENERATED_(CA)
  6
Continuous
 62
     7
100
AcDbLine
 10
44.2773118504
 20
436.9321095266
 30
0.0
 11
44.2773118504
 21
436.5094912649
 31
0.0
  0
LINE
  5
14B
330
75
100
AcDbEntity
  8
$DDT_AUDIT_GENERATED_(CA)
  6
Continuous
 62
     7
100
AcDbLine
 10
44.2773118504
 20
436.5094912649
 30
0.0
 11
43.2773118504
 21
436.5094912649
 31
0.0
  0
LINE
  5
14C
330
75
100
AcDbEntity
  8
$DDT_AUDIT_GENERATED_(CA)
  6
Continuous
 62
     7
100
AcDbLine
 10
43.2773118504
 20
437.0166331789
 30
0.0
 11
43.2773118504
 21
437.400517166
 31
0.0
  0
LINE
  5
14D
330
75
100
AcDbEntity
  8
$DDT_AUDIT_GENERATED_(CA)
  6
Continuous
 62
     7
100
AcDbLine
 10
43.3500033824
 20
437.4392514407
 30
0.0
 11
44.2773118504
 21
437.4392514407
 31
0.0
  0
LINE
  5
14E
330
75
100
AcDbEntity
  8
$DDT_AUDIT_GENERATED_(CA)
  6
Continuous
 62
     7
100
AcDbLine
 10
44.2773118504
 20
437.4392514407
 30
0.0
 11
44.2773118504
 21
437.0166331789
 31
0.0
  0
LINE
  5
14F
330
75
100
AcDbEntity
  8
$DDT_AUDIT_GENERATED_(CA)
  6
Continuous
 62
     7
100
AcDbLine
 10
44.2773118504
 20
437.0166331789
 30
0.0
 11
43.2773118504
 21
437.0166331789
 31
0.0
  0
LINE
  5
150
330
75
100
AcDbEntity
  8
$DDT_AUDIT_GENERATED_(CA)
  6
Continuous
 62
     7
100
AcDbLine
 10
42.0773118504
 20
435.4952074367
 30
0.0
 11
42.0773118504
 21
435.9178256984
 31
0.0
  0
LINE
  5
151
330
75
100
AcDbEntity
  8
$DDT_AUDIT_GENERATED_(CA)
  6
Continuous
 62
     7
100
AcDbLine
 10
42.0773118504
 20
435.9178256984
 30
0.0
 11
43.0773118504
 21
435.9178256984
 31
0.0
  0
LINE
  5
152
330
75
100
AcDbEntity
  8
$DDT_AUDIT_GENERATED_(CA)
  6
Continuous
 62
     7
100
AcDbLine
 10
43.0773118504
 20
435.9178256984
 30
0.0
 11
43.0773118504
 21
435.4952074367
 31
0.0
  0
LINE
  5
153
330
75
100
AcDbEntity
  8
$DDT_AUDIT_GENERATED_(CA)
  6
Continuous
 62
     7
100
AcDbLine
 10
42.0773118504
 20
436.0023493508
 30
0.0
 11
42.0773118504
 21
436.4249676125
 31
0.0
  0
LINE
  5
154
330
75
100
AcDbEntity
  8
$DDT_AUDIT_GENERATED_(CA)
  6
Continuous
 62
     7
100
AcDbLine
 10
42.0773118504
 20
436.4249676125
 30
0.0
 11
43.0773118504
 21
436.4249676125
 31
0.0
  0
LINE
  5
155
330
75
100
AcDbEntity
  8
$DDT_AUDIT_GENERATED_(CA)
  6
Continuous
 62
     7
100
AcDbLine
 10
43.0773118504
 20
436.4249676125
 30
0.0
 11
43.0773118504
 21
436.0023493508
 31
0.0
  0
LINE
  5
156
330
75
100
AcDbEntity
  8
$DDT_AUDIT_GENERATED_(CA)
  6
Continuous
 62
     7
100
AcDbLine
 10
43.0773118504
 20
436.0023493508
 30
0.0
 11
42.0773118504
 21
436.0023493508
 31
0.0
  0
LINE
  5
157
330
75
100
AcDbEntity
  8
$DDT_AUDIT_GENERATED_(CA)
  6
Continuous
 62
     7
100
AcDbLine
 10
42.5465648318
 20
436.9321095266
 30
0.0
 11
43.0773118504
 21
436.9321095266
 31
0.0
  0
LINE
  5
158
330
75
100
AcDbEntity
  8
$DDT_AUDIT_GENERATED_(CA)
  6
Continuous
 62
     7
100
AcDbLine
 10
43.0773118504
 20
436.9321095266
 30
0.0
 11
43.0773118504
 21
436.5094912649
 31
0.0
  0
LINE
  5
159
330
75
100
AcDbEntity
  8
$DDT_AUDIT_GENERATED_(CA)
  6
Continuous
 62
     7
100
AcDbLine
 10
43.0773118504
 20
436.5094912649
 30
0.0
 11
42.0813252751
 21
436.5094912649
 31
0.0
  0
LINE
  5
15A
330
75
100
AcDbEntity
  8
$DDT_AUDIT_GENERATED_(CA)
  6
Continuous
 62
     7
100
AcDbLine
 10
41.6785144671
 20
435.9178256984
 30
0.0
 11
41.8773118504
 21
435.9178256984
 31
0.0
  0
LINE
  5
15B
330
75
100
AcDbEntity
  8
$DDT_AUDIT_GENERATED_(CA)
  6
Continuous
 62
     7
100
AcDbLine
 10
41.8773118504
 20
435.9178256984
 30
0.0
 11
41.8773118504
 21
435.4952074367
 31
0.0
  0
LINE
  5
15C
330
75
100
AcDbEntity
  8
$DDT_AUDIT_GENERATED_(CA)
  6
Continuous
 62
     7
100
AcDbLine
 10
41.8773118504
 20
436.2581370358
 30
0.0
 11
41.8773118504
 21
436.0023493508
 31
0.0
  0
LINE
  5
15D
330
75
100
AcDbEntity
  8
$DDT_AUDIT_GENERATED_(CA)
  6
Continuous
 62
     7
100
AcDbLine
 10
41.8773118504
 20
436.0023493508
 30
0.0
 11
41.7199166341
 21
436.0023493508
 31
0.0
  0
LINE
  5
15E
330
75
100
AcDbEntity
  8
$DDT_AUDIT_GENERATED_(CA)
  6
Continuous
 62
     7
100
AcDbLine
 10
43.0773118504
 20
437.2877549807
 30
0.0
 11
43.0773118504
 21
437.0166331789
 31
0.0
  0
LINE
  5
15F
330
75
100
AcDbEntity
  8
$DDT_AUDIT_GENERATED_(CA)
  6
Continuous
 62
     7
100
AcDbLine
 10
43.0773118504
 20
437.0166331789
 30
0.0
 11
42.6600932179
 21
437.0166331789
 31
0.0
  0
LINE
  5
160
330
75
100
AcDbEntity
  8
$DDT_AUDIT_GENERATED_(CA)
  6
Continuous
 62
     7
100
AcDbLine
 10
44.2773118504
 20
437.8521213689
 30
0.0
 11
44.2773118504
 21
437.523775093
 31
0.0
  0
LINE
  5
161
330
75
100
AcDbEntity
  8
$DDT_AUDIT_GENERATED_(CA)
  6
Continuous
 62
     7
100
AcDbLine
 10
44.2773118504
 20
437.523775093
 30
0.0
 11
43.5162102893
 21
437.523775093
 31
0.0
  0
LINE
  5
162
330
75
100
AcDbEntity
  8
$DDT_AUDIT_GENERATED_(CA)
  6
Continuous
 62
     7
100
AcDbLine
 10
45.4773118504
 20
438.2289223877
 30
0.0
 11
45.4773118504
 21
438.0309170071
 31
0.0
  0
LINE
  5
163
330
75
100
AcDbEntity
  8
$DDT_AUDIT_GENERATED_(CA)
  6
Continuous
 62
     7
100
AcDbLine
 10
45.4773118504
 20
438.0309170071
 30
0.0
 11
44.7905308793
 21
438.0309170071
 31
0.0
  0
LINE
  5
164
330
75
100
AcDbEntity
  8
$DDT_AUDIT_GENERATED_(CA)
  6
Continuous
 62
     7
100
AcDbLine
 10
47.8773118504
 20
438.6462398886
 30
0.0
 11
47.8773118504
 21
438.5380589212
 31
0.0
  0
LINE
  5
165
330
75
100
AcDbEntity
  8
$DDT_AUDIT_GENERATED_(CA)
  6
Continuous
 62
     7
100
AcDbLine
 10
47.8773118504
 20
438.5380589212
 30
0.0
 11
47.0106213817
 21
438.5380589212
 31
0.0
  0
LINE
  5
166
330
75
100
AcDbEntity
  8
$DDT_AUDIT_GENERATED_(CA)
  6
Continuous
 62
     7
100
AcDbLine
 10
50.2773118504
 20
435.9178256984
 30
0.0
 11
50.2773118504
 21
435.4952074367
 31
0.0
  0
LINE
  5
167
330
75
100
AcDbEntity
  8
$DDT_AUDIT_GENERATED_(CA)
  6
Continuous
 62
     7
100
AcDbLine
 10
50.4773118504
 20
435.9178256984
 30
0.0
 11
51.4773118504
 21
435.9178256984
 31
0.0
  0
LINE
  5
168
330
75
100
AcDbEntity
  8
$DDT_AUDIT_GENERATED_(CA)
  6
Continuous
 62
     7
100
AcDbLine
 10
51.4773118504
 20
435.9178256984
 30
0.0
 11
51.4773118504
 21
435.4952074367
 31
0.0
  0
LINE
  5
169
330
75
100
AcDbEntity
  8
$DDT_AUDIT_GENERATED_(CA)
  6
Continuous
 62
     7
100
AcDbLine
 10
50.4773118504
 20
435.4952074367
 30
0.0
 11
50.4773118504
 21
435.9178256984
 31
0.0
  0
LINE
  5
16A
330
75
100
AcDbEntity
  8
$DDT_AUDIT_GENERATED_(CA)
  6
Continuous
 62
     7
100
AcDbLine
 10
51.6773118504
 20
435.9178256984
 30
0.0
 11
52.6773118504
 21
435.9178256984
 31
0.0
  0
LINE
  5
16B
330
75
100
AcDbEntity
  8
$DDT_AUDIT_GENERATED_(CA)
  6
Continuous
 62
     7
100
AcDbLine
 10
52.6773118504
 20
435.9178256984
 30
0.0
 11
52.6773118504
 21
435.4952074367
 31
0.0
  0
LINE
  5
16C
330
75
100
AcDbEntity
  8
$DDT_AUDIT_GENERATED_(CA)
  6
Continuous
 62
     7
100
AcDbLine
 10
51.6773118504
 20
435.4952074367
 30
0.0
 11
51.6773118504
 21
435.9178256984
 31
0.0
  0
LINE
  5
16D
330
75
100
AcDbEntity
  8
$DDT_AUDIT_GENERATED_(CA)
  6
Continuous
 62
     7
100
AcDbLine
 10
52.8773118504
 20
435.9178256984
 30
0.0
 11
53.8773118504
 21
435.9178256984
 31
0.0
  0
LINE
  5
16E
330
75
100
AcDbEntity
  8
$DDT_AUDIT_GENERATED_(CA)
  6
Continuous
 62
     7
100
AcDbLine
 10
53.8773118504
 20
435.9178256984
 30
0.0
 11
53.8773118504
 21
435.4952074367
 31
0.0
  0
LINE
  5
16F
330
75
100
AcDbEntity
  8
$DDT_AUDIT_GENERATED_(CA)
  6
Continuous
 62
     7
100
AcDbLine
 10
52.8773118504
 20
435.4952074367
 30
0.0
 11
52.8773118504
 21
435.9178256984
 31
0.0
  0
LINE
  5
170
330
75
100
AcDbEntity
  8
$DDT_AUDIT_GENERATED_(CA)
  6
Continuous
 62
     7
100
AcDbLine
 10
54.0773118504
 20
435.9178256984
 30
0.0
 11
55.0773118504
 21
435.9178256984
 31
0.0
  0
LINE
  5
171
330
75
100
AcDbEntity
  8
$DDT_AUDIT_GENERATED_(CA)
  6
Continuous
 62
     7
100
AcDbLine
 10
55.0773118504
 20
435.9178256984
 30
0.0
 11
55.0773118504
 21
435.4952074367
 31
0.0
  0
LINE
  5
172
330
75
100
AcDbEntity
  8
$DDT_AUDIT_GENERATED_(CA)
  6
Continuous
 62
     7
100
AcDbLine
 10
54.0773118504
 20
435.4952074367
 30
0.0
 11
54.0773118504
 21
435.9178256984
 31
0.0
  0
LINE
  5
173
330
75
100
AcDbEntity
  8
$DDT_AUDIT_GENERATED_(CA)
  6
Continuous
 62
     7
100
AcDbLine
 10
55.2773118504
 20
435.9178256984
 30
0.0
 11
56.2773118504
 21
435.9178256984
 31
0.0
  0
LINE
  5
174
330
75
100
AcDbEntity
  8
$DDT_AUDIT_GENERATED_(CA)
  6
Continuous
 62
     7
100
AcDbLine
 10
56.2773118504
 20
435.9178256984
 30
0.0
 11
56.2773118504
 21
435.4952074367
 31
0.0
  0
LINE
  5
175
330
75
100
AcDbEntity
  8
$DDT_AUDIT_GENERATED_(CA)
  6
Continuous
 62
     7
100
AcDbLine
 10
55.2773118504
 20
435.4952074367
 30
0.0
 11
55.2773118504
 21
435.9178256984
 31
0.0
  0
LINE
  5
176
330
75
100
AcDbEntity
  8
$DDT_AUDIT_GENERATED_(CA)
  6
Continuous
 62
     7
100
AcDbLine
 10
57.4773118504
 20
435.9178256984
 30
0.0
 11
57.4773118504
 21
435.4952074367
 31
0.0
  0
LINE
  5
177
330
75
100
AcDbEntity
  8
$DDT_AUDIT_GENERATED_(CA)
  6
Continuous
 62
     7
100
AcDbLine
 10
56.4773118504
 20
435.9178256984
 30
0.0
 11
57.4773118504
 21
435.9178256984
 31
0.0
  0
LINE
  5
178
330
75
100
AcDbEntity
  8
$DDT_AUDIT_GENERATED_(CA)
  6
Continuous
 62
     7
100
AcDbLine
 10
56.4773118504
 20
435.4952074367
 30
0.0
 11
56.4773118504
 21
435.9178256984
 31
0.0
  0
LINE
  5
179
330
75
100
AcDbEntity
  8
$DDT_AUDIT_GENERATED_(CA)
  6
Continuous
 62
     7
100
AcDbLine
 10
50.2773118504
 20
436.4249676125
 30
0.0
 11
50.2773118504
 21
436.0023493508
 31
0.0
  0
LINE
  5
17A
330
75
100
AcDbEntity
  8
$DDT_AUDIT_GENERATED_(CA)
  6
Continuous
 62
     7
100
AcDbLine
 10
50.4773118504
 20
436.4249676125
 30
0.0
 11
51.4773118504
 21
436.4249676125
 31
0.0
  0
LINE
  5
17B
330
75
100
AcDbEntity
  8
$DDT_AUDIT_GENERATED_(CA)
  6
Continuous
 62
     7
100
AcDbLine
 10
51.4773118504
 20
436.4249676125
 30
0.0
 11
51.4773118504
 21
436.0023493508
 31
0.0
  0
LINE
  5
17C
330
75
100
AcDbEntity
  8
$DDT_AUDIT_GENERATED_(CA)
  6
Continuous
 62
     7
100
AcDbLine
 10
51.4773118504
 20
436.0023493508
 30
0.0
 11
50.4773118504
 21
436.0023493508
 31
0.0
  0
LINE
  5
17D
330
75
100
AcDbEntity
  8
$DDT_AUDIT_GENERATED_(CA)
  6
Continuous
 62
     7
100
AcDbLine
 10
50.4773118504
 20
436.0023493508
 30
0.0
 11
50.4773118504
 21
436.4249676125
 31
0.0
  0
LINE
  5
17E
330
75
100
AcDbEntity
  8
$DDT_AUDIT_GENERATED_(CA)
  6
Continuous
 62
     7
100
AcDbLine
 10
51.6773118504
 20
436.4249676125
 30
0.0
 11
52.6773118504
 21
436.4249676125
 31
0.0
  0
LINE
  5
17F
330
75
100
AcDbEntity
  8
$DDT_AUDIT_GENERATED_(CA)
  6
Continuous
 62
     7
100
AcDbLine
 10
52.6773118504
 20
436.4249676125
 30
0.0
 11
52.6773118504
 21
436.0023493508
 31
0.0
  0
LINE
  5
180
330
75
100
AcDbEntity
  8
$DDT_AUDIT_GENERATED_(CA)
  6
Continuous
 62
     7
100
AcDbLine
 10
52.6773118504
 20
436.0023493508
 30
0.0
 11
51.6773118504
 21
436.0023493508
 31
0.0
  0
LINE
  5
181
330
75
100
AcDbEntity
  8
$DDT_AUDIT_GENERATED_(CA)
  6
Continuous
 62
     7
100
AcDbLine
 10
51.6773118504
 20
436.0023493508
 30
0.0
 11
51.6773118504
 21
436.4249676125
 31
0.0
  0
LINE
  5
182
330
75
100
AcDbEntity
  8
$DDT_AUDIT_GENERATED_(CA)
  6
Continuous
 62
     7
100
AcDbLine
 10
52.8773118504
 20
436.4249676125
 30
0.0
 11
53.8773118504
 21
436.4249676125
 31
0.0
  0
LINE
  5
183
330
75
100
AcDbEntity
  8
$DDT_AUDIT_GENERATED_(CA)
  6
Continuous
 62
     7
100
AcDbLine
 10
53.8773118504
 20
436.4249676125
 30
0.0
 11
53.8773118504
 21
436.0023493508
 31
0.0
  0
LINE
  5
184
330
75
100
AcDbEntity
  8
$DDT_AUDIT_GENERATED_(CA)
  6
Continuous
 62
     7
100
AcDbLine
 10
53.8773118504
 20
436.0023493508
 30
0.0
 11
52.8773118504
 21
436.0023493508
 31
0.0
  0
LINE
  5
185
330
75
100
AcDbEntity
  8
$DDT_AUDIT_GENERATED_(CA)
  6
Continuous
 62
     7
100
AcDbLine
 10
52.8773118504
 20
436.0023493508
 30
0.0
 11
52.8773118504
 21
436.4249676125
 31
0.0
  0
LINE
  5
186
330
75
100
AcDbEntity
  8
$DDT_AUDIT_GENERATED_(CA)
  6
Continuous
 62
     7
100
AcDbLine
 10
54.0773118504
 20
436.4249676125
 30
0.0
 11
55.0773118504
 21
436.4249676125
 31
0.0
  0
LINE
  5
187
330
75
100
AcDbEntity
  8
$DDT_AUDIT_GENERATED_(CA)
  6
Continuous
 62
     7
100
AcDbLine
 10
55.0773118504
 20
436.4249676125
 30
0.0
 11
55.0773118504
 21
436.0023493508
 31
0.0
  0
LINE
  5
188
330
75
100
AcDbEntity
  8
$DDT_AUDIT_GENERATED_(CA)
  6
Continuous
 62
     7
100
AcDbLine
 10
55.0773118504
 20
436.0023493508
 30
0.0
 11
54.0773118504
 21
436.0023493508
 31
0.0
  0
LINE
  5
189
330
75
100
AcDbEntity
  8
$DDT_AUDIT_GENERATED_(CA)
  6
Continuous
 62
     7
100
AcDbLine
 10
54.0773118504
 20
436.0023493508
 30
0.0
 11
54.0773118504
 21
436.4249676125
 31
0.0
  0
LINE
  5
18A
330
75
100
AcDbEntity
  8
$DDT_AUDIT_GENERATED_(CA)
  6
Continuous
 62
     7
100
AcDbLine
 10
55.2773118504
 20
436.4249676125
 30
0.0
 11
56.2773118504
 21
436.4249676125
 31
0.0
  0
LINE
  5
18B
330
75
100
AcDbEntity
  8
$DDT_AUDIT_GENERATED_(CA)
  6
Continuous
 62
     7
100
AcDbLine
 10
56.2773118504
 20
436.4249676125
 30
0.0
 11
56.2773118504
 21
436.0023493508
 31
0.0
  0
LINE
  5
18C
330
75
100
AcDbEntity
  8
$DDT_AUDIT_GENERATED_(CA)
  6
Continuous
 62
     7
100
AcDbLine
 10
56.2773118504
 20
436.0023493508
 30
0.0
 11
55.2773118504
 21
436.0023493508
 31
0.0
  0
LINE
  5
18D
330
75
100
AcDbEntity
  8
$DDT_AUDIT_GENERATED_(CA)
  6
Continuous
 62
     7
100
AcDbLine
 10
55.2773118504
 20
436.0023493508
 30
0.0
 11
55.2773118504
 21
436.4249676125
 31
0.0
  0
LINE
  5
18E
330
75
100
AcDbEntity
  8
$DDT_AUDIT_GENERATED_(CA)
  6
Continuous
 62
     7
100
AcDbLine
 10
56.4773118504
 20
436.4249676125
 30
0.0
 11
57.4773118504
 21
436.4249676125
 31
0.0
  0
LINE
  5
18F
330
75
100
AcDbEntity
  8
$DDT_AUDIT_GENERATED_(CA)
  6
Continuous
 62
     7
100
AcDbLine
 10
57.4773118504
 20
436.4249676125
 30
0.0
 11
57.4773118504
 21
436.0023493508
 31
0.0
  0
LINE
  5
190
330
75
100
AcDbEntity
  8
$DDT_AUDIT_GENERATED_(CA)
  6
Continuous
 62
     7
100
AcDbLine
 10
57.4773118504
 20
436.0023493508
 30
0.0
 11
56.4773118504
 21
436.0023493508
 31
0.0
  0
LINE
  5
191
330
75
100
AcDbEntity
  8
$DDT_AUDIT_GENERATED_(CA)
  6
Continuous
 62
     7
100
AcDbLine
 10
56.4773118504
 20
436.0023493508
 30
0.0
 11
56.4773118504
 21
436.4249676125
 31
0.0
  0
LINE
  5
192
330
75
100
AcDbEntity
  8
$DDT_AUDIT_GENERATED_(CA)
  6
Continuous
 62
     7
100
AcDbLine
 10
50.2773118504
 20
436.9321095266
 30
0.0
 11
50.2773118504
 21
436.5094912649
 31
0.0
  0
LINE
  5
193
330
75
100
AcDbEntity
  8
$DDT_AUDIT_GENERATED_(CA)
  6
Continuous
 62
     7
100
AcDbLine
 10
50.4773118504
 20
436.9321095266
 30
0.0
 11
51.4773118504
 21
436.9321095266
 31
0.0
  0
LINE
  5
194
330
75
100
AcDbEntity
  8
$DDT_AUDIT_GENERATED_(CA)
  6
Continuous
 62
     7
100
AcDbLine
 10
51.4773118504
 20
436.9321095266
 30
0.0
 11
51.4773118504
 21
436.5094912649
 31
0.0
  0
LINE
  5
195
330
75
100
AcDbEntity
  8
$DDT_AUDIT_GENERATED_(CA)
  6
Continuous
 62
     7
100
AcDbLine
 10
51.4773118504
 20
436.5094912649
 30
0.0
 11
50.4773118504
 21
436.5094912649
 31
0.0
  0
LINE
  5
196
330
75
100
AcDbEntity
  8
$DDT_AUDIT_GENERATED_(CA)
  6
Continuous
 62
     7
100
AcDbLine
 10
50.4773118504
 20
436.5094912649
 30
0.0
 11
50.4773118504
 21
436.9321095266
 31
0.0
  0
LINE
  5
197
330
75
100
AcDbEntity
  8
$DDT_AUDIT_GENERATED_(CA)
  6
Continuous
 62
     7
100
AcDbLine
 10
51.6773118504
 20
436.9321095266
 30
0.0
 11
52.6773118504
 21
436.9321095266
 31
0.0
  0
LINE
  5
198
330
75
100
AcDbEntity
  8
$DDT_AUDIT_GENERATED_(CA)
  6
Continuous
 62
     7
100
AcDbLine
 10
52.6773118504
 20
436.9321095266
 30
0.0
 11
52.6773118504
 21
436.5094912649
 31
0.0
  0
LINE
  5
199
330
75
100
AcDbEntity
  8
$DDT_AUDIT_GENERATED_(CA)
  6
Continuous
 62
     7
100
AcDbLine
 10
52.6773118504
 20
436.5094912649
 30
0.0
 11
51.6773118504
 21
436.5094912649
 31
0.0
  0
LINE
  5
19A
330
75
100
AcDbEntity
  8
$DDT_AUDIT_GENERATED_(CA)
  6
Continuous
 62
     7
100
AcDbLine
 10
51.6773118504
 20
436.5094912649
 30
0.0
 11
51.6773118504
 21
436.9321095266
 31
0.0
  0
LINE
  5
19B
330
75
100
AcDbEntity
  8
$DDT_AUDIT_GENERATED_(CA)
  6
Continuous
 62
     7
100
AcDbLine
 10
52.8773118504
 20
436.9321095266
 30
0.0
 11
53.8773118504
 21
436.9321095266
 31
0.0
  0
LINE
  5
19C
330
75
100
AcDbEntity
  8
$DDT_AUDIT_GENERATED_(CA)
  6
Continuous
 62
     7
100
AcDbLine
 10
53.8773118504
 20
436.9321095266
 30
0.0
 11
53.8773118504
 21
436.5094912649
 31
0.0
  0
LINE
  5
19D
330
75
100
AcDbEntity
  8
$DDT_AUDIT_GENERATED_(CA)
  6
Continuous
 62
     7
100
AcDbLine
 10
53.8773118504
 20
436.5094912649
 30
0.0
 11
52.8773118504
 21
436.5094912649
 31
0.0
  0
LINE
  5
19E
330
75
100
AcDbEntity
  8
$DDT_AUDIT_GENERATED_(CA)
  6
Continuous
 62
     7
100
AcDbLine
 10
52.8773118504
 20
436.5094912649
 30
0.0
 11
52.8773118504
 21
436.9321095266
 31
0.0
  0
LINE
  5
19F
330
75
100
AcDbEntity
  8
$DDT_AUDIT_GENERATED_(CA)
  6
Continuous
 62
     7
100
AcDbLine
 10
54.0773118504
 20
436.9321095266
 30
0.0
 11
55.0773118504
 21
436.9321095266
 31
0.0
  0
LINE
  5
1A0
330
75
100
AcDbEntity
  8
$DDT_AUDIT_GENERATED_(CA)
  6
Continuous
 62
     7
100
AcDbLine
 10
55.0773118504
 20
436.9321095266
 30
0.0
 11
55.0773118504
 21
436.5094912649
 31
0.0
  0
LINE
  5
1A1
330
75
100
AcDbEntity
  8
$DDT_AUDIT_GENERATED_(CA)
  6
Continuous
 62
     7
100
AcDbLine
 10
55.0773118504
 20
436.5094912649
 30
0.0
 11
54.0773118504
 21
436.5094912649
 31
0.0
  0
LINE
  5
1A2
330
75
100
AcDbEntity
  8
$DDT_AUDIT_GENERATED_(CA)
  6
Continuous
 62
     7
100
AcDbLine
 10
54.0773118504
 20
436.5094912649
 30
0.0
 11
54.0773118504
 21
436.9321095266
 31
0.0
  0
LINE
  5
1A3
330
75
100
AcDbEntity
  8
$DDT_AUDIT_GENERATED_(CA)
  6
Continuous
 62
     7
100
AcDbLine
 10
55.2773118504
 20
436.9321095266
 30
0.0
 11
56.2773118504
 21
436.9321095266
 31
0.0
  0
LINE
  5
1A4
330
75
100
AcDbEntity
  8
$DDT_AUDIT_GENERATED_(CA)
  6
Continuous
 62
     7
100
AcDbLine
 10
56.2773118504
 20
436.9321095266
 30
0.0
 11
56.2773118504
 21
436.5094912649
 31
0.0
  0
LINE
  5
1A5
330
75
100
AcDbEntity
  8
$DDT_AUDIT_GENERATED_(CA)
  6
Continuous
 62
     7
100
AcDbLine
 10
56.2773118504
 20
436.5094912649
 30
0.0
 11
55.2773118504
 21
436.5094912649
 31
0.0
  0
LINE
  5
1A6
330
75
100
AcDbEntity
  8
$DDT_AUDIT_GENERATED_(CA)
  6
Continuous
 62
     7
100
AcDbLine
 10
55.2773118504
 20
436.5094912649
 30
0.0
 11
55.2773118504
 21
436.9321095266
 31
0.0
  0
LINE
  5
1A7
330
75
100
AcDbEntity
  8
$DDT_AUDIT_GENERATED_(CA)
  6
Continuous
 62
     7
100
AcDbLine
 10
50.2773118504
 20
437.4392514407
 30
0.0
 11
50.2773118504
 21
437.0166331789
 31
0.0
  0
LINE
  5
1A8
330
75
100
AcDbEntity
  8
$DDT_AUDIT_GENERATED_(CA)
  6
Continuous
 62
     7
100
AcDbLine
 10
50.4773118504
 20
437.4392514407
 30
0.0
 11
51.4773118504
 21
437.4392514407
 31
0.0
  0
LINE
  5
1A9
330
75
100
AcDbEntity
  8
$DDT_AUDIT_GENERATED_(CA)
  6
Continuous
 62
     7
100
AcDbLine
 10
51.4773118504
 20
437.4392514407
 30
0.0
 11
51.4773118504
 21
437.0166331789
 31
0.0
  0
LINE
  5
1AA
330
75
100
AcDbEntity
  8
$DDT_AUDIT_GENERATED_(CA)
  6
Continuous
 62
     7
100
AcDbLine
 10
51.4773118504
 20
437.0166331789
 30
0.0
 11
50.4773118504
 21
437.0166331789
 31
0.0
  0
LINE
  5
1AB
330
75
100
AcDbEntity
  8
$DDT_AUDIT_GENERATED_(CA)
  6
Continuous
 62
     7
100
AcDbLine
 10
50.4773118504
 20
437.0166331789
 30
0.0
 11
50.4773118504
 21
437.4392514407
 31
0.0
  0
LINE
  5
1AC
330
75
100
AcDbEntity
  8
$DDT_AUDIT_GENERATED_(CA)
  6
Continuous
 62
     7
100
AcDbLine
 10
51.6773118504
 20
437.4392514407
 30
0.0
 11
52.6773118504
 21
437.4392514407
 31
0.0
  0
LINE
  5
1AD
330
75
100
AcDbEntity
  8
$DDT_AUDIT_GENERATED_(CA)
  6
Continuous
 62
     7
100
AcDbLine
 10
52.6773118504
 20
437.4392514407
 30
0.0
 11
52.6773118504
 21
437.0166331789
 31
0.0
  0
LINE
  5
1AE
330
75
100
AcDbEntity
  8
$DDT_AUDIT_GENERATED_(CA)
  6
Continuous
 62
     7
100
AcDbLine
 10
52.6773118504
 20
437.0166331789
 30
0.0
 11
51.6773118504
 21
437.0166331789
 31
0.0
  0
LINE
  5
1AF
330
75
100
AcDbEntity
  8
$DDT_AUDIT_GENERATED_(CA)
  6
Continuous
 62
     7
100
AcDbLine
 10
51.6773118504
 20
437.0166331789
 30
0.0
 11
51.6773118504
 21
437.4392514407
 31
0.0
  0
LINE
  5
1B0
330
75
100
AcDbEntity
  8
$DDT_AUDIT_GENERATED_(CA)
  6
Continuous
 62
     7
100
AcDbLine
 10
52.8773118504
 20
437.4392514407
 30
0.0
 11
53.8773118504
 21
437.4392514407
 31
0.0
  0
LINE
  5
1B1
330
75
100
AcDbEntity
  8
$DDT_AUDIT_GENERATED_(CA)
  6
Continuous
 62
     7
100
AcDbLine
 10
53.8773118504
 20
437.4392514407
 30
0.0
 11
53.8773118504
 21
437.0166331789
 31
0.0
  0
LINE
  5
1B2
330
75
100
AcDbEntity
  8
$DDT_AUDIT_GENERATED_(CA)
  6
Continuous
 62
     7
100
AcDbLine
 10
53.8773118504
 20
437.0166331789
 30
0.0
 11
52.8773118504
 21
437.0166331789
 31
0.0
  0
LINE
  5
1B3
330
75
100
AcDbEntity
  8
$DDT_AUDIT_GENERATED_(CA)
  6
Continuous
 62
     7
100
AcDbLine
 10
52.8773118504
 20
437.0166331789
 30
0.0
 11
52.8773118504
 21
437.4392514407
 31
0.0
  0
LINE
  5
1B4
330
75
100
AcDbEntity
  8
$DDT_AUDIT_GENERATED_(CA)
  6
Continuous
 62
     7
100
AcDbLine
 10
54.0773118504
 20
437.4392514407
 30
0.0
 11
55.0773118504
 21
437.4392514407
 31
0.0
  0
LINE
  5
1B5
330
75
100
AcDbEntity
  8
$DDT_AUDIT_GENERATED_(CA)
  6
Continuous
 62
     7
100
AcDbLine
 10
55.0773118504
 20
437.4392514407
 30
0.0
 11
55.0773118504
 21
437.0166331789
 31
0.0
  0
LINE
  5
1B6
330
75
100
AcDbEntity
  8
$DDT_AUDIT_GENERATED_(CA)
  6
Continuous
 62
     7
100
AcDbLine
 10
55.0773118504
 20
437.0166331789
 30
0.0
 11
54.0773118504
 21
437.0166331789
 31
0.0
  0
LINE
  5
1B7
330
75
100
AcDbEntity
  8
$DDT_AUDIT_GENERATED_(CA)
  6
Continuous
 62
     7
100
AcDbLine
 10
54.0773118504
 20
437.0166331789
 30
0.0
 11
54.0773118504
 21
437.4392514407
 31
0.0
  0
LINE
  5
1B8
330
75
100
AcDbEntity
  8
$DDT_AUDIT_GENERATED_(CA)
  6
Continuous
 62
     7
100
AcDbLine
 10
56.2773118504
 20
437.400517166
 30
0.0
 11
56.2773118504
 21
437.0166331789
 31
0.0
  0
LINE
  5
1B9
330
75
100
AcDbEntity
  8
$DDT_AUDIT_GENERATED_(CA)
  6
Continuous
 62
     7
100
AcDbLine
 10
55.2773118504
 20
437.4392514407
 30
0.0
 11
56.2046203184
 21
437.4392514407
 31
0.0
  0
LINE
  5
1BA
330
75
100
AcDbEntity
  8
$DDT_AUDIT_GENERATED_(CA)
  6
Continuous
 62
     7
100
AcDbLine
 10
56.2773118504
 20
437.0166331789
 30
0.0
 11
55.2773118504
 21
437.0166331789
 31
0.0
  0
LINE
  5
1BB
330
75
100
AcDbEntity
  8
$DDT_AUDIT_GENERATED_(CA)
  6
Continuous
 62
     7
100
AcDbLine
 10
55.2773118504
 20
437.0166331789
 30
0.0
 11
55.2773118504
 21
437.4392514407
 31
0.0
  0
LINE
  5
1BC
330
75
100
AcDbEntity
  8
$DDT_AUDIT_GENERATED_(CA)
  6
Continuous
 62
     7
100
AcDbLine
 10
50.2773118504
 20
437.9463933548
 30
0.0
 11
50.2773118504
 21
437.523775093
 31
0.0
  0
LINE
  5
1BD
330
75
100
AcDbEntity
  8
$DDT_AUDIT_GENERATED_(CA)
  6
Continuous
 62
     7
100
AcDbLine
 10
50.4773118504
 20
437.9463933548
 30
0.0
 11
51.4773118504
 21
437.9463933548
 31
0.0
  0
LINE
  5
1BE
330
75
100
AcDbEntity
  8
$DDT_AUDIT_GENERATED_(CA)
  6
Continuous
 62
     7
100
AcDbLine
 10
51.4773118504
 20
437.9463933548
 30
0.0
 11
51.4773118504
 21
437.523775093
 31
0.0
  0
LINE
  5
1BF
330
75
100
AcDbEntity
  8
$DDT_AUDIT_GENERATED_(CA)
  6
Continuous
 62
     7
100
AcDbLine
 10
51.4773118504
 20
437.523775093
 30
0.0
 11
50.4773118504
 21
437.523775093
 31
0.0
  0
LINE
  5
1C0
330
75
100
AcDbEntity
  8
$DDT_AUDIT_GENERATED_(CA)
  6
Continuous
 62
     7
100
AcDbLine
 10
50.4773118504
 20
437.523775093
 30
0.0
 11
50.4773118504
 21
437.9463933548
 31
0.0
  0
LINE
  5
1C1
330
75
100
AcDbEntity
  8
$DDT_AUDIT_GENERATED_(CA)
  6
Continuous
 62
     7
100
AcDbLine
 10
51.6773118504
 20
437.9463933548
 30
0.0
 11
52.6773118504
 21
437.9463933548
 31
0.0
  0
LINE
  5
1C2
330
75
100
AcDbEntity
  8
$DDT_AUDIT_GENERATED_(CA)
  6
Continuous
 62
     7
100
AcDbLine
 10
52.6773118504
 20
437.9463933548
 30
0.0
 11
52.6773118504
 21
437.523775093
 31
0.0
  0
LINE
  5
1C3
330
75
100
AcDbEntity
  8
$DDT_AUDIT_GENERATED_(CA)
  6
Continuous
 62
     7
100
AcDbLine
 10
52.6773118504
 20
437.523775093
 30
0.0
 11
51.6773118504
 21
437.523775093
 31
0.0
  0
LINE
  5
1C4
330
75
100
AcDbEntity
  8
$DDT_AUDIT_GENERATED_(CA)
  6
Continuous
 62
     7
100
AcDbLine
 10
51.6773118504
 20
437.523775093
 30
0.0
 11
51.6773118504
 21
437.9463933548
 31
0.0
  0
LINE
  5
1C5
330
75
100
AcDbEntity
  8
$DDT_AUDIT_GENERATED_(CA)
  6
Continuous
 62
     7
100
AcDbLine
 10
52.8773118504
 20
437.9463933548
 30
0.0
 11
53.8773118504
 21
437.9463933548
 31
0.0
  0
LINE
  5
1C6
330
75
100
AcDbEntity
  8
$DDT_AUDIT_GENERATED_(CA)
  6
Continuous
 62
     7
100
AcDbLine
 10
53.8773118504
 20
437.9463933548
 30
0.0
 11
53.8773118504
 21
437.523775093
 31
0.0
  0
LINE
  5
1C7
330
75
100
AcDbEntity
  8
$DDT_AUDIT_GENERATED_(CA)
  6
Continuous
 62
     7
100
AcDbLine
 10
53.8773118504
 20
437.523775093
 30
0.0
 11
52.8773118504
 21
437.523775093
 31
0.0
  0
LINE
  5
1C8
330
75
100
AcDbEntity
  8
$DDT_AUDIT_GENERATED_(CA)
  6
Continuous
 62
     7
100
AcDbLine
 10
52.8773118504
 20
437.523775093
 30
0.0
 11
52.8773118504
 21
437.9463933548
 31
0.0
  0
LINE
  5
1C9
330
75
100
AcDbEntity
  8
$DDT_AUDIT_GENERATED_(CA)
  6
Continuous
 62
     7
100
AcDbLine
 10
54.0773118504
 20
437.9463933548
 30
0.0
 11
55.0172437048
 21
437.9463933548
 31
0.0
  0
LINE
  5
1CA
330
75
100
AcDbEntity
  8
$DDT_AUDIT_GENERATED_(CA)
  6
Continuous
 62
     7
100
AcDbLine
 10
55.0773118504
 20
437.9253162919
 30
0.0
 11
55.0773118504
 21
437.523775093
 31
0.0
  0
LINE
  5
1CB
330
75
100
AcDbEntity
  8
$DDT_AUDIT_GENERATED_(CA)
  6
Continuous
 62
     7
100
AcDbLine
 10
55.0773118504
 20
437.523775093
 30
0.0
 11
54.0773118504
 21
437.523775093
 31
0.0
  0
LINE
  5
1CC
330
75
100
AcDbEntity
  8
$DDT_AUDIT_GENERATED_(CA)
  6
Continuous
 62
     7
100
AcDbLine
 10
54.0773118504
 20
437.523775093
 30
0.0
 11
54.0773118504
 21
437.9463933548
 31
0.0
  0
LINE
  5
1CD
330
75
100
AcDbEntity
  8
$DDT_AUDIT_GENERATED_(CA)
  6
Continuous
 62
     7
100
AcDbLine
 10
50.2773118504
 20
438.4535352689
 30
0.0
 11
50.2773118504
 21
438.0309170071
 31
0.0
  0
LINE
  5
1CE
330
75
100
AcDbEntity
  8
$DDT_AUDIT_GENERATED_(CA)
  6
Continuous
 62
     7
100
AcDbLine
 10
50.4773118504
 20
438.4535352689
 30
0.0
 11
51.4773118504
 21
438.4535352689
 31
0.0
  0
LINE
  5
1CF
330
75
100
AcDbEntity
  8
$DDT_AUDIT_GENERATED_(CA)
  6
Continuous
 62
     7
100
AcDbLine
 10
51.4773118504
 20
438.4535352689
 30
0.0
 11
51.4773118504
 21
438.0309170071
 31
0.0
  0
LINE
  5
1D0
330
75
100
AcDbEntity
  8
$DDT_AUDIT_GENERATED_(CA)
  6
Continuous
 62
     7
100
AcDbLine
 10
51.4773118504
 20
438.0309170071
 30
0.0
 11
50.4773118504
 21
438.0309170071
 31
0.0
  0
LINE
  5
1D1
330
75
100
AcDbEntity
  8
$DDT_AUDIT_GENERATED_(CA)
  6
Continuous
 62
     7
100
AcDbLine
 10
50.4773118504
 20
438.0309170071
 30
0.0
 11
50.4773118504
 21
438.4535352689
 31
0.0
  0
LINE
  5
1D2
330
75
100
AcDbEntity
  8
$DDT_AUDIT_GENERATED_(CA)
  6
Continuous
 62
     7
100
AcDbLine
 10
51.6773118504
 20
438.4535352689
 30
0.0
 11
52.6773118504
 21
438.4535352689
 31
0.0
  0
LINE
  5
1D3
330
75
100
AcDbEntity
  8
$DDT_AUDIT_GENERATED_(CA)
  6
Continuous
 62
     7
100
AcDbLine
 10
52.6773118504
 20
438.4535352689
 30
0.0
 11
52.6773118504
 21
438.0309170071
 31
0.0
  0
LINE
  5
1D4
330
75
100
AcDbEntity
  8
$DDT_AUDIT_GENERATED_(CA)
  6
Continuous
 62
     7
100
AcDbLine
 10
52.6773118504
 20
438.0309170071
 30
0.0
 11
51.6773118504
 21
438.0309170071
 31
0.0
  0
LINE
  5
1D5
330
75
100
AcDbEntity
  8
$DDT_AUDIT_GENERATED_(CA)
  6
Continuous
 62
     7
100
AcDbLine
 10
51.6773118504
 20
438.0309170071
 30
0.0
 11
51.6773118504
 21
438.4535352689
 31
0.0
  0
LINE
  5
1D6
330
75
100
AcDbEntity
  8
$DDT_AUDIT_GENERATED_(CA)
  6
Continuous
 62
     7
100
AcDbLine
 10
52.8773118504
 20
438.4535352689
 30
0.0
 11
53.0519839766
 21
438.4535352689
 31
0.0
  0
LINE
  5
1D7
330
75
100
AcDbEntity
  8
$DDT_AUDIT_GENERATED_(CA)
  6
Continuous
 62
     7
100
AcDbLine
 10
53.8773118504
 20
438.2789227903
 30
0.0
 11
53.8773118504
 21
438.0309170071
 31
0.0
  0
LINE
  5
1D8
330
75
100
AcDbEntity
  8
$DDT_AUDIT_GENERATED_(CA)
  6
Continuous
 62
     7
100
AcDbLine
 10
53.8773118504
 20
438.0309170071
 30
0.0
 11
52.8773118504
 21
438.0309170071
 31
0.0
  0
LINE
  5
1D9
330
75
100
AcDbEntity
  8
$DDT_AUDIT_GENERATED_(CA)
  6
Continuous
 62
     7
100
AcDbLine
 10
52.8773118504
 20
438.0309170071
 30
0.0
 11
52.8773118504
 21
438.4535352689
 31
0.0
  0
LINE
  5
1DA
330
75
100
AcDbEntity
  8
$DDT_AUDIT_GENERATED_(CA)
  6
Continuous
 62
     7
100
AcDbLine
 10
50.2773118504
 20
438.7335541356
 30
0.0
 11
50.2773118504
 21
438.5380589212
 31
0.0
  0
LINE
  5
1DB
330
75
100
AcDbEntity
  8
$DDT_AUDIT_GENERATED_(CA)
  6
Continuous
 62
     7
100
AcDbLine
 10
51.4773118504
 20
438.6651382021
 30
0.0
 11
51.4773118504
 21
438.5380589212
 31
0.0
  0
LINE
  5
1DC
330
75
100
AcDbEntity
  8
$DDT_AUDIT_GENERATED_(CA)
  6
Continuous
 62
     7
100
AcDbLine
 10
51.4773118504
 20
438.5380589212
 30
0.0
 11
50.4773118504
 21
438.5380589212
 31
0.0
  0
LINE
  5
1DD
330
75
100
AcDbEntity
  8
$DDT_AUDIT_GENERATED_(CA)
  6
Continuous
 62
     7
100
AcDbLine
 10
50.4773118504
 20
438.5380589212
 30
0.0
 11
50.4773118504
 21
438.7273901814
 31
0.0
  0
LINE
  5
1DE
330
75
100
AcDbEntity
  8
$DDT_AUDIT_GENERATED_(CA)
  6
Continuous
 62
     7
100
AcDbLine
 10
52.5440023191
 20
438.5380589212
 30
0.0
 11
51.6773118504
 21
438.5380589212
 31
0.0
  0
LINE
  5
1DF
330
75
100
AcDbEntity
  8
$DDT_AUDIT_GENERATED_(CA)
  6
Continuous
 62
     7
100
AcDbLine
 10
51.6773118504
 20
438.5380589212
 30
0.0
 11
51.6773118504
 21
438.6462398886
 31
0.0
  0
LINE
  5
1E0
330
75
100
AcDbEntity
  8
$DDT_AUDIT_GENERATED_(CA)
  6
Continuous
 62
     7
100
AcDbLine
 10
54.7640928216
 20
438.0309170071
 30
0.0
 11
54.0773118504
 21
438.0309170071
 31
0.0
  0
LINE
  5
1E1
330
75
100
AcDbEntity
  8
$DDT_AUDIT_GENERATED_(CA)
  6
Continuous
 62
     7
100
AcDbLine
 10
54.0773118504
 20
438.0309170071
 30
0.0
 11
54.0773118504
 21
438.2289223877
 31
0.0
  0
LINE
  5
1E2
330
75
100
AcDbEntity
  8
$DDT_AUDIT_GENERATED_(CA)
  6
Continuous
 62
     7
100
AcDbLine
 10
56.0384134116
 20
437.523775093
 30
0.0
 11
55.2773118504
 21
437.523775093
 31
0.0
  0
LINE
  5
1E3
330
75
100
AcDbEntity
  8
$DDT_AUDIT_GENERATED_(CA)
  6
Continuous
 62
     7
100
AcDbLine
 10
55.2773118504
 20
437.523775093
 30
0.0
 11
55.2773118504
 21
437.8521213689
 31
0.0
  0
LINE
  5
1E4
330
75
100
AcDbEntity
  8
$DDT_AUDIT_GENERATED_(CA)
  6
Continuous
 62
     7
100
AcDbLine
 10
56.4773118504
 20
436.9321095266
 30
0.0
 11
57.0080588691
 21
436.9321095266
 31
0.0
  0
LINE
  5
1E5
330
75
100
AcDbEntity
  8
$DDT_AUDIT_GENERATED_(CA)
  6
Continuous
 62
     7
100
AcDbLine
 10
57.4732984258
 20
436.5094912649
 30
0.0
 11
56.4773118504
 21
436.5094912649
 31
0.0
  0
LINE
  5
1E6
330
75
100
AcDbEntity
  8
$DDT_AUDIT_GENERATED_(CA)
  6
Continuous
 62
     7
100
AcDbLine
 10
56.4773118504
 20
436.5094912649
 30
0.0
 11
56.4773118504
 21
436.9321095266
 31
0.0
  0
LINE
  5
1E7
330
75
100
AcDbEntity
  8
$DDT_AUDIT_GENERATED_(CA)
  6
Continuous
 62
     7
100
AcDbLine
 10
56.894530483
 20
437.0166331789
 30
0.0
 11
56.4773118504
 21
437.0166331789
 31
0.0
  0
LINE
  5
1E8
330
75
100
AcDbEntity
  8
$DDT_AUDIT_GENERATED_(CA)
  6
Continuous
 62
     7
100
AcDbLine
 10
56.4773118504
 20
437.0166331789
 30
0.0
 11
56.4773118504
 21
437.2877549807
 31
0.0
  0
LINE
  5
1E9
330
75
100
AcDbEntity
  8
$DDT_AUDIT_GENERATED_(CA)
  6
Continuous
 62
     7
100
AcDbLine
 10
57.6773118504
 20
435.4952074367
 30
0.0
 11
57.6773118504
 21
435.9178256984
 31
0.0
  0
LINE
  5
1EA
330
75
100
AcDbEntity
  8
$DDT_AUDIT_GENERATED_(CA)
  6
Continuous
 62
     7
100
AcDbLine
 10
57.6773118504
 20
435.9178256984
 30
0.0
 11
57.8761092338
 21
435.9178256984
 31
0.0
  0
LINE
  5
1EB
330
75
100
AcDbEntity
  8
$DDT_AUDIT_GENERATED_(CA)
  6
Continuous
 62
     7
100
AcDbLine
 10
57.8347070668
 20
436.0023493508
 30
0.0
 11
57.6773118504
 21
436.0023493508
 31
0.0
  0
LINE
  5
1EC
330
75
100
AcDbEntity
  8
$DDT_AUDIT_GENERATED_(CA)
  6
Continuous
 62
     7
100
AcDbLine
 10
57.6773118504
 20
436.0023493508
 30
0.0
 11
57.6773118504
 21
436.2581370358
 31
0.0
  0
LINE
  5
1ED
330
75
100
AcDbEntity
  8
$DDT_AUDIT_GENERATED_(CA)
  6
Continuous
 62
     7
100
AcDbLine
 10
50.2773118504
 20
435.4952074367
 30
0.0
 11
49.2773118504
 21
435.4952074367
 31
0.0
  0
LINE
  5
1EE
330
75
100
AcDbEntity
  8
$DDT_AUDIT_GENERATED_(CA)
  6
Continuous
 62
     7
100
AcDbLine
 10
50.2773118504
 20
435.4106837843
 30
0.0
 11
50.2773118504
 21
434.9880655226
 31
0.0
  0
LINE
  5
1EF
330
75
100
AcDbEntity
  8
$DDT_AUDIT_GENERATED_(CA)
  6
Continuous
 62
     7
100
AcDbLine
 10
50.2773118504
 20
434.9880655226
 30
0.0
 11
49.2773118504
 21
434.9880655226
 31
0.0
  0
LINE
  5
1F0
330
75
100
AcDbEntity
  8
$DDT_AUDIT_GENERATED_(CA)
  6
Continuous
 62
     7
100
AcDbLine
 10
49.2773118504
 20
435.4106837843
 30
0.0
 11
50.2773118504
 21
435.4106837843
 31
0.0
  0
LINE
  5
1F1
330
75
100
AcDbEntity
  8
$DDT_AUDIT_GENERATED_(CA)
  6
Continuous
 62
     7
100
AcDbLine
 10
50.2773118504
 20
434.9035418702
 30
0.0
 11
50.2773118504
 21
434.4809236085
 31
0.0
  0
LINE
  5
1F2
330
75
100
AcDbEntity
  8
$DDT_AUDIT_GENERATED_(CA)
  6
Continuous
 62
     7
100
AcDbLine
 10
50.2773118504
 20
434.4809236085
 30
0.0
 11
49.2773118504
 21
434.4809236085
 31
0.0
  0
LINE
  5
1F3
330
75
100
AcDbEntity
  8
$DDT_AUDIT_GENERATED_(CA)
  6
Continuous
 62
     7
100
AcDbLine
 10
49.2773118504
 20
434.9035418702
 30
0.0
 11
50.2773118504
 21
434.9035418702
 31
0.0
  0
LINE
  5
1F4
330
75
100
AcDbEntity
  8
$DDT_AUDIT_GENERATED_(CA)
  6
Continuous
 62
     7
100
AcDbLine
 10
50.2773118504
 20
434.3963999562
 30
0.0
 11
50.2773118504
 21
433.9737816944
 31
0.0
  0
LINE
  5
1F5
330
75
100
AcDbEntity
  8
$DDT_AUDIT_GENERATED_(CA)
  6
Continuous
 62
     7
100
AcDbLine
 10
50.2773118504
 20
433.9737816944
 30
0.0
 11
49.2773118504
 21
433.9737816944
 31
0.0
  0
LINE
  5
1F6
330
75
100
AcDbEntity
  8
$DDT_AUDIT_GENERATED_(CA)
  6
Continuous
 62
     7
100
AcDbLine
 10
49.2773118504
 20
434.3963999562
 30
0.0
 11
50.2773118504
 21
434.3963999562
 31
0.0
  0
LINE
  5
1F7
330
75
100
AcDbEntity
  8
$DDT_AUDIT_GENERATED_(CA)
  6
Continuous
 62
     7
100
AcDbLine
 10
50.2773118504
 20
433.8892580421
 30
0.0
 11
50.2773118504
 21
433.4666397803
 31
0.0
  0
LINE
  5
1F8
330
75
100
AcDbEntity
  8
$DDT_AUDIT_GENERATED_(CA)
  6
Continuous
 62
     7
100
AcDbLine
 10
50.2773118504
 20
433.4666397803
 30
0.0
 11
49.2773118504
 21
433.4666397803
 31
0.0
  0
LINE
  5
1F9
330
75
100
AcDbEntity
  8
$DDT_AUDIT_GENERATED_(CA)
  6
Continuous
 62
     7
100
AcDbLine
 10
49.2773118504
 20
433.8892580421
 30
0.0
 11
50.2773118504
 21
433.8892580421
 31
0.0
  0
LINE
  5
1FA
330
75
100
AcDbEntity
  8
$DDT_AUDIT_GENERATED_(CA)
  6
Continuous
 62
     7
100
AcDbLine
 10
50.2773118504
 20
433.382116128
 30
0.0
 11
50.2773118504
 21
432.9594978662
 31
0.0
  0
LINE
  5
1FB
330
75
100
AcDbEntity
  8
$DDT_AUDIT_GENERATED_(CA)
  6
Continuous
 62
     7
100
AcDbLine
 10
50.2773118504
 20
432.9594978662
 30
0.0
 11
49.2773118504
 21
432.9594978662
 31
0.0
  0
LINE
  5
1FC
330
75
100
AcDbEntity
  8
$DDT_AUDIT_GENERATED_(CA)
  6
Continuous
 62
     7
100
AcDbLine
 10
49.2773118504
 20
433.382116128
 30
0.0
 11
50.2773118504
 21
433.382116128
 31
0.0
  0
LINE
  5
1FD
330
75
100
AcDbEntity
  8
$DDT_AUDIT_GENERATED_(CA)
  6
Continuous
 62
     7
100
AcDbLine
 10
50.2773118504
 20
432.4523559521
 30
0.0
 11
49.2773118504
 21
432.4523559521
 31
0.0
  0
LINE
  5
1FE
330
75
100
AcDbEntity
  8
$DDT_AUDIT_GENERATED_(CA)
  6
Continuous
 62
     7
100
AcDbLine
 10
50.2773118504
 20
432.8749742139
 30
0.0
 11
50.2773118504
 21
432.4523559521
 31
0.0
  0
LINE
  5
1FF
330
75
100
AcDbEntity
  8
$DDT_AUDIT_GENERATED_(CA)
  6
Continuous
 62
     7
100
AcDbLine
 10
49.2773118504
 20
432.8749742139
 30
0.0
 11
50.2773118504
 21
432.8749742139
 31
0.0
  0
LINE
  5
200
330
75
100
AcDbEntity
  8
$DDT_AUDIT_GENERATED_(CA)
  6
Continuous
 62
     7
100
AcDbLine
 10
51.4773118504
 20
435.4952074367
 30
0.0
 11
50.4773118504
 21
435.4952074367
 31
0.0
  0
LINE
  5
201
330
75
100
AcDbEntity
  8
$DDT_AUDIT_GENERATED_(CA)
  6
Continuous
 62
     7
100
AcDbLine
 10
51.4773118504
 20
435.4106837843
 30
0.0
 11
51.4773118504
 21
434.9880655226
 31
0.0
  0
LINE
  5
202
330
75
100
AcDbEntity
  8
$DDT_AUDIT_GENERATED_(CA)
  6
Continuous
 62
     7
100
AcDbLine
 10
51.4773118504
 20
434.9880655226
 30
0.0
 11
50.4773118504
 21
434.9880655226
 31
0.0
  0
LINE
  5
203
330
75
100
AcDbEntity
  8
$DDT_AUDIT_GENERATED_(CA)
  6
Continuous
 62
     7
100
AcDbLine
 10
50.4773118504
 20
434.9880655226
 30
0.0
 11
50.4773118504
 21
435.4106837843
 31
0.0
  0
LINE
  5
204
330
75
100
AcDbEntity
  8
$DDT_AUDIT_GENERATED_(CA)
  6
Continuous
 62
     7
100
AcDbLine
 10
50.4773118504
 20
435.4106837843
 30
0.0
 11
51.4773118504
 21
435.4106837843
 31
0.0
  0
LINE
  5
205
330
75
100
AcDbEntity
  8
$DDT_AUDIT_GENERATED_(CA)
  6
Continuous
 62
     7
100
AcDbLine
 10
51.4773118504
 20
434.9035418702
 30
0.0
 11
51.4773118504
 21
434.4809236085
 31
0.0
  0
LINE
  5
206
330
75
100
AcDbEntity
  8
$DDT_AUDIT_GENERATED_(CA)
  6
Continuous
 62
     7
100
AcDbLine
 10
51.4773118504
 20
434.4809236085
 30
0.0
 11
50.4773118504
 21
434.4809236085
 31
0.0
  0
LINE
  5
207
330
75
100
AcDbEntity
  8
$DDT_AUDIT_GENERATED_(CA)
  6
Continuous
 62
     7
100
AcDbLine
 10
50.4773118504
 20
434.4809236085
 30
0.0
 11
50.4773118504
 21
434.9035418702
 31
0.0
  0
LINE
  5
208
330
75
100
AcDbEntity
  8
$DDT_AUDIT_GENERATED_(CA)
  6
Continuous
 62
     7
100
AcDbLine
 10
50.4773118504
 20
434.9035418702
 30
0.0
 11
51.4773118504
 21
434.9035418702
 31
0.0
  0
LINE
  5
209
330
75
100
AcDbEntity
  8
$DDT_AUDIT_GENERATED_(CA)
  6
Continuous
 62
     7
100
AcDbLine
 10
51.4773118504
 20
434.3963999562
 30
0.0
 11
51.4773118504
 21
433.9737816944
 31
0.0
  0
LINE
  5
20A
330
75
100
AcDbEntity
  8
$DDT_AUDIT_GENERATED_(CA)
  6
Continuous
 62
     7
100
AcDbLine
 10
51.4773118504
 20
433.9737816944
 30
0.0
 11
50.4773118504
 21
433.9737816944
 31
0.0
  0
LINE
  5
20B
330
75
100
AcDbEntity
  8
$DDT_AUDIT_GENERATED_(CA)
  6
Continuous
 62
     7
100
AcDbLine
 10
50.4773118504
 20
433.9737816944
 30
0.0
 11
50.4773118504
 21
434.3963999562
 31
0.0
  0
LINE
  5
20C
330
75
100
AcDbEntity
  8
$DDT_AUDIT_GENERATED_(CA)
  6
Continuous
 62
     7
100
AcDbLine
 10
50.4773118504
 20
434.3963999562
 30
0.0
 11
51.4773118504
 21
434.3963999562
 31
0.0
  0
LINE
  5
20D
330
75
100
AcDbEntity
  8
$DDT_AUDIT_GENERATED_(CA)
  6
Continuous
 62
     7
100
AcDbLine
 10
51.4773118504
 20
433.8892580421
 30
0.0
 11
51.4773118504
 21
433.4666397803
 31
0.0
  0
LINE
  5
20E
330
75
100
AcDbEntity
  8
$DDT_AUDIT_GENERATED_(CA)
  6
Continuous
 62
     7
100
AcDbLine
 10
51.4773118504
 20
433.4666397803
 30
0.0
 11
50.4773118504
 21
433.4666397803
 31
0.0
  0
LINE
  5
20F
330
75
100
AcDbEntity
  8
$DDT_AUDIT_GENERATED_(CA)
  6
Continuous
 62
     7
100
AcDbLine
 10
50.4773118504
 20
433.4666397803
 30
0.0
 11
50.4773118504
 21
433.8892580421
 31
0.0
  0
LINE
  5
210
330
75
100
AcDbEntity
  8
$DDT_AUDIT_GENERATED_(CA)
  6
Continuous
 62
     7
100
AcDbLine
 10
50.4773118504
 20
433.8892580421
 30
0.0
 11
51.4773118504
 21
433.8892580421
 31
0.0
  0
LINE
  5
211
330
75
100
AcDbEntity
  8
$DDT_AUDIT_GENERATED_(CA)
  6
Continuous
 62
     7
100
AcDbLine
 10
51.4773118504
 20
433.382116128
 30
0.0
 11
51.4773118504
 21
432.9594978662
 31
0.0
  0
LINE
  5
212
330
75
100
AcDbEntity
  8
$DDT_AUDIT_GENERATED_(CA)
  6
Continuous
 62
     7
100
AcDbLine
 10
51.4773118504
 20
432.9594978662
 30
0.0
 11
50.4773118504
 21
432.9594978662
 31
0.0
  0
LINE
  5
213
330
75
100
AcDbEntity
  8
$DDT_AUDIT_GENERATED_(CA)
  6
Continuous
 62
     7
100
AcDbLine
 10
50.4773118504
 20
432.9594978662
 30
0.0
 11
50.4773118504
 21
433.382116128
 31
0.0
  0
LINE
  5
214
330
75
100
AcDbEntity
  8
$DDT_AUDIT_GENERATED_(CA)
  6
Continuous
 62
     7
100
AcDbLine
 10
50.4773118504
 20
433.382116128
 30
0.0
 11
51.4773118504
 21
433.382116128
 31
0.0
  0
LINE
  5
215
330
75
100
AcDbEntity
  8
$DDT_AUDIT_GENERATED_(CA)
  6
Continuous
 62
     7
100
AcDbLine
 10
51.4773118504
 20
432.8749742139
 30
0.0
 11
51.4773118504
 21
432.4523559521
 31
0.0
  0
LINE
  5
216
330
75
100
AcDbEntity
  8
$DDT_AUDIT_GENERATED_(CA)
  6
Continuous
 62
     7
100
AcDbLine
 10
51.4773118504
 20
432.4523559521
 30
0.0
 11
50.4773118504
 21
432.4523559521
 31
0.0
  0
LINE
  5
217
330
75
100
AcDbEntity
  8
$DDT_AUDIT_GENERATED_(CA)
  6
Continuous
 62
     7
100
AcDbLine
 10
50.4773118504
 20
432.4523559521
 30
0.0
 11
50.4773118504
 21
432.8749742139
 31
0.0
  0
LINE
  5
218
330
75
100
AcDbEntity
  8
$DDT_AUDIT_GENERATED_(CA)
  6
Continuous
 62
     7
100
AcDbLine
 10
50.4773118504
 20
432.8749742139
 30
0.0
 11
51.4773118504
 21
432.8749742139
 31
0.0
  0
LINE
  5
219
330
75
100
AcDbEntity
  8
$DDT_AUDIT_GENERATED_(CA)
  6
Continuous
 62
     7
100
AcDbLine
 10
52.6773118504
 20
435.4952074367
 30
0.0
 11
51.6773118504
 21
435.4952074367
 31
0.0
  0
LINE
  5
21A
330
75
100
AcDbEntity
  8
$DDT_AUDIT_GENERATED_(CA)
  6
Continuous
 62
     7
100
AcDbLine
 10
52.6773118504
 20
435.4106837843
 30
0.0
 11
52.6773118504
 21
434.9880655226
 31
0.0
  0
LINE
  5
21B
330
75
100
AcDbEntity
  8
$DDT_AUDIT_GENERATED_(CA)
  6
Continuous
 62
     7
100
AcDbLine
 10
52.6773118504
 20
434.9880655226
 30
0.0
 11
51.6773118504
 21
434.9880655226
 31
0.0
  0
LINE
  5
21C
330
75
100
AcDbEntity
  8
$DDT_AUDIT_GENERATED_(CA)
  6
Continuous
 62
     7
100
AcDbLine
 10
51.6773118504
 20
434.9880655226
 30
0.0
 11
51.6773118504
 21
435.4106837843
 31
0.0
  0
LINE
  5
21D
330
75
100
AcDbEntity
  8
$DDT_AUDIT_GENERATED_(CA)
  6
Continuous
 62
     7
100
AcDbLine
 10
51.6773118504
 20
435.4106837843
 30
0.0
 11
52.6773118504
 21
435.4106837843
 31
0.0
  0
LINE
  5
21E
330
75
100
AcDbEntity
  8
$DDT_AUDIT_GENERATED_(CA)
  6
Continuous
 62
     7
100
AcDbLine
 10
52.6773118504
 20
434.9035418702
 30
0.0
 11
52.6773118504
 21
434.4809236085
 31
0.0
  0
LINE
  5
21F
330
75
100
AcDbEntity
  8
$DDT_AUDIT_GENERATED_(CA)
  6
Continuous
 62
     7
100
AcDbLine
 10
52.6773118504
 20
434.4809236085
 30
0.0
 11
51.6773118504
 21
434.4809236085
 31
0.0
  0
LINE
  5
220
330
75
100
AcDbEntity
  8
$DDT_AUDIT_GENERATED_(CA)
  6
Continuous
 62
     7
100
AcDbLine
 10
51.6773118504
 20
434.4809236085
 30
0.0
 11
51.6773118504
 21
434.9035418702
 31
0.0
  0
LINE
  5
221
330
75
100
AcDbEntity
  8
$DDT_AUDIT_GENERATED_(CA)
  6
Continuous
 62
     7
100
AcDbLine
 10
51.6773118504
 20
434.9035418702
 30
0.0
 11
52.6773118504
 21
434.9035418702
 31
0.0
  0
LINE
  5
222
330
75
100
AcDbEntity
  8
$DDT_AUDIT_GENERATED_(CA)
  6
Continuous
 62
     7
100
AcDbLine
 10
52.6773118504
 20
434.3963999562
 30
0.0
 11
52.6773118504
 21
433.9737816944
 31
0.0
  0
LINE
  5
223
330
75
100
AcDbEntity
  8
$DDT_AUDIT_GENERATED_(CA)
  6
Continuous
 62
     7
100
AcDbLine
 10
52.6773118504
 20
433.9737816944
 30
0.0
 11
51.6773118504
 21
433.9737816944
 31
0.0
  0
LINE
  5
224
330
75
100
AcDbEntity
  8
$DDT_AUDIT_GENERATED_(CA)
  6
Continuous
 62
     7
100
AcDbLine
 10
51.6773118504
 20
433.9737816944
 30
0.0
 11
51.6773118504
 21
434.3963999562
 31
0.0
  0
LINE
  5
225
330
75
100
AcDbEntity
  8
$DDT_AUDIT_GENERATED_(CA)
  6
Continuous
 62
     7
100
AcDbLine
 10
51.6773118504
 20
434.3963999562
 30
0.0
 11
52.6773118504
 21
434.3963999562
 31
0.0
  0
LINE
  5
226
330
75
100
AcDbEntity
  8
$DDT_AUDIT_GENERATED_(CA)
  6
Continuous
 62
     7
100
AcDbLine
 10
52.6773118504
 20
433.8892580421
 30
0.0
 11
52.6773118504
 21
433.4666397803
 31
0.0
  0
LINE
  5
227
330
75
100
AcDbEntity
  8
$DDT_AUDIT_GENERATED_(CA)
  6
Continuous
 62
     7
100
AcDbLine
 10
52.6773118504
 20
433.4666397803
 30
0.0
 11
51.6773118504
 21
433.4666397803
 31
0.0
  0
LINE
  5
228
330
75
100
AcDbEntity
  8
$DDT_AUDIT_GENERATED_(CA)
  6
Continuous
 62
     7
100
AcDbLine
 10
51.6773118504
 20
433.4666397803
 30
0.0
 11
51.6773118504
 21
433.8892580421
 31
0.0
  0
LINE
  5
229
330
75
100
AcDbEntity
  8
$DDT_AUDIT_GENERATED_(CA)
  6
Continuous
 62
     7
100
AcDbLine
 10
51.6773118504
 20
433.8892580421
 30
0.0
 11
52.6773118504
 21
433.8892580421
 31
0.0
  0
LINE
  5
22A
330
75
100
AcDbEntity
  8
$DDT_AUDIT_GENERATED_(CA)
  6
Continuous
 62
     7
100
AcDbLine
 10
52.6773118504
 20
433.382116128
 30
0.0
 11
52.6773118504
 21
432.9594978662
 31
0.0
  0
LINE
  5
22B
330
75
100
AcDbEntity
  8
$DDT_AUDIT_GENERATED_(CA)
  6
Continuous
 62
     7
100
AcDbLine
 10
52.6773118504
 20
432.9594978662
 30
0.0
 11
51.6773118504
 21
432.9594978662
 31
0.0
  0
LINE
  5
22C
330
75
100
AcDbEntity
  8
$DDT_AUDIT_GENERATED_(CA)
  6
Continuous
 62
     7
100
AcDbLine
 10
51.6773118504
 20
432.9594978662
 30
0.0
 11
51.6773118504
 21
433.382116128
 31
0.0
  0
LINE
  5
22D
330
75
100
AcDbEntity
  8
$DDT_AUDIT_GENERATED_(CA)
  6
Continuous
 62
     7
100
AcDbLine
 10
51.6773118504
 20
433.382116128
 30
0.0
 11
52.6773118504
 21
433.382116128
 31
0.0
  0
LINE
  5
22E
330
75
100
AcDbEntity
  8
$DDT_AUDIT_GENERATED_(CA)
  6
Continuous
 62
     7
100
AcDbLine
 10
53.8773118504
 20
435.4952074367
 30
0.0
 11
52.8773118504
 21
435.4952074367
 31
0.0
  0
LINE
  5
22F
330
75
100
AcDbEntity
  8
$DDT_AUDIT_GENERATED_(CA)
  6
Continuous
 62
     7
100
AcDbLine
 10
53.8773118504
 20
435.4106837843
 30
0.0
 11
53.8773118504
 21
434.9880655226
 31
0.0
  0
LINE
  5
230
330
75
100
AcDbEntity
  8
$DDT_AUDIT_GENERATED_(CA)
  6
Continuous
 62
     7
100
AcDbLine
 10
53.8773118504
 20
434.9880655226
 30
0.0
 11
52.8773118504
 21
434.9880655226
 31
0.0
  0
LINE
  5
231
330
75
100
AcDbEntity
  8
$DDT_AUDIT_GENERATED_(CA)
  6
Continuous
 62
     7
100
AcDbLine
 10
52.8773118504
 20
434.9880655226
 30
0.0
 11
52.8773118504
 21
435.4106837843
 31
0.0
  0
LINE
  5
232
330
75
100
AcDbEntity
  8
$DDT_AUDIT_GENERATED_(CA)
  6
Continuous
 62
     7
100
AcDbLine
 10
52.8773118504
 20
435.4106837843
 30
0.0
 11
53.8773118504
 21
435.4106837843
 31
0.0
  0
LINE
  5
233
330
75
100
AcDbEntity
  8
$DDT_AUDIT_GENERATED_(CA)
  6
Continuous
 62
     7
100
AcDbLine
 10
53.8773118504
 20
434.9035418702
 30
0.0
 11
53.8773118504
 21
434.4809236085
 31
0.0
  0
LINE
  5
234
330
75
100
AcDbEntity
  8
$DDT_AUDIT_GENERATED_(CA)
  6
Continuous
 62
     7
100
AcDbLine
 10
53.8773118504
 20
434.4809236085
 30
0.0
 11
52.8773118504
 21
434.4809236085
 31
0.0
  0
LINE
  5
235
330
75
100
AcDbEntity
  8
$DDT_AUDIT_GENERATED_(CA)
  6
Continuous
 62
     7
100
AcDbLine
 10
52.8773118504
 20
434.4809236085
 30
0.0
 11
52.8773118504
 21
434.9035418702
 31
0.0
  0
LINE
  5
236
330
75
100
AcDbEntity
  8
$DDT_AUDIT_GENERATED_(CA)
  6
Continuous
 62
     7
100
AcDbLine
 10
52.8773118504
 20
434.9035418702
 30
0.0
 11
53.8773118504
 21
434.9035418702
 31
0.0
  0
LINE
  5
237
330
75
100
AcDbEntity
  8
$DDT_AUDIT_GENERATED_(CA)
  6
Continuous
 62
     7
100
AcDbLine
 10
53.8773118504
 20
434.3963999562
 30
0.0
 11
53.8773118504
 21
433.9737816944
 31
0.0
  0
LINE
  5
238
330
75
100
AcDbEntity
  8
$DDT_AUDIT_GENERATED_(CA)
  6
Continuous
 62
     7
100
AcDbLine
 10
53.8773118504
 20
433.9737816944
 30
0.0
 11
52.8773118504
 21
433.9737816944
 31
0.0
  0
LINE
  5
239
330
75
100
AcDbEntity
  8
$DDT_AUDIT_GENERATED_(CA)
  6
Continuous
 62
     7
100
AcDbLine
 10
52.8773118504
 20
433.9737816944
 30
0.0
 11
52.8773118504
 21
434.3963999562
 31
0.0
  0
LINE
  5
23A
330
75
100
AcDbEntity
  8
$DDT_AUDIT_GENERATED_(CA)
  6
Continuous
 62
     7
100
AcDbLine
 10
52.8773118504
 20
434.3963999562
 30
0.0
 11
53.8773118504
 21
434.3963999562
 31
0.0
  0
LINE
  5
23B
330
75
100
AcDbEntity
  8
$DDT_AUDIT_GENERATED_(CA)
  6
Continuous
 62
     7
100
AcDbLine
 10
53.8773118504
 20
433.8892580421
 30
0.0
 11
53.8773118504
 21
433.4666397803
 31
0.0
  0
LINE
  5
23C
330
75
100
AcDbEntity
  8
$DDT_AUDIT_GENERATED_(CA)
  6
Continuous
 62
     7
100
AcDbLine
 10
53.8773118504
 20
433.4666397803
 30
0.0
 11
52.8773118504
 21
433.4666397803
 31
0.0
  0
LINE
  5
23D
330
75
100
AcDbEntity
  8
$DDT_AUDIT_GENERATED_(CA)
  6
Continuous
 62
     7
100
AcDbLine
 10
52.8773118504
 20
433.4666397803
 30
0.0
 11
52.8773118504
 21
433.8892580421
 31
0.0
  0
LINE
  5
23E
330
75
100
AcDbEntity
  8
$DDT_AUDIT_GENERATED_(CA)
  6
Continuous
 62
     7
100
AcDbLine
 10
52.8773118504
 20
433.8892580421
 30
0.0
 11
53.8773118504
 21
433.8892580421
 31
0.0
  0
LINE
  5
23F
330
75
100
AcDbEntity
  8
$DDT_AUDIT_GENERATED_(CA)
  6
Continuous
 62
     7
100
AcDbLine
 10
53.8773118504
 20
432.9594978662
 30
0.0
 11
52.8773118504
 21
432.9594978662
 31
0.0
  0
LINE
  5
240
330
75
100
AcDbEntity
  8
$DDT_AUDIT_GENERATED_(CA)
  6
Continuous
 62
     7
100
AcDbLine
 10
53.8773118504
 20
433.382116128
 30
0.0
 11
53.8773118504
 21
432.9594978662
 31
0.0
  0
LINE
  5
241
330
75
100
AcDbEntity
  8
$DDT_AUDIT_GENERATED_(CA)
  6
Continuous
 62
     7
100
AcDbLine
 10
52.8773118504
 20
432.9594978662
 30
0.0
 11
52.8773118504
 21
433.382116128
 31
0.0
  0
LINE
  5
242
330
75
100
AcDbEntity
  8
$DDT_AUDIT_GENERATED_(CA)
  6
Continuous
 62
     7
100
AcDbLine
 10
52.8773118504
 20
433.382116128
 30
0.0
 11
53.8773118504
 21
433.382116128
 31
0.0
  0
LINE
  5
243
330
75
100
AcDbEntity
  8
$DDT_AUDIT_GENERATED_(CA)
  6
Continuous
 62
     7
100
AcDbLine
 10
55.0773118504
 20
435.4952074367
 30
0.0
 11
54.0773118504
 21
435.4952074367
 31
0.0
  0
LINE
  5
244
330
75
100
AcDbEntity
  8
$DDT_AUDIT_GENERATED_(CA)
  6
Continuous
 62
     7
100
AcDbLine
 10
55.0773118504
 20
435.4106837843
 30
0.0
 11
55.0773118504
 21
434.9880655226
 31
0.0
  0
LINE
  5
245
330
75
100
AcDbEntity
  8
$DDT_AUDIT_GENERATED_(CA)
  6
Continuous
 62
     7
100
AcDbLine
 10
55.0773118504
 20
434.9880655226
 30
0.0
 11
54.0773118504
 21
434.9880655226
 31
0.0
  0
LINE
  5
246
330
75
100
AcDbEntity
  8
$DDT_AUDIT_GENERATED_(CA)
  6
Continuous
 62
     7
100
AcDbLine
 10
54.0773118504
 20
434.9880655226
 30
0.0
 11
54.0773118504
 21
435.4106837843
 31
0.0
  0
LINE
  5
247
330
75
100
AcDbEntity
  8
$DDT_AUDIT_GENERATED_(CA)
  6
Continuous
 62
     7
100
AcDbLine
 10
54.0773118504
 20
435.4106837843
 30
0.0
 11
55.0773118504
 21
435.4106837843
 31
0.0
  0
LINE
  5
248
330
75
100
AcDbEntity
  8
$DDT_AUDIT_GENERATED_(CA)
  6
Continuous
 62
     7
100
AcDbLine
 10
55.0773118504
 20
434.9035418702
 30
0.0
 11
55.0773118504
 21
434.4809236085
 31
0.0
  0
LINE
  5
249
330
75
100
AcDbEntity
  8
$DDT_AUDIT_GENERATED_(CA)
  6
Continuous
 62
     7
100
AcDbLine
 10
55.0773118504
 20
434.4809236085
 30
0.0
 11
54.0773118504
 21
434.4809236085
 31
0.0
  0
LINE
  5
24A
330
75
100
AcDbEntity
  8
$DDT_AUDIT_GENERATED_(CA)
  6
Continuous
 62
     7
100
AcDbLine
 10
54.0773118504
 20
434.4809236085
 30
0.0
 11
54.0773118504
 21
434.9035418702
 31
0.0
  0
LINE
  5
24B
330
75
100
AcDbEntity
  8
$DDT_AUDIT_GENERATED_(CA)
  6
Continuous
 62
     7
100
AcDbLine
 10
54.0773118504
 20
434.9035418702
 30
0.0
 11
55.0773118504
 21
434.9035418702
 31
0.0
  0
LINE
  5
24C
330
75
100
AcDbEntity
  8
$DDT_AUDIT_GENERATED_(CA)
  6
Continuous
 62
     7
100
AcDbLine
 10
55.0773118504
 20
434.3963999562
 30
0.0
 11
55.0773118504
 21
433.9737816944
 31
0.0
  0
LINE
  5
24D
330
75
100
AcDbEntity
  8
$DDT_AUDIT_GENERATED_(CA)
  6
Continuous
 62
     7
100
AcDbLine
 10
55.0773118504
 20
433.9737816944
 30
0.0
 11
54.0773118504
 21
433.9737816944
 31
0.0
  0
LINE
  5
24E
330
75
100
AcDbEntity
  8
$DDT_AUDIT_GENERATED_(CA)
  6
Continuous
 62
     7
100
AcDbLine
 10
54.0773118504
 20
433.9737816944
 30
0.0
 11
54.0773118504
 21
434.3963999562
 31
0.0
  0
LINE
  5
24F
330
75
100
AcDbEntity
  8
$DDT_AUDIT_GENERATED_(CA)
  6
Continuous
 62
     7
100
AcDbLine
 10
54.0773118504
 20
434.3963999562
 30
0.0
 11
55.0773118504
 21
434.3963999562
 31
0.0
  0
LINE
  5
250
330
75
100
AcDbEntity
  8
$DDT_AUDIT_GENERATED_(CA)
  6
Continuous
 62
     7
100
AcDbLine
 10
55.0773118504
 20
433.8892580421
 30
0.0
 11
55.0773118504
 21
433.4666397803
 31
0.0
  0
LINE
  5
251
330
75
100
AcDbEntity
  8
$DDT_AUDIT_GENERATED_(CA)
  6
Continuous
 62
     7
100
AcDbLine
 10
55.0773118504
 20
433.4666397803
 30
0.0
 11
54.0773118504
 21
433.4666397803
 31
0.0
  0
LINE
  5
252
330
75
100
AcDbEntity
  8
$DDT_AUDIT_GENERATED_(CA)
  6
Continuous
 62
     7
100
AcDbLine
 10
54.0773118504
 20
433.4666397803
 30
0.0
 11
54.0773118504
 21
433.8892580421
 31
0.0
  0
LINE
  5
253
330
75
100
AcDbEntity
  8
$DDT_AUDIT_GENERATED_(CA)
  6
Continuous
 62
     7
100
AcDbLine
 10
54.0773118504
 20
433.8892580421
 30
0.0
 11
55.0773118504
 21
433.8892580421
 31
0.0
  0
LINE
  5
254
330
75
100
AcDbEntity
  8
$DDT_AUDIT_GENERATED_(CA)
  6
Continuous
 62
     7
100
AcDbLine
 10
56.2773118504
 20
435.4952074367
 30
0.0
 11
55.2773118504
 21
435.4952074367
 31
0.0
  0
LINE
  5
255
330
75
100
AcDbEntity
  8
$DDT_AUDIT_GENERATED_(CA)
  6
Continuous
 62
     7
100
AcDbLine
 10
56.2773118504
 20
435.4106837843
 30
0.0
 11
56.2773118504
 21
434.9880655226
 31
0.0
  0
LINE
  5
256
330
75
100
AcDbEntity
  8
$DDT_AUDIT_GENERATED_(CA)
  6
Continuous
 62
     7
100
AcDbLine
 10
56.2773118504
 20
434.9880655226
 30
0.0
 11
55.2773118504
 21
434.9880655226
 31
0.0
  0
LINE
  5
257
330
75
100
AcDbEntity
  8
$DDT_AUDIT_GENERATED_(CA)
  6
Continuous
 62
     7
100
AcDbLine
 10
55.2773118504
 20
434.9880655226
 30
0.0
 11
55.2773118504
 21
435.4106837843
 31
0.0
  0
LINE
  5
258
330
75
100
AcDbEntity
  8
$DDT_AUDIT_GENERATED_(CA)
  6
Continuous
 62
     7
100
AcDbLine
 10
55.2773118504
 20
435.4106837843
 30
0.0
 11
56.2773118504
 21
435.4106837843
 31
0.0
  0
LINE
  5
259
330
75
100
AcDbEntity
  8
$DDT_AUDIT_GENERATED_(CA)
  6
Continuous
 62
     7
100
AcDbLine
 10
56.2773118504
 20
434.9035418702
 30
0.0
 11
56.2773118504
 21
434.4809236085
 31
0.0
  0
LINE
  5
25A
330
75
100
AcDbEntity
  8
$DDT_AUDIT_GENERATED_(CA)
  6
Continuous
 62
     7
100
AcDbLine
 10
56.2773118504
 20
434.4809236085
 30
0.0
 11
55.2773118504
 21
434.4809236085
 31
0.0
  0
LINE
  5
25B
330
75
100
AcDbEntity
  8
$DDT_AUDIT_GENERATED_(CA)
  6
Continuous
 62
     7
100
AcDbLine
 10
55.2773118504
 20
434.4809236085
 30
0.0
 11
55.2773118504
 21
434.9035418702
 31
0.0
  0
LINE
  5
25C
330
75
100
AcDbEntity
  8
$DDT_AUDIT_GENERATED_(CA)
  6
Continuous
 62
     7
100
AcDbLine
 10
55.2773118504
 20
434.9035418702
 30
0.0
 11
56.2773118504
 21
434.9035418702
 31
0.0
  0
LINE
  5
25D
330
75
100
AcDbEntity
  8
$DDT_AUDIT_GENERATED_(CA)
  6
Continuous
 62
     7
100
AcDbLine
 10
56.2773118504
 20
434.3963999562
 30
0.0
 11
56.2773118504
 21
433.9737816944
 31
0.0
  0
LINE
  5
25E
330
75
100
AcDbEntity
  8
$DDT_AUDIT_GENERATED_(CA)
  6
Continuous
 62
     7
100
AcDbLine
 10
56.2773118504
 20
433.9737816944
 30
0.0
 11
55.2773118504
 21
433.9737816944
 31
0.0
  0
LINE
  5
25F
330
75
100
AcDbEntity
  8
$DDT_AUDIT_GENERATED_(CA)
  6
Continuous
 62
     7
100
AcDbLine
 10
55.2773118504
 20
433.9737816944
 30
0.0
 11
55.2773118504
 21
434.3963999562
 31
0.0
  0
LINE
  5
260
330
75
100
AcDbEntity
  8
$DDT_AUDIT_GENERATED_(CA)
  6
Continuous
 62
     7
100
AcDbLine
 10
55.2773118504
 20
434.3963999562
 30
0.0
 11
56.2773118504
 21
434.3963999562
 31
0.0
  0
LINE
  5
261
330
75
100
AcDbEntity
  8
$DDT_AUDIT_GENERATED_(CA)
  6
Continuous
 62
     7
100
AcDbLine
 10
57.4773118504
 20
435.4952074367
 30
0.0
 11
56.4773118504
 21
435.4952074367
 31
0.0
  0
LINE
  5
262
330
75
100
AcDbEntity
  8
$DDT_AUDIT_GENERATED_(CA)
  6
Continuous
 62
     7
100
AcDbLine
 10
57.4773118504
 20
435.4106837843
 30
0.0
 11
57.4773118504
 21
434.9880655226
 31
0.0
  0
LINE
  5
263
330
75
100
AcDbEntity
  8
$DDT_AUDIT_GENERATED_(CA)
  6
Continuous
 62
     7
100
AcDbLine
 10
57.4773118504
 20
434.9880655226
 30
0.0
 11
56.4773118504
 21
434.9880655226
 31
0.0
  0
LINE
  5
264
330
75
100
AcDbEntity
  8
$DDT_AUDIT_GENERATED_(CA)
  6
Continuous
 62
     7
100
AcDbLine
 10
56.4773118504
 20
434.9880655226
 30
0.0
 11
56.4773118504
 21
435.4106837843
 31
0.0
  0
LINE
  5
265
330
75
100
AcDbEntity
  8
$DDT_AUDIT_GENERATED_(CA)
  6
Continuous
 62
     7
100
AcDbLine
 10
56.4773118504
 20
435.4106837843
 30
0.0
 11
57.4773118504
 21
435.4106837843
 31
0.0
  0
LINE
  5
266
330
75
100
AcDbEntity
  8
$DDT_AUDIT_GENERATED_(CA)
  6
Continuous
 62
     7
100
AcDbLine
 10
57.4773118504
 20
434.9035418702
 30
0.0
 11
57.4773118504
 21
434.4809236085
 31
0.0
  0
LINE
  5
267
330
75
100
AcDbEntity
  8
$DDT_AUDIT_GENERATED_(CA)
  6
Continuous
 62
     7
100
AcDbLine
 10
57.4773118504
 20
434.4809236085
 30
0.0
 11
56.4773118504
 21
434.4809236085
 31
0.0
  0
LINE
  5
268
330
75
100
AcDbEntity
  8
$DDT_AUDIT_GENERATED_(CA)
  6
Continuous
 62
     7
100
AcDbLine
 10
56.4773118504
 20
434.4809236085
 30
0.0
 11
56.4773118504
 21
434.9035418702
 31
0.0
  0
LINE
  5
269
330
75
100
AcDbEntity
  8
$DDT_AUDIT_GENERATED_(CA)
  6
Continuous
 62
     7
100
AcDbLine
 10
56.4773118504
 20
434.9035418702
 30
0.0
 11
57.4773118504
 21
434.9035418702
 31
0.0
  0
LINE
  5
26A
330
75
100
AcDbEntity
  8
$DDT_AUDIT_GENERATED_(CA)
  6
Continuous
 62
     7
100
AcDbLine
 10
58.0074410096
 20
435.4952074367
 30
0.0
 11
57.6773118504
 21
435.4952074367
 31
0.0
  0
ELLIPSE
  5
26B
330
75
100
AcDbEntity
  8
$DDT_AUDIT_GENERATED_(CA)
  6
Continuous
 62
     7
100
AcDbEllipse
 10
49.7773115319
 20
435.7065165774
 30
0.0
 11
8.250000318555079
 21
-1.196757970500784E-8
 31
0.0
210
0.0
220
0.0
230
1.0
 40
0.4226182536
 41
-0.0849506216330695
 42
-0.0650308827150026
  0
LINE
  5
26C
330
75
100
AcDbEntity
  8
$DDT_AUDIT_GENERATED_(CA)
  6
Continuous
 62
     7
100
AcDbLine
 10
57.8502605063
 20
434.9880655226
 30
0.0
 11
57.8502605063
 21
435.4106837843
 31
0.0
  0
LINE
  5
26D
330
75
100
AcDbEntity
  8
$DDT_AUDIT_GENERATED_(CA)
  6
Continuous
 62
     7
100
AcDbLine
 10
57.8502605063
 20
434.9880655226
 30
0.0
 11
57.6773118504
 21
434.9880655226
 31
0.0
  0
LINE
  5
26E
330
75
100
AcDbEntity
  8
$DDT_AUDIT_GENERATED_(CA)
  6
Continuous
 62
     7
100
AcDbLine
 10
57.6773118504
 20
434.9880655226
 30
0.0
 11
57.6773118504
 21
435.4106837843
 31
0.0
  0
LINE
  5
26F
330
75
100
AcDbEntity
  8
$DDT_AUDIT_GENERATED_(CA)
  6
Continuous
 62
     7
100
AcDbLine
 10
57.6773118504
 20
435.4106837843
 30
0.0
 11
57.9975612384
 21
435.4106837843
 31
0.0
  0
ELLIPSE
  5
270
330
75
100
AcDbEntity
  8
$DDT_AUDIT_GENERATED_(CA)
  6
Continuous
 62
     7
100
AcDbEllipse
 10
49.7773115442
 20
435.7065165966
 30
0.0
 11
8.250000306320631
 21
-3.452538255288573E-8
 31
0.0
210
0.0
220
0.0
230
1.0
 40
0.4226182545
 41
-0.2323890664271309
 42
-0.2075474449014125
  0
LINE
  5
271
330
75
100
AcDbEntity
  8
$DDT_AUDIT_GENERATED_(CA)
  6
Continuous
 62
     7
100
AcDbLine
 10
57.6773118504
 20
434.7017422058
 30
0.0
 11
57.6773118504
 21
434.9035418702
 31
0.0
  0
LINE
  5
272
330
75
100
AcDbEntity
  8
$DDT_AUDIT_GENERATED_(CA)
  6
Continuous
 62
     7
100
AcDbLine
 10
57.6773118504
 20
434.9035418702
 30
0.0
 11
57.8055432871
 21
434.9035418702
 31
0.0
  0
ELLIPSE
  5
273
330
75
100
AcDbEntity
  8
$DDT_AUDIT_GENERATED_(CA)
  6
Continuous
 62
     7
100
AcDbEllipse
 10
49.77731185
 20
435.7065165676
 30
0.0
 11
8.250000000479266
 21
-8.702760734280446E-11
 31
0.0
210
0.0
220
0.0
230
1.0
 40
0.4226182617
 41
-0.3852141216466594
 42
-0.2923273931407904
  0
LINE
  5
274
330
75
100
AcDbEntity
  8
$DDT_AUDIT_GENERATED_(CA)
  6
Continuous
 62
     7
100
AcDbLine
 10
56.9363969875
 20
433.9737816944
 30
0.0
 11
56.9363969875
 21
434.3963999562
 31
0.0
  0
LINE
  5
275
330
75
100
AcDbEntity
  8
$DDT_AUDIT_GENERATED_(CA)
  6
Continuous
 62
     7
100
AcDbLine
 10
56.9363969875
 20
433.9737816944
 30
0.0
 11
56.4773118504
 21
433.9737816944
 31
0.0
  0
LINE
  5
276
330
75
100
AcDbEntity
  8
$DDT_AUDIT_GENERATED_(CA)
  6
Continuous
 62
     7
100
AcDbLine
 10
56.4773118504
 20
433.9737816944
 30
0.0
 11
56.4773118504
 21
434.3963999562
 31
0.0
  0
LINE
  5
277
330
75
100
AcDbEntity
  8
$DDT_AUDIT_GENERATED_(CA)
  6
Continuous
 62
     7
100
AcDbLine
 10
56.4773118504
 20
434.3963999562
 30
0.0
 11
57.4227353181
 21
434.3963999562
 31
0.0
  0
ELLIPSE
  5
278
330
75
100
AcDbEntity
  8
$DDT_AUDIT_GENERATED_(CA)
  6
Continuous
 62
     7
100
AcDbEllipse
 10
49.7773118595
 20
435.7065165646
 30
0.0
 11
8.24999999072738
 21
2.813374533339186E-9
 31
0.0
210
0.0
220
0.0
230
1.0
 40
0.4226182618
 41
-0.6634394347226493
 42
-0.6230179602806611
  0
LINE
  5
279
330
75
100
AcDbEntity
  8
$DDT_AUDIT_GENERATED_(CA)
  6
Continuous
 62
     7
100
AcDbLine
 10
56.0996927311
 20
433.4666397803
 30
0.0
 11
56.0996927311
 21
433.8892580421
 31
0.0
  0
LINE
  5
27A
330
75
100
AcDbEntity
  8
$DDT_AUDIT_GENERATED_(CA)
  6
Continuous
 62
     7
100
AcDbLine
 10
56.0996927311
 20
433.4666397803
 30
0.0
 11
55.2773118504
 21
433.4666397803
 31
0.0
  0
LINE
  5
27B
330
75
100
AcDbEntity
  8
$DDT_AUDIT_GENERATED_(CA)
  6
Continuous
 62
     7
100
AcDbLine
 10
55.2773118504
 20
433.4666397803
 30
0.0
 11
55.2773118504
 21
433.8892580421
 31
0.0
  0
LINE
  5
27C
330
75
100
AcDbEntity
  8
$DDT_AUDIT_GENERATED_(CA)
  6
Continuous
 62
     7
100
AcDbLine
 10
55.2773118504
 20
433.8892580421
 30
0.0
 11
56.2773118504
 21
433.8892580421
 31
0.0
  0
LINE
  5
27D
330
75
100
AcDbEntity
  8
$DDT_AUDIT_GENERATED_(CA)
  6
Continuous
 62
     7
100
AcDbLine
 10
56.2773118504
 20
433.8892580421
 30
0.0
 11
56.2773118504
 21
433.5593620756
 31
0.0
  0
ELLIPSE
  5
27E
330
75
100
AcDbEntity
  8
$DDT_AUDIT_GENERATED_(CA)
  6
Continuous
 62
     7
100
AcDbEllipse
 10
49.7773118316
 20
435.7065165722
 30
0.0
 11
8.250000019010885
 21
-4.896763550199523E-9
 31
0.0
210
0.0
220
0.0
230
1.0
 40
0.4226182615
 41
-0.5482706332316187
 42
-0.5201032024498264
  0
LINE
  5
27F
330
75
100
AcDbEntity
  8
$DDT_AUDIT_GENERATED_(CA)
  6
Continuous
 62
     7
100
AcDbLine
 10
56.4773118504
 20
433.6721242609
 30
0.0
 11
56.4773118504
 21
433.8892580421
 31
0.0
  0
LINE
  5
280
330
75
100
AcDbEntity
  8
$DDT_AUDIT_GENERATED_(CA)
  6
Continuous
 62
     7
100
AcDbLine
 10
56.4773118504
 20
433.8892580421
 30
0.0
 11
56.8180859556
 21
433.8892580421
 31
0.0
  0
ELLIPSE
  5
281
330
75
100
AcDbEntity
  8
$DDT_AUDIT_GENERATED_(CA)
  6
Continuous
 62
     7
100
AcDbEllipse
 10
49.777311771
 20
435.7065166063
 30
0.0
 11
8.25000008665924
 21
-3.089040134796051E-8
 31
0.0
210
0.0
220
0.0
230
1.0
 40
0.4226182622
 41
-0.8731388685839745
 42
-0.8410686654612061
  0
LINE
  5
282
330
75
100
AcDbEntity
  8
$DDT_AUDIT_GENERATED_(CA)
  6
Continuous
 62
     7
100
AcDbLine
 10
54.8579122087
 20
432.9594978662
 30
0.0
 11
54.8579122087
 21
433.382116128
 31
0.0
  0
LINE
  5
283
330
75
100
AcDbEntity
  8
$DDT_AUDIT_GENERATED_(CA)
  6
Continuous
 62
     7
100
AcDbLine
 10
54.8579122087
 20
432.9594978662
 30
0.0
 11
54.0773118504
 21
432.9594978662
 31
0.0
  0
LINE
  5
284
330
75
100
AcDbEntity
  8
$DDT_AUDIT_GENERATED_(CA)
  6
Continuous
 62
     7
100
AcDbLine
 10
54.0773118504
 20
432.9594978662
 30
0.0
 11
54.0773118504
 21
433.382116128
 31
0.0
  0
LINE
  5
285
330
75
100
AcDbEntity
  8
$DDT_AUDIT_GENERATED_(CA)
  6
Continuous
 62
     7
100
AcDbLine
 10
54.0773118504
 20
433.382116128
 30
0.0
 11
55.0773118504
 21
433.382116128
 31
0.0
  0
LINE
  5
286
330
75
100
AcDbEntity
  8
$DDT_AUDIT_GENERATED_(CA)
  6
Continuous
 62
     7
100
AcDbLine
 10
55.0773118504
 20
433.382116128
 30
0.0
 11
55.0773118504
 21
433.0345629497
 31
0.0
  0
ELLIPSE
  5
287
330
75
100
AcDbEntity
  8
$DDT_AUDIT_GENERATED_(CA)
  6
Continuous
 62
     7
100
AcDbEllipse
 10
49.7773117587
 20
435.7065166011
 30
0.0
 11
8.250000095311625
 21
-3.088226896430513E-8
 31
0.0
210
0.0
220
0.0
230
1.0
 40
0.4226182613
 41
-0.7297276508867707
 42
-0.6976574477639907
  0
LINE
  5
288
330
75
100
AcDbEntity
  8
$DDT_AUDIT_GENERATED_(CA)
  6
Continuous
 62
     7
100
AcDbLine
 10
55.2773118504
 20
433.1077578726
 30
0.0
 11
55.2773118504
 21
433.382116128
 31
0.0
  0
LINE
  5
289
330
75
100
AcDbEntity
  8
$DDT_AUDIT_GENERATED_(CA)
  6
Continuous
 62
     7
100
AcDbLine
 10
55.2773118504
 20
433.382116128
 30
0.0
 11
55.9264987886
 21
433.382116128
 31
0.0
  0
LINE
  5
28A
330
75
100
AcDbEntity
  8
$DDT_AUDIT_GENERATED_(CA)
  6
Continuous
 62
     7
100
AcDbLine
 10
52.6773118504
 20
432.8749742139
 30
0.0
 11
52.6773118504
 21
432.4523559521
 31
0.0
  0
LINE
  5
28B
330
75
100
AcDbEntity
  8
$DDT_AUDIT_GENERATED_(CA)
  6
Continuous
 62
     7
100
AcDbLine
 10
52.6773118504
 20
432.4523559521
 30
0.0
 11
51.6773118504
 21
432.4523559521
 31
0.0
  0
LINE
  5
28C
330
75
100
AcDbEntity
  8
$DDT_AUDIT_GENERATED_(CA)
  6
Continuous
 62
     7
100
AcDbLine
 10
51.6773118504
 20
432.4523559521
 30
0.0
 11
51.6773118504
 21
432.8749742139
 31
0.0
  0
LINE
  5
28D
330
75
100
AcDbEntity
  8
$DDT_AUDIT_GENERATED_(CA)
  6
Continuous
 62
     7
100
AcDbLine
 10
51.6773118504
 20
432.8749742139
 30
0.0
 11
52.6773118504
 21
432.8749742139
 31
0.0
  0
ELLIPSE
  5
28E
330
75
100
AcDbEntity
  8
$DDT_AUDIT_GENERATED_(CA)
  6
Continuous
 62
     7
100
AcDbEllipse
 10
49.7773117601
 20
435.7065166322
 30
0.0
 11
8.250000111758855
 21
-4.002165265859503E-8
 31
0.0
210
0.0
220
0.0
230
1.0
 40
0.4226182639
 41
-1.050693116621551
 42
-1.022525686105753
  0
LINE
  5
28F
330
75
100
AcDbEntity
  8
$DDT_AUDIT_GENERATED_(CA)
  6
Continuous
 62
     7
100
AcDbLine
 10
52.8773118504
 20
432.4754209914
 30
0.0
 11
52.8773118504
 21
432.8749742139
 31
0.0
  0
LINE
  5
290
330
75
100
AcDbEntity
  8
$DDT_AUDIT_GENERATED_(CA)
  6
Continuous
 62
     7
100
AcDbLine
 10
52.8773118504
 20
432.8749742139
 30
0.0
 11
53.8773118504
 21
432.8749742139
 31
0.0
  0
LINE
  5
291
330
75
100
AcDbEntity
  8
$DDT_AUDIT_GENERATED_(CA)
  6
Continuous
 62
     7
100
AcDbLine
 10
53.8773118504
 20
432.8749742139
 30
0.0
 11
53.8773118504
 21
432.6809564513
 31
0.0
  0
ELLIPSE
  5
292
330
75
100
AcDbEntity
  8
$DDT_AUDIT_GENERATED_(CA)
  6
Continuous
 62
     7
100
AcDbEllipse
 10
49.7773118573
 20
435.7065165636
 30
0.0
 11
8.249999992150551
 21
2.852121316898604E-9
 31
0.0
210
0.0
220
0.0
230
1.0
 40
0.4226182617
 41
-0.947778367464239
 42
-0.9073568930216229
  0
LINE
  5
293
330
75
100
AcDbEntity
  8
$DDT_AUDIT_GENERATED_(CA)
  6
Continuous
 62
     7
100
AcDbLine
 10
54.0773118504
 20
432.7309568539
 30
0.0
 11
54.0773118504
 21
432.8749742139
 31
0.0
  0
LINE
  5
294
330
75
100
AcDbEntity
  8
$DDT_AUDIT_GENERATED_(CA)
  6
Continuous
 62
     7
100
AcDbLine
 10
54.0773118504
 20
432.8749742139
 30
0.0
 11
54.5910941471
 21
432.8749742139
 31
0.0
  0
ELLIPSE
  5
295
330
75
100
AcDbEntity
  8
$DDT_AUDIT_GENERATED_(CA)
  6
Continuous
 62
     7
100
AcDbEllipse
 10
49.7773118278
 20
435.7065166991
 30
0.0
 11
8.250000156800207
 21
-1.165473273445627E-8
 31
0.0
210
0.0
220
0.0
230
1.0
 40
0.4226182697
 41
-1.510153100569646
 42
-1.485845701175048
  0
LINE
  5
296
330
75
100
AcDbEntity
  8
$DDT_AUDIT_GENERATED_(CA)
  6
Continuous
 62
     7
100
AcDbLine
 10
49.2773118504
 20
432.3678322998
 30
0.0
 11
50.2773118504
 21
432.3678322998
 31
0.0
  0
LINE
  5
297
330
75
100
AcDbEntity
  8
$DDT_AUDIT_GENERATED_(CA)
  6
Continuous
 62
     7
100
AcDbLine
 10
50.2773118504
 20
432.3678322998
 30
0.0
 11
50.2773118504
 21
432.226325106
 31
0.0
  0
ELLIPSE
  5
298
330
75
100
AcDbEntity
  8
$DDT_AUDIT_GENERATED_(CA)
  6
Continuous
 62
     7
100
AcDbEllipse
 10
49.7773117822
 20
435.7065166969
 30
0.0
 11
8.250000164245819
 21
-3.426799122241420E-8
 31
0.0
210
0.0
220
0.0
230
1.0
 40
0.422618269
 41
-1.363248870296094
 42
-1.338407248770112
  0
LINE
  5
299
330
75
100
AcDbEntity
  8
$DDT_AUDIT_GENERATED_(CA)
  6
Continuous
 62
     7
100
AcDbLine
 10
50.4773118504
 20
432.2324890601
 30
0.0
 11
50.4773118504
 21
432.3678322998
 31
0.0
  0
LINE
  5
29A
330
75
100
AcDbEntity
  8
$DDT_AUDIT_GENERATED_(CA)
  6
Continuous
 62
     7
100
AcDbLine
 10
50.4773118504
 20
432.3678322998
 30
0.0
 11
51.4773118504
 21
432.3678322998
 31
0.0
  0
LINE
  5
29B
330
75
100
AcDbEntity
  8
$DDT_AUDIT_GENERATED_(CA)
  6
Continuous
 62
     7
100
AcDbLine
 10
51.4773118504
 20
432.3678322998
 30
0.0
 11
51.4773118504
 21
432.2947410395
 31
0.0
  0
ELLIPSE
  5
29C
330
75
100
AcDbEntity
  8
$DDT_AUDIT_GENERATED_(CA)
  6
Continuous
 62
     7
100
AcDbEllipse
 10
49.7773118504
 20
435.7065165676
 30
0.0
 11
8.250000000018039
 21
-6.716849298982197E-12
 31
0.0
210
0.0
220
0.0
230
1.0
 40
0.4226182617
 41
-1.278468933639936
 42
-1.185582205131375
  0
LINE
  5
29D
330
75
100
AcDbEntity
  8
$DDT_AUDIT_GENERATED_(CA)
  6
Continuous
 62
     7
100
AcDbLine
 10
51.6773118504
 20
432.3136393529
 30
0.0
 11
51.6773118504
 21
432.3678322998
 31
0.0
  0
LINE
  5
29E
330
75
100
AcDbEntity
  8
$DDT_AUDIT_GENERATED_(CA)
  6
Continuous
 62
     7
100
AcDbLine
 10
51.6773118504
 20
432.3678322998
 30
0.0
 11
52.154810536
 21
432.3678322998
 31
0.0
  0
LINE
  5
29F
330
75
100
AcDbEntity
  8
$DDT_AUDIT_GENERATED_(CA)
  6
Continuous
 62
     7
100
AcDbLine
 10
49.0773118504
 20
435.4952074367
 30
0.0
 11
48.0773118504
 21
435.4952074367
 31
0.0
  0
LINE
  5
2A0
330
75
100
AcDbEntity
  8
$DDT_AUDIT_GENERATED_(CA)
  6
Continuous
 62
     7
100
AcDbLine
 10
47.8773118504
 20
435.4952074367
 30
0.0
 11
46.8773118504
 21
435.4952074367
 31
0.0
  0
LINE
  5
2A1
330
75
100
AcDbEntity
  8
$DDT_AUDIT_GENERATED_(CA)
  6
Continuous
 62
     7
100
AcDbLine
 10
46.6773118504
 20
435.4952074367
 30
0.0
 11
45.6773118504
 21
435.4952074367
 31
0.0
  0
LINE
  5
2A2
330
75
100
AcDbEntity
  8
$DDT_AUDIT_GENERATED_(CA)
  6
Continuous
 62
     7
100
AcDbLine
 10
45.4773118504
 20
435.4952074367
 30
0.0
 11
44.4773118504
 21
435.4952074367
 31
0.0
  0
LINE
  5
2A3
330
75
100
AcDbEntity
  8
$DDT_AUDIT_GENERATED_(CA)
  6
Continuous
 62
     7
100
AcDbLine
 10
44.2773118504
 20
435.4952074367
 30
0.0
 11
43.2773118504
 21
435.4952074367
 31
0.0
  0
LINE
  5
2A4
330
75
100
AcDbEntity
  8
$DDT_AUDIT_GENERATED_(CA)
  6
Continuous
 62
     7
100
AcDbLine
 10
43.0773118504
 20
435.4952074367
 30
0.0
 11
42.0773118504
 21
435.4952074367
 31
0.0
  0
LINE
  5
2A5
330
75
100
AcDbEntity
  8
$DDT_AUDIT_GENERATED_(CA)
  6
Continuous
 62
     7
100
AcDbLine
 10
49.2773118504
 20
434.9880655226
 30
0.0
 11
49.2773118504
 21
435.4106837843
 31
0.0
  0
LINE
  5
2A6
330
75
100
AcDbEntity
  8
$DDT_AUDIT_GENERATED_(CA)
  6
Continuous
 62
     7
100
AcDbLine
 10
49.0773118504
 20
434.9880655226
 30
0.0
 11
48.0773118504
 21
434.9880655226
 31
0.0
  0
LINE
  5
2A7
330
75
100
AcDbEntity
  8
$DDT_AUDIT_GENERATED_(CA)
  6
Continuous
 62
     7
100
AcDbLine
 10
48.0773118504
 20
434.9880655226
 30
0.0
 11
48.0773118504
 21
435.4106837843
 31
0.0
  0
LINE
  5
2A8
330
75
100
AcDbEntity
  8
$DDT_AUDIT_GENERATED_(CA)
  6
Continuous
 62
     7
100
AcDbLine
 10
48.0773118504
 20
435.4106837843
 30
0.0
 11
49.0773118504
 21
435.4106837843
 31
0.0
  0
LINE
  5
2A9
330
75
100
AcDbEntity
  8
$DDT_AUDIT_GENERATED_(CA)
  6
Continuous
 62
     7
100
AcDbLine
 10
49.0773118504
 20
435.4106837843
 30
0.0
 11
49.0773118504
 21
434.9880655226
 31
0.0
  0
LINE
  5
2AA
330
75
100
AcDbEntity
  8
$DDT_AUDIT_GENERATED_(CA)
  6
Continuous
 62
     7
100
AcDbLine
 10
47.8773118504
 20
434.9880655226
 30
0.0
 11
46.8773118504
 21
434.9880655226
 31
0.0
  0
LINE
  5
2AB
330
75
100
AcDbEntity
  8
$DDT_AUDIT_GENERATED_(CA)
  6
Continuous
 62
     7
100
AcDbLine
 10
46.8773118504
 20
434.9880655226
 30
0.0
 11
46.8773118504
 21
435.4106837843
 31
0.0
  0
LINE
  5
2AC
330
75
100
AcDbEntity
  8
$DDT_AUDIT_GENERATED_(CA)
  6
Continuous
 62
     7
100
AcDbLine
 10
46.8773118504
 20
435.4106837843
 30
0.0
 11
47.8773118504
 21
435.4106837843
 31
0.0
  0
LINE
  5
2AD
330
75
100
AcDbEntity
  8
$DDT_AUDIT_GENERATED_(CA)
  6
Continuous
 62
     7
100
AcDbLine
 10
47.8773118504
 20
435.4106837843
 30
0.0
 11
47.8773118504
 21
434.9880655226
 31
0.0
  0
LINE
  5
2AE
330
75
100
AcDbEntity
  8
$DDT_AUDIT_GENERATED_(CA)
  6
Continuous
 62
     7
100
AcDbLine
 10
46.6773118504
 20
434.9880655226
 30
0.0
 11
45.6773118504
 21
434.9880655226
 31
0.0
  0
LINE
  5
2AF
330
75
100
AcDbEntity
  8
$DDT_AUDIT_GENERATED_(CA)
  6
Continuous
 62
     7
100
AcDbLine
 10
45.6773118504
 20
434.9880655226
 30
0.0
 11
45.6773118504
 21
435.4106837843
 31
0.0
  0
LINE
  5
2B0
330
75
100
AcDbEntity
  8
$DDT_AUDIT_GENERATED_(CA)
  6
Continuous
 62
     7
100
AcDbLine
 10
45.6773118504
 20
435.4106837843
 30
0.0
 11
46.6773118504
 21
435.4106837843
 31
0.0
  0
LINE
  5
2B1
330
75
100
AcDbEntity
  8
$DDT_AUDIT_GENERATED_(CA)
  6
Continuous
 62
     7
100
AcDbLine
 10
46.6773118504
 20
435.4106837843
 30
0.0
 11
46.6773118504
 21
434.9880655226
 31
0.0
  0
LINE
  5
2B2
330
75
100
AcDbEntity
  8
$DDT_AUDIT_GENERATED_(CA)
  6
Continuous
 62
     7
100
AcDbLine
 10
45.4773118504
 20
434.9880655226
 30
0.0
 11
44.4773118504
 21
434.9880655226
 31
0.0
  0
LINE
  5
2B3
330
75
100
AcDbEntity
  8
$DDT_AUDIT_GENERATED_(CA)
  6
Continuous
 62
     7
100
AcDbLine
 10
44.4773118504
 20
434.9880655226
 30
0.0
 11
44.4773118504
 21
435.4106837843
 31
0.0
  0
LINE
  5
2B4
330
75
100
AcDbEntity
  8
$DDT_AUDIT_GENERATED_(CA)
  6
Continuous
 62
     7
100
AcDbLine
 10
44.4773118504
 20
435.4106837843
 30
0.0
 11
45.4773118504
 21
435.4106837843
 31
0.0
  0
LINE
  5
2B5
330
75
100
AcDbEntity
  8
$DDT_AUDIT_GENERATED_(CA)
  6
Continuous
 62
     7
100
AcDbLine
 10
45.4773118504
 20
435.4106837843
 30
0.0
 11
45.4773118504
 21
434.9880655226
 31
0.0
  0
LINE
  5
2B6
330
75
100
AcDbEntity
  8
$DDT_AUDIT_GENERATED_(CA)
  6
Continuous
 62
     7
100
AcDbLine
 10
44.2773118504
 20
434.9880655226
 30
0.0
 11
43.2773118504
 21
434.9880655226
 31
0.0
  0
LINE
  5
2B7
330
75
100
AcDbEntity
  8
$DDT_AUDIT_GENERATED_(CA)
  6
Continuous
 62
     7
100
AcDbLine
 10
43.2773118504
 20
434.9880655226
 30
0.0
 11
43.2773118504
 21
435.4106837843
 31
0.0
  0
LINE
  5
2B8
330
75
100
AcDbEntity
  8
$DDT_AUDIT_GENERATED_(CA)
  6
Continuous
 62
     7
100
AcDbLine
 10
43.2773118504
 20
435.4106837843
 30
0.0
 11
44.2773118504
 21
435.4106837843
 31
0.0
  0
LINE
  5
2B9
330
75
100
AcDbEntity
  8
$DDT_AUDIT_GENERATED_(CA)
  6
Continuous
 62
     7
100
AcDbLine
 10
44.2773118504
 20
435.4106837843
 30
0.0
 11
44.2773118504
 21
434.9880655226
 31
0.0
  0
LINE
  5
2BA
330
75
100
AcDbEntity
  8
$DDT_AUDIT_GENERATED_(CA)
  6
Continuous
 62
     7
100
AcDbLine
 10
43.0773118504
 20
434.9880655226
 30
0.0
 11
42.0773118504
 21
434.9880655226
 31
0.0
  0
LINE
  5
2BB
330
75
100
AcDbEntity
  8
$DDT_AUDIT_GENERATED_(CA)
  6
Continuous
 62
     7
100
AcDbLine
 10
42.0773118504
 20
434.9880655226
 30
0.0
 11
42.0773118504
 21
435.4106837843
 31
0.0
  0
LINE
  5
2BC
330
75
100
AcDbEntity
  8
$DDT_AUDIT_GENERATED_(CA)
  6
Continuous
 62
     7
100
AcDbLine
 10
42.0773118504
 20
435.4106837843
 30
0.0
 11
43.0773118504
 21
435.4106837843
 31
0.0
  0
LINE
  5
2BD
330
75
100
AcDbEntity
  8
$DDT_AUDIT_GENERATED_(CA)
  6
Continuous
 62
     7
100
AcDbLine
 10
43.0773118504
 20
435.4106837843
 30
0.0
 11
43.0773118504
 21
434.9880655226
 31
0.0
  0
LINE
  5
2BE
330
75
100
AcDbEntity
  8
$DDT_AUDIT_GENERATED_(CA)
  6
Continuous
 62
     7
100
AcDbLine
 10
49.2773118504
 20
434.4809236085
 30
0.0
 11
49.2773118504
 21
434.9035418702
 31
0.0
  0
LINE
  5
2BF
330
75
100
AcDbEntity
  8
$DDT_AUDIT_GENERATED_(CA)
  6
Continuous
 62
     7
100
AcDbLine
 10
49.0773118504
 20
434.4809236085
 30
0.0
 11
48.0773118504
 21
434.4809236085
 31
0.0
  0
LINE
  5
2C0
330
75
100
AcDbEntity
  8
$DDT_AUDIT_GENERATED_(CA)
  6
Continuous
 62
     7
100
AcDbLine
 10
48.0773118504
 20
434.4809236085
 30
0.0
 11
48.0773118504
 21
434.9035418702
 31
0.0
  0
LINE
  5
2C1
330
75
100
AcDbEntity
  8
$DDT_AUDIT_GENERATED_(CA)
  6
Continuous
 62
     7
100
AcDbLine
 10
48.0773118504
 20
434.9035418702
 30
0.0
 11
49.0773118504
 21
434.9035418702
 31
0.0
  0
LINE
  5
2C2
330
75
100
AcDbEntity
  8
$DDT_AUDIT_GENERATED_(CA)
  6
Continuous
 62
     7
100
AcDbLine
 10
49.0773118504
 20
434.9035418702
 30
0.0
 11
49.0773118504
 21
434.4809236085
 31
0.0
  0
LINE
  5
2C3
330
75
100
AcDbEntity
  8
$DDT_AUDIT_GENERATED_(CA)
  6
Continuous
 62
     7
100
AcDbLine
 10
47.8773118504
 20
434.4809236085
 30
0.0
 11
46.8773118504
 21
434.4809236085
 31
0.0
  0
LINE
  5
2C4
330
75
100
AcDbEntity
  8
$DDT_AUDIT_GENERATED_(CA)
  6
Continuous
 62
     7
100
AcDbLine
 10
46.8773118504
 20
434.4809236085
 30
0.0
 11
46.8773118504
 21
434.9035418702
 31
0.0
  0
LINE
  5
2C5
330
75
100
AcDbEntity
  8
$DDT_AUDIT_GENERATED_(CA)
  6
Continuous
 62
     7
100
AcDbLine
 10
46.8773118504
 20
434.9035418702
 30
0.0
 11
47.8773118504
 21
434.9035418702
 31
0.0
  0
LINE
  5
2C6
330
75
100
AcDbEntity
  8
$DDT_AUDIT_GENERATED_(CA)
  6
Continuous
 62
     7
100
AcDbLine
 10
47.8773118504
 20
434.9035418702
 30
0.0
 11
47.8773118504
 21
434.4809236085
 31
0.0
  0
LINE
  5
2C7
330
75
100
AcDbEntity
  8
$DDT_AUDIT_GENERATED_(CA)
  6
Continuous
 62
     7
100
AcDbLine
 10
46.6773118504
 20
434.4809236085
 30
0.0
 11
45.6773118504
 21
434.4809236085
 31
0.0
  0
LINE
  5
2C8
330
75
100
AcDbEntity
  8
$DDT_AUDIT_GENERATED_(CA)
  6
Continuous
 62
     7
100
AcDbLine
 10
45.6773118504
 20
434.4809236085
 30
0.0
 11
45.6773118504
 21
434.9035418702
 31
0.0
  0
LINE
  5
2C9
330
75
100
AcDbEntity
  8
$DDT_AUDIT_GENERATED_(CA)
  6
Continuous
 62
     7
100
AcDbLine
 10
45.6773118504
 20
434.9035418702
 30
0.0
 11
46.6773118504
 21
434.9035418702
 31
0.0
  0
LINE
  5
2CA
330
75
100
AcDbEntity
  8
$DDT_AUDIT_GENERATED_(CA)
  6
Continuous
 62
     7
100
AcDbLine
 10
46.6773118504
 20
434.9035418702
 30
0.0
 11
46.6773118504
 21
434.4809236085
 31
0.0
  0
LINE
  5
2CB
330
75
100
AcDbEntity
  8
$DDT_AUDIT_GENERATED_(CA)
  6
Continuous
 62
     7
100
AcDbLine
 10
45.4773118504
 20
434.4809236085
 30
0.0
 11
44.4773118504
 21
434.4809236085
 31
0.0
  0
LINE
  5
2CC
330
75
100
AcDbEntity
  8
$DDT_AUDIT_GENERATED_(CA)
  6
Continuous
 62
     7
100
AcDbLine
 10
44.4773118504
 20
434.4809236085
 30
0.0
 11
44.4773118504
 21
434.9035418702
 31
0.0
  0
LINE
  5
2CD
330
75
100
AcDbEntity
  8
$DDT_AUDIT_GENERATED_(CA)
  6
Continuous
 62
     7
100
AcDbLine
 10
44.4773118504
 20
434.9035418702
 30
0.0
 11
45.4773118504
 21
434.9035418702
 31
0.0
  0
LINE
  5
2CE
330
75
100
AcDbEntity
  8
$DDT_AUDIT_GENERATED_(CA)
  6
Continuous
 62
     7
100
AcDbLine
 10
45.4773118504
 20
434.9035418702
 30
0.0
 11
45.4773118504
 21
434.4809236085
 31
0.0
  0
LINE
  5
2CF
330
75
100
AcDbEntity
  8
$DDT_AUDIT_GENERATED_(CA)
  6
Continuous
 62
     7
100
AcDbLine
 10
44.2773118504
 20
434.4809236085
 30
0.0
 11
43.2773118504
 21
434.4809236085
 31
0.0
  0
LINE
  5
2D0
330
75
100
AcDbEntity
  8
$DDT_AUDIT_GENERATED_(CA)
  6
Continuous
 62
     7
100
AcDbLine
 10
43.2773118504
 20
434.4809236085
 30
0.0
 11
43.2773118504
 21
434.9035418702
 31
0.0
  0
LINE
  5
2D1
330
75
100
AcDbEntity
  8
$DDT_AUDIT_GENERATED_(CA)
  6
Continuous
 62
     7
100
AcDbLine
 10
43.2773118504
 20
434.9035418702
 30
0.0
 11
44.2773118504
 21
434.9035418702
 31
0.0
  0
LINE
  5
2D2
330
75
100
AcDbEntity
  8
$DDT_AUDIT_GENERATED_(CA)
  6
Continuous
 62
     7
100
AcDbLine
 10
44.2773118504
 20
434.9035418702
 30
0.0
 11
44.2773118504
 21
434.4809236085
 31
0.0
  0
LINE
  5
2D3
330
75
100
AcDbEntity
  8
$DDT_AUDIT_GENERATED_(CA)
  6
Continuous
 62
     7
100
AcDbLine
 10
49.2773118504
 20
433.9737816944
 30
0.0
 11
49.2773118504
 21
434.3963999562
 31
0.0
  0
LINE
  5
2D4
330
75
100
AcDbEntity
  8
$DDT_AUDIT_GENERATED_(CA)
  6
Continuous
 62
     7
100
AcDbLine
 10
49.0773118504
 20
433.9737816944
 30
0.0
 11
48.0773118504
 21
433.9737816944
 31
0.0
  0
LINE
  5
2D5
330
75
100
AcDbEntity
  8
$DDT_AUDIT_GENERATED_(CA)
  6
Continuous
 62
     7
100
AcDbLine
 10
48.0773118504
 20
433.9737816944
 30
0.0
 11
48.0773118504
 21
434.3963999562
 31
0.0
  0
LINE
  5
2D6
330
75
100
AcDbEntity
  8
$DDT_AUDIT_GENERATED_(CA)
  6
Continuous
 62
     7
100
AcDbLine
 10
48.0773118504
 20
434.3963999562
 30
0.0
 11
49.0773118504
 21
434.3963999562
 31
0.0
  0
LINE
  5
2D7
330
75
100
AcDbEntity
  8
$DDT_AUDIT_GENERATED_(CA)
  6
Continuous
 62
     7
100
AcDbLine
 10
49.0773118504
 20
434.3963999562
 30
0.0
 11
49.0773118504
 21
433.9737816944
 31
0.0
  0
LINE
  5
2D8
330
75
100
AcDbEntity
  8
$DDT_AUDIT_GENERATED_(CA)
  6
Continuous
 62
     7
100
AcDbLine
 10
47.8773118504
 20
433.9737816944
 30
0.0
 11
46.8773118504
 21
433.9737816944
 31
0.0
  0
LINE
  5
2D9
330
75
100
AcDbEntity
  8
$DDT_AUDIT_GENERATED_(CA)
  6
Continuous
 62
     7
100
AcDbLine
 10
46.8773118504
 20
433.9737816944
 30
0.0
 11
46.8773118504
 21
434.3963999562
 31
0.0
  0
LINE
  5
2DA
330
75
100
AcDbEntity
  8
$DDT_AUDIT_GENERATED_(CA)
  6
Continuous
 62
     7
100
AcDbLine
 10
46.8773118504
 20
434.3963999562
 30
0.0
 11
47.8773118504
 21
434.3963999562
 31
0.0
  0
LINE
  5
2DB
330
75
100
AcDbEntity
  8
$DDT_AUDIT_GENERATED_(CA)
  6
Continuous
 62
     7
100
AcDbLine
 10
47.8773118504
 20
434.3963999562
 30
0.0
 11
47.8773118504
 21
433.9737816944
 31
0.0
  0
LINE
  5
2DC
330
75
100
AcDbEntity
  8
$DDT_AUDIT_GENERATED_(CA)
  6
Continuous
 62
     7
100
AcDbLine
 10
46.6773118504
 20
433.9737816944
 30
0.0
 11
45.6773118504
 21
433.9737816944
 31
0.0
  0
LINE
  5
2DD
330
75
100
AcDbEntity
  8
$DDT_AUDIT_GENERATED_(CA)
  6
Continuous
 62
     7
100
AcDbLine
 10
45.6773118504
 20
433.9737816944
 30
0.0
 11
45.6773118504
 21
434.3963999562
 31
0.0
  0
LINE
  5
2DE
330
75
100
AcDbEntity
  8
$DDT_AUDIT_GENERATED_(CA)
  6
Continuous
 62
     7
100
AcDbLine
 10
45.6773118504
 20
434.3963999562
 30
0.0
 11
46.6773118504
 21
434.3963999562
 31
0.0
  0
LINE
  5
2DF
330
75
100
AcDbEntity
  8
$DDT_AUDIT_GENERATED_(CA)
  6
Continuous
 62
     7
100
AcDbLine
 10
46.6773118504
 20
434.3963999562
 30
0.0
 11
46.6773118504
 21
433.9737816944
 31
0.0
  0
LINE
  5
2E0
330
75
100
AcDbEntity
  8
$DDT_AUDIT_GENERATED_(CA)
  6
Continuous
 62
     7
100
AcDbLine
 10
45.4773118504
 20
433.9737816944
 30
0.0
 11
44.4773118504
 21
433.9737816944
 31
0.0
  0
LINE
  5
2E1
330
75
100
AcDbEntity
  8
$DDT_AUDIT_GENERATED_(CA)
  6
Continuous
 62
     7
100
AcDbLine
 10
44.4773118504
 20
433.9737816944
 30
0.0
 11
44.4773118504
 21
434.3963999562
 31
0.0
  0
LINE
  5
2E2
330
75
100
AcDbEntity
  8
$DDT_AUDIT_GENERATED_(CA)
  6
Continuous
 62
     7
100
AcDbLine
 10
44.4773118504
 20
434.3963999562
 30
0.0
 11
45.4773118504
 21
434.3963999562
 31
0.0
  0
LINE
  5
2E3
330
75
100
AcDbEntity
  8
$DDT_AUDIT_GENERATED_(CA)
  6
Continuous
 62
     7
100
AcDbLine
 10
45.4773118504
 20
434.3963999562
 30
0.0
 11
45.4773118504
 21
433.9737816944
 31
0.0
  0
LINE
  5
2E4
330
75
100
AcDbEntity
  8
$DDT_AUDIT_GENERATED_(CA)
  6
Continuous
 62
     7
100
AcDbLine
 10
43.2773118504
 20
433.9737816944
 30
0.0
 11
43.2773118504
 21
434.3963999562
 31
0.0
  0
LINE
  5
2E5
330
75
100
AcDbEntity
  8
$DDT_AUDIT_GENERATED_(CA)
  6
Continuous
 62
     7
100
AcDbLine
 10
44.2773118504
 20
433.9737816944
 30
0.0
 11
43.2773118504
 21
433.9737816944
 31
0.0
  0
LINE
  5
2E6
330
75
100
AcDbEntity
  8
$DDT_AUDIT_GENERATED_(CA)
  6
Continuous
 62
     7
100
AcDbLine
 10
43.2773118504
 20
434.3963999562
 30
0.0
 11
44.2773118504
 21
434.3963999562
 31
0.0
  0
LINE
  5
2E7
330
75
100
AcDbEntity
  8
$DDT_AUDIT_GENERATED_(CA)
  6
Continuous
 62
     7
100
AcDbLine
 10
44.2773118504
 20
434.3963999562
 30
0.0
 11
44.2773118504
 21
433.9737816944
 31
0.0
  0
LINE
  5
2E8
330
75
100
AcDbEntity
  8
$DDT_AUDIT_GENERATED_(CA)
  6
Continuous
 62
     7
100
AcDbLine
 10
49.2773118504
 20
433.4666397803
 30
0.0
 11
49.2773118504
 21
433.8892580421
 31
0.0
  0
LINE
  5
2E9
330
75
100
AcDbEntity
  8
$DDT_AUDIT_GENERATED_(CA)
  6
Continuous
 62
     7
100
AcDbLine
 10
49.0773118504
 20
433.4666397803
 30
0.0
 11
48.0773118504
 21
433.4666397803
 31
0.0
  0
LINE
  5
2EA
330
75
100
AcDbEntity
  8
$DDT_AUDIT_GENERATED_(CA)
  6
Continuous
 62
     7
100
AcDbLine
 10
48.0773118504
 20
433.4666397803
 30
0.0
 11
48.0773118504
 21
433.8892580421
 31
0.0
  0
LINE
  5
2EB
330
75
100
AcDbEntity
  8
$DDT_AUDIT_GENERATED_(CA)
  6
Continuous
 62
     7
100
AcDbLine
 10
48.0773118504
 20
433.8892580421
 30
0.0
 11
49.0773118504
 21
433.8892580421
 31
0.0
  0
LINE
  5
2EC
330
75
100
AcDbEntity
  8
$DDT_AUDIT_GENERATED_(CA)
  6
Continuous
 62
     7
100
AcDbLine
 10
49.0773118504
 20
433.8892580421
 30
0.0
 11
49.0773118504
 21
433.4666397803
 31
0.0
  0
LINE
  5
2ED
330
75
100
AcDbEntity
  8
$DDT_AUDIT_GENERATED_(CA)
  6
Continuous
 62
     7
100
AcDbLine
 10
47.8773118504
 20
433.4666397803
 30
0.0
 11
46.8773118504
 21
433.4666397803
 31
0.0
  0
LINE
  5
2EE
330
75
100
AcDbEntity
  8
$DDT_AUDIT_GENERATED_(CA)
  6
Continuous
 62
     7
100
AcDbLine
 10
46.8773118504
 20
433.4666397803
 30
0.0
 11
46.8773118504
 21
433.8892580421
 31
0.0
  0
LINE
  5
2EF
330
75
100
AcDbEntity
  8
$DDT_AUDIT_GENERATED_(CA)
  6
Continuous
 62
     7
100
AcDbLine
 10
46.8773118504
 20
433.8892580421
 30
0.0
 11
47.8773118504
 21
433.8892580421
 31
0.0
  0
LINE
  5
2F0
330
75
100
AcDbEntity
  8
$DDT_AUDIT_GENERATED_(CA)
  6
Continuous
 62
     7
100
AcDbLine
 10
47.8773118504
 20
433.8892580421
 30
0.0
 11
47.8773118504
 21
433.4666397803
 31
0.0
  0
LINE
  5
2F1
330
75
100
AcDbEntity
  8
$DDT_AUDIT_GENERATED_(CA)
  6
Continuous
 62
     7
100
AcDbLine
 10
46.6773118504
 20
433.4666397803
 30
0.0
 11
45.6773118504
 21
433.4666397803
 31
0.0
  0
LINE
  5
2F2
330
75
100
AcDbEntity
  8
$DDT_AUDIT_GENERATED_(CA)
  6
Continuous
 62
     7
100
AcDbLine
 10
45.6773118504
 20
433.4666397803
 30
0.0
 11
45.6773118504
 21
433.8892580421
 31
0.0
  0
LINE
  5
2F3
330
75
100
AcDbEntity
  8
$DDT_AUDIT_GENERATED_(CA)
  6
Continuous
 62
     7
100
AcDbLine
 10
45.6773118504
 20
433.8892580421
 30
0.0
 11
46.6773118504
 21
433.8892580421
 31
0.0
  0
LINE
  5
2F4
330
75
100
AcDbEntity
  8
$DDT_AUDIT_GENERATED_(CA)
  6
Continuous
 62
     7
100
AcDbLine
 10
46.6773118504
 20
433.8892580421
 30
0.0
 11
46.6773118504
 21
433.4666397803
 31
0.0
  0
LINE
  5
2F5
330
75
100
AcDbEntity
  8
$DDT_AUDIT_GENERATED_(CA)
  6
Continuous
 62
     7
100
AcDbLine
 10
45.4773118504
 20
433.4666397803
 30
0.0
 11
44.4773118504
 21
433.4666397803
 31
0.0
  0
LINE
  5
2F6
330
75
100
AcDbEntity
  8
$DDT_AUDIT_GENERATED_(CA)
  6
Continuous
 62
     7
100
AcDbLine
 10
44.4773118504
 20
433.4666397803
 30
0.0
 11
44.4773118504
 21
433.8892580421
 31
0.0
  0
LINE
  5
2F7
330
75
100
AcDbEntity
  8
$DDT_AUDIT_GENERATED_(CA)
  6
Continuous
 62
     7
100
AcDbLine
 10
44.4773118504
 20
433.8892580421
 30
0.0
 11
45.4773118504
 21
433.8892580421
 31
0.0
  0
LINE
  5
2F8
330
75
100
AcDbEntity
  8
$DDT_AUDIT_GENERATED_(CA)
  6
Continuous
 62
     7
100
AcDbLine
 10
45.4773118504
 20
433.8892580421
 30
0.0
 11
45.4773118504
 21
433.4666397803
 31
0.0
  0
LINE
  5
2F9
330
75
100
AcDbEntity
  8
$DDT_AUDIT_GENERATED_(CA)
  6
Continuous
 62
     7
100
AcDbLine
 10
49.2773118504
 20
432.9594978662
 30
0.0
 11
49.2773118504
 21
433.382116128
 31
0.0
  0
LINE
  5
2FA
330
75
100
AcDbEntity
  8
$DDT_AUDIT_GENERATED_(CA)
  6
Continuous
 62
     7
100
AcDbLine
 10
49.0773118504
 20
432.9594978662
 30
0.0
 11
48.0773118504
 21
432.9594978662
 31
0.0
  0
LINE
  5
2FB
330
75
100
AcDbEntity
  8
$DDT_AUDIT_GENERATED_(CA)
  6
Continuous
 62
     7
100
AcDbLine
 10
48.0773118504
 20
432.9594978662
 30
0.0
 11
48.0773118504
 21
433.382116128
 31
0.0
  0
LINE
  5
2FC
330
75
100
AcDbEntity
  8
$DDT_AUDIT_GENERATED_(CA)
  6
Continuous
 62
     7
100
AcDbLine
 10
48.0773118504
 20
433.382116128
 30
0.0
 11
49.0773118504
 21
433.382116128
 31
0.0
  0
LINE
  5
2FD
330
75
100
AcDbEntity
  8
$DDT_AUDIT_GENERATED_(CA)
  6
Continuous
 62
     7
100
AcDbLine
 10
49.0773118504
 20
433.382116128
 30
0.0
 11
49.0773118504
 21
432.9594978662
 31
0.0
  0
LINE
  5
2FE
330
75
100
AcDbEntity
  8
$DDT_AUDIT_GENERATED_(CA)
  6
Continuous
 62
     7
100
AcDbLine
 10
47.8773118504
 20
432.9594978662
 30
0.0
 11
46.8773118504
 21
432.9594978662
 31
0.0
  0
LINE
  5
2FF
330
75
100
AcDbEntity
  8
$DDT_AUDIT_GENERATED_(CA)
  6
Continuous
 62
     7
100
AcDbLine
 10
46.8773118504
 20
432.9594978662
 30
0.0
 11
46.8773118504
 21
433.382116128
 31
0.0
  0
LINE
  5
300
330
75
100
AcDbEntity
  8
$DDT_AUDIT_GENERATED_(CA)
  6
Continuous
 62
     7
100
AcDbLine
 10
46.8773118504
 20
433.382116128
 30
0.0
 11
47.8773118504
 21
433.382116128
 31
0.0
  0
LINE
  5
301
330
75
100
AcDbEntity
  8
$DDT_AUDIT_GENERATED_(CA)
  6
Continuous
 62
     7
100
AcDbLine
 10
47.8773118504
 20
433.382116128
 30
0.0
 11
47.8773118504
 21
432.9594978662
 31
0.0
  0
LINE
  5
302
330
75
100
AcDbEntity
  8
$DDT_AUDIT_GENERATED_(CA)
  6
Continuous
 62
     7
100
AcDbLine
 10
46.6773118504
 20
432.9594978662
 30
0.0
 11
45.6773118504
 21
432.9594978662
 31
0.0
  0
LINE
  5
303
330
75
100
AcDbEntity
  8
$DDT_AUDIT_GENERATED_(CA)
  6
Continuous
 62
     7
100
AcDbLine
 10
45.6773118504
 20
432.9594978662
 30
0.0
 11
45.6773118504
 21
433.382116128
 31
0.0
  0
LINE
  5
304
330
75
100
AcDbEntity
  8
$DDT_AUDIT_GENERATED_(CA)
  6
Continuous
 62
     7
100
AcDbLine
 10
45.6773118504
 20
433.382116128
 30
0.0
 11
46.6773118504
 21
433.382116128
 31
0.0
  0
LINE
  5
305
330
75
100
AcDbEntity
  8
$DDT_AUDIT_GENERATED_(CA)
  6
Continuous
 62
     7
100
AcDbLine
 10
46.6773118504
 20
433.382116128
 30
0.0
 11
46.6773118504
 21
432.9594978662
 31
0.0
  0
LINE
  5
306
330
75
100
AcDbEntity
  8
$DDT_AUDIT_GENERATED_(CA)
  6
Continuous
 62
     7
100
AcDbLine
 10
49.2773118504
 20
432.4523559521
 30
0.0
 11
49.2773118504
 21
432.8749742139
 31
0.0
  0
LINE
  5
307
330
75
100
AcDbEntity
  8
$DDT_AUDIT_GENERATED_(CA)
  6
Continuous
 62
     7
100
AcDbLine
 10
49.0773118504
 20
432.4523559521
 30
0.0
 11
48.0773118504
 21
432.4523559521
 31
0.0
  0
LINE
  5
308
330
75
100
AcDbEntity
  8
$DDT_AUDIT_GENERATED_(CA)
  6
Continuous
 62
     7
100
AcDbLine
 10
48.0773118504
 20
432.4523559521
 30
0.0
 11
48.0773118504
 21
432.8749742139
 31
0.0
  0
LINE
  5
309
330
75
100
AcDbEntity
  8
$DDT_AUDIT_GENERATED_(CA)
  6
Continuous
 62
     7
100
AcDbLine
 10
48.0773118504
 20
432.8749742139
 30
0.0
 11
49.0773118504
 21
432.8749742139
 31
0.0
  0
LINE
  5
30A
330
75
100
AcDbEntity
  8
$DDT_AUDIT_GENERATED_(CA)
  6
Continuous
 62
     7
100
AcDbLine
 10
49.0773118504
 20
432.8749742139
 30
0.0
 11
49.0773118504
 21
432.4523559521
 31
0.0
  0
LINE
  5
30B
330
75
100
AcDbEntity
  8
$DDT_AUDIT_GENERATED_(CA)
  6
Continuous
 62
     7
100
AcDbLine
 10
47.8773118504
 20
432.4523559521
 30
0.0
 11
46.8773118504
 21
432.4523559521
 31
0.0
  0
LINE
  5
30C
330
75
100
AcDbEntity
  8
$DDT_AUDIT_GENERATED_(CA)
  6
Continuous
 62
     7
100
AcDbLine
 10
46.8773118504
 20
432.4523559521
 30
0.0
 11
46.8773118504
 21
432.8749742139
 31
0.0
  0
LINE
  5
30D
330
75
100
AcDbEntity
  8
$DDT_AUDIT_GENERATED_(CA)
  6
Continuous
 62
     7
100
AcDbLine
 10
46.8773118504
 20
432.8749742139
 30
0.0
 11
47.8773118504
 21
432.8749742139
 31
0.0
  0
LINE
  5
30E
330
75
100
AcDbEntity
  8
$DDT_AUDIT_GENERATED_(CA)
  6
Continuous
 62
     7
100
AcDbLine
 10
47.8773118504
 20
432.8749742139
 30
0.0
 11
47.8773118504
 21
432.4523559521
 31
0.0
  0
LINE
  5
30F
330
75
100
AcDbEntity
  8
$DDT_AUDIT_GENERATED_(CA)
  6
Continuous
 62
     7
100
AcDbLine
 10
49.2773118504
 20
432.226325106
 30
0.0
 11
49.2773118504
 21
432.3678322998
 31
0.0
  0
ELLIPSE
  5
310
330
75
100
AcDbEntity
  8
$DDT_AUDIT_GENERATED_(CA)
  6
Continuous
 62
     7
100
AcDbEllipse
 10
49.7773118734
 20
435.7065167006
 30
0.0
 11
-8.250000158672027
 21
-1.186384324114442E-8
 31
0.0
210
0.0
220
0.0
230
1.0
 40
0.4226182697
 41
1.485845701139957
 42
1.510153100529094
  0
LINE
  5
311
330
75
100
AcDbEntity
  8
$DDT_AUDIT_GENERATED_(CA)
  6
Continuous
 62
     7
100
AcDbLine
 10
48.0773118504
 20
432.2947410395
 30
0.0
 11
48.0773118504
 21
432.3678322998
 31
0.0
  0
LINE
  5
312
330
75
100
AcDbEntity
  8
$DDT_AUDIT_GENERATED_(CA)
  6
Continuous
 62
     7
100
AcDbLine
 10
48.0773118504
 20
432.3678322998
 30
0.0
 11
49.0773118504
 21
432.3678322998
 31
0.0
  0
LINE
  5
313
330
75
100
AcDbEntity
  8
$DDT_AUDIT_GENERATED_(CA)
  6
Continuous
 62
     7
100
AcDbLine
 10
49.0773118504
 20
432.3678322998
 30
0.0
 11
49.0773118504
 21
432.2324890601
 31
0.0
  0
ELLIPSE
  5
314
330
75
100
AcDbEntity
  8
$DDT_AUDIT_GENERATED_(CA)
  6
Continuous
 62
     7
100
AcDbEllipse
 10
49.7773119191
 20
435.7065166968
 30
0.0
 11
-8.250000164282575
 21
-3.443893781263085E-8
 31
0.0
210
0.0
220
0.0
230
1.0
 40
0.422618269
 41
1.338407248713942
 42
1.363248870240048
  0
LINE
  5
315
330
75
100
AcDbEntity
  8
$DDT_AUDIT_GENERATED_(CA)
  6
Continuous
 62
     7
100
AcDbLine
 10
47.3998131648
 20
432.3678322998
 30
0.0
 11
47.8773118504
 21
432.3678322998
 31
0.0
  0
LINE
  5
316
330
75
100
AcDbEntity
  8
$DDT_AUDIT_GENERATED_(CA)
  6
Continuous
 62
     7
100
AcDbLine
 10
47.8773118504
 20
432.3678322998
 30
0.0
 11
47.8773118504
 21
432.3136393529
 31
0.0
  0
ELLIPSE
  5
317
330
75
100
AcDbEntity
  8
$DDT_AUDIT_GENERATED_(CA)
  6
Continuous
 62
     7
100
AcDbEllipse
 10
49.7773118509
 20
435.7065165681
 30
0.0
 11
-8.25000000079346
 21
-2.318284453295405E-10
 31
0.0
210
0.0
220
0.0
230
1.0
 40
0.4226182618
 41
1.185582205097378
 42
1.278468933598068
  0
LINE
  5
318
330
75
100
AcDbEntity
  8
$DDT_AUDIT_GENERATED_(CA)
  6
Continuous
 62
     7
100
AcDbLine
 10
45.6773118504
 20
432.6809564513
 30
0.0
 11
45.6773118504
 21
432.8749742139
 31
0.0
  0
LINE
  5
319
330
75
100
AcDbEntity
  8
$DDT_AUDIT_GENERATED_(CA)
  6
Continuous
 62
     7
100
AcDbLine
 10
45.6773118504
 20
432.8749742139
 30
0.0
 11
46.6773118504
 21
432.8749742139
 31
0.0
  0
LINE
  5
31A
330
75
100
AcDbEntity
  8
$DDT_AUDIT_GENERATED_(CA)
  6
Continuous
 62
     7
100
AcDbLine
 10
46.6773118504
 20
432.8749742139
 30
0.0
 11
46.6773118504
 21
432.4754209914
 31
0.0
  0
ELLIPSE
  5
31B
330
75
100
AcDbEntity
  8
$DDT_AUDIT_GENERATED_(CA)
  6
Continuous
 62
     7
100
AcDbEllipse
 10
49.7773118519
 20
435.7065165684
 30
0.0
 11
-8.25000000167609
 21
-5.973138650361420E-10
 31
0.0
210
0.0
220
0.0
230
1.0
 40
0.4226182618
 41
0.9073568924578919
 42
0.9477783668660471
  0
LINE
  5
31C
330
75
100
AcDbEntity
  8
$DDT_AUDIT_GENERATED_(CA)
  6
Continuous
 62
     7
100
AcDbLine
 10
44.4773118504
 20
433.0345629497
 30
0.0
 11
44.4773118504
 21
433.382116128
 31
0.0
  0
LINE
  5
31D
330
75
100
AcDbEntity
  8
$DDT_AUDIT_GENERATED_(CA)
  6
Continuous
 62
     7
100
AcDbLine
 10
44.4773118504
 20
433.382116128
 30
0.0
 11
45.4773118504
 21
433.382116128
 31
0.0
  0
LINE
  5
31E
330
75
100
AcDbEntity
  8
$DDT_AUDIT_GENERATED_(CA)
  6
Continuous
 62
     7
100
AcDbLine
 10
45.4773118504
 20
433.382116128
 30
0.0
 11
45.4773118504
 21
432.9594978662
 31
0.0
  0
LINE
  5
31F
330
75
100
AcDbEntity
  8
$DDT_AUDIT_GENERATED_(CA)
  6
Continuous
 62
     7
100
AcDbLine
 10
45.4773118504
 20
432.9594978662
 30
0.0
 11
44.6967114922
 21
432.9594978662
 31
0.0
  0
LINE
  5
320
330
75
100
AcDbEntity
  8
$DDT_AUDIT_GENERATED_(CA)
  6
Continuous
 62
     7
100
AcDbLine
 10
44.6967114922
 20
432.9594978662
 30
0.0
 11
44.6967114922
 21
433.382116128
 31
0.0
  0
ELLIPSE
  5
321
330
75
100
AcDbEntity
  8
$DDT_AUDIT_GENERATED_(CA)
  6
Continuous
 62
     7
100
AcDbEllipse
 10
49.7773119415
 20
435.7065166325
 30
0.0
 11
-8.250000112583624
 21
-4.032368883244430E-8
 31
0.0
210
0.0
220
0.0
230
1.0
 40
0.4226182639
 41
1.02252568604069
 42
1.050693116554508
  0
LINE
  5
322
330
75
100
AcDbEntity
  8
$DDT_AUDIT_GENERATED_(CA)
  6
Continuous
 62
     7
100
AcDbLine
 10
44.9635295537
 20
432.8749742139
 30
0.0
 11
45.4773118504
 21
432.8749742139
 31
0.0
  0
LINE
  5
323
330
75
100
AcDbEntity
  8
$DDT_AUDIT_GENERATED_(CA)
  6
Continuous
 62
     7
100
AcDbLine
 10
45.4773118504
 20
432.8749742139
 30
0.0
 11
45.4773118504
 21
432.7309568539
 31
0.0
  0
ELLIPSE
  5
324
330
75
100
AcDbEntity
  8
$DDT_AUDIT_GENERATED_(CA)
  6
Continuous
 62
     7
100
AcDbEllipse
 10
49.7773117735
 20
435.7065165395
 30
0.0
 11
-8.249999920045854
 21
2.588090852739811E-8
 31
0.0
210
0.0
220
0.0
230
1.0
 40
0.4226182621
 41
0.697657457151161
 42
0.7297276607073147
  0
LINE
  5
325
330
75
100
AcDbEntity
  8
$DDT_AUDIT_GENERATED_(CA)
  6
Continuous
 62
     7
100
AcDbLine
 10
43.2773118504
 20
433.5593620756
 30
0.0
 11
43.2773118504
 21
433.8892580421
 31
0.0
  0
LINE
  5
326
330
75
100
AcDbEntity
  8
$DDT_AUDIT_GENERATED_(CA)
  6
Continuous
 62
     7
100
AcDbLine
 10
43.2773118504
 20
433.8892580421
 30
0.0
 11
44.2773118504
 21
433.8892580421
 31
0.0
  0
LINE
  5
327
330
75
100
AcDbEntity
  8
$DDT_AUDIT_GENERATED_(CA)
  6
Continuous
 62
     7
100
AcDbLine
 10
44.2773118504
 20
433.8892580421
 30
0.0
 11
44.2773118504
 21
433.4666397803
 31
0.0
  0
LINE
  5
328
330
75
100
AcDbEntity
  8
$DDT_AUDIT_GENERATED_(CA)
  6
Continuous
 62
     7
100
AcDbLine
 10
44.2773118504
 20
433.4666397803
 30
0.0
 11
43.4549309698
 21
433.4666397803
 31
0.0
  0
LINE
  5
329
330
75
100
AcDbEntity
  8
$DDT_AUDIT_GENERATED_(CA)
  6
Continuous
 62
     7
100
AcDbLine
 10
43.4549309698
 20
433.4666397803
 30
0.0
 11
43.4549309698
 21
433.8892580421
 31
0.0
  0
ELLIPSE
  5
32A
330
75
100
AcDbEntity
  8
$DDT_AUDIT_GENERATED_(CA)
  6
Continuous
 62
     7
100
AcDbEllipse
 10
49.7773119475
 20
435.7065166149
 30
0.0
 11
-8.250000105869704
 21
-3.774025536529280E-8
 31
0.0
210
0.0
220
0.0
230
1.0
 40
0.4226182623
 41
0.8410686643294877
 42
0.8731388673999882
  0
LINE
  5
32B
330
75
100
AcDbEntity
  8
$DDT_AUDIT_GENERATED_(CA)
  6
Continuous
 62
     7
100
AcDbLine
 10
43.6281249123
 20
433.382116128
 30
0.0
 11
44.2773118504
 21
433.382116128
 31
0.0
  0
LINE
  5
32C
330
75
100
AcDbEntity
  8
$DDT_AUDIT_GENERATED_(CA)
  6
Continuous
 62
     7
100
AcDbLine
 10
44.2773118504
 20
433.382116128
 30
0.0
 11
44.2773118504
 21
433.1077578726
 31
0.0
  0
LINE
  5
32D
330
75
100
AcDbEntity
  8
$DDT_AUDIT_GENERATED_(CA)
  6
Continuous
 62
     7
100
AcDbLine
 10
43.0773118504
 20
434.4809236085
 30
0.0
 11
42.0773118504
 21
434.4809236085
 31
0.0
  0
LINE
  5
32E
330
75
100
AcDbEntity
  8
$DDT_AUDIT_GENERATED_(CA)
  6
Continuous
 62
     7
100
AcDbLine
 10
42.0773118504
 20
434.4809236085
 30
0.0
 11
42.0773118504
 21
434.9035418702
 31
0.0
  0
LINE
  5
32F
330
75
100
AcDbEntity
  8
$DDT_AUDIT_GENERATED_(CA)
  6
Continuous
 62
     7
100
AcDbLine
 10
42.0773118504
 20
434.9035418702
 30
0.0
 11
43.0773118504
 21
434.9035418702
 31
0.0
  0
LINE
  5
330
330
75
100
AcDbEntity
  8
$DDT_AUDIT_GENERATED_(CA)
  6
Continuous
 62
     7
100
AcDbLine
 10
43.0773118504
 20
434.9035418702
 30
0.0
 11
43.0773118504
 21
434.4809236085
 31
0.0
  0
ELLIPSE
  5
331
330
75
100
AcDbEntity
  8
$DDT_AUDIT_GENERATED_(CA)
  6
Continuous
 62
     7
100
AcDbEllipse
 10
49.7773120037
 20
435.7065166058
 30
0.0
 11
-8.250000155023269
 21
-4.013235577193797E-8
 31
0.0
210
0.0
220
0.0
230
1.0
 40
0.4226182595
 41
0.520103196627711
 42
0.5482706271427115
  0
LINE
  5
332
330
75
100
AcDbEntity
  8
$DDT_AUDIT_GENERATED_(CA)
  6
Continuous
 62
     7
100
AcDbLine
 10
42.1318883828
 20
434.3963999562
 30
0.0
 11
43.0773118504
 21
434.3963999562
 31
0.0
  0
LINE
  5
333
330
75
100
AcDbEntity
  8
$DDT_AUDIT_GENERATED_(CA)
  6
Continuous
 62
     7
100
AcDbLine
 10
43.0773118504
 20
434.3963999562
 30
0.0
 11
43.0773118504
 21
433.9737816944
 31
0.0
  0
LINE
  5
334
330
75
100
AcDbEntity
  8
$DDT_AUDIT_GENERATED_(CA)
  6
Continuous
 62
     7
100
AcDbLine
 10
43.0773118504
 20
433.9737816944
 30
0.0
 11
42.6182267133
 21
433.9737816944
 31
0.0
  0
LINE
  5
335
330
75
100
AcDbEntity
  8
$DDT_AUDIT_GENERATED_(CA)
  6
Continuous
 62
     7
100
AcDbLine
 10
42.6182267133
 20
433.9737816944
 30
0.0
 11
42.6182267133
 21
434.3963999562
 31
0.0
  0
ELLIPSE
  5
336
330
75
100
AcDbEntity
  8
$DDT_AUDIT_GENERATED_(CA)
  6
Continuous
 62
     7
100
AcDbEllipse
 10
49.7773118415
 20
435.7065165647
 30
0.0
 11
-8.249999990871361
 21
2.742139848521674E-9
 31
0.0
210
0.0
220
0.0
230
1.0
 40
0.4226182618
 41
0.6230179602756479
 42
0.6634394347170289
  0
LINE
  5
337
330
75
100
AcDbEntity
  8
$DDT_AUDIT_GENERATED_(CA)
  6
Continuous
 62
     7
100
AcDbLine
 10
42.7365377453
 20
433.8892580421
 30
0.0
 11
43.0773118504
 21
433.8892580421
 31
0.0
  0
LINE
  5
338
330
75
100
AcDbEntity
  8
$DDT_AUDIT_GENERATED_(CA)
  6
Continuous
 62
     7
100
AcDbLine
 10
43.0773118504
 20
433.8892580421
 30
0.0
 11
43.0773118504
 21
433.6721242609
 31
0.0
  0
ELLIPSE
  5
339
330
75
100
AcDbEntity
  8
$DDT_AUDIT_GENERATED_(CA)
  6
Continuous
 62
     7
100
AcDbEllipse
 10
49.7773121691
 20
435.7065165773
 30
0.0
 11
-8.250000318623194
 21
-1.185603004660862E-8
 31
0.0
210
0.0
220
0.0
230
1.0
 40
0.4226182536
 41
0.0650308827212281
 42
0.084950621638415
  0
LINE
  5
33A
330
75
100
AcDbEntity
  8
$DDT_AUDIT_GENERATED_(CA)
  6
Continuous
 62
     7
100
AcDbLine
 10
41.8773118504
 20
435.4952074367
 30
0.0
 11
41.5471826912
 21
435.4952074367
 31
0.0
  0
ELLIPSE
  5
33B
330
75
100
AcDbEntity
  8
$DDT_AUDIT_GENERATED_(CA)
  6
Continuous
 62
     7
100
AcDbEllipse
 10
49.7773121567
 20
435.7065165964
 30
0.0
 11
-8.250000306316045
 21
-3.431153972055512E-8
 31
0.0
210
0.0
220
0.0
230
1.0
 40
0.4226182545
 41
0.2075474449111054
 42
0.232389066436974
  0
LINE
  5
33C
330
75
100
AcDbEntity
  8
$DDT_AUDIT_GENERATED_(CA)
  6
Continuous
 62
     7
100
AcDbLine
 10
41.5570624625
 20
435.4106837843
 30
0.0
 11
41.8773118504
 21
435.4106837843
 31
0.0
  0
LINE
  5
33D
330
75
100
AcDbEntity
  8
$DDT_AUDIT_GENERATED_(CA)
  6
Continuous
 62
     7
100
AcDbLine
 10
41.8773118504
 20
435.4106837843
 30
0.0
 11
41.8773118504
 21
434.9880655226
 31
0.0
  0
LINE
  5
33E
330
75
100
AcDbEntity
  8
$DDT_AUDIT_GENERATED_(CA)
  6
Continuous
 62
     7
100
AcDbLine
 10
41.8773118504
 20
434.9880655226
 30
0.0
 11
41.7043631946
 21
434.9880655226
 31
0.0
  0
LINE
  5
33F
330
75
100
AcDbEntity
  8
$DDT_AUDIT_GENERATED_(CA)
  6
Continuous
 62
     7
100
AcDbLine
 10
41.7043631946
 20
434.9880655226
 30
0.0
 11
41.7043631946
 21
435.4106837843
 31
0.0
  0
ELLIPSE
  5
340
330
75
100
AcDbEntity
  8
$DDT_AUDIT_GENERATED_(CA)
  6
Continuous
 62
     7
100
AcDbEllipse
 10
49.7773118502
 20
435.7065165675
 30
0.0
 11
-8.249999999796556
 21
3.344546861683284E-11
 31
0.0
210
0.0
220
0.0
230
1.0
 40
0.4226182617
 41
0.292327393158648
 42
0.3852141216686097
  0
LINE
  5
341
330
75
100
AcDbEntity
  8
$DDT_AUDIT_GENERATED_(CA)
  6
Continuous
 62
     7
100
AcDbLine
 10
41.7490804138
 20
434.9035418702
 30
0.0
 11
41.8773118504
 21
434.9035418702
 31
0.0
  0
LINE
  5
342
330
75
100
AcDbEntity
  8
$DDT_AUDIT_GENERATED_(CA)
  6
Continuous
 62
     7
100
AcDbLine
 10
41.8773118504
 20
434.9035418702
 30
0.0
 11
41.8773118504
 21
434.7017422058
 31
0.0
  0
LINE
  5
343
330
75
100
AcDbEntity
  8
$DDT_AUDIT_GENERATED_(CA)
  6
Continuous
 62
     7
100
AcDbLine
 10
59.1773118504
 20
435.253362674
 30
0.0
 11
59.1773118504
 21
436.3182743238
 31
0.0
  0
LINE
  5
344
330
75
100
AcDbEntity
  8
$DDT_AUDIT_GENERATED_(CA)
  6
Continuous
 62
     7
100
AcDbLine
 10
40.3773118504
 20
436.3182743238
 30
0.0
 11
40.3773118504
 21
435.253362674
 31
0.0
  0
SPLINE
  5
346
330
75
100
AcDbEntity
  8
$DDT_AUDIT_GENERATED_(345)
  6
Continuous
 62
     7
100
AcDbSpline
210
0.0
220
0.0
230
1.0
 70
     8
 71
     3
 72
     8
 73
     4
 74
     0
 42
0.0000000005079261
 43
0.0000000001
 40
0.1937899605278146
 40
0.1937899605278146
 40
0.1937899605278146
 40
0.1937899605278146
 40
0.2004106088198262
 40
0.2004106088198262
 40
0.2004106088198262
 40
0.2004106088198262
 10
25.56127324497346
 20
504.3042411918925
 30
0.0
 10
25.58780965146181
 20
504.3386402213796
 30
0.0
 10
25.61451972244719
 20
504.3729099979521
 30
0.0
 10
25.64140366501858
 20
504.4070472809606
 30
0.0
  0
SPLINE
  5
347
330
75
100
AcDbEntity
  8
$DDT_AUDIT_GENERATED_(345)
  6
Continuous
 62
     7
100
AcDbSpline
210
0.0
220
0.0
230
1.0
 70
     8
 71
     3
 72
    12
 73
     8
 74
     0
 42
0.0000000004077072
 43
0.0000000001
 40
0.2004106088198262
 40
0.2004106088198262
 40
0.2004106088198262
 40
0.2004106088198262
 40
0.25
 40
0.25
 40
0.5000000000000001
 40
0.5000000000000001
 40
1.0
 40
1.0
 40
1.0
 40
1.0
 10
25.64140366501858
 20
504.4070472809606
 30
0.0
 10
25.84276738135532
 20
504.6627393229286
 30
0.0
 10
26.05388560039544
 20
504.9109982422169
 30
0.0
 10
27.38879198040067
 20
506.3576965524787
 30
0.0
 10
28.75912153118912
 20
507.3457264036736
 30
0.0
 10
33.63895330874857
 20
509.239440935785
 30
0.0
 10
37.88881925072437
 20
509.1274503095748
 30
0.0
 10
43.21168407084964
 20
506.7815003276268
 30
0.0
  0
ARC
  5
348
330
75
100
AcDbEntity
  8
$DDT_AUDIT_GENERATED_(345)
  6
Continuous
 62
     7
100
AcDbCircle
 10
49.7773118504
 20
488.7820909683
 30
0.0
 40
19.39303331523164
100
AcDbArc
 50
26.2444886641
 51
42.962887003
  0
ARC
  5
349
330
75
100
AcDbEntity
  8
$DDT_AUDIT_GENERATED_(345)
  6
Continuous
 62
     7
100
AcDbCircle
 10
49.7773118504
 20
488.7820909683
 30
0.0
 40
19.39303331523164
100
AcDbArc
 50
137.0280946944
 51
153.7555113358
  0
SPLINE
  5
34A
330
75
100
AcDbEntity
  8
$DDT_AUDIT_GENERATED_(345)
  6
Continuous
 62
     7
100
AcDbSpline
210
0.0
220
0.0
230
1.0
 70
     8
 71
     3
 72
    14
 73
    10
 74
     0
 42
0.0000000008862572
 43
0.0000000001
 40
0.0
 40
0.0
 40
0.0
 40
0.0
 40
0.2499999999999998
 40
0.2499999999999998
 40
0.4999999999999996
 40
0.4999999999999996
 40
0.7499999999999998
 40
0.7499999999999998
 40
1.0
 40
1.0
 40
1.0
 40
1.0
 10
32.38340391428826
 20
497.3577371756722
 30
0.0
 10
31.57967808969341
 20
495.9520028318969
 30
0.0
 10
30.45801733197906
 20
495.0139613170701
 30
0.0
 10
28.30421310429912
 20
493.8326465363461
 30
0.0
 10
27.24543698316881
 20
493.5776535981783
 30
0.0
 10
25.45778892991992
 20
493.4571660269111
 30
0.0
 10
24.69738211722179
 20
493.5890221615509
 30
0.0
 10
23.5558509642096
 20
494.0205575380798
 30
0.0
 10
23.16220458788986
 20
494.3207784387978
 30
0.0
 10
22.95216662658666
 20
494.6344224474934
 30
0.0
  0
SPLINE
  5
34B
330
75
100
AcDbEntity
  8
$DDT_AUDIT_GENERATED_(345)
  6
Continuous
 62
     7
100
AcDbSpline
210
0.0
220
0.0
230
1.0
 70
     8
 71
     3
 72
     8
 73
     4
 74
     0
 42
0.0000000007990205
 43
0.0000000001
 40
0.0194436969422709
 40
0.0194436969422709
 40
0.0194436969422709
 40
0.0194436969422709
 40
0.1473544664724485
 40
0.1473544664724485
 40
0.1473544664724485
 40
0.1473544664724485
 10
72.93053613570042
 20
499.2853161498667
 30
0.0
 10
72.64108825394297
 20
499.7567237015549
 30
0.0
 10
72.32793398676878
 20
500.1884220214595
 30
0.0
 10
71.99019901751925
 20
500.5763517570227
 30
0.0
  0
SPLINE
  5
34C
330
75
100
AcDbEntity
  8
$DDT_AUDIT_GENERATED_(345)
  6
Continuous
 62
     7
100
AcDbSpline
210
0.0
220
0.0
230
1.0
 70
     8
 71
     3
 72
    16
 73
    12
 74
     0
 42
0.0000000018824441
 43
0.0000000001
 40
0.0
 40
0.0
 40
0.0
 40
0.0
 40
0.1250000000000001
 40
0.1250000000000001
 40
0.2500000000000003
 40
0.2500000000000003
 40
0.5000000000000002
 40
0.5000000000000002
 40
0.7500000000000001
 40
0.7500000000000001
 40
1.0
 40
1.0
 40
1.0
 40
1.0
 10
73.06089264439206
 20
499.0676019510448
 30
0.0
 10
73.25144375940557
 20
498.7665736380316
 30
0.0
 10
73.45423689361938
 20
498.5209213123657
 30
0.0
 10
73.8520984937085
 20
498.0738668823535
 30
0.0
 10
74.04823789326376
 20
497.8753906542715
 30
0.0
 10
74.61393891247423
 20
497.3235257432381
 30
0.0
 10
74.9608721661613
 20
497.0125994234167
 30
0.0
 10
75.57242361132334
 20
496.434379944487
 30
0.0
 10
75.83822711973298
 20
496.168270940021
 30
0.0
 10
76.28378580282526
 20
495.6489578960132
 30
0.0
 10
76.46379728259267
 20
495.3961359404943
 30
0.0
 10
76.60008658887605
 20
495.1385740654952
 30
0.0
  0
SPLINE
  5
34D
330
75
100
AcDbEntity
  8
$DDT_AUDIT_GENERATED_(345)
  6
Continuous
 62
     7
100
AcDbSpline
210
0.0
220
0.0
230
1.0
 70
     8
 71
     3
 72
    10
 73
     6
 74
     0
 42
0.0000000005903947
 43
0.0000000001
 40
0.0
 40
0.0
 40
0.0
 40
0.0
 40
0.5
 40
0.5
 40
1.0
 40
1.0
 40
1.0
 40
1.0
 10
36.86363260541384
 20
503.0504847064783
 30
0.0
 10
33.15100925093546
 20
504.5980337508683
 30
0.0
 10
30.17648048864131
 20
504.6461646564899
 30
0.0
 10
25.58562501228395
 20
502.7765463647131
 30
0.0
 10
23.99117719727591
 20
500.8227975802937
 30
0.0
 10
23.02325523359586
 20
498.5591416433983
 30
0.0
  0
SPLINE
  5
34E
330
75
100
AcDbEntity
  8
$DDT_AUDIT_GENERATED_(345)
  6
Continuous
 62
     7
100
AcDbSpline
210
0.0
220
0.0
230
1.0
 70
     8
 71
     3
 72
    12
 73
     8
 74
     0
 42
0.0000000012965249
 43
0.0000000001
 40
0.0
 40
0.0
 40
0.0
 40
0.0
 40
0.5000000000000013
 40
0.5000000000000013
 40
0.7500000000000007
 40
0.7500000000000007
 40
1.0
 40
1.0
 40
1.0
 40
1.0
 10
36.86363260541384
 20
503.0504847064783
 30
0.0
 10
37.27694631169991
 20
503.9605476489995
 30
0.0
 10
38.03725000161409
 20
504.7150941070236
 30
0.0
 10
39.57083960628703
 20
505.6766229080091
 30
0.0
 10
40.15042800298413
 20
505.9669641893337
 30
0.0
 10
41.52095545425124
 20
506.4684527832917
 30
0.0
 10
42.28962149727629
 20
506.6775564981656
 30
0.0
 10
43.21168407084964
 20
506.7815003276268
 30
0.0
  0
SPLINE
  5
34F
330
75
100
AcDbEntity
  8
$DDT_AUDIT_GENERATED_(345)
  6
Continuous
 62
     7
100
AcDbSpline
210
0.0
220
0.0
230
1.0
 70
     8
 71
     3
 72
     8
 73
     4
 74
     0
 42
0.000000000798568
 43
0.0000000001
 40
0.8540101986140044
 40
0.8540101986140044
 40
0.8540101986140044
 40
0.8540101986140044
 40
0.9799481122365443
 40
0.9799481122365443
 40
0.9799481122365443
 40
0.9799481122365443
 10
27.55425909898896
 20
500.5643124951935
 30
0.0
 10
27.2219755065251
 20
500.1813234155291
 30
0.0
 10
26.91355347673935
 20
499.7559419532581
 30
0.0
 10
26.62825271565961
 20
499.2920810414132
 30
0.0
  0
SPLINE
  5
350
330
75
100
AcDbEntity
  8
$DDT_AUDIT_GENERATED_(345)
  6
Continuous
 62
     7
100
AcDbSpline
210
0.0
220
0.0
230
1.0
 70
     8
 71
     3
 72
    14
 73
    10
 74
     0
 42
0.0000000004133295
 43
0.0000000001
 40
0.0
 40
0.0
 40
0.0
 40
0.0
 40
0.25
 40
0.25
 40
0.5
 40
0.5
 40
0.75
 40
0.75
 40
0.8027726059781062
 40
0.8027726059781062
 40
0.8027726059781062
 40
0.8027726059781062
 10
56.34293963019682
 20
506.7815003274739
 30
0.0
 10
59.00286888715097
 20
507.9538128327743
 30
0.0
 10
61.40329895951702
 20
508.5619859615605
 30
0.0
 10
65.68409248120597
 20
508.8865238332274
 30
0.0
 10
67.5697526138749
 20
508.6015947842943
 30
0.0
 10
70.81238667086922
 20
507.3350653189832
 30
0.0
 10
72.17441201868712
 20
506.3499503939832
 30
0.0
 10
73.51954333027535
 20
504.8902859000548
 30
0.0
 10
73.74293729264534
 20
504.625916558024
 30
0.0
 10
73.95536505866052
 20
504.3532274296751
 30
0.0
  0
SPLINE
  5
351
330
75
100
AcDbEntity
  8
$DDT_AUDIT_GENERATED_(345)
  6
Continuous
 62
     7
100
AcDbSpline
210
0.0
220
0.0
230
1.0
 70
     8
 71
     3
 72
    12
 73
     8
 74
     0
 42
0.0000000012965299
 43
0.0000000001
 40
0.0
 40
0.0
 40
0.0
 40
0.0
 40
0.25
 40
0.25
 40
0.5
 40
0.5
 40
1.0
 40
1.0
 40
1.0
 40
1.0
 10
56.34293963019682
 20
506.7815003274739
 30
0.0
 10
57.26143406106615
 20
506.6779587336317
 30
0.0
 10
58.04201717934296
 20
506.46559287744
 30
0.0
 10
59.40076154495775
 20
505.9680250251221
 30
0.0
 10
59.99214679817455
 20
505.6723570978051
 30
0.0
 10
61.52989452670558
 20
504.7052608154574
 30
0.0
 10
62.27758058420535
 20
503.9607608009508
 30
0.0
 10
62.69099109551595
 20
503.0504847063748
 30
0.0
  0
ARC
  5
352
330
75
100
AcDbEntity
  8
$DDT_AUDIT_GENERATED_(345)
  6
Continuous
 62
     7
100
AcDbCircle
 10
49.7773118496
 20
429.2410868118
 30
0.0
 40
77.81788481017378
100
AcDbArc
 50
85.160103449
 51
94.8398965497
  0
SPLINE
  5
353
330
75
100
AcDbEntity
  8
$DDT_AUDIT_GENERATED_(345)
  6
Continuous
 62
     7
100
AcDbSpline
210
0.0
220
0.0
230
1.0
 70
     8
 71
     3
 72
    12
 73
     8
 74
     0
 42
0.0000000005966832
 43
0.0000000001
 40
0.0
 40
0.0
 40
0.0
 40
0.0
 40
0.5000000000000001
 40
0.5000000000000001
 40
0.75
 40
0.75
 40
1.0
 40
1.0
 40
1.0
 40
1.0
 10
76.53128663065125
 20
498.5593330285553
 30
0.0
 10
75.5636364583222
 20
500.8222543784387
 30
0.0
 10
73.9702032987111
 20
502.7727030195038
 30
0.0
 10
70.53886325823865
 20
504.1751297745438
 30
0.0
 10
69.21625701190828
 20
504.3972715844512
 30
0.0
 10
66.22059025993164
 20
504.220636843037
 30
0.0
 10
64.5475806269963
 20
503.8243750478075
 30
0.0
 10
62.69099109551595
 20
503.0504847063748
 30
0.0
  0
ARC
  5
354
330
75
100
AcDbEntity
  8
$DDT_AUDIT_GENERATED_(345)
  6
Continuous
 62
     7
100
AcDbCircle
 10
71.3658227508
 20
498.614282341
 30
0.0
 40
5.165756142272532
100
AcDbArc
 50
359.3905203849
 51
20.7669464729
  0
LINE
  5
355
330
75
100
AcDbEntity
  8
$DDT_AUDIT_GENERATED_(345)
  6
Continuous
 62
     7
100
AcDbLine
 10
76.609630155
 20
495.3157588693
 30
0.0
 11
76.5312866307
 21
498.5593330285
 31
0.0
  0
ARC
  5
356
330
75
100
AcDbEntity
  8
$DDT_AUDIT_GENERATED_(345)
  6
Continuous
 62
     7
100
AcDbCircle
 10
-539.5964425874
 20
479.9291705932
 30
0.0
 40
616.3752350372175
100
AcDbArc
 50
1.3421344759
 51
1.3641742367
  0
ARC
  5
357
330
75
100
AcDbEntity
  8
$DDT_AUDIT_GENERATED_(345)
  6
Continuous
 62
     7
100
AcDbCircle
 10
-539.5964425874
 20
479.9291705932
 30
0.0
 40
616.3752350372175
100
AcDbArc
 50
359.8595580587
 51
0.9306708843
  0
SPLINE
  5
358
330
75
100
AcDbEntity
  8
$DDT_AUDIT_GENERATED_(345)
  6
Continuous
 62
     7
100
AcDbSpline
210
0.0
220
0.0
230
1.0
 70
     8
 71
     3
 72
    14
 73
    10
 74
     0
 42
0.0000000008862975
 43
0.0000000001
 40
0.0
 40
0.0
 40
0.0
 40
0.0
 40
0.25
 40
0.25
 40
0.5
 40
0.5
 40
0.75
 40
0.75
 40
1.0
 40
1.0
 40
1.0
 40
1.0
 10
76.60231713666296
 20
494.6342135255297
 30
0.0
 10
76.39236709517294
 20
494.3208300901243
 30
0.0
 10
75.99890503855801
 20
494.0204603227608
 30
0.0
 10
74.85547359451348
 20
493.5885012454387
 30
0.0
 10
74.09711640354809
 20
493.457295008743
 30
0.0
 10
72.31106452300746
 20
493.5773792489065
 30
0.0
 10
71.25270208061293
 20
493.831867666683
 30
0.0
 10
69.0989798372187
 20
495.0121825960179
 30
0.0
 10
67.97288660842949
 20
495.9556040734824
 30
0.0
 10
67.17121978658736
 20
497.3577371756327
 30
0.0
  0
ELLIPSE
  5
359
330
75
100
AcDbEntity
  8
$DDT_AUDIT_GENERATED_(345)
  6
Continuous
 62
     7
100
AcDbEllipse
 10
76.1107214877
 20
495.3214922623
 30
0.0
 11
-0.4998838026292335
 21
-0.01077886208042389
 31
0.0
210
0.0
220
0.0
230
1.0
 40
0.4522437359
 41
3.068614130073012
 42
3.147521601230128
  0
ARC
  5
35A
330
75
100
AcDbEntity
  8
$DDT_AUDIT_GENERATED_(345)
  6
Continuous
 62
     7
100
AcDbCircle
 10
28.1901709667
 20
498.6137959653
 30
0.0
 40
5.16720478475365
100
AcDbArc
 50
159.3442753923
 51
180.6060375968
  0
SPLINE
  5
35B
330
75
100
AcDbEntity
  8
$DDT_AUDIT_GENERATED_(345)
  6
Continuous
 62
     7
100
AcDbSpline
210
0.0
220
0.0
230
1.0
 70
     8
 71
     3
 72
    12
 73
     8
 74
     0
 42
0.000000001877484
 43
0.0000000001
 40
0.0
 40
0.0
 40
0.0
 40
0.0
 40
0.5
 40
0.5
 40
0.75
 40
0.75
 40
1.0
 40
1.0
 40
1.0
 40
1.0
 10
22.95439852499406
 20
495.1383121313708
 30
0.0
 10
23.22694906006405
 20
495.6535009842024
 30
0.0
 10
23.67623120345983
 20
496.1450776894063
 30
0.0
 10
24.59359844808609
 20
497.0124596187495
 30
0.0
 10
24.94050140175291
 20
497.3233556422114
 30
0.0
 10
25.6948285810642
 20
498.0592156335219
 30
0.0
 10
26.11266590255154
 20
498.4656038970317
 30
0.0
 10
26.49373105647646
 20
499.0676019510713
 30
0.0
  0
ARC
  5
35C
330
75
100
AcDbEntity
  8
$DDT_AUDIT_GENERATED_(345)
  6
Continuous
 62
     7
100
AcDbCircle
 10
617.3650883668
 20
480.1278443629
 30
0.0
 40
594.5899110643516
100
AcDbArc
 50
178.9832257431
 51
180.1643696046
  0
LINE
  5
35D
330
75
100
AcDbEntity
  8
$DDT_AUDIT_GENERATED_(345)
  6
Continuous
 62
     7
100
AcDbLine
 10
23.0232552336
 20
498.5591416434
 30
0.0
 11
22.944872767
 21
495.3153105582
 31
0.0
  0
ELLIPSE
  5
35E
330
75
100
AcDbEntity
  8
$DDT_AUDIT_GENERATED_(345)
  6
Continuous
 62
     7
100
AcDbEllipse
 10
23.4437815614
 20
495.3210436175
 30
0.0
 11
0.4998837024414831
 21
-0.01078350732117151
 31
0.0
210
0.0
220
0.0
230
0.9999999999999999
 40
0.452358563
 41
3.140879543075253
 42
3.214571694763666
  0
ARC
  5
35F
330
75
100
AcDbEntity
  8
$DDT_AUDIT_GENERATED_(345)
  6
Continuous
 62
     7
100
AcDbCircle
 10
-535.7641430051
 20
479.9308382349
 30
0.0
 40
612.5429542093553
100
AcDbArc
 50
359.8583570779
 51
1.3754501037
  0
SPLINE
  5
360
330
75
100
AcDbEntity
  8
$DDT_AUDIT_GENERATED_(345)
  6
Continuous
 62
     7
100
AcDbSpline
210
0.0
220
0.0
230
1.0
 70
     8
 71
     3
 72
     8
 73
     4
 74
     0
 42
0.0000000041082207
 43
0.0000000001
 40
0.0
 40
0.0
 40
0.0
 40
0.0
 40
0.2092614931918451
 40
0.2092614931918451
 40
0.2092614931918451
 40
0.2092614931918451
 10
22.77762402658646
 20
478.4220926413728
 30
0.0
 10
22.77950847948552
 20
478.2405810729842
 30
0.0
 10
22.78990971488991
 20
478.0713900796874
 30
0.0
 10
22.80899455932985
 20
477.9142036299411
 30
0.0
  0
LINE
  5
361
330
75
100
AcDbEntity
  8
$DDT_AUDIT_GENERATED_(345)
  6
Continuous
 62
     7
100
AcDbLine
 10
76.7769394414
 20
478.4165506846
 30
0.0
 11
76.7769407808
 21
478.4183289805
 31
0.0
  0
ARC
  5
362
330
75
100
AcDbEntity
  8
$DDT_AUDIT_GENERATED_(345)
  6
Continuous
 62
     7
100
AcDbCircle
 10
621.14222398
 20
480.1259974535
 30
0.0
 40
598.3670206683256
100
AcDbArc
 50
178.6134239729
 51
180.1629869697
  0
LINE
  5
363
330
75
100
AcDbEntity
  8
$DDT_AUDIT_GENERATED_(345)
  6
Continuous
 62
     7
100
AcDbLine
 10
22.7776243288
 20
478.4238494638
 30
0.0
 11
22.7776240266
 21
478.4220926414
 31
0.0
  0
ELLIPSE
  5
364
330
75
100
AcDbEntity
  8
$DDT_AUDIT_GENERATED_(345)
  6
Continuous
 62
     7
100
AcDbEllipse
 10
49.7773118504
 20
477.3947431173
 30
0.0
 11
26.75000000000007
 21
0.0
 31
0.0
210
0.0
220
0.0
230
1.0
 40
0.1736481777
 41
4.1015349225862
 42
5.443158113800695
  0
SPLINE
  5
365
330
75
100
AcDbEntity
  8
$DDT_AUDIT_GENERATED_(345)
  6
Continuous
 62
     7
100
AcDbSpline
210
0.0
220
0.0
230
1.0
 70
    11
 71
     3
 72
    22
 73
    18
 74
     0
 42
0.0000000004611765
 43
0.0000000001
 40
0.0
 40
0.0
 40
0.0
 40
0.0
 40
0.125
 40
0.125
 40
0.2499999999999999
 40
0.2499999999999999
 40
0.3749999999999999
 40
0.3749999999999999
 40
0.4999999999999999
 40
0.4999999999999999
 40
0.6249999999999999
 40
0.6249999999999999
 40
0.7499999999999998
 40
0.7499999999999998
 40
0.8749999999999999
 40
0.8749999999999999
 40
1.0
 40
1.0
 40
1.0
 40
1.0
 10
49.77731185043264
 20
488.206354823116
 30
0.0
 10
48.87998364100741
 20
488.206354823116
 30
0.0
 10
48.00904501359535
 20
487.8187755565847
 30
0.0
 10
46.82616902654415
 20
486.5439348761074
 30
0.0
 10
46.51462536717852
 20
485.6673382687933
 30
0.0
 10
46.54082928055126
 20
483.9123656522761
 30
0.0
 10
46.86010182030113
 20
483.0432221092456
 30
0.0
 10
48.0270300539712
 20
481.6952115058788
 30
0.0
 10
48.87950980154298
 20
481.2549117887349
 30
0.0
 10
50.65840162647929
 20
481.2496927840826
 30
0.0
 10
51.51958329353545
 20
481.6896063800462
 30
0.0
 10
52.69006265510721
 20
483.0344613573341
 30
0.0
 10
53.01317463859456
 20
483.9100233711009
 30
0.0
 10
53.04054230722169
 20
485.6647140989867
 30
0.0
 10
52.73253977363282
 20
486.5378555343758
 30
0.0
 10
51.54718142261756
 20
487.8187168328981
 30
0.0
 10
50.67464005985786
 20
488.206354823116
 30
0.0
 10
49.77731185043264
 20
488.206354823116
 30
0.0
  0
ARC
  5
366
330
75
100
AcDbEntity
  8
$DDT_AUDIT_GENERATED_(345)
  6
Continuous
 62
     7
100
AcDbCircle
 10
49.7758033407
 20
485.4700949407
 30
0.0
 40
30.66629344643127
100
AcDbArc
 50
37.8658090641
 51
141.9040146453
  0
ARC
  5
367
330
75
100
AcDbEntity
  8
$DDT_AUDIT_GENERATED_(345)
  6
Continuous
 62
     7
100
AcDbCircle
 10
61.1020772342
 20
494.3706640502
 30
0.0
 40
16.27038197053324
100
AcDbArc
 50
21.9240985071
 51
37.8334263406
  0
ARC
  5
368
330
75
100
AcDbEntity
  8
$DDT_AUDIT_GENERATED_(345)
  6
Continuous
 62
     7
100
AcDbCircle
 10
38.4998287049
 20
494.3355391863
 30
0.0
 40
16.32475701580473
100
AcDbArc
 50
141.9222418312
 51
158.0680753458
  0
SPLINE
  5
369
330
75
100
AcDbEntity
  8
$DDT_AUDIT_GENERATED_(345)
  6
Continuous
 62
     7
100
AcDbSpline
210
0.0
220
0.0
230
1.0
 70
     8
 71
     3
 72
    26
 73
    22
 74
     0
 42
0.0000000009776509
 43
0.0000000001
 40
0.0
 40
0.0
 40
0.0
 40
0.0
 40
0.0132815598521374
 40
0.0618756824023995
 40
0.1108895659647665
 40
0.1603890768612136
 40
0.2104521795795268
 40
0.2611714983414403
 40
0.3126566515543693
 40
0.3650354069017266
 40
0.4173516134869041
 40
0.4712016371326116
 40
0.5262555136409629
 40
0.5825681233936902
 40
0.6401188656132187
 40
0.6987706850645612
 40
0.7582469051166657
 40
0.818476019885177
 40
0.8791688200277129
 40
0.9399594024025132
 40
1.0
 40
1.0
 40
1.0
 40
1.0
 10
62.665373974593
 20
501.355688072272
 30
0.0
 10
62.73125524494472
 20
501.3891360509584
 30
0.0
 10
62.99348885896888
 20
501.522010593224
 30
0.0
 10
63.48836383370493
 20
501.7408885683414
 30
0.0
 10
64.10508132443091
 20
501.9890230012253
 30
0.0
 10
64.71200459185587
 20
502.1984952692181
 30
0.0
 10
65.30257881853589
 20
502.3693717717006
 30
0.0
 10
65.87881129093203
 20
502.5019769837108
 30
0.0
 10
66.44048533250441
 20
502.5964015941914
 30
0.0
 10
66.98468181366692
 20
502.6525665139739
 30
0.0
 10
67.51019146805334
 20
502.6699525806106
 30
0.0
 10
68.02119056981324
 20
502.6486647514629
 30
0.0
 10
68.52041004805999
 20
502.5876947526367
 30
0.0
 10
69.00692153789899
 20
502.4860360330032
 30
0.0
 10
69.48067706726226
 20
502.3423109373566
 30
0.0
 10
69.94031091742886
 20
502.1554404822902
 30
0.0
 10
70.38787142119652
 20
501.9230534149925
 30
0.0
 10
70.82263907416124
 20
501.6445307339398
 30
0.0
 10
71.24004160076382
 20
501.321925080448
 30
0.0
 10
71.65052015117564
 20
500.947436595377
 30
0.0
 10
71.88621092739996
 20
500.6879296488558
 30
0.0
 10
72.02473514249009
 20
500.5337565339016
 30
0.0
  0
SPLINE
  5
36A
330
75
100
AcDbEntity
  8
$DDT_AUDIT_GENERATED_(345)
  6
Continuous
 62
     7
100
AcDbSpline
210
0.0
220
0.0
230
1.0
 70
     8
 71
     3
 72
    25
 73
    21
 74
     0
 42
0.0000000009764065
 43
0.0000000001
 40
0.0
 40
0.0
 40
0.0
 40
0.0
 40
0.055758906137407
 40
0.1166219930775928
 40
0.1773991917429439
 40
0.2381756146697321
 40
0.2988983056626456
 40
0.3590652126409691
 40
0.4186444035549535
 40
0.4772754986502332
 40
0.5346514806539229
 40
0.5906302836883149
 40
0.6452139229119711
 40
0.6981214721808444
 40
0.7510635282164404
 40
0.8030099869865724
 40
0.8541081526295234
 40
0.9044915040862955
 40
0.9542722254402513
 40
1.0
 40
1.0
 40
1.0
 40
1.0
 10
27.52102127936459
 20
500.5213184571094
 30
0.0
 10
27.64934324238146
 20
500.6660372409446
 30
0.0
 10
27.87643677187689
 20
500.9195753424748
 30
0.0
 10
28.27710137671985
 20
501.2900115830059
 30
0.0
 10
28.69504689231719
 20
501.6184021591316
 30
0.0
 10
29.1336982995775
 20
501.9040452127001
 30
0.0
 10
29.58827664114543
 20
502.1436904459306
 30
0.0
 10
30.06084370710388
 20
502.3379476420209
 30
0.0
 10
30.55122043879905
 20
502.487403554812
 30
0.0
 10
31.05832223769719
 20
502.5922712742046
 30
0.0
 10
31.58051616979884
 20
502.6530265803985
 30
0.0
 10
32.11588568480596
 20
502.6706220574915
 30
0.0
 10
32.66383116997397
 20
502.6458429448555
 30
0.0
 10
33.22825541579338
 20
502.5808504921274
 30
0.0
 10
33.80741174993967
 20
502.4756915393683
 30
0.0
 10
34.40389576200326
 20
502.3296326763258
 30
0.0
 10
35.0150678007281
 20
502.1432011743667
 30
0.0
 10
35.63588245482388
 20
501.9181285738188
 30
0.0
 10
36.27104655122658
 20
501.6544943342406
 30
0.0
 10
36.6642042207697
 20
501.4663381553813
 30
0.0
 10
36.88783933645919
 20
501.3585809146455
 30
0.0
  0
ARC
  5
36B
330
75
100
AcDbEntity
  8
$DDT_AUDIT_GENERATED_(345)
  6
Continuous
 62
     7
100
AcDbCircle
 10
62.2258981666
 20
502.252353487
 30
0.0
 40
1.000000000001029
100
AcDbArc
 50
261.0124051135
 51
270.0
  0
ARC
  5
36C
330
75
100
AcDbEntity
  8
$DDT_AUDIT_GENERATED_(345)
  6
Continuous
 62
     7
100
AcDbCircle
 10
62.2258981666
 20
502.252353487
 30
0.0
 40
1.000000000000001
100
AcDbArc
 50
270.0
 51
296.1559142165
  0
ARC
  5
36D
330
75
100
AcDbEntity
  8
$DDT_AUDIT_GENERATED_(345)
  6
Continuous
 62
     7
100
AcDbCircle
 10
49.7769436019
 20
411.763624358
 30
0.0
 40
90.34069239470064
100
AcDbArc
 50
82.1806414027
 51
97.8191803026
  0
ARC
  5
36E
330
75
100
AcDbEntity
  8
$DDT_AUDIT_GENERATED_(345)
  6
Continuous
 62
     7
100
AcDbCircle
 10
37.3287255343
 20
502.252353487
 30
0.0
 40
1.000000000000007
100
AcDbArc
 50
243.8440857841
 51
270.0
  0
ARC
  5
36F
330
75
100
AcDbEntity
  8
$DDT_AUDIT_GENERATED_(345)
  6
Continuous
 62
     7
100
AcDbCircle
 10
37.3287255343
 20
502.252353487
 30
0.0
 40
1.000000000000001
100
AcDbArc
 50
270.0
 51
278.9875948868
  0
LINE
  5
370
330
75
100
AcDbEntity
  8
$DDT_AUDIT_GENERATED_(345)
  6
Continuous
 62
     7
100
AcDbLine
 10
76.6055419625
 20
494.5830179528
 30
0.0
 11
76.6035101629
 21
494.6560917165
 31
0.0
  0
ARC
  5
371
330
75
100
AcDbEntity
  8
$DDT_AUDIT_GENERATED_(345)
  6
Continuous
 62
     7
100
AcDbCircle
 10
84.2088397621
 20
494.8817705703
 30
0.0
 40
7.606615251635606
100
AcDbArc
 50
177.5941268351
 51
181.6798746767
  0
LINE
  5
372
330
75
100
AcDbEntity
  8
$DDT_AUDIT_GENERATED_(345)
  6
Continuous
 62
     7
100
AcDbLine
 10
76.6104493198
 20
495.3242525195
 30
0.0
 11
76.6102092395
 21
495.3336059037
 31
0.0
  0
ARC
  5
373
330
75
100
AcDbEntity
  8
$DDT_AUDIT_GENERATED_(345)
  6
Continuous
 62
     7
100
AcDbCircle
 10
74.8781394445
 20
495.2824014486
 30
0.0
 40
1.732815343924172
100
AcDbArc
 50
356.8268564578
 51
1.3839460324
  0
LINE
  5
374
330
75
100
AcDbEntity
  8
$DDT_AUDIT_GENERATED_(345)
  6
Continuous
 62
     7
100
AcDbLine
 10
22.9491806528
 20
494.6565532473
 30
0.0
 11
22.9473113149
 21
494.5850745584
 31
0.0
  0
ARC
  5
375
330
75
100
AcDbEntity
  8
$DDT_AUDIT_GENERATED_(345)
  6
Continuous
 62
     7
100
AcDbCircle
 10
19.582960213
 20
494.7851855457
 30
0.0
 40
3.368265107825989
100
AcDbArc
 50
357.8189982685
 51
0.0147718234
  0
ARC
  5
376
330
75
100
AcDbEntity
  8
$DDT_AUDIT_GENERATED_(345)
  6
Continuous
 62
     7
100
AcDbCircle
 10
16.7352893808
 20
494.9025103246
 30
0.0
 40
6.217026645312735
100
AcDbArc
 50
358.926681531
 51
2.7091430625
  0
ARC
  5
377
330
75
100
AcDbEntity
  8
$DDT_AUDIT_GENERATED_(345)
  6
Continuous
 62
     7
100
AcDbCircle
 10
24.8248947465
 20
495.2910100329
 30
0.0
 40
1.881398850289936
100
AcDbArc
 50
178.7514445257
 51
182.7931314299
  0
ARC
  5
378
330
75
100
AcDbEntity
  8
$DDT_AUDIT_GENERATED_(345)
  6
Continuous
 62
     7
100
AcDbCircle
 10
24.8016102231
 20
477.9546264235
 30
0.0
 40
1.987363508365796
100
AcDbArc
 50
184.2206234653
 51
229.1166715309
  0
SPLINE
  5
379
330
75
100
AcDbEntity
  8
$DDT_AUDIT_GENERATED_(345)
  6
Continuous
 62
     7
100
AcDbSpline
210
0.0
220
0.0
230
1.0
 70
     8
 71
     3
 72
    23
 73
    19
 74
     0
 42
0.0000000011351875
 43
0.0000000001
 40
0.0
 40
0.0
 40
0.0
 40
0.0
 40
0.0308631960560264
 40
0.0989406547549346
 40
0.1670453816259255
 40
0.2351828778845518
 40
0.3033600250852934
 40
0.3715855085734562
 40
0.4398703848437837
 40
0.5082288389284193
 40
0.5766791812229477
 40
0.6452451131359213
 40
0.7139571979991906
 40
0.7828541713254616
 40
0.8519828422617917
 40
0.9213928922370814
 40
0.9876506599573678
 40
1.0
 40
1.0
 40
1.0
 40
1.0
 10
67.68503210049653
 20
473.9386637295045
 30
0.0
 10
67.82701485965067
 20
473.9604250746426
 30
0.0
 10
68.2138225136783
 20
474.0198926345165
 30
0.0
 10
68.89594200984419
 20
474.1365115624695
 30
0.0
 10
69.67425669355856
 20
474.279456769804
 30
0.0
 10
70.42328532000123
 20
474.4297146477951
 30
0.0
 10
71.13433234551911
 20
474.5851453185995
 30
0.0
 10
71.8082087992048
 20
474.7460521319526
 30
0.0
 10
72.44328333461767
 20
474.9120968205461
 30
0.0
 10
73.0386917237613
 20
475.0831356743331
 30
0.0
 10
73.59349168901133
 20
475.2590160592808
 30
0.0
 10
74.10686659601805
 20
475.4396312241588
 30
0.0
 10
74.57818926681753
 20
475.6250190256261
 30
0.0
 10
75.00657762449711
 20
475.8150789315235
 30
0.0
 10
75.39258626170478
 20
476.0108553822624
 30
0.0
 10
75.72606435870367
 20
476.206693259628
 30
0.0
 10
75.94373477431785
 20
476.3580237779316
 30
0.0
 10
76.03993160771174
 20
476.4329617473838
 30
0.0
 10
76.05749823669781
 20
476.4467005942502
 30
0.0
  0
ARC
  5
37A
330
75
100
AcDbEntity
  8
$DDT_AUDIT_GENERATED_(345)
  6
Continuous
 62
     7
100
AcDbCircle
 10
42.7526135743
 20
543.2778512725
 30
0.0
 40
70.1878160381309
100
AcDbArc
 50
261.6525936602
 51
263.1687187569
  0
SPLINE
  5
37B
330
75
100
AcDbEntity
  8
$DDT_AUDIT_GENERATED_(345)
  6
Continuous
 62
     7
100
AcDbSpline
210
0.0
220
0.0
230
1.0
 70
     8
 71
     3
 72
    23
 73
    19
 74
     0
 42
0.0000000010514618
 43
0.0000000001
 40
0.0
 40
0.0
 40
0.0
 40
0.0
 40
0.0340316692607824
 40
0.1003348415115563
 40
0.1665061132605765
 40
0.2324064209866977
 40
0.2980283279157074
 40
0.3634107355138149
 40
0.4285993497608985
 40
0.4936344684424483
 40
0.5585485815104045
 40
0.6233670323348128
 40
0.6881093802804268
 40
0.7527907148305631
 40
0.8174227311148174
 40
0.8820145584575398
 40
0.9465733832349156
 40
1.0
 40
1.0
 40
1.0
 40
1.0
 10
23.49712546416747
 20
476.4467005942502
 30
0.0
 10
23.54892943098855
 20
476.4068831871019
 30
0.0
 10
23.67975413934681
 20
476.307241501978
 30
0.0
 10
23.9515798956944
 20
476.1306822107649
 30
0.0
 10
24.3106552133981
 20
475.9321172237811
 30
0.0
 10
24.71686337645834
 20
475.7372296787299
 30
0.0
 10
25.16551920822528
 20
475.5480085344535
 30
0.0
 10
25.6567884288291
 20
475.3636998499206
 30
0.0
 10
26.18967917216693
 20
475.1843745943
 30
0.0
 10
26.76348866636271
 20
475.0099983883007
 30
0.0
 10
27.37736296144178
 20
474.8406586999373
 30
0.0
 10
28.03033529596322
 20
474.6764897784137
 30
0.0
 10
28.72151123565213
 20
474.5176307120317
 30
0.0
 10
29.44927256866676
 20
474.3643687528998
 30
0.0
 10
30.21428659063861
 20
474.2165332973539
 30
0.0
 10
31.0083023541324
 20
474.0757189653336
 30
0.0
 10
31.80735040121353
 20
473.9449213927828
 30
0.0
 10
32.2990081812536
 20
473.8723686029148
 30
0.0
 10
32.56310567135009
 20
473.8336042184507
 30
0.0
  0
LINE
  5
37C
330
75
100
AcDbEntity
  8
$DDT_AUDIT_GENERATED_(345)
  6
Continuous
 62
     7
100
AcDbLine
 10
76.7768862888
 20
478.411351221
 30
0.0
 11
76.776926784
 21
478.4163814999
 31
0.0
  0
SPLINE
  5
37D
330
75
100
AcDbEntity
  8
$DDT_AUDIT_GENERATED_(345)
  6
Continuous
 62
     7
100
AcDbSpline
210
0.0
220
0.0
230
1.0
 70
     8
 71
     3
 72
    15
 73
    11
 74
     0
 42
0.0000000046269346
 43
0.0000000001
 40
0.0
 40
0.0
 40
0.0
 40
0.0
 40
0.0681879219165159
 40
0.2110753925572865
 40
0.3542070884110042
 40
0.4987624777272732
 40
0.6456224332011502
 40
0.7977630066409457
 40
0.9537414437354039
 40
0.9822414248410841
 40
0.9822414248410841
 40
0.9822414248410841
 40
0.9822414248410841
 10
76.05327956886237
 20
476.4528476692143
 30
0.0
 10
76.09101561058158
 20
476.4807456419725
 30
0.0
 10
76.18982773239357
 20
476.5547940634984
 30
0.0
 10
76.33999098540068
 20
476.7309260033303
 30
0.0
 10
76.48894113722602
 20
476.9662947305983
 30
0.0
 10
76.60665870785978
 20
477.2402304058577
 30
0.0
 10
76.69352119915182
 20
477.5503854752683
 30
0.0
 10
76.74906824456146
 20
477.8977537623118
 30
0.0
 10
76.77369372438706
 20
478.1829202695102
 30
0.0
 10
76.77374114872794
 20
478.3410864809643
 30
0.0
 10
76.77359385788229
 20
478.367138291368
 30
0.0
  0
ELLIPSE
  5
37F
330
75
100
AcDbEntity
  8
$DDT_AUDIT_GENERATED_(37E)
  6
Continuous
 62
     7
100
AcDbEllipse
 10
49.7773118504
 20
475.4251276113
 30
0.0
 11
25.02159067685346
 21
0.0
 31
0.0
210
0.0
220
0.0
230
1.0
 40
0.1736481777
 41
0.0
 42
0.0571116875880023
  0
ELLIPSE
  5
380
330
75
100
AcDbEntity
  8
$DDT_AUDIT_GENERATED_(37E)
  6
Continuous
 62
     7
100
AcDbEllipse
 10
49.7773118504
 20
475.4251276113
 30
0.0
 11
25.02159067685346
 21
0.0
 31
0.0
210
0.0
220
0.0
230
1.0
 40
0.1736481777
 41
3.084480966001783
 42
6.283185307179586
  0
ENDBLK
  5
382
330
75
100
AcDbEntity
  8
0
100
AcDbBlockEnd
  0
BLOCK
  5
3D3
330
383
100
AcDbEntity
  8
0
100
AcDbBlockBegin
  2
SE1
 70
     0
 10
0.0
 20
0.0
 30
0.0
  3
SE1
  1

  0
ARC
  5
385
330
383
100
AcDbEntity
  8
$DDT_AUDIT_GENERATED_(77)
  6
Continuous
 62
     7
100
AcDbCircle
 10
289.85090507
 20
-843.4016170652
 30
0.0
 40
1292.659607942054
100
AcDbArc
 50
88.6536835461
 51
93.622134144
  0
LINE
  5
386
330
383
100
AcDbEntity
  8
$DDT_AUDIT_GENERATED_(77)
  6
Continuous
 62
     7
100
AcDbLine
 10
204.0529854213
 20
423.2376632406
 30
0.0
 11
208.1857560763
 21
446.6757703208
 31
0.0
  0
ARC
  5
387
330
383
100
AcDbEntity
  8
$DDT_AUDIT_GENERATED_(77)
  6
Continuous
 62
     7
100
AcDbCircle
 10
293.744387026
 20
235.2059588847
 30
0.0
 40
208.3277930684861
100
AcDbArc
 50
89.878117482
 51
115.5012112038
  0
ARC
  5
388
330
383
100
AcDbEntity
  8
$DDT_AUDIT_GENERATED_(77)
  6
Continuous
 62
     7
100
AcDbCircle
 10
173.944142883
 20
370.6192541198
 30
0.0
 40
60.40147921389134
100
AcDbArc
 50
27.9411141498
 51
47.4744971389
  0
ARC
  5
389
330
383
100
AcDbEntity
  8
$DDT_AUDIT_GENERATED_(77)
  6
Continuous
 62
     7
100
AcDbCircle
 10
-25.2119780695
 20
108.8908638617
 30
0.0
 40
389.0711165895107
100
AcDbArc
 50
51.9165128353
 51
53.8953196736
  0
LINE
  5
38A
330
383
100
AcDbEntity
  8
$DDT_AUDIT_GENERATED_(77)
  6
Continuous
 62
     7
100
AcDbLine
 10
168.66511035
 20
365.8161963589
 30
0.0
 11
221.4672941682
 21
365.8161963589
 31
0.0
  0
ARC
  5
38B
330
383
100
AcDbEntity
  8
$DDT_AUDIT_GENERATED_(77)
  6
Continuous
 62
     7
100
AcDbCircle
 10
157.9607105863
 20
576.5386847425
 30
0.0
 40
134.1401922004365
100
AcDbArc
 50
302.0944014672
 51
307.4105942586
  0
ARC
  5
38C
330
383
100
AcDbEntity
  8
$DDT_AUDIT_GENERATED_(77)
  6
Continuous
 62
     7
100
AcDbCircle
 10
350.9183883473
 20
283.2726911484
 30
0.0
 40
216.963523657878
100
AcDbArc
 50
124.11552048
 51
131.1372213815
  0
ARC
  5
38D
330
383
100
AcDbEntity
  8
$DDT_AUDIT_GENERATED_(77)
  6
Continuous
 62
     7
100
AcDbCircle
 10
320.6755075907
 20
134.7422104609
 30
0.0
 40
331.5968786985765
100
AcDbArc
 50
105.0481029065
 51
109.8303619675
  0
ARC
  5
38E
330
383
100
AcDbEntity
  8
$DDT_AUDIT_GENERATED_(77)
  6
Continuous
 62
     7
100
AcDbCircle
 10
294.9751956388
 20
-411.8826054263
 30
0.0
 40
868.9518062705135
100
AcDbArc
 50
87.3324752945
 51
93.985269533
  0
SPLINE
  5
38F
330
383
100
AcDbEntity
  8
$DDT_AUDIT_GENERATED_(77)
  6
Continuous
 62
     7
100
AcDbSpline
210
0.0
220
0.0
230
1.0
 70
    12
 71
     3
 72
    18
 73
    14
 74
     0
 42
0.0000000005882099
 43
0.0000000001
 40
0.0
 40
0.0
 40
0.0
 40
0.0
 40
0.0624999999999996
 40
0.0624999999999996
 40
0.1250000000000002
 40
0.1250000000000002
 40
0.2499999999999994
 40
0.2499999999999994
 40
0.4999999999999997
 40
0.4999999999999997
 40
0.7499999999999998
 40
0.7499999999999998
 40
1.0
 40
1.0
 40
1.0
 40
1.0
 10
335.4164486908093
 20
456.1276172510661
 30
0.0
 41
1.0
 10
335.2669400668947
 20
456.0694895626925
 30
0.0
 41
1.0
 10
335.0723282466162
 20
455.9929760032293
 30
0.0
 41
1.0
 10
334.6326144618511
 20
455.8274236207917
 30
0.0
 41
1.0
 10
334.3873976883431
 20
455.7380736025824
 30
0.0
 41
1.0
 10
333.6062505325073
 20
455.4641656357091
 30
0.0
 41
1.0
 10
333.0251705943828
 20
455.2740096081664
 30
0.0
 41
1.0
 10
331.2019279831953
 20
454.6960102078508
 30
0.0
 41
1.0
 10
329.8823400113151
 20
454.3025985984497
 30
0.0
 41
1.0
 10
327.1941600382897
 20
453.3383482481775
 30
0.0
 41
1.0
 10
325.8139374472248
 20
452.757156064496
 30
0.0
 41
1.0
 10
323.0315831760319
 20
451.1680001934319
 30
0.0
 41
1.0
 10
321.6410011221055
 20
450.1584752595867
 30
0.0
 41
1.0
 10
320.2225793519677
 20
448.9011428970756
 30
0.0
 41
1.0
  0
LINE
  5
390
330
383
100
AcDbEntity
  8
$DDT_AUDIT_GENERATED_(77)
  6
Continuous
 62
     7
100
AcDbLine
 10
307.3828775287
 20
443.665741529
 30
0.0
 11
294.1875522478
 21
443.5332805911
 31
0.0
  0
LINE
  5
391
330
383
100
AcDbEntity
  8
$DDT_AUDIT_GENERATED_(77)
  6
Continuous
 62
     7
100
AcDbLine
 10
320.1630905947
 20
448.875415258
 30
0.0
 11
307.3828775287
 21
443.665741529
 31
0.0
  0
ARC
  5
392
330
383
100
AcDbEntity
  8
$DDT_AUDIT_GENERATED_(77)
  6
Continuous
 62
     7
100
AcDbCircle
 10
310.757668089
 20
444.4090852313
 30
0.0
 40
10.47678993248246
100
AcDbArc
 50
6.8743889204
 51
25.3890691868
  0
ELLIPSE
  5
393
330
383
100
AcDbEntity
  8
$DDT_AUDIT_GENERATED_(77)
  6
Continuous
 62
     7
100
AcDbEllipse
 10
335.1475757157
 20
453.7732465282
 30
0.0
 11
0.4741494394410739
 21
-2.352696913393432
 31
0.0
210
0.0
220
0.0
230
1.0
 40
0.8865208569
 41
0.3568321902567167
 42
2.792022003500974
  0
ARC
  5
394
330
383
100
AcDbEntity
  8
$DDT_AUDIT_GENERATED_(77)
  6
Continuous
 62
     7
100
AcDbCircle
 10
338.6461969266
 20
396.2889563577
 30
0.0
 40
51.20959312334734
100
AcDbArc
 50
109.406223428
 51
113.9750869464
  0
ARC
  5
395
330
383
100
AcDbEntity
  8
$DDT_AUDIT_GENERATED_(77)
  6
Continuous
 62
     7
100
AcDbCircle
 10
340.2376037641
 20
391.6114484269
 30
0.0
 40
56.15014215625715
100
AcDbArc
 50
102.701463034
 51
109.3519665728
  0
ARC
  5
396
330
383
100
AcDbEntity
  8
$DDT_AUDIT_GENERATED_(77)
  6
Continuous
 62
     7
100
AcDbCircle
 10
339.489494203
 20
394.8100182043
 30
0.0
 40
52.90386849672338
100
AcDbArc
 50
114.158754622
 51
129.4635336139
  0
SPLINE
  5
397
330
383
100
AcDbEntity
  8
$DDT_AUDIT_GENERATED_(77)
  6
Continuous
 62
     7
100
AcDbSpline
210
0.0
220
0.0
230
1.0
 70
     8
 71
     3
 72
    12
 73
     8
 74
     0
 42
0.0000000002048389
 43
0.0000000001
 40
0.0
 40
0.0
 40
0.0
 40
0.0
 40
0.0262447553482359
 40
0.2696830173628266
 40
0.5131215828267669
 40
0.7565604130255243
 40
1.0
 40
1.0
 40
1.0
 40
1.0
 10
248.3495369678394
 20
422.4631500264065
 30
0.0
 10
248.7980412595847
 20
422.6026702532885
 30
0.0
 10
252.7604302587486
 20
423.8341559161928
 30
0.0
 10
261.1184868584223
 20
426.0481626352641
 30
0.0
 10
272.5041286906851
 20
428.7953453102965
 30
0.0
 10
284.4040740739024
 20
431.2380809325381
 30
0.0
 10
291.6420390436493
 20
432.434363146161
 30
0.0
 10
295.9423344686989
 20
433.1341074467958
 30
0.0
  0
SPLINE
  5
398
330
383
100
AcDbEntity
  8
$DDT_AUDIT_GENERATED_(77)
  6
Continuous
 62
     7
100
AcDbSpline
210
0.0
220
0.0
230
1.0
 70
     8
 71
     3
 72
    12
 73
     8
 74
     0
 42
0.0000000001116733
 43
0.0000000001
 40
0.0
 40
0.0
 40
0.0
 40
0.0
 40
0.2262476162194589
 40
0.4594681367154057
 40
0.6926888791138417
 40
0.9259098461953474
 40
1.0
 40
1.0
 40
1.0
 40
1.0
 10
337.1989671793585
 20
456.5066434802211
 30
0.0
 10
329.8158752216154
 20
457.3169395742871
 30
0.0
 10
317.1825517314405
 20
458.6744644299704
 30
0.0
 10
296.1011953887428
 20
460.1498509951402
 30
0.0
 10
275.5073446449726
 20
460.9356573807867
 30
0.0
 10
258.881869942497
 20
461.1577345492248
 30
0.0
 10
250.2723989130261
 20
460.9326605509553
 30
0.0
 10
247.8409933126015
 20
460.8672114991592
 30
0.0
  0
ARC
  5
399
330
383
100
AcDbEntity
  8
$DDT_AUDIT_GENERATED_(77)
  6
Continuous
 62
     7
100
AcDbCircle
 10
189.5993721625
 20
478.7815243
 30
0.0
 40
1.000000000000001
100
AcDbArc
 50
80.0
 51
170.0
  0
ARC
  5
39A
330
383
100
AcDbEntity
  8
$DDT_AUDIT_GENERATED_(77)
  6
Continuous
 62
     7
100
AcDbCircle
 10
238.8397598132
 20
470.0991154166
 30
0.0
 40
1.0
100
AcDbArc
 50
352.8889102909
 51
80.0
  0
ARC
  5
39B
330
383
100
AcDbEntity
  8
$DDT_AUDIT_GENERATED_(77)
  6
Continuous
 62
     7
100
AcDbCircle
 10
256.8283105272
 20
393.7385766466
 30
0.0
 40
29.96358382676237
100
AcDbArc
 50
106.4451384927
 51
169.9658668019
  0
ARC
  5
39C
330
383
100
AcDbEntity
  8
$DDT_AUDIT_GENERATED_(77)
  6
Continuous
 62
     7
100
AcDbCircle
 10
247.7620826753
 20
468.928161182
 30
0.0
 40
7.989423673846121
100
AcDbArc
 50
172.5540744223
 51
270.54366071
  0
LINE
  5
39D
330
383
100
AcDbEntity
  8
$DDT_AUDIT_GENERATED_(77)
  6
Continuous
 62
     7
100
AcDbLine
 10
295.9423344687
 20
433.1341074468
 30
0.0
 11
301.6804840831
 21
433.9689925155
 31
0.0
  0
LINE
  5
39E
330
383
100
AcDbEntity
  8
$DDT_AUDIT_GENERATED_(77)
  6
Continuous
 62
     7
100
AcDbLine
 10
188.6145644095
 20
478.9551724777
 30
0.0
 11
168.66511035
 21
365.8161963589
 31
0.0
  0
LINE
  5
39F
330
383
100
AcDbEntity
  8
$DDT_AUDIT_GENERATED_(77)
  6
Continuous
 62
     7
100
AcDbLine
 10
221.4672941682
 20
365.8161963589
 30
0.0
 11
227.3118559224
 21
398.9623531793
 31
0.0
  0
ARC
  5
3A0
330
383
100
AcDbEntity
  8
$DDT_AUDIT_GENERATED_(77)
  6
Continuous
 62
     7
100
AcDbCircle
 10
205.4232593822
 20
680.7736758928
 30
0.0
 40
264.4273677364845
100
AcDbArc
 50
297.5792470616
 51
300.1458228562
  0
LINE
  5
3A1
330
383
100
AcDbEntity
  8
$DDT_AUDIT_GENERATED_(77)
  6
Continuous
 62
     7
100
AcDbLine
 10
302.7353717316
 20
434.279846399
 30
0.0
 11
305.8850327629
 21
435.7028305096
 31
0.0
  0
ARC
  5
3A2
330
383
100
AcDbEntity
  8
$DDT_AUDIT_GENERATED_(77)
  6
Continuous
 62
     7
100
AcDbCircle
 10
301.209163775
 20
437.638485005
 30
0.0
 40
3.691088442263707
100
AcDbArc
 50
277.30556538
 51
294.4253822387
  0
ARC
  5
3A3
330
383
100
AcDbEntity
  8
$DDT_AUDIT_GENERATED_(77)
  6
Continuous
 62
     7
100
AcDbCircle
 10
336.9216994561
 20
454.1322120985
 30
0.0
 40
2.400000095288675
100
AcDbArc
 50
299.9771186009
 51
83.3372144949
  0
LINE
  5
3A4
330
383
100
AcDbEntity
  8
02636038_GEHÄUSE
  6
Continuous
 62
     7
100
AcDbLine
 10
309.8668346913
 20
430.6195855816
 30
0.0
 11
329.3524521126
 21
439.705878209
 31
0.0
  0
SPLINE
  5
3A5
330
383
100
AcDbEntity
  8
02636038_GEHÄUSE
  6
Continuous
 62
     7
100
AcDbSpline
210
0.0
220
0.0
230
1.0
 70
     8
 71
     3
 72
    10
 73
     6
 74
     0
 42
0.0000000019260148
 43
0.0000000001
 40
0.0
 40
0.0
 40
0.0
 40
0.0
 40
0.5
 40
0.5
 40
1.0
 40
1.0
 40
1.0
 40
1.0
 10
321.8196122809997
 20
436.5436268540848
 30
0.0
 10
321.0864998573828
 20
436.0760764866971
 30
0.0
 10
320.3302313721998
 20
435.6580176290313
 30
0.0
 10
318.7674611433044
 20
434.9292635858752
 30
0.0
 10
317.9609587229291
 20
434.6185698466184
 30
0.0
 10
317.1312758790755
 20
434.3574196858608
 30
0.0
  0
LINE
  5
3A6
330
383
100
AcDbEntity
  8
02636038_GEHÄUSE
  6
Continuous
 62
     7
100
AcDbLine
 10
322.2124762818
 20
439.686586557
 30
0.0
 11
314.4711009517
 21
436.0767239559
 31
0.0
  0
LINE
  5
3A7
330
383
100
AcDbEntity
  8
02636038_GEHÄUSE
  6
Continuous
 62
     7
100
AcDbLine
 10
322.2124762818
 20
439.686586557
 30
0.0
 11
322.9801335943
 21
438.0403401377
 31
0.0
  0
SPLINE
  5
3A8
330
383
100
AcDbEntity
  8
02636038_GEHÄUSE
  6
Continuous
 62
     7
100
AcDbSpline
210
0.0
220
0.0
230
1.0
 70
     8
 71
     3
 72
    14
 73
    10
 74
     0
 42
0.0000000049321089
 43
0.0000000001
 40
0.0
 40
0.0
 40
0.0
 40
0.0
 40
0.1250000000000004
 40
0.1250000000000004
 40
0.2500000000000009
 40
0.2500000000000009
 40
0.5000000000000008
 40
0.5000000000000008
 40
1.0
 40
1.0
 40
1.0
 40
1.0
 10
322.9801335943132
 20
438.0403401377313
 30
0.0
 10
323.0157355056319
 20
437.9639915925251
 30
0.0
 10
323.0221724250354
 20
437.8741579887819
 30
0.0
 10
322.994177889938
 20
437.7075160320721
 30
0.0
 10
322.9619065082658
 20
437.6273513471733
 30
0.0
 10
322.8424178802485
 20
437.4048894110537
 30
0.0
 10
322.7312202208174
 20
437.2742506985149
 30
0.0
 10
322.3769862382475
 20
436.9199804713325
 30
0.0
 10
322.1017882537561
 20
436.7235876288312
 30
0.0
 10
321.8196122809997
 20
436.5436268540848
 30
0.0
  0
SPLINE
  5
3A9
330
383
100
AcDbEntity
  8
02636038_GEHÄUSE
  6
Continuous
 62
     7
100
AcDbSpline
210
0.0
220
0.0
230
1.0
 70
     8
 71
     3
 72
    18
 73
    14
 74
     0
 42
0.0000000049401632
 43
0.0000000001
 40
0.0
 40
0.0
 40
0.0
 40
0.0
 40
0.2499999999999998
 40
0.2499999999999998
 40
0.4999999999999997
 40
0.4999999999999997
 40
0.6249999999999992
 40
0.6249999999999992
 40
0.7499999999999989
 40
0.7499999999999989
 40
0.8749999999999994
 40
0.8749999999999994
 40
1.0
 40
1.0
 40
1.0
 40
1.0
 10
317.1312758790755
 20
434.3574196858608
 30
0.0
 10
316.9711797898349
 20
434.3070279973357
 30
0.0
 10
316.809696143286
 20
434.2616000742938
 30
0.0
 10
316.4822083267498
 20
434.1869156815084
 30
0.0
 10
316.3163246527373
 20
434.1575077422788
 30
0.0
 10
316.0665991427371
 20
434.1358717074409
 30
0.0
 10
315.9830652729076
 20
434.1324133967843
 30
0.0
 10
315.8151110794399
 20
434.1368909694643
 30
0.0
 10
315.7302034260204
 20
434.144893166318
 30
0.0
 10
315.5663535778471
 20
434.1791562633326
 30
0.0
 10
315.4852615678689
 20
434.2054588092496
 30
0.0
 10
315.3385841012256
 20
434.2917098318011
 30
0.0
 10
315.2749981956937
 20
434.3527607528142
 30
0.0
 10
315.2387582642207
 20
434.430477536657
 30
0.0
  0
LINE
  5
3AA
330
383
100
AcDbEntity
  8
02636038_GEHÄUSE
  6
Continuous
 62
     7
100
AcDbLine
 10
315.2387582642
 20
434.4304775367
 30
0.0
 11
314.4711009517
 21
436.0767239559
 31
0.0
  0
LINE
  5
3AB
330
383
100
AcDbEntity
  8
02636038_GEHÄUSE
  6
Continuous
 62
     7
100
AcDbLine
 10
309.2341660865
 20
430.6749369123
 30
0.0
 11
309.8668346913
 21
430.6195855816
 31
0.0
  0
LINE
  5
3AC
330
383
100
AcDbEntity
  8
02636038_GEHÄUSE
  6
Continuous
 62
     7
100
AcDbLine
 10
329.3524521126
 20
439.705878209
 30
0.0
 11
329.7167220736
 21
440.2261096276
 31
0.0
  0
ARC
  5
3AD
330
383
100
AcDbEntity
  8
02636038_GEHÄUSE
  6
Continuous
 62
     7
100
AcDbCircle
 10
309.3213218293
 20
431.6711316104
 30
0.0
 40
1.000000000000002
100
AcDbArc
 50
205.0
 51
265.0
  0
ARC
  5
3AE
330
383
100
AcDbEntity
  8
02636038_GEHÄUSE
  6
Continuous
 62
     7
100
AcDbCircle
 10
328.8975700293
 20
440.799686064
 30
0.0
 40
0.9999999999999888
100
AcDbArc
 50
325.0
 51
25.0
  0
LINE
  5
3AF
330
383
100
AcDbEntity
  8
02636038_GEHÄUSE
  6
Continuous
 62
     7
100
AcDbLine
 10
306.2252047937
 20
435.9445744368
 30
0.0
 11
308.4150140422
 21
431.2485133487
 31
0.0
  0
LINE
  5
3B0
330
383
100
AcDbEntity
  8
02636038_GEHÄUSE
  6
Continuous
 62
     7
100
AcDbLine
 10
329.8038778163
 20
441.2223043257
 30
0.0
 11
327.4436662467
 21
446.2837943705
 31
0.0
  0
SPLINE
  5
3B1
330
383
100
AcDbEntity
  8
$DDT_AUDIT_GENERATED_(345)
  6
Continuous
 62
     7
100
AcDbSpline
210
0.0
220
0.0
230
1.0
 70
     8
 71
     3
 72
    12
 73
     8
 74
     0
 42
0.0000000001002791
 43
0.0000000001
 40
0.0
 40
0.0
 40
0.0
 40
0.0
 40
0.25
 40
0.25
 40
0.5000000000000001
 40
0.5000000000000001
 40
1.0
 40
1.0
 40
1.0
 40
1.0
 10
221.3613652377816
 20
501.0326574623642
 30
0.0
 10
229.7136205929143
 20
502.5124657626195
 30
0.0
 10
238.0416362499939
 20
503.9432280284718
 30
0.0
 10
254.6959623990819
 20
506.3576965524787
 30
0.0
 10
263.0369900534973
 20
507.3457264036736
 30
0.0
 10
288.0062111715554
 20
509.239440935785
 30
0.0
 10
304.3525326674936
 20
509.1274503095748
 30
0.0
 10
320.3553954616948
 20
506.7815003276268
 30
0.0
  0
ARC
  5
3B2
330
383
100
AcDbEntity
  8
$DDT_AUDIT_GENERATED_(345)
  6
Continuous
 62
     7
100
AcDbCircle
 10
235.8434949427
 20
532.3340902012
 30
0.0
 40
34.48929938827587
100
AcDbArc
 50
211.1401033944
 51
245.1715923412
  0
SPLINE
  5
3B3
330
383
100
AcDbEntity
  8
$DDT_AUDIT_GENERATED_(345)
  6
Continuous
 62
     7
100
AcDbSpline
210
0.0
220
0.0
230
1.0
 70
     8
 71
     3
 72
    24
 73
    20
 74
     0
 42
0.0000000005082758
 43
0.0000000001
 40
0.0
 40
0.0
 40
0.0
 40
0.0
 40
0.1250000000000004
 40
0.1250000000000004
 40
0.1875000000000005
 40
0.1875000000000005
 40
0.2500000000000006
 40
0.2500000000000006
 40
0.3125000000000006
 40
0.3125000000000006
 40
0.3750000000000007
 40
0.3750000000000007
 40
0.5000000000000007
 40
0.5000000000000007
 40
0.6250000000000006
 40
0.6250000000000006
 40
0.7500000000000006
 40
0.7500000000000006
 40
1.0
 40
1.0
 40
1.0
 40
1.0
 10
239.2298089981965
 20
497.3577371756722
 30
0.0
 10
238.7621673957198
 20
496.6548700037846
 30
0.0
 10
238.2294296965783
 20
496.0753132951171
 30
0.0
 10
237.3341618869197
 20
495.3432484233454
 30
0.0
 10
237.0216068235854
 20
495.1249205281666
 30
0.0
 10
236.3798432785402
 20
494.7394761464594
 30
0.0
 10
236.0489044742871
 20
494.5709682742986
 30
0.0
 10
235.3664896440334
 20
494.2756395791176
 30
0.0
 10
235.0150107487672
 20
494.1488522211193
 30
0.0
 10
234.2908971869615
 20
493.9320945070348
 30
0.0
 10
233.9176665634549
 20
493.8422285244486
 30
0.0
 10
232.7874772961961
 20
493.6251854094086
 30
0.0
 10
232.0128599594869
 20
493.5475317053587
 30
0.0
 10
230.4185421871906
 20
493.487287919731
 30
0.0
 10
229.5988696445092
 20
493.5050335620264
 30
0.0
 10
227.9115890588918
 20
493.6101500283938
 30
0.0
 10
227.055576543312
 20
493.696906005683
 30
0.0
 10
224.4669508480226
 20
494.0205575380796
 30
0.0
 10
222.705090410183
 20
494.3207784387985
 30
0.0
 10
220.8954878134199
 20
494.6344224474934
 30
0.0
  0
ARC
  5
3B4
330
383
100
AcDbEntity
  8
$DDT_AUDIT_GENERATED_(345)
  6
Continuous
 62
     7
100
AcDbCircle
 10
283.5901890237
 20
178.2104566067
 30
0.0
 40
325.9949568447252
100
AcDbArc
 50
85.1756580214
 51
100.6792785875
  0
ARC
  5
3B5
330
383
100
AcDbEntity
  8
$DDT_AUDIT_GENERATED_(345)
  6
Continuous
 62
     7
100
AcDbCircle
 10
337.2187120869
 20
450.9500831436
 30
0.0
 40
58.3225393169911
100
AcDbArc
 50
106.8064120574
 51
116.7071844264
  0
SPLINE
  5
3B6
330
383
100
AcDbEntity
  8
$DDT_AUDIT_GENERATED_(345)
  6
Continuous
 62
     7
100
AcDbSpline
210
0.0
220
0.0
230
1.0
 70
     8
 71
     3
 72
    18
 73
    14
 74
     0
 42
0.0000000040915797
 43
0.0000000001
 40
0.0
 40
0.0
 40
0.0
 40
0.0
 40
0.2500000000000012
 40
0.2500000000000012
 40
0.5000000000000031
 40
0.5000000000000031
 40
0.6250000000000023
 40
0.6250000000000023
 40
0.7500000000000016
 40
0.7500000000000016
 40
0.8750000000000009
 40
0.8750000000000009
 40
1.0
 40
1.0
 40
1.0
 40
1.0
 10
222.2043550705923
 20
500.5011647414382
 30
0.0
 10
222.3772656263065
 20
500.398898554461
 30
0.0
 10
222.5440595582602
 20
500.2874745152842
 30
0.0
 10
222.8555517026574
 20
500.0328117930883
 30
0.0
 10
223.0010392913115
 20
499.8894829789807
 30
0.0
 10
223.1726963258805
 20
499.637026889532
 30
0.0
 10
223.2212867130681
 20
499.5471683349078
 30
0.0
 10
223.2923348082702
 20
499.356296552908
 30
0.0
 10
223.314291032746
 20
499.2549870056579
 30
0.0
 10
223.3251686633993
 20
499.0519260912127
 30
0.0
 10
223.3141232570367
 20
498.947797191734
 30
0.0
 10
223.2647647238499
 20
498.7484571099178
 30
0.0
 10
223.2265817791018
 20
498.6514851648525
 30
0.0
 10
223.1796611044724
 20
498.5591416433983
 30
0.0
  0
ARC
  5
3B7
330
383
100
AcDbEntity
  8
$DDT_AUDIT_GENERATED_(345)
  6
Continuous
 62
     7
100
AcDbCircle
 10
232.5267627058
 20
517.8075971906
 30
0.0
 40
20.15104720618282
100
AcDbArc
 50
236.3522697523
 51
239.1860707507
  0
ARC
  5
3B8
330
383
100
AcDbEntity
  8
$DDT_AUDIT_GENERATED_(345)
  6
Continuous
 62
     7
100
AcDbCircle
 10
210.334941424
 20
610.7810898753
 30
0.0
 40
116.1665047395768
100
AcDbArc
 50
275.4426818595
 51
282.6602980663
  0
ARC
  5
3B9
330
383
100
AcDbEntity
  8
$DDT_AUDIT_GENERATED_(345)
  6
Continuous
 62
     7
100
AcDbCircle
 10
350.9145215446
 20
438.6243370963
 30
0.0
 40
141.5700490691089
100
AcDbArc
 50
156.6944083638
 51
163.6731145344
  0
LINE
  5
3BA
330
383
100
AcDbEntity
  8
$DDT_AUDIT_GENERATED_(345)
  6
Continuous
 62
     7
100
AcDbLine
 10
194.0006970825
 20
496.3948818165
 30
0.0
 11
210.3345452768
 21
481.372244596
 31
0.0
  0
ARC
  5
3BB
330
383
100
AcDbEntity
  8
$DDT_AUDIT_GENERATED_(345)
  6
Continuous
 62
     7
100
AcDbCircle
 10
223.8734777518
 20
496.0928868183
 30
0.0
 40
20.00000000001195
100
AcDbArc
 50
243.4716131567
 51
260.0
  0
LINE
  5
3BC
330
383
100
AcDbEntity
  8
$DDT_AUDIT_GENERATED_(345)
  6
Continuous
 62
     7
100
AcDbLine
 10
214.9406547902
 20
478.1986231024
 30
0.0
 11
214.9384457855
 21
478.1997260086
 31
0.0
  0
ARC
  5
3BD
330
383
100
AcDbEntity
  8
$DDT_AUDIT_GENERATED_(345)
  6
Continuous
 62
     7
100
AcDbCircle
 10
223.8734777518
 20
496.0928868183
 30
0.0
 40
20.00000000000772
100
AcDbArc
 50
227.3945002384
 51
243.4645399097
  0
LINE
  5
3BE
330
383
100
AcDbEntity
  8
$DDT_AUDIT_GENERATED_(345)
  6
Continuous
 62
     7
100
AcDbLine
 10
241.0841179139
 20
472.7496543648
 30
0.0
 11
220.4005141984
 21
476.3967317581
 31
0.0
  0
ARC
  5
3BF
330
383
100
AcDbEntity
  8
$DDT_AUDIT_GENERATED_(345)
  6
Continuous
 62
     7
100
AcDbCircle
 10
274.5131040404
 20
479.2521138875
 30
0.0
 40
31.7389733034471
100
AcDbArc
 50
163.6131476053
 51
176.3868496035
  0
LINE
  5
3C0
330
383
100
AcDbEntity
  8
$DDT_AUDIT_GENERATED_(345)
  6
Continuous
 62
     7
100
AcDbLine
 10
316.7553321337
 20
502.2177314939
 30
0.0
 11
322.5690709175
 21
505.1705419571
 31
0.0
  0
SPLINE
  5
3C1
330
383
100
AcDbEntity
  8
$DDT_AUDIT_GENERATED_(345)
  6
Continuous
 62
     7
100
AcDbSpline
210
0.0
220
0.0
230
1.0
 70
     8
 71
     3
 72
    15
 73
    11
 74
     0
 42
0.0000000000856217
 43
0.0000000001
 40
0.0
 40
0.0
 40
0.0
 40
0.0
 40
0.1200776727713948
 40
0.246761537914546
 40
0.3734485251497014
 40
0.500133699450578
 40
0.6268171591052097
 40
0.7535012071937847
 40
0.8801868114111354
 40
1.0
 40
1.0
 40
1.0
 40
1.0
 10
322.3741101397189
 20
507.0446546323323
 30
0.0
 10
317.3512071980438
 20
508.1397759978487
 30
0.0
 10
308.6406551531268
 20
510.0133631852597
 30
0.0
 10
294.0065636435769
 20
512.4273214454538
 30
0.0
 10
279.4028491017112
 20
514.2547814230222
 30
0.0
 10
264.6431329245253
 20
515.4969060014013
 30
0.0
 10
249.8454594095192
 20
516.1428108325728
 30
0.0
 10
235.1282014694044
 20
516.1930551642847
 30
0.0
 10
220.3158584979882
 20
515.6702394703362
 30
0.0
 10
211.4464065185092
 20
514.9269487971065
 30
0.0
 10
206.3359571700744
 20
514.4843930248164
 30
0.0
  0
ARC
  5
3C2
330
383
100
AcDbEntity
  8
$DDT_AUDIT_GENERATED_(345)
  6
Continuous
 62
     7
100
AcDbCircle
 10
206.3669735379
 20
513.5787658943
 30
0.0
 40
0.9022087389496634
100
AcDbArc
 50
91.9440193875
 51
141.6681554291
  0
ARC
  5
3C3
330
383
100
AcDbEntity
  8
$DDT_AUDIT_GENERATED_(345)
  6
Continuous
 62
     7
100
AcDbCircle
 10
283.9967473373
 20
275.3373735497
 30
0.0
 40
227.2414638379585
100
AcDbArc
 50
83.8143839107
 51
102.2447462972
  0
ARC
  5
3C4
330
383
100
AcDbEntity
  8
$DDT_AUDIT_GENERATED_(345)
  6
Continuous
 62
     7
100
AcDbCircle
 10
369.1953911796
 20
-5.5941626338
 30
0.0
 40
510.447200394337
100
AcDbArc
 50
96.7163699403
 51
96.8044528111
  0
ARC
  5
3C5
330
383
100
AcDbEntity
  8
$DDT_AUDIT_GENERATED_(345)
  6
Continuous
 62
     7
100
AcDbCircle
 10
316.3057607653
 20
503.1109834424
 30
0.0
 40
0.9999999956110208
100
AcDbArc
 50
276.052480924
 51
296.7099468329
  0
ARC
  5
3C6
330
383
100
AcDbEntity
  8
$DDT_AUDIT_GENERATED_(345)
  6
Continuous
 62
     7
100
AcDbCircle
 10
369.0769257669
 20
-4.521640591
 30
0.0
 40
509.3681778618156
100
AcDbArc
 50
95.9349354686
 51
96.805616291
  0
ARC
  5
3C7
330
383
100
AcDbEntity
  8
$DDT_AUDIT_GENERATED_(345)
  6
Continuous
 62
     7
100
AcDbCircle
 10
308.6070573504
 20
502.252353487
 30
0.0
 40
0.9999999999999927
100
AcDbArc
 50
262.8853109517
 51
276.8065524939
  0
ARC
  5
3C8
330
383
100
AcDbEntity
  8
$DDT_AUDIT_GENERATED_(345)
  6
Continuous
 62
     7
100
AcDbCircle
 10
322.1579497702
 20
506.0833229081
 30
0.0
 40
1.00000000222062
100
AcDbArc
 50
294.0957341307
 51
77.3100387587
  0
ARC
  5
3C9
330
383
100
AcDbEntity
  8
$DDT_AUDIT_GENERATED_(345)
  6
Continuous
 62
     7
100
AcDbCircle
 10
274.814873186
 20
455.163465992
 30
0.0
 40
90.87133462220277
100
AcDbArc
 50
139.5440965708
 51
152.8177180594
  0
ARC
  5
3CA
330
383
100
AcDbEntity
  8
$DDT_AUDIT_GENERATED_(345)
  6
Continuous
 62
     7
100
AcDbCircle
 10
194.1698194984
 20
496.578993942
 30
0.0
 40
0.2499992870061334
100
AcDbArc
 50
152.5233424914
 51
227.4565772332
  0
ARC
  5
3CB
330
383
100
AcDbEntity
  8
$DDT_AUDIT_GENERATED_(345)
  6
Continuous
 62
     7
100
AcDbCircle
 10
241.1275299584
 20
472.995856303
 30
0.0
 40
0.2499999999999683
100
AcDbArc
 50
260.0
 51
350.0
  0
LINE
  5
3CC
330
383
100
AcDbEntity
  8
$DDT_AUDIT_GENERATED_(345)
  6
Continuous
 62
     7
100
AcDbLine
 10
244.0634078904
 20
488.2063548231
 30
0.0
 11
246.0109181301
 21
499.2512342387
 31
0.0
  0
LINE
  5
3CD
330
383
100
AcDbEntity
  8
$DDT_AUDIT_GENERATED_(345)
  6
Continuous
 62
     7
100
AcDbLine
 10
241.3737318966
 20
472.9524442586
 30
0.0
 11
242.8425216683
 21
481.2823649878
 31
0.0
  0
LINE
  5
3CE
330
383
100
AcDbEntity
  8
$DDT_AUDIT_GENERATED_(37E)
  6
Continuous
 62
     7
100
AcDbLine
 10
189.7517576743
 20
479.7700812347
 30
0.0
 11
239.0346706568
 21
471.080173988
 31
0.0
  0
ARC
  5
3CF
330
383
100
AcDbEntity
  8
$DDT_AUDIT_GENERATED_(37E)
  6
Continuous
 62
     7
100
AcDbCircle
 10
212.9866639264
 20
467.4481848119
 30
0.0
 40
26.3
100
AcDbArc
 50
118.5828646474
 51
152.0621734783
  0
ARC
  5
3D0
330
383
100
AcDbEntity
  8
$DDT_AUDIT_GENERATED_(37E)
  6
Continuous
 62
     7
100
AcDbCircle
 10
212.9866639264
 20
467.4481848119
 30
0.0
 40
26.29999999999999
100
AcDbArc
 50
7.9378265217
 51
12.5835606255
  0
ARC
  5
3D2
330
383
100
AcDbEntity
  8
$DDT_AUDIT_GENERATED_(3D1)
  6
Continuous
 62
     7
100
AcDbCircle
 10
237.0151917223
 20
468.8215390855
 30
0.0
 40
0.8249999999999988
100
AcDbArc
 50
260.0
 51
350.0
  0
ENDBLK
  5
3D4
330
383
100
AcDbEntity
  8
0
100
AcDbBlockEnd
  0
BLOCK
  5
40F
330
3D5
100
AcDbEntity
  8
0
100
AcDbBlockBegin
  2
SE2
 70
     0
 10
0.0
 20
0.0
 30
0.0
  3
SE2
  1

  0
ARC
  5
3D7
330
3D5
100
AcDbEntity
  8
$DDT_AUDIT_GENERATED_(77)
  6
Continuous
 62
     7
100
AcDbCircle
 10
496.1864775022
 20
217.1977807108
 30
0.0
 40
472.8208065686873
100
AcDbArc
 50
179.9896476712
 51
181.8226093744
  0
ARC
  5
3D8
330
3D5
100
AcDbEntity
  8
$DDT_AUDIT_GENERATED_(77)
  6
Continuous
 62
     7
100
AcDbCircle
 10
-428.0335100698
 20
220.4041836709
 30
0.0
 40
504.2334608554718
100
AcDbArc
 50
1.7701486372
 51
2.4122142128
  0
ARC
  5
3D9
330
3D5
100
AcDbEntity
  8
$DDT_AUDIT_GENERATED_(77)
  6
Continuous
 62
     7
100
AcDbCircle
 10
527.588134995
 20
220.4041817867
 30
0.0
 40
504.2334621579798
100
AcDbArc
 50
177.5877855794
 51
178.2202219543
  0
ARC
  5
3DA
330
3D5
100
AcDbEntity
  8
$DDT_AUDIT_GENERATED_(77)
  6
Continuous
 62
     7
100
AcDbCircle
 10
54.5841298775
 20
240.641097261
 30
0.0
 40
21.19194092552193
100
AcDbArc
 50
2.446525195
 51
2.6656581231
  0
ARC
  5
3DB
330
3D5
100
AcDbEntity
  8
$DDT_AUDIT_GENERATED_(77)
  6
Continuous
 62
     7
100
AcDbCircle
 10
44.970525375
 20
240.641104162
 30
0.0
 40
21.19197212202987
100
AcDbArc
 50
177.3343644875
 51
177.5345258707
  0
ELLIPSE
  5
3DC
330
3D5
100
AcDbEntity
  8
$DDT_AUDIT_GENERATED_(77)
  6
Continuous
 62
     7
100
AcDbEllipse
 10
49.7773118504
 20
250.6134694635
 30
0.0
 11
0.0
 21
-26.40109190905395
 31
0.0
210
0.0
220
0.0
230
1.0
 40
0.984807753
 41
1.570796326794897
 42
4.712388980384688
  0
ARC
  5
3DD
330
3D5
100
AcDbEntity
  8
$DDT_AUDIT_GENERATED_(77)
  6
Continuous
 62
     7
100
AcDbCircle
 10
57.3076480786
 20
235.8276892666
 30
0.0
 40
33.54756828296985
100
AcDbArc
 50
177.6757053306
 51
178.7441742175
  0
ARC
  5
3DE
330
3D5
100
AcDbEntity
  8
$DDT_AUDIT_GENERATED_(77)
  6
Continuous
 62
     7
100
AcDbCircle
 10
42.2469756216
 20
235.8276892738
 30
0.0
 40
33.5475682833761
100
AcDbArc
 50
1.2110313485
 51
2.3270288413
  0
ARC
  5
3DF
330
3D5
100
AcDbEntity
  8
$DDT_AUDIT_GENERATED_(77)
  6
Continuous
 62
     7
100
AcDbCircle
 10
-321.7036925145
 20
217.2688614873
 30
0.0
 40
393.6891863775569
100
AcDbArc
 50
344.2284226901
 51
349.6307451973
  0
ARC
  5
3E0
330
3D5
100
AcDbEntity
  8
$DDT_AUDIT_GENERATED_(77)
  6
Continuous
 62
     7
100
AcDbCircle
 10
-396.6326550905
 20
217.1978438026
 30
0.0
 40
472.8216044111144
100
AcDbArc
 50
357.9280254611
 51
0.0199359667
  0
SPLINE
  5
3E1
330
3D5
100
AcDbEntity
  8
$DDT_AUDIT_GENERATED_(77)
  6
Continuous
 62
     7
100
AcDbSpline
210
0.0
220
0.0
230
1.0
 70
    12
 71
     3
 72
    18
 73
    14
 74
     0
 42
0.0000000005319024
 43
0.0000000001
 40
0.0180900686295761
 40
0.0180900686295761
 40
0.0180900686295761
 40
0.0180900686295761
 40
0.2500000000000007
 40
0.2500000000000007
 40
0.4999999999999991
 40
0.4999999999999991
 40
0.7499999999999997
 40
0.7499999999999997
 40
0.8750000000000003
 40
0.8750000000000003
 40
0.9374999999999997
 40
0.9374999999999997
 40
1.0
 40
1.0
 40
1.0
 40
1.0
 10
67.14756147928144
 20
125.1520977739121
 30
0.0
 41
1.0
 10
66.88841580440675
 20
123.850152563342
 30
0.0
 41
1.0
 10
66.37157018258483
 20
122.5642268200693
 30
0.0
 41
1.0
 10
65.13568039642226
 20
119.8832386606446
 30
0.0
 41
1.0
 10
64.40811204918403
 20
118.4984858171102
 30
0.0
 41
1.0
 10
62.8611357384415
 20
115.7859182192556
 30
0.0
 41
1.0
 10
62.04923043299586
 20
114.4614906616878
 30
0.0
 41
1.0
 10
60.57977890468066
 20
112.6404304669096
 30
0.0
 41
1.0
 10
60.04673154883636
 20
112.0617054734216
 30
0.0
 41
1.0
 10
59.1113551343178
 20
111.2858039621874
 30
0.0
 41
1.0
 10
58.77655550400764
 20
111.0428369990128
 30
0.0
 41
1.0
 10
58.03575097405871
 20
110.6067515779062
 30
0.0
 41
1.0
 10
57.63037173601363
 20
110.4126906833878
 30
0.0
 41
1.0
 10
57.1642554353114
 20
110.2630042321318
 30
0.0
 41
1.0
  0
ARC
  5
3E2
330
3D5
100
AcDbEntity
  8
$DDT_AUDIT_GENERATED_(77)
  6
Continuous
 62
     7
100
AcDbCircle
 10
420.9591190251
 20
217.2250243601
 30
0.0
 40
393.3893407586269
100
AcDbArc
 50
190.375854456
 51
195.777244165
  0
SPLINE
  5
3E3
330
3D5
100
AcDbEntity
  8
$DDT_AUDIT_GENERATED_(77)
  6
Continuous
 62
     7
100
AcDbSpline
210
0.0
220
0.0
230
1.0
 70
    12
 71
     3
 72
    18
 73
    14
 74
     0
 42
0.0000000005319509
 43
0.0000000001
 40
0.0
 40
0.0
 40
0.0
 40
0.0
 40
0.0624999999999996
 40
0.0624999999999996
 40
0.1250000000000002
 40
0.1250000000000002
 40
0.2499999999999994
 40
0.2499999999999994
 40
0.4999999999999997
 40
0.4999999999999997
 40
0.7499999999999998
 40
0.7499999999999998
 40
0.9821477064331413
 40
0.9821477064331413
 40
0.9821477064331413
 40
0.9821477064331413
 10
42.39030562503645
 20
110.2632230317852
 30
0.0
 41
1.0
 10
41.92477361757608
 20
110.4127316556998
 30
0.0
 41
1.0
 10
41.51763970585512
 20
110.6073434759784
 30
0.0
 41
1.0
 10
40.77043028660507
 20
111.0470572607434
 30
0.0
 41
1.0
 10
40.43255881621925
 20
111.2922740342514
 30
0.0
 41
1.0
 10
39.49142932001644
 20
112.0734211900872
 30
0.0
 41
1.0
 10
38.95732055660966
 20
112.6545011282118
 30
0.0
 41
1.0
 10
37.48922254230188
 20
114.4777437393992
 30
0.0
 41
1.0
 10
36.68440567768866
 20
115.7973317112794
 30
0.0
 41
1.0
 10
35.15714596748588
 20
118.4855116843049
 30
0.0
 41
1.0
 10
34.43028411736171
 20
119.8657342753698
 30
0.0
 41
1.0
 10
33.1899912606638
 20
122.5487457360499
 30
0.0
 41
1.0
 10
32.6679142698973
 20
123.8400669335628
 30
0.0
 41
1.0
 10
32.40674309146037
 20
125.1536429211287
 30
0.0
 41
1.0
  0
ARC
  5
3E4
330
3D5
100
AcDbEntity
  8
$DDT_AUDIT_GENERATED_(77)
  6
Continuous
 62
     7
100
AcDbCircle
 10
49.7774947288
 20
124.7263921295
 30
0.0
 40
16.24049947523157
100
AcDbArc
 50
242.9439325722
 51
297.0543703465
  0
ELLIPSE
  5
3E5
330
3D5
100
AcDbEntity
  8
$DDT_AUDIT_GENERATED_(77)
  6
Continuous
 62
     7
100
AcDbEllipse
 10
42.7706295403
 20
110.5320960069
 30
0.0
 11
1.093142712294344
 21
2.136595298062149
 31
0.0
210
0.0
220
0.0
230
0.9999999999999998
 40
0.0914098114
 41
1.743567947816043
 42
3.142701205080164
  0
ELLIPSE
  5
3E6
330
3D5
100
AcDbEntity
  8
$DDT_AUDIT_GENERATED_(77)
  6
Continuous
 62
     7
100
AcDbEllipse
 10
56.7839347271
 20
110.5318780359
 30
0.0
 11
-1.09309708835403
 21
2.136618640081633
 31
0.0
210
0.0
220
0.0
230
0.9999999999999999
 40
0.0914121346
 41
3.140484262619636
 42
4.539619617113255
  0
LINE
  5
3E7
330
3D5
100
AcDbEntity
  8
$DDT_AUDIT_GENERATED_(77)
  6
Continuous
 62
     7
100
AcDbLine
 10
76.1787907255
 20
217.2825047077
 30
0.0
 11
76.1787907255
 21
217.5575685487
 31
0.0
  0
LINE
  5
3E8
330
3D5
100
AcDbEntity
  8
$DDT_AUDIT_GENERATED_(77)
  6
Continuous
 62
     7
100
AcDbLine
 10
23.3758328961
 20
217.5515633364
 30
0.0
 11
23.3758328961
 21
217.2830141695
 31
0.0
  0
ARC
  5
3E9
330
3D5
100
AcDbEntity
  8
$DDT_AUDIT_GENERATED_(77)
  6
Continuous
 62
     7
100
AcDbCircle
 10
-392.0755353593
 20
216.5815771527
 30
0.0
 40
468.2317445605636
100
AcDbArc
 50
348.7392434475
 51
357.9834426986
  0
ARC
  5
3EA
330
3D5
100
AcDbEntity
  8
$DDT_AUDIT_GENERATED_(77)
  6
Continuous
 62
     7
100
AcDbCircle
 10
492.0405039287
 20
216.6487814426
 30
0.0
 40
468.6483874517189
100
AcDbArc
 50
181.7714064104
 51
191.2588268383
  0
LINE
  5
3EB
330
3D5
100
AcDbEntity
  8
$DDT_AUDIT_GENERATED_(77)
  6
Continuous
 62
     7
100
AcDbLine
 10
75.7773118505
 20
240.9584092533
 30
0.0
 11
75.7773118505
 21
250.6134694635
 31
0.0
  0
LINE
  5
3EC
330
3D5
100
AcDbEntity
  8
$DDT_AUDIT_GENERATED_(77)
  6
Continuous
 62
     7
100
AcDbLine
 10
23.7773118504
 20
250.6134694635
 30
0.0
 11
23.7773118504
 21
240.958395856
 31
0.0
  0
SPLINE
  5
3ED
330
3D5
100
AcDbEntity
  8
$DDT_AUDIT_GENERATED_(77)
  6
Continuous
 62
     7
100
AcDbSpline
210
0.0
220
0.0
230
1.0
 70
     8
 71
     3
 72
    28
 73
    24
 74
     0
 42
0.0000000005128256
 43
0.0000000001
 40
0.0
 40
0.0
 40
0.0
 40
0.0
 40
0.0502737901978093
 40
0.092240788212728
 40
0.1267035687432411
 40
0.159711364382452
 40
0.2137946962990416
 40
0.2705773193355923
 40
0.339771125918627
 40
0.4094218021248122
 40
0.4791952985810361
 40
0.5522769974206124
 40
0.6169705534084455
 40
0.6804499860729681
 40
0.7137439715299054
 40
0.7493659795481724
 40
0.7934093153605738
 40
0.8331524413698607
 40
0.8796278870500939
 40
0.9055887995271323
 40
0.933834635372023
 40
0.9648688334640646
 40
1.0
 40
1.0
 40
1.0
 40
1.0
 10
32.42784033209441
 20
125.050272924678
 30
0.0
 10
32.50524990293689
 20
124.6935230526833
 30
0.0
 10
32.62440186162611
 20
124.1460540449777
 30
0.0
 10
32.84929871506984
 20
123.3217578020787
 30
0.0
 10
33.03577958658711
 20
122.6676445488333
 30
0.0
 10
33.25276160669134
 20
121.9563404913057
 30
0.0
 10
33.53918176499861
 20
121.0973514958054
 30
0.0
 10
33.92965198802177
 20
120.0117462298789
 30
0.0
 10
34.38516211248913
 20
118.8315042155699
 30
0.0
 10
34.90700931724254
 20
117.5843447828956
 30
0.0
 10
35.47536989262325
 20
116.3307591769989
 30
0.0
 10
36.06696542020778
 20
115.1170375369745
 30
0.0
 10
36.68404566370155
 20
113.9570542111999
 30
0.0
 10
37.22029966196342
 20
113.0475688108421
 30
0.0
 10
37.68898704883399
 20
112.3195022415936
 30
0.0
 10
38.10679341664969
 20
111.7098543092699
 30
0.0
 10
38.57672363732135
 20
111.0826718549438
 30
0.0
 10
39.12902138799708
 20
110.4271914038692
 30
0.0
 10
39.64020905241205
 20
109.891845957199
 30
0.0
 10
40.13371093751618
 20
109.4428665307485
 30
0.0
 10
40.57141821664399
 20
109.0888395267485
 30
0.0
 10
41.09410533138418
 20
108.7186899233562
 30
0.0
 10
41.45159204740943
 20
108.5196955946637
 30
0.0
 10
41.67758050931625
 20
108.395453088357
 30
0.0
  0
ARC
  5
3EE
330
3D5
100
AcDbEntity
  8
$DDT_AUDIT_GENERATED_(77)
  6
Continuous
 62
     7
100
AcDbCircle
 10
49.7774829928
 20
123.4103136321
 30
0.0
 40
17.06031363208253
100
AcDbArc
 50
241.6554552538
 51
298.3428378976
  0
SPLINE
  5
3EF
330
3D5
100
AcDbEntity
  8
$DDT_AUDIT_GENERATED_(77)
  6
Continuous
 62
     7
100
AcDbSpline
210
0.0
220
0.0
230
1.0
 70
     8
 71
     3
 72
    38
 73
    34
 74
     0
 42
0.0000000005128235
 43
0.0000000001
 40
0.0
 40
0.0
 40
0.0
 40
0.0
 40
0.0323420911058839
 40
0.0596161907791838
 40
0.0831016201807352
 40
0.1033758013701532
 40
0.1279361437593605
 40
0.1469557300539138
 40
0.1634203938710107
 40
0.1811600533756009
 40
0.2001997270760365
 40
0.2205679422970851
 40
0.2553966795565105
 40
0.2912622481746166
 40
0.325353250915813
 40
0.3821881431850932
 40
0.4348793036486592
 40
0.4849624935816733
 40
0.5163820651412871
 40
0.550430191652276
 40
0.588378558997927
 40
0.630272569886792
 40
0.6761555227618975
 40
0.7229147321528634
 40
0.7635103090716093
 40
0.7976158367340107
 40
0.8251474692067313
 40
0.8388759037504341
 40
0.858582697505948
 40
0.8844801363357518
 40
0.9165757441112503
 40
0.9549588473214387
 40
1.0
 40
1.0
 40
1.0
 40
1.0
 10
57.87693785896842
 20
108.3952116386561
 30
0.0
 10
58.08532450586448
 20
108.509195872945
 30
0.0
 10
58.40770432814085
 20
108.6876422632577
 30
0.0
 10
58.87215254156678
 20
109.007940395476
 30
0.0
 10
59.24294354331582
 20
109.2966533573787
 30
0.0
 10
59.58732055227382
 20
109.591779370924
 30
0.0
 10
59.8946122378336
 20
109.8814019175512
 30
0.0
 10
60.17111385108098
 20
110.1643937649162
 30
0.0
 10
60.40846891723179
 20
110.4210041926663
 30
0.0
 10
60.63924987161838
 20
110.6837035409008
 30
0.0
 10
60.87912880646526
 20
110.9718904884887
 30
0.0
 10
61.1803397411749
 20
111.3541918964453
 30
0.0
 10
61.53291164740033
 20
111.8353001049758
 30
0.0
 10
61.91802899162255
 20
112.4022834240906
 30
0.0
 10
62.36368289735311
 20
113.1010518554819
 30
0.0
 10
62.83910981555124
 20
113.9097507155479
 30
0.0
 10
63.33300491006358
 20
114.8257870215955
 30
0.0
 10
63.7249787950326
 20
115.6053660158779
 30
0.0
 10
64.04957784963874
 20
116.2795843108376
 30
0.0
 10
64.33317880941003
 20
116.8887375617585
 30
0.0
 10
64.63545983046953
 20
117.5655824816684
 30
0.0
 10
64.95647424451475
 20
118.3180885019676
 30
0.0
 10
65.28460293952004
 20
119.1277937722938
 30
0.0
 10
65.59323110730465
 20
119.9318480475369
 30
0.0
 10
65.85981886465078
 20
120.6616809578248
 30
0.0
 10
66.07400864544995
 20
121.2742330478443
 30
0.0
 10
66.22242161717713
 20
121.719613815301
 30
0.0
 10
66.34057382481295
 20
122.0862110295065
 30
0.0
 10
66.45682689617999
 20
122.4553115070676
 30
0.0
 10
66.60267988832231
 20
122.9406507305362
 30
0.0
 10
66.77129795320222
 20
123.5412483401629
 30
0.0
 10
66.95961582023678
 20
124.2756196873943
 30
0.0
 10
67.06213980865104
 20
124.7489064070978
 30
0.0
 10
67.12720182422285
 20
125.0523612073597
 30
0.0
  0
ARC
  5
3F0
330
3D5
100
AcDbEntity
  8
$DDT_AUDIT_GENERATED_(345)
  6
Continuous
 62
     7
100
AcDbCircle
 10
436.4428143857
 20
254.365593922
 30
0.0
 40
413.8627592721651
100
AcDbArc
 50
184.163454535
 51
198.1675814614
  0
SPLINE
  5
3F1
330
3D5
100
AcDbEntity
  8
$DDT_AUDIT_GENERATED_(345)
  6
Continuous
 62
     7
100
AcDbSpline
210
0.0
220
0.0
230
1.0
 70
     8
 71
     3
 72
    36
 73
    32
 74
     0
 42
0.0000000001534532
 43
0.0000000001
 40
0.0
 40
0.0
 40
0.0
 40
0.0
 40
0.0625
 40
0.0625
 40
0.125
 40
0.125
 40
0.1875000000000001
 40
0.1875000000000001
 40
0.2500000000000001
 40
0.2500000000000001
 40
0.3125000000000001
 40
0.3125000000000001
 40
0.3750000000000001
 40
0.3750000000000001
 40
0.5
 40
0.5
 40
0.5625
 40
0.5625
 40
0.625
 40
0.625
 40
0.6875
 40
0.6875
 40
0.75
 40
0.75
 40
0.8125000000000001
 40
0.8125000000000001
 40
0.8750000000000001
 40
0.8750000000000001
 40
0.9375000000000001
 40
0.9375000000000001
 40
1.0
 40
1.0
 40
1.0
 40
1.0
 10
75.88244860443424
 20
224.3192234319372
 30
0.0
 10
75.55112896072335
 20
225.6616409845947
 30
0.0
 10
75.08675428282548
 20
226.9400966603708
 30
0.0
 10
73.92044252095688
 20
229.2289996948945
 30
0.0
 10
73.20809159341299
 20
230.2727892917386
 30
0.0
 10
71.58823378459981
 20
232.1467093921939
 30
0.0
 10
70.68258812946807
 20
232.9818975369102
 30
0.0
 10
68.679077344093
 20
234.4970592944017
 30
0.0
 10
67.57155124219828
 20
235.1775806831271
 30
0.0
 10
65.23150904271793
 20
236.3694011369683
 30
0.0
 10
63.9929836466718
 20
236.8868796385945
 30
0.0
 10
61.37376392576493
 20
237.783854527784
 30
0.0
 10
59.99006306730113
 20
238.1619431068142
 30
0.0
 10
55.72527376473212
 20
239.0613173510584
 30
0.0
 10
52.76358138968192
 20
239.3578011704802
 30
0.0
 10
48.2520427336301
 20
239.3547125376728
 30
0.0
 10
46.74395760895838
 20
239.2768775955842
 30
0.0
 10
43.80604641612395
 20
238.9765444716093
 30
0.0
 10
42.36298248691102
 20
238.754258401698
 30
0.0
 10
39.52881858511978
 20
238.1530881301846
 30
0.0
 10
38.15228323294141
 20
237.7744414711811
 30
0.0
 10
35.5489784274944
 20
236.8811724857328
 30
0.0
 10
34.31065848232134
 20
236.3644313093834
 30
0.0
 10
31.96023160449527
 20
235.1655192404741
 30
0.0
 10
30.86249736126412
 20
234.4878987694704
 30
0.0
 10
28.86958513297037
 20
232.9782950528833
 30
0.0
 10
27.96461466663485
 20
232.1448215007453
 30
0.0
 10
26.34097958037671
 20
230.2664434541317
 30
0.0
 10
25.63192038205709
 20
229.2266219493159
 30
0.0
 10
24.46779042334006
 20
226.9388204594718
 30
0.0
 10
24.0031120363067
 20
225.6581143097155
 30
0.0
 10
23.67224369288465
 20
224.3183064848129
 30
0.0
  0
ARC
  5
3F2
330
3D5
100
AcDbEntity
  8
$DDT_AUDIT_GENERATED_(345)
  6
Continuous
 62
     7
100
AcDbCircle
 10
-335.0891260313
 20
254.0105043167
 30
0.0
 40
412.0427251137518
100
AcDbArc
 50
341.8013324424
 51
355.8677567805
  0
SPLINE
  5
3F3
330
3D5
100
AcDbEntity
  8
$DDT_AUDIT_GENERATED_(345)
  6
Continuous
 62
     7
100
AcDbSpline
210
0.0
220
0.0
230
1.0
 70
     8
 71
     3
 72
     8
 73
     4
 74
     0
 42
0.0000000092939851
 43
0.0000000001
 40
0.0
 40
0.0
 40
0.0
 40
0.0
 40
0.0287040223205212
 40
0.0287040223205212
 40
0.0287040223205212
 40
0.0287040223205212
 10
76.53128663065125
 20
222.4987662591386
 30
0.0
 10
76.53081091558029
 20
222.4879873946828
 30
0.0
 10
76.53025977529148
 20
222.4776928003312
 30
0.0
 10
76.52962503502188
 20
222.467927586653
 30
0.0
  0
LINE
  5
3F4
330
3D5
100
AcDbEntity
  8
$DDT_AUDIT_GENERATED_(345)
  6
Continuous
 62
     7
100
AcDbLine
 10
76.609630155
 20
224.2507991584
 30
0.0
 11
76.5312866307
 21
222.4987662591
 31
0.0
  0
ARC
  5
3F5
330
3D5
100
AcDbEntity
  8
$DDT_AUDIT_GENERATED_(345)
  6
Continuous
 62
     7
100
AcDbCircle
 10
-11.5549709911
 20
230.439231371
 30
0.0
 40
88.33209589085055
100
AcDbArc
 50
356.8793640597
 51
0.1169843085
  0
SPLINE
  5
3F6
330
3D5
100
AcDbEntity
  8
$DDT_AUDIT_GENERATED_(345)
  6
Continuous
 62
     7
100
AcDbSpline
210
0.0
220
0.0
230
1.0
 70
     8
 71
     3
 72
     8
 73
     4
 74
     0
 42
0.0000000092368489
 43
0.0000000001
 40
0.9741345938276614
 40
0.9741345938276614
 40
0.9741345938276614
 40
0.9741345938276614
 40
1.0
 40
1.0
 40
1.0
 40
1.0
 10
23.02473756347645
 20
222.4720482846824
 30
0.0
 10
23.0241763463253
 20
222.4809667866073
 30
0.0
 10
23.02368378652601
 20
222.4903016396648
 30
0.0
 10
23.02325523359585
 20
222.5000106181221
 30
0.0
  0
ARC
  5
3F7
330
3D5
100
AcDbEntity
  8
$DDT_AUDIT_GENERATED_(345)
  6
Continuous
 62
     7
100
AcDbCircle
 10
113.1788769836
 20
230.4035123385
 30
0.0
 40
90.40152716543557
100
AcDbArc
 50
179.8588794503
 51
183.5637838138
  0
LINE
  5
3F8
330
3D5
100
AcDbEntity
  8
$DDT_AUDIT_GENERATED_(345)
  6
Continuous
 62
     7
100
AcDbLine
 10
23.0232552336
 20
222.5000106181
 30
0.0
 11
22.944872767
 21
224.2527314482
 31
0.0
  0
ELLIPSE
  5
3F9
330
3D5
100
AcDbEntity
  8
$DDT_AUDIT_GENERATED_(345)
  6
Continuous
 62
     7
100
AcDbEllipse
 10
23.4451817174
 20
224.3759502868
 30
0.0
 11
0.4996859621966763
 21
-0.01771832923432027
 31
0.0
210
0.0
220
0.0
230
1.0
 40
0.6340121444
 41
3.054723379816872
 42
3.148619691058465
  0
ARC
  5
3FA
330
3D5
100
AcDbEntity
  8
$DDT_AUDIT_GENERATED_(345)
  6
Continuous
 62
     7
100
AcDbCircle
 10
-14.7093872903
 20
230.4356570259
 30
0.0
 40
91.48650250064195
100
AcDbArc
 50
359.9276604538
 51
0.1123130711
  0
ARC
  5
3FB
330
3D5
100
AcDbEntity
  8
$DDT_AUDIT_GENERATED_(345)
  6
Continuous
 62
     7
100
AcDbCircle
 10
-14.7093872903
 20
230.4356570259
 30
0.0
 40
91.48650250064195
100
AcDbArc
 50
356.4576080552
 51
359.9103604299
  0
ARC
  5
3FC
330
3D5
100
AcDbEntity
  8
$DDT_AUDIT_GENERATED_(345)
  6
Continuous
 62
     7
100
AcDbCircle
 10
110.0443904249
 20
230.4073274806
 30
0.0
 40
87.26705186515616
100
AcDbArc
 50
179.8533708906
 51
182.9593462408
  0
ARC
  5
3FD
330
3D5
100
AcDbEntity
  8
$DDT_AUDIT_GENERATED_(345)
  6
Continuous
 62
     7
100
AcDbCircle
 10
40.7894939834
 20
230.6692938323
 30
0.0
 40
18.0119110926492
100
AcDbArc
 50
165.3544205399
 51
180.1229015558
  0
SPLINE
  5
3FE
330
3D5
100
AcDbEntity
  8
$DDT_AUDIT_GENERATED_(345)
  6
Continuous
 62
     7
100
AcDbSpline
210
0.0
220
0.0
230
1.0
 70
     8
 71
     3
 72
     8
 73
     4
 74
     0
 42
0.0000000001742652
 43
0.0000000001
 40
0.0
 40
0.0
 40
0.0
 40
0.0
 40
0.0755652143242291
 40
0.0755652143242291
 40
0.0755652143242291
 40
0.0755652143242291
 10
76.19190600947715
 20
235.2233756337648
 30
0.0
 10
75.81914172715928
 20
236.6027811052799
 30
0.0
 10
75.27720335151021
 20
237.934689579733
 30
0.0
 10
74.56090591219537
 20
239.2176678238151
 30
0.0
  0
SPLINE
  5
3FF
330
3D5
100
AcDbEntity
  8
$DDT_AUDIT_GENERATED_(345)
  6
Continuous
 62
     7
100
AcDbSpline
210
0.0
220
0.0
230
1.0
 70
     8
 71
     3
 72
     8
 73
     4
 74
     0
 42
0.0000000001735834
 43
0.0000000001
 40
0.9225980037367105
 40
0.9225980037367105
 40
0.9225980037367105
 40
0.9225980037367105
 40
1.0
 40
1.0
 40
1.0
 40
1.0
 10
25.0547209441953
 20
239.323683155969
 30
0.0
 10
24.30965805534283
 20
238.0082129673617
 30
0.0
 10
23.74505766140226
 20
236.6368244880879
 30
0.0
 10
23.36281977851805
 20
235.2234092640144
 30
0.0
  0
ARC
  5
400
330
3D5
100
AcDbEntity
  8
$DDT_AUDIT_GENERATED_(345)
  6
Continuous
 62
     7
100
AcDbCircle
 10
58.7262808753
 20
230.6648331957
 30
0.0
 40
18.05071661979279
100
AcDbArc
 50
359.8563728409
 51
14.627914801
  0
ARC
  5
401
330
3D5
100
AcDbEntity
  8
$DDT_AUDIT_GENERATED_(345)
  6
Continuous
 62
     7
100
AcDbCircle
 10
-400.4923094524
 20
252.6383231029
 30
0.0
 40
477.9709993594025
100
AcDbArc
 50
345.6665740167
 51
356.3817915115
  0
ARC
  5
402
330
3D5
100
AcDbEntity
  8
$DDT_AUDIT_GENERATED_(345)
  6
Continuous
 62
     7
100
AcDbCircle
 10
500.0947066337
 20
252.6459800737
 30
0.0
 40
478.0185405395139
100
AcDbArc
 50
183.6187750529
 51
194.3323046669
  0
ARC
  5
403
330
3D5
100
AcDbEntity
  8
$DDT_AUDIT_GENERATED_(345)
  6
Continuous
 62
     7
100
AcDbCircle
 10
45.746687189
 20
138.0683739224
 30
0.0
 40
17.26664226712937
100
AcDbArc
 50
309.2410369146
 51
346.0361077676
  0
ARC
  5
404
330
3D5
100
AcDbEntity
  8
$DDT_AUDIT_GENERATED_(345)
  6
Continuous
 62
     7
100
AcDbCircle
 10
45.746687189
 20
138.0683739224
 30
0.0
 40
17.26664226712937
100
AcDbArc
 50
346.2729738547
 51
347.4205609774
  0
ARC
  5
405
330
3D5
100
AcDbEntity
  8
$DDT_AUDIT_GENERATED_(345)
  6
Continuous
 62
     7
100
AcDbCircle
 10
49.7767725676
 20
134.5170465637
 30
0.0
 40
11.99340777703313
100
AcDbArc
 50
234.9451273432
 51
305.0589956431
  0
ARC
  5
406
330
3D5
100
AcDbEntity
  8
$DDT_AUDIT_GENERATED_(345)
  6
Continuous
 62
     7
100
AcDbCircle
 10
53.7704763168
 20
138.0488151638
 30
0.0
 40
17.22597437946834
100
AcDbArc
 50
192.567116002
 51
230.8143418029
  0
ARC
  5
407
330
3D5
100
AcDbEntity
  8
$DDT_AUDIT_GENERATED_(345)
  6
Continuous
 62
     7
100
AcDbCircle
 10
81.8102494037
 20
224.6604338806
 30
0.0
 40
5.207801463451554
100
AcDbArc
 50
178.4091980559
 51
182.8458095656
  0
ARC
  5
408
330
3D5
100
AcDbEntity
  8
$DDT_AUDIT_GENERATED_(345)
  6
Continuous
 62
     7
100
AcDbCircle
 10
74.8179588374
 20
224.3129830306
 30
0.0
 40
1.792939703003138
100
AcDbArc
 50
358.5917496709
 51
2.9621808686
  0
ARC
  5
409
330
3D5
100
AcDbEntity
  8
$DDT_AUDIT_GENERATED_(345)
  6
Continuous
 62
     7
100
AcDbCircle
 10
17.6031929803
 20
224.6623485392
 30
0.0
 40
5.348843824283982
100
AcDbArc
 50
357.0962654077
 51
1.4962216554
  0
ARC
  5
40A
330
3D5
100
AcDbEntity
  8
$DDT_AUDIT_GENERATED_(345)
  6
Continuous
 62
     7
100
AcDbCircle
 10
24.2556458619
 20
224.3173890396
 30
0.0
 40
1.31216131368
100
AcDbArc
 50
176.6963260609
 51
182.4237877479
  0
ARC
  5
40B
330
3D5
100
AcDbEntity
  8
$DDT_AUDIT_GENERATED_(345)
  6
Continuous
 62
     7
100
AcDbCircle
 10
22.9695989491
 20
230.6294794161
 30
0.0
 40
0.1919884112263398
100
AcDbArc
 50
179.0046667053
 51
179.5829446044
  0
ARC
  5
40C
330
3D5
100
AcDbEntity
  8
$DDT_AUDIT_GENERATED_(345)
  6
Continuous
 62
     7
100
AcDbCircle
 10
22.9695989491
 20
230.6294794161
 30
0.0
 40
0.1919884112263398
100
AcDbArc
 50
180.8385821718
 51
181.5910069724
  0
SPLINE
  5
40D
330
3D5
100
AcDbEntity
  8
$DDT_AUDIT_GENERATED_(345)
  6
Continuous
 62
     7
100
AcDbSpline
210
0.0
220
0.0
230
1.0
 70
     8
 71
     3
 72
    64
 73
    60
 74
     0
 42
0.000000000172553
 43
0.0000000001
 40
0.0
 40
0.0
 40
0.0
 40
0.0
 40
0.0021769939596222
 40
0.020624378357298
 40
0.0390935432347566
 40
0.0576065431408877
 40
0.0760543193902566
 40
0.094382008625494
 40
0.1126308873070687
 40
0.13080915876274
 40
0.14892594304428
 40
0.1669913346455423
 40
0.1850168581097316
 40
0.2029741322890092
 40
0.220929014523228
 40
0.2389340479269327
 40
0.2569483133041303
 40
0.274920717625867
 40
0.2928131947655521
 40
0.3105900848697966
 40
0.3282252175868824
 40
0.3455873221222654
 40
0.3630920702382393
 40
0.3807197974701712
 40
0.3984501153241218
 40
0.4162601746002105
 40
0.4341251882270899
 40
0.452019025050301
 40
0.4699112679009414
 40
0.4877697655318141
 40
0.505568758035151
 40
0.5232841400029336
 40
0.5408940709299616
 40
0.5583795072179477
 40
0.5757261294932119
 40
0.5929902234473187
 40
0.6103536908367575
 40
0.6278683811443642
 40
0.6455205330834021
 40
0.6632935595457174
 40
0.6811680127545137
 40
0.6991219772475807
 40
0.7171315486909314
 40
0.7351713892392202
 40
0.7532124787284914
 40
0.7712225583921256
 40
0.7891760806560185
 40
0.8070489060456898
 40
0.8248188937193881
 40
0.8424658833466265
 40
0.86015110691619
 40
0.8781035986045808
 40
0.8961603949596931
 40
0.9143188120041753
 40
0.9325735432510495
 40
0.9509174070204587
 40
0.9693415295714236
 40
0.9878355742785132
 40
1.0
 40
1.0
 40
1.0
 40
1.0
 10
74.54676369474245
 20
239.2483989381456
 30
0.0
 10
74.52822871398148
 20
239.2833157697849
 30
0.0
 10
74.37716951238052
 20
239.5675777693927
 30
0.0
 10
74.02206704677391
 20
240.1435188520195
 30
0.0
 10
73.5096584873097
 20
240.9157906099709
 30
0.0
 10
72.94538291667304
 20
241.6792692125755
 30
0.0
 10
72.34334181778512
 20
242.4209436982134
 30
0.0
 10
71.70273441823814
 20
243.1405230475498
 30
0.0
 10
71.02581029261094
 20
243.8361269567822
 30
0.0
 10
70.31294889451314
 20
244.507566006237
 30
0.0
 10
69.56521809851115
 20
245.1540312284164
 30
0.0
 10
68.78358254034079
 20
245.7748170708392
 30
0.0
 10
67.96965964800769
 20
246.3688573310113
 30
0.0
 10
67.12408924885041
 20
246.9355534085626
 30
0.0
 10
66.24742251620667
 20
247.4751916506679
 30
0.0
 10
65.33998575194074
 20
247.9876825920505
 30
0.0
 10
64.40393489537145
 20
248.4716683891827
 30
0.0
 10
63.44312908586422
 20
248.9250998221994
 30
0.0
 10
62.4614821517535
 20
249.3460942046304
 30
0.0
 10
61.46283460633862
 20
249.733438340995
 30
0.0
 10
60.45217091481317
 20
250.0843925674069
 30
0.0
 10
59.42704910213396
 20
250.4006455952515
 30
0.0
 10
58.38474575159962
 20
250.6842315915239
 30
0.0
 10
57.31964828659398
 20
250.9365646741227
 30
0.0
 10
56.23481843853546
 20
251.1566249005173
 30
0.0
 10
55.13348255433697
 20
251.3434823640096
 30
0.0
 10
54.01905268909828
 20
251.4963322048664
 30
0.0
 10
52.89515789845616
 20
251.614498201207
 30
0.0
 10
51.76563711770976
 20
251.6974595709197
 30
0.0
 10
50.63436801619773
 20
251.7448857301842
 30
0.0
 10
49.50512797384018
 20
251.7566371680514
 30
0.0
 10
48.38149606684996
 20
251.7327515160173
 30
0.0
 10
47.26692183803474
 20
251.6734125745411
 30
0.0
 10
46.16464034855177
 20
251.57898941432
 30
0.0
 10
45.07627901165336
 20
251.4496471435713
 30
0.0
 10
43.9992019970254
 20
251.2855059626887
 30
0.0
 10
42.92923505280302
 20
251.086685781821
 30
0.0
 10
41.86385477265255
 20
250.8526176807684
 30
0.0
 10
40.80466673667613
 20
250.5833411431884
 30
0.0
 10
39.75470188595376
 20
250.2792730482238
 30
0.0
 10
38.71710531754387
 20
249.9409981346516
 30
0.0
 10
37.69510733629663
 20
249.5692718130549
 30
0.0
 10
36.69198169857443
 20
249.1650230192686
 30
0.0
 10
35.71105284791309
 20
248.7293732414929
 30
0.0
 10
34.75569582279386
 20
248.2636628145974
 30
0.0
 10
33.82916701945327
 20
247.7693973623103
 30
0.0
 10
32.93450249799963
 20
247.2481936714051
 30
0.0
 10
32.07445489822557
 20
246.7017127535801
 30
0.0
 10
31.25150571262718
 20
246.1316816952607
 30
0.0
 10
30.46545985268808
 20
245.5379041127124
 30
0.0
 10
29.71083593063087
 20
244.9183747222695
 30
0.0
 10
28.98612228537728
 20
244.2711452691858
 30
0.0
 10
28.29229916661176
 20
243.5962830148722
 30
0.0
 10
27.63299119734725
 20
242.8967074262106
 30
0.0
 10
27.01022184340132
 20
242.1741796136064
 30
0.0
 10
26.42378688053736
 20
241.4281181341469
 30
0.0
 10
25.88178096999916
 20
240.6673325685806
 30
0.0
 10
25.42090915791712
 20
239.9582159107048
 30
0.0
 10
25.18633748801348
 20
239.5457020135693
 30
0.0
 10
25.07703427978111
 20
239.3523606043672
 30
0.0
  0
ELLIPSE
  5
40E
330
3D5
100
AcDbEntity
  8
$DDT_AUDIT_GENERATED_(37E)
  6
Continuous
 62
     7
100
AcDbEllipse
 10
49.7773118504
 20
231.2864575571
 30
0.0
 11
25.02159067685341
 21
1.630640067418199E-12
 31
0.0
210
0.0
220
0.0
230
1.0
 40
0.984807753
 41
0.5035386319666859
 42
2.639795376153484
  0
ENDBLK
  5
410
330
3D5
100
AcDbEntity
  8
0
100
AcDbBlockEnd
  0
ENDSEC
  0
SECTION
  2
ENTITIES
  0
INSERT
  5
5F
330
1F
100
AcDbEntity
  8
Default
100
AcDbBlockReference
  2
SEANNOT_GROUP
 10
0.0
 20
0.0
 30
0.0
  0
INSERT
  5
66
330
1F
100
AcDbEntity
  8
Default
100
AcDbBlockReference
  2
SEANNOT_GROUP1
 10
0.0
 20
0.0
 30
0.0
  0
INSERT
  5
6C
330
1F
100
AcDbEntity
  8
Default
100
AcDbBlockReference
  2
SEANNOT_GROUP2
 10
0.0
 20
0.0
 30
0.0
  0
INSERT
  5
76
330
1F
100
AcDbEntity
  8
Default
100
AcDbBlockReference
  2
SE
 10
0.0
 20
0.0
 30
0.0
  0
INSERT
  5
384
330
1F
100
AcDbEntity
  8
Default
100
AcDbBlockReference
  2
SE1
 10
0.0
 20
0.0
 30
0.0
  0
INSERT
  5
3D6
330
1F
100
AcDbEntity
  8
Default
100
AcDbBlockReference
  2
SE2
 10
0.0
 20
0.0
 30
0.0
  0
TEXT
  5
412
330
1F
100
AcDbEntity
  8
Default
  6
Continuous
 62
     7
100
AcDbText
 10
5.9362635081
 20
53.4225120485
 30
0.0
 40
10.0
  1
Grohe AG^J
  7
SEACAD_seiso_ttf
 11
5.9362635081
 21
63.4225120485
 31
0.0
100
AcDbText
 73
     3
  0
TEXT
  5
413
330
1F
100
AcDbEntity
  8
Default
  6
Continuous
 62
     7
100
AcDbText
 10
5.9362635081
 20
37.0588756849
 30
0.0
 40
10.0
  1
 
  7
SEACAD_seiso_ttf
 11
5.9362635081
 21
47.0588756849
 31
0.0
100
AcDbText
 73
     3
  0
TEXT
  5
414
330
1F
100
AcDbEntity
  8
Default
  6
Continuous
 62
     7
100
AcDbText
 10
5.9362635081
 20
20.6952393213
 30
0.0
 40
10.0
  1
ecn: 
  7
SEACAD_seiso_ttf
 11
5.9362635081
 21
30.6952393213
 31
0.0
100
AcDbText
 73
     3
  0
TEXT
  5
415
330
1F
100
AcDbEntity
  8
Default
  6
Continuous
 62
     7
100
AcDbText
 10
5.9362635081
 20
4.3316029576
 30
0.0
 40
10.0
  1
unit: mm
  7
SEACAD_seiso_ttf
 11
5.9362635081
 21
14.3316029576
 31
0.0
100
AcDbText
 73
     3
  0
LINE
  5
416
330
1F
100
AcDbEntity
  8
Default
  6
Continuous
 62
     7
100
AcDbLine
 10
0.0
 20
0.0
 30
0.0
 11
100.0
 21
0.0
 31
0.0
  0
LINE
  5
417
330
1F
100
AcDbEntity
  8
Default
  6
Continuous
 62
     7
100
AcDbLine
 10
0.0
 20
0.0
 30
0.0
 11
0.0
 21
100.0
 31
0.0
  0
TEXT
  5
418
330
1F
100
AcDbEntity
  8
Default
  6
Continuous
 62
     7
100
AcDbText
 10
24.3923665681
 20
-18.2375342018
 30
0.0
 40
10.0
  1
100 mm
  7
SEACAD_seiso_ttf
 11
24.3923665681
 21
-8.2375342018
 31
0.0
100
AcDbText
 73
     3
  0
TEXT
  5
419
330
1F
100
AcDbEntity
  8
Default
  6
Continuous
 62
     7
100
AcDbText
 10
-7.6150308803
 20
24.6231930421
 30
0.0
 40
10.0
  1
100 mm
 50
90.0
  7
SEACAD_seiso_ttf
 11
-17.6150308803
 21
24.6231930421
 31
0.0
100
AcDbText
 73
     3
  0
TEXT
  5
41A
330
1F
100
AcDbEntity
  8
Default
  6
Continuous
 62
     7
100
AcDbText
 10
28.4878128572
 20
20.0907663715
 30
0.0
 40
10.0
  1
212923
  7
SEACAD_seiso_ttf
 11
28.4878128572
 21
30.0907663715
 31
0.0
100
AcDbText
 73
     3
  0
TEXT
  5
41B
330
1F
100
AcDbEntity
  8
Default
  6
Continuous
 62
     7
100
AcDbText
 10
5.9012241913
 20
36.7242780188
 30
0.0
 40
10.0
  1
32469001
  7
SEACAD_seiso_ttf
 11
5.9012241913
 21
46.7242780188
 31
0.0
100
AcDbText
 73
     3
  0
ENDSEC
  0
SECTION
  2
OBJECTS
  0
DICTIONARY
  5
C
330
0
100
AcDbDictionary
281
     1
  3
ACAD_GROUP
350
D
  3
ACAD_LAYOUT
350
1A
  3
ACAD_MLEADERSTYLE
350
41F
  3
ACAD_MLINESTYLE
350
17
  3
ACAD_PLOTSETTINGS
350
19
  3
ACAD_PLOTSTYLENAME
350
E
  3
ACAD_SCALELIST
350
3B
  3
ACAD_TABLESTYLE
350
41E
  3
ACAD_VISUALSTYLE
350
2A
  3
AcDbVariableDictionary
350
41C
  0
DICTIONARY
  5
D
102
{ACAD_REACTORS
330
C
102
}
330
C
100
AcDbDictionary
281
     1
  0
DICTIONARY
  5
1A
102
{ACAD_REACTORS
330
C
102
}
330
C
100
AcDbDictionary
281
     1
  3
Layout1
350
1E
  3
Model
350
22
  0
DICTIONARY
  5
41F
102
{ACAD_REACTORS
330
C
102
}
330
C
100
AcDbDictionary
281
     1
  0
DICTIONARY
  5
17
102
{ACAD_REACTORS
330
C
102
}
330
C
100
AcDbDictionary
281
     1
  3
Standard
350
18
  0
DICTIONARY
  5
19
102
{ACAD_REACTORS
330
C
102
}
330
C
100
AcDbDictionary
281
     1
  0
ACDBDICTIONARYWDFLT
  5
E
102
{ACAD_REACTORS
330
C
102
}
330
C
100
AcDbDictionary
281
     1
  3
Normal
350
F
100
AcDbDictionaryWithDefault
340
F
  0
DICTIONARY
  5
3B
102
{ACAD_REACTORS
330
C
102
}
330
C
100
AcDbDictionary
281
     1
  3
A0
350
3C
  3
A1
350
3D
  3
A2
350
3E
  3
A3
350
3F
  3
A4
350
40
  3
A5
350
41
  3
A6
350
42
  3
A7
350
43
  3
A8
350
44
  3
A9
350
45
  3
B0
350
46
  3
B1
350
47
  3
B2
350
48
  3
B3
350
49
  3
B4
350
4A
  3
B5
350
4B
  3
B6
350
4C
  3
B7
350
4D
  3
B8
350
4E
  3
B9
350
4F
  3
C0
350
50
  3
C1
350
51
  3
C2
350
52
  3
C3
350
53
  3
C4
350
54
  3
C5
350
55
  3
C6
350
56
  3
C7
350
57
  3
C8
350
58
  3
C9
350
59
  3
D0
350
5A
  3
D1
350
5B
  3
D2
350
5C
  0
DICTIONARY
  5
41E
102
{ACAD_REACTORS
330
C
102
}
330
C
100
AcDbDictionary
281
     1
  0
DICTIONARY
  5
2A
102
{ACAD_REACTORS
330
C
102
}
330
C
100
AcDbDictionary
281
     1
  3
2dWireframe
350
2F
  3
3D Hidden
350
31
  3
3dWireframe
350
30
  3
Basic
350
32
  3
Brighten
350
36
  3
ColorChange
350
3A
  3
Conceptual
350
34
  3
Dim
350
35
  3
Facepattern
350
39
  3
Flat
350
2B
  3
FlatWithEdges
350
2C
  3
Gouraud
350
2D
  3
GouraudWithEdges
350
2E
  3
Linepattern
350
38
  3
Realistic
350
33
  3
Thicken
350
37
  0
DICTIONARY
  5
41C
102
{ACAD_REACTORS
330
C
102
}
330
C
100
AcDbDictionary
281
     1
  3
CANNOSCALE
350
41D
  3
PSOLHEIGHT
350
421
  3
PSOLWIDTH
350
420
  0
LAYOUT
  5
1E
102
{ACAD_REACTORS
330
1A
102
}
330
1A
100
AcDbPlotSettings
  1

  2
none_device
  4

  6

 40
0.0
 41
0.0
 42
0.0
 43
0.0
 44
0.0
 45
0.0
 46
0.0
 47
0.0
 48
0.0
 49
0.0
140
0.0
141
0.0
142
1.0
143
1.0
 70
   688
 72
     0
 73
     0
 74
     5
  7

 75
    16
147
1.0
148
0.0
149
0.0
100
AcDbLayout
  1
Layout1
 70
     1
 71
     1
 10
0.0
 20
0.0
 11
1682.0
 21
2378.0
 12
0.0
 22
0.0
 32
0.0
 14
0.0
 24
0.0
 34
0.0
 15
1682.0
 25
2378.0
 35
0.0
146
0.0
 13
0.0
 23
0.0
 33
0.0
 16
1.0
 26
0.0
 36
0.0
 17
0.0
 27
1.0
 37
0.0
 76
     0
330
1B
  0
LAYOUT
  5
22
102
{ACAD_REACTORS
330
1A
102
}
330
1A
100
AcDbPlotSettings
  1

  2
none_device
  4

  6

 40
0.0
 41
0.0
 42
0.0
 43
0.0
 44
0.0
 45
0.0
 46
0.0
 47
0.0
 48
0.0
 49
0.0
140
0.0
141
0.0
142
1.0
143
1.0
 70
  1712
 72
     0
 73
     0
 74
     0
  7

 75
     0
147
1.0
148
0.0
149
0.0
100
AcDbLayout
  1
Model
 70
     1
 71
     0
 10
0.0
 20
0.0
 11
1682.0
 21
2378.0
 12
0.0
 22
0.0
 32
0.0
 14
0.0
 24
0.0
 34
0.0
 15
1682.0
 25
2378.0
 35
0.0
146
0.0
 13
0.0
 23
0.0
 33
0.0
 16
1.0
 26
0.0
 36
0.0
 17
0.0
 27
1.0
 37
0.0
 76
     0
330
1F
331
29
  0
MLINESTYLE
  5
18
102
{ACAD_REACTORS
330
17
102
}
330
17
100
AcDbMlineStyle
  2
Standard
 70
     0
  3

 62
   256
 51
90.0
 52
90.0
 71
     2
 49
0.5
 62
   256
  6
BYLAYER
 49
-0.5
 62
   256
  6
BYLAYER
  0
ACDBPLACEHOLDER
  5
F
102
{ACAD_REACTORS
330
E
102
}
330
E
  0
SCALE
  5
3C
102
{ACAD_REACTORS
330
3B
102
}
330
3B
100
AcDbScale
 70
     0
300
1:1
140
1.0
141
1.0
290
     1
  0
SCALE
  5
3D
102
{ACAD_REACTORS
330
3B
102
}
330
3B
100
AcDbScale
 70
     0
300
1:2
140
1.0
141
2.0
290
     0
  0
SCALE
  5
3E
102
{ACAD_REACTORS
330
3B
102
}
330
3B
100
AcDbScale
 70
     0
300
1:4
140
1.0
141
4.0
290
     0
  0
SCALE
  5
3F
102
{ACAD_REACTORS
330
3B
102
}
330
3B
100
AcDbScale
 70
     0
300
1:5
140
1.0
141
5.0
290
     0
  0
SCALE
  5
40
102
{ACAD_REACTORS
330
3B
102
}
330
3B
100
AcDbScale
 70
     0
300
1:8
140
1.0
141
8.0
290
     0
  0
SCALE
  5
41
102
{ACAD_REACTORS
330
3B
102
}
330
3B
100
AcDbScale
 70
     0
300
1:10
140
1.0
141
10.0
290
     0
  0
SCALE
  5
42
102
{ACAD_REACTORS
330
3B
102
}
330
3B
100
AcDbScale
 70
     0
300
1:16
140
1.0
141
16.0
290
     0
  0
SCALE
  5
43
102
{ACAD_REACTORS
330
3B
102
}
330
3B
100
AcDbScale
 70
     0
300
1:20
140
1.0
141
20.0
290
     0
  0
SCALE
  5
44
102
{ACAD_REACTORS
330
3B
102
}
330
3B
100
AcDbScale
 70
     0
300
1:30
140
1.0
141
30.0
290
     0
  0
SCALE
  5
45
102
{ACAD_REACTORS
330
3B
102
}
330
3B
100
AcDbScale
 70
     0
300
1:40
140
1.0
141
40.0
290
     0
  0
SCALE
  5
46
102
{ACAD_REACTORS
330
3B
102
}
330
3B
100
AcDbScale
 70
     0
300
1:50
140
1.0
141
50.0
290
     0
  0
SCALE
  5
47
102
{ACAD_REACTORS
330
3B
102
}
330
3B
100
AcDbScale
 70
     0
300
1:100
140
1.0
141
100.0
290
     0
  0
SCALE
  5
48
102
{ACAD_REACTORS
330
3B
102
}
330
3B
100
AcDbScale
 70
     0
300
2:1
140
2.0
141
1.0
290
     0
  0
SCALE
  5
49
102
{ACAD_REACTORS
330
3B
102
}
330
3B
100
AcDbScale
 70
     0
300
4:1
140
4.0
141
1.0
290
     0
  0
SCALE
  5
4A
102
{ACAD_REACTORS
330
3B
102
}
330
3B
100
AcDbScale
 70
     0
300
8:1
140
8.0
141
1.0
290
     0
  0
SCALE
  5
4B
102
{ACAD_REACTORS
330
3B
102
}
330
3B
100
AcDbScale
 70
     0
300
10:1
140
10.0
141
1.0
290
     0
  0
SCALE
  5
4C
102
{ACAD_REACTORS
330
3B
102
}
330
3B
100
AcDbScale
 70
     0
300
100:1
140
100.0
141
1.0
290
     0
  0
SCALE
  5
4D
102
{ACAD_REACTORS
330
3B
102
}
330
3B
100
AcDbScale
 70
     0
300
1/128" = 1'-0"
140
0.0078125
141
12.0
290
     0
  0
SCALE
  5
4E
102
{ACAD_REACTORS
330
3B
102
}
330
3B
100
AcDbScale
 70
     0
300
1/64" = 1'-0"
140
0.015625
141
12.0
290
     0
  0
SCALE
  5
4F
102
{ACAD_REACTORS
330
3B
102
}
330
3B
100
AcDbScale
 70
     0
300
1/32" = 1'-0"
140
0.03125
141
12.0
290
     0
  0
SCALE
  5
50
102
{ACAD_REACTORS
330
3B
102
}
330
3B
100
AcDbScale
 70
     0
300
1/16" = 1'-0"
140
0.0625
141
12.0
290
     0
  0
SCALE
  5
51
102
{ACAD_REACTORS
330
3B
102
}
330
3B
100
AcDbScale
 70
     0
300
3/32" = 1'-0"
140
0.09375
141
12.0
290
     0
  0
SCALE
  5
52
102
{ACAD_REACTORS
330
3B
102
}
330
3B
100
AcDbScale
 70
     0
300
1/8" = 1'-0"
140
0.125
141
12.0
290
     0
  0
SCALE
  5
53
102
{ACAD_REACTORS
330
3B
102
}
330
3B
100
AcDbScale
 70
     0
300
3/16" = 1'-0"
140
0.1875
141
12.0
290
     0
  0
SCALE
  5
54
102
{ACAD_REACTORS
330
3B
102
}
330
3B
100
AcDbScale
 70
     0
300
1/4" = 1'-0"
140
0.25
141
12.0
290
     0
  0
SCALE
  5
55
102
{ACAD_REACTORS
330
3B
102
}
330
3B
100
AcDbScale
 70
     0
300
3/8" = 1'-0"
140
0.375
141
12.0
290
     0
  0
SCALE
  5
56
102
{ACAD_REACTORS
330
3B
102
}
330
3B
100
AcDbScale
 70
     0
300
1/2" = 1'-0"
140
0.5
141
12.0
290
     0
  0
SCALE
  5
57
102
{ACAD_REACTORS
330
3B
102
}
330
3B
100
AcDbScale
 70
     0
300
3/4" = 1'-0"
140
0.75
141
12.0
290
     0
  0
SCALE
  5
58
102
{ACAD_REACTORS
330
3B
102
}
330
3B
100
AcDbScale
 70
     0
300
1" = 1'-0"
140
1.0
141
12.0
290
     0
  0
SCALE
  5
59
102
{ACAD_REACTORS
330
3B
102
}
330
3B
100
AcDbScale
 70
     0
300
1-1/2" = 1'-0"
140
1.5
141
12.0
290
     0
  0
SCALE
  5
5A
102
{ACAD_REACTORS
330
3B
102
}
330
3B
100
AcDbScale
 70
     0
300
3" = 1'-0"
140
3.0
141
12.0
290
     0
  0
SCALE
  5
5B
102
{ACAD_REACTORS
330
3B
102
}
330
3B
100
AcDbScale
 70
     0
300
6" = 1'-0"
140
6.0
141
12.0
290
     0
  0
SCALE
  5
5C
102
{ACAD_REACTORS
330
3B
102
}
330
3B
100
AcDbScale
 70
     0
300
1'-0" = 1'-0"
140
12.0
141
12.0
290
     0
  0
VISUALSTYLE
  5
2F
102
{ACAD_REACTORS
330
2A
102
}
330
2A
100
AcDbVisualStyle
  2
2dWireframe
 70
     4
 71
     0
 72
     2
 73
     0
 90
        0
 40
-0.6
 41
-30.0
 62
     5
 63
     7
 74
     1
 91
        4
 64
     7
 65
   257
 75
     1
175
     1
 42
1.0
 92
        0
 66
   257
 43
1.0
 76
     1
 77
     6
 78
     2
 67
     7
 79
     5
170
     0
171
     0
290
     0
174
     0
 93
        1
 44
0.0
173
     0
291
     0
 45
0.0
1001
ACAD
1000
AcDbSavedByObjectVersion
1070
     0
  0
VISUALSTYLE
  5
31
102
{ACAD_REACTORS
330
2A
102
}
330
2A
100
AcDbVisualStyle
  2
3D Hidden
 70
     6
 71
     1
 72
     2
 73
     2
 90
        0
 40
-0.6
 41
-30.0
 62
     5
 63
     7
 74
     2
 91
        2
 64
     7
 65
   257
 75
     2
175
     1
 42
40.0
 92
        0
 66
   257
 43
1.0
 76
     1
 77
     6
 78
     2
 67
     7
 79
     3
170
     0
171
     0
290
     0
174
     0
 93
        1
 44
0.0
173
     0
291
     0
 45
0.0
1001
ACAD
1000
AcDbSavedByObjectVersion
1070
     0
  0
VISUALSTYLE
  5
30
102
{ACAD_REACTORS
330
2A
102
}
330
2A
100
AcDbVisualStyle
  2
3dWireframe
 70
     5
 71
     0
 72
     2
 73
     0
 90
        0
 40
-0.6
 41
-30.0
 62
     5
 63
     7
 74
     1
 91
        4
 64
     7
 65
   257
 75
     1
175
     1
 42
1.0
 92
        0
 66
   257
 43
1.0
 76
     1
 77
     6
 78
     2
 67
     7
 79
     5
170
     0
171
     0
290
     0
174
     0
 93
        1
 44
0.0
173
     0
291
     0
 45
0.0
1001
ACAD
1000
AcDbSavedByObjectVersion
1070
     0
  0
VISUALSTYLE
  5
32
102
{ACAD_REACTORS
330
2A
102
}
330
2A
100
AcDbVisualStyle
  2
Basic
 70
     7
 71
     1
 72
     0
 73
     1
 90
        0
 40
-0.6
 41
-30.0
 62
     5
 63
     7
 74
     0
 91
        4
 64
     7
 65
   257
 75
     1
175
     1
 42
1.0
 92
        8
 66
     7
 43
1.0
 76
     1
 77
     6
 78
     2
 67
     7
 79
     5
170
     0
171
     0
290
     0
174
     0
 93
        1
 44
0.0
173
     0
291
     1
 45
0.0
1001
ACAD
1000
AcDbSavedByObjectVersion
1070
     0
  0
VISUALSTYLE
  5
36
102
{ACAD_REACTORS
330
2A
102
}
330
2A
100
AcDbVisualStyle
  2
Brighten
 70
    12
 71
     2
 72
     2
 73
     0
 90
        0
 40
-0.6
 41
-30.0
 62
     5
 63
     7
 74
     1
 91
        4
 64
     7
 65
   257
 75
     1
175
     1
 42
1.0
 92
        8
 66
     7
 43
1.0
 76
     1
 77
     6
 78
     2
 67
     7
 79
     5
170
     0
171
     0
290
     0
174
     0
 93
        1
 44
50.0
173
     0
291
     1
 45
0.0
1001
ACAD
1000
AcDbSavedByObjectVersion
1070
     0
  0
VISUALSTYLE
  5
3A
102
{ACAD_REACTORS
330
2A
102
}
330
2A
100
AcDbVisualStyle
  2
ColorChange
 70
    16
 71
     2
 72
     2
 73
     3
 90
        0
 40
-0.6
 41
-30.0
 62
     5
 63
     8
 74
     1
 91
        4
 64
     7
 65
   257
 75
     1
175
     1
 42
1.0
 92
        8
 66
     8
 43
1.0
 76
     1
 77
     6
 78
     2
 67
     7
 79
     5
170
     0
171
     0
290
     0
174
     0
 93
        1
 44
0.0
173
     0
291
     1
 45
0.0
1001
ACAD
1000
AcDbSavedByObjectVersion
1070
     0
  0
VISUALSTYLE
  5
34
102
{ACAD_REACTORS
330
2A
102
}
330
2A
100
AcDbVisualStyle
  2
Conceptual
 70
     9
 71
     3
 72
     2
 73
     0
 90
        0
 40
-0.6
 41
-30.0
 62
     5
 63
     7
 74
     2
 91
        2
 64
     7
 65
   257
 75
     1
175
     1
 42
40.0
 92
        8
 66
     7
 43
1.0
 76
     1
 77
     6
 78
     2
 67
     7
 79
     3
170
     0
171
     0
290
     0
174
     0
 93
        1
 44
0.0
173
     0
291
     0
 45
0.0
1001
ACAD
1000
AcDbSavedByObjectVersion
1070
     0
  0
VISUALSTYLE
  5
35
102
{ACAD_REACTORS
330
2A
102
}
330
2A
100
AcDbVisualStyle
  2
Dim
 70
    11
 71
     2
 72
     2
 73
     0
 90
        0
 40
-0.6
 41
-30.0
 62
     5
 63
     7
 74
     1
 91
        4
 64
     7
 65
   257
 75
     1
175
     1
 42
1.0
 92
        8
 66
     7
 43
1.0
 76
     1
 77
     6
 78
     2
 67
     7
 79
     5
170
     0
171
     0
290
     0
174
     0
 93
        1
 44
-50.0
173
     0
291
     1
 45
0.0
1001
ACAD
1000
AcDbSavedByObjectVersion
1070
     0
  0
VISUALSTYLE
  5
39
102
{ACAD_REACTORS
330
2A
102
}
330
2A
100
AcDbVisualStyle
  2
Facepattern
 70
    15
 71
     2
 72
     2
 73
     0
 90
        0
 40
-0.6
 41
-30.0
 62
     5
 63
     7
 74
     1
 91
        4
 64
     7
 65
   257
 75
     1
175
     1
 42
1.0
 92
        8
 66
     7
 43
1.0
 76
     1
 77
     6
 78
     2
 67
     7
 79
     5
170
     0
171
     0
290
     0
174
     0
 93
        1
 44
0.0
173
     0
291
     1
 45
0.0
1001
ACAD
1000
AcDbSavedByObjectVersion
1070
     0
  0
VISUALSTYLE
  5
2B
102
{ACAD_REACTORS
330
2A
102
}
330
2A
100
AcDbVisualStyle
  2
Flat
 70
     0
 71
     2
 72
     1
 73
     1
 90
        2
 40
-0.6
 41
30.0
 62
     5
 63
     7
 74
     0
 91
        4
 64
     7
 65
   257
 75
     1
175
     1
 42
1.0
 92
        8
 66
     7
 43
1.0
 76
     1
 77
     6
 78
     2
 67
     7
 79
     5
170
     0
171
     0
290
     0
174
     0
 93
       13
 44
0.0
173
     0
291
     1
 45
0.0
1001
ACAD
1000
AcDbSavedByObjectVersion
1070
     0
  0
VISUALSTYLE
  5
2C
102
{ACAD_REACTORS
330
2A
102
}
330
2A
100
AcDbVisualStyle
  2
FlatWithEdges
 70
     1
 71
     2
 72
     1
 73
     1
 90
        2
 40
-0.6
 41
30.0
 62
     5
 63
     7
 74
     1
 91
        4
 64
     7
 65
   257
 75
     1
175
     1
 42
1.0
 92
        0
 66
   257
 43
1.0
 76
     1
 77
     6
 78
     2
 67
     7
 79
     5
170
     0
171
     0
290
     0
174
     0
 93
       13
 44
0.0
173
     0
291
     1
 45
0.0
1001
ACAD
1000
AcDbSavedByObjectVersion
1070
     0
  0
VISUALSTYLE
  5
2D
102
{ACAD_REACTORS
330
2A
102
}
330
2A
100
AcDbVisualStyle
  2
Gouraud
 70
     2
 71
     2
 72
     2
 73
     1
 90
        2
 40
-0.6
 41
30.0
 62
     5
 63
     7
 74
     0
 91
        4
 64
     7
 65
   257
 75
     1
175
     1
 42
1.0
 92
        0
 66
     7
 43
1.0
 76
     1
 77
     6
 78
     2
 67
     7
 79
     5
170
     0
171
     0
290
     0
174
     0
 93
       13
 44
0.0
173
     0
291
     1
 45
0.0
1001
ACAD
1000
AcDbSavedByObjectVersion
1070
     0
  0
VISUALSTYLE
  5
2E
102
{ACAD_REACTORS
330
2A
102
}
330
2A
100
AcDbVisualStyle
  2
GouraudWithEdges
 70
     3
 71
     2
 72
     2
 73
     1
 90
        2
 40
-0.6
 41
30.0
 62
     5
 63
     7
 74
     1
 91
        4
 64
     7
 65
   257
 75
     1
175
     1
 42
1.0
 92
        0
 66
   257
 43
1.0
 76
     1
 77
     6
 78
     2
 67
     7
 79
     5
170
     0
171
     0
290
     0
174
     0
 93
       13
 44
0.0
173
     0
291
     1
 45
0.0
1001
ACAD
1000
AcDbSavedByObjectVersion
1070
     0
  0
VISUALSTYLE
  5
38
102
{ACAD_REACTORS
330
2A
102
}
330
2A
100
AcDbVisualStyle
  2
Linepattern
 70
    14
 71
     2
 72
     2
 73
     0
 90
        0
 40
-0.6
 41
-30.0
 62
     5
 63
     7
 74
     1
 91
        4
 64
     7
 65
   257
 75
     7
175
     7
 42
1.0
 92
        8
 66
     7
 43
1.0
 76
     1
 77
     6
 78
     2
 67
     7
 79
     5
170
     0
171
     0
290
     0
174
     0
 93
        1
 44
0.0
173
     0
291
     1
 45
0.0
1001
ACAD
1000
AcDbSavedByObjectVersion
1070
     0
  0
VISUALSTYLE
  5
33
102
{ACAD_REACTORS
330
2A
102
}
330
2A
100
AcDbVisualStyle
  2
Realistic
 70
     8
 71
     2
 72
     2
 73
     0
 90
        0
 40
-0.6
 41
-30.0
 62
     5
 63
     7
 74
     1
 91
        0
 64
     7
 65
   257
 75
     1
175
     1
 42
1.0
 92
        8
 66
     8
 43
1.0
 76
     1
 77
     6
 78
     2
 67
     7
 79
     5
170
     0
171
     0
290
     0
174
     0
 93
       13
 44
0.0
173
     0
291
     0
 45
0.0
1001
ACAD
1000
AcDbSavedByObjectVersion
1070
     0
  0
VISUALSTYLE
  5
37
102
{ACAD_REACTORS
330
2A
102
}
330
2A
100
AcDbVisualStyle
  2
Thicken
 70
    13
 71
     2
 72
     2
 73
     0
 90
        0
 40
-0.6
 41
-30.0
 62
     5
 63
     7
 74
     1
 91
        4
 64
     7
 65
   257
 75
     1
175
     1
 42
1.0
 92
       12
 66
     7
 43
1.0
 76
     1
 77
     6
 78
     2
 67
     7
 79
     5
170
     0
171
     0
290
     0
174
     0
 93
        1
 44
0.0
173
     0
291
     1
 45
0.0
1001
ACAD
1000
AcDbSavedByObjectVersion
1070
     0
  0
DICTIONARYVAR
  5
41D
102
{ACAD_REACTORS
330
41C
102
}
330
41C
100
DictionaryVariables
280
     0
  1
1:1
  0
DICTIONARYVAR
  5
421
102
{ACAD_REACTORS
330
41C
102
}
330
41C
100
DictionaryVariables
280
     0
  1
80.000000
  0
DICTIONARYVAR
  5
420
102
{ACAD_REACTORS
330
41C
102
}
330
41C
100
DictionaryVariables
280
     0
  1
5.000000
  0
ENDSEC
  0
EOF
