  0
SECTION
  2
HEADER
  9
$ACADVER
  1
AC1015
  9
$ACADMAINTVER
 70
     6
  9
$DWGCODEPAGE
  3
ANSI_1252
  9
$INSBASE
 10
0.0
 20
0.0
 30
0.0
  9
$EXTMIN
 10
0.0
 20
0.0
 30
0.0
  9
$EXTMAX
 10
1682.0
 20
2378.0
 30
0.0
  9
$LIMMIN
 10
0.0
 20
0.0
  9
$LIMMAX
 10
1682.0
 20
2378.0
  9
$ORTHOMODE
 70
     0
  9
$REGENMODE
 70
     1
  9
$FILLMODE
 70
     1
  9
$QTEXTMODE
 70
     0
  9
$MIRRTEXT
 70
     1
  9
$LTSCALE
 40
1.0
  9
$ATTMODE
 70
     1
  9
$TEXTSIZE
 40
2.5
  9
$TRACEWID
 40
1.0
  9
$TEXTSTYLE
  7
Standard
  9
$CLAYER
  8
0
  9
$CELTYPE
  6
ByLayer
  9
$CECOLOR
 62
   256
  9
$CELTSCALE
 40
1.0
  9
$DISPSILH
 70
     0
  9
$DIMSCALE
 40
1.0
  9
$DIMASZ
 40
2.5
  9
$DIMEXO
 40
0.625
  9
$DIMDLI
 40
3.75
  9
$DIMRND
 40
0.0
  9
$DIMDLE
 40
0.0
  9
$DIMEXE
 40
1.25
  9
$DIMTP
 40
0.0
  9
$DIMTM
 40
0.0
  9
$DIMTXT
 40
2.5
  9
$DIMCEN
 40
2.5
  9
$DIMTSZ
 40
0.0
  9
$DIMTOL
 70
     0
  9
$DIMLIM
 70
     0
  9
$DIMTIH
 70
     0
  9
$DIMTOH
 70
     0
  9
$DIMSE1
 70
     0
  9
$DIMSE2
 70
     0
  9
$DIMTAD
 70
     1
  9
$DIMZIN
 70
     8
  9
$DIMBLK
  1

  9
$DIMASO
 70
     1
  9
$DIMSHO
 70
     1
  9
$DIMPOST
  1

  9
$DIMAPOST
  1

  9
$DIMALT
 70
     0
  9
$DIMALTD
 70
     3
  9
$DIMALTF
 40
0.0393700787
  9
$DIMLFAC
 40
1.0
  9
$DIMTOFL
 70
     1
  9
$DIMTVP
 40
0.0
  9
$DIMTIX
 70
     0
  9
$DIMSOXD
 70
     0
  9
$DIMSAH
 70
     0
  9
$DIMBLK1
  1

  9
$DIMBLK2
  1

  9
$DIMSTYLE
  2
ISO-25
  9
$DIMCLRD
 70
     0
  9
$DIMCLRE
 70
     0
  9
$DIMCLRT
 70
     0
  9
$DIMTFAC
 40
1.0
  9
$DIMGAP
 40
0.625
  9
$DIMJUST
 70
     0
  9
$DIMSD1
 70
     0
  9
$DIMSD2
 70
     0
  9
$DIMTOLJ
 70
     0
  9
$DIMTZIN
 70
     8
  9
$DIMALTZ
 70
     0
  9
$DIMALTTZ
 70
     0
  9
$DIMUPT
 70
     0
  9
$DIMDEC
 70
     2
  9
$DIMTDEC
 70
     2
  9
$DIMALTU
 70
     2
  9
$DIMALTTD
 70
     3
  9
$DIMTXSTY
  7
Standard
  9
$DIMAUNIT
 70
     0
  9
$DIMADEC
 70
     0
  9
$DIMALTRND
 40
0.0
  9
$DIMAZIN
 70
     0
  9
$DIMDSEP
 70
    44
  9
$DIMATFIT
 70
     3
  9
$DIMFRAC
 70
     0
  9
$DIMLDRBLK
  1

  9
$DIMLUNIT
 70
     2
  9
$DIMLWD
 70
    -2
  9
$DIMLWE
 70
    -2
  9
$DIMTMOVE
 70
     0
  9
$LUNITS
 70
     2
  9
$LUPREC
 70
     4
  9
$SKETCHINC
 40
1.0
  9
$FILLETRAD
 40
10.0
  9
$AUNITS
 70
     0
  9
$AUPREC
 70
     0
  9
$MENU
  1
.
  9
$ELEVATION
 40
0.0
  9
$PELEVATION
 40
0.0
  9
$THICKNESS
 40
0.0
  9
$LIMCHECK
 70
     0
  9
$CHAMFERA
 40
10.0
  9
$CHAMFERB
 40
10.0
  9
$CHAMFERC
 40
20.0
  9
$CHAMFERD
 40
0.0
  9
$SKPOLY
 70
     0
  9
$TDCREATE
 40
2455505.595332581
  9
$TDUCREATE
 40
2455505.553665915
  9
$TDUPDATE
 40
2455505.595332593
  9
$TDUUPDATE
 40
2455505.553665926
  9
$TDINDWG
 40
0.0000000116
  9
$TDUSRTIMER
 40
0.0000000116
  9
$USRTIMER
 70
     1
  9
$ANGBASE
 50
0.0
  9
$ANGDIR
 70
     0
  9
$PDMODE
 70
     0
  9
$PDSIZE
 40
0.0
  9
$PLINEWID
 40
0.0
  9
$SPLFRAME
 70
     0
  9
$SPLINETYPE
 70
     6
  9
$SPLINESEGS
 70
     8
  9
$HANDSEED
  5
226
  9
$SURFTAB1
 70
     6
  9
$SURFTAB2
 70
     6
  9
$SURFTYPE
 70
     6
  9
$SURFU
 70
     6
  9
$SURFV
 70
     6
  9
$UCSBASE
  2

  9
$UCSNAME
  2

  9
$UCSORG
 10
0.0
 20
0.0
 30
0.0
  9
$UCSXDIR
 10
1.0
 20
0.0
 30
0.0
  9
$UCSYDIR
 10
0.0
 20
1.0
 30
0.0
  9
$UCSORTHOREF
  2

  9
$UCSORTHOVIEW
 70
     0
  9
$UCSORGTOP
 10
0.0
 20
0.0
 30
0.0
  9
$UCSORGBOTTOM
 10
0.0
 20
0.0
 30
0.0
  9
$UCSORGLEFT
 10
0.0
 20
0.0
 30
0.0
  9
$UCSORGRIGHT
 10
0.0
 20
0.0
 30
0.0
  9
$UCSORGFRONT
 10
0.0
 20
0.0
 30
0.0
  9
$UCSORGBACK
 10
0.0
 20
0.0
 30
0.0
  9
$PUCSBASE
  2

  9
$PUCSNAME
  2

  9
$PUCSORG
 10
0.0
 20
0.0
 30
0.0
  9
$PUCSXDIR
 10
1.0
 20
0.0
 30
0.0
  9
$PUCSYDIR
 10
0.0
 20
1.0
 30
0.0
  9
$PUCSORTHOREF
  2

  9
$PUCSORTHOVIEW
 70
     0
  9
$PUCSORGTOP
 10
0.0
 20
0.0
 30
0.0
  9
$PUCSORGBOTTOM
 10
0.0
 20
0.0
 30
0.0
  9
$PUCSORGLEFT
 10
0.0
 20
0.0
 30
0.0
  9
$PUCSORGRIGHT
 10
0.0
 20
0.0
 30
0.0
  9
$PUCSORGFRONT
 10
0.0
 20
0.0
 30
0.0
  9
$PUCSORGBACK
 10
0.0
 20
0.0
 30
0.0
  9
$USERI1
 70
     0
  9
$USERI2
 70
     0
  9
$USERI3
 70
     0
  9
$USERI4
 70
     0
  9
$USERI5
 70
     0
  9
$USERR1
 40
0.0
  9
$USERR2
 40
0.0
  9
$USERR3
 40
0.0
  9
$USERR4
 40
0.0
  9
$USERR5
 40
0.0
  9
$WORLDVIEW
 70
     1
  9
$SHADEDGE
 70
     3
  9
$SHADEDIF
 70
    70
  9
$TILEMODE
 70
     1
  9
$MAXACTVP
 70
    64
  9
$PINSBASE
 10
0.0
 20
0.0
 30
0.0
  9
$PLIMCHECK
 70
     0
  9
$PEXTMIN
 10
0.0
 20
0.0
 30
0.0
  9
$PEXTMAX
 10
1682.0
 20
2378.0
 30
0.0
  9
$PLIMMIN
 10
0.0
 20
0.0
  9
$PLIMMAX
 10
1682.0
 20
2378.0
  9
$UNITMODE
 70
     0
  9
$VISRETAIN
 70
     1
  9
$PLINEGEN
 70
     0
  9
$PSLTSCALE
 70
     1
  9
$TREEDEPTH
 70
  3020
  9
$CMLSTYLE
  2
Standard
  9
$CMLJUST
 70
     0
  9
$CMLSCALE
 40
20.0
  9
$PROXYGRAPHICS
 70
     1
  9
$MEASUREMENT
 70
     1
  9
$CELWEIGHT
370
    -1
  9
$ENDCAPS
280
     0
  9
$JOINSTYLE
280
     0
  9
$LWDISPLAY
290
     0
  9
$INSUNITS
 70
     4
  9
$HYPERLINKBASE
  1

  9
$STYLESHEET
  1

  9
$XEDIT
290
     1
  9
$CEPSNTYPE
380
     0
  9
$PSTYLEMODE
290
     1
  9
$FINGERPRINTGUID
  2
{26A7E94C-1EF6-4EC1-9777-EC2681A572D4}
  9
$VERSIONGUID
  2
{FAEB1C32-E019-11D5-929B-00C0DF256EC4}
  9
$EXTNAMES
290
     1
  9
$PSVPSCALE
 40
0.0
  9
$OLESTARTUP
290
     0
  0
ENDSEC
  0
SECTION
  2
CLASSES
  0
CLASS
  1
ACDBDICTIONARYWDFLT
  2
AcDbDictionaryWithDefault
  3
ObjectDBX Classes
 90
        0
280
     0
281
     0
  0
CLASS
  1
VISUALSTYLE
  2
AcDbVisualStyle
  3
ObjectDBX Classes
 90
     4095
280
     0
281
     0
  0
CLASS
  1
SCALE
  2
AcDbScale
  3
ObjectDBX Classes
 90
     1153
280
     0
281
     0
  0
CLASS
  1
DICTIONARYVAR
  2
AcDbDictionaryVar
  3
ObjectDBX Classes
 90
        0
280
     0
281
     0
  0
CLASS
  1
ACDBPLACEHOLDER
  2
AcDbPlaceHolder
  3
ObjectDBX Classes
 90
        0
280
     0
281
     0
  0
CLASS
  1
LAYOUT
  2
AcDbLayout
  3
ObjectDBX Classes
 90
        0
280
     0
281
     0
  0
ENDSEC
  0
SECTION
  2
TABLES
  0
TABLE
  2
VPORT
  5
8
330
0
100
AcDbSymbolTable
 70
     1
  0
VPORT
  5
29
330
8
100
AcDbSymbolTableRecord
100
AcDbViewportTableRecord
  2
*Active
 70
     0
 10
0.0
 20
0.0
 11
1.0
 21
1.0
 12
344.1869158879
 22
148.5
 13
0.0
 23
0.0
 14
10.0
 24
10.0
 15
10.0
 25
10.0
 16
0.0
 26
0.0
 36
1.0
 17
0.0
 27
0.0
 37
0.0
 40
297.0
 41
1.9729729729
 42
50.0
 43
0.0
 44
0.0
 50
0.0
 51
0.0
 71
     0
 72
   100
 73
     1
 74
     3
 75
     0
 76
     0
 77
     0
 78
     0
281
     0
 65
     1
110
0.0
120
0.0
130
0.0
111
1.0
121
0.0
131
0.0
112
0.0
122
1.0
132
0.0
 79
     0
146
0.0
  0
ENDTAB
  0
TABLE
  2
LTYPE
  5
5
330
0
100
AcDbSymbolTable
 70
     2
  0
LTYPE
  5
14
330
5
100
AcDbSymbolTableRecord
100
AcDbLinetypeTableRecord
  2
ByBlock
 70
     0
  3

 72
    65
 73
     0
 40
0.0
  0
LTYPE
  5
15
330
5
100
AcDbSymbolTableRecord
100
AcDbLinetypeTableRecord
  2
ByLayer
 70
     0
  3

 72
    65
 73
     0
 40
0.0
  0
LTYPE
  5
16
330
5
100
AcDbSymbolTableRecord
100
AcDbLinetypeTableRecord
  2
Continuous
 70
     0
  3
Solid line
 72
    65
 73
     0
 40
0.0
  0
LTYPE
  5
60
330
5
100
AcDbSymbolTableRecord
100
AcDbLinetypeTableRecord
  2
CENTER2
 70
     0
  3
Center (.5x) ___ _ ___ _ ___ _ ___ _ ___ _ ___
 72
    65
 73
     4
 40
28.575
 49
19.05
 74
     4
 75
     0
340
0
 46
0.0
 50
0.0
 44
0.0
 45
0.0
 49
-3.175
 74
     4
 75
     0
340
0
 46
0.0
 50
0.0
 44
0.0
 45
0.0
 49
3.175
 74
     4
 75
     0
340
0
 46
0.0
 50
0.0
 44
0.0
 45
0.0
 49
-3.175
 74
     4
 75
     0
340
0
 46
0.0
 50
0.0
 44
0.0
 45
0.0
  0
ENDTAB
  0
TABLE
  2
LAYER
  5
2
330
0
100
AcDbSymbolTable
 70
     8
  0
LAYER
  5
10
330
2
100
AcDbSymbolTableRecord
100
AcDbLayerTableRecord
  2
0
 70
     0
 62
     7
  6
Continuous
370
    -3
390
F
  0
LAYER
  5
5D
330
2
100
AcDbSymbolTableRecord
100
AcDbLayerTableRecord
  2
Default
 70
     0
 62
     7
  6
Continuous
370
    -3
390
F
  0
LAYER
  5
77
330
2
100
AcDbSymbolTableRecord
100
AcDbLayerTableRecord
  2
$DDT_AUDIT_GENERATED_(77)
 70
     0
 62
     7
  6
Continuous
370
    -3
390
F
  0
LAYER
  5
93
330
2
100
AcDbSymbolTableRecord
100
AcDbLayerTableRecord
  2
$DDT_AUDIT_GENERATED_(93)
 70
     0
 62
     7
  6
Continuous
370
    -3
390
F
  0
LAYER
  5
98
330
2
100
AcDbSymbolTableRecord
100
AcDbLayerTableRecord
  2
02636038_GEHÄUSE
 70
     0
 62
     7
  6
Continuous
370
    -3
390
F
  0
LAYER
  5
AC
330
2
100
AcDbSymbolTableRecord
100
AcDbLayerTableRecord
  2
$DDT_AUDIT_GENERATED_(AC)
 70
     0
 62
     7
  6
Continuous
370
    -3
390
F
  0
LAYER
  5
174
330
2
100
AcDbSymbolTableRecord
100
AcDbLayerTableRecord
  2
$DDT_AUDIT_GENERATED_(174)
 70
     0
 62
     7
  6
Continuous
370
    -3
390
F
  0
LAYER
  5
176
330
2
100
AcDbSymbolTableRecord
100
AcDbLayerTableRecord
  2
$DDT_AUDIT_GENERATED_(176)
 70
     0
 62
     7
  6
Continuous
370
    -3
390
F
  0
ENDTAB
  0
TABLE
  2
STYLE
  5
3
330
0
100
AcDbSymbolTable
 70
     2
  0
STYLE
  5
11
330
3
100
AcDbSymbolTableRecord
100
AcDbTextStyleTableRecord
  2
Standard
 70
     0
 40
0.0
 41
1.0
 50
0.0
 71
     0
 42
2.5
  3
txt
  4

  0
STYLE
  5
215
330
3
100
AcDbSymbolTableRecord
100
AcDbTextStyleTableRecord
  2
SEACAD_seiso_ttf
 70
     0
 40
0.0
 41
1.0
 50
0.0
 71
     0
 42
0.2
  3
seiso.ttf
  4

  0
ENDTAB
  0
TABLE
  2
VIEW
  5
6
330
0
100
AcDbSymbolTable
 70
     0
  0
ENDTAB
  0
TABLE
  2
UCS
  5
7
330
0
100
AcDbSymbolTable
 70
     0
  0
ENDTAB
  0
TABLE
  2
APPID
  5
9
330
0
100
AcDbSymbolTable
 70
     1
  0
APPID
  5
12
330
9
100
AcDbSymbolTableRecord
100
AcDbRegAppTableRecord
  2
ACAD
 70
     0
  0
ENDTAB
  0
TABLE
  2
DIMSTYLE
  5
A
330
0
100
AcDbSymbolTable
 70
     1
100
AcDbDimStyleTable
  0
DIMSTYLE
105
27
330
A
100
AcDbSymbolTableRecord
100
AcDbDimStyleTableRecord
  2
ISO-25
 70
     0
 41
2.5
 42
0.625
 43
3.75
 44
1.25
 73
     0
 74
     0
 77
     1
 78
     8
140
2.5
141
2.5
143
0.0393700787
147
0.625
171
     3
172
     1
271
     2
272
     2
274
     3
278
    44
283
     0
284
     8
340
11
  0
ENDTAB
  0
TABLE
  2
BLOCK_RECORD
  5
1
330
0
100
AcDbSymbolTable
 70
     7
  0
BLOCK_RECORD
  5
1F
330
1
100
AcDbSymbolTableRecord
100
AcDbBlockTableRecord
  2
*Model_Space
340
22
  0
BLOCK_RECORD
  5
1B
330
1
100
AcDbSymbolTableRecord
100
AcDbBlockTableRecord
  2
*Paper_Space
340
1E
  0
BLOCK_RECORD
  5
5E
330
1
100
AcDbSymbolTableRecord
100
AcDbBlockTableRecord
  2
SEANNOT_GROUP
340
0
102
{BLKREFS
331
5F
102
}
  0
BLOCK_RECORD
  5
65
330
1
100
AcDbSymbolTableRecord
100
AcDbBlockTableRecord
  2
SEANNOT_GROUP1
340
0
102
{BLKREFS
331
66
102
}
  0
BLOCK_RECORD
  5
6B
330
1
100
AcDbSymbolTableRecord
100
AcDbBlockTableRecord
  2
SEANNOT_GROUP2
340
0
102
{BLKREFS
331
6C
102
}
  0
BLOCK_RECORD
  5
75
330
1
100
AcDbSymbolTableRecord
100
AcDbBlockTableRecord
  2
SE
340
0
102
{BLKREFS
331
76
102
}
  0
BLOCK_RECORD
  5
1A6
330
1
100
AcDbSymbolTableRecord
100
AcDbBlockTableRecord
  2
SE1
340
0
102
{BLKREFS
331
1A7
102
}
  0
BLOCK_RECORD
  5
1F5
330
1
100
AcDbSymbolTableRecord
100
AcDbBlockTableRecord
  2
SE2
340
0
102
{BLKREFS
331
1F6
102
}
  0
ENDTAB
  0
ENDSEC
  0
SECTION
  2
BLOCKS
  0
BLOCK
  5
20
330
1F
100
AcDbEntity
  8
0
100
AcDbBlockBegin
  2
*Model_Space
 70
     0
 10
0.0
 20
0.0
 30
0.0
  3
*Model_Space
  1

  0
ENDBLK
  5
21
330
1F
100
AcDbEntity
  8
0
100
AcDbBlockEnd
  0
BLOCK
  5
1C
330
1B
100
AcDbEntity
 67
     1
  8
0
100
AcDbBlockBegin
  2
*Paper_Space
 70
     0
 10
0.0
 20
0.0
 30
0.0
  3
*Paper_Space
  1

  0
ENDBLK
  5
1D
330
1B
100
AcDbEntity
 67
     1
  8
0
100
AcDbBlockEnd
  0
BLOCK
  5
63
330
5E
100
AcDbEntity
  8
0
100
AcDbBlockBegin
  2
SEANNOT_GROUP
 70
     0
 10
0.0
 20
0.0
 30
0.0
  3
SEANNOT_GROUP
  1

  0
LINE
  5
61
330
5E
100
AcDbEntity
  8
Default
  6
CENTER2
 62
     7
100
AcDbLine
 10
83.4470293692
 20
324.2579988049
 30
0.0
 11
43.4470302633
 21
324.2579988049
 31
0.0
  0
LINE
  5
62
330
5E
100
AcDbEntity
  8
Default
  6
CENTER2
 62
     7
100
AcDbLine
 10
63.4470298163
 20
344.2579983578
 30
0.0
 11
63.4470298163
 21
304.2579992519
 31
0.0
  0
ENDBLK
  5
64
330
5E
100
AcDbEntity
  8
0
100
AcDbBlockEnd
  0
BLOCK
  5
69
330
65
100
AcDbEntity
  8
0
100
AcDbBlockBegin
  2
SEANNOT_GROUP1
 70
     0
 10
0.0
 20
0.0
 30
0.0
  3
SEANNOT_GROUP1
  1

  0
LINE
  5
67
330
65
100
AcDbEntity
  8
Default
  6
CENTER2
 62
     7
100
AcDbLine
 10
225.2404191917
 20
324.2579988049
 30
0.0
 11
185.2404200857
 21
324.2579988049
 31
0.0
  0
LINE
  5
68
330
65
100
AcDbEntity
  8
Default
  6
CENTER2
 62
     7
100
AcDbLine
 10
205.2404196387
 20
344.2579983578
 30
0.0
 11
205.2404196387
 21
304.2579992519
 31
0.0
  0
ENDBLK
  5
6A
330
65
100
AcDbEntity
  8
0
100
AcDbBlockEnd
  0
BLOCK
  5
73
330
6B
100
AcDbEntity
  8
0
100
AcDbBlockBegin
  2
SEANNOT_GROUP2
 70
     0
 10
0.0
 20
0.0
 30
0.0
  3
SEANNOT_GROUP2
  1

  0
LINE
  5
6D
330
6B
100
AcDbEntity
  8
Default
  6
CENTER2
 62
     7
100
AcDbLine
 10
63.4470298163
 20
247.8761168155
 30
0.0
 11
63.4470298163
 21
207.8761177096
 31
0.0
  0
LINE
  5
6E
330
6B
100
AcDbEntity
  8
Default
  6
CENTER2
 62
     7
100
AcDbLine
 10
43.4470302633
 20
227.8761172625
 30
0.0
 11
83.4470293692
 21
227.8761172625
 31
0.0
  0
LINE
  5
6F
330
6B
100
AcDbEntity
  8
Default
  6
CENTER2
 62
     7
100
AcDbLine
 10
63.4470298163
 20
252.8761167037
 30
0.0
 11
63.4470298163
 21
257.4754330387
 31
0.0
  0
LINE
  5
70
330
6B
100
AcDbEntity
  8
Default
  6
CENTER2
 62
     7
100
AcDbLine
 10
38.4470303751
 20
227.8761172625
 30
0.0
 11
33.9470298163
 21
227.8761172625
 31
0.0
  0
LINE
  5
71
330
6B
100
AcDbEntity
  8
Default
  6
CENTER2
 62
     7
100
AcDbLine
 10
63.4470298163
 20
202.8761178213
 30
0.0
 11
63.4470298163
 21
198.2768014864
 31
0.0
  0
LINE
  5
72
330
6B
100
AcDbEntity
  8
Default
  6
CENTER2
 62
     7
100
AcDbLine
 10
88.4470292575
 20
227.8761172625
 30
0.0
 11
92.9470298163
 21
227.8761172625
 31
0.0
  0
ENDBLK
  5
74
330
6B
100
AcDbEntity
  8
0
100
AcDbBlockEnd
  0
BLOCK
  5
1A4
330
75
100
AcDbEntity
  8
0
100
AcDbBlockBegin
  2
SE
 70
     0
 10
0.0
 20
0.0
 30
0.0
  3
SE
  1

  0
SPLINE
  5
78
330
75
100
AcDbEntity
  8
$DDT_AUDIT_GENERATED_(77)
  6
Continuous
 62
     7
100
AcDbSpline
210
0.0
220
0.0
230
1.0
 70
     8
 71
     3
 72
    34
 73
    30
 74
     0
 42
0.0000000001026179
 43
0.0000000001
 40
0.0
 40
0.0
 40
0.0
 40
0.0
 40
0.0125015140873694
 40
0.0249893501087584
 40
0.0375041988424477
 40
0.0500864889969105
 40
0.0627760046958239
 40
0.093774067109052
 40
0.1255703094384845
 40
0.1563377364796934
 40
0.1881243469169142
 40
0.2506529822039157
 40
0.312873184464286
 40
0.3753088915741615
 40
0.4372810982680799
 40
0.4997163470507229
 40
0.5619320857689999
 40
0.6244344961765025
 40
0.6868791404974223
 40
0.7493213440031596
 40
0.7802272417080921
 40
0.8118380304860493
 40
0.8431801488813998
 40
0.8746258476657014
 40
0.9059442534229549
 40
0.9211570969437726
 40
0.9374111327935506
 40
0.9673809899763913
 40
1.0
 40
1.0
 40
1.0
 40
1.0
 10
63.44702981627555
 20
347.5980364173289
 30
0.0
 10
63.0113351875498
 20
347.6057207118112
 30
0.0
 10
62.14042262914893
 20
347.621080893291
 30
0.0
 10
60.84089151978468
 20
347.7454841642402
 30
0.0
 10
59.55359179447721
 20
347.9440311712403
 30
0.0
 10
58.28157141079117
 20
348.2239156173687
 30
0.0
 10
56.43078492170846
 20
348.7538362648731
 30
0.0
 10
54.06421567796811
 20
349.7200860889594
 30
0.0
 10
51.41714949682154
 20
351.3225960351788
 30
0.0
 10
49.06449902157971
 20
353.2804247112299
 30
0.0
 10
46.37486845741538
 20
356.2560780537593
 30
0.0
 10
43.77503464724188
 20
360.5679573024796
 30
0.0
 10
41.67046959473994
 20
366.3102300342168
 30
0.0
 10
40.31662272981307
 20
372.419935402099
 30
0.0
 10
39.50412249586466
 20
378.7798211387657
 30
0.0
 10
39.09268218510454
 20
385.268926988509
 30
0.0
 10
39.0104989887201
 20
391.8040193048317
 30
0.0
 10
39.29036109804522
 20
398.2182350510564
 30
0.0
 10
40.12305497036413
 20
404.2562717726591
 30
0.0
 10
41.69822588462043
 20
408.5200600653874
 30
0.0
 10
43.78159216840444
 20
411.0452827781929
 30
0.0
 10
45.77621392227321
 20
412.4615826163432
 30
0.0
 10
48.17606433494813
 20
413.4221733804482
 30
0.0
 10
50.88370994656514
 20
414.0166563523434
 30
0.0
 10
53.32572550063423
 20
414.2978666228158
 30
0.0
 10
55.37434577601091
 20
414.443302179102
 30
0.0
 10
57.42530953047159
 20
414.5428823810846
 30
0.0
 10
60.12722593504959
 20
414.6145744041161
 30
0.0
 10
62.30963741526126
 20
414.6226964589038
 30
0.0
 10
63.44702981627555
 20
414.6269293744103
 30
0.0
  0
LINE
  5
79
330
75
100
AcDbEntity
  8
$DDT_AUDIT_GENERATED_(77)
  6
Continuous
 62
     7
100
AcDbLine
 10
63.4470298163
 20
414.6269293744
 30
0.0
 11
63.4470298163
 21
409.8635971286
 31
0.0
  0
SPLINE
  5
7A
330
75
100
AcDbEntity
  8
$DDT_AUDIT_GENERATED_(77)
  6
Continuous
 62
     7
100
AcDbSpline
210
0.0
220
0.0
230
1.0
 70
     8
 71
     3
 72
    26
 73
    22
 74
     0
 42
0.0000000001447505
 43
0.0000000001
 40
0.0
 40
0.0
 40
0.0
 40
0.0
 40
0.0302347768972671
 40
0.0611716841785693
 40
0.0914657472083283
 40
0.1237299118821817
 40
0.1551119265683548
 40
0.1863606175770863
 40
0.2177369107769692
 40
0.249060550791587
 40
0.2801468786354179
 40
0.3113279986196631
 40
0.3428040825964278
 40
0.3740650260127875
 40
0.4365735419954605
 40
0.4991598787933329
 40
0.5618701303411249
 40
0.6242740377650757
 40
0.6557007498464799
 40
0.6869041997903846
 40
0.7178186523376157
 40
0.7178186523376157
 40
0.7178186523376157
 40
0.7178186523376157
 10
63.44702981627555
 20
409.8635971285657
 30
0.0
 10
62.70758380092338
 20
409.8438440831936
 30
0.0
 10
61.21151990496924
 20
409.8038792752118
 30
0.0
 10
59.00690010703574
 20
409.4846454686178
 30
0.0
 10
56.81651343253647
 20
408.9734420584315
 30
0.0
 10
54.7044089096083
 20
408.2566022623552
 30
0.0
 10
52.68422289539458
 20
407.3389873620322
 30
0.0
 10
50.80462536572375
 20
406.2506927472421
 30
0.0
 10
49.05800215208527
 20
404.9901582143547
 30
0.0
 10
47.45790303350103
 20
403.5598010959583
 30
0.0
 10
46.01628263520384
 20
401.9630301939081
 30
0.0
 10
44.73986411066401
 20
400.1967451816529
 30
0.0
 10
43.65007431252489
 20
398.2632348537593
 30
0.0
 10
42.48678427769041
 20
395.487349028628
 30
0.0
 10
41.63803955357368
 20
391.6930746625572
 30
0.0
 10
41.70340911837094
 20
387.1025536439583
 30
0.0
 10
42.66227062937571
 20
382.9137252056173
 30
0.0
 10
43.98198614887649
 20
379.8452631001678
 30
0.0
 10
45.2713413625428
 20
377.6354220834315
 30
0.0
 10
46.34221446020607
 20
376.0922403684664
 30
0.0
 10
47.11911092826661
 20
375.1365767888713
 30
0.0
 10
47.52197437184751
 20
374.6773475846775
 30
0.0
  0
SPLINE
  5
7B
330
75
100
AcDbEntity
  8
$DDT_AUDIT_GENERATED_(77)
  6
Continuous
 62
     7
100
AcDbSpline
210
0.0
220
0.0
230
1.0
 70
     8
 71
     3
 72
    17
 73
    13
 74
     0
 42
0.0000000003493965
 43
0.0000000001
 40
0.4822587688832287
 40
0.4822587688832287
 40
0.4822587688832287
 40
0.4822587688832287
 40
0.5
 40
0.5625
 40
0.625
 40
0.6875
 40
0.75
 40
0.8125
 40
0.875
 40
0.90625
 40
0.9375
 40
1.0
 40
1.0
 40
1.0
 40
1.0
 10
63.44725430410557
 20
362.4161920154842
 30
0.0
 10
63.44725173996077
 20
362.2826668230992
 30
0.0
 10
63.44724014267449
 20
361.6691203104381
 30
0.0
 10
63.44721951224673
 20
360.5044638385426
 30
0.0
 10
63.44719241282232
 20
358.8521728480978
 30
0.0
 10
63.4471653133979
 20
357.101828107065
 30
0.0
 10
63.44713821397349
 20
355.2757042720966
 30
0.0
 10
63.44711111454908
 20
353.3946171348379
 30
0.0
 10
63.44708853169539
 20
351.7972767993067
 30
0.0
 10
63.44707046541245
 20
350.5097557532612
 30
0.0
 10
63.44705239912951
 20
349.2177562566372
 30
0.0
 10
63.44703884941731
 20
348.2459167035831
 30
0.0
 10
63.44702981627555
 20
347.5980364173289
 30
0.0
  0
SPLINE
  5
7C
330
75
100
AcDbEntity
  8
$DDT_AUDIT_GENERATED_(77)
  6
Continuous
 62
     7
100
AcDbSpline
210
0.0
220
0.0
230
1.0
 70
     8
 71
     3
 72
    68
 73
    64
 74
     0
 42
0.000000000102832
 43
0.0000000001
 40
0.0
 40
0.0
 40
0.0
 40
0.0
 40
0.015625
 40
0.03125
 40
0.046875
 40
0.0625
 40
0.078125
 40
0.09375
 40
0.109375
 40
0.125
 40
0.140625
 40
0.15625
 40
0.1875
 40
0.21875
 40
0.234375
 40
0.25
 40
0.265625
 40
0.28125
 40
0.3125
 40
0.328125
 40
0.34375
 40
0.3515625
 40
0.359375
 40
0.375
 40
0.390625
 40
0.40625
 40
0.4375
 40
0.453125
 40
0.46875
 40
0.484375
 40
0.5
 40
0.515625
 40
0.53125
 40
0.546875
 40
0.5625
 40
0.578125
 40
0.59375
 40
0.609375
 40
0.6171875
 40
0.625
 40
0.640625
 40
0.65625
 40
0.671875
 40
0.6875
 40
0.703125
 40
0.71875
 40
0.7265625
 40
0.734375
 40
0.7421875
 40
0.75
 40
0.765625
 40
0.78125
 40
0.796875
 40
0.8125
 40
0.828125
 40
0.84375
 40
0.859375
 40
0.875
 40
0.90625
 40
0.921875
 40
0.9375
 40
0.96875
 40
1.0
 40
1.0
 40
1.0
 40
1.0
 10
63.44702981627555
 20
347.5980364173289
 30
0.0
 10
64.11033937010882
 20
347.5980815881437
 30
0.0
 10
65.43379113920648
 20
347.6599447232934
 30
0.0
 10
67.38328623178857
 20
347.93488313498
 30
0.0
 10
69.27331424128211
 20
348.384843334449
 30
0.0
 10
71.08323232339227
 20
348.9993517887271
 30
0.0
 10
72.7976077010622
 20
349.7652491728721
 30
0.0
 10
74.4060959470804
 20
350.6681725257044
 30
0.0
 10
75.90144491484573
 20
351.6950317900779
 30
0.0
 10
77.27949402452121
 20
352.8331915165962
 30
0.0
 10
78.5419499666301
 20
354.0679925496148
 30
0.0
 10
80.07537444791024
 20
355.8270024096093
 30
0.0
 10
81.72025115369104
 20
358.2111122811338
 30
0.0
 10
83.04432046267674
 20
360.7772150255132
 30
0.0
 10
83.940178806888
 20
362.9119146005334
 30
0.0
 10
84.5358218115286
 20
364.5463262720753
 30
0.0
 10
85.05886686660814
 20
366.1983266323783
 30
0.0
 10
85.66676718939149
 20
368.4046777547118
 30
0.0
 10
86.15011773697894
 20
370.5871152832898
 30
0.0
 10
86.53211500195215
 20
372.6872317764685
 30
0.0
 10
86.73317004281076
 20
373.9539612791537
 30
0.0
 10
86.87412049645174
 20
374.9329131734895
 30
0.0
 10
87.0024745251966
 20
375.8862792457708
 30
0.0
 10
87.14142215429169
 20
377.0304470076867
 30
0.0
 10
87.2808536241815
 20
378.3378731813142
 30
0.0
 10
87.43647500981514
 20
380.0083384590387
 30
0.0
 10
87.55584604283933
 20
381.59164515677
 30
0.0
 10
87.64883343150215
 20
383.1356978454363
 30
0.0
 10
87.7068208392675
 20
384.286373375431
 30
0.0
 10
87.7544938017501
 20
385.4419479369482
 30
0.0
 10
87.79196246990558
 20
386.6146243852512
 30
0.0
 10
87.8193369946898
 20
387.8166055756031
 30
0.0
 10
87.83532063247904
 20
389.0598864100547
 30
0.0
 10
87.83861663964974
 20
390.3564617906563
 30
0.0
 10
87.82692119744624
 20
391.7172033446197
 30
0.0
 10
87.79739525574115
 20
393.1527876894295
 30
0.0
 10
87.74429808247669
 20
394.6721097118283
 30
0.0
 10
87.67393032097294
 20
396.0138149914965
 30
0.0
 10
87.59671922191475
 20
397.1360489287873
 30
0.0
 10
87.50362147600474
 20
398.2886487034153
 30
0.0
 10
87.35382048024219
 20
399.78218316977
 30
0.0
 10
87.10485432914969
 20
401.6096895394182
 30
0.0
 10
86.7696296166961
 20
403.4245668560066
 30
0.0
 10
86.3329467148041
 20
405.1754820131746
 30
0.0
 10
85.78118726925904
 20
406.8133665604403
 30
0.0
 10
85.21788154511975
 20
408.0462793201272
 30
0.0
 10
84.70763061821349
 20
408.935278696635
 30
0.0
 10
84.29681190158408
 20
409.5500043818122
 30
0.0
 10
83.86099501729625
 20
410.1111182406812
 30
0.0
 10
83.25190161901
 20
410.7877482645007
 30
0.0
 10
82.443302648401
 20
411.5103541382113
 30
0.0
 10
81.41181946634029
 20
412.2103277476033
 30
0.0
 10
80.32628562757765
 20
412.7677105312261
 30
0.0
 10
79.19517742169074
 20
413.2085139689248
 30
0.0
 10
78.02360721833948
 20
413.557212351092
 30
0.0
 10
76.80995748371056
 20
413.8327346113514
 30
0.0
 10
75.55353187608515
 20
414.0493991493798
 30
0.0
 10
73.83242788384288
 20
414.2732484913238
 30
0.0
 10
72.05783813882114
 20
414.4153967063331
 30
0.0
 10
70.25428809117206
 20
414.5063418767535
 30
0.0
 10
68.43828427694186
 20
414.5729748808932
 30
0.0
 10
66.15740042240792
 20
414.6188647091911
 30
0.0
 10
64.34504112249292
 20
414.6271730155856
 30
0.0
 10
63.44702981627555
 20
414.6269293744103
 30
0.0
  0
SPLINE
  5
7D
330
75
100
AcDbEntity
  8
$DDT_AUDIT_GENERATED_(77)
  6
Continuous
 62
     7
100
AcDbSpline
210
0.0
220
0.0
230
1.0
 70
     8
 71
     3
 72
    50
 73
    46
 74
     0
 42
0.0000000001351878
 43
0.0000000001
 40
0.0
 40
0.0
 40
0.0
 40
0.0
 40
0.03125
 40
0.0625
 40
0.078125
 40
0.09375
 40
0.125
 40
0.140625
 40
0.15625
 40
0.171875
 40
0.1875
 40
0.203125
 40
0.21875
 40
0.234375
 40
0.25
 40
0.2578125
 40
0.265625
 40
0.2734375
 40
0.28125
 40
0.296875
 40
0.3125
 40
0.328125
 40
0.34375
 40
0.359375
 40
0.375
 40
0.3828125
 40
0.390625
 40
0.40625
 40
0.421875
 40
0.4375
 40
0.453125
 40
0.46875
 40
0.484375
 40
0.5
 40
0.515625
 40
0.53125
 40
0.546875
 40
0.5625
 40
0.59375
 40
0.609375
 40
0.625
 40
0.640625
 40
0.6484375
 40
0.65625
 40
0.6689969387411441
 40
0.6689969387411441
 40
0.6689969387411441
 40
0.6689969387411441
 10
63.44702981627555
 20
409.8635971285657
 30
0.0
 10
64.34651643225573
 20
409.8635781085298
 30
0.0
 10
66.13372451241861
 20
409.7620604404781
 30
0.0
 10
68.29310114851612
 20
409.4005440260069
 30
0.0
 10
69.95469352992711
 20
408.9817262725088
 30
0.0
 10
71.56706809119501
 20
408.4798374341478
 30
0.0
 10
73.09906670006197
 20
407.860800853188
 30
0.0
 10
74.54242200902331
 20
407.1362817210256
 30
0.0
 10
75.57923540659861
 20
406.5423943362435
 30
0.0
 10
76.57033963504655
 20
405.8995754730903
 30
0.0
 10
77.50900746523605
 20
405.2138238744137
 30
0.0
 10
78.38684489479019
 20
404.4945016275332
 30
0.0
 10
79.19754376050045
 20
403.7524070051862
 30
0.0
 10
79.93642005784389
 20
402.999948500906
 30
0.0
 10
80.4894526192162
 20
402.3754305035746
 30
0.0
 10
80.89334310620893
 20
401.8845221306423
 30
0.0
 10
81.17680940164945
 20
401.5227816697483
 30
0.0
 10
81.44291651291519
 20
401.1666226116928
 30
0.0
 10
81.77738925517563
 20
400.6974157791248
 30
0.0
 10
82.16230587195663
 20
400.1178991158167
 30
0.0
 10
82.58475149169314
 20
399.4199113377275
 30
0.0
 10
82.97863325456484
 20
398.7034674974788
 30
0.0
 10
83.3519809655286
 20
397.9505792789013
 30
0.0
 10
83.70954537450845
 20
397.1413644752909
 30
0.0
 10
83.9950627492273
 20
396.4022823240909
 30
0.0
 10
84.2138649260984
 20
395.7608432334098
 30
0.0
 10
84.42469986065714
 20
395.0829736814967
 30
0.0
 10
84.6675550169654
 20
394.1714780659707
 30
0.0
 10
84.90972805972355
 20
392.9848889658356
 30
0.0
 10
85.08670953701784
 20
391.7195737538669
 30
0.0
 10
85.18304862012229
 20
390.3937959009618
 30
0.0
 10
85.191056906183
 20
389.028812889283
 30
0.0
 10
85.1070754068983
 20
387.6464335877432
 30
0.0
 10
84.93094021121524
 20
386.2680942136496
 30
0.0
 10
84.66719398629479
 20
384.9128267743267
 30
0.0
 10
84.32440955177938
 20
383.5946013265122
 30
0.0
 10
83.91170350051705
 20
382.3251998911458
 30
0.0
 10
83.2802283003747
 20
380.7092548993789
 30
0.0
 10
82.5456883976912
 20
379.2214806298738
 30
0.0
 10
81.7527239760025
 20
377.8716420972204
 30
0.0
 10
81.13719807268693
 20
376.9308363241769
 30
0.0
 10
80.61463480363099
 20
376.2070521352995
 30
0.0
 10
80.19589055326435
 20
375.6645387403462
 30
0.0
 10
79.81628796829732
 20
375.1935061674189
 30
0.0
 10
79.54176498412352
 20
374.8710263331956
 30
0.0
 10
79.37180733493994
 20
374.6775470427702
 30
0.0
  0
LINE
  5
7E
330
75
100
AcDbEntity
  8
$DDT_AUDIT_GENERATED_(77)
  6
Continuous
 62
     7
100
AcDbLine
 10
63.4470298163
 20
388.6887098058
 30
0.0
 11
63.4470298163
 21
409.8635971286
 31
0.0
  0
SPLINE
  5
7F
330
75
100
AcDbEntity
  8
$DDT_AUDIT_GENERATED_(77)
  6
Continuous
 62
     7
100
AcDbSpline
210
0.0
220
0.0
230
1.0
 70
     8
 71
     3
 72
    10
 73
     6
 74
     0
 42
0.0000000002664204
 43
0.0000000001
 40
0.354405949505558
 40
0.354405949505558
 40
0.354405949505558
 40
0.354405949505558
 40
0.3750000000000005
 40
0.3750000000000005
 40
0.4048327098068369
 40
0.4048327098068369
 40
0.4048327098068369
 40
0.4048327098068369
 10
78.21080090026588
 20
371.8938716497743
 30
0.0
 10
78.3287032058489
 20
372.1307691181343
 30
0.0
 10
78.43703429010368
 20
372.3688552431207
 30
0.0
 10
78.67952650309732
 20
372.9544775026946
 30
0.0
 10
78.80303382782152
 20
373.3029001343187
 30
0.0
 10
78.90706799364983
 20
373.6507303951734
 30
0.0
  0
SPLINE
  5
80
330
75
100
AcDbEntity
  8
$DDT_AUDIT_GENERATED_(77)
  6
Continuous
 62
     7
100
AcDbSpline
210
0.0
220
0.0
230
1.0
 70
     8
 71
     3
 72
    22
 73
    18
 74
     0
 42
0.0000000002364055
 43
0.0000000001
 40
0.4048327098068369
 40
0.4048327098068369
 40
0.4048327098068369
 40
0.4048327098068369
 40
0.4375000000000006
 40
0.4375000000000006
 40
0.5000000000000007
 40
0.5000000000000007
 40
0.6250000000000009
 40
0.6250000000000009
 40
0.6875000000000008
 40
0.6875000000000008
 40
0.7500000000000006
 40
0.7500000000000006
 40
0.8125000000000003
 40
0.8125000000000003
 40
0.8750000000000001
 40
0.8750000000000001
 40
1.0
 40
1.0
 40
1.0
 40
1.0
 10
78.90706799364983
 20
373.6507303951734
 30
0.0
 10
79.02098705454377
 20
374.0316100451574
 30
0.0
 10
79.11155663499325
 20
374.4117794072127
 30
0.0
 10
79.30921657331724
 20
375.5074456558878
 30
0.0
 10
79.35866480526465
 20
376.2185335205886
 30
0.0
 10
79.27812549250251
 20
378.3316799390478
 30
0.0
 10
78.91098663794915
 20
379.7223729378615
 30
0.0
 10
77.92293742200579
 20
381.6685734019841
 30
0.0
 10
77.51901699054041
 20
382.2985511365605
 30
0.0
 10
76.54798876580786
 20
383.5166247027638
 30
0.0
 10
75.97548583968306
 20
384.1108208984072
 30
0.0
 10
74.6642758962077
 20
385.2288386201097
 30
0.0
 10
73.92837385270963
 20
385.7519484251631
 30
0.0
 10
72.26445372897663
 20
386.710821639858
 30
0.0
 10
71.33434377144121
 20
387.1466220997304
 30
0.0
 10
68.316551379932
 20
388.2391913154007
 30
0.0
 10
65.91078043424362
 20
388.6889075360037
 30
0.0
 10
63.44702981627555
 20
388.6887098057877
 30
0.0
  0
SPLINE
  5
81
330
75
100
AcDbEntity
  8
$DDT_AUDIT_GENERATED_(77)
  6
Continuous
 62
     7
100
AcDbSpline
210
0.0
220
0.0
230
1.0
 70
     8
 71
     3
 72
    16
 73
    12
 74
     0
 42
0.0000000002355984
 43
0.0000000001
 40
0.0
 40
0.0
 40
0.0
 40
0.0
 40
0.125
 40
0.125
 40
0.25
 40
0.25
 40
0.375
 40
0.375
 40
0.5
 40
0.5
 40
0.5926858574311692
 40
0.5926858574311692
 40
0.5926858574311692
 40
0.5926858574311692
 10
63.44702981627555
 20
388.6887098057877
 30
0.0
 10
60.98345216434017
 20
388.6884998023127
 30
0.0
 10
58.60819245661293
 20
388.247673864172
 30
0.0
 10
54.55085584109058
 20
386.7816320065792
 30
0.0
 10
52.89217895970135
 20
385.7903263862428
 30
0.0
 10
50.26910797816859
 20
383.5557114950035
 30
0.0
 10
49.31293288724432
 20
382.337124746813
 30
0.0
 10
47.97540319874638
 20
379.7042966874198
 30
0.0
 10
47.61727366849041
 20
378.3406757615103
 30
0.0
 10
47.52301017138527
 20
375.8676168119173
 30
0.0
 10
47.65193770487986
 20
374.794754273072
 30
0.0
 10
47.96527910102582
 20
373.7219765528527
 30
0.0
  0
SPLINE
  5
82
330
75
100
AcDbEntity
  8
$DDT_AUDIT_GENERATED_(77)
  6
Continuous
 62
     7
100
AcDbSpline
210
0.0
220
0.0
230
1.0
 70
     8
 71
     3
 72
    10
 73
     6
 74
     0
 42
0.0000000002690277
 43
0.0000000001
 40
0.5926858574311692
 40
0.5926858574311692
 40
0.5926858574311692
 40
0.5926858574311692
 40
0.625
 40
0.625
 40
0.6397549183386155
 40
0.6397549183386155
 40
0.6397549183386155
 40
0.6397549183386155
 10
47.96527910102582
 20
373.7219765528527
 30
0.0
 10
48.07452293636818
 20
373.3479616474872
 30
0.0
 10
48.20618245047146
 20
372.9739570519056
 30
0.0
 10
48.43155729816921
 20
372.4304266234162
 30
0.0
 10
48.50725266192857
 20
372.2599487555797
 30
0.0
 10
48.58803711783516
 20
372.0896112242805
 30
0.0
  0
ELLIPSE
  5
83
330
75
100
AcDbEntity
  8
$DDT_AUDIT_GENERATED_(77)
  6
Continuous
 62
     7
100
AcDbEllipse
 10
63.4470298163
 20
421.1427900444
 30
0.0
 11
-25.5
 21
0.0
 31
0.0
210
0.0
220
0.0
230
1.0
 40
0.0871557427
 41
0.7114061755320651
 42
2.383166527480395
  0
LINE
  5
84
330
75
100
AcDbEntity
  8
$DDT_AUDIT_GENERATED_(77)
  6
Continuous
 62
     7
100
AcDbLine
 10
89.4470298163
 20
324.2579988049
 30
0.0
 11
37.4470298163
 21
324.2579988049
 31
0.0
  0
SPLINE
  5
85
330
75
100
AcDbEntity
  8
$DDT_AUDIT_GENERATED_(77)
  6
Continuous
 62
     7
100
AcDbSpline
210
0.0
220
0.0
230
1.0
 70
     8
 71
     3
 72
     8
 73
     4
 74
     0
 42
0.0000000002257017
 43
0.0000000001
 40
0.0
 40
0.0
 40
0.0
 40
0.0
 40
0.0421939680309247
 40
0.0421939680309247
 40
0.0421939680309247
 40
0.0421939680309247
 10
75.69702981627555
 20
374.0807777602108
 30
0.0
 10
75.69702981627553
 20
373.4997757940226
 30
0.0
 10
75.55055479531207
 20
372.8973603581262
 30
0.0
 10
75.26511987315263
 20
372.2928740511311
 30
0.0
  0
SPLINE
  5
86
330
75
100
AcDbEntity
  8
$DDT_AUDIT_GENERATED_(77)
  6
Continuous
 62
     7
100
AcDbSpline
210
0.0
220
0.0
230
1.0
 70
     8
 71
     3
 72
    24
 73
    20
 74
     0
 42
0.0000000001740976
 43
0.0000000001
 40
0.4564095134350258
 40
0.4564095134350258
 40
0.4564095134350258
 40
0.4564095134350258
 40
0.4999999999999994
 40
0.4999999999999994
 40
0.5624999999999996
 40
0.5624999999999996
 40
0.6249999999999996
 40
0.6249999999999996
 40
0.6874999999999997
 40
0.6874999999999997
 40
0.7499999999999998
 40
0.7499999999999998
 40
0.8124999999999999
 40
0.8124999999999999
 40
0.8749999999999999
 40
0.8749999999999999
 40
0.9375
 40
0.9375
 40
1.0
 40
1.0
 40
1.0
 40
1.0
 10
51.63328117714919
 20
372.28070067079
 30
0.0
 10
51.33744701436271
 20
372.9066359909845
 30
0.0
 10
51.18941434511345
 20
373.5309881792083
 30
0.0
 10
51.20870062988782
 20
374.9680636126774
 30
0.0
 10
51.5419138955333
 20
375.7587928548078
 30
0.0
 10
52.77814546941814
 20
377.1091252766923
 30
0.0
 10
53.68845839756055
 20
377.6825166703254
 30
0.0
 10
55.94808284558383
 20
378.592040003586
 30
0.0
 10
57.29399449890732
 20
378.9311066504197
 30
0.0
 10
60.27142839675266
 20
379.3847050783693
 30
0.0
 10
61.86702460151671
 20
379.4950374150351
 30
0.0
 10
65.102684926109
 20
379.4921877356024
 30
0.0
 10
66.70432987041349
 20
379.3776483814706
 30
0.0
 10
69.65463389081751
 20
378.9212662852033
 30
0.0
 10
71.00850970306863
 20
378.5761582395795
 30
0.0
 10
73.24622145395068
 20
377.6640946237124
 30
0.0
 10
74.15199037716746
 20
377.0863923802909
 30
0.0
 10
75.37074980377459
 20
375.7311689273695
 30
0.0
 10
75.69702981627555
 20
374.9413894680299
 30
0.0
 10
75.69702981627555
 20
374.0807777602108
 30
0.0
  0
ELLIPSE
  5
87
330
75
100
AcDbEntity
  8
$DDT_AUDIT_GENERATED_(77)
  6
Continuous
 62
     7
100
AcDbEllipse
 10
63.4470298163
 20
375.7579988049
 30
0.0
 11
12.25
 21
0.0
 31
0.0
210
0.0
220
0.0
230
1.0
 40
0.5735764364
 41
6.011296250066769
 42
6.155114816475797
  0
ELLIPSE
  5
88
330
75
100
AcDbEntity
  8
$DDT_AUDIT_GENERATED_(77)
  6
Continuous
 62
     7
100
AcDbEllipse
 10
63.4470298163
 20
375.7579988049
 30
0.0
 11
12.25
 21
0.0
 31
0.0
210
0.0
220
0.0
230
1.0
 40
0.5735764364
 41
3.269608325318241
 42
3.413481710702608
  0
ELLIPSE
  5
89
330
75
100
AcDbEntity
  8
$DDT_AUDIT_GENERATED_(77)
  6
Continuous
 62
     7
100
AcDbEllipse
 10
63.4470298163
 20
375.7579988049
 30
0.0
 11
12.0085
 21
0.0
 31
0.0
210
0.0
220
0.0
230
1.0
 40
0.5735764364
 41
6.09656709125071
 42
6.229052085502874
  0
ELLIPSE
  5
8A
330
75
100
AcDbEntity
  8
$DDT_AUDIT_GENERATED_(77)
  6
Continuous
 62
     7
100
AcDbEllipse
 10
63.4470298163
 20
375.7579988049
 30
0.0
 11
12.0085
 21
0.0
 31
0.0
210
0.0
220
0.0
230
1.0
 40
0.5735764364
 41
3.196216506216607
 42
3.328210869518669
  0
LINE
  5
8B
330
75
100
AcDbEntity
  8
$DDT_AUDIT_GENERATED_(77)
  6
Continuous
 62
     7
100
AcDbLine
 10
89.4470298163
 20
324.2579988049
 30
0.0
 11
89.4470298163
 21
420.6446926953
 31
0.0
  0
LINE
  5
8C
330
75
100
AcDbEntity
  8
$DDT_AUDIT_GENERATED_(77)
  6
Continuous
 62
     7
100
AcDbLine
 10
37.4470298163
 20
420.6446926953
 30
0.0
 11
37.4470298163
 21
324.2579988049
 31
0.0
  0
SPLINE
  5
8D
330
75
100
AcDbEntity
  8
$DDT_AUDIT_GENERATED_(77)
  6
Continuous
 62
     7
100
AcDbSpline
210
0.0
220
0.0
230
1.0
 70
     8
 71
     3
 72
    33
 73
    29
 74
     0
 42
0.0000000018822216
 43
0.0000000001
 40
0.4857957011311536
 40
0.4857957011311536
 40
0.4857957011311536
 40
0.4857957011311536
 40
0.4986134067324887
 40
0.5371906932888363
 40
0.5744890842691869
 40
0.6097510828452248
 40
0.6309014314723546
 40
0.6512809523569772
 40
0.6708675691436536
 40
0.6895860971778052
 40
0.7078475878850643
 40
0.7225742265544665
 40
0.7391309902877083
 40
0.7575155661930039
 40
0.7777254159075717
 40
0.7979964870735796
 40
0.816188016176148
 40
0.8322983035630989
 40
0.8452402269673944
 40
0.8564766839163299
 40
0.8682117699772032
 40
0.881717455778575
 40
0.8969921996073991
 40
0.9140342954003144
 40
0.9437853461776196
 40
0.9713095061891188
 40
0.9966047112919288
 40
1.0
 40
1.0
 40
1.0
 40
1.0
 10
47.1883380960271
 20
375.4020542470053
 30
0.0
 10
47.18834267459791
 20
375.4020210353827
 30
0.0
 10
47.18964794849327
 20
375.3995422355253
 30
0.0
 10
47.20052418748072
 20
375.379098091036
 30
0.0
 10
47.22776934525527
 20
375.3258034062505
 30
0.0
 10
47.26114012633646
 20
375.2581395676755
 30
0.0
 10
47.29484257655609
 20
375.1879411368783
 30
0.0
 10
47.32540455797381
 20
375.1231741811143
 30
0.0
 10
47.35836037537887
 20
375.0521957038185
 30
0.0
 10
47.39329858620811
 20
374.9758073923037
 30
0.0
 10
47.42840975713292
 20
374.8979445355075
 30
0.0
 10
47.46461471662296
 20
374.816637380044
 30
0.0
 10
47.50251658458793
 20
374.7305311820887
 30
0.0
 10
47.54617051104765
 20
374.6301244623635
 30
0.0
 10
47.59423533483043
 20
374.5181246227908
 30
0.0
 10
47.64332688268239
 20
374.4022489155704
 30
0.0
 10
47.69008528811302
 20
374.2906020494706
 30
0.0
 10
47.73162638631883
 20
374.1904372191843
 30
0.0
 10
47.76802468523407
 20
374.1019659387255
 30
0.0
 10
47.80150161848672
 20
374.0200615002354
 30
0.0
 10
47.83675877119083
 20
373.9332664309729
 30
0.0
 10
47.87682934112423
 20
373.833955956362
 30
0.0
 10
47.92301311191099
 20
373.7186399122833
 30
0.0
 10
47.9865050711169
 20
373.558818211496
 30
0.0
 10
48.06394422800415
 20
373.3617438874167
 30
0.0
 10
48.15083885143275
 20
373.1376479146562
 30
0.0
 10
48.21333916535252
 20
372.9751605665725
 30
0.0
 10
48.24343817519686
 20
372.8959819433626
 30
0.0
 10
48.2475859407689
 20
372.8850696485065
 30
0.0
  0
SPLINE
  5
8E
330
75
100
AcDbEntity
  8
$DDT_AUDIT_GENERATED_(77)
  6
Continuous
 62
     7
100
AcDbSpline
210
0.0
220
0.0
230
1.0
 70
     8
 71
     3
 72
    32
 73
    28
 74
     0
 42
0.0000000018827347
 43
0.0000000001
 40
0.0
 40
0.0
 40
0.0
 40
0.0
 40
0.0128609865502336
 40
0.0321873859437246
 40
0.0527573421256886
 40
0.0745729387144151
 40
0.0969864838682619
 40
0.1158684720904286
 40
0.1322027698263104
 40
0.1460016299749104
 40
0.1601541242560263
 40
0.1768201325060969
 40
0.191874469603196
 40
0.2085235733943017
 40
0.2266341922883805
 40
0.2440802282863703
 40
0.2601284417857928
 40
0.274777134605009
 40
0.2880247395711433
 40
0.2998698482247316
 40
0.3238994292717227
 40
0.3494191479382713
 40
0.3763044813188618
 40
0.4143908113688701
 40
0.4549370632654545
 40
0.497356446827844
 40
0.5141311417293953
 40
0.5141311417293953
 40
0.5141311417293953
 40
0.5141311417293953
 10
78.64688809664263
 20
372.8861552234131
 30
0.0
 10
78.66243896773332
 20
372.9269189945044
 30
0.0
 10
78.69538179846359
 20
373.0132386728931
 30
0.0
 10
78.75344276460415
 20
373.1640359530098
 30
0.0
 10
78.81848755424339
 20
373.3316921391939
 30
0.0
 10
78.88627683880331
 20
373.5048000622192
 30
0.0
 10
78.95124364165832
 20
373.6690124951714
 30
0.0
 10
79.00958908775092
 20
373.8149995748932
 30
0.0
 10
79.05815106104696
 20
373.9354102898187
 30
0.0
 10
79.10079672512988
 20
374.0403044811593
 30
0.0
 10
79.14185281702463
 20
374.1405306251245
 30
0.0
 10
79.18268462086554
 20
374.2393776765741
 30
0.0
 10
79.2246383039299
 20
374.3400423544276
 30
0.0
 10
79.26690363251998
 20
374.4405232681901
 30
0.0
 10
79.310312539314
 20
374.5426332769689
 30
0.0
 10
79.35224457389671
 20
374.6401452915446
 30
0.0
 10
79.39030123098384
 20
374.7276477879512
 30
0.0
 10
79.4239555016874
 20
374.8041936315344
 30
0.0
 10
79.45327086933452
 20
374.8701935223575
 30
0.0
 10
79.48784248460575
 20
374.9472957706951
 30
0.0
 10
79.52722585293603
 20
375.0339038032247
 30
0.0
 10
79.57063553899641
 20
375.1275329836375
 30
0.0
 10
79.61475382271757
 20
375.2206931572705
 30
0.0
 10
79.65633021227677
 20
375.3059634202186
 30
0.0
 10
79.6893583261851
 20
375.371130721731
 30
0.0
 10
79.70377799464586
 20
375.3983661635401
 30
0.0
 10
79.70573085114076
 20
375.402039603155
 30
0.0
 10
79.70573394515587
 20
375.4020775421579
 30
0.0
  0
ARC
  5
8F
330
75
100
AcDbEntity
  8
$DDT_AUDIT_GENERATED_(77)
  6
Continuous
 62
     7
100
AcDbCircle
 10
64.0127811949
 20
380.0570247958
 30
0.0
 40
16.37718942936114
100
AcDbArc
 50
309.4075652961
 51
329.9701745248
  0
ARC
  5
90
330
75
100
AcDbEntity
  8
$DDT_AUDIT_GENERATED_(77)
  6
Continuous
 62
     7
100
AcDbCircle
 10
62.8703672127
 20
380.0154735333
 30
0.0
 40
16.33722071634763
100
AcDbArc
 50
209.1554907889
 51
230.5241712304
  0
SPLINE
  5
91
330
75
100
AcDbEntity
  8
$DDT_AUDIT_GENERATED_(77)
  6
Continuous
 62
     7
100
AcDbSpline
210
0.0
220
0.0
230
1.0
 70
     8
 71
     3
 72
    15
 73
    11
 74
     0
 42
0.0000000012219656
 43
0.0000000001
 40
0.7985616736341447
 40
0.7985616736341447
 40
0.7985616736341447
 40
0.7985616736341447
 40
0.8286402347324688
 40
0.8629873878834896
 40
0.8988737733524463
 40
0.9253257213137226
 40
0.9466878689127407
 40
0.9653170698401539
 40
0.9824388422713642
 40
1.0
 40
1.0
 40
1.0
 40
1.0
 10
38.59447042999159
 20
421.6732465639322
 30
0.0
 10
38.5061867426074
 20
421.6434077288848
 30
0.0
 10
38.32796656581044
 20
421.5781506553422
 30
0.0
 10
38.0843585834843
 20
421.4697495807395
 30
0.0
 10
37.88015286775585
 20
421.3521338330099
 30
0.0
 10
37.72159044056551
 20
421.2281353788416
 30
0.0
 10
37.60610415387649
 20
421.1038395087149
 30
0.0
 10
37.52101932059424
 20
420.9705497016866
 30
0.0
 10
37.46004398088941
 20
420.8147017084745
 30
0.0
 10
37.45213633281264
 20
420.7112332865634
 30
0.0
 10
37.4479061771564
 20
420.6483817925492
 30
0.0
  0
SPLINE
  5
92
330
75
100
AcDbEntity
  8
$DDT_AUDIT_GENERATED_(77)
  6
Continuous
 62
     7
100
AcDbSpline
210
0.0
220
0.0
230
1.0
 70
     8
 71
     3
 72
    16
 73
    12
 74
     0
 42
0.0000000012054135
 43
0.0000000001
 40
0.0
 40
0.0
 40
0.0
 40
0.0
 40
0.0112668854840855
 40
0.0283328247940121
 40
0.0457656194310541
 40
0.0646425252015235
 40
0.086363787238754
 40
0.1127677000133955
 40
0.1454013423653402
 40
0.1816302764529641
 40
0.1981744663456017
 40
0.1981744663456017
 40
0.1981744663456017
 40
0.1981744663456017
 10
89.4422872188421
 20
420.6447162075039
 30
0.0
 10
89.44259117830775
 20
420.6856819912717
 30
0.0
 10
89.44262328622558
 20
420.7722824683516
 30
0.0
 10
89.39784127977317
 20
420.9161696035186
 30
0.0
 10
89.32461557577403
 20
421.0527621884349
 30
0.0
 10
89.22684743369767
 20
421.1738880140707
 30
0.0
 10
89.10326505791804
 20
421.2858068776839
 30
0.0
 10
88.94118505851249
 20
421.3968347989767
 30
0.0
 10
88.72784529302464
 20
421.5091574124227
 30
0.0
 10
88.50774147726048
 20
421.6002243460791
 30
0.0
 10
88.35620172261976
 20
421.6540296792089
 30
0.0
 10
88.30712147283137
 20
421.6706957238085
 30
0.0
  0
ELLIPSE
  5
94
330
75
100
AcDbEntity
  8
$DDT_AUDIT_GENERATED_(93)
  6
Continuous
 62
     7
100
AcDbEllipse
 10
63.4470298163
 20
421.1427900444
 30
0.0
 11
25.02159067685345
 21
0.0
 31
0.0
210
0.0
220
0.0
230
1.0
 40
0.0871557427
 41
0.0
 42
0.0283256551128585
  0
ELLIPSE
  5
95
330
75
100
AcDbEntity
  8
$DDT_AUDIT_GENERATED_(93)
  6
Continuous
 62
     7
100
AcDbEllipse
 10
63.4470298163
 20
421.1427900444
 30
0.0
 11
25.02159067685345
 21
0.0
 31
0.0
210
0.0
220
0.0
230
1.0
 40
0.0871557427
 41
3.113266998476954
 42
6.283185307179586
  0
ARC
  5
96
330
75
100
AcDbEntity
  8
$DDT_AUDIT_GENERATED_(93)
  6
Continuous
 62
     7
100
AcDbCircle
 10
63.4470298163
 20
413.0736129898
 30
0.0
 40
26.3
100
AcDbArc
 50
18.0086903629
 51
20.326394611
  0
ARC
  5
97
330
75
100
AcDbEntity
  8
$DDT_AUDIT_GENERATED_(93)
  6
Continuous
 62
     7
100
AcDbCircle
 10
63.4470298163
 20
413.0736129898
 30
0.0
 40
26.3
100
AcDbArc
 50
159.6727400337
 51
161.9913096371
  0
ELLIPSE
  5
99
330
75
100
AcDbEntity
  8
02636038_GEHÄUSE
  6
Continuous
 62
     7
100
AcDbEllipse
 10
63.4470298163
 20
372.5633058321
 30
0.0
 11
10.05000000000001
 21
-6.938893903907228E-15
 31
0.0
210
0.0
220
0.0
230
1.0
 40
0.5735764364
 41
-0.3712052359579481
 42
-0.3480339266541925
  0
ELLIPSE
  5
9A
330
75
100
AcDbEntity
  8
02636038_GEHÄUSE
  6
Continuous
 62
     7
100
AcDbEllipse
 10
63.4470298163
 20
372.5633058321
 30
0.0
 11
10.05000000000001
 21
-6.938893903907228E-15
 31
0.0
210
0.0
220
0.0
230
1.0
 40
0.5735764364
 41
3.489626580243986
 42
3.512797889547742
  0
ELLIPSE
  5
9B
330
75
100
AcDbEntity
  8
02636038_GEHÄUSE
  6
Continuous
 62
     7
100
AcDbEllipse
 10
63.4470298163
 20
368.6313760195
 30
0.0
 11
10.05000000000001
 21
-6.938893903907228E-15
 31
0.0
210
0.0
220
0.0
230
1.0
 40
0.5735764364
 41
0.0
 42
6.283185307179586
  0
ELLIPSE
  5
9C
330
75
100
AcDbEntity
  8
02636038_GEHÄUSE
  6
Continuous
 62
     7
100
AcDbEllipse
 10
63.4470298163
 20
368.6313760195
 30
0.0
 11
10.75000000000001
 21
-6.938893903907228E-15
 31
0.0
210
0.0
220
0.0
230
1.0
 40
0.5735764364
 41
0.0
 42
6.283185307179586
  0
ELLIPSE
  5
9D
330
75
100
AcDbEntity
  8
02636038_GEHÄUSE
  6
Continuous
 62
     7
100
AcDbEllipse
 10
63.4470298163
 20
375.594168396
 30
0.0
 11
11.80000000000001
 21
-6.938893903907228E-15
 31
0.0
210
0.0
220
0.0
230
1.0
 40
0.5735764364
 41
3.121306102022262
 42
3.141592653589794
  0
ELLIPSE
  5
9E
330
75
100
AcDbEntity
  8
02636038_GEHÄUSE
  6
Continuous
 62
     7
100
AcDbEllipse
 10
63.4470298163
 20
375.594168396
 30
0.0
 11
11.80000000000001
 21
-6.938893903907228E-15
 31
0.0
210
0.0
220
0.0
230
1.0
 40
0.5735764364
 41
0.0
 42
0.0257393837954714
  0
LINE
  5
9F
330
75
100
AcDbEntity
  8
02636038_GEHÄUSE
  6
Continuous
 62
     7
100
AcDbLine
 10
74.4470298163
 20
367.4079343081
 30
0.0
 11
74.4470298163
 21
370.3750491496
 31
0.0
  0
ELLIPSE
  5
A0
330
75
100
AcDbEntity
  8
02636038_GEHÄUSE
  6
Continuous
 62
     7
100
AcDbEllipse
 10
63.4470298163
 20
371.0888321524
 30
0.0
 11
-11.79999999999952
 21
0.0
 31
0.0
210
0.0
220
0.0
230
1.0
 40
0.5735764364
 41
2.771250021498069
 42
3.511935285681514
  0
LINE
  5
A1
330
75
100
AcDbEntity
  8
02636038_GEHÄUSE
  6
Continuous
 62
     7
100
AcDbLine
 10
74.4470298163
 20
366.9574356588
 30
0.0
 11
74.4470298163
 21
367.4079343081
 31
0.0
  0
LINE
  5
A2
330
75
100
AcDbEntity
  8
02636038_GEHÄUSE
  6
Continuous
 62
     7
100
AcDbLine
 10
74.4470298163
 20
370.3750491496
 30
0.0
 11
74.4470298163
 21
372.0505464065
 31
0.0
  0
LINE
  5
A3
330
75
100
AcDbEntity
  8
02636038_GEHÄUSE
  6
Continuous
 62
     7
100
AcDbLine
 10
74.4470298163
 20
372.0505464065
 30
0.0
 11
74.4470298163
 21
373.5384803502
 31
0.0
  0
LINE
  5
A4
330
75
100
AcDbEntity
  8
02636038_GEHÄUSE
  6
Continuous
 62
     7
100
AcDbLine
 10
52.4470298163
 20
370.3750491496
 30
0.0
 11
52.4470298163
 21
367.4079343081
 31
0.0
  0
ELLIPSE
  5
A5
330
75
100
AcDbEntity
  8
02636038_GEHÄUSE
  6
Continuous
 62
     7
100
AcDbEllipse
 10
63.4470298163
 20
371.0888321524
 30
0.0
 11
11.79999999999963
 21
-4.163336342344337E-14
 31
0.0
210
0.0
220
0.0
230
1.0
 40
0.5735764364
 41
2.771250021498073
 42
3.511935285681513
  0
LINE
  5
A6
330
75
100
AcDbEntity
  8
02636038_GEHÄUSE
  6
Continuous
 62
     7
100
AcDbLine
 10
52.4470298163
 20
373.5384803502
 30
0.0
 11
52.4470298163
 21
372.0505464065
 31
0.0
  0
LINE
  5
A7
330
75
100
AcDbEntity
  8
02636038_GEHÄUSE
  6
Continuous
 62
     7
100
AcDbLine
 10
52.4470298163
 20
372.0505464065
 30
0.0
 11
52.4470298163
 21
370.3750491496
 31
0.0
  0
LINE
  5
A8
330
75
100
AcDbEntity
  8
02636038_GEHÄUSE
  6
Continuous
 62
     7
100
AcDbLine
 10
52.4470298163
 20
367.4079343081
 30
0.0
 11
52.4470298163
 21
366.9573947895
 31
0.0
  0
SPLINE
  5
A9
330
75
100
AcDbEntity
  8
02636038_GEHÄUSE
  6
Continuous
 62
     7
100
AcDbSpline
210
0.0
220
0.0
230
1.0
 70
     8
 71
     3
 72
    49
 73
    45
 74
     0
 42
0.0000000004039865
 43
0.0000000001
 40
0.0
 40
0.0
 40
0.0
 40
0.0
 40
0.005266417990939
 40
0.0291144008944397
 40
0.0532068589733993
 40
0.0775161482369446
 40
0.1020031470479685
 40
0.1266240414522319
 40
0.151336306814644
 40
0.176102824743553
 40
0.2008938899040497
 40
0.2256829952517646
 40
0.2504559521015868
 40
0.275204978966409
 40
0.299926234575898
 40
0.3246187211283206
 40
0.349283420737185
 40
0.3739226522853442
 40
0.3985396117958053
 40
0.4231380551716967
 40
0.4477220864048366
 40
0.4722960212436156
 40
0.4968643030708628
 40
0.5214314532821076
 40
0.5460014654815208
 40
0.5705779938109367
 40
0.5951656575062548
 40
0.619769068227507
 40
0.6443927871948529
 40
0.6690412517021241
 40
0.6937186536011796
 40
0.7184287470248196
 40
0.743174555374237
 40
0.7679579393112023
 40
0.7927789800670466
 40
0.8176351302995459
 40
0.842520097004304
 40
0.8674224632366814
 40
0.8923168305614589
 40
0.9171738141176091
 40
0.941955597903537
 40
0.9666167932753151
 40
0.9911080808204763
 40
1.0
 40
1.0
 40
1.0
 40
1.0
 10
52.44730665483802
 20
366.9630862133363
 30
0.0
 10
52.46666820071282
 20
366.9302463253587
 30
0.0
 10
52.5585819248309
 20
366.7748335312093
 30
0.0
 10
52.77814322818557
 20
366.4770108291544
 30
0.0
 10
53.09072624255874
 20
366.0990613922467
 30
0.0
 10
53.44614765540526
 20
365.7301285715786
 30
0.0
 10
53.83597468235405
 20
365.3758592290954
 30
0.0
 10
54.2605844532405
 20
365.0366568244356
 30
0.0
 10
54.71764460952312
 20
364.7142036866775
 30
0.0
 10
55.20533091356673
 20
364.4096402002162
 30
0.0
 10
55.72151540117565
 20
364.1240572349366
 30
0.0
 10
56.26407406958229
 20
363.8583528093465
 30
0.0
 10
56.83086128834645
 20
363.6132879226918
 30
0.0
 10
57.41977523993756
 20
363.3894929795006
 30
0.0
 10
58.02871354901067
 20
363.1875132900041
 30
0.0
 10
58.6555607010062
 20
363.0078260235636
 30
0.0
 10
59.2981825529304
 20
362.8508487381188
 30
0.0
 10
59.95442275681309
 20
362.716943787489
 30
0.0
 10
60.62210117158527
 20
362.6064201040453
 30
0.0
 10
61.29901443025179
 20
362.5195333092436
 30
0.0
 10
61.98293838686268
 20
362.4564849622164
 30
0.0
 10
62.67163210941131
 20
362.4174215081158
 30
0.0
 10
63.36284305125071
 20
362.4024333170077
 30
0.0
 10
64.05430764382555
 20
362.4115539985951
 30
0.0
 10
64.74375443583378
 20
362.4447590932911
 30
0.0
 10
65.42892024671367
 20
362.5019656222863
 30
0.0
 10
66.10756274535858
 20
362.5830342122692
 30
0.0
 10
66.77747013751284
 20
362.6877726906758
 30
0.0
 10
67.43645801071851
 20
362.8159380903996
 30
0.0
 10
68.08237404910733
 20
362.9672395379787
 30
0.0
 10
68.71310137151528
 20
363.1413413704012
 30
0.0
 10
69.3265600091951
 20
363.3378660718858
 30
0.0
 10
69.9207061604061
 20
363.5563964886348
 30
0.0
 10
70.49352834574279
 20
363.7964761277566
 30
0.0
 10
71.0430417796777
 20
364.0576072136627
 30
0.0
 10
71.56727509323389
 20
364.3392409575903
 30
0.0
 10
72.0642727605442
 20
364.6407718765463
 30
0.0
 10
72.53198602781397
 20
364.9614500213594
 30
0.0
 10
72.96850202404742
 20
365.3004770667595
 30
0.0
 10
73.3713360353445
 20
365.6565060525314
 30
0.0
 10
73.74020212696465
 20
366.0293238714211
 30
0.0
 10
74.06702403607278
 20
366.4135223210313
 30
0.0
 10
74.30899972042383
 20
366.7362172071267
 30
0.0
 10
74.41545663920101
 20
366.9131738414077
 30
0.0
 10
74.4485541281815
 20
366.968480323004
 30
0.0
  0
LINE
  5
AA
330
75
100
AcDbEntity
  8
02636038_GEHÄUSE
  6
Continuous
 62
     7
100
AcDbLine
 10
51.6470298163
 20
375.594168396
 30
0.0
 11
51.6470298163
 21
371.0888321524
 31
0.0
  0
LINE
  5
AB
330
75
100
AcDbEntity
  8
02636038_GEHÄUSE
  6
Continuous
 62
     7
100
AcDbLine
 10
75.2470298163
 20
371.0888321524
 30
0.0
 11
75.2470298163
 21
375.594168396
 31
0.0
  0
ELLIPSE
  5
AD
330
75
100
AcDbEntity
  8
$DDT_AUDIT_GENERATED_(AC)
  6
Continuous
 62
     7
100
AcDbEllipse
 10
63.4470298163
 20
368.3037152018
 30
0.0
 11
-9.0
 21
-6.938893903907228E-15
 31
0.0
210
0.0
220
0.0
230
1.0
 40
0.5735764364
 41
0.0
 42
6.283185307179586
  0
ELLIPSE
  5
AE
330
75
100
AcDbEntity
  8
$DDT_AUDIT_GENERATED_(AC)
  6
Continuous
 62
     7
100
AcDbEllipse
 10
63.4470298163
 20
370.5154257214
 30
0.0
 11
-9.0
 21
-6.938893903907228E-15
 31
0.0
210
0.0
220
0.0
230
1.0
 40
0.5735764364
 41
6.126726537647883
 42
6.283185307179584
  0
ELLIPSE
  5
AF
330
75
100
AcDbEntity
  8
$DDT_AUDIT_GENERATED_(AC)
  6
Continuous
 62
     7
100
AcDbEllipse
 10
63.4470298163
 20
370.5154257214
 30
0.0
 11
-9.0
 21
-6.938893903907228E-15
 31
0.0
210
0.0
220
0.0
230
1.0
 40
0.5735764364
 41
3.141592653589793
 42
3.298051423121501
  0
ELLIPSE
  5
B0
330
75
100
AcDbEntity
  8
$DDT_AUDIT_GENERATED_(AC)
  6
Continuous
 62
     7
100
AcDbEllipse
 10
63.4470298163
 20
370.8320067736
 30
0.0
 11
9.386474103795877
 21
-1.526556658859590E-13
 31
0.0
210
0.0
220
0.0
230
1.0
 40
0.5735764364
 41
5.995229759036684
 42
6.256548088144099
  0
LINE
  5
B1
330
75
100
AcDbEntity
  8
$DDT_AUDIT_GENERATED_(AC)
  6
Continuous
 62
     7
100
AcDbLine
 10
72.8352249391
 20
370.6886126645
 30
0.0
 11
72.8301740708
 21
370.6886126645
 31
0.0
  0
ELLIPSE
  5
B2
330
75
100
AcDbEntity
  8
$DDT_AUDIT_GENERATED_(AC)
  6
Continuous
 62
     7
100
AcDbEllipse
 10
63.4470298163
 20
370.8320067736
 30
0.0
 11
-9.386474103794528
 21
-3.469446951953614E-14
 31
0.0
210
0.0
220
0.0
230
1.0
 40
0.5735764364
 41
0.0266372190355082
 42
0.2879555481429247
  0
LINE
  5
B3
330
75
100
AcDbEntity
  8
$DDT_AUDIT_GENERATED_(AC)
  6
Continuous
 62
     7
100
AcDbLine
 10
54.0588346934
 20
370.6886126645
 30
0.0
 11
54.0638855618
 21
370.6886126645
 31
0.0
  0
ELLIPSE
  5
B4
330
75
100
AcDbEntity
  8
$DDT_AUDIT_GENERATED_(AC)
  6
Continuous
 62
     7
100
AcDbEllipse
 10
63.4470298163
 20
368.3037152018
 30
0.0
 11
5.250000000000001
 21
0.0
 31
0.0
210
0.0
220
0.0
230
1.0
 40
0.5735764364
 41
0.0
 42
6.283185307179586
  0
ELLIPSE
  5
B5
330
75
100
AcDbEntity
  8
$DDT_AUDIT_GENERATED_(AC)
  6
Continuous
 62
     7
100
AcDbEllipse
 10
63.4470298163
 20
368.3037152018
 30
0.0
 11
-6.249999999999999
 21
0.0
 31
0.0
210
0.0
220
0.0
230
1.0
 40
0.5735764364
 41
0.0
 42
6.283185307179586
  0
ELLIPSE
  5
B6
330
75
100
AcDbEntity
  8
$DDT_AUDIT_GENERATED_(AC)
  6
Continuous
 62
     7
100
AcDbEllipse
 10
63.4470298163
 20
368.3037152018
 30
0.0
 11
2.750000000000002
 21
0.0
 31
0.0
210
0.0
220
0.0
230
1.0
 40
0.5735764364
 41
0.0
 42
6.283185307179586
  0
ELLIPSE
  5
B7
330
75
100
AcDbEntity
  8
$DDT_AUDIT_GENERATED_(AC)
  6
Continuous
 62
     7
100
AcDbEllipse
 10
63.4470298163
 20
368.3037152018
 30
0.0
 11
2.15
 21
0.0
 31
0.0
210
0.0
220
0.0
230
1.0
 40
0.5735764364
 41
0.0
 42
6.283185307179586
  0
ELLIPSE
  5
B8
330
75
100
AcDbEntity
  8
$DDT_AUDIT_GENERATED_(AC)
  6
Continuous
 62
     7
100
AcDbEllipse
 10
63.4470298163
 20
368.4675456107
 30
0.0
 11
0.5196299438963558
 21
0.0
 31
0.0
210
0.0
220
0.0
230
1.0
 40
0.5735764364
 41
0.0
 42
6.283185307179586
  0
ELLIPSE
  5
B9
330
75
100
AcDbEntity
  8
$DDT_AUDIT_GENERATED_(AC)
  6
Continuous
 62
     7
100
AcDbEllipse
 10
63.4470298163
 20
368.3037152018
 30
0.0
 11
-8.699999999999999
 21
0.0
 31
0.0
210
0.0
220
0.0
230
1.0
 40
0.5735764364
 41
0.0
 42
6.283185307179586
  0
ARC
  5
BA
330
75
100
AcDbEntity
  8
$DDT_AUDIT_GENERATED_(AC)
  6
Continuous
 62
     7
100
AcDbCircle
 10
57.7438389326
 20
368.4675456107
 30
0.0
 40
2.796809074821044
100
AcDbArc
 50
178.8248817758
 51
181.1751182242
  0
ARC
  5
BB
330
75
100
AcDbEntity
  8
$DDT_AUDIT_GENERATED_(AC)
  6
Continuous
 62
     7
100
AcDbCircle
 10
59.2537537108
 20
368.4675456107
 30
0.0
 40
2.056723790110734
100
AcDbArc
 50
178.4019356162
 51
180.0
  0
ELLIPSE
  5
BC
330
75
100
AcDbEntity
  8
$DDT_AUDIT_GENERATED_(AC)
  6
Continuous
 62
     7
100
AcDbEllipse
 10
63.4470298162
 20
368.4675456107
 30
0.0
 11
-8.499999999966418
 21
3.282096816548119E-12
 31
0.0
210
0.0
220
0.0
230
1.0
 40
0.5735764364
 41
0.0117649772883196
 42
0.2500344105117792
  0
LINE
  5
BD
330
75
100
AcDbEntity
  8
$DDT_AUDIT_GENERATED_(AC)
  6
Continuous
 62
     7
100
AcDbLine
 10
57.1978298675
 20
368.5249032543
 30
0.0
 11
57.1978298675
 21
369.3686000424
 31
0.0
  0
LINE
  5
BE
330
75
100
AcDbEntity
  8
$DDT_AUDIT_GENERATED_(AC)
  6
Continuous
 62
     7
100
AcDbLine
 10
57.1978298675
 20
368.5249032543
 30
0.0
 11
54.9476180719
 21
368.5249032543
 31
0.0
  0
LINE
  5
BF
330
75
100
AcDbEntity
  8
$DDT_AUDIT_GENERATED_(AC)
  6
Continuous
 62
     7
100
AcDbLine
 10
57.1970298163
 20
368.4101879671
 30
0.0
 11
54.9476180719
 21
368.4101879671
 31
0.0
  0
LINE
  5
C0
330
75
100
AcDbEntity
  8
$DDT_AUDIT_GENERATED_(AC)
  6
Continuous
 62
     7
100
AcDbLine
 10
62.9914913672
 20
368.8135144092
 30
0.0
 11
62.9914913672
 21
369.5089062685
 31
0.0
  0
ELLIPSE
  5
C1
330
75
100
AcDbEntity
  8
$DDT_AUDIT_GENERATED_(AC)
  6
Continuous
 62
     7
100
AcDbEllipse
 10
63.4470298163
 20
368.6701203001
 30
0.0
 11
0.5196299438963538
 21
-2.081668171172169E-14
 31
0.0
210
0.0
220
0.0
230
1.0
 40
0.5735764364
 41
2.639670372565582
 42
3.141592653589672
  0
LINE
  5
C2
330
75
100
AcDbEntity
  8
$DDT_AUDIT_GENERATED_(AC)
  6
Continuous
 62
     7
100
AcDbLine
 10
61.3324782092
 20
368.5267261911
 30
0.0
 11
62.9273998724
 21
368.5267261911
 31
0.0
  0
LINE
  5
C3
330
75
100
AcDbEntity
  8
$DDT_AUDIT_GENERATED_(AC)
  6
Continuous
 62
     7
100
AcDbLine
 10
61.4893473332
 20
368.8135144092
 30
0.0
 11
62.9914913672
 21
368.8135144092
 31
0.0
  0
ELLIPSE
  5
C4
330
75
100
AcDbEntity
  8
$DDT_AUDIT_GENERATED_(AC)
  6
Continuous
 62
     7
100
AcDbEllipse
 10
63.4470298163
 20
368.6701203001
 30
0.0
 11
0.5196299438963473
 21
0.0
 31
0.0
210
0.0
220
0.0
230
1.0
 40
0.5735764364
 41
0.5452752701722429
 42
1.549119832220898
  0
LINE
  5
C5
330
75
100
AcDbEntity
  8
$DDT_AUDIT_GENERATED_(AC)
  6
Continuous
 62
     7
100
AcDbLine
 10
63.4582926899
 20
368.9680977725
 30
0.0
 11
63.4582926899
 21
369.5368876191
 31
0.0
  0
LINE
  5
C6
330
75
100
AcDbEntity
  8
$DDT_AUDIT_GENERATED_(AC)
  6
Continuous
 62
     7
100
AcDbLine
 10
63.9905261625
 20
369.4968523168
 30
0.0
 11
63.4582926899
 21
368.9680977725
 31
0.0
  0
LINE
  5
C7
330
75
100
AcDbEntity
  8
$DDT_AUDIT_GENERATED_(AC)
  6
Continuous
 62
     7
100
AcDbLine
 10
64.4613640274
 20
369.3910361277
 30
0.0
 11
63.8913053918
 21
368.8247036634
 31
0.0
  0
LINE
  5
C8
330
75
100
AcDbEntity
  8
$DDT_AUDIT_GENERATED_(AC)
  6
Continuous
 62
     7
100
AcDbLine
 10
64.7312439924
 20
367.6810885699
 30
0.0
 11
63.964821977
 21
368.4425008906
 31
0.0
  0
LINE
  5
C9
330
75
100
AcDbEntity
  8
$DDT_AUDIT_GENERATED_(AC)
  6
Continuous
 62
     7
100
AcDbLine
 10
64.7312439924
 20
369.2927469321
 30
0.0
 11
64.7312439924
 21
367.6810885699
 31
0.0
  0
LINE
  5
CA
330
75
100
AcDbEntity
  8
$DDT_AUDIT_GENERATED_(AC)
  6
Continuous
 62
     7
100
AcDbLine
 10
64.2982312905
 20
367.5376944608
 30
0.0
 11
63.6406632252
 21
368.190964352
 31
0.0
  0
ELLIPSE
  5
CB
330
75
100
AcDbEntity
  8
$DDT_AUDIT_GENERATED_(AC)
  6
Continuous
 62
     7
100
AcDbEllipse
 10
63.4470298163
 20
368.6701203001
 30
0.0
 11
2.150000000002138
 21
-1.096345236817342E-12
 31
0.0
210
0.0
220
0.0
230
1.0
 40
0.5735764364
 41
-1.163740259645214
 42
-0.9306548427467138
  0
ELLIPSE
  5
CC
330
75
100
AcDbEntity
  8
$DDT_AUDIT_GENERATED_(AC)
  6
Continuous
 62
     7
100
AcDbEllipse
 10
63.4470293272
 20
368.4675456859
 30
0.0
 11
-8.499999510626505
 21
-1.083001952006946E-7
 31
0.0
210
0.0
220
0.0
230
1.0
 40
0.5735764511
 41
-0.2735643801916874
 42
-0.2500344249146513
  0
ELLIPSE
  5
CD
330
75
100
AcDbEntity
  8
$DDT_AUDIT_GENERATED_(AC)
  6
Continuous
 62
     7
100
AcDbEllipse
 10
63.4470298163
 20
368.4675456107
 30
0.0
 11
-8.499999999995847
 21
-3.053113317719180E-13
 31
0.0
210
0.0
220
0.0
230
1.0
 40
0.5735764364
 41
6.033150896668444
 42
6.271420329891512
  0
ELLIPSE
  5
CE
330
75
100
AcDbEntity
  8
$DDT_AUDIT_GENERATED_(AC)
  6
Continuous
 62
     7
100
AcDbEllipse
 10
63.4470298852
 20
368.4675456001
 30
0.0
 11
-6.25000006899708
 21
1.520952114253404E-8
 31
0.0
210
0.0
220
0.0
230
1.0
 40
0.5735764335
 41
-0.2778000676290411
 42
-0.245798702321113
  0
LINE
  5
CF
330
75
100
AcDbEntity
  8
$DDT_AUDIT_GENERATED_(AC)
  6
Continuous
 62
     7
100
AcDbLine
 10
57.4366480966
 20
369.4506582301
 30
0.0
 11
57.4366480966
 21
370.3916797216
 31
0.0
  0
LINE
  5
D0
330
75
100
AcDbEntity
  8
$DDT_AUDIT_GENERATED_(AC)
  6
Continuous
 62
     7
100
AcDbLine
 10
57.4366480966
 20
369.4506582301
 30
0.0
 11
55.2631104087
 21
369.7847078092
 31
0.0
  0
LINE
  5
D1
330
75
100
AcDbEntity
  8
$DDT_AUDIT_GENERATED_(AC)
  6
Continuous
 62
     7
100
AcDbLine
 10
57.3848842876
 20
369.3398517714
 30
0.0
 11
55.2113465996
 21
369.6739013505
 31
0.0
  0
ELLIPSE
  5
D2
330
75
100
AcDbEntity
  8
$DDT_AUDIT_GENERATED_(AC)
  6
Continuous
 62
     7
100
AcDbEllipse
 10
63.4470294068
 20
368.4675457463
 30
0.0
 11
-8.499999586317115
 21
-1.749813904883268E-7
 31
0.0
210
0.0
220
0.0
230
1.0
 40
0.5735764443
 41
-0.5353637770643731
 42
-0.5118338218338137
  0
ELLIPSE
  5
D3
330
75
100
AcDbEntity
  8
$DDT_AUDIT_GENERATED_(AC)
  6
Continuous
 62
     7
100
AcDbEllipse
 10
63.4470298163
 20
368.4675456107
 30
0.0
 11
-8.500000000030482
 21
9.929557176491244E-12
 31
0.0
210
0.0
220
0.0
230
1.0
 40
0.5735764364
 41
5.771351508870972
 42
6.00962094209348
  0
ELLIPSE
  5
D4
330
75
100
AcDbEntity
  8
$DDT_AUDIT_GENERATED_(AC)
  6
Continuous
 62
     7
100
AcDbEllipse
 10
63.4470298663
 20
368.4675455941
 30
0.0
 11
-6.25000005058267
 21
2.141131716371092E-8
 31
0.0
210
0.0
220
0.0
230
1.0
 40
0.573576435
 41
-0.5395994543015892
 42
-0.5075980889589298
  0
LINE
  5
D5
330
75
100
AcDbEntity
  8
$DDT_AUDIT_GENERATED_(AC)
  6
Continuous
 62
     7
100
AcDbLine
 10
58.0850639073
 20
370.3094157055
 30
0.0
 11
58.0850639073
 21
371.4619269511
 31
0.0
  0
LINE
  5
D6
330
75
100
AcDbEntity
  8
$DDT_AUDIT_GENERATED_(AC)
  6
Continuous
 62
     7
100
AcDbLine
 10
58.0850639073
 20
370.3094157055
 30
0.0
 11
56.1363233284
 21
370.9547499369
 31
0.0
  0
LINE
  5
D7
330
75
100
AcDbEntity
  8
$DDT_AUDIT_GENERATED_(AC)
  6
Continuous
 62
     7
100
AcDbLine
 10
57.9850639073
 20
370.2100693525
 30
0.0
 11
56.0363233284
 21
370.8554035839
 31
0.0
  0
ELLIPSE
  5
D8
330
75
100
AcDbEntity
  8
$DDT_AUDIT_GENERATED_(AC)
  6
Continuous
 62
     7
100
AcDbEllipse
 10
63.4470298162
 20
368.4675456107
 30
0.0
 11
-8.499999999973442
 21
-1.353084311261910E-11
 31
0.0
210
0.0
220
0.0
230
1.0
 40
0.5735764364
 41
-0.7637621883337431
 42
-0.535363752888002
  0
ELLIPSE
  5
D9
330
75
100
AcDbEntity
  8
$DDT_AUDIT_GENERATED_(AC)
  6
Continuous
 62
     7
100
AcDbEllipse
 10
63.447029857
 20
368.4675455873
 30
0.0
 11
-6.250000043210171
 21
2.460977949203524E-8
 31
0.0
210
0.0
220
0.0
230
1.0
 40
0.5735764363
 41
-0.8013988415054856
 42
-0.769397476162335
  0
LINE
  5
DA
330
75
100
AcDbEntity
  8
$DDT_AUDIT_GENERATED_(AC)
  6
Continuous
 62
     7
100
AcDbLine
 10
59.0988888336
 20
371.0426527778
 30
0.0
 11
59.0988888336
 21
372.625897003
 31
0.0
  0
LINE
  5
DB
330
75
100
AcDbEntity
  8
$DDT_AUDIT_GENERATED_(AC)
  6
Continuous
 62
     7
100
AcDbLine
 10
59.0988888336
 20
371.0426527778
 30
0.0
 11
57.512433072
 21
371.95260642
 31
0.0
  0
LINE
  5
DC
330
75
100
AcDbEntity
  8
$DDT_AUDIT_GENERATED_(AC)
  6
Continuous
 62
     7
100
AcDbLine
 10
58.9574674774
 20
370.9615368203
 30
0.0
 11
57.3677275146
 21
371.8733742028
 31
0.0
  0
ELLIPSE
  5
DD
330
75
100
AcDbEntity
  8
$DDT_AUDIT_GENERATED_(AC)
  6
Continuous
 62
     7
100
AcDbEllipse
 10
63.4470298451
 20
368.4675455821
 30
0.0
 11
-6.250000035978753
 21
2.131179954734108E-8
 31
0.0
210
0.0
220
0.0
230
1.0
 40
0.5735764377
 41
-1.063198229917151
 42
-1.031196864573884
  0
LINE
  5
DE
330
75
100
AcDbEntity
  8
$DDT_AUDIT_GENERATED_(AC)
  6
Continuous
 62
     7
100
AcDbLine
 10
60.4090323823
 20
371.6004005522
 30
0.0
 11
60.4090323823
 21
372.9797026574
 31
0.0
  0
LINE
  5
DF
330
75
100
AcDbEntity
  8
$DDT_AUDIT_GENERATED_(AC)
  6
Continuous
 62
     7
100
AcDbLine
 10
60.4090323823
 20
371.6004005522
 30
0.0
 11
59.3090081571
 21
372.6932345019
 31
0.0
  0
LINE
  5
E0
330
75
100
AcDbEntity
  8
$DDT_AUDIT_GENERATED_(AC)
  6
Continuous
 62
     7
100
AcDbLine
 10
60.2358273015
 20
371.5430429086
 30
0.0
 11
59.1341611971
 21
372.6375080053
 31
0.0
  0
ELLIPSE
  5
E1
330
75
100
AcDbEntity
  8
$DDT_AUDIT_GENERATED_(AC)
  6
Continuous
 62
     7
100
AcDbEllipse
 10
63.4470298321
 20
368.4675455769
 30
0.0
 11
-6.250000032548098
 21
1.306545843737794E-8
 31
0.0
210
0.0
220
0.0
230
1.0
 40
0.5735764388
 41
-1.324997619240875
 42
-1.292996253906374
  0
LINE
  5
E2
330
75
100
AcDbEntity
  8
$DDT_AUDIT_GENERATED_(AC)
  6
Continuous
 62
     7
100
AcDbLine
 10
61.9262104355
 20
371.9446494397
 30
0.0
 11
61.9262104355
 21
373.2169961461
 31
0.0
  0
LINE
  5
E3
330
75
100
AcDbEntity
  8
$DDT_AUDIT_GENERATED_(AC)
  6
Continuous
 62
     7
100
AcDbLine
 10
61.9262104355
 20
371.9446494397
 30
0.0
 11
61.363754116
 21
373.148652663
 31
0.0
  0
LINE
  5
E4
330
75
100
AcDbEntity
  8
$DDT_AUDIT_GENERATED_(AC)
  6
Continuous
 62
     7
100
AcDbLine
 10
61.7330252702
 20
371.9149589386
 30
0.0
 11
61.1701290539
 21
373.1199038122
 31
0.0
  0
ARC
  5
E5
330
75
100
AcDbEntity
  8
$DDT_AUDIT_GENERATED_(AC)
  6
Continuous
 62
     7
100
AcDbCircle
 10
63.4470298163
 20
361.1567918215
 30
0.0
 40
10.89560653609996
100
AcDbArc
 50
89.4741313047
 51
90.5258686953
  0
LINE
  5
E6
330
75
100
AcDbEntity
  8
$DDT_AUDIT_GENERATED_(AC)
  6
Continuous
 62
     7
100
AcDbLine
 10
63.5470298163
 20
372.0519394474
 30
0.0
 11
63.5470298163
 21
373.2935005456
 31
0.0
  0
LINE
  5
E7
330
75
100
AcDbEntity
  8
$DDT_AUDIT_GENERATED_(AC)
  6
Continuous
 62
     7
100
AcDbLine
 10
63.3470298163
 20
372.0519394474
 30
0.0
 11
63.3470298163
 21
373.2935005456
 31
0.0
  0
ELLIPSE
  5
E8
330
75
100
AcDbEntity
  8
$DDT_AUDIT_GENERATED_(AC)
  6
Continuous
 62
     7
100
AcDbEllipse
 10
63.4470298014
 20
368.4675455787
 30
0.0
 11
6.250000030767026
 21
1.231734853002209E-8
 31
0.0
210
0.0
220
0.0
230
1.0
 40
0.5735764386
 41
1.292996254040766
 42
1.324997619383749
  0
LINE
  5
E9
330
75
100
AcDbEntity
  8
$DDT_AUDIT_GENERATED_(AC)
  6
Continuous
 62
     7
100
AcDbLine
 10
65.1610343623
 20
371.9149589386
 30
0.0
 11
65.7239305786
 21
373.1199038122
 31
0.0
  0
LINE
  5
EA
330
75
100
AcDbEntity
  8
$DDT_AUDIT_GENERATED_(AC)
  6
Continuous
 62
     7
100
AcDbLine
 10
64.967849197
 20
371.9446494397
 30
0.0
 11
65.5303055166
 21
373.148652663
 31
0.0
  0
LINE
  5
EB
330
75
100
AcDbEntity
  8
$DDT_AUDIT_GENERATED_(AC)
  6
Continuous
 62
     7
100
AcDbLine
 10
64.967849197
 20
371.9446494397
 30
0.0
 11
64.967849197
 21
373.2169961461
 31
0.0
  0
ELLIPSE
  5
EC
330
75
100
AcDbEntity
  8
$DDT_AUDIT_GENERATED_(AC)
  6
Continuous
 62
     7
100
AcDbEllipse
 10
63.4470297875
 20
368.4675455821
 30
0.0
 11
6.25000003601013
 21
2.132460874548769E-8
 31
0.0
210
0.0
220
0.0
230
1.0
 40
0.5735764377
 41
1.031196864572285
 42
1.063198229915405
  0
LINE
  5
ED
330
75
100
AcDbEntity
  8
$DDT_AUDIT_GENERATED_(AC)
  6
Continuous
 62
     7
100
AcDbLine
 10
66.6582323311
 20
371.5430429086
 30
0.0
 11
67.7598984354
 21
372.6375080053
 31
0.0
  0
LINE
  5
EE
330
75
100
AcDbEntity
  8
$DDT_AUDIT_GENERATED_(AC)
  6
Continuous
 62
     7
100
AcDbLine
 10
66.4850272503
 20
371.6004005522
 30
0.0
 11
67.5850514755
 21
372.6932345019
 31
0.0
  0
LINE
  5
EF
330
75
100
AcDbEntity
  8
$DDT_AUDIT_GENERATED_(AC)
  6
Continuous
 62
     7
100
AcDbLine
 10
66.4850272503
 20
371.6004005522
 30
0.0
 11
66.4850272503
 21
372.9797026574
 31
0.0
  0
ELLIPSE
  5
F0
330
75
100
AcDbEntity
  8
$DDT_AUDIT_GENERATED_(AC)
  6
Continuous
 62
     7
100
AcDbEllipse
 10
63.4470297755
 20
368.4675455873
 30
0.0
 11
6.250000043226606
 21
2.464634052401493E-8
 31
0.0
210
0.0
220
0.0
230
1.0
 40
0.5735764364
 41
0.7693974761585624
 42
0.8013988415016413
  0
LINE
  5
F1
330
75
100
AcDbEntity
  8
$DDT_AUDIT_GENERATED_(AC)
  6
Continuous
 62
     7
100
AcDbLine
 10
67.9365921552
 20
370.9615368203
 30
0.0
 11
69.5263321179
 21
371.8733742028
 31
0.0
  0
LINE
  5
F2
330
75
100
AcDbEntity
  8
$DDT_AUDIT_GENERATED_(AC)
  6
Continuous
 62
     7
100
AcDbLine
 10
67.7951707989
 20
371.0426527778
 30
0.0
 11
69.3816265606
 21
371.95260642
 31
0.0
  0
LINE
  5
F3
330
75
100
AcDbEntity
  8
$DDT_AUDIT_GENERATED_(AC)
  6
Continuous
 62
     7
100
AcDbLine
 10
67.7951707989
 20
371.0426527778
 30
0.0
 11
67.7951707989
 21
372.625897003
 31
0.0
  0
ELLIPSE
  5
F4
330
75
100
AcDbEntity
  8
$DDT_AUDIT_GENERATED_(AC)
  6
Continuous
 62
     7
100
AcDbEllipse
 10
63.4470302252
 20
368.4675457461
 30
0.0
 11
8.499999586832994
 21
-1.747938252472103E-7
 31
0.0
210
0.0
220
0.0
230
1.0
 40
0.5735764443
 41
0.5118338218070205
 42
0.5353637770367744
  0
ELLIPSE
  5
F5
330
75
100
AcDbEntity
  8
$DDT_AUDIT_GENERATED_(AC)
  6
Continuous
 62
     7
100
AcDbEllipse
 10
63.4470298163
 20
368.4675456107
 30
0.0
 11
8.49999999999886
 21
-8.673617379884035E-13
 31
0.0
210
0.0
220
0.0
230
1.0
 40
0.5735764364
 41
0.5353637528864806
 42
0.7637621883317891
  0
ELLIPSE
  5
F6
330
75
100
AcDbEntity
  8
$DDT_AUDIT_GENERATED_(AC)
  6
Continuous
 62
     7
100
AcDbEllipse
 10
63.4470297545
 20
368.4675455902
 30
0.0
 11
6.250000062436487
 21
2.644125890460813E-8
 31
0.0
210
0.0
220
0.0
230
1.0
 40
0.5735764347
 41
0.5075980880468556
 42
0.5395994533547293
  0
LINE
  5
F7
330
75
100
AcDbEntity
  8
$DDT_AUDIT_GENERATED_(AC)
  6
Continuous
 62
     7
100
AcDbLine
 10
68.9089957253
 20
370.2100693525
 30
0.0
 11
70.8577363041
 21
370.8554035839
 31
0.0
  0
LINE
  5
F8
330
75
100
AcDbEntity
  8
$DDT_AUDIT_GENERATED_(AC)
  6
Continuous
 62
     7
100
AcDbLine
 10
68.8089957253
 20
370.3094157055
 30
0.0
 11
70.7577363041
 21
370.9547499369
 31
0.0
  0
LINE
  5
F9
330
75
100
AcDbEntity
  8
$DDT_AUDIT_GENERATED_(AC)
  6
Continuous
 62
     7
100
AcDbLine
 10
68.8089957253
 20
370.3094157055
 30
0.0
 11
68.8089957253
 21
371.4619269511
 31
0.0
  0
ELLIPSE
  5
FA
330
75
100
AcDbEntity
  8
$DDT_AUDIT_GENERATED_(AC)
  6
Continuous
 62
     7
100
AcDbEllipse
 10
63.4470302718
 20
368.4675456807
 30
0.0
 11
8.499999544183405
 21
-1.008085073750387E-7
 31
0.0
210
0.0
220
0.0
230
1.0
 40
0.5735764501
 41
0.2500344239230559
 42
0.2735643791519969
  0
ELLIPSE
  5
FB
330
75
100
AcDbEntity
  8
$DDT_AUDIT_GENERATED_(AC)
  6
Continuous
 62
     7
100
AcDbEllipse
 10
63.4470298163
 20
368.4675456107
 30
0.0
 11
8.49999999999738
 21
-5.898059818321144E-13
 31
0.0
210
0.0
220
0.0
230
1.0
 40
0.5735764364
 41
0.2735643650873167
 42
0.5118337983103286
  0
ELLIPSE
  5
FC
330
75
100
AcDbEntity
  8
$DDT_AUDIT_GENERATED_(AC)
  6
Continuous
 62
     7
100
AcDbEllipse
 10
63.4470298626
 20
368.4675456178
 30
0.0
 11
6.249999953639036
 21
-1.026103507717480E-8
 31
0.0
210
0.0
220
0.0
230
1.0
 40
0.5735764383
 41
0.2457987068935905
 42
0.2778000725070287
  0
LINE
  5
FD
330
75
100
AcDbEntity
  8
$DDT_AUDIT_GENERATED_(AC)
  6
Continuous
 62
     7
100
AcDbLine
 10
69.509175345
 20
369.3398517714
 30
0.0
 11
71.6827130329
 21
369.6739013505
 31
0.0
  0
LINE
  5
FE
330
75
100
AcDbEntity
  8
$DDT_AUDIT_GENERATED_(AC)
  6
Continuous
 62
     7
100
AcDbLine
 10
69.4574115359
 20
369.4506582301
 30
0.0
 11
71.6309492239
 21
369.7847078092
 31
0.0
  0
LINE
  5
FF
330
75
100
AcDbEntity
  8
$DDT_AUDIT_GENERATED_(AC)
  6
Continuous
 62
     7
100
AcDbLine
 10
69.4574115359
 20
369.4506582301
 30
0.0
 11
69.4574115359
 21
370.3916797216
 31
0.0
  0
ARC
  5
100
330
75
100
AcDbEntity
  8
$DDT_AUDIT_GENERATED_(AC)
  6
Continuous
 62
     7
100
AcDbCircle
 10
69.1502206999
 20
368.4675456107
 30
0.0
 40
2.796809074821044
100
AcDbArc
 50
358.8248817758
 51
1.1751182242
  0
ELLIPSE
  5
101
330
75
100
AcDbEntity
  8
$DDT_AUDIT_GENERATED_(AC)
  6
Continuous
 62
     7
100
AcDbEllipse
 10
63.4470298163
 20
368.4675456107
 30
0.0
 11
8.499999999996446
 21
-6.175615574477433E-13
 31
0.0
210
0.0
220
0.0
230
1.0
 40
0.5735764364
 41
0.011764977288178
 42
0.2500344105111551
  0
ARC
  5
102
330
75
100
AcDbEntity
  8
$DDT_AUDIT_GENERATED_(AC)
  6
Continuous
 62
     7
100
AcDbCircle
 10
67.6403059218
 20
368.4675456107
 30
0.0
 40
2.056723790110734
100
AcDbArc
 50
0.0
 51
1.5980643838
  0
LINE
  5
103
330
75
100
AcDbEntity
  8
$DDT_AUDIT_GENERATED_(AC)
  6
Continuous
 62
     7
100
AcDbLine
 10
69.6970298163
 20
368.4101879671
 30
0.0
 11
71.9464415606
 21
368.4101879671
 31
0.0
  0
LINE
  5
104
330
75
100
AcDbEntity
  8
$DDT_AUDIT_GENERATED_(AC)
  6
Continuous
 62
     7
100
AcDbLine
 10
69.6962297651
 20
368.5249032543
 30
0.0
 11
71.9464415606
 21
368.5249032543
 31
0.0
  0
LINE
  5
105
330
75
100
AcDbEntity
  8
$DDT_AUDIT_GENERATED_(AC)
  6
Continuous
 62
     7
100
AcDbLine
 10
69.6962297651
 20
368.5249032543
 30
0.0
 11
69.6962297651
 21
369.3686000424
 31
0.0
  0
ELLIPSE
  5
106
330
75
100
AcDbEntity
  8
$DDT_AUDIT_GENERATED_(AC)
  6
Continuous
 62
     7
100
AcDbEllipse
 10
63.4470302062
 20
368.4675455509
 30
0.0
 11
8.499999609815562
 21
8.611542728909072E-8
 31
0.0
210
0.0
220
0.0
230
1.0
 40
0.5735764482
 41
-0.2735643771156626
 42
-0.2500344219807804
  0
ELLIPSE
  5
107
330
75
100
AcDbEntity
  8
$DDT_AUDIT_GENERATED_(AC)
  6
Continuous
 62
     7
100
AcDbEllipse
 10
63.4470298162
 20
368.4675456107
 30
0.0
 11
8.500000000026574
 21
-3.136380044566067E-12
 31
0.0
210
0.0
220
0.0
230
1.0
 40
0.5735764364
 41
6.033150896669132
 42
6.271420329891739
  0
LINE
  5
108
330
75
100
AcDbEntity
  8
$DDT_AUDIT_GENERATED_(AC)
  6
Continuous
 62
     7
100
AcDbLine
 10
71.6827130329
 20
367.2611898709
 30
0.0
 11
71.6827130329
 21
368.4101879671
 31
0.0
  0
LINE
  5
109
330
75
100
AcDbEntity
  8
$DDT_AUDIT_GENERATED_(AC)
  6
Continuous
 62
     7
100
AcDbLine
 10
69.5272004119
 20
367.4737071848
 30
0.0
 11
71.6309492239
 21
367.1503834122
 31
0.0
  0
LINE
  5
10A
330
75
100
AcDbEntity
  8
$DDT_AUDIT_GENERATED_(AC)
  6
Continuous
 62
     7
100
AcDbLine
 10
69.5704269293
 20
367.5858257342
 30
0.0
 11
71.6827130329
 21
367.2611898709
 31
0.0
  0
ELLIPSE
  5
10B
330
75
100
AcDbEntity
  8
$DDT_AUDIT_GENERATED_(AC)
  6
Continuous
 62
     7
100
AcDbEllipse
 10
63.4470301952
 20
368.4675454852
 30
0.0
 11
8.4999996171424
 21
1.619423761756167E-7
 31
0.0
210
0.0
220
0.0
230
0.9999999999999999
 40
0.5735764437
 41
-0.535363775264349
 42
-0.5118338200826207
  0
ELLIPSE
  5
10C
330
75
100
AcDbEntity
  8
$DDT_AUDIT_GENERATED_(AC)
  6
Continuous
 62
     7
100
AcDbEllipse
 10
63.4470298163
 20
368.4675456107
 30
0.0
 11
8.500000000022416
 21
-7.327471962526033E-12
 31
0.0
210
0.0
220
0.0
230
1.0
 40
0.5735764364
 41
5.771351508870547
 42
6.009620942093174
  0
LINE
  5
10D
330
75
100
AcDbEntity
  8
$DDT_AUDIT_GENERATED_(AC)
  6
Continuous
 62
     7
100
AcDbLine
 10
70.8577363041
 20
366.0796876375
 30
0.0
 11
70.8577363041
 21
367.2692179978
 31
0.0
  0
LINE
  5
10E
330
75
100
AcDbEntity
  8
$DDT_AUDIT_GENERATED_(AC)
  6
Continuous
 62
     7
100
AcDbLine
 10
68.9318651181
 20
366.5849867623
 30
0.0
 11
70.7577363041
 21
365.9803412845
 31
0.0
  0
LINE
  5
10F
330
75
100
AcDbEntity
  8
$DDT_AUDIT_GENERATED_(AC)
  6
Continuous
 62
     7
100
AcDbLine
 10
69.0250037513
 20
366.6866052878
 30
0.0
 11
70.8577363041
 21
366.0796876375
 31
0.0
  0
ELLIPSE
  5
110
330
75
100
AcDbEntity
  8
$DDT_AUDIT_GENERATED_(AC)
  6
Continuous
 62
     7
100
AcDbEllipse
 10
63.4470301495
 20
368.4675454196
 30
0.0
 11
8.499999646572473
 21
2.014046221465726E-7
 31
0.0
210
0.0
220
0.0
230
1.0
 40
0.5735764364
 41
-0.7971631684632161
 42
-0.7736332132347838
  0
ELLIPSE
  5
111
330
75
100
AcDbEntity
  8
$DDT_AUDIT_GENERATED_(AC)
  6
Continuous
 62
     7
100
AcDbEllipse
 10
63.4470298163
 20
368.4675456107
 30
0.0
 11
8.500000000021737
 21
-1.107447467063594E-11
 31
0.0
210
0.0
220
0.0
230
1.0
 40
0.5735764364
 41
-0.7736331861076602
 42
-0.5353637528850683
  0
LINE
  5
112
330
75
100
AcDbEntity
  8
$DDT_AUDIT_GENERATED_(AC)
  6
Continuous
 62
     7
100
AcDbLine
 10
69.5277321749
 20
365.0609139788
 30
0.0
 11
69.5277321749
 21
366.3876626991
 31
0.0
  0
LINE
  5
113
330
75
100
AcDbEntity
  8
$DDT_AUDIT_GENERATED_(AC)
  6
Continuous
 62
     7
100
AcDbLine
 10
67.9379630819
 20
365.8105361548
 30
0.0
 11
69.3863108187
 21
364.9797980213
 31
0.0
  0
LINE
  5
114
330
75
100
AcDbEntity
  8
$DDT_AUDIT_GENERATED_(AC)
  6
Continuous
 62
     7
100
AcDbLine
 10
68.0748113898
 20
365.8942751051
 30
0.0
 11
69.5277321749
 21
365.0609139788
 31
0.0
  0
ELLIPSE
  5
115
330
75
100
AcDbEntity
  8
$DDT_AUDIT_GENERATED_(AC)
  6
Continuous
 62
     7
100
AcDbEllipse
 10
63.4470300438
 20
368.4675453847
 30
0.0
 11
8.499999715628476
 21
1.684185360617541E-7
 31
0.0
210
0.0
220
0.0
230
1.0
 40
0.5735764287
 41
-1.058962551757906
 42
-1.035432596551973
  0
ELLIPSE
  5
116
330
75
100
AcDbEntity
  8
$DDT_AUDIT_GENERATED_(AC)
  6
Continuous
 62
     7
100
AcDbEllipse
 10
63.4470298163
 20
368.4675456107
 30
0.0
 11
8.500000000023043
 21
-1.406513794321995E-11
 31
0.0
210
0.0
220
0.0
230
1.0
 40
0.5735764364
 41
-1.035432573906371
 42
-0.7971631406838755
  0
LINE
  5
117
330
75
100
AcDbEntity
  8
$DDT_AUDIT_GENERATED_(AC)
  6
Continuous
 62
     7
100
AcDbLine
 10
67.7833382288
 20
364.2742966362
 30
0.0
 11
67.7833382288
 21
365.722052227
 31
0.0
  0
LINE
  5
118
330
75
100
AcDbEntity
  8
$DDT_AUDIT_GENERATED_(AC)
  6
Continuous
 62
     7
100
AcDbLine
 10
66.6090351962
 20
365.2114932975
 30
0.0
 11
67.6101331481
 21
364.2169389926
 31
0.0
  0
LINE
  5
119
330
75
100
AcDbEntity
  8
$DDT_AUDIT_GENERATED_(AC)
  6
Continuous
 62
     7
100
AcDbLine
 10
66.7799543504
 20
365.2711219258
 30
0.0
 11
67.7833382288
 21
364.2742966362
 31
0.0
  0
ELLIPSE
  5
11A
330
75
100
AcDbEntity
  8
$DDT_AUDIT_GENERATED_(AC)
  6
Continuous
 62
     7
100
AcDbEllipse
 10
63.4470299319
 20
368.4675453632
 30
0.0
 11
8.499999761698135
 21
9.548997703667794E-8
 31
0.0
210
0.0
220
0.0
230
1.0
 40
0.5735764233
 41
-1.320761929612829
 42
-1.297231974418389
  0
ELLIPSE
  5
11B
330
75
100
AcDbEntity
  8
$DDT_AUDIT_GENERATED_(AC)
  6
Continuous
 62
     7
100
AcDbEllipse
 10
63.4470298163
 20
368.4675456107
 30
0.0
 11
8.499999999999789
 21
1.734723475976807E-13
 31
0.0
210
0.0
220
0.0
230
1.0
 40
0.5735764364
 41
4.985953345471885
 42
5.224222778694855
  0
LINE
  5
11C
330
75
100
AcDbEntity
  8
$DDT_AUDIT_GENERATED_(AC)
  6
Continuous
 62
     7
100
AcDbLine
 10
65.7434320305
 20
363.7734422815
 30
0.0
 11
65.7434320305
 21
364.9696107016
 31
0.0
  0
LINE
  5
11D
330
75
100
AcDbEntity
  8
$DDT_AUDIT_GENERATED_(AC)
  6
Continuous
 62
     7
100
AcDbLine
 10
65.0394495895
 20
364.8371728072
 30
0.0
 11
65.5502468653
 21
363.7437517804
 31
0.0
  0
LINE
  5
11E
330
75
100
AcDbEntity
  8
$DDT_AUDIT_GENERATED_(AC)
  6
Continuous
 62
     7
100
AcDbLine
 10
65.2320223597
 20
364.8681742111
 30
0.0
 11
65.7434320305
 21
363.7734422815
 31
0.0
  0
ARC
  5
11F
330
75
100
AcDbEntity
  8
$DDT_AUDIT_GENERATED_(AC)
  6
Continuous
 62
     7
100
AcDbCircle
 10
63.4470298163
 20
378.4107554817
 30
0.0
 40
14.8186095877908
100
AcDbArc
 50
269.6133495923
 51
270.3866504077
  0
ELLIPSE
  5
120
330
75
100
AcDbEntity
  8
$DDT_AUDIT_GENERATED_(AC)
  6
Continuous
 62
     7
100
AcDbEllipse
 10
63.4470298163
 20
368.4675456107
 30
0.0
 11
8.499999999998524
 21
4.926614671774132E-13
 31
0.0
210
0.0
220
0.0
230
1.0
 40
0.5735764364
 41
4.724153957672692
 42
4.962423390895697
  0
LINE
  5
121
330
75
100
AcDbEntity
  8
$DDT_AUDIT_GENERATED_(AC)
  6
Continuous
 62
     7
100
AcDbLine
 10
63.3470298163
 20
364.7193213652
 30
0.0
 11
63.3470298163
 21
363.5924833113
 31
0.0
  0
LINE
  5
122
330
75
100
AcDbEntity
  8
$DDT_AUDIT_GENERATED_(AC)
  6
Continuous
 62
     7
100
AcDbLine
 10
63.5470298163
 20
364.7193213652
 30
0.0
 11
63.5470298163
 21
363.5924833113
 31
0.0
  0
ELLIPSE
  5
123
330
75
100
AcDbEntity
  8
$DDT_AUDIT_GENERATED_(AC)
  6
Continuous
 62
     7
100
AcDbEllipse
 10
63.4470296988
 20
368.4675453591
 30
0.0
 11
-8.499999757712299
 21
9.703938347316310E-8
 31
0.0
210
0.0
220
0.0
230
1.0
 40
0.5735764231
 41
1.297231974616916
 42
1.320761929821741
  0
ELLIPSE
  5
124
330
75
100
AcDbEntity
  8
$DDT_AUDIT_GENERATED_(AC)
  6
Continuous
 62
     7
100
AcDbEllipse
 10
63.4470298163
 20
368.4675456107
 30
0.0
 11
-8.499999999994154
 21
1.602884491802570E-12
 31
0.0
210
0.0
220
0.0
230
1.0
 40
0.5735764364
 41
1.320761916283966
 42
1.559031349507096
  0
LINE
  5
125
330
75
100
AcDbEntity
  8
$DDT_AUDIT_GENERATED_(AC)
  6
Continuous
 62
     7
100
AcDbLine
 10
61.150627602
 20
363.7734422815
 30
0.0
 11
61.150627602
 21
364.9696107016
 31
0.0
  0
LINE
  5
126
330
75
100
AcDbEntity
  8
$DDT_AUDIT_GENERATED_(AC)
  6
Continuous
 62
     7
100
AcDbLine
 10
61.6620372728
 20
364.8681742111
 30
0.0
 11
61.150627602
 21
363.7734422815
 31
0.0
  0
LINE
  5
127
330
75
100
AcDbEntity
  8
$DDT_AUDIT_GENERATED_(AC)
  6
Continuous
 62
     7
100
AcDbLine
 10
61.854610043
 20
364.8371728072
 30
0.0
 11
61.3438127673
 21
363.7437517804
 31
0.0
  0
ELLIPSE
  5
128
330
75
100
AcDbEntity
  8
$DDT_AUDIT_GENERATED_(AC)
  6
Continuous
 62
     7
100
AcDbEllipse
 10
63.4470295718
 20
368.4675453678
 30
0.0
 11
-8.499999694411388
 21
1.810127880919055E-7
 31
0.0
210
0.0
220
0.0
230
1.0
 40
0.5735764281
 41
1.035432598244576
 42
1.058962553497474
  0
ELLIPSE
  5
129
330
75
100
AcDbEntity
  8
$DDT_AUDIT_GENERATED_(AC)
  6
Continuous
 62
     7
100
AcDbEllipse
 10
63.4470298163
 20
368.4675456107
 30
0.0
 11
-8.499999999988209
 21
6.258882301324321E-12
 31
0.0
210
0.0
220
0.0
230
1.0
 40
0.5735764364
 41
1.058962528485391
 42
1.297231961708647
  0
LINE
  5
12A
330
75
100
AcDbEntity
  8
$DDT_AUDIT_GENERATED_(AC)
  6
Continuous
 62
     7
100
AcDbLine
 10
59.1107214037
 20
364.2742966362
 30
0.0
 11
59.1107214037
 21
365.722052227
 31
0.0
  0
LINE
  5
12B
330
75
100
AcDbEntity
  8
$DDT_AUDIT_GENERATED_(AC)
  6
Continuous
 62
     7
100
AcDbLine
 10
60.1141052821
 20
365.2711219258
 30
0.0
 11
59.1107214037
 21
364.2742966362
 31
0.0
  0
LINE
  5
12C
330
75
100
AcDbEntity
  8
$DDT_AUDIT_GENERATED_(AC)
  6
Continuous
 62
     7
100
AcDbLine
 10
60.2850244364
 20
365.2114932975
 30
0.0
 11
59.2839264845
 21
364.2169389926
 31
0.0
  0
ELLIPSE
  5
12D
330
75
100
AcDbEntity
  8
$DDT_AUDIT_GENERATED_(AC)
  6
Continuous
 62
     7
100
AcDbEllipse
 10
63.4470294826
 20
368.4675454193
 30
0.0
 11
-8.499999646112579
 21
2.016997888154570E-7
 31
0.0
210
0.0
220
0.0
230
1.0
 40
0.5735764364
 41
0.7736332132727788
 42
0.7971631685020252
  0
ELLIPSE
  5
12E
330
75
100
AcDbEntity
  8
$DDT_AUDIT_GENERATED_(AC)
  6
Continuous
 62
     7
100
AcDbEllipse
 10
63.4470298163
 20
368.4675456107
 30
0.0
 11
-8.500000000022879
 21
-1.360023205165817E-11
 31
0.0
210
0.0
220
0.0
230
1.0
 40
0.5735764364
 41
0.7971631406838858
 42
1.035432573906388
  0
LINE
  5
12F
330
75
100
AcDbEntity
  8
$DDT_AUDIT_GENERATED_(AC)
  6
Continuous
 62
     7
100
AcDbLine
 10
57.3663274576
 20
365.0609139788
 30
0.0
 11
57.3663274576
 21
366.3876626991
 31
0.0
  0
LINE
  5
130
330
75
100
AcDbEntity
  8
$DDT_AUDIT_GENERATED_(AC)
  6
Continuous
 62
     7
100
AcDbLine
 10
58.8192482427
 20
365.8942751051
 30
0.0
 11
57.3663274576
 21
365.0609139788
 31
0.0
  0
LINE
  5
131
330
75
100
AcDbEntity
  8
$DDT_AUDIT_GENERATED_(AC)
  6
Continuous
 62
     7
100
AcDbLine
 10
58.9560965507
 20
365.8105361548
 30
0.0
 11
57.5077488139
 21
364.9797980213
 31
0.0
  0
ELLIPSE
  5
132
330
75
100
AcDbEntity
  8
$DDT_AUDIT_GENERATED_(AC)
  6
Continuous
 62
     7
100
AcDbEllipse
 10
63.4470294663
 20
368.4675454947
 30
0.0
 11
-8.499999646396683
 21
1.496861939953575E-7
 31
0.0
210
0.0
220
0.0
230
1.0
 40
0.5735764432
 41
0.5118338184224527
 42
0.5353637735581206
  0
ELLIPSE
  5
133
330
75
100
AcDbEntity
  8
$DDT_AUDIT_GENERATED_(AC)
  6
Continuous
 62
     7
100
AcDbEllipse
 10
63.4470298162
 20
368.4675456107
 30
0.0
 11
-8.49999999997299
 21
1.378064329315976E-11
 31
0.0
210
0.0
220
0.0
230
1.0
 40
0.5735764364
 41
0.5353637528880458
 42
0.7736331861114739
  0
LINE
  5
134
330
75
100
AcDbEntity
  8
$DDT_AUDIT_GENERATED_(AC)
  6
Continuous
 62
     7
100
AcDbLine
 10
56.0363233284
 20
366.0796876375
 30
0.0
 11
56.0363233284
 21
367.2692179978
 31
0.0
  0
LINE
  5
135
330
75
100
AcDbEntity
  8
$DDT_AUDIT_GENERATED_(AC)
  6
Continuous
 62
     7
100
AcDbLine
 10
57.8690558812
 20
366.6866052878
 30
0.0
 11
56.0363233284
 21
366.0796876375
 31
0.0
  0
LINE
  5
136
330
75
100
AcDbEntity
  8
$DDT_AUDIT_GENERATED_(AC)
  6
Continuous
 62
     7
100
AcDbLine
 10
57.9621945144
 20
366.5849867623
 30
0.0
 11
56.1363233284
 21
365.9803412845
 31
0.0
  0
ELLIPSE
  5
137
330
75
100
AcDbEntity
  8
$DDT_AUDIT_GENERATED_(AC)
  6
Continuous
 62
     7
100
AcDbEllipse
 10
63.4470293604
 20
368.4675455406
 30
0.0
 11
-8.499999543885446
 21
1.008388303413987E-7
 31
0.0
210
0.0
220
0.0
230
1.0
 40
0.5735764501
 41
0.2500344239296839
 42
0.2735643791590068
  0
ELLIPSE
  5
138
330
75
100
AcDbEntity
  8
$DDT_AUDIT_GENERATED_(AC)
  6
Continuous
 62
     7
100
AcDbEllipse
 10
63.4470298163
 20
368.4675456107
 30
0.0
 11
-8.49999999999595
 21
1.061650767297806E-12
 31
0.0
210
0.0
220
0.0
230
1.0
 40
0.5735764364
 41
0.2735643650873665
 42
0.5118337983104007
  0
LINE
  5
139
330
75
100
AcDbEntity
  8
$DDT_AUDIT_GENERATED_(AC)
  6
Continuous
 62
     7
100
AcDbLine
 10
55.2113465996
 20
367.2611898709
 30
0.0
 11
55.2113465996
 21
368.4101879671
 31
0.0
  0
LINE
  5
13A
330
75
100
AcDbEntity
  8
$DDT_AUDIT_GENERATED_(AC)
  6
Continuous
 62
     7
100
AcDbLine
 10
57.3236327033
 20
367.5858257342
 30
0.0
 11
55.2113465996
 21
367.2611898709
 31
0.0
  0
LINE
  5
13B
330
75
100
AcDbEntity
  8
$DDT_AUDIT_GENERATED_(AC)
  6
Continuous
 62
     7
100
AcDbLine
 10
57.3668592206
 20
367.4737071848
 30
0.0
 11
55.2631104087
 21
367.1503834122
 31
0.0
  0
LINE
  5
13C
330
75
100
AcDbEntity
  8
$DDT_AUDIT_GENERATED_(AC)
  6
Continuous
 62
     7
100
AcDbLine
 10
60.7026036467
 20
369.2604706354
 30
0.0
 11
60.7026036467
 21
368.5679214871
 31
0.0
  0
ELLIPSE
  5
13D
330
75
100
AcDbEntity
  8
$DDT_AUDIT_GENERATED_(AC)
  6
Continuous
 62
     7
100
AcDbEllipse
 10
63.4470298163
 20
368.4675456107
 30
0.0
 11
2.749999999997774
 21
1.262878690511115E-12
 31
0.0
210
0.0
220
0.0
230
1.0
 40
0.5735764364
 41
3.077913261332438
 42
3.141592653589786
  0
ARC
  5
13E
330
75
100
AcDbEntity
  8
$DDT_AUDIT_GENERATED_(AC)
  6
Continuous
 62
     7
100
AcDbCircle
 10
59.9261845967
 20
368.4675456107
 30
0.0
 40
1.729153128917033
100
AcDbArc
 50
182.7152900321
 51
183.3278422931
  0
LINE
  5
13F
330
75
100
AcDbEntity
  8
$DDT_AUDIT_GENERATED_(AC)
  6
Continuous
 62
     7
100
AcDbLine
 10
60.7026036467
 20
368.5679214871
 30
0.0
 11
58.2172764406
 21
368.5679214871
 31
0.0
  0
LINE
  5
140
330
75
100
AcDbEntity
  8
$DDT_AUDIT_GENERATED_(AC)
  6
Continuous
 62
     7
100
AcDbLine
 10
60.6970298163
 20
368.3671697343
 30
0.0
 11
58.1999472936
 21
368.3671697343
 31
0.0
  0
LINE
  5
141
330
75
100
AcDbEntity
  8
$DDT_AUDIT_GENERATED_(AC)
  6
Continuous
 62
     7
100
AcDbLine
 10
61.1577870347
 20
370.5410730723
 30
0.0
 11
61.1577870347
 21
369.3415427606
 31
0.0
  0
ELLIPSE
  5
142
330
75
100
AcDbEntity
  8
$DDT_AUDIT_GENERATED_(AC)
  6
Continuous
 62
     7
100
AcDbEllipse
 10
63.4470298163
 20
368.4675456107
 30
0.0
 11
-2.749999999993227
 21
-3.691491556878645E-12
 31
0.0
210
0.0
220
0.0
230
1.0
 40
0.5735764364
 41
-0.5872781678567778
 42
-0.4599193833425712
  0
LINE
  5
143
330
75
100
AcDbEntity
  8
$DDT_AUDIT_GENERATED_(AC)
  6
Continuous
 62
     7
100
AcDbLine
 10
61.1577870347
 20
369.3415427606
 30
0.0
 11
59.1263149414
 21
370.0142739061
 31
0.0
  0
LINE
  5
144
330
75
100
AcDbEntity
  8
$DDT_AUDIT_GENERATED_(AC)
  6
Continuous
 62
     7
100
AcDbLine
 10
60.9827870347
 20
369.1676866429
 30
0.0
 11
58.9370095976
 21
369.8451550675
 31
0.0
  0
LINE
  5
145
330
75
100
AcDbEntity
  8
$DDT_AUDIT_GENERATED_(AC)
  6
Continuous
 62
     7
100
AcDbLine
 10
62.2263711772
 20
371.232467058
 30
0.0
 11
62.2263711772
 21
369.8809772037
 31
0.0
  0
ELLIPSE
  5
146
330
75
100
AcDbEntity
  8
$DDT_AUDIT_GENERATED_(AC)
  6
Continuous
 62
     7
100
AcDbEllipse
 10
63.4470298163
 20
368.4675456106
 30
0.0
 11
-2.750000000075561
 21
4.521383267785950E-11
 31
0.0
210
0.0
220
0.0
230
1.0
 40
0.5735764364
 41
-1.110876943433282
 42
-0.9835181589220499
  0
LINE
  5
147
330
75
100
AcDbEntity
  8
$DDT_AUDIT_GENERATED_(AC)
  6
Continuous
 62
     7
100
AcDbLine
 10
62.2263711772
 20
369.8809772037
 30
0.0
 11
61.1020797433
 21
370.9979197401
 31
0.0
  0
LINE
  5
148
330
75
100
AcDbEntity
  8
$DDT_AUDIT_GENERATED_(AC)
  6
Continuous
 62
     7
100
AcDbLine
 10
61.9232622858
 20
369.7806013273
 30
0.0
 11
60.7942059445
 21
370.9022776256
 31
0.0
  0
ARC
  5
149
330
75
100
AcDbEntity
  8
$DDT_AUDIT_GENERATED_(AC)
  6
Continuous
 62
     7
100
AcDbCircle
 10
63.4470298163
 20
365.2569227818
 30
0.0
 40
4.787960205890678
100
AcDbArc
 50
87.9053720602
 51
92.0946279398
  0
LINE
  5
14A
330
75
100
AcDbEntity
  8
$DDT_AUDIT_GENERATED_(AC)
  6
Continuous
 62
     7
100
AcDbLine
 10
63.6220298163
 20
370.0416837928
 30
0.0
 11
63.6220298163
 21
371.3133180964
 31
0.0
  0
LINE
  5
14B
330
75
100
AcDbEntity
  8
$DDT_AUDIT_GENERATED_(AC)
  6
Continuous
 62
     7
100
AcDbLine
 10
63.2720298163
 20
370.0416837928
 30
0.0
 11
63.2720298163
 21
371.3133180964
 31
0.0
  0
ELLIPSE
  5
14C
330
75
100
AcDbEntity
  8
$DDT_AUDIT_GENERATED_(AC)
  6
Continuous
 62
     7
100
AcDbEllipse
 10
63.4470298163
 20
368.4675456107
 30
0.0
 11
2.749999999992444
 21
-4.871103520542874E-12
 31
0.0
210
0.0
220
0.0
230
1.0
 40
0.5735764364
 41
0.9835181589414832
 42
1.110876943455803
  0
LINE
  5
14D
330
75
100
AcDbEntity
  8
$DDT_AUDIT_GENERATED_(AC)
  6
Continuous
 62
     7
100
AcDbLine
 10
64.6676884554
 20
371.232467058
 30
0.0
 11
64.6676884554
 21
369.8809772037
 31
0.0
  0
LINE
  5
14E
330
75
100
AcDbEntity
  8
$DDT_AUDIT_GENERATED_(AC)
  6
Continuous
 62
     7
100
AcDbLine
 10
64.9707973467
 20
369.7806013273
 30
0.0
 11
66.0998536881
 21
370.9022776256
 31
0.0
  0
LINE
  5
14F
330
75
100
AcDbEntity
  8
$DDT_AUDIT_GENERATED_(AC)
  6
Continuous
 62
     7
100
AcDbLine
 10
64.6676884554
 20
369.8809772037
 30
0.0
 11
65.7919798892
 21
370.9979197401
 31
0.0
  0
ELLIPSE
  5
150
330
75
100
AcDbEntity
  8
$DDT_AUDIT_GENERATED_(AC)
  6
Continuous
 62
     7
100
AcDbEllipse
 10
63.4470298163
 20
368.4675456107
 30
0.0
 11
2.749999999995199
 21
-6.730727086790013E-13
 31
0.0
210
0.0
220
0.0
230
1.0
 40
0.5735764364
 41
0.4599193833417886
 42
0.5872781678559527
  0
LINE
  5
151
330
75
100
AcDbEntity
  8
$DDT_AUDIT_GENERATED_(AC)
  6
Continuous
 62
     7
100
AcDbLine
 10
65.7362725979
 20
370.5410730723
 30
0.0
 11
65.7362725979
 21
369.3415427606
 31
0.0
  0
LINE
  5
152
330
75
100
AcDbEntity
  8
$DDT_AUDIT_GENERATED_(AC)
  6
Continuous
 62
     7
100
AcDbLine
 10
65.9112725979
 20
369.1676866429
 30
0.0
 11
67.957050035
 21
369.8451550675
 31
0.0
  0
LINE
  5
153
330
75
100
AcDbEntity
  8
$DDT_AUDIT_GENERATED_(AC)
  6
Continuous
 62
     7
100
AcDbLine
 10
65.7362725979
 20
369.3415427606
 30
0.0
 11
67.7677446911
 21
370.0142739061
 31
0.0
  0
ELLIPSE
  5
154
330
75
100
AcDbEntity
  8
$DDT_AUDIT_GENERATED_(AC)
  6
Continuous
 62
     7
100
AcDbEllipse
 10
63.4470298163
 20
368.4675456107
 30
0.0
 11
-2.750000000002072
 21
-6.938893903907228E-15
 31
0.0
210
0.0
220
0.0
230
1.0
 40
0.5735764364
 41
3.141592653589793
 42
3.205272045846747
  0
LINE
  5
155
330
75
100
AcDbEntity
  8
$DDT_AUDIT_GENERATED_(AC)
  6
Continuous
 62
     7
100
AcDbLine
 10
66.1914559858
 20
369.2604706354
 30
0.0
 11
66.1914559858
 21
368.5679214871
 31
0.0
  0
ARC
  5
156
330
75
100
AcDbEntity
  8
$DDT_AUDIT_GENERATED_(AC)
  6
Continuous
 62
     7
100
AcDbCircle
 10
66.9678750359
 20
368.4675456107
 30
0.0
 40
1.729153128917179
100
AcDbArc
 50
356.6721577069
 51
357.2847099679
  0
LINE
  5
157
330
75
100
AcDbEntity
  8
$DDT_AUDIT_GENERATED_(AC)
  6
Continuous
 62
     7
100
AcDbLine
 10
66.1970298163
 20
368.3671697343
 30
0.0
 11
68.694112339
 21
368.3671697343
 31
0.0
  0
LINE
  5
158
330
75
100
AcDbEntity
  8
$DDT_AUDIT_GENERATED_(AC)
  6
Continuous
 62
     7
100
AcDbLine
 10
66.1914559858
 20
368.5679214871
 30
0.0
 11
68.6767831919
 21
368.5679214871
 31
0.0
  0
ELLIPSE
  5
159
330
75
100
AcDbEntity
  8
$DDT_AUDIT_GENERATED_(AC)
  6
Continuous
 62
     7
100
AcDbEllipse
 10
63.4470298193
 20
368.4675456097
 30
0.0
 11
5.249999996938229
 21
1.296122931204735E-9
 31
0.0
210
0.0
220
0.0
230
1.0
 40
0.5735764364
 41
-0.5569382851566962
 42
-0.4902592666118775
  0
LINE
  5
15A
330
75
100
AcDbEntity
  8
$DDT_AUDIT_GENERATED_(AC)
  6
Continuous
 62
     7
100
AcDbLine
 10
65.8639562712
 20
367.5512654365
 30
0.0
 11
67.9036365767
 21
366.8758161045
 31
0.0
  0
LINE
  5
15B
330
75
100
AcDbEntity
  8
$DDT_AUDIT_GENERATED_(AC)
  6
Continuous
 62
     7
100
AcDbLine
 10
66.01152414
 20
367.7342058282
 30
0.0
 11
68.0786365767
 21
367.0496722222
 31
0.0
  0
LINE
  5
15C
330
75
100
AcDbEntity
  8
$DDT_AUDIT_GENERATED_(AC)
  6
Continuous
 62
     7
100
AcDbLine
 10
68.0786365767
 20
368.3671697343
 30
0.0
 11
68.0786365767
 21
367.0496722222
 31
0.0
  0
ELLIPSE
  5
15D
330
75
100
AcDbEntity
  8
$DDT_AUDIT_GENERATED_(AC)
  6
Continuous
 62
     7
100
AcDbEllipse
 10
63.4470298161
 20
368.4675456109
 30
0.0
 11
5.250000000269614
 21
-1.568536966978229E-10
 31
0.0
210
0.0
220
0.0
230
1.0
 40
0.5735764364
 41
-1.080537060422484
 42
-1.013858041902658
  0
LINE
  5
15E
330
75
100
AcDbEntity
  8
$DDT_AUDIT_GENERATED_(AC)
  6
Continuous
 62
     7
100
AcDbLine
 10
64.7940624413
 20
366.9285660716
 30
0.0
 11
65.919016632
 21
365.8109651105
 31
0.0
  0
LINE
  5
15F
330
75
100
AcDbEntity
  8
$DDT_AUDIT_GENERATED_(AC)
  6
Continuous
 62
     7
100
AcDbLine
 10
65.0880522543
 20
367.0380014197
 30
0.0
 11
66.2221255233
 21
365.9113409868
 31
0.0
  0
LINE
  5
160
330
75
100
AcDbEntity
  8
$DDT_AUDIT_GENERATED_(AC)
  6
Continuous
 62
     7
100
AcDbLine
 10
66.2221255233
 20
367.4326560734
 30
0.0
 11
66.2221255233
 21
365.9113409868
 31
0.0
  0
ARC
  5
161
330
75
100
AcDbEntity
  8
$DDT_AUDIT_GENERATED_(AC)
  6
Continuous
 62
     7
100
AcDbCircle
 10
63.4470298163
 20
374.6059519266
 30
0.0
 40
9.149682918902332
100
AcDbArc
 50
268.9040742798
 51
271.0959257202
  0
LINE
  5
162
330
75
100
AcDbEntity
  8
$DDT_AUDIT_GENERATED_(AC)
  6
Continuous
 62
     7
100
AcDbLine
 10
63.2720298163
 20
366.7295770197
 30
0.0
 11
63.2720298163
 21
365.4579427161
 31
0.0
  0
LINE
  5
163
330
75
100
AcDbEntity
  8
$DDT_AUDIT_GENERATED_(AC)
  6
Continuous
 62
     7
100
AcDbLine
 10
63.6220298163
 20
366.7295770197
 30
0.0
 11
63.6220298163
 21
365.4579427161
 31
0.0
  0
ELLIPSE
  5
164
330
75
100
AcDbEntity
  8
$DDT_AUDIT_GENERATED_(AC)
  6
Continuous
 62
     7
100
AcDbEllipse
 10
63.4470298152
 20
368.4675456096
 30
0.0
 11
-5.249999998642396
 21
8.047174038239291E-10
 31
0.0
210
0.0
220
0.0
230
1.0
 40
0.5735764363
 41
1.013858042106203
 42
1.080537060642603
  0
LINE
  5
165
330
75
100
AcDbEntity
  8
$DDT_AUDIT_GENERATED_(AC)
  6
Continuous
 62
     7
100
AcDbLine
 10
61.8060073783
 20
367.0380014197
 30
0.0
 11
60.6719341093
 21
365.9113409868
 31
0.0
  0
LINE
  5
166
330
75
100
AcDbEntity
  8
$DDT_AUDIT_GENERATED_(AC)
  6
Continuous
 62
     7
100
AcDbLine
 10
62.0999971913
 20
366.9285660716
 30
0.0
 11
60.9750430006
 21
365.8109651105
 31
0.0
  0
LINE
  5
167
330
75
100
AcDbEntity
  8
$DDT_AUDIT_GENERATED_(AC)
  6
Continuous
 62
     7
100
AcDbLine
 10
60.6719341093
 20
367.4326560734
 30
0.0
 11
60.6719341093
 21
365.9113409868
 31
0.0
  0
ELLIPSE
  5
168
330
75
100
AcDbEntity
  8
$DDT_AUDIT_GENERATED_(AC)
  6
Continuous
 62
     7
100
AcDbEllipse
 10
63.4470298143
 20
368.46754561
 30
0.0
 11
-5.249999998009697
 21
8.389261507701917E-10
 31
0.0
210
0.0
220
0.0
230
1.0
 40
0.5735764364
 41
0.490259266515348
 42
0.5569382850523832
  0
LINE
  5
169
330
75
100
AcDbEntity
  8
$DDT_AUDIT_GENERATED_(AC)
  6
Continuous
 62
     7
100
AcDbLine
 10
60.8825354925
 20
367.7342058282
 30
0.0
 11
58.8154230559
 21
367.0496722222
 31
0.0
  0
LINE
  5
16A
330
75
100
AcDbEntity
  8
$DDT_AUDIT_GENERATED_(AC)
  6
Continuous
 62
     7
100
AcDbLine
 10
61.0301033614
 20
367.5512654365
 30
0.0
 11
58.9904230559
 21
366.8758161045
 31
0.0
  0
LINE
  5
16B
330
75
100
AcDbEntity
  8
$DDT_AUDIT_GENERATED_(AC)
  6
Continuous
 62
     7
100
AcDbLine
 10
58.8154230559
 20
368.3671697343
 30
0.0
 11
58.8154230559
 21
367.0496722222
 31
0.0
  0
LINE
  5
16C
330
75
100
AcDbEntity
  8
$DDT_AUDIT_GENERATED_(AC)
  6
Continuous
 62
     7
100
AcDbLine
 10
54.4470298163
 20
370.5154257214
 30
0.0
 11
54.4470298163
 21
368.3037152018
 31
0.0
  0
LINE
  5
16D
330
75
100
AcDbEntity
  8
$DDT_AUDIT_GENERATED_(AC)
  6
Continuous
 62
     7
100
AcDbLine
 10
72.4470298163
 20
368.3037152018
 30
0.0
 11
72.4470298163
 21
370.5154257214
 31
0.0
  0
LINE
  5
16E
330
75
100
AcDbEntity
  8
$DDT_AUDIT_GENERATED_(AC)
  6
Continuous
 62
     7
100
AcDbLine
 10
57.1970298163
 20
368.4675456107
 30
0.0
 11
57.1970298163
 21
368.3037152018
 31
0.0
  0
LINE
  5
16F
330
75
100
AcDbEntity
  8
$DDT_AUDIT_GENERATED_(AC)
  6
Continuous
 62
     7
100
AcDbLine
 10
69.6970298163
 20
368.3037152018
 30
0.0
 11
69.6970298163
 21
368.4675456107
 31
0.0
  0
LINE
  5
170
330
75
100
AcDbEntity
  8
$DDT_AUDIT_GENERATED_(AC)
  6
Continuous
 62
     7
100
AcDbLine
 10
60.6970298163
 20
368.4675456107
 30
0.0
 11
60.6970298163
 21
368.3037152018
 31
0.0
  0
LINE
  5
171
330
75
100
AcDbEntity
  8
$DDT_AUDIT_GENERATED_(AC)
  6
Continuous
 62
     7
100
AcDbLine
 10
66.1970298163
 20
368.3037152018
 30
0.0
 11
66.1970298163
 21
368.4675456107
 31
0.0
  0
LINE
  5
172
330
75
100
AcDbEntity
  8
$DDT_AUDIT_GENERATED_(AC)
  6
Continuous
 62
     7
100
AcDbLine
 10
62.9273998724
 20
368.6701203001
 30
0.0
 11
62.9273998724
 21
368.4675456107
 31
0.0
  0
LINE
  5
173
330
75
100
AcDbEntity
  8
$DDT_AUDIT_GENERATED_(AC)
  6
Continuous
 62
     7
100
AcDbLine
 10
63.9666597602
 20
368.4675456107
 30
0.0
 11
63.9666597602
 21
368.8995654802
 31
0.0
  0
ELLIPSE
  5
175
330
75
100
AcDbEntity
  8
$DDT_AUDIT_GENERATED_(174)
  6
Continuous
 62
     7
100
AcDbEllipse
 10
63.4470298163
 20
432.9237395562
 30
0.0
 11
0.0
 21
3.450000000000003
 31
0.0
210
0.0
220
0.0
230
1.0
 40
1.0
 41
1.570796326794897
 42
4.71238898038469
  0
SPLINE
  5
177
330
75
100
AcDbEntity
  8
$DDT_AUDIT_GENERATED_(176)
  6
Continuous
 62
     7
100
AcDbSpline
210
0.0
220
0.0
230
1.0
 70
     8
 71
     3
 72
    15
 73
    11
 74
     0
 42
0.0000000004255626
 43
0.0000000001
 40
0.1399443045718218
 40
0.1399443045718218
 40
0.1399443045718218
 40
0.1399443045718218
 40
0.1573284263686617
 40
0.202282008948891
 40
0.3326097408161886
 40
0.462711367890534
 40
0.7339538518913061
 40
0.8991542023975287
 40
0.9885185979308755
 40
1.0
 40
1.0
 40
1.0
 40
1.0
 10
52.95452177785757
 20
439.8016173221035
 30
0.0
 10
52.82713708100441
 20
439.8429048242421
 30
0.0
 10
52.37382748927481
 20
439.9996427453762
 30
0.0
 10
51.00900908815488
 20
440.5525778802336
 30
0.0
 10
49.0057855632317
 20
441.7094625749518
 30
0.0
 10
46.06786877873401
 20
444.4032539432638
 30
0.0
 10
43.90078861205239
 20
448.2999165100665
 30
0.0
 10
42.8442553943482
 20
452.4308153174716
 30
0.0
 10
42.51350295502154
 20
454.5856913620879
 30
0.0
 10
42.41065962016406
 20
455.4068133078497
 30
0.0
 10
42.39913902245844
 20
455.5003494293274
 30
0.0
  0
SPLINE
  5
178
330
75
100
AcDbEntity
  8
$DDT_AUDIT_GENERATED_(176)
  6
Continuous
 62
     7
100
AcDbSpline
210
0.0
220
0.0
230
1.0
 70
     8
 71
     3
 72
    17
 73
    13
 74
     0
 42
0.0000000015463878
 43
0.0000000001
 40
0.0
 40
0.0
 40
0.0
 40
0.0
 40
0.0558460099546557
 40
0.1108651135400902
 40
0.165901555510587
 40
0.325935386996565
 40
0.4790199388577825
 40
0.6317427818694185
 40
0.7068400952529886
 40
0.8052558492040864
 40
0.968989972873293
 40
1.0
 40
1.0
 40
1.0
 40
1.0
 10
69.52702966639721
 20
437.8833203691516
 30
0.0
 10
69.67933865461421
 20
437.908476778032
 30
0.0
 10
69.98170140686038
 20
437.9584171073241
 30
0.0
 10
70.42816981532366
 20
438.0795092724333
 30
0.0
 10
71.13215176966713
 20
438.3285510315865
 30
0.0
 10
72.01674604120905
 20
438.8131876120663
 30
0.0
 10
72.77518571221009
 20
439.6082379202118
 30
0.0
 10
72.90466948387063
 20
440.2715799072632
 30
0.0
 10
72.61967913898278
 20
440.688168665043
 30
0.0
 10
72.18264505536021
 20
441.046041210289
 30
0.0
 10
71.73088218057458
 20
441.3203503384452
 30
0.0
 10
71.42219036612725
 20
441.5018002177879
 30
0.0
 10
71.37303761430162
 20
441.5306944301309
 30
0.0
  0
ARC
  5
179
330
75
100
AcDbEntity
  8
$DDT_AUDIT_GENERATED_(176)
  6
Continuous
 62
     7
100
AcDbCircle
 10
58.2212955181
 20
444.6748631557
 30
0.0
 40
7.114256347859184
100
AcDbArc
 50
196.9027226445
 51
200.8583125533
  0
ELLIPSE
  5
17A
330
75
100
AcDbEntity
  8
$DDT_AUDIT_GENERATED_(176)
  6
Continuous
 62
     7
100
AcDbEllipse
 10
69.1469633618
 20
439.5029676443
 30
0.0
 11
-0.2793241891351763
 21
1.980398444092507
 31
0.0
210
0.0
220
0.0
230
1.0
 40
0.1340286413
 41
3.128357869410769
 42
3.216676886897869
  0
SPLINE
  5
17B
330
75
100
AcDbEntity
  8
$DDT_AUDIT_GENERATED_(176)
  6
Continuous
 62
     7
100
AcDbSpline
210
0.0
220
0.0
230
1.0
 70
     8
 71
     3
 72
    10
 73
     6
 74
     0
 42
0.0000000004127991
 43
0.0000000001
 40
0.1854799905322637
 40
0.1854799905322637
 40
0.1854799905322637
 40
0.1854799905322637
 40
0.1874999999999997
 40
0.1874999999999997
 40
0.2056044857232255
 40
0.2056044857232255
 40
0.2056044857232255
 40
0.2056044857232255
 10
89.17761982590824
 20
456.2588558639282
 30
0.0
 10
89.16511936188343
 20
456.2618842601009
 30
0.0
 10
89.15226474668464
 20
456.2649581726414
 30
0.0
 10
89.02068015274264
 20
456.2960288350866
 30
0.0
 10
88.87479087299673
 20
456.3275288346933
 30
0.0
 10
88.70123351987267
 20
456.3621644475949
 30
0.0
  0
SPLINE
  5
17C
330
75
100
AcDbEntity
  8
$DDT_AUDIT_GENERATED_(176)
  6
Continuous
 62
     7
100
AcDbSpline
210
0.0
220
0.0
230
1.0
 70
     8
 71
     3
 72
    10
 73
     6
 74
     0
 42
0.0000000004106185
 43
0.0000000001
 40
0.794096354355447
 40
0.794096354355447
 40
0.794096354355447
 40
0.794096354355447
 40
0.8124999999999998
 40
0.8124999999999998
 40
0.8140571724433432
 40
0.8140571724433432
 40
0.8140571724433432
 40
0.8140571724433432
 10
38.19446099537886
 20
456.3636239677626
 30
0.0
 10
38.01630142048301
 20
456.328183360229
 30
0.0
 10
37.867333610942
 20
456.2960961728328
 30
0.0
 10
37.7387830077647
 20
456.2656617286914
 30
0.0
 10
37.72896537587881
 20
456.2633149139385
 30
0.0
 10
37.71935858675082
 20
456.2609956964559
 30
0.0
  0
SPLINE
  5
17D
330
75
100
AcDbEntity
  8
$DDT_AUDIT_GENERATED_(176)
  6
Continuous
 62
     7
100
AcDbSpline
210
0.0
220
0.0
230
1.0
 70
     8
 71
     3
 72
    17
 73
    13
 74
     0
 42
0.0000000015581347
 43
0.0000000001
 40
0.0
 40
0.0
 40
0.0
 40
0.0
 40
0.0305782284290354
 40
0.1611630932680351
 40
0.280538686814205
 40
0.3672902648860661
 40
0.444265058096468
 40
0.521279510148421
 40
0.6741165540463527
 40
0.8340895275825825
 40
0.9165648785812306
 40
1.0
 40
1.0
 40
1.0
 40
1.0
 10
55.51329326481675
 20
441.5302279536904
 30
0.0
 10
55.46484231825245
 20
441.5017324735638
 30
0.0
 10
55.20947170629711
 20
441.3515523705148
 30
0.0
 10
54.77662878476757
 20
441.0884769439771
 30
0.0
 10
54.31968651732559
 20
440.7424770733389
 30
0.0
 10
54.05346886463537
 20
440.388281810709
 30
0.0
 10
54.03364915284252
 20
440.0091843844888
 30
0.0
 10
54.23857367970209
 20
439.4859932393428
 30
0.0
 10
54.87069532726116
 20
438.8154007794202
 30
0.0
 10
55.81953841320907
 20
438.2992339961515
 30
0.0
 10
56.67912594898845
 20
438.00706903867
 30
0.0
 10
57.13222777409661
 20
437.9266732968492
 30
0.0
 10
57.36008814579858
 20
437.8862645807835
 30
0.0
  0
ARC
  5
17E
330
75
100
AcDbEntity
  8
$DDT_AUDIT_GENERATED_(176)
  6
Continuous
 62
     7
100
AcDbCircle
 10
56.0963719483
 20
457.8233086021
 30
0.0
 40
9.691417547846692
100
AcDbArc
 50
196.1260881545
 51
210.6545339305
  0
ARC
  5
17F
330
75
100
AcDbEntity
  8
$DDT_AUDIT_GENERATED_(176)
  6
Continuous
 62
     7
100
AcDbCircle
 10
44.8081709811
 20
434.3965535594
 30
0.0
 40
21.2408482669398
100
AcDbArc
 50
90.7309610286
 51
96.5122162411
  0
SPLINE
  5
180
330
75
100
AcDbEntity
  8
$DDT_AUDIT_GENERATED_(176)
  6
Continuous
 62
     7
100
AcDbSpline
210
0.0
220
0.0
230
1.0
 70
     8
 71
     3
 72
    22
 73
    18
 74
     0
 42
0.0000000041903469
 43
0.0000000001
 40
0.0
 40
0.0
 40
0.0
 40
0.0
 40
0.0624999999999999
 40
0.0624999999999999
 40
0.1249999999999998
 40
0.1249999999999998
 40
0.2499999999999995
 40
0.2499999999999995
 40
0.5000000000000002
 40
0.5000000000000002
 40
0.7500000000000009
 40
0.7500000000000009
 40
0.8750000000000012
 40
0.8750000000000012
 40
0.9375000000000007
 40
0.9375000000000007
 40
1.0
 40
1.0
 40
1.0
 40
1.0
 10
46.78628467585135
 20
455.131497117959
 30
0.0
 10
46.77551601219
 20
455.1537842424166
 30
0.0
 10
46.76209161878201
 20
455.1757783634396
 30
0.0
 10
46.73084510232377
 20
455.2175996139408
 30
0.0
 10
46.71289158056751
 20
455.23769859915
 30
0.0
 10
46.65220920205481
 20
455.2956182310779
 30
0.0
 10
46.60267246560572
 20
455.3310639205684
 30
0.0
 10
46.42756921692794
 20
455.4283317795404
 30
0.0
 10
46.27563727808857
 20
455.481123486307
 30
0.0
 10
45.90103898991245
 20
455.5640535573816
 30
0.0
 10
45.67767330134864
 20
455.5942420864088
 30
0.0
 10
45.2886958830168
 20
455.622517646864
 30
0.0
 10
45.15047680964025
 20
455.6290894234637
 30
0.0
 10
44.93023063324651
 20
455.6347276541479
 30
0.0
 10
44.85466120223729
 20
455.6359029486081
 30
0.0
 10
44.69918767108032
 20
455.6368455643907
 30
0.0
 10
44.61831549688384
 20
455.6366017459662
 30
0.0
 10
44.53719445777764
 20
455.6356732874147
 30
0.0
  0
SPLINE
  5
181
330
75
100
AcDbEntity
  8
$DDT_AUDIT_GENERATED_(176)
  6
Continuous
 62
     7
100
AcDbSpline
210
0.0
220
0.0
230
1.0
 70
     8
 71
     3
 72
    15
 73
    11
 74
     0
 42
0.0000000004269603
 43
0.0000000001
 40
0.0000008481974423
 40
0.0000008481974423
 40
0.0000008481974423
 40
0.0000008481974423
 40
0.0111236066042368
 40
0.100040632883986
 40
0.2644710396531497
 40
0.4030417424296231
 40
0.5374009289138293
 40
0.667309694015719
 40
0.7974937226657277
 40
0.8601165739944548
 40
0.8601165739944548
 40
0.8601165739944548
 40
0.8601165739944548
 10
84.49422906431057
 20
455.498980501043
 30
0.0
 10
84.48283783208987
 20
455.4083056981904
 30
0.0
 10
84.3804068866996
 20
454.5929491995088
 30
0.0
 10
84.05250963199794
 20
452.4490588229466
 30
0.0
 10
83.26019203460424
 20
449.3622337415092
 30
0.0
 10
81.8467248266089
 20
446.2337867168159
 30
0.0
 10
80.07739610466776
 20
443.7235298349103
 30
0.0
 10
77.89532655368816
 20
441.7155539271166
 30
0.0
 10
75.77712188644169
 20
440.4980236461508
 30
0.0
 10
74.40180988814231
 20
439.9483189652393
 30
0.0
 10
73.94170382264343
 20
439.8030341992577
 30
0.0
  0
SPLINE
  5
182
330
75
100
AcDbEntity
  8
$DDT_AUDIT_GENERATED_(176)
  6
Continuous
 62
     7
100
AcDbSpline
210
0.0
220
0.0
230
1.0
 70
     8
 71
     3
 72
    14
 73
    10
 74
     0
 42
0.0000000002520962
 43
0.0000000001
 40
0.0000025267283519
 40
0.0000025267283519
 40
0.0000025267283519
 40
0.0000025267283519
 40
0.0625
 40
0.0625
 40
0.09375
 40
0.09375
 40
0.1250000000000001
 40
0.1250000000000001
 40
0.1512727391915978
 40
0.1512727391915978
 40
0.1512727391915978
 40
0.1512727391915978
 10
42.39894655381912
 20
455.5003283637408
 30
0.0
 10
40.81208436648807
 20
455.3266470451304
 30
0.0
 10
39.53391786496656
 20
455.1836325659143
 30
0.0
 10
38.06972065336502
 20
455.037178490973
 30
0.0
 10
37.65839960794461
 20
454.9996837470697
 30
0.0
 10
37.01722506619789
 20
454.951707248934
 30
0.0
 10
36.78301070972825
 20
454.9407519794515
 30
0.0
 10
36.5104399143187
 20
454.9447612395394
 30
0.0
 10
36.44844384587582
 20
454.9563001938553
 30
0.0
 10
36.44876358595782
 20
454.9766832022814
 30
0.0
  0
SPLINE
  5
183
330
75
100
AcDbEntity
  8
$DDT_AUDIT_GENERATED_(176)
  6
Continuous
 62
     7
100
AcDbSpline
210
0.0
220
0.0
230
1.0
 70
     8
 71
     3
 72
    12
 73
     8
 74
     0
 42
0.0000000002516178
 43
0.0000000001
 40
0.848949677446622
 40
0.848949677446622
 40
0.848949677446622
 40
0.848949677446622
 40
0.875
 40
0.875
 40
0.9375
 40
0.9375
 40
1.0
 40
1.0
 40
1.0
 40
1.0
 10
90.44705464608661
 20
454.9746633221732
 30
0.0
 10
90.44712067607414
 20
454.9546141652526
 30
0.0
 10
90.38595022354961
 20
454.9433993127134
 30
0.0
 10
89.97142480046881
 20
454.9363325860254
 30
0.0
 10
89.31753891693273
 20
454.9862451810623
 30
0.0
 10
87.3821520739331
 20
455.1796629471206
 30
0.0
 10
86.08113576274037
 20
455.3251967876648
 30
0.0
 10
84.49423167032263
 20
455.4990012450351
 30
0.0
  0
SPLINE
  5
184
330
75
100
AcDbEntity
  8
$DDT_AUDIT_GENERATED_(176)
  6
Continuous
 62
     7
100
AcDbSpline
210
0.0
220
0.0
230
1.0
 70
     8
 71
     3
 72
    12
 73
     8
 74
     0
 42
0.0000000041025289
 43
0.0000000001
 40
0.0
 40
0.0
 40
0.0
 40
0.0
 40
0.25
 40
0.25
 40
0.5
 40
0.5
 40
1.0
 40
1.0
 40
1.0
 40
1.0
 10
82.3820829232391
 20
455.6341034734058
 30
0.0
 10
82.05055655911006
 20
455.638493337181
 30
0.0
 10
81.75402652232067
 20
455.6315140189849
 30
0.0
 10
81.23133721863756
 20
455.594835148891
 30
0.0
 10
81.00413041228829
 20
455.5649254306958
 30
0.0
 10
80.43304759638586
 20
455.4404319562989
 30
0.0
 10
80.19466932460412
 20
455.3119313203453
 30
0.0
 10
80.10729592097657
 20
455.1310156059256
 30
0.0
  0
ARC
  5
185
330
75
100
AcDbEntity
  8
$DDT_AUDIT_GENERATED_(176)
  6
Continuous
 62
     7
100
AcDbCircle
 10
82.0265180595
 20
433.4973971551
 30
0.0
 40
22.13956171640935
100
AcDbArc
 50
83.6004158675
 51
89.0797811552
  0
ARC
  5
186
330
75
100
AcDbEntity
  8
$DDT_AUDIT_GENERATED_(176)
  6
Continuous
 62
     7
100
AcDbCircle
 10
68.6661538735
 20
444.6757763352
 30
0.0
 40
7.118042485352393
100
AcDbArc
 50
339.0959677044
 51
339.9052547668
  0
ARC
  5
187
330
75
100
AcDbEntity
  8
$DDT_AUDIT_GENERATED_(176)
  6
Continuous
 62
     7
100
AcDbCircle
 10
155.2541530932
 20
420.2300208646
 30
0.0
 40
82.85607748859192
100
AcDbArc
 50
155.0880920363
 51
164.3306287444
  0
ARC
  5
188
330
75
100
AcDbEntity
  8
$DDT_AUDIT_GENERATED_(176)
  6
Continuous
 62
     7
100
AcDbCircle
 10
63.4524304811
 20
126.528077108
 30
0.0
 40
315.102181739726
100
AcDbArc
 50
88.5596254467
 51
91.4437449899
  0
SPLINE
  5
189
330
75
100
AcDbEntity
  8
$DDT_AUDIT_GENERATED_(176)
  6
Continuous
 62
     7
100
AcDbSpline
210
0.0
220
0.0
230
1.0
 70
    11
 71
     3
 72
    22
 73
    18
 74
     0
 42
0.0000000004584016
 43
0.0000000001
 40
0.0
 40
0.0
 40
0.0
 40
0.0
 40
0.125
 40
0.125
 40
0.25
 40
0.25
 40
0.375
 40
0.375
 40
0.5
 40
0.5
 40
0.625
 40
0.625
 40
0.75
 40
0.75
 40
0.875
 40
0.875
 40
1.0
 40
1.0
 40
1.0
 40
1.0
 10
63.44654483713725
 20
436.3291413945736
 30
0.0
 10
64.34387304873172
 20
436.3292780877636
 30
0.0
 10
65.21487618628476
 20
435.932798641733
 30
0.0
 10
66.39794496009705
 20
434.6342068303693
 30
0.0
 10
66.70961124503374
 20
433.7437424434323
 30
0.0
 10
66.68363162014691
 20
431.9687529064471
 30
0.0
 10
66.36446634133678
 20
431.0933345457892
 30
0.0
 10
65.19771442533083
 20
429.7385323441406
 30
0.0
 10
64.34531527463979
 20
429.2974502707965
 30
0.0
 10
62.56642595721237
 20
429.2919162688535
 30
0.0
 10
61.70516866319532
 20
429.7323409927624
 30
0.0
 10
60.53450428611427
 20
431.0836251667908
 30
0.0
 10
60.21128650651851
 20
431.9654332115414
 30
0.0
 10
60.18369480732105
 20
433.7401105043051
 30
0.0
 10
60.49157727116411
 20
434.6271367580042
 30
0.0
 10
61.67673879761507
 20
435.9321926245123
 30
0.0
 10
62.54921662554279
 20
436.3290047013836
 30
0.0
 10
63.44654483713725
 20
436.3291413945736
 30
0.0
  0
ELLIPSE
  5
18A
330
75
100
AcDbEntity
  8
$DDT_AUDIT_GENERATED_(176)
  6
Continuous
 62
     7
100
AcDbEllipse
 10
63.4470298163
 20
424.5124428399
 30
0.0
 11
27.00000000000003
 21
3.813616089587413E-11
 31
0.0
210
0.0
220
0.0
230
1.0
 40
0.6865920361
 41
-0.0187005122976434
 42
-0.0000000000023392
  0
ELLIPSE
  5
18B
330
75
100
AcDbEntity
  8
$DDT_AUDIT_GENERATED_(176)
  6
Continuous
 62
     7
100
AcDbEllipse
 10
63.4470298163
 20
424.5124428399
 30
0.0
 11
27.00000000000003
 21
3.813616089587413E-11
 31
0.0
210
0.0
220
0.0
230
1.0
 40
0.6865920361
 41
3.141592653587457
 42
3.160293165876762
  0
ELLIPSE
  5
18C
330
75
100
AcDbEntity
  8
$DDT_AUDIT_GENERATED_(176)
  6
Continuous
 62
     7
100
AcDbEllipse
 10
89.4015624981
 20
423.76130511
 30
0.0
 11
-0.8271411877829211
 21
0.561994177436978
 31
0.0
210
0.0
220
0.0
230
1.0
 40
0.9944526096
 41
3.141614340442056
 42
3.201027791492089
  0
ELLIPSE
  5
18D
330
75
100
AcDbEntity
  8
$DDT_AUDIT_GENERATED_(176)
  6
Continuous
 62
     7
100
AcDbEllipse
 10
37.4924971345
 20
423.7613051101
 30
0.0
 11
0.8271411878096012
 21
0.5619941773977732
 31
0.0
210
0.0
220
0.0
230
1.0
 40
0.9944526096
 41
3.085842707659841
 42
3.141113006533693
  0
ELLIPSE
  5
18E
330
75
100
AcDbEntity
  8
$DDT_AUDIT_GENERATED_(176)
  6
Continuous
 62
     7
100
AcDbEllipse
 10
63.4470298163
 20
423.1224741664
 30
0.0
 11
-26.63105586653977
 21
4.489464355827977E-11
 31
0.0
210
0.0
220
0.0
230
1.0
 40
0.0871557427
 41
0.1119708642168059
 42
0.1173810328414187
  0
ELLIPSE
  5
18F
330
75
100
AcDbEntity
  8
$DDT_AUDIT_GENERATED_(176)
  6
Continuous
 62
     7
100
AcDbEllipse
 10
63.4470298163
 20
423.1224741664
 30
0.0
 11
-26.63105586653977
 21
4.489464355827977E-11
 31
0.0
210
0.0
220
0.0
230
1.0
 40
0.0871557427
 41
-3.252973943843632
 42
-3.251301725646715
  0
ARC
  5
190
330
75
100
AcDbEntity
  8
$DDT_AUDIT_GENERATED_(176)
  6
Continuous
 62
     7
100
AcDbCircle
 10
63.4441066297
 20
335.7774264016
 30
0.0
 40
123.2009670948007
100
AcDbArc
 50
78.1749938709
 51
101.8226581238
  0
ARC
  5
191
330
75
100
AcDbEntity
  8
$DDT_AUDIT_GENERATED_(176)
  6
Continuous
 62
     7
100
AcDbCircle
 10
-26.4434511619
 20
420.744862816
 30
0.0
 40
80.87172401536553
100
AcDbArc
 50
15.4036569711
 51
23.4207826115
  0
ARC
  5
192
330
75
100
AcDbEntity
  8
$DDT_AUDIT_GENERATED_(176)
  6
Continuous
 62
     7
100
AcDbCircle
 10
154.8466111346
 20
420.1964516141
 30
0.0
 40
82.4750063344884
100
AcDbArc
 50
162.0972232161
 51
164.5093597504
  0
ARC
  5
193
330
75
100
AcDbEntity
  8
$DDT_AUDIT_GENERATED_(176)
  6
Continuous
 62
     7
100
AcDbCircle
 10
154.8466111346
 20
420.1964516141
 30
0.0
 40
82.4750063344884
100
AcDbArc
 50
156.6481322694
 51
158.6091413774
  0
ARC
  5
194
330
75
100
AcDbEntity
  8
$DDT_AUDIT_GENERATED_(176)
  6
Continuous
 62
     7
100
AcDbCircle
 10
58.2678217435
 20
444.659890016
 30
0.0
 40
7.173738250159643
100
AcDbArc
 50
200.5680216635
 51
263.3835663626
  0
ARC
  5
195
330
75
100
AcDbEntity
  8
$DDT_AUDIT_GENERATED_(176)
  6
Continuous
 62
     7
100
AcDbCircle
 10
63.4539248065
 20
479.8289477501
 30
0.0
 40
42.72024218175685
100
AcDbArc
 50
261.909006486
 51
278.0622401407
  0
ARC
  5
196
330
75
100
AcDbEntity
  8
$DDT_AUDIT_GENERATED_(176)
  6
Continuous
 62
     7
100
AcDbCircle
 10
68.6307686495
 20
444.6378010203
 30
0.0
 40
7.159497648344466
100
AcDbArc
 50
276.3515781126
 51
339.5368078888
  0
SPLINE
  5
197
330
75
100
AcDbEntity
  8
$DDT_AUDIT_GENERATED_(176)
  6
Continuous
 62
     7
100
AcDbSpline
210
0.0
220
0.0
230
1.0
 70
     8
 71
     3
 72
    22
 73
    18
 74
     0
 42
0.0000000051429385
 43
0.0000000001
 40
0.0
 40
0.0
 40
0.0
 40
0.0
 40
0.0019367084606326
 40
0.2409395902788898
 40
0.3844521842583155
 40
0.5047472895716305
 40
0.5752172818990655
 40
0.6333457401947494
 40
0.682357506679841
 40
0.7258994176172852
 40
0.7672173932835092
 40
0.8083962338136963
 40
0.8507619434486641
 40
0.8947229932892967
 40
0.9397630734519115
 40
0.9853881439000228
 40
1.0
 40
1.0
 40
1.0
 40
1.0
 10
37.68375958224301
 20
456.2529661745107
 30
0.0
 10
37.68307204858485
 20
456.2528087648394
 30
0.0
 10
37.60922711953171
 20
456.2358999137742
 30
0.0
 10
37.50667604273276
 20
456.2081758938928
 30
0.0
 10
37.37568584959708
 20
456.1690194336406
 30
0.0
 10
37.28084607742255
 20
456.1358714062803
 30
0.0
 10
37.19212194434008
 20
456.0991093316263
 30
0.0
 10
37.11220989809176
 20
456.0605786025375
 30
0.0
 10
37.02607392703277
 20
456.0116248478618
 30
0.0
 10
36.93184381884125
 20
455.9474766055045
 30
0.0
 10
36.82953034591141
 20
455.8621715213268
 30
0.0
 10
36.72315648607815
 20
455.7501392348142
 30
0.0
 10
36.62144016953586
 20
455.6089267130249
 30
0.0
 10
36.53431418523021
 20
455.4394155987188
 30
0.0
 10
36.47473596287301
 20
455.249682865043
 30
0.0
 10
36.44672154771118
 20
455.0870859118585
 30
0.0
 10
36.45090181485906
 20
455.0010905871537
 30
0.0
 10
36.45218589396885
 20
454.9766886275839
 30
0.0
  0
SPLINE
  5
198
330
75
100
AcDbEntity
  8
$DDT_AUDIT_GENERATED_(176)
  6
Continuous
 62
     7
100
AcDbSpline
210
0.0
220
0.0
230
1.0
 70
     8
 71
     3
 72
    22
 73
    18
 74
     0
 42
0.0000000051526924
 43
0.0000000001
 40
0.0
 40
0.0
 40
0.0
 40
0.0
 40
0.0006610012395774
 40
0.0468589037217705
 40
0.0907552405689636
 40
0.1327319555342566
 40
0.1729996497683761
 40
0.2117953583159081
 40
0.249859373158636
 40
0.2887839301825513
 40
0.3303874039685248
 40
0.3776812872306242
 40
0.4345879191027282
 40
0.5067667120470465
 40
0.6037321600665388
 40
0.7457286447217029
 40
1.0
 40
1.0
 40
1.0
 40
1.0
 10
90.44753173133438
 20
454.9744862420953
 30
0.0
 10
90.44763316102544
 20
454.975588596348
 30
0.0
 10
90.45382979729166
 20
455.0430404743658
 30
0.0
 10
90.4326304551698
 20
455.1861699690558
 30
0.0
 10
90.38502392896142
 20
455.3760214707546
 30
0.0
 10
90.30912799795921
 20
455.5456284693656
 30
0.0
 10
90.21838495195509
 20
455.6891271201096
 30
0.0
 10
90.12018491309423
 20
455.8062812984545
 30
0.0
 10
90.0225684321011
 20
455.8983947026683
 30
0.0
 10
89.93069725655823
 20
455.9691316990606
 30
0.0
 10
89.84610219054032
 20
456.0235736937751
 30
0.0
 10
89.7674559379423
 20
456.0666008560459
 30
0.0
 10
89.69165193636597
 20
456.1022381793151
 30
0.0
 10
89.61390381098353
 20
456.1338551741526
 30
0.0
 10
89.5251053116037
 20
456.1651806710403
 30
0.0
 10
89.39763173173772
 20
456.2042961983657
 30
0.0
 10
89.29423261357888
 20
456.23072627313
 30
0.0
 10
89.21595107395287
 20
456.2502366447732
 30
0.0
  0
LINE
  5
199
330
75
100
AcDbEntity
  8
$DDT_AUDIT_GENERATED_(176)
  6
Continuous
 62
     7
100
AcDbLine
 10
90.4470298163
 20
424.5124428399
 30
0.0
 11
90.4470298163
 21
454.9747063056
 31
0.0
  0
LINE
  5
19A
330
75
100
AcDbEntity
  8
$DDT_AUDIT_GENERATED_(176)
  6
Continuous
 62
     7
100
AcDbLine
 10
36.4470298163
 20
454.9763588289
 30
0.0
 11
36.4470298163
 21
424.5124428399
 31
0.0
  0
ARC
  5
19B
330
75
100
AcDbEntity
  8
$DDT_AUDIT_GENERATED_(176)
  6
Continuous
 62
     7
100
AcDbCircle
 10
89.0256830472
 20
424.0234624116
 30
0.0
 40
1.458247001534875
100
AcDbArc
 50
307.3871502431
 51
325.5861875057
  0
ARC
  5
19C
330
75
100
AcDbEntity
  8
$DDT_AUDIT_GENERATED_(176)
  6
Continuous
 62
     7
100
AcDbCircle
 10
37.8308569556
 20
423.9904295053
 30
0.0
 40
1.408638064787398
100
AcDbArc
 50
214.1678694819
 51
233.720378136
  0
SPLINE
  5
19D
330
75
100
AcDbEntity
  8
$DDT_AUDIT_GENERATED_(176)
  6
Continuous
 62
     7
100
AcDbSpline
210
0.0
220
0.0
230
1.0
 70
     8
 71
     3
 72
    14
 73
    10
 74
     0
 42
0.0000000116757796
 43
0.0000000001
 40
0.0
 40
0.0
 40
0.0
 40
0.0
 40
0.0120388555434926
 40
0.2758273237339347
 40
0.5425277033876529
 40
0.6802541731310645
 40
0.7876685759938755
 40
0.8960037220418386
 40
0.9444734563872444
 40
0.9444734563872444
 40
0.9444734563872444
 40
0.9444734563872444
 10
36.45333736225808
 20
424.097005324696
 30
0.0
 10
36.45344065882763
 20
424.0932308871699
 30
0.0
 10
36.45549227862272
 20
424.0187165784096
 30
0.0
 10
36.46319274525784
 20
423.8776776928368
 30
0.0
 10
36.4775427586078
 20
423.7254009112723
 30
0.0
 10
36.50137198688872
 20
423.5898711562974
 30
0.0
 10
36.53078923948022
 20
423.4785571443624
 30
0.0
 10
36.56618650765165
 20
423.3816077078393
 30
0.0
 10
36.59375945902822
 20
423.3273476964437
 30
0.0
 10
36.60300759080087
 20
423.3100886676886
 30
0.0
  0
SPLINE
  5
19E
330
75
100
AcDbEntity
  8
$DDT_AUDIT_GENERATED_(176)
  6
Continuous
 62
     7
100
AcDbSpline
210
0.0
220
0.0
230
1.0
 70
     8
 71
     3
 72
    14
 73
    10
 74
     0
 42
0.000000011999875
 43
0.0000000001
 40
0.1160894684755985
 40
0.1160894684755985
 40
0.1160894684755985
 40
0.1160894684755985
 40
0.1953846450703736
 40
0.2932581998713568
 40
0.4008119705098953
 40
0.5347167263349889
 40
0.734455005879935
 40
0.9928686637582012
 40
1.0
 40
1.0
 40
1.0
 40
1.0
 10
90.32374464329152
 20
423.3768961517732
 30
0.0
 10
90.33601806058465
 20
423.405255024896
 30
0.0
 10
90.35992039332325
 20
423.4697199373967
 30
0.0
 10
90.38589623426388
 20
423.561828456614
 30
0.0
 10
90.40508194576948
 20
423.6569741252646
 30
0.0
 10
90.42030980443606
 20
423.7651732931903
 30
0.0
 10
90.43243571564636
 20
423.9035859753097
 30
0.0
 10
90.43880298237494
 20
424.0252034963457
 30
0.0
 10
90.44076433953008
 20
424.0971273177906
 30
0.0
 10
90.44082517678487
 20
424.0993669737426
 30
0.0
  0
ARC
  5
19F
330
75
100
AcDbEntity
  8
$DDT_AUDIT_GENERATED_(176)
  6
Continuous
 62
     7
100
AcDbCircle
 10
39.3905915149
 20
424.1847409018
 30
0.0
 40
2.938685362778782
100
AcDbArc
 50
180.8039388143
 51
181.6803820051
  0
LINE
  5
1A0
330
75
100
AcDbEntity
  8
$DDT_AUDIT_GENERATED_(176)
  6
Continuous
 62
     7
100
AcDbLine
 10
90.4405021058
 20
424.1013115336
 30
0.0
 11
90.4418375566
 21
424.1431614877
 31
0.0
  0
LINE
  5
1A1
330
75
100
AcDbEntity
  8
$DDT_AUDIT_GENERATED_(176)
  6
Continuous
 62
     7
100
AcDbLine
 10
36.4473557843
 20
424.4506400852
 30
0.0
 11
36.4519230128
 21
424.1410772261
 31
0.0
  0
LINE
  5
1A2
330
75
100
AcDbEntity
  8
$DDT_AUDIT_GENERATED_(176)
  6
Continuous
 62
     7
100
AcDbLine
 10
90.4421366198
 20
424.141077226
 30
0.0
 11
90.4457549697
 21
424.4502960232
 31
0.0
  0
SPLINE
  5
1A3
330
75
100
AcDbEntity
  8
$DDT_AUDIT_GENERATED_(176)
  6
Continuous
 62
     7
100
AcDbSpline
210
0.0
220
0.0
230
1.0
 70
     8
 71
     3
 72
    81
 73
    77
 74
     0
 42
0.0000000001876328
 43
0.0000000001
 40
0.0
 40
0.0
 40
0.0
 40
0.0
 40
0.0097261745573336
 40
0.0244610579449684
 40
0.0396836912786366
 40
0.0543291275247763
 40
0.0685631398772933
 40
0.0825492994725622
 40
0.0963813026518077
 40
0.1101127363523169
 40
0.1237757521529303
 40
0.1373905670989847
 40
0.1509704171023998
 40
0.1645242689890629
 40
0.1780583772121918
 40
0.1915772154253368
 40
0.2050840544841522
 40
0.2185813325235271
 40
0.232070898515613
 40
0.2455541764999274
 40
0.2590322787391778
 40
0.2725060852072087
 40
0.2859763004099972
 40
0.2994434946533855
 40
0.3129081344537787
 40
0.326370605250923
 40
0.3398312285846573
 40
0.3532902752387097
 40
0.3667479754118956
 40
0.3802045266750866
 40
0.3936601002633264
 40
0.40711484610608
 40
0.4205688968947504
 40
0.4340223714122913
 40
0.4474753772960306
 40
0.4609280133658117
 40
0.4743803716210866
 40
0.4878325389898764
 40
0.5012845988975894
 40
0.5147366327131514
 40
0.5281887030482415
 40
0.5416408821669404
 40
0.5550932526920689
 40
0.5685459002279736
 40
0.5819989148634521
 40
0.5954523928264863
 40
0.6089064383514077
 40
0.6223611658325738
 40
0.6358167023558473
 40
0.6492731907228877
 40
0.6627307931157781
 40
0.6761896955939536
 40
0.6896501136766268
 40
0.7031122993488048
 40
0.7165765499476642
 40
0.7300432195538895
 40
0.743512733752619
 40
0.7569856089765117
 40
0.7704624781545631
 40
0.7839441251532959
 40
0.7974315316545244
 40
0.8109259419029153
 40
0.8244289535761467
 40
0.8379426475716185
 40
0.8514697769922198
 40
0.8650140482857325
 40
0.8785805495505492
 40
0.8921764206108047
 40
0.9058119328801226
 40
0.919502287764293
 40
0.9332707200907222
 40
0.947154047118481
 40
0.9612128421112301
 40
0.9755495513686275
 40
0.9903304182035876
 40
1.0
 40
1.0
 40
1.0
 40
1.0
 10
37.01397523637784
 20
422.842177776708
 30
0.0
 10
37.05973020261849
 20
422.8092261625615
 30
0.0
 10
37.15828942134578
 20
422.7391800834217
 30
0.0
 10
37.36547559490555
 20
422.634833817236
 30
0.0
 10
37.62824164215889
 20
422.5273324917967
 30
0.0
 10
37.93137124427343
 20
422.4256350516594
 30
0.0
 10
38.26557660027328
 20
422.3300300190618
 30
0.0
 10
38.63278603297088
 20
422.2386171461791
 30
0.0
 10
39.03394585257436
 20
422.150360898816
 30
0.0
 10
39.46961939552615
 20
422.0647080724211
 30
0.0
 10
39.93987145801736
 20
421.9813879243749
 30
0.0
 10
40.44449649877202
 20
421.9002759306339
 30
0.0
 10
40.98308389209529
 20
421.8213326761457
 30
0.0
 10
41.55507483882273
 20
421.7445685810854
 30
0.0
 10
42.15979267601382
 20
421.6700244832846
 30
0.0
 10
42.79646400605993
 20
421.5977598769619
 30
0.0
 10
43.46423274892678
 20
421.5278456473658
 30
0.0
 10
44.16217029436902
 20
421.4603593697467
 30
0.0
 10
44.88928306107086
 20
421.3953821774602
 30
0.0
 10
45.64451840395474
 20
421.3329966072342
 30
0.0
 10
46.42676941675523
 20
421.2732850748504
 30
0.0
 10
47.23487899241841
 20
421.2163287671883
 30
0.0
 10
48.06764337670536
 20
421.1622068163002
 30
0.0
 10
48.92381537377672
 20
421.1109956688592
 30
0.0
 10
49.80210731191512
 20
421.0627685939835
 30
0.0
 10
50.70119384431501
 20
421.0175952912401
 30
0.0
 10
51.61971463736533
 20
420.9755415727668
 30
0.0
 10
52.55627698340333
 20
420.9366691015056
 30
0.0
 10
53.50945836412546
 20
420.9010351728857
 30
0.0
 10
54.47780898318909
 20
420.8686925309894
 30
0.0
 10
55.45985428104528
 20
420.8396892127441
 30
0.0
 10
56.45409744104369
 20
420.8140684154772
 30
0.0
 10
57.45902189291591
 20
420.7918683844124
 30
0.0
 10
58.47309381756425
 20
420.7731223176052
 30
0.0
 10
59.49476465545668
 20
420.7578582864535
 30
0.0
 10
60.52247361971006
 20
420.7460991704227
 30
0.0
 10
61.55465021402382
 20
420.7378626049638
 30
0.0
 10
62.58971675496047
 20
420.7331609418934
 30
0.0
 10
63.62609089750499
 20
420.7320012217029
 30
0.0
 10
64.66218769866742
 20
420.7343851563794
 30
0.0
 10
65.69642237982782
 20
420.7403091172444
 30
0.0
 10
66.72721308027444
 20
420.7497641391077
 30
0.0
 10
67.75298383683742
 20
420.7627359458884
 30
0.0
 10
68.77216685718346
 20
420.7792049830367
 30
0.0
 10
69.78320480569235
 20
420.7991464566586
 30
0.0
 10
70.7845533061733
 20
420.8225303860222
 30
0.0
 10
71.77468343542299
 20
420.8493216687416
 30
0.0
 10
72.75208420713585
 20
420.8794801594752
 30
0.0
 10
73.71526504641528
 20
420.9129607632649
 30
0.0
 10
74.66275825606216
 20
420.9497135450534
 30
0.0
 10
75.59312147705224
 20
420.9896838574589
 30
0.0
 10
76.50494014725746
 20
421.0328124896246
 30
0.0
 10
77.39682996466122
 20
421.0790358409897
 30
0.0
 10
78.26743936426988
 20
421.128286125256
 30
0.0
 10
79.11545202192964
 20
421.1804916118531
 30
0.0
 10
79.93958940375184
 20
421.2355769151072
 30
0.0
 10
80.7386133874723
 20
421.2934633455332
 30
0.0
 10
81.511328992772
 20
421.3540693438793
 30
0.0
 10
82.25658727285978
 20
421.4173110278481
 30
0.0
 10
82.97328844159246
 20
421.4831028955544
 30
0.0
 10
83.66038534313603
 20
421.5513587517335
 30
0.0
 10
84.31688741851686
 20
421.6219929573775
 30
0.0
 10
84.94186540172007
 20
421.6949221598784
 30
0.0
 10
85.53445707707871
 20
421.7700677533094
 30
0.0
 10
86.09387467377807
 20
421.847359480441
 30
0.0
 10
86.61941454795559
 20
421.926740857924
 30
0.0
 10
87.11047115100376
 20
422.0081776556887
 30
0.0
 10
87.56655499929595
 20
422.0916714847209
 30
0.0
 10
87.98732773100015
 20
422.1772830115294
 30
0.0
 10
88.37262590141465
 20
422.265171283219
 30
0.0
 10
88.72261668362094
 20
422.3556721366302
 30
0.0
 10
89.03761246038297
 20
422.4494305392529
 30
0.0
 10
89.31944699810596
 20
422.5477612385529
 30
0.0
 10
89.56729902278659
 20
422.6531174145862
 30
0.0
 10
89.7657138585299
 20
422.7561224271964
 30
0.0
 10
89.86147487072432
 20
422.8288496526091
 30
0.0
 10
89.90569219815258
 20
422.86286999623
 30
0.0
  0
ENDBLK
  5
1A5
330
75
100
AcDbEntity
  8
0
100
AcDbBlockEnd
  0
BLOCK
  5
1F3
330
1A6
100
AcDbEntity
  8
0
100
AcDbBlockBegin
  2
SE1
 70
     0
 10
0.0
 20
0.0
 30
0.0
  3
SE1
  1

  0
SPLINE
  5
1A8
330
1A6
100
AcDbEntity
  8
$DDT_AUDIT_GENERATED_(77)
  6
Continuous
 62
     7
100
AcDbSpline
210
0.0
220
0.0
230
1.0
 70
     8
 71
     3
 72
    34
 73
    30
 74
     0
 42
0.0000000001257061
 43
0.0000000001
 40
0.0
 40
0.0
 40
0.0
 40
0.0
 40
0.0125015140873694
 40
0.0249893501087584
 40
0.0375041988424477
 40
0.0500864889969105
 40
0.0627760046958239
 40
0.093774067109052
 40
0.1255703094384845
 40
0.1563377364796934
 40
0.1881243469169142
 40
0.2506529822039157
 40
0.312873184464286
 40
0.3753088915741615
 40
0.4372810982680799
 40
0.4997163470507229
 40
0.5619320857689999
 40
0.6244344961765025
 40
0.6868791404974223
 40
0.7493213440031596
 40
0.7802272417080921
 40
0.8118380304860493
 40
0.8431801488813998
 40
0.8746258476657014
 40
0.9059442534229549
 40
0.9211570969437726
 40
0.9374111327935506
 40
0.9673809899763913
 40
1.0
 40
1.0
 40
1.0
 40
1.0
 10
233.3817241122013
 20
347.5980364173289
 30
0.0
 10
233.3760415879204
 20
347.6057207118112
 30
0.0
 10
233.3646827566809
 20
347.621080893291
 30
0.0
 10
233.273307202281
 20
347.7454841642402
 30
0.0
 10
233.1288149716216
 20
347.9440311712403
 30
0.0
 10
232.9270394236332
 20
348.2239156173687
 30
0.0
 10
232.5489483337283
 20
348.7538362648731
 30
0.0
 10
231.8715237043612
 20
349.7200860889594
 30
0.0
 10
230.8033527244911
 20
351.3225960351788
 30
0.0
 10
229.5748109634174
 20
353.2804247112299
 30
0.0
 10
227.8423617197654
 20
356.2560780537593
 30
0.0
 10
225.63351215743
 20
360.5679573024796
 30
0.0
 10
223.2918149203536
 20
366.3102300342168
 30
0.0
 10
221.4484592299075
 20
372.419935402099
 30
0.0
 10
220.22325183814
 20
378.7798211387657
 30
0.0
 10
219.7227736925716
 20
385.268926988509
 30
0.0
 10
220.0620657994007
 20
391.8040193048317
 30
0.0
 10
221.3917396749465
 20
398.2182350510564
 30
0.0
 10
223.8925858451006
 20
404.2562717726591
 30
0.0
 10
227.0693803570442
 20
408.5200600653874
 30
0.0
 10
229.9791246755259
 20
411.0452827781929
 30
0.0
 10
232.1817234426105
 20
412.4615826163432
 30
0.0
 10
234.2438715231478
 20
413.4221733804482
 30
0.0
 10
236.0205186890472
 20
414.0166563523434
 30
0.0
 10
237.2007883114291
 20
414.2978666228158
 30
0.0
 10
237.9586443480685
 20
414.443302179102
 30
0.0
 10
238.5662056788726
 20
414.5428823810846
 30
0.0
 10
239.1196147799546
 20
414.6145744041161
 30
0.0
 10
239.2026943603597
 20
414.6226964589038
 30
0.0
 10
239.2459923746383
 20
414.6269293744103
 30
0.0
  0
SPLINE
  5
1A9
330
1A6
100
AcDbEntity
  8
$DDT_AUDIT_GENERATED_(77)
  6
Continuous
 62
     7
100
AcDbSpline
210
0.0
220
0.0
230
1.0
 70
     8
 71
     3
 72
    24
 73
    20
 74
     0
 42
0.0000000016440712
 43
0.0000000001
 40
0.061160874540306
 40
0.061160874540306
 40
0.061160874540306
 40
0.061160874540306
 40
0.0625
 40
0.09375
 40
0.125
 40
0.1875
 40
0.25
 40
0.3125
 40
0.375
 40
0.4375
 40
0.5
 40
0.5625
 40
0.625
 40
0.6875
 40
0.75
 40
0.8125
 40
0.875
 40
0.9375
 40
1.0
 40
1.0
 40
1.0
 40
1.0
 10
239.2247024990056
 20
414.2560024718234
 30
0.0
 10
239.2246285350096
 20
414.2532914758024
 30
0.0
 10
239.2228721501094
 20
414.1873151624116
 30
0.0
 10
239.2215113625779
 20
414.0580203515016
 30
0.0
 10
239.2267198980135
 20
413.8048933655911
 30
0.0
 10
239.248110533
 20
413.4890031654635
 30
0.0
 10
239.2982937105382
 20
413.1124168843556
 30
0.0
 10
239.3736976919362
 20
412.7399654326898
 30
0.0
 10
239.4753849266093
 20
412.3738916894454
 30
0.0
 10
239.6044176730686
 20
412.0164393671025
 30
0.0
 10
239.7620557577636
 20
411.6706051589786
 30
0.0
 10
239.9495092421587
 20
411.3399105883703
 30
0.0
 10
240.1677833285953
 20
411.028605466428
 30
0.0
 10
240.4173608615797
 20
410.7416690637388
 30
0.0
 10
240.6977863788294
 20
410.4846656024224
 30
0.0
 10
241.0072220562605
 20
410.2633050217636
 30
0.0
 10
241.3421406299908
 20
410.0827071008979
 30
0.0
 10
241.6974344412658
 20
409.946502062915
 30
0.0
 10
241.9438083128836
 20
409.8862419386277
 30
0.0
 10
242.0683425282159
 20
409.8635971285657
 30
0.0
  0
SPLINE
  5
1AA
330
1A6
100
AcDbEntity
  8
$DDT_AUDIT_GENERATED_(77)
  6
Continuous
 62
     7
100
AcDbSpline
210
0.0
220
0.0
230
1.0
 70
     8
 71
     3
 72
    34
 73
    30
 74
     0
 42
0.0000000001863705
 43
0.0000000001
 40
0.0
 40
0.0
 40
0.0
 40
0.0
 40
0.0302347768972671
 40
0.0611716841785693
 40
0.0914657472083283
 40
0.1237299118821817
 40
0.1551119265683548
 40
0.1863606175770863
 40
0.2177369107769692
 40
0.249060550791587
 40
0.2801468786354179
 40
0.3113279986196631
 40
0.3428040825964278
 40
0.3740650260127875
 40
0.4365735419954605
 40
0.4991598787933329
 40
0.5618701303411249
 40
0.6242740377650757
 40
0.6557007498464799
 40
0.6869041997903846
 40
0.7179903193827215
 40
0.7490854076342635
 40
0.7803091206186887
 40
0.8117257004389676
 40
0.8430370958168496
 40
0.8743509074365924
 40
0.9072373580041279
 40
0.937061863328602
 40
0.9481154977757912
 40
0.9481154977757912
 40
0.9481154977757912
 40
0.9481154977757912
 10
242.0683425282159
 20
409.8635971285657
 30
0.0
 10
242.0512187052866
 20
409.8438440831936
 30
0.0
 10
242.0165733995937
 20
409.8038792752118
 30
0.0
 10
241.7467913575444
 20
409.4846454686178
 30
0.0
 10
241.3233440903682
 20
408.9734420584315
 30
0.0
 10
240.7550934245698
 20
408.2566022623552
 30
0.0
 10
240.0655407299281
 20
407.3389873620322
 30
0.0
 10
239.3042321210278
 20
406.2506927472421
 30
0.0
 10
238.4978787235078
 20
404.9901582143547
 30
0.0
 10
237.6816966082183
 20
403.5598010959583
 30
0.0
 10
236.8916944343765
 20
401.9630301939081
 30
0.0
 10
236.1686524666082
 20
400.1967451816529
 30
0.0
 10
235.5564955925976
 20
398.2632348537593
 30
0.0
 10
234.956649198657
 20
395.487349028628
 30
0.0
 10
234.745108174299
 20
391.6930746625572
 30
0.0
 10
235.5885684975917
 20
387.1025536439583
 30
0.0
 10
237.3252629668628
 20
382.9137252056173
 30
0.0
 10
239.2358151773423
 20
379.8452631001678
 30
0.0
 10
240.9110676320593
 20
377.6354220834315
 30
0.0
 10
242.220638151165
 20
376.0894084208841
 30
0.0
 10
243.5581163530759
 20
374.6530030523845
 30
0.0
 10
244.9092928758673
 20
373.315803508326
 30
0.0
 10
246.2590009916488
 20
372.0729474073093
 30
0.0
 10
247.5845032954418
 20
370.9269873657828
 30
0.0
 10
248.8602471040991
 20
369.8852716694009
 30
0.0
 10
250.0671798381645
 20
368.944385040195
 30
0.0
 10
251.1173573454537
 20
368.159466381476
 30
0.0
 10
251.7841820240117
 20
367.6785646137327
 30
0.0
 10
252.0728504371387
 20
367.4725434619983
 30
0.0
 10
252.1444851581407
 20
367.4215658720667
 30
0.0
  0
SPLINE
  5
1AB
330
1A6
100
AcDbEntity
  8
$DDT_AUDIT_GENERATED_(77)
  6
Continuous
 62
     7
100
AcDbSpline
210
0.0
220
0.0
230
1.0
 70
     8
 71
     3
 72
    12
 73
     8
 74
     0
 42
0.0000000008039443
 43
0.0000000001
 40
0.9481154977757912
 40
0.9481154977757912
 40
0.9481154977757912
 40
0.9481154977757912
 40
0.9502253408763652
 40
0.9630391744786029
 40
0.9755630711816164
 40
0.9878608620087138
 40
0.9999941093819192
 40
0.9999941093819192
 40
0.9999941093819192
 40
0.9999941093819192
 10
252.1444851581407
 20
367.4215658720667
 30
0.0
 10
252.1581583099524
 20
367.4118356139408
 30
0.0
 10
252.253218324428
 20
367.3442293117599
 30
0.0
 10
252.4061946317463
 20
367.2359481798358
 30
0.0
 10
252.5584641699633
 20
367.1289600223736
 30
0.0
 10
252.6541226438512
 20
367.0622940146668
 30
0.0
 10
252.6660871237099
 20
367.0540313100701
 30
0.0
 10
252.6720229289556
 20
367.049932073534
 30
0.0
  0
SPLINE
  5
1AC
330
1A6
100
AcDbEntity
  8
$DDT_AUDIT_GENERATED_(77)
  6
Continuous
 62
     7
100
AcDbSpline
210
0.0
220
0.0
230
1.0
 70
     8
 71
     3
 72
    24
 73
    20
 74
     0
 42
0.0000000003199255
 43
0.0000000001
 40
0.0152857432075129
 40
0.0152857432075129
 40
0.0152857432075129
 40
0.0152857432075129
 40
0.0625
 40
0.125
 40
0.1875
 40
0.25
 40
0.3125
 40
0.375
 40
0.4375
 40
0.5
 40
0.5625
 40
0.625
 40
0.6875
 40
0.75
 40
0.8125
 40
0.875
 40
0.90625
 40
0.9375
 40
1.0
 40
1.0
 40
1.0
 40
1.0
 10
252.1952379460478
 20
367.0693198593065
 30
0.0
 10
251.7042933445801
 20
367.0883762529738
 30
0.0
 10
250.5631417716693
 20
367.1241257590863
 30
0.0
 10
248.770086838523
 20
367.0817843977592
 30
0.0
 10
246.8311929084827
 20
366.8359950446889
 30
0.0
 10
244.9380820370839
 20
366.3460725802267
 30
0.0
 10
243.1299823420267
 20
365.6005430557628
 30
0.0
 10
241.4415993393286
 20
364.6138339151412
 30
0.0
 10
239.897783626029
 20
363.4143458698694
 30
0.0
 10
238.5136806031333
 20
362.0343167533024
 30
0.0
 10
237.2979063618905
 20
360.5044638385426
 30
0.0
 10
236.2552202327878
 20
358.8521728480978
 30
0.0
 10
235.3877325411796
 20
357.101828107065
 30
0.0
 10
234.6946338570021
 20
355.2757042720966
 30
0.0
 10
234.1699600694226
 20
353.3946171348379
 30
0.0
 10
233.8607279052101
 20
351.7972767993067
 30
0.0
 10
233.6756596850426
 20
350.5097557532612
 30
0.0
 10
233.5239299964308
 20
349.2177562566372
 30
0.0
 10
233.4384062925705
 20
348.2459167035831
 30
0.0
 10
233.3817241122013
 20
347.5980364173289
 30
0.0
  0
SPLINE
  5
1AD
330
1A6
100
AcDbEntity
  8
$DDT_AUDIT_GENERATED_(77)
  6
Continuous
 62
     7
100
AcDbSpline
210
0.0
220
0.0
230
1.0
 70
     8
 71
     3
 72
    12
 73
     8
 74
     0
 42
0.0000000002557798
 43
0.0000000001
 40
0.0
 40
0.0
 40
0.0
 40
0.0
 40
0.5000000000000006
 40
0.5000000000000006
 40
0.7500000000000002
 40
0.7500000000000002
 40
1.0
 40
1.0
 40
1.0
 40
1.0
 10
252.6720315743451
 20
367.0499261030725
 30
0.0
 10
259.1819401707076
 20
366.7767078924558
 30
0.0
 10
265.6888021095192
 20
366.3597360542062
 30
0.0
 10
275.4238521867044
 20
365.5166533971108
 30
0.0
 10
278.6653664715037
 20
365.1983705682341
 30
0.0
 10
285.1420328935778
 20
364.4941304440615
 30
0.0
 10
288.3773556297994
 20
364.1092311427992
 30
0.0
 10
291.6101881144658
 20
363.699392412825
 30
0.0
  0
SPLINE
  5
1AE
330
1A6
100
AcDbEntity
  8
$DDT_AUDIT_GENERATED_(77)
  6
Continuous
 62
     7
100
AcDbSpline
210
0.0
220
0.0
230
1.0
 70
     8
 71
     3
 72
    14
 73
    10
 74
     0
 42
0.000000000116267
 43
0.0000000001
 40
0.0
 40
0.0
 40
0.0
 40
0.0
 40
0.25
 40
0.25
 40
0.5
 40
0.5
 40
0.75
 40
0.75
 40
1.0
 40
1.0
 40
1.0
 40
1.0
 10
325.3606301036961
 20
388.6887098057877
 30
0.0
 10
318.5157847733045
 20
390.8165930005605
 30
0.0
 10
311.6661954472968
 20
392.9288749697016
 30
0.0
 10
297.9128830287366
 20
396.9754132151883
 30
0.0
 10
291.010630445269
 20
398.9083630345277
 30
0.0
 10
277.131546737363
 20
402.4803981571181
 30
0.0
 10
270.1530261911809
 20
404.1258611415391
 30
0.0
 10
256.1472856400226
 20
407.177563981762
 30
0.0
 10
249.1199804053981
 20
408.5813551364446
 30
0.0
 10
242.0683425282159
 20
409.8635971285657
 30
0.0
  0
ARC
  5
1AF
330
1A6
100
AcDbEntity
  8
$DDT_AUDIT_GENERATED_(77)
  6
Continuous
 62
     7
100
AcDbCircle
 10
324.7669101337
 20
386.7788677744
 30
0.0
 40
1.999999996899386
100
AcDbArc
 50
311.681850404
 51
72.7308961869
  0
ARC
  5
1B0
330
1A6
100
AcDbEntity
  8
$DDT_AUDIT_GENERATED_(77)
  6
Continuous
 62
     7
100
AcDbCircle
 10
291.8602656243
 20
365.6936053295
 30
0.0
 40
2.009831813323336
100
AcDbArc
 50
262.8523282407
 51
293.5744620006
  0
LINE
  5
1B1
330
1A6
100
AcDbEntity
  8
$DDT_AUDIT_GENERATED_(77)
  6
Continuous
 62
     7
100
AcDbLine
 10
239.1197053416
 20
418.9203186043
 30
0.0
 11
188.3137757389
 21
423.3652614844
 31
0.0
  0
LINE
  5
1B2
330
1A6
100
AcDbEntity
  8
$DDT_AUDIT_GENERATED_(77)
  6
Continuous
 62
     7
100
AcDbLine
 10
179.1411038626
 20
324.2579988049
 30
0.0
 11
231.3397354148
 21
324.2579988049
 31
0.0
  0
ARC
  5
1B3
330
1A6
100
AcDbEntity
  8
$DDT_AUDIT_GENERATED_(77)
  6
Continuous
 62
     7
100
AcDbCircle
 10
338.3955613469
 20
325.4990303566
 30
0.0
 40
57.33841468587782
100
AcDbArc
 50
109.6639030495
 51
134.3698627167
  0
LINE
  5
1B4
330
1A6
100
AcDbEntity
  8
$DDT_AUDIT_GENERATED_(77)
  6
Continuous
 62
     7
100
AcDbLine
 10
239.2459923746
 20
414.6269293744
 30
0.0
 11
239.5742248193
 21
418.3786433839
 31
0.0
  0
LINE
  5
1B5
330
1A6
100
AcDbEntity
  8
$DDT_AUDIT_GENERATED_(77)
  6
Continuous
 62
     7
100
AcDbLine
 10
231.3397354148
 20
324.2579988049
 30
0.0
 11
233.3817241122
 21
347.5980364173
 31
0.0
  0
LINE
  5
1B6
330
1A6
100
AcDbEntity
  8
$DDT_AUDIT_GENERATED_(77)
  6
Continuous
 62
     7
100
AcDbLine
 10
187.7721005185
 20
422.9107420067
 30
0.0
 11
179.1411038626
 21
324.2579988049
 31
0.0
  0
ARC
  5
1B7
330
1A6
100
AcDbEntity
  8
$DDT_AUDIT_GENERATED_(77)
  6
Continuous
 62
     7
100
AcDbCircle
 10
245.6091541306
 20
354.0565256864
 30
0.0
 40
10.63191847350032
100
AcDbArc
 50
131.9762238793
 51
163.3398611567
  0
SPLINE
  5
1B8
330
1A6
100
AcDbEntity
  8
$DDT_AUDIT_GENERATED_(77)
  6
Continuous
 62
     7
100
AcDbSpline
210
0.0
220
0.0
230
1.0
 70
     8
 71
     3
 72
    18
 73
    14
 74
     0
 42
0.0000000025617568
 43
0.0000000001
 40
0.0
 40
0.0
 40
0.0
 40
0.0
 40
0.1966674260987466
 40
0.3493350049389856
 40
0.4569466088090312
 40
0.4957914692427188
 40
0.5272661438845714
 40
0.5418343474120402
 40
0.5570366211362113
 40
0.5913915890211736
 40
0.6849960981033019
 40
0.8200315689736083
 40
1.0
 40
1.0
 40
1.0
 40
1.0
 10
241.4463411745865
 20
410.0460868097829
 30
0.0
 10
241.2331634421101
 20
410.1339499654682
 30
0.0
 10
240.9105339319027
 20
410.2790664476637
 30
0.0
 10
240.3618665821
 20
410.6153317297384
 30
0.0
 10
239.9904527946556
 20
410.9460773043275
 30
0.0
 10
239.7670032001382
 20
411.2304005310958
 30
0.0
 10
239.6639605767196
 20
411.3978915733489
 30
0.0
 10
239.6006916734131
 20
411.5259496730698
 30
0.0
 10
239.5446008066485
 20
411.657921089511
 30
0.0
 10
239.4574212260906
 20
411.9272835070864
 30
0.0
 10
239.4016828181535
 20
412.2831208221046
 30
0.0
 10
239.3732654133167
 20
412.6661635722545
 30
0.0
 10
239.3447732350414
 20
412.8524820826247
 30
0.0
 10
239.3285280795635
 20
412.9693668268587
 30
0.0
  0
ARC
  5
1B9
330
1A6
100
AcDbEntity
  8
$DDT_AUDIT_GENERATED_(77)
  6
Continuous
 62
     7
100
AcDbCircle
 10
236.9901197781
 20
-41.4960255183
 30
0.0
 40
409.1408459095543
100
AcDbArc
 50
82.2883203751
 51
87.8787900588
  0
ARC
  5
1BA
330
1A6
100
AcDbEntity
  8
$DDT_AUDIT_GENERATED_(77)
  6
Continuous
 62
     7
100
AcDbCircle
 10
130.4252452458
 20
-207.6800545406
 30
0.0
 40
627.1544055385342
100
AcDbArc
 50
71.9213424124
 51
79.7742212484
  0
ARC
  5
1BB
330
1A6
100
AcDbEntity
  8
$DDT_AUDIT_GENERATED_(77)
  6
Continuous
 62
     7
100
AcDbCircle
 10
238.7203384422
 20
414.2807267158
 30
0.0
 40
0.505217133331881
100
AcDbArc
 50
356.2710685641
 51
40.9376448387
  0
ARC
  5
1BC
330
1A6
100
AcDbEntity
  8
$DDT_AUDIT_GENERATED_(77)
  6
Continuous
 62
     7
100
AcDbCircle
 10
232.5247318855
 20
348.124421104
 30
0.0
 40
0.9006682221849449
100
AcDbArc
 50
331.1841100516
 51
357.4232430073
  0
ARC
  5
1BD
330
1A6
100
AcDbEntity
  8
$DDT_AUDIT_GENERATED_(77)
  6
Continuous
 62
     7
100
AcDbCircle
 10
253.724274354
 20
466.080653082
 30
0.0
 40
108.4624089210434
100
AcDbArc
 50
307.0437887959
 51
311.8526289384
  0
LINE
  5
1BE
330
1A6
100
AcDbEntity
  8
$DDT_AUDIT_GENERATED_(77)
  6
Continuous
 62
     7
100
AcDbLine
 10
292.6610420923
 20
363.8582924098
 30
0.0
 11
298.3194289036
 21
366.5418300166
 31
0.0
  0
ARC
  5
1BF
330
1A6
100
AcDbEntity
  8
$DDT_AUDIT_GENERATED_(77)
  6
Continuous
 62
     7
100
AcDbCircle
 10
188.2701978675
 20
422.8671641354
 30
0.0
 40
0.5000000000000046
100
AcDbArc
 50
85.0
 51
175.0
  0
ARC
  5
1C0
330
1A6
100
AcDbEntity
  8
$DDT_AUDIT_GENERATED_(77)
  6
Continuous
 62
     7
100
AcDbCircle
 10
239.0761274702
 20
418.4222212552
 30
0.0
 40
0.500000000000019
100
AcDbArc
 50
355.0
 51
85.0
  0
ARC
  5
1C1
330
1A6
100
AcDbEntity
  8
$DDT_AUDIT_GENERATED_(93)
  6
Continuous
 62
     7
100
AcDbCircle
 10
213.010779024
 20
413.0736129898
 30
0.0
 40
26.3
100
AcDbArc
 50
123.5017048999
 51
157.0621734783
  0
ARC
  5
1C2
330
1A6
100
AcDbEntity
  8
$DDT_AUDIT_GENERATED_(93)
  6
Continuous
 62
     7
100
AcDbCircle
 10
213.010779024
 20
413.0736129898
 30
0.0
 40
26.29999999999999
100
AcDbArc
 50
12.9378265217
 51
17.3558897089
  0
LINE
  5
1C3
330
1A6
100
AcDbEntity
  8
02636038_GEHÄUSE
  6
Continuous
 62
     7
100
AcDbLine
 10
320.5582914119
 20
374.7973227103
 30
0.0
 11
302.9465224597
 21
362.4654293288
 31
0.0
  0
SPLINE
  5
1C4
330
1A6
100
AcDbEntity
  8
02636038_GEHÄUSE
  6
Continuous
 62
     7
100
AcDbSpline
210
0.0
220
0.0
230
1.0
 70
     8
 71
     3
 72
    10
 73
     6
 74
     0
 42
0.0000000019260148
 43
0.0000000001
 40
0.0
 40
0.0
 40
0.0
 40
0.0
 40
0.5
 40
0.5
 40
1.0
 40
1.0
 40
1.0
 40
1.0
 10
313.6890115286432
 20
370.3750491495733
 30
0.0
 10
313.0480074332979
 20
369.7870978100906
 30
0.0
 10
312.375687552117
 20
369.2439930954605
 30
0.0
 10
310.9631829231855
 20
368.2549713985372
 30
0.0
 10
310.2229990895784
 20
367.80905310712
 30
0.0
 10
309.4515323820634
 20
367.4079343081317
 30
0.0
  0
LINE
  5
1C5
330
1A6
100
AcDbEntity
  8
02636038_GEHÄUSE
  6
Continuous
 62
     7
100
AcDbLine
 10
313.5301378176
 20
373.5384803502
 30
0.0
 11
306.5332174359
 21
368.6391839546
 31
0.0
  0
LINE
  5
1C6
330
1A6
100
AcDbEntity
  8
02636038_GEHÄUSE
  6
Continuous
 62
     7
100
AcDbLine
 10
313.5301378176
 20
373.5384803502
 30
0.0
 11
314.5720003813
 21
372.0505464065
 31
0.0
  0
SPLINE
  5
1C7
330
1A6
100
AcDbEntity
  8
02636038_GEHÄUSE
  6
Continuous
 62
     7
100
AcDbSpline
210
0.0
220
0.0
230
1.0
 70
     8
 71
     3
 72
    14
 73
    10
 74
     0
 42
0.0000000049320844
 43
0.0000000001
 40
0.0
 40
0.0
 40
0.0
 40
0.0
 40
0.1249999999999997
 40
0.1249999999999997
 40
0.2499999999999994
 40
0.2499999999999994
 40
0.4999999999999996
 40
0.4999999999999996
 40
1.0
 40
1.0
 40
1.0
 40
1.0
 10
314.5720003813352
 20
372.0505464065452
 30
0.0
 10
314.6204246815072
 20
371.9813893387766
 30
0.0
 10
314.6422729903724
 20
371.8940912018435
 30
0.0
 10
314.6436119438885
 20
371.7251219497178
 30
0.0
 10
314.6257382931182
 20
371.6405559271815
 30
0.0
 10
314.5466610961025
 20
371.4007114137521
 30
0.0
 10
314.4598310016896
 20
371.2527610463841
 30
0.0
 10
314.1724650955145
 20
370.8423592554141
 30
0.0
 10
313.9351962132469
 20
370.6008583388186
 30
0.0
 10
313.6890115286432
 20
370.3750491495733
 30
0.0
  0
SPLINE
  5
1C8
330
1A6
100
AcDbEntity
  8
02636038_GEHÄUSE
  6
Continuous
 62
     7
100
AcDbSpline
210
0.0
220
0.0
230
1.0
 70
     8
 71
     3
 72
    14
 73
    10
 74
     0
 42
0.0000000049319876
 43
0.0000000001
 40
0.0
 40
0.0
 40
0.0
 40
0.0
 40
0.4999999999999996
 40
0.4999999999999996
 40
0.7499999999999993
 40
0.7499999999999993
 40
0.8749999999999997
 40
0.8749999999999997
 40
1.0
 40
1.0
 40
1.0
 40
1.0
 10
309.4515323820634
 20
367.4079343081317
 30
0.0
 10
309.1538692366446
 20
367.2531664066391
 30
0.0
 10
308.8482791680214
 20
367.1137383893838
 30
0.0
 10
308.3618710063057
 20
366.9834902296599
 30
0.0
 10
308.1944958098529
 20
366.9529853172318
 30
0.0
 10
307.9437071102243
 20
366.9603835832968
 30
0.0
 10
307.8577033784804
 20
366.9723151036436
 30
0.0
 10
307.6985055986636
 20
367.03139103561
 30
0.0
 10
307.6237339037768
 20
367.0817650346994
 30
0.0
 10
307.5750799995871
 20
367.1512500109922
 30
0.0
  0
LINE
  5
1C9
330
1A6
100
AcDbEntity
  8
02636038_GEHÄUSE
  6
Continuous
 62
     7
100
AcDbLine
 10
307.5750799996
 20
367.151250011
 30
0.0
 11
306.5332174359
 21
368.6391839546
 31
0.0
  0
LINE
  5
1CA
330
1A6
100
AcDbEntity
  8
02636038_GEHÄUSE
  6
Continuous
 62
     7
100
AcDbLine
 10
302.3138538549
 20
362.4100779981
 30
0.0
 11
302.9465224597
 21
362.4654293288
 31
0.0
  0
LINE
  5
1CB
330
1A6
100
AcDbEntity
  8
02636038_GEHÄUSE
  6
Continuous
 62
     7
100
AcDbLine
 10
320.5582914119
 20
374.7973227103
 30
0.0
 11
320.8266900558
 21
375.3729054596
 31
0.0
  0
ARC
  5
1CC
330
1A6
100
AcDbEntity
  8
02636038_GEHÄUSE
  6
Continuous
 62
     7
100
AcDbCircle
 10
319.9203822688
 20
375.7955237214
 30
0.0
 40
1.000000000000002
100
AcDbArc
 50
335.0
 51
35.0
  0
ARC
  5
1CD
330
1A6
100
AcDbEntity
  8
02636038_GEHÄUSE
  6
Continuous
 62
     7
100
AcDbCircle
 10
302.2266981121
 20
363.4062726962
 30
0.0
 40
0.9999999999999888
100
AcDbArc
 50
215.0
 51
275.0
  0
LINE
  5
1CE
330
1A6
100
AcDbEntity
  8
02636038_GEHÄUSE
  6
Continuous
 62
     7
100
AcDbLine
 10
298.6275551058
 20
366.8029348111
 30
0.0
 11
301.4075460679
 21
362.8326962598
 31
0.0
  0
LINE
  5
1CF
330
1A6
100
AcDbEntity
  8
02636038_GEHÄUSE
  6
Continuous
 62
     7
100
AcDbLine
 10
320.7395343131
 20
376.3691001577
 30
0.0
 11
318.6657532123
 21
379.3307665031
 31
0.0
  0
LINE
  5
1D0
330
1A6
100
AcDbEntity
  8
$DDT_AUDIT_GENERATED_(AC)
  6
Continuous
 62
     7
100
AcDbLine
 10
319.354205909
 20
373.465903129
 30
0.0
 11
304.6094691118
 21
363.1415272747
 31
0.0
  0
LINE
  5
1D1
330
1A6
100
AcDbEntity
  8
$DDT_AUDIT_GENERATED_(AC)
  6
Continuous
 62
     7
100
AcDbLine
 10
304.3800385372
 20
363.4691880924
 30
0.0
 11
304.6094691118
 21
363.1415272747
 31
0.0
  0
LINE
  5
1D2
330
1A6
100
AcDbEntity
  8
$DDT_AUDIT_GENERATED_(AC)
  6
Continuous
 62
     7
100
AcDbLine
 10
319.354205909
 20
373.465903129
 30
0.0
 11
319.1247753344
 21
373.7935639467
 31
0.0
  0
LINE
  5
1D3
330
1A6
100
AcDbEntity
  8
$DDT_AUDIT_GENERATED_(174)
  6
Continuous
 62
     7
100
AcDbLine
 10
241.6744803335
 20
432.2500096546
 30
0.0
 11
241.5942761977
 21
429.9532637063
 31
0.0
  0
SPLINE
  5
1D4
330
1A6
100
AcDbEntity
  8
$DDT_AUDIT_GENERATED_(176)
  6
Continuous
 62
     7
100
AcDbSpline
210
0.0
220
0.0
230
1.0
 70
     8
 71
     3
 72
    18
 73
    14
 74
     0
 42
0.0000000005330501
 43
0.0000000001
 40
0.0
 40
0.0
 40
0.0
 40
0.0
 40
0.0327236881959001
 40
0.0816434119860562
 40
0.1171932157947471
 40
0.1573284263686617
 40
0.202282008948891
 40
0.3326097408161886
 40
0.462711367890534
 40
0.7339538518913061
 40
0.8991542023975287
 40
0.9885185979308755
 40
1.0
 40
1.0
 40
1.0
 40
1.0
 10
241.463816556087
 20
439.1859737038151
 30
0.0
 10
241.3929926061724
 20
439.2273361999797
 30
0.0
 10
241.2162899257734
 20
439.3305194874946
 30
0.0
 10
240.9178561263418
 20
439.4536463251845
 30
0.0
 10
240.5739191291277
 20
439.646679056414
 30
0.0
 10
240.2261941408153
 20
439.9343488525726
 30
0.0
 10
239.5700039215955
 20
440.5525778802336
 30
0.0
 10
238.5417876823915
 20
441.7094625749518
 30
0.0
 10
236.6887159465969
 20
444.4032539432638
 30
0.0
 10
234.9126630691702
 20
448.2999165100665
 30
0.0
 10
234.0453939908687
 20
452.4308153174716
 30
0.0
 10
233.8285847948121
 20
454.5856913620879
 30
0.0
 10
233.7721010280839
 20
455.4068133078497
 30
0.0
 10
233.7659098772645
 20
455.5003494293274
 30
0.0
  0
SPLINE
  5
1D5
330
1A6
100
AcDbEntity
  8
$DDT_AUDIT_GENERATED_(176)
  6
Continuous
 62
     7
100
AcDbSpline
210
0.0
220
0.0
230
1.0
 70
     8
 71
     3
 72
    24
 73
    20
 74
     0
 42
0.0000000018456997
 43
0.0000000001
 40
0.0
 40
0.0
 40
0.0
 40
0.0
 40
0.0306379832832667
 40
0.0602204990189566
 40
0.0886862122696763
 40
0.1159786160645398
 40
0.1420461109009153
 40
0.1668420047205237
 40
0.1903244446768597
 40
0.2124562940289161
 40
0.2332049694336188
 40
0.3565649055434463
 40
0.4789747641619769
 40
0.6093826036798106
 40
0.7615412911362582
 40
0.8405397781068984
 40
0.9290728494308239
 40
0.9664960763634445
 40
1.0
 40
1.0
 40
1.0
 40
1.0
 10
306.4760517727327
 20
437.5928586827437
 30
0.0
 10
306.470356251251
 20
437.6044906147878
 30
0.0
 10
306.4591448080789
 20
437.6274077532522
 30
0.0
 10
306.4478881698867
 20
437.6719825694385
 30
0.0
 10
306.4406413004469
 20
437.722135848524
 30
0.0
 10
306.4373857848676
 20
437.7775512581107
 30
0.0
 10
306.4376499829737
 20
437.8369473222836
 30
0.0
 10
306.4410866638675
 20
437.899287581558
 30
0.0
 10
306.4473410118246
 20
437.9634897554881
 30
0.0
 10
306.4560581296261
 20
438.0285308569703
 30
0.0
 10
306.4852539044869
 20
438.2018039633457
 30
0.0
 10
306.5723384072758
 20
438.5356437581656
 30
0.0
 10
306.7822278050892
 20
439.132085696878
 30
0.0
 10
307.1090020907924
 20
439.8938374155032
 30
0.0
 10
307.4720890534475
 20
440.679212178674
 30
0.0
 10
307.824776584407
 20
441.4307153815962
 30
0.0
 10
308.0621525396916
 20
441.935872218601
 30
0.0
 10
308.2501963455547
 20
442.3387181957343
 30
0.0
 10
308.334270760463
 20
442.5208457357119
 30
0.0
 10
308.375088251322
 20
442.6064097685001
 30
0.0
  0
ARC
  5
1D6
330
1A6
100
AcDbEntity
  8
$DDT_AUDIT_GENERATED_(176)
  6
Continuous
 62
     7
100
AcDbCircle
 10
315.7735522892
 20
464.9507869374
 30
0.0
 40
23.53738433189042
100
AcDbArc
 50
251.6797363913
 51
255.4163023285
  0
ARC
  5
1D7
330
1A6
100
AcDbEntity
  8
$DDT_AUDIT_GENERATED_(176)
  6
Continuous
 62
     7
100
AcDbCircle
 10
318.6231085898
 20
472.0960054182
 30
0.0
 40
31.13083028375115
100
AcDbArc
 50
253.8426340578
 51
259.0668350204
  0
SPLINE
  5
1D8
330
1A6
100
AcDbEntity
  8
$DDT_AUDIT_GENERATED_(176)
  6
Continuous
 62
     7
100
AcDbSpline
210
0.0
220
0.0
230
1.0
 70
     8
 71
     3
 72
    18
 73
    14
 74
     0
 42
0.0000000010307753
 43
0.0000000001
 40
0.0
 40
0.0
 40
0.0
 40
0.0
 40
0.0070670600049476
 40
0.1355864252801898
 40
0.2953365524488183
 40
0.4218880817450662
 40
0.579203071512186
 40
0.7468567622044443
 40
0.8331227938562169
 40
0.873371920720933
 40
0.8950777826023422
 40
0.948718358374591
 40
1.0
 40
1.0
 40
1.0
 40
1.0
 10
245.2747302376521
 20
455.131497117959
 30
0.0
 10
245.2860562392139
 20
455.104797795154
 30
0.0
 10
245.5033092783221
 20
454.5926584946425
 30
0.0
 10
246.1100572471114
 20
453.5605310207653
 30
0.0
 10
247.0865208592872
 20
452.2912529247014
 30
0.0
 10
248.135597383312
 20
451.0730209406873
 30
0.0
 10
249.197472348019
 20
449.9943987958763
 30
0.0
 10
250.1276906403055
 20
449.2067064442949
 30
0.0
 10
250.7722734925388
 20
448.7793831952378
 30
0.0
 10
251.0745088879075
 20
448.5989999356923
 30
0.0
 10
251.2651967254282
 20
448.4726730944307
 30
0.0
 10
251.5057719180618
 20
448.3567065765046
 30
0.0
 10
251.7363623392175
 20
448.2919008778185
 30
0.0
 10
251.8485856570757
 20
448.2603867896676
 30
0.0
  0
ARC
  5
1D9
330
1A6
100
AcDbEntity
  8
$DDT_AUDIT_GENERATED_(176)
  6
Continuous
 62
     7
100
AcDbCircle
 10
213.3618476731
 20
129.1472785307
 30
0.0
 40
327.5425817226574
100
AcDbArc
 50
73.1373113771
 51
84.4087305991
  0
ARC
  5
1DA
330
1A6
100
AcDbEntity
  8
$DDT_AUDIT_GENERATED_(176)
  6
Continuous
 62
     7
100
AcDbCircle
 10
237.1401281715
 20
413.5127935292
 30
0.0
 40
42.12291774749156
100
AcDbArc
 50
90.0769500788
 51
94.5945492645
  0
ARC
  5
1DB
330
1A6
100
AcDbEntity
  8
$DDT_AUDIT_GENERATED_(176)
  6
Continuous
 62
     7
100
AcDbCircle
 10
237.2948034874
 20
392.276075181
 30
0.0
 40
63.35995026680591
100
AcDbArc
 50
82.7646156972
 51
90.191029602
  0
ARC
  5
1DC
330
1A6
100
AcDbEntity
  8
$DDT_AUDIT_GENERATED_(176)
  6
Continuous
 62
     7
100
AcDbCircle
 10
219.2259584254
 20
666.5365669133
 30
0.0
 40
211.5379065586591
100
AcDbArc
 50
262.0101845626
 51
273.9412642939
  0
SPLINE
  5
1DD
330
1A6
100
AcDbEntity
  8
$DDT_AUDIT_GENERATED_(176)
  6
Continuous
 62
     7
100
AcDbSpline
210
0.0
220
0.0
230
1.0
 70
     8
 71
     3
 72
    16
 73
    12
 74
     0
 42
0.0000000026114593
 43
0.0000000001
 40
0.4995609391345757
 40
0.4995609391345757
 40
0.4995609391345757
 40
0.4995609391345757
 40
0.4999999999999996
 40
0.4999999999999996
 40
0.6250000000000001
 40
0.6250000000000001
 40
0.6875000000000004
 40
0.6875000000000004
 40
0.7500000000000007
 40
0.7500000000000007
 40
1.0
 40
1.0
 40
1.0
 40
1.0
 10
314.6323753033149
 20
441.6309316737814
 30
0.0
 10
314.6323752306977
 20
441.6309316245955
 30
0.0
 10
314.6323746391294
 20
441.6309315448588
 30
0.0
 10
314.6320573575893
 20
441.6309000338114
 30
0.0
 10
314.5896779529904
 20
441.6283916863522
 30
0.0
 10
314.4619466850286
 20
441.6210623686085
 30
0.0
 10
314.4087226681747
 20
441.6180298688121
 30
0.0
 10
314.2828895563582
 20
441.6109498473817
 30
0.0
 10
314.2101572403162
 20
441.6068952659875
 30
0.0
 10
313.7997269776599
 20
441.5843408614585
 30
0.0
 10
313.322536140724
 20
441.5589606934408
 30
0.0
 10
312.7187168222196
 20
441.5302279536904
 30
0.0
  0
ARC
  5
1DE
330
1A6
100
AcDbEntity
  8
$DDT_AUDIT_GENERATED_(176)
  6
Continuous
 62
     7
100
AcDbCircle
 10
273.3302936702
 20
430.0628399909
 30
0.0
 40
31.73897251322033
100
AcDbArc
 50
168.6131474237
 51
176.0506307733
  0
ARC
  5
1DF
330
1A6
100
AcDbEntity
  8
$DDT_AUDIT_GENERATED_(176)
  6
Continuous
 62
     7
100
AcDbCircle
 10
273.3302936702
 20
430.0628399909
 30
0.0
 40
31.73897251322033
100
AcDbArc
 50
180.1589480777
 51
181.3868495229
  0
LINE
  5
1E0
330
1A6
100
AcDbEntity
  8
$DDT_AUDIT_GENERATED_(176)
  6
Continuous
 62
     7
100
AcDbLine
 10
188.9921999001
 20
442.164636561
 30
0.0
 11
213.0112837645
 21
424.0649586352
 31
0.0
  0
ELLIPSE
  5
1E1
330
1A6
100
AcDbEntity
  8
$DDT_AUDIT_GENERATED_(176)
  6
Continuous
 62
     7
100
AcDbEllipse
 10
214.2128587164
 20
423.7306624808
 30
0.0
 11
0.2106972151224382
 21
0.3400098285926967
 31
0.0
210
0.0
220
0.0
230
1.0
 40
0.1764543501
 41
2.698156059785281
 42
3.142012615151427
  0
SPLINE
  5
1E2
330
1A6
100
AcDbEntity
  8
$DDT_AUDIT_GENERATED_(176)
  6
Continuous
 62
     7
100
AcDbSpline
210
0.0
220
0.0
230
1.0
 70
     8
 71
     3
 72
    19
 73
    15
 74
     0
 42
0.0000000000800237
 43
0.0000000001
 40
0.0
 40
0.0
 40
0.0
 40
0.0
 40
0.0749069825037302
 40
0.1566984095992782
 40
0.2383185402707785
 40
0.3197971059813032
 40
0.4011903805733691
 40
0.4825008031773827
 40
0.5637055802730195
 40
0.6528610080981214
 40
0.7417699930270844
 40
0.8304290841724323
 40
0.9189456218485775
 40
1.0
 40
1.0
 40
1.0
 40
1.0
 10
314.2866601868874
 20
443.7684460049577
 30
0.0
 10
311.0018353189747
 20
444.7616383305077
 30
0.0
 10
305.2021132391062
 20
446.5036626242591
 30
0.0
 10
295.4472860008696
 20
449.2311240207055
 30
0.0
 10
285.6102275318345
 20
451.711352266503
 30
0.0
 10
275.6407198542536
 20
453.8672577937933
 30
0.0
 10
265.6232509778447
 20
455.6130061145515
 30
0.0
 10
255.5545590402226
 20
456.981811442764
 30
0.0
 10
245.1216621418136
 20
458.0200019459125
 30
0.0
 10
234.3472068623988
 20
458.7057022608049
 30
0.0
 10
223.224502369652
 20
459.0142467846046
 30
0.0
 10
212.2018546607408
 20
458.9638348886165
 30
0.0
 10
201.2314880824291
 20
458.6428445676237
 30
0.0
 10
194.6859046358505
 20
458.3270073049892
 30
0.0
 10
190.9772194279443
 20
458.1415343246852
 30
0.0
  0
ARC
  5
1E3
330
1A6
100
AcDbEntity
  8
$DDT_AUDIT_GENERATED_(176)
  6
Continuous
 62
     7
100
AcDbCircle
 10
231.6855409076
 20
195.1353078257
 30
0.0
 40
253.4456625252784
100
AcDbArc
 50
72.7594919894
 51
85.1196358087
  0
LINE
  5
1E4
330
1A6
100
AcDbEntity
  8
$DDT_AUDIT_GENERATED_(176)
  6
Continuous
 62
     7
100
AcDbLine
 10
308.5409940509
 20
437.4559967993
 30
0.0
 11
314.6198754822
 21
441.6223644982
 31
0.0
  0
ARC
  5
1E5
330
1A6
100
AcDbEntity
  8
$DDT_AUDIT_GENERATED_(176)
  6
Continuous
 62
     7
100
AcDbCircle
 10
252.3748515202
 20
437.7075939948
 30
0.0
 40
9.999999503653369
100
AcDbArc
 50
84.9844185265
 51
174.9999957852
  0
ARC
  5
1E6
330
1A6
100
AcDbEntity
  8
$DDT_AUDIT_GENERATED_(176)
  6
Continuous
 62
     7
100
AcDbCircle
 10
307.412197285
 20
439.1058359225
 30
0.0
 40
2.002789996740713
100
AcDbArc
 50
253.8349740253
 51
304.3797073375
  0
ARC
  5
1E7
330
1A6
100
AcDbEntity
  8
$DDT_AUDIT_GENERATED_(176)
  6
Continuous
 62
     7
100
AcDbCircle
 10
191.0074364689
 20
456.9581293134
 30
0.0
 40
1.183688716291134
100
AcDbArc
 50
91.4560231436
 51
175.6049243919
  0
ARC
  5
1E8
330
1A6
100
AcDbEntity
  8
$DDT_AUDIT_GENERATED_(176)
  6
Continuous
 62
     7
100
AcDbCircle
 10
313.9583906772
 20
442.6229012646
 30
0.0
 40
1.193973716989003
100
AcDbArc
 50
303.4590512637
 51
74.0032465784
  0
LINE
  5
1E9
330
1A6
100
AcDbEntity
  8
$DDT_AUDIT_GENERATED_(176)
  6
Continuous
 62
     7
100
AcDbLine
 10
242.2160595338
 20
436.3291922269
 30
0.0
 11
242.4129209454
 21
438.5793284584
 31
0.0
  0
LINE
  5
1EA
330
1A6
100
AcDbEntity
  8
$DDT_AUDIT_GENERATED_(176)
  6
Continuous
 62
     7
100
AcDbLine
 10
240.9223526241
 20
421.5420545841
 30
0.0
 11
241.6032843094
 21
429.325139362
 31
0.0
  0
LINE
  5
1EB
330
1A6
100
AcDbEntity
  8
$DDT_AUDIT_GENERATED_(176)
  6
Continuous
 62
     7
100
AcDbLine
 10
189.8227505335
 20
457.0514453048
 30
0.0
 11
188.5978202252
 21
443.0504278138
 31
0.0
  0
ARC
  5
1EC
330
1A6
100
AcDbEntity
  8
$DDT_AUDIT_GENERATED_(176)
  6
Continuous
 62
     7
100
AcDbCircle
 10
239.926157926
 20
421.6292103269
 30
0.0
 40
0.9999999999998218
100
AcDbArc
 50
304.1280654846
 51
355.0
  0
ARC
  5
1ED
330
1A6
100
AcDbEntity
  8
$DDT_AUDIT_GENERATED_(176)
  6
Continuous
 62
     7
100
AcDbCircle
 10
189.5940149233
 20
442.963272071
 30
0.0
 40
1.000000000000007
100
AcDbArc
 50
176.7687346204
 51
233.0
  0
ARC
  5
1EE
330
1A6
100
AcDbEntity
  8
$DDT_AUDIT_GENERATED_(176)
  6
Continuous
 62
     7
100
AcDbCircle
 10
240.2627846502
 20
421.1325389581
 30
0.0
 40
0.4000000000000073
100
AcDbArc
 50
265.0
 51
304.1280654847
  0
LINE
  5
1EF
330
1A6
100
AcDbEntity
  8
$DDT_AUDIT_GENERATED_(176)
  6
Continuous
 62
     7
100
AcDbLine
 10
215.5030720127
 20
422.8972051911
 30
0.0
 11
240.2279223531
 21
420.7340610789
 31
0.0
  0
ARC
  5
1F0
330
1A6
100
AcDbEntity
  8
$DDT_AUDIT_GENERATED_(176)
  6
Continuous
 62
     7
100
AcDbCircle
 10
215.7334718749
 20
426.1329419198
 30
0.0
 40
3.237931643633502
100
AcDbArc
 50
239.4224336932
 51
265.9237005915
  0
ARC
  5
1F1
330
1A6
100
AcDbEntity
  8
$DDT_AUDIT_GENERATED_(176)
  6
Continuous
 62
     7
100
AcDbCircle
 10
214.4258424074
 20
424.0205966268
 30
0.0
 40
0.7587303321472066
100
AcDbArc
 50
236.0780484144
 51
243.2790960785
  0
ARC
  5
1F2
330
1A6
100
AcDbEntity
  8
$DDT_AUDIT_GENERATED_(176)
  6
Continuous
 62
     7
100
AcDbCircle
 10
220.4374638638
 20
433.9431209164
 30
0.0
 40
12.35566060891429
100
AcDbArc
 50
233.4088461984
 51
238.6272331405
  0
ENDBLK
  5
1F4
330
1A6
100
AcDbEntity
  8
0
100
AcDbBlockEnd
  0
BLOCK
  5
213
330
1F5
100
AcDbEntity
  8
0
100
AcDbBlockBegin
  2
SE2
 70
     0
 10
0.0
 20
0.0
 30
0.0
  3
SE2
  1

  0
LINE
  5
1F7
330
1F5
100
AcDbEntity
  8
$DDT_AUDIT_GENERATED_(77)
  6
Continuous
 62
     7
100
AcDbLine
 10
63.4470298163
 20
107.7559067976
 30
0.0
 11
63.4470298163
 21
117.9628548184
 31
0.0
  0
SPLINE
  5
1F8
330
1F5
100
AcDbEntity
  8
$DDT_AUDIT_GENERATED_(77)
  6
Continuous
 62
     7
100
AcDbSpline
210
0.0
220
0.0
230
1.0
 70
     8
 71
     3
 72
     8
 73
     4
 74
     0
 42
0.0000000002110997
 43
0.0000000001
 40
0.5194986994755891
 40
0.5194986994755891
 40
0.5194986994755891
 40
0.5194986994755891
 40
0.5204796007478149
 40
0.5204796007478149
 40
0.5204796007478149
 40
0.5204796007478149
 10
79.28389383555941
 20
124.5258080566908
 30
0.0
 10
79.28270930728583
 20
124.5103680975383
 30
0.0
 10
79.28150568763674
 20
124.4949261655377
 30
0.0
 10
79.28028298718762
 20
124.4794823310923
 30
0.0
  0
ELLIPSE
  5
1F9
330
1F5
100
AcDbEntity
  8
$DDT_AUDIT_GENERATED_(77)
  6
Continuous
 62
     7
100
AcDbEllipse
 10
63.4470298163
 20
227.8761172625
 30
0.0
 11
0.0
 21
25.99999999999999
 31
0.0
210
0.0
220
0.0
230
1.0
 40
1.0
 41
-1.570796326794897
 42
0.0
  0
ELLIPSE
  5
1FA
330
1F5
100
AcDbEntity
  8
$DDT_AUDIT_GENERATED_(77)
  6
Continuous
 62
     7
100
AcDbEllipse
 10
63.4470298163
 20
227.8761172625
 30
0.0
 11
0.0
 21
26.09931577612699
 31
0.0
210
0.0
220
0.0
230
1.0
 40
1.0
 41
0.0
 42
1.570796326794897
  0
LINE
  5
1FB
330
1F5
100
AcDbEntity
  8
$DDT_AUDIT_GENERATED_(77)
  6
Continuous
 62
     7
100
AcDbLine
 10
37.4470298163
 20
227.8761172625
 30
0.0
 11
37.4470298163
 21
225.9080542547
 31
0.0
  0
LINE
  5
1FC
330
1F5
100
AcDbEntity
  8
$DDT_AUDIT_GENERATED_(77)
  6
Continuous
 62
     7
100
AcDbLine
 10
89.4470298163
 20
225.9080542548
 30
0.0
 11
89.4470298163
 21
227.8761172625
 31
0.0
  0
SPLINE
  5
1FD
330
1F5
100
AcDbEntity
  8
$DDT_AUDIT_GENERATED_(77)
  6
Continuous
 62
     7
100
AcDbSpline
210
0.0
220
0.0
230
1.0
 70
     8
 71
     3
 72
    11
 73
     7
 74
     0
 42
0.0000000001910017
 43
0.0000000001
 40
0.9501995558901875
 40
0.9501995558901875
 40
0.9501995558901875
 40
0.9501995558901875
 40
0.9502632475241274
 40
0.9646682719624724
 40
0.9812396755114239
 40
1.0
 40
1.0
 40
1.0
 40
1.0
 10
41.54619379143684
 20
200.4841284701023
 30
0.0
 10
41.54625232840046
 20
200.4830152902639
 30
0.0
 10
41.55955163030603
 20
200.230141384241
 30
0.0
 10
41.58884911779816
 20
199.6901878321497
 30
0.0
 10
41.64079299882629
 20
198.8074078160668
 30
0.0
 10
41.68507321294242
 20
198.2402329764036
 30
0.0
 10
41.71315114830878
 20
197.8822959459532
 30
0.0
  0
ARC
  5
1FE
330
1F5
100
AcDbEntity
  8
$DDT_AUDIT_GENERATED_(77)
  6
Continuous
 62
     7
100
AcDbCircle
 10
-7565.928201017
 20
-450.7653932884
 30
0.0
 40
7635.242252035046
100
AcDbArc
 50
4.321058139
 51
4.8733370164
  0
SPLINE
  5
1FF
330
1F5
100
AcDbEntity
  8
$DDT_AUDIT_GENERATED_(77)
  6
Continuous
 62
     7
100
AcDbSpline
210
0.0
220
0.0
230
1.0
 70
     8
 71
     3
 72
    11
 73
     7
 74
     0
 42
0.0000000001910017
 43
0.0000000001
 40
0.0
 40
0.0
 40
0.0
 40
0.0
 40
0.0187604404710778
 40
0.0353319464699011
 40
0.0497370599648491
 40
0.0499043946798908
 40
0.0499043946798908
 40
0.0499043946798908
 40
0.0499043946798908
 10
85.18090848424231
 20
197.8822959459532
 30
0.0
 10
85.20898641960866
 20
198.2402329764036
 30
0.0
 10
85.25326667093849
 20
198.8074077359994
 30
0.0
 10
85.30521040703314
 20
199.6901880639147
 30
0.0
 10
85.33460602782297
 20
200.2319438383813
 30
0.0
 10
85.34799781176274
 20
200.4866381248453
 30
0.0
 10
85.3481515418654
 20
200.4895629235738
 30
0.0
  0
ARC
  5
200
330
1F5
100
AcDbEntity
  8
$DDT_AUDIT_GENERATED_(77)
  6
Continuous
 62
     7
100
AcDbCircle
 10
7692.240610168
 20
-450.7167934979
 30
0.0
 40
7634.658575551949
100
AcDbArc
 50
175.1266555614
 51
175.6788936009
  0
SPLINE
  5
201
330
1F5
100
AcDbEntity
  8
$DDT_AUDIT_GENERATED_(77)
  6
Continuous
 62
     7
100
AcDbSpline
210
0.0
220
0.0
230
1.0
 70
     8
 71
     3
 72
    40
 73
    36
 74
     0
 42
0.0000000003794888
 43
0.0000000001
 40
0.0
 40
0.0
 40
0.0
 40
0.0
 40
0.0239066351580579
 40
0.0481003474231946
 40
0.0720641026534745
 40
0.0956624374845401
 40
0.118713235785349
 40
0.1429800937859362
 40
0.1675746912821528
 40
0.192567301525369
 40
0.2180119532157731
 40
0.2439558519636676
 40
0.2704373754280316
 40
0.2974838182604793
 40
0.3251087550530032
 40
0.3533090647485347
 40
0.3819346307914682
 40
0.4111719018143624
 40
0.4415709405980594
 40
0.4725132469031117
 40
0.5040900215592915
 40
0.536382128600546
 40
0.5694694921943563
 40
0.6034301803891609
 40
0.6383318251770358
 40
0.6744152518425669
 40
0.7115273419744205
 40
0.7488690508967627
 40
0.7864426446486954
 40
0.8242420752722358
 40
0.8622567381170724
 40
0.90047148687591
 40
0.9388667544969087
 40
0.9774187722002289
 40
1.0
 40
1.0
 40
1.0
 40
1.0
 10
63.44758722151732
 20
106.3624578120509
 30
0.0
 10
63.69464551623451
 20
106.3643763143706
 30
0.0
 10
64.11374038849742
 20
106.3693247573089
 30
0.0
 10
64.80216289293617
 20
106.4234096751044
 30
0.0
 10
65.46611963234092
 20
106.5122933821074
 30
0.0
 10
66.11655251069489
 20
106.6383016314604
 30
0.0
 10
66.75942419100066
 20
106.7985848800008
 30
0.0
 10
67.40072270976259
 20
106.994135944028
 30
0.0
 10
68.04578160989402
 20
107.2283265277128
 30
0.0
 10
68.68572564303447
 20
107.4986652252554
 30
0.0
 10
69.31983379098335
 20
107.8052991349816
 30
0.0
 10
69.94715945970306
 20
108.1482973653313
 30
0.0
 10
70.56652300491365
 20
108.5276440853704
 30
0.0
 10
71.17649788394468
 20
108.943192429266
 30
0.0
 10
71.7753357154366
 20
109.3945336031581
 30
0.0
 10
72.36017641172013
 20
109.8804170800613
 30
0.0
 10
72.92914282658826
 20
110.3997310156768
 30
0.0
 10
73.48569407977615
 20
110.9546157975576
 30
0.0
 10
74.02790085545661
 20
111.5459352208691
 30
0.0
 10
74.55367631826901
 20
112.1732395603856
 30
0.0
 10
75.05882836541488
 20
112.832567050918
 30
0.0
 10
75.54328642068961
 20
113.5245528348151
 30
0.0
 10
76.00683344513477
 20
114.2497699498364
 30
0.0
 10
76.44915203269325
 20
115.0088403150005
 30
0.0
 10
76.87046274143074
 20
115.8031911383545
 30
0.0
 10
77.27025661760263
 20
116.6337243255329
 30
0.0
 10
77.64269940344502
 20
117.4947806108317
 30
0.0
 10
77.98264555875909
 20
118.3779639706071
 30
0.0
 10
78.28664671231749
 20
119.2756420192385
 30
0.0
 10
78.55405597031576
 20
120.1865116120739
 30
0.0
 10
78.78398606295774
 20
121.1082406593878
 30
0.0
 10
78.97655858722571
 20
122.0416735854316
 30
0.0
 10
79.12833876124195
 20
122.9751025654588
 30
0.0
 10
79.23267405376544
 20
123.8085719116244
 30
0.0
 10
79.26687884343848
 20
124.2751228239954
 30
0.0
 10
79.28137702075087
 20
124.4782347816224
 30
0.0
  0
SPLINE
  5
202
330
1F5
100
AcDbEntity
  8
$DDT_AUDIT_GENERATED_(77)
  6
Continuous
 62
     7
100
AcDbSpline
210
0.0
220
0.0
230
1.0
 70
     8
 71
     3
 72
    39
 73
    35
 74
     0
 42
0.0000000003791386
 43
0.0000000001
 40
0.0
 40
0.0
 40
0.0
 40
0.0
 40
0.0373285874669215
 40
0.076475519275622
 40
0.1165472913550971
 40
0.1561294029924212
 40
0.1951669360565382
 40
0.2336284184512144
 40
0.2714970469387337
 40
0.3087691863141614
 40
0.3454528525478926
 40
0.3815662147037768
 40
0.4171361709876528
 40
0.4521970356879007
 40
0.4867893587214723
 40
0.5209588879918003
 40
0.5514080236521941
 40
0.5839885301700962
 40
0.6155223228697478
 40
0.6461528389446717
 40
0.6759267758450769
 40
0.7049044808436055
 40
0.7331569128882995
 40
0.7607622402912142
 40
0.7878033370332045
 40
0.8114159932724441
 40
0.8369516459657649
 40
0.8616542313513333
 40
0.8864797926919856
 40
0.911364331462649
 40
0.9362304713871378
 40
0.9610191143575643
 40
0.9856801697091288
 40
1.0
 40
1.0
 40
1.0
 40
1.0
 10
47.61244934845696
 20
124.498129721285
 30
0.0
 10
47.64186637363763
 20
124.1623202243997
 30
0.0
 10
47.69430813961041
 20
123.5821496669002
 30
0.0
 10
47.82924542081573
 20
122.6118058363446
 30
0.0
 10
48.00102560590877
 20
121.6487893278601
 30
0.0
 10
48.21443497779495
 20
120.6835713461354
 30
0.0
 10
48.46477894617318
 20
119.7382165218634
 30
0.0
 10
48.75147317538987
 20
118.8128673893315
 30
0.0
 10
49.07331782513494
 20
117.9100034974858
 30
0.0
 10
49.4292613541031
 20
117.0310328523601
 30
0.0
 10
49.81823136667091
 20
116.17725007548
 30
0.0
 10
50.23920832836094
 20
115.3496367359609
 30
0.0
 10
50.69122414103658
 20
114.5489597174698
 30
0.0
 10
51.17339452137661
 20
113.7758058006546
 30
0.0
 10
51.68486630247651
 20
113.0305693340423
 30
0.0
 10
52.20741297839883
 20
112.3370690203404
 30
0.0
 10
52.74982031059335
 20
111.6761518268216
 30
0.0
 10
53.30908911369506
 20
111.052933396024
 30
0.0
 10
53.90184633662064
 20
110.4524992400691
 30
0.0
 10
54.50805537257141
 20
109.8949706266643
 30
0.0
 10
55.12688744287242
 20
109.3796133368353
 30
0.0
 10
55.75711126452978
 20
108.9060583072268
 30
0.0
 10
56.39775590011994
 20
108.473814912126
 30
0.0
 10
57.04801537905297
 20
108.0822177410435
 30
0.0
 10
57.68350478589532
 20
107.7436225693793
 30
0.0
 10
58.32008226776371
 20
107.4434198724221
 30
0.0
 10
58.95487705385406
 20
107.1844436536166
 30
0.0
 10
59.61575321412793
 20
106.9568017355998
 30
0.0
 10
60.2841716587801
 20
106.765860728281
 30
0.0
 10
60.96462232519767
 20
106.6102784619552
 30
0.0
 10
61.65503993161347
 20
106.490600886582
 30
0.0
 10
62.34406021512324
 20
106.4097642815562
 30
0.0
 10
62.95725535140398
 20
106.3672112901435
 30
0.0
 10
63.2995542381372
 20
106.3665870573537
 30
0.0
 10
63.44770818337508
 20
106.3666767027061
 30
0.0
  0
ARC
  5
203
330
1F5
100
AcDbEntity
  8
$DDT_AUDIT_GENERATED_(176)
  6
Continuous
 62
     7
100
AcDbCircle
 10
63.4469845092
 20
216.3050872051
 30
0.0
 40
27.02712562717311
100
AcDbArc
 50
154.3887749769
 51
205.2870770665
  0
ARC
  5
204
330
1F5
100
AcDbEntity
  8
$DDT_AUDIT_GENERATED_(176)
  6
Continuous
 62
     7
100
AcDbCircle
 10
63.4469845092
 20
216.3050872051
 30
0.0
 40
27.02712562717311
100
AcDbArc
 50
334.785620558
 51
25.6920829214
  0
ELLIPSE
  5
205
330
1F5
100
AcDbEntity
  8
$DDT_AUDIT_GENERATED_(176)
  6
Continuous
 62
     7
100
AcDbEllipse
 10
63.4470298163
 20
219.0374445922
 30
0.0
 11
27.00000000000006
 21
2.798126313985350E-10
 31
0.0
210
0.0
220
0.0
230
1.0
 40
0.9437508179
 41
0.000000000011686
 42
0.4587178477433769
  0
ELLIPSE
  5
206
330
1F5
100
AcDbEntity
  8
$DDT_AUDIT_GENERATED_(176)
  6
Continuous
 62
     7
100
AcDbEllipse
 10
63.4470298163
 20
219.0374445922
 30
0.0
 11
27.00000000000006
 21
2.798126313985350E-10
 31
0.0
210
0.0
220
0.0
230
1.0
 40
0.9437508179
 41
2.681898558048213
 42
3.141592653601475
  0
ARC
  5
207
330
1F5
100
AcDbEntity
  8
$DDT_AUDIT_GENERATED_(176)
  6
Continuous
 62
     7
100
AcDbCircle
 10
100.5459696701
 20
186.7304653926
 30
0.0
 40
20.42320154254068
100
AcDbArc
 50
141.8122239717
 51
176.9578751069
  0
ARC
  5
208
330
1F5
100
AcDbEntity
  8
$DDT_AUDIT_GENERATED_(176)
  6
Continuous
 62
     7
100
AcDbCircle
 10
63.5968854389
 20
216.2383313071
 30
0.0
 40
27.10072380529747
100
AcDbArc
 50
205.0199022372
 51
218.5332368283
  0
ARC
  5
209
330
1F5
100
AcDbEntity
  8
$DDT_AUDIT_GENERATED_(176)
  6
Continuous
 62
     7
100
AcDbCircle
 10
63.1112766906
 20
216.3495731734
 30
0.0
 40
27.317883827335
100
AcDbArc
 50
321.5254712775
 51
335.0051657983
  0
ARC
  5
20A
330
1F5
100
AcDbEntity
  8
$DDT_AUDIT_GENERATED_(176)
  6
Continuous
 62
     7
100
AcDbCircle
 10
-1345.1922758249
 20
260.894893978
 30
0.0
 40
1427.213086028696
100
AcDbArc
 50
354.5221880868
 51
357.0649155906
  0
ARC
  5
20B
330
1F5
100
AcDbEntity
  8
$DDT_AUDIT_GENERATED_(176)
  6
Continuous
 62
     7
100
AcDbCircle
 10
26.3790999539
 20
186.7451402149
 30
0.0
 40
20.38933965593088
100
AcDbArc
 50
2.9960661164
 51
38.2121296101
  0
ARC
  5
20C
330
1F5
100
AcDbEntity
  8
$DDT_AUDIT_GENERATED_(176)
  6
Continuous
 62
     7
100
AcDbCircle
 10
69.0869848486
 20
126.0526648061
 30
0.0
 40
6.580883313231463
100
AcDbArc
 50
292.5748139792
 51
347.6897713131
  0
ARC
  5
20D
330
1F5
100
AcDbEntity
  8
$DDT_AUDIT_GENERATED_(176)
  6
Continuous
 62
     7
100
AcDbCircle
 10
1471.3908582174
 20
260.8309923372
 30
0.0
 40
1426.515778264057
100
AcDbArc
 50
182.9340742561
 51
185.4779390278
  0
ARC
  5
20E
330
1F5
100
AcDbEntity
  8
$DDT_AUDIT_GENERATED_(176)
  6
Continuous
 62
     7
100
AcDbCircle
 10
63.4508961177
 20
135.4689606702
 30
0.0
 40
17.50438082753439
100
AcDbArc
 50
242.1676801503
 51
297.7821198843
  0
SPLINE
  5
20F
330
1F5
100
AcDbEntity
  8
$DDT_AUDIT_GENERATED_(176)
  6
Continuous
 62
     7
100
AcDbSpline
210
0.0
220
0.0
230
1.0
 70
     8
 71
     3
 72
    21
 73
    17
 74
     0
 42
0.0000000015808177
 43
0.0000000001
 40
0.0
 40
0.0
 40
0.0
 40
0.0
 40
0.0316727977414191
 40
0.091006018694884
 40
0.1512542114561975
 40
0.2128536861144024
 40
0.2763152100312549
 40
0.3422179477217884
 40
0.4096530012385208
 40
0.4834827352606602
 40
0.5669828353427017
 40
0.652585189206916
 40
0.7407663207277965
 40
0.8317468889908489
 40
0.9254269899957516
 40
1.0
 40
1.0
 40
1.0
 40
1.0
 10
51.37659941915057
 20
124.6479091988728
 30
0.0
 10
51.38537529831053
 20
124.5766469923367
 30
0.0
 10
51.40756068775212
 20
124.4027233282024
 30
0.0
 10
51.4720867333407
 20
124.0859415679957
 30
0.0
 10
51.57925632544911
 20
123.7244596612097
 30
0.0
 10
51.724859683463
 20
123.3629047503583
 30
0.0
 10
51.90711153207565
 20
123.0050077011993
 30
0.0
 10
52.12556427766667
 20
122.6521611635124
 30
0.0
 10
52.3841480659824
 20
122.2995664816037
 30
0.0
 10
52.68766730003168
 20
121.9344110694388
 30
0.0
 10
53.04189886574112
 20
121.562034499829
 30
0.0
 10
53.44278848738436
 20
121.1937602083202
 30
0.0
 10
53.88027195908736
 20
120.8417782109687
 30
0.0
 10
54.3497944053268
 20
120.5107904268578
 30
0.0
 10
54.8267107217245
 20
120.2154011339392
 30
0.0
 10
55.11877813522175
 20
120.0595077995689
 30
0.0
 10
55.27222266401161
 20
119.9783720712374
 30
0.0
  0
LINE
  5
210
330
1F5
100
AcDbEntity
  8
$DDT_AUDIT_GENERATED_(176)
  6
Continuous
 62
     7
100
AcDbLine
 10
36.4470298163
 20
219.0374445916
 30
0.0
 11
36.4470298163
 21
216.372197296
 31
0.0
  0
LINE
  5
211
330
1F5
100
AcDbEntity
  8
$DDT_AUDIT_GENERATED_(176)
  6
Continuous
 62
     7
100
AcDbLine
 10
90.4470298163
 20
216.3723418742
 30
0.0
 11
90.4470298163
 21
219.0374445928
 31
0.0
  0
ARC
  5
212
330
1F5
100
AcDbEntity
  8
$DDT_AUDIT_GENERATED_(176)
  6
Continuous
 62
     7
100
AcDbCircle
 10
63.446535494
 20
216.7172419935
 30
0.0
 40
27.76854606893511
100
AcDbArc
 50
29.3806334431
 51
150.5661091299
  0
ENDBLK
  5
214
330
1F5
100
AcDbEntity
  8
0
100
AcDbBlockEnd
  0
ENDSEC
  0
SECTION
  2
ENTITIES
  0
INSERT
  5
5F
330
1F
100
AcDbEntity
  8
Default
100
AcDbBlockReference
  2
SEANNOT_GROUP
 10
0.0
 20
0.0
 30
0.0
  0
INSERT
  5
66
330
1F
100
AcDbEntity
  8
Default
100
AcDbBlockReference
  2
SEANNOT_GROUP1
 10
0.0
 20
0.0
 30
0.0
  0
INSERT
  5
6C
330
1F
100
AcDbEntity
  8
Default
100
AcDbBlockReference
  2
SEANNOT_GROUP2
 10
0.0
 20
0.0
 30
0.0
  0
INSERT
  5
76
330
1F
100
AcDbEntity
  8
Default
100
AcDbBlockReference
  2
SE
 10
0.0
 20
0.0
 30
0.0
  0
INSERT
  5
1A7
330
1F
100
AcDbEntity
  8
Default
100
AcDbBlockReference
  2
SE1
 10
0.0
 20
0.0
 30
0.0
  0
INSERT
  5
1F6
330
1F
100
AcDbEntity
  8
Default
100
AcDbBlockReference
  2
SE2
 10
0.0
 20
0.0
 30
0.0
  0
TEXT
  5
216
330
1F
100
AcDbEntity
  8
Default
  6
Continuous
 62
     7
100
AcDbText
 10
5.9362635081
 20
53.4225120485
 30
0.0
 40
10.0
  1
Grohe AG^J
  7
SEACAD_seiso_ttf
 11
5.9362635081
 21
63.4225120485
 31
0.0
100
AcDbText
 73
     3
  0
TEXT
  5
217
330
1F
100
AcDbEntity
  8
Default
  6
Continuous
 62
     7
100
AcDbText
 10
5.9362635081
 20
37.0588756849
 30
0.0
 40
10.0
  1
 
  7
SEACAD_seiso_ttf
 11
5.9362635081
 21
47.0588756849
 31
0.0
100
AcDbText
 73
     3
  0
TEXT
  5
218
330
1F
100
AcDbEntity
  8
Default
  6
Continuous
 62
     7
100
AcDbText
 10
5.9362635081
 20
20.6952393213
 30
0.0
 40
10.0
  1
ecn: 
  7
SEACAD_seiso_ttf
 11
5.9362635081
 21
30.6952393213
 31
0.0
100
AcDbText
 73
     3
  0
TEXT
  5
219
330
1F
100
AcDbEntity
  8
Default
  6
Continuous
 62
     7
100
AcDbText
 10
5.9362635081
 20
4.3316029576
 30
0.0
 40
10.0
  1
unit: mm
  7
SEACAD_seiso_ttf
 11
5.9362635081
 21
14.3316029576
 31
0.0
100
AcDbText
 73
     3
  0
LINE
  5
21A
330
1F
100
AcDbEntity
  8
Default
  6
Continuous
 62
     7
100
AcDbLine
 10
0.0
 20
0.0
 30
0.0
 11
100.0
 21
0.0
 31
0.0
  0
LINE
  5
21B
330
1F
100
AcDbEntity
  8
Default
  6
Continuous
 62
     7
100
AcDbLine
 10
0.0
 20
0.0
 30
0.0
 11
0.0
 21
100.0
 31
0.0
  0
TEXT
  5
21C
330
1F
100
AcDbEntity
  8
Default
  6
Continuous
 62
     7
100
AcDbText
 10
24.3923665681
 20
-18.2375342018
 30
0.0
 40
10.0
  1
100 mm
  7
SEACAD_seiso_ttf
 11
24.3923665681
 21
-8.2375342018
 31
0.0
100
AcDbText
 73
     3
  0
TEXT
  5
21D
330
1F
100
AcDbEntity
  8
Default
  6
Continuous
 62
     7
100
AcDbText
 10
-7.6150308803
 20
24.6231930421
 30
0.0
 40
10.0
  1
100 mm
 50
90.0
  7
SEACAD_seiso_ttf
 11
-17.6150308803
 21
24.6231930421
 31
0.0
100
AcDbText
 73
     3
  0
TEXT
  5
21E
330
1F
100
AcDbEntity
  8
Default
  6
Continuous
 62
     7
100
AcDbText
 10
28.4878128572
 20
20.0907663715
 30
0.0
 40
10.0
  1
216801
  7
SEACAD_seiso_ttf
 11
28.4878128572
 21
30.0907663715
 31
0.0
100
AcDbText
 73
     3
  0
TEXT
  5
21F
330
1F
100
AcDbEntity
  8
Default
  6
Continuous
 62
     7
100
AcDbText
 10
5.9012241913
 20
36.7242780188
 30
0.0
 40
10.0
  1
32468001
  7
SEACAD_seiso_ttf
 11
5.9012241913
 21
46.7242780188
 31
0.0
100
AcDbText
 73
     3
  0
ENDSEC
  0
SECTION
  2
OBJECTS
  0
DICTIONARY
  5
C
330
0
100
AcDbDictionary
281
     1
  3
ACAD_GROUP
350
D
  3
ACAD_LAYOUT
350
1A
  3
ACAD_MLEADERSTYLE
350
223
  3
ACAD_MLINESTYLE
350
17
  3
ACAD_PLOTSETTINGS
350
19
  3
ACAD_PLOTSTYLENAME
350
E
  3
ACAD_SCALELIST
350
3B
  3
ACAD_TABLESTYLE
350
222
  3
ACAD_VISUALSTYLE
350
2A
  3
AcDbVariableDictionary
350
220
  0
DICTIONARY
  5
D
102
{ACAD_REACTORS
330
C
102
}
330
C
100
AcDbDictionary
281
     1
  0
DICTIONARY
  5
1A
102
{ACAD_REACTORS
330
C
102
}
330
C
100
AcDbDictionary
281
     1
  3
Layout1
350
1E
  3
Model
350
22
  0
DICTIONARY
  5
223
102
{ACAD_REACTORS
330
C
102
}
330
C
100
AcDbDictionary
281
     1
  0
DICTIONARY
  5
17
102
{ACAD_REACTORS
330
C
102
}
330
C
100
AcDbDictionary
281
     1
  3
Standard
350
18
  0
DICTIONARY
  5
19
102
{ACAD_REACTORS
330
C
102
}
330
C
100
AcDbDictionary
281
     1
  0
ACDBDICTIONARYWDFLT
  5
E
102
{ACAD_REACTORS
330
C
102
}
330
C
100
AcDbDictionary
281
     1
  3
Normal
350
F
100
AcDbDictionaryWithDefault
340
F
  0
DICTIONARY
  5
3B
102
{ACAD_REACTORS
330
C
102
}
330
C
100
AcDbDictionary
281
     1
  3
A0
350
3C
  3
A1
350
3D
  3
A2
350
3E
  3
A3
350
3F
  3
A4
350
40
  3
A5
350
41
  3
A6
350
42
  3
A7
350
43
  3
A8
350
44
  3
A9
350
45
  3
B0
350
46
  3
B1
350
47
  3
B2
350
48
  3
B3
350
49
  3
B4
350
4A
  3
B5
350
4B
  3
B6
350
4C
  3
B7
350
4D
  3
B8
350
4E
  3
B9
350
4F
  3
C0
350
50
  3
C1
350
51
  3
C2
350
52
  3
C3
350
53
  3
C4
350
54
  3
C5
350
55
  3
C6
350
56
  3
C7
350
57
  3
C8
350
58
  3
C9
350
59
  3
D0
350
5A
  3
D1
350
5B
  3
D2
350
5C
  0
DICTIONARY
  5
222
102
{ACAD_REACTORS
330
C
102
}
330
C
100
AcDbDictionary
281
     1
  0
DICTIONARY
  5
2A
102
{ACAD_REACTORS
330
C
102
}
330
C
100
AcDbDictionary
281
     1
  3
2dWireframe
350
2F
  3
3D Hidden
350
31
  3
3dWireframe
350
30
  3
Basic
350
32
  3
Brighten
350
36
  3
ColorChange
350
3A
  3
Conceptual
350
34
  3
Dim
350
35
  3
Facepattern
350
39
  3
Flat
350
2B
  3
FlatWithEdges
350
2C
  3
Gouraud
350
2D
  3
GouraudWithEdges
350
2E
  3
Linepattern
350
38
  3
Realistic
350
33
  3
Thicken
350
37
  0
DICTIONARY
  5
220
102
{ACAD_REACTORS
330
C
102
}
330
C
100
AcDbDictionary
281
     1
  3
CANNOSCALE
350
221
  3
PSOLHEIGHT
350
225
  3
PSOLWIDTH
350
224
  0
LAYOUT
  5
1E
102
{ACAD_REACTORS
330
1A
102
}
330
1A
100
AcDbPlotSettings
  1

  2
none_device
  4

  6

 40
0.0
 41
0.0
 42
0.0
 43
0.0
 44
0.0
 45
0.0
 46
0.0
 47
0.0
 48
0.0
 49
0.0
140
0.0
141
0.0
142
1.0
143
1.0
 70
   688
 72
     0
 73
     0
 74
     5
  7

 75
    16
147
1.0
148
0.0
149
0.0
100
AcDbLayout
  1
Layout1
 70
     1
 71
     1
 10
0.0
 20
0.0
 11
1682.0
 21
2378.0
 12
0.0
 22
0.0
 32
0.0
 14
0.0
 24
0.0
 34
0.0
 15
1682.0
 25
2378.0
 35
0.0
146
0.0
 13
0.0
 23
0.0
 33
0.0
 16
1.0
 26
0.0
 36
0.0
 17
0.0
 27
1.0
 37
0.0
 76
     0
330
1B
  0
LAYOUT
  5
22
102
{ACAD_REACTORS
330
1A
102
}
330
1A
100
AcDbPlotSettings
  1

  2
none_device
  4

  6

 40
0.0
 41
0.0
 42
0.0
 43
0.0
 44
0.0
 45
0.0
 46
0.0
 47
0.0
 48
0.0
 49
0.0
140
0.0
141
0.0
142
1.0
143
1.0
 70
  1712
 72
     0
 73
     0
 74
     0
  7

 75
     0
147
1.0
148
0.0
149
0.0
100
AcDbLayout
  1
Model
 70
     1
 71
     0
 10
0.0
 20
0.0
 11
1682.0
 21
2378.0
 12
0.0
 22
0.0
 32
0.0
 14
0.0
 24
0.0
 34
0.0
 15
1682.0
 25
2378.0
 35
0.0
146
0.0
 13
0.0
 23
0.0
 33
0.0
 16
1.0
 26
0.0
 36
0.0
 17
0.0
 27
1.0
 37
0.0
 76
     0
330
1F
331
29
  0
MLINESTYLE
  5
18
102
{ACAD_REACTORS
330
17
102
}
330
17
100
AcDbMlineStyle
  2
Standard
 70
     0
  3

 62
   256
 51
90.0
 52
90.0
 71
     2
 49
0.5
 62
   256
  6
BYLAYER
 49
-0.5
 62
   256
  6
BYLAYER
  0
ACDBPLACEHOLDER
  5
F
102
{ACAD_REACTORS
330
E
102
}
330
E
  0
SCALE
  5
3C
102
{ACAD_REACTORS
330
3B
102
}
330
3B
100
AcDbScale
 70
     0
300
1:1
140
1.0
141
1.0
290
     1
  0
SCALE
  5
3D
102
{ACAD_REACTORS
330
3B
102
}
330
3B
100
AcDbScale
 70
     0
300
1:2
140
1.0
141
2.0
290
     0
  0
SCALE
  5
3E
102
{ACAD_REACTORS
330
3B
102
}
330
3B
100
AcDbScale
 70
     0
300
1:4
140
1.0
141
4.0
290
     0
  0
SCALE
  5
3F
102
{ACAD_REACTORS
330
3B
102
}
330
3B
100
AcDbScale
 70
     0
300
1:5
140
1.0
141
5.0
290
     0
  0
SCALE
  5
40
102
{ACAD_REACTORS
330
3B
102
}
330
3B
100
AcDbScale
 70
     0
300
1:8
140
1.0
141
8.0
290
     0
  0
SCALE
  5
41
102
{ACAD_REACTORS
330
3B
102
}
330
3B
100
AcDbScale
 70
     0
300
1:10
140
1.0
141
10.0
290
     0
  0
SCALE
  5
42
102
{ACAD_REACTORS
330
3B
102
}
330
3B
100
AcDbScale
 70
     0
300
1:16
140
1.0
141
16.0
290
     0
  0
SCALE
  5
43
102
{ACAD_REACTORS
330
3B
102
}
330
3B
100
AcDbScale
 70
     0
300
1:20
140
1.0
141
20.0
290
     0
  0
SCALE
  5
44
102
{ACAD_REACTORS
330
3B
102
}
330
3B
100
AcDbScale
 70
     0
300
1:30
140
1.0
141
30.0
290
     0
  0
SCALE
  5
45
102
{ACAD_REACTORS
330
3B
102
}
330
3B
100
AcDbScale
 70
     0
300
1:40
140
1.0
141
40.0
290
     0
  0
SCALE
  5
46
102
{ACAD_REACTORS
330
3B
102
}
330
3B
100
AcDbScale
 70
     0
300
1:50
140
1.0
141
50.0
290
     0
  0
SCALE
  5
47
102
{ACAD_REACTORS
330
3B
102
}
330
3B
100
AcDbScale
 70
     0
300
1:100
140
1.0
141
100.0
290
     0
  0
SCALE
  5
48
102
{ACAD_REACTORS
330
3B
102
}
330
3B
100
AcDbScale
 70
     0
300
2:1
140
2.0
141
1.0
290
     0
  0
SCALE
  5
49
102
{ACAD_REACTORS
330
3B
102
}
330
3B
100
AcDbScale
 70
     0
300
4:1
140
4.0
141
1.0
290
     0
  0
SCALE
  5
4A
102
{ACAD_REACTORS
330
3B
102
}
330
3B
100
AcDbScale
 70
     0
300
8:1
140
8.0
141
1.0
290
     0
  0
SCALE
  5
4B
102
{ACAD_REACTORS
330
3B
102
}
330
3B
100
AcDbScale
 70
     0
300
10:1
140
10.0
141
1.0
290
     0
  0
SCALE
  5
4C
102
{ACAD_REACTORS
330
3B
102
}
330
3B
100
AcDbScale
 70
     0
300
100:1
140
100.0
141
1.0
290
     0
  0
SCALE
  5
4D
102
{ACAD_REACTORS
330
3B
102
}
330
3B
100
AcDbScale
 70
     0
300
1/128" = 1'-0"
140
0.0078125
141
12.0
290
     0
  0
SCALE
  5
4E
102
{ACAD_REACTORS
330
3B
102
}
330
3B
100
AcDbScale
 70
     0
300
1/64" = 1'-0"
140
0.015625
141
12.0
290
     0
  0
SCALE
  5
4F
102
{ACAD_REACTORS
330
3B
102
}
330
3B
100
AcDbScale
 70
     0
300
1/32" = 1'-0"
140
0.03125
141
12.0
290
     0
  0
SCALE
  5
50
102
{ACAD_REACTORS
330
3B
102
}
330
3B
100
AcDbScale
 70
     0
300
1/16" = 1'-0"
140
0.0625
141
12.0
290
     0
  0
SCALE
  5
51
102
{ACAD_REACTORS
330
3B
102
}
330
3B
100
AcDbScale
 70
     0
300
3/32" = 1'-0"
140
0.09375
141
12.0
290
     0
  0
SCALE
  5
52
102
{ACAD_REACTORS
330
3B
102
}
330
3B
100
AcDbScale
 70
     0
300
1/8" = 1'-0"
140
0.125
141
12.0
290
     0
  0
SCALE
  5
53
102
{ACAD_REACTORS
330
3B
102
}
330
3B
100
AcDbScale
 70
     0
300
3/16" = 1'-0"
140
0.1875
141
12.0
290
     0
  0
SCALE
  5
54
102
{ACAD_REACTORS
330
3B
102
}
330
3B
100
AcDbScale
 70
     0
300
1/4" = 1'-0"
140
0.25
141
12.0
290
     0
  0
SCALE
  5
55
102
{ACAD_REACTORS
330
3B
102
}
330
3B
100
AcDbScale
 70
     0
300
3/8" = 1'-0"
140
0.375
141
12.0
290
     0
  0
SCALE
  5
56
102
{ACAD_REACTORS
330
3B
102
}
330
3B
100
AcDbScale
 70
     0
300
1/2" = 1'-0"
140
0.5
141
12.0
290
     0
  0
SCALE
  5
57
102
{ACAD_REACTORS
330
3B
102
}
330
3B
100
AcDbScale
 70
     0
300
3/4" = 1'-0"
140
0.75
141
12.0
290
     0
  0
SCALE
  5
58
102
{ACAD_REACTORS
330
3B
102
}
330
3B
100
AcDbScale
 70
     0
300
1" = 1'-0"
140
1.0
141
12.0
290
     0
  0
SCALE
  5
59
102
{ACAD_REACTORS
330
3B
102
}
330
3B
100
AcDbScale
 70
     0
300
1-1/2" = 1'-0"
140
1.5
141
12.0
290
     0
  0
SCALE
  5
5A
102
{ACAD_REACTORS
330
3B
102
}
330
3B
100
AcDbScale
 70
     0
300
3" = 1'-0"
140
3.0
141
12.0
290
     0
  0
SCALE
  5
5B
102
{ACAD_REACTORS
330
3B
102
}
330
3B
100
AcDbScale
 70
     0
300
6" = 1'-0"
140
6.0
141
12.0
290
     0
  0
SCALE
  5
5C
102
{ACAD_REACTORS
330
3B
102
}
330
3B
100
AcDbScale
 70
     0
300
1'-0" = 1'-0"
140
12.0
141
12.0
290
     0
  0
VISUALSTYLE
  5
2F
102
{ACAD_REACTORS
330
2A
102
}
330
2A
100
AcDbVisualStyle
  2
2dWireframe
 70
     4
 71
     0
 72
     2
 73
     0
 90
        0
 40
-0.6
 41
-30.0
 62
     5
 63
     7
 74
     1
 91
        4
 64
     7
 65
   257
 75
     1
175
     1
 42
1.0
 92
        0
 66
   257
 43
1.0
 76
     1
 77
     6
 78
     2
 67
     7
 79
     5
170
     0
171
     0
290
     0
174
     0
 93
        1
 44
0.0
173
     0
291
     0
 45
0.0
1001
ACAD
1000
AcDbSavedByObjectVersion
1070
     0
  0
VISUALSTYLE
  5
31
102
{ACAD_REACTORS
330
2A
102
}
330
2A
100
AcDbVisualStyle
  2
3D Hidden
 70
     6
 71
     1
 72
     2
 73
     2
 90
        0
 40
-0.6
 41
-30.0
 62
     5
 63
     7
 74
     2
 91
        2
 64
     7
 65
   257
 75
     2
175
     1
 42
40.0
 92
        0
 66
   257
 43
1.0
 76
     1
 77
     6
 78
     2
 67
     7
 79
     3
170
     0
171
     0
290
     0
174
     0
 93
        1
 44
0.0
173
     0
291
     0
 45
0.0
1001
ACAD
1000
AcDbSavedByObjectVersion
1070
     0
  0
VISUALSTYLE
  5
30
102
{ACAD_REACTORS
330
2A
102
}
330
2A
100
AcDbVisualStyle
  2
3dWireframe
 70
     5
 71
     0
 72
     2
 73
     0
 90
        0
 40
-0.6
 41
-30.0
 62
     5
 63
     7
 74
     1
 91
        4
 64
     7
 65
   257
 75
     1
175
     1
 42
1.0
 92
        0
 66
   257
 43
1.0
 76
     1
 77
     6
 78
     2
 67
     7
 79
     5
170
     0
171
     0
290
     0
174
     0
 93
        1
 44
0.0
173
     0
291
     0
 45
0.0
1001
ACAD
1000
AcDbSavedByObjectVersion
1070
     0
  0
VISUALSTYLE
  5
32
102
{ACAD_REACTORS
330
2A
102
}
330
2A
100
AcDbVisualStyle
  2
Basic
 70
     7
 71
     1
 72
     0
 73
     1
 90
        0
 40
-0.6
 41
-30.0
 62
     5
 63
     7
 74
     0
 91
        4
 64
     7
 65
   257
 75
     1
175
     1
 42
1.0
 92
        8
 66
     7
 43
1.0
 76
     1
 77
     6
 78
     2
 67
     7
 79
     5
170
     0
171
     0
290
     0
174
     0
 93
        1
 44
0.0
173
     0
291
     1
 45
0.0
1001
ACAD
1000
AcDbSavedByObjectVersion
1070
     0
  0
VISUALSTYLE
  5
36
102
{ACAD_REACTORS
330
2A
102
}
330
2A
100
AcDbVisualStyle
  2
Brighten
 70
    12
 71
     2
 72
     2
 73
     0
 90
        0
 40
-0.6
 41
-30.0
 62
     5
 63
     7
 74
     1
 91
        4
 64
     7
 65
   257
 75
     1
175
     1
 42
1.0
 92
        8
 66
     7
 43
1.0
 76
     1
 77
     6
 78
     2
 67
     7
 79
     5
170
     0
171
     0
290
     0
174
     0
 93
        1
 44
50.0
173
     0
291
     1
 45
0.0
1001
ACAD
1000
AcDbSavedByObjectVersion
1070
     0
  0
VISUALSTYLE
  5
3A
102
{ACAD_REACTORS
330
2A
102
}
330
2A
100
AcDbVisualStyle
  2
ColorChange
 70
    16
 71
     2
 72
     2
 73
     3
 90
        0
 40
-0.6
 41
-30.0
 62
     5
 63
     8
 74
     1
 91
        4
 64
     7
 65
   257
 75
     1
175
     1
 42
1.0
 92
        8
 66
     8
 43
1.0
 76
     1
 77
     6
 78
     2
 67
     7
 79
     5
170
     0
171
     0
290
     0
174
     0
 93
        1
 44
0.0
173
     0
291
     1
 45
0.0
1001
ACAD
1000
AcDbSavedByObjectVersion
1070
     0
  0
VISUALSTYLE
  5
34
102
{ACAD_REACTORS
330
2A
102
}
330
2A
100
AcDbVisualStyle
  2
Conceptual
 70
     9
 71
     3
 72
     2
 73
     0
 90
        0
 40
-0.6
 41
-30.0
 62
     5
 63
     7
 74
     2
 91
        2
 64
     7
 65
   257
 75
     1
175
     1
 42
40.0
 92
        8
 66
     7
 43
1.0
 76
     1
 77
     6
 78
     2
 67
     7
 79
     3
170
     0
171
     0
290
     0
174
     0
 93
        1
 44
0.0
173
     0
291
     0
 45
0.0
1001
ACAD
1000
AcDbSavedByObjectVersion
1070
     0
  0
VISUALSTYLE
  5
35
102
{ACAD_REACTORS
330
2A
102
}
330
2A
100
AcDbVisualStyle
  2
Dim
 70
    11
 71
     2
 72
     2
 73
     0
 90
        0
 40
-0.6
 41
-30.0
 62
     5
 63
     7
 74
     1
 91
        4
 64
     7
 65
   257
 75
     1
175
     1
 42
1.0
 92
        8
 66
     7
 43
1.0
 76
     1
 77
     6
 78
     2
 67
     7
 79
     5
170
     0
171
     0
290
     0
174
     0
 93
        1
 44
-50.0
173
     0
291
     1
 45
0.0
1001
ACAD
1000
AcDbSavedByObjectVersion
1070
     0
  0
VISUALSTYLE
  5
39
102
{ACAD_REACTORS
330
2A
102
}
330
2A
100
AcDbVisualStyle
  2
Facepattern
 70
    15
 71
     2
 72
     2
 73
     0
 90
        0
 40
-0.6
 41
-30.0
 62
     5
 63
     7
 74
     1
 91
        4
 64
     7
 65
   257
 75
     1
175
     1
 42
1.0
 92
        8
 66
     7
 43
1.0
 76
     1
 77
     6
 78
     2
 67
     7
 79
     5
170
     0
171
     0
290
     0
174
     0
 93
        1
 44
0.0
173
     0
291
     1
 45
0.0
1001
ACAD
1000
AcDbSavedByObjectVersion
1070
     0
  0
VISUALSTYLE
  5
2B
102
{ACAD_REACTORS
330
2A
102
}
330
2A
100
AcDbVisualStyle
  2
Flat
 70
     0
 71
     2
 72
     1
 73
     1
 90
        2
 40
-0.6
 41
30.0
 62
     5
 63
     7
 74
     0
 91
        4
 64
     7
 65
   257
 75
     1
175
     1
 42
1.0
 92
        8
 66
     7
 43
1.0
 76
     1
 77
     6
 78
     2
 67
     7
 79
     5
170
     0
171
     0
290
     0
174
     0
 93
       13
 44
0.0
173
     0
291
     1
 45
0.0
1001
ACAD
1000
AcDbSavedByObjectVersion
1070
     0
  0
VISUALSTYLE
  5
2C
102
{ACAD_REACTORS
330
2A
102
}
330
2A
100
AcDbVisualStyle
  2
FlatWithEdges
 70
     1
 71
     2
 72
     1
 73
     1
 90
        2
 40
-0.6
 41
30.0
 62
     5
 63
     7
 74
     1
 91
        4
 64
     7
 65
   257
 75
     1
175
     1
 42
1.0
 92
        0
 66
   257
 43
1.0
 76
     1
 77
     6
 78
     2
 67
     7
 79
     5
170
     0
171
     0
290
     0
174
     0
 93
       13
 44
0.0
173
     0
291
     1
 45
0.0
1001
ACAD
1000
AcDbSavedByObjectVersion
1070
     0
  0
VISUALSTYLE
  5
2D
102
{ACAD_REACTORS
330
2A
102
}
330
2A
100
AcDbVisualStyle
  2
Gouraud
 70
     2
 71
     2
 72
     2
 73
     1
 90
        2
 40
-0.6
 41
30.0
 62
     5
 63
     7
 74
     0
 91
        4
 64
     7
 65
   257
 75
     1
175
     1
 42
1.0
 92
        0
 66
     7
 43
1.0
 76
     1
 77
     6
 78
     2
 67
     7
 79
     5
170
     0
171
     0
290
     0
174
     0
 93
       13
 44
0.0
173
     0
291
     1
 45
0.0
1001
ACAD
1000
AcDbSavedByObjectVersion
1070
     0
  0
VISUALSTYLE
  5
2E
102
{ACAD_REACTORS
330
2A
102
}
330
2A
100
AcDbVisualStyle
  2
GouraudWithEdges
 70
     3
 71
     2
 72
     2
 73
     1
 90
        2
 40
-0.6
 41
30.0
 62
     5
 63
     7
 74
     1
 91
        4
 64
     7
 65
   257
 75
     1
175
     1
 42
1.0
 92
        0
 66
   257
 43
1.0
 76
     1
 77
     6
 78
     2
 67
     7
 79
     5
170
     0
171
     0
290
     0
174
     0
 93
       13
 44
0.0
173
     0
291
     1
 45
0.0
1001
ACAD
1000
AcDbSavedByObjectVersion
1070
     0
  0
VISUALSTYLE
  5
38
102
{ACAD_REACTORS
330
2A
102
}
330
2A
100
AcDbVisualStyle
  2
Linepattern
 70
    14
 71
     2
 72
     2
 73
     0
 90
        0
 40
-0.6
 41
-30.0
 62
     5
 63
     7
 74
     1
 91
        4
 64
     7
 65
   257
 75
     7
175
     7
 42
1.0
 92
        8
 66
     7
 43
1.0
 76
     1
 77
     6
 78
     2
 67
     7
 79
     5
170
     0
171
     0
290
     0
174
     0
 93
        1
 44
0.0
173
     0
291
     1
 45
0.0
1001
ACAD
1000
AcDbSavedByObjectVersion
1070
     0
  0
VISUALSTYLE
  5
33
102
{ACAD_REACTORS
330
2A
102
}
330
2A
100
AcDbVisualStyle
  2
Realistic
 70
     8
 71
     2
 72
     2
 73
     0
 90
        0
 40
-0.6
 41
-30.0
 62
     5
 63
     7
 74
     1
 91
        0
 64
     7
 65
   257
 75
     1
175
     1
 42
1.0
 92
        8
 66
     8
 43
1.0
 76
     1
 77
     6
 78
     2
 67
     7
 79
     5
170
     0
171
     0
290
     0
174
     0
 93
       13
 44
0.0
173
     0
291
     0
 45
0.0
1001
ACAD
1000
AcDbSavedByObjectVersion
1070
     0
  0
VISUALSTYLE
  5
37
102
{ACAD_REACTORS
330
2A
102
}
330
2A
100
AcDbVisualStyle
  2
Thicken
 70
    13
 71
     2
 72
     2
 73
     0
 90
        0
 40
-0.6
 41
-30.0
 62
     5
 63
     7
 74
     1
 91
        4
 64
     7
 65
   257
 75
     1
175
     1
 42
1.0
 92
       12
 66
     7
 43
1.0
 76
     1
 77
     6
 78
     2
 67
     7
 79
     5
170
     0
171
     0
290
     0
174
     0
 93
        1
 44
0.0
173
     0
291
     1
 45
0.0
1001
ACAD
1000
AcDbSavedByObjectVersion
1070
     0
  0
DICTIONARYVAR
  5
221
102
{ACAD_REACTORS
330
220
102
}
330
220
100
DictionaryVariables
280
     0
  1
1:1
  0
DICTIONARYVAR
  5
225
102
{ACAD_REACTORS
330
220
102
}
330
220
100
DictionaryVariables
280
     0
  1
80.000000
  0
DICTIONARYVAR
  5
224
102
{ACAD_REACTORS
330
220
102
}
330
220
100
DictionaryVariables
280
     0
  1
5.000000
  0
ENDSEC
  0
EOF
