  0
SECTION
  2
HEADER
  9
$ACADVER
  1
AC1015
  9
$ACADMAINTVER
 70
     6
  9
$DWGCODEPAGE
  3
ANSI_1252
  9
$INSBASE
 10
0.0
 20
0.0
 30
0.0
  9
$EXTMIN
 10
0.0
 20
0.0
 30
0.0
  9
$EXTMAX
 10
1682.0
 20
2378.0
 30
0.0
  9
$LIMMIN
 10
0.0
 20
0.0
  9
$LIMMAX
 10
1682.0
 20
2378.0
  9
$ORTHOMODE
 70
     0
  9
$REGENMODE
 70
     1
  9
$FILLMODE
 70
     1
  9
$QTEXTMODE
 70
     0
  9
$MIRRTEXT
 70
     1
  9
$LTSCALE
 40
1.0
  9
$ATTMODE
 70
     1
  9
$TEXTSIZE
 40
2.5
  9
$TRACEWID
 40
1.0
  9
$TEXTSTYLE
  7
Standard
  9
$CLAYER
  8
0
  9
$CELTYPE
  6
ByLayer
  9
$CECOLOR
 62
   256
  9
$CELTSCALE
 40
1.0
  9
$DISPSILH
 70
     0
  9
$DIMSCALE
 40
1.0
  9
$DIMASZ
 40
2.5
  9
$DIMEXO
 40
0.625
  9
$DIMDLI
 40
3.75
  9
$DIMRND
 40
0.0
  9
$DIMDLE
 40
0.0
  9
$DIMEXE
 40
1.25
  9
$DIMTP
 40
0.0
  9
$DIMTM
 40
0.0
  9
$DIMTXT
 40
2.5
  9
$DIMCEN
 40
2.5
  9
$DIMTSZ
 40
0.0
  9
$DIMTOL
 70
     0
  9
$DIMLIM
 70
     0
  9
$DIMTIH
 70
     0
  9
$DIMTOH
 70
     0
  9
$DIMSE1
 70
     0
  9
$DIMSE2
 70
     0
  9
$DIMTAD
 70
     1
  9
$DIMZIN
 70
     8
  9
$DIMBLK
  1

  9
$DIMASO
 70
     1
  9
$DIMSHO
 70
     1
  9
$DIMPOST
  1

  9
$DIMAPOST
  1

  9
$DIMALT
 70
     0
  9
$DIMALTD
 70
     3
  9
$DIMALTF
 40
0.0393700787
  9
$DIMLFAC
 40
1.0
  9
$DIMTOFL
 70
     1
  9
$DIMTVP
 40
0.0
  9
$DIMTIX
 70
     0
  9
$DIMSOXD
 70
     0
  9
$DIMSAH
 70
     0
  9
$DIMBLK1
  1

  9
$DIMBLK2
  1

  9
$DIMSTYLE
  2
ISO-25
  9
$DIMCLRD
 70
     0
  9
$DIMCLRE
 70
     0
  9
$DIMCLRT
 70
     0
  9
$DIMTFAC
 40
1.0
  9
$DIMGAP
 40
0.625
  9
$DIMJUST
 70
     0
  9
$DIMSD1
 70
     0
  9
$DIMSD2
 70
     0
  9
$DIMTOLJ
 70
     0
  9
$DIMTZIN
 70
     8
  9
$DIMALTZ
 70
     0
  9
$DIMALTTZ
 70
     0
  9
$DIMUPT
 70
     0
  9
$DIMDEC
 70
     2
  9
$DIMTDEC
 70
     2
  9
$DIMALTU
 70
     2
  9
$DIMALTTD
 70
     3
  9
$DIMTXSTY
  7
Standard
  9
$DIMAUNIT
 70
     0
  9
$DIMADEC
 70
     0
  9
$DIMALTRND
 40
0.0
  9
$DIMAZIN
 70
     0
  9
$DIMDSEP
 70
    44
  9
$DIMATFIT
 70
     3
  9
$DIMFRAC
 70
     0
  9
$DIMLDRBLK
  1

  9
$DIMLUNIT
 70
     2
  9
$DIMLWD
 70
    -2
  9
$DIMLWE
 70
    -2
  9
$DIMTMOVE
 70
     0
  9
$LUNITS
 70
     2
  9
$LUPREC
 70
     4
  9
$SKETCHINC
 40
1.0
  9
$FILLETRAD
 40
10.0
  9
$AUNITS
 70
     0
  9
$AUPREC
 70
     0
  9
$MENU
  1
.
  9
$ELEVATION
 40
0.0
  9
$PELEVATION
 40
0.0
  9
$THICKNESS
 40
0.0
  9
$LIMCHECK
 70
     0
  9
$CHAMFERA
 40
10.0
  9
$CHAMFERB
 40
10.0
  9
$CHAMFERC
 40
20.0
  9
$CHAMFERD
 40
0.0
  9
$SKPOLY
 70
     0
  9
$TDCREATE
 40
2455505.460662708
  9
$TDUCREATE
 40
2455505.418996042
  9
$TDUPDATE
 40
2455505.46066272
  9
$TDUUPDATE
 40
2455505.418996053
  9
$TDINDWG
 40
0.0000000116
  9
$TDUSRTIMER
 40
0.0000000116
  9
$USRTIMER
 70
     1
  9
$ANGBASE
 50
0.0
  9
$ANGDIR
 70
     0
  9
$PDMODE
 70
     0
  9
$PDSIZE
 40
0.0
  9
$PLINEWID
 40
0.0
  9
$SPLFRAME
 70
     0
  9
$SPLINETYPE
 70
     6
  9
$SPLINESEGS
 70
     8
  9
$HANDSEED
  5
1AA
  9
$SURFTAB1
 70
     6
  9
$SURFTAB2
 70
     6
  9
$SURFTYPE
 70
     6
  9
$SURFU
 70
     6
  9
$SURFV
 70
     6
  9
$UCSBASE
  2

  9
$UCSNAME
  2

  9
$UCSORG
 10
0.0
 20
0.0
 30
0.0
  9
$UCSXDIR
 10
1.0
 20
0.0
 30
0.0
  9
$UCSYDIR
 10
0.0
 20
1.0
 30
0.0
  9
$UCSORTHOREF
  2

  9
$UCSORTHOVIEW
 70
     0
  9
$UCSORGTOP
 10
0.0
 20
0.0
 30
0.0
  9
$UCSORGBOTTOM
 10
0.0
 20
0.0
 30
0.0
  9
$UCSORGLEFT
 10
0.0
 20
0.0
 30
0.0
  9
$UCSORGRIGHT
 10
0.0
 20
0.0
 30
0.0
  9
$UCSORGFRONT
 10
0.0
 20
0.0
 30
0.0
  9
$UCSORGBACK
 10
0.0
 20
0.0
 30
0.0
  9
$PUCSBASE
  2

  9
$PUCSNAME
  2

  9
$PUCSORG
 10
0.0
 20
0.0
 30
0.0
  9
$PUCSXDIR
 10
1.0
 20
0.0
 30
0.0
  9
$PUCSYDIR
 10
0.0
 20
1.0
 30
0.0
  9
$PUCSORTHOREF
  2

  9
$PUCSORTHOVIEW
 70
     0
  9
$PUCSORGTOP
 10
0.0
 20
0.0
 30
0.0
  9
$PUCSORGBOTTOM
 10
0.0
 20
0.0
 30
0.0
  9
$PUCSORGLEFT
 10
0.0
 20
0.0
 30
0.0
  9
$PUCSORGRIGHT
 10
0.0
 20
0.0
 30
0.0
  9
$PUCSORGFRONT
 10
0.0
 20
0.0
 30
0.0
  9
$PUCSORGBACK
 10
0.0
 20
0.0
 30
0.0
  9
$USERI1
 70
     0
  9
$USERI2
 70
     0
  9
$USERI3
 70
     0
  9
$USERI4
 70
     0
  9
$USERI5
 70
     0
  9
$USERR1
 40
0.0
  9
$USERR2
 40
0.0
  9
$USERR3
 40
0.0
  9
$USERR4
 40
0.0
  9
$USERR5
 40
0.0
  9
$WORLDVIEW
 70
     1
  9
$SHADEDGE
 70
     3
  9
$SHADEDIF
 70
    70
  9
$TILEMODE
 70
     1
  9
$MAXACTVP
 70
    64
  9
$PINSBASE
 10
0.0
 20
0.0
 30
0.0
  9
$PLIMCHECK
 70
     0
  9
$PEXTMIN
 10
0.0
 20
0.0
 30
0.0
  9
$PEXTMAX
 10
1682.0
 20
2378.0
 30
0.0
  9
$PLIMMIN
 10
0.0
 20
0.0
  9
$PLIMMAX
 10
1682.0
 20
2378.0
  9
$UNITMODE
 70
     0
  9
$VISRETAIN
 70
     1
  9
$PLINEGEN
 70
     0
  9
$PSLTSCALE
 70
     1
  9
$TREEDEPTH
 70
  3020
  9
$CMLSTYLE
  2
Standard
  9
$CMLJUST
 70
     0
  9
$CMLSCALE
 40
20.0
  9
$PROXYGRAPHICS
 70
     1
  9
$MEASUREMENT
 70
     1
  9
$CELWEIGHT
370
    -1
  9
$ENDCAPS
280
     0
  9
$JOINSTYLE
280
     0
  9
$LWDISPLAY
290
     0
  9
$INSUNITS
 70
     4
  9
$HYPERLINKBASE
  1

  9
$STYLESHEET
  1

  9
$XEDIT
290
     1
  9
$CEPSNTYPE
380
     0
  9
$PSTYLEMODE
290
     1
  9
$FINGERPRINTGUID
  2
{4EC21B33-8367-460C-AF75-B596234428F7}
  9
$VERSIONGUID
  2
{FAEB1C32-E019-11D5-929B-00C0DF256EC4}
  9
$EXTNAMES
290
     1
  9
$PSVPSCALE
 40
0.0
  9
$OLESTARTUP
290
     0
  0
ENDSEC
  0
SECTION
  2
CLASSES
  0
CLASS
  1
ACDBDICTIONARYWDFLT
  2
AcDbDictionaryWithDefault
  3
ObjectDBX Classes
 90
        0
280
     0
281
     0
  0
CLASS
  1
VISUALSTYLE
  2
AcDbVisualStyle
  3
ObjectDBX Classes
 90
     4095
280
     0
281
     0
  0
CLASS
  1
SCALE
  2
AcDbScale
  3
ObjectDBX Classes
 90
     1153
280
     0
281
     0
  0
CLASS
  1
DICTIONARYVAR
  2
AcDbDictionaryVar
  3
ObjectDBX Classes
 90
        0
280
     0
281
     0
  0
CLASS
  1
ACDBPLACEHOLDER
  2
AcDbPlaceHolder
  3
ObjectDBX Classes
 90
        0
280
     0
281
     0
  0
CLASS
  1
LAYOUT
  2
AcDbLayout
  3
ObjectDBX Classes
 90
        0
280
     0
281
     0
  0
ENDSEC
  0
SECTION
  2
TABLES
  0
TABLE
  2
VPORT
  5
8
330
0
100
AcDbSymbolTable
 70
     1
  0
VPORT
  5
29
330
8
100
AcDbSymbolTableRecord
100
AcDbViewportTableRecord
  2
*Active
 70
     0
 10
0.0
 20
0.0
 11
1.0
 21
1.0
 12
344.1869158879
 22
148.5
 13
0.0
 23
0.0
 14
10.0
 24
10.0
 15
10.0
 25
10.0
 16
0.0
 26
0.0
 36
1.0
 17
0.0
 27
0.0
 37
0.0
 40
297.0
 41
1.9729729729
 42
50.0
 43
0.0
 44
0.0
 50
0.0
 51
0.0
 71
     0
 72
   100
 73
     1
 74
     3
 75
     0
 76
     0
 77
     0
 78
     0
281
     0
 65
     1
110
0.0
120
0.0
130
0.0
111
1.0
121
0.0
131
0.0
112
0.0
122
1.0
132
0.0
 79
     0
146
0.0
  0
ENDTAB
  0
TABLE
  2
LTYPE
  5
5
330
0
100
AcDbSymbolTable
 70
     2
  0
LTYPE
  5
14
330
5
100
AcDbSymbolTableRecord
100
AcDbLinetypeTableRecord
  2
ByBlock
 70
     0
  3

 72
    65
 73
     0
 40
0.0
  0
LTYPE
  5
15
330
5
100
AcDbSymbolTableRecord
100
AcDbLinetypeTableRecord
  2
ByLayer
 70
     0
  3

 72
    65
 73
     0
 40
0.0
  0
LTYPE
  5
16
330
5
100
AcDbSymbolTableRecord
100
AcDbLinetypeTableRecord
  2
Continuous
 70
     0
  3
Solid line
 72
    65
 73
     0
 40
0.0
  0
LTYPE
  5
60
330
5
100
AcDbSymbolTableRecord
100
AcDbLinetypeTableRecord
  2
CENTER2
 70
     0
  3
Center (.5x) ___ _ ___ _ ___ _ ___ _ ___ _ ___
 72
    65
 73
     4
 40
28.575
 49
19.05
 74
     4
 75
     0
340
0
 46
0.0
 50
0.0
 44
0.0
 45
0.0
 49
-3.175
 74
     4
 75
     0
340
0
 46
0.0
 50
0.0
 44
0.0
 45
0.0
 49
3.175
 74
     4
 75
     0
340
0
 46
0.0
 50
0.0
 44
0.0
 45
0.0
 49
-3.175
 74
     4
 75
     0
340
0
 46
0.0
 50
0.0
 44
0.0
 45
0.0
  0
ENDTAB
  0
TABLE
  2
LAYER
  5
2
330
0
100
AcDbSymbolTable
 70
    13
  0
LAYER
  5
10
330
2
100
AcDbSymbolTableRecord
100
AcDbLayerTableRecord
  2
0
 70
     0
 62
     7
  6
Continuous
370
    -3
390
F
  0
LAYER
  5
5D
330
2
100
AcDbSymbolTableRecord
100
AcDbLayerTableRecord
  2
Default
 70
     0
 62
     7
  6
Continuous
370
    -3
390
F
  0
LAYER
  5
77
330
2
100
AcDbSymbolTableRecord
100
AcDbLayerTableRecord
  2
$DDT_AUDIT_GENERATED_(77)
 70
     0
 62
     7
  6
Continuous
370
    -3
390
F
  0
LAYER
  5
86
330
2
100
AcDbSymbolTableRecord
100
AcDbLayerTableRecord
  2
$DDT_AUDIT_GENERATED_(86)
 70
     0
 62
     7
  6
Continuous
370
    -3
390
F
  0
LAYER
  5
8A
330
2
100
AcDbSymbolTableRecord
100
AcDbLayerTableRecord
  2
$DDT_AUDIT_GENERATED_(8A)
 70
     0
 62
     7
  6
Continuous
370
    -3
390
F
  0
LAYER
  5
B2
330
2
100
AcDbSymbolTableRecord
100
AcDbLayerTableRecord
  2
$DDT_AUDIT_GENERATED_(B2)
 70
     0
 62
     7
  6
Continuous
370
    -3
390
F
  0
LAYER
  5
BD
330
2
100
AcDbSymbolTableRecord
100
AcDbLayerTableRecord
  2
$DDT_AUDIT_GENERATED_(BD)
 70
     0
 62
     7
  6
Continuous
370
    -3
390
F
  0
LAYER
  5
BF
330
2
100
AcDbSymbolTableRecord
100
AcDbLayerTableRecord
  2
$DDT_AUDIT_GENERATED_(BF)
 70
     0
 62
     7
  6
Continuous
370
    -3
390
F
  0
LAYER
  5
D6
330
2
100
AcDbSymbolTableRecord
100
AcDbLayerTableRecord
  2
$DDT_AUDIT_GENERATED_(D6)
 70
     0
 62
     7
  6
Continuous
370
    -3
390
F
  0
LAYER
  5
DA
330
2
100
AcDbSymbolTableRecord
100
AcDbLayerTableRecord
  2
$DDT_AUDIT_GENERATED_(DA)
 70
     0
 62
     7
  6
Continuous
370
    -3
390
F
  0
LAYER
  5
DC
330
2
100
AcDbSymbolTableRecord
100
AcDbLayerTableRecord
  2
$DDT_AUDIT_GENERATED_(DC)
 70
     0
 62
     7
  6
Continuous
370
    -3
390
F
  0
LAYER
  5
11B
330
2
100
AcDbSymbolTableRecord
100
AcDbLayerTableRecord
  2
$DDT_AUDIT_GENERATED_(11B)
 70
     0
 62
     7
  6
Continuous
370
    -3
390
F
  0
LAYER
  5
140
330
2
100
AcDbSymbolTableRecord
100
AcDbLayerTableRecord
  2
$DDT_AUDIT_GENERATED_(140)
 70
     0
 62
     7
  6
Continuous
370
    -3
390
F
  0
ENDTAB
  0
TABLE
  2
STYLE
  5
3
330
0
100
AcDbSymbolTable
 70
     2
  0
STYLE
  5
11
330
3
100
AcDbSymbolTableRecord
100
AcDbTextStyleTableRecord
  2
Standard
 70
     0
 40
0.0
 41
1.0
 50
0.0
 71
     0
 42
2.5
  3
txt
  4

  0
STYLE
  5
199
330
3
100
AcDbSymbolTableRecord
100
AcDbTextStyleTableRecord
  2
SEACAD_seiso_ttf
 70
     0
 40
0.0
 41
1.0
 50
0.0
 71
     0
 42
0.2
  3
seiso.ttf
  4

  0
ENDTAB
  0
TABLE
  2
VIEW
  5
6
330
0
100
AcDbSymbolTable
 70
     0
  0
ENDTAB
  0
TABLE
  2
UCS
  5
7
330
0
100
AcDbSymbolTable
 70
     0
  0
ENDTAB
  0
TABLE
  2
APPID
  5
9
330
0
100
AcDbSymbolTable
 70
     1
  0
APPID
  5
12
330
9
100
AcDbSymbolTableRecord
100
AcDbRegAppTableRecord
  2
ACAD
 70
     0
  0
ENDTAB
  0
TABLE
  2
DIMSTYLE
  5
A
330
0
100
AcDbSymbolTable
 70
     1
100
AcDbDimStyleTable
  0
DIMSTYLE
105
27
330
A
100
AcDbSymbolTableRecord
100
AcDbDimStyleTableRecord
  2
ISO-25
 70
     0
 41
2.5
 42
0.625
 43
3.75
 44
1.25
 73
     0
 74
     0
 77
     1
 78
     8
140
2.5
141
2.5
143
0.0393700787
147
0.625
171
     3
172
     1
271
     2
272
     2
274
     3
278
    44
283
     0
284
     8
340
11
  0
ENDTAB
  0
TABLE
  2
BLOCK_RECORD
  5
1
330
0
100
AcDbSymbolTable
 70
     7
  0
BLOCK_RECORD
  5
1F
330
1
100
AcDbSymbolTableRecord
100
AcDbBlockTableRecord
  2
*Model_Space
340
22
  0
BLOCK_RECORD
  5
1B
330
1
100
AcDbSymbolTableRecord
100
AcDbBlockTableRecord
  2
*Paper_Space
340
1E
  0
BLOCK_RECORD
  5
5E
330
1
100
AcDbSymbolTableRecord
100
AcDbBlockTableRecord
  2
SEANNOT_GROUP
340
0
102
{BLKREFS
331
5F
102
}
  0
BLOCK_RECORD
  5
65
330
1
100
AcDbSymbolTableRecord
100
AcDbBlockTableRecord
  2
SEANNOT_GROUP1
340
0
102
{BLKREFS
331
66
102
}
  0
BLOCK_RECORD
  5
6B
330
1
100
AcDbSymbolTableRecord
100
AcDbBlockTableRecord
  2
SEANNOT_GROUP2
340
0
102
{BLKREFS
331
6C
102
}
  0
BLOCK_RECORD
  5
75
330
1
100
AcDbSymbolTableRecord
100
AcDbBlockTableRecord
  2
SE
340
0
102
{BLKREFS
331
76
102
}
  0
BLOCK_RECORD
  5
FE
330
1
100
AcDbSymbolTableRecord
100
AcDbBlockTableRecord
  2
SE1
340
0
102
{BLKREFS
331
FF
102
}
  0
BLOCK_RECORD
  5
138
330
1
100
AcDbSymbolTableRecord
100
AcDbBlockTableRecord
  2
SE2
340
0
102
{BLKREFS
331
139
102
}
  0
ENDTAB
  0
ENDSEC
  0
SECTION
  2
BLOCKS
  0
BLOCK
  5
20
330
1F
100
AcDbEntity
  8
0
100
AcDbBlockBegin
  2
*Model_Space
 70
     0
 10
0.0
 20
0.0
 30
0.0
  3
*Model_Space
  1

  0
ENDBLK
  5
21
330
1F
100
AcDbEntity
  8
0
100
AcDbBlockEnd
  0
BLOCK
  5
1C
330
1B
100
AcDbEntity
 67
     1
  8
0
100
AcDbBlockBegin
  2
*Paper_Space
 70
     0
 10
0.0
 20
0.0
 30
0.0
  3
*Paper_Space
  1

  0
ENDBLK
  5
1D
330
1B
100
AcDbEntity
 67
     1
  8
0
100
AcDbBlockEnd
  0
BLOCK
  5
63
330
5E
100
AcDbEntity
  8
0
100
AcDbBlockBegin
  2
SEANNOT_GROUP
 70
     0
 10
0.0
 20
0.0
 30
0.0
  3
SEANNOT_GROUP
  1

  0
LINE
  5
61
330
5E
100
AcDbEntity
  8
Default
  6
CENTER2
 62
     7
100
AcDbLine
 10
77.03636977
 20
396.3657418383
 30
0.0
 11
37.036370664
 21
396.3657418383
 31
0.0
  0
LINE
  5
62
330
5E
100
AcDbEntity
  8
Default
  6
CENTER2
 62
     7
100
AcDbLine
 10
57.036370217
 20
416.3657413913
 30
0.0
 11
57.036370217
 21
376.3657422854
 31
0.0
  0
ENDBLK
  5
64
330
5E
100
AcDbEntity
  8
0
100
AcDbBlockEnd
  0
BLOCK
  5
69
330
65
100
AcDbEntity
  8
0
100
AcDbBlockBegin
  2
SEANNOT_GROUP1
 70
     0
 10
0.0
 20
0.0
 30
0.0
  3
SEANNOT_GROUP1
  1

  0
LINE
  5
67
330
65
100
AcDbEntity
  8
Default
  6
CENTER2
 62
     7
100
AcDbLine
 10
285.0512764887
 20
396.3657418383
 30
0.0
 11
245.0512773828
 21
396.3657418383
 31
0.0
  0
LINE
  5
68
330
65
100
AcDbEntity
  8
Default
  6
CENTER2
 62
     7
100
AcDbLine
 10
265.0512769357
 20
416.3657413913
 30
0.0
 11
265.0512769357
 21
376.3657422854
 31
0.0
  0
ENDBLK
  5
6A
330
65
100
AcDbEntity
  8
0
100
AcDbBlockEnd
  0
BLOCK
  5
73
330
6B
100
AcDbEntity
  8
0
100
AcDbBlockBegin
  2
SEANNOT_GROUP2
 70
     0
 10
0.0
 20
0.0
 30
0.0
  3
SEANNOT_GROUP2
  1

  0
LINE
  5
6D
330
6B
100
AcDbEntity
  8
Default
  6
CENTER2
 62
     7
100
AcDbLine
 10
77.03636977
 20
252.6758376367
 30
0.0
 11
37.036370664
 21
252.6758376367
 31
0.0
  0
LINE
  5
6E
330
6B
100
AcDbEntity
  8
Default
  6
CENTER2
 62
     7
100
AcDbLine
 10
57.036370217
 20
272.6758371896
 30
0.0
 11
57.036370217
 21
232.6758380837
 31
0.0
  0
LINE
  5
6F
330
6B
100
AcDbEntity
  8
Default
  6
CENTER2
 62
     7
100
AcDbLine
 10
82.0363696582
 20
252.6758376367
 30
0.0
 11
80.536370217
 21
252.6758376367
 31
0.0
  0
LINE
  5
70
330
6B
100
AcDbEntity
  8
Default
  6
CENTER2
 62
     7
100
AcDbLine
 10
57.036370217
 20
277.6758370779
 30
0.0
 11
57.036370217
 21
276.1758376367
 31
0.0
  0
LINE
  5
71
330
6B
100
AcDbEntity
  8
Default
  6
CENTER2
 62
     7
100
AcDbLine
 10
32.0363707758
 20
252.6758376367
 30
0.0
 11
33.536370217
 21
252.6758376367
 31
0.0
  0
LINE
  5
72
330
6B
100
AcDbEntity
  8
Default
  6
CENTER2
 62
     7
100
AcDbLine
 10
57.036370217
 20
227.6758381955
 30
0.0
 11
57.036370217
 21
229.1758376367
 31
0.0
  0
ENDBLK
  5
74
330
6B
100
AcDbEntity
  8
0
100
AcDbBlockEnd
  0
BLOCK
  5
FC
330
75
100
AcDbEntity
  8
0
100
AcDbBlockBegin
  2
SE
 70
     0
 10
0.0
 20
0.0
 30
0.0
  3
SE
  1

  0
LINE
  5
78
330
75
100
AcDbEntity
  8
$DDT_AUDIT_GENERATED_(77)
  6
Continuous
 62
     7
100
AcDbLine
 10
77.036370217
 20
688.3657418383
 30
0.0
 11
37.036370217
 21
688.3657418383
 31
0.0
  0
LINE
  5
79
330
75
100
AcDbEntity
  8
$DDT_AUDIT_GENERATED_(77)
  6
Continuous
 62
     7
100
AcDbLine
 10
105.036370217
 20
674.0657418383
 30
0.0
 11
105.036370217
 21
634.0657418383
 31
0.0
  0
ARC
  5
7A
330
75
100
AcDbEntity
  8
$DDT_AUDIT_GENERATED_(77)
  6
Continuous
 62
     7
100
AcDbCircle
 10
-60.4121359579
 20
768.5245473258
 30
0.0
 40
163.9968589831923
100
AcDbArc
 50
315.7386043215
 51
326.9417788282
  0
ARC
  5
7B
330
75
100
AcDbEntity
  8
$DDT_AUDIT_GENERATED_(77)
  6
Continuous
 62
     7
100
AcDbCircle
 10
171.4952349399
 20
536.6171616191
 30
0.0
 40
163.9969533532978
100
AcDbArc
 50
123.0582244055
 51
134.2613924448
  0
ARC
  5
7C
330
75
100
AcDbEntity
  8
$DDT_AUDIT_GENERATED_(77)
  6
Continuous
 62
     7
100
AcDbCircle
 10
-60.412212313
 20
539.606875261
 30
0.0
 40
163.9969563025018
100
AcDbArc
 50
33.0582245085
 51
44.2613923454
  0
ARC
  5
7D
330
75
100
AcDbEntity
  8
$DDT_AUDIT_GENERATED_(77)
  6
Continuous
 62
     7
100
AcDbCircle
 10
171.4951733831
 20
771.5142451044
 30
0.0
 40
163.9968552797787
100
AcDbArc
 50
225.738604193
 51
236.9417789531
  0
LINE
  5
7E
330
75
100
AcDbEntity
  8
$DDT_AUDIT_GENERATED_(77)
  6
Continuous
 62
     7
100
AcDbLine
 10
37.036370217
 20
584.3657418383
 30
0.0
 11
77.036370217
 21
584.3657418383
 31
0.0
  0
LINE
  5
7F
330
75
100
AcDbEntity
  8
$DDT_AUDIT_GENERATED_(77)
  6
Continuous
 62
     7
100
AcDbLine
 10
82.0363700624
 20
634.0657418383
 30
0.0
 11
105.036370217
 21
634.0657418383
 31
0.0
  0
LINE
  5
80
330
75
100
AcDbEntity
  8
$DDT_AUDIT_GENERATED_(77)
  6
Continuous
 62
     7
100
AcDbLine
 10
105.036370217
 20
674.0657418383
 30
0.0
 11
82.036370064
 21
674.0657418383
 31
0.0
  0
ARC
  5
81
330
75
100
AcDbEntity
  8
$DDT_AUDIT_GENERATED_(77)
  6
Continuous
 62
     7
100
AcDbCircle
 10
82.0363700739
 20
679.0657416952
 30
0.0
 40
4.999999856872477
100
AcDbArc
 50
180.0000001133
 51
269.9999998867
  0
ARC
  5
82
330
75
100
AcDbEntity
  8
$DDT_AUDIT_GENERATED_(77)
  6
Continuous
 62
     7
100
AcDbCircle
 10
82.0363700724
 20
629.0657419829
 30
0.0
 40
4.9999998553675
100
AcDbArc
 50
90.0000001145
 51
179.9999998855
  0
LINE
  5
83
330
75
100
AcDbEntity
  8
$DDT_AUDIT_GENERATED_(77)
  6
Continuous
 62
     7
100
AcDbLine
 10
77.036370217
 20
679.0657416853
 30
0.0
 11
77.036370217
 21
688.3657418383
 31
0.0
  0
LINE
  5
84
330
75
100
AcDbEntity
  8
$DDT_AUDIT_GENERATED_(77)
  6
Continuous
 62
     7
100
AcDbLine
 10
77.036370217
 20
584.3657418383
 30
0.0
 11
77.036370217
 21
629.0657419929
 31
0.0
  0
LINE
  5
85
330
75
100
AcDbEntity
  8
$DDT_AUDIT_GENERATED_(77)
  6
Continuous
 62
     7
100
AcDbLine
 10
37.036370217
 20
688.3657418383
 30
0.0
 11
37.036370217
 21
584.3657418383
 31
0.0
  0
LINE
  5
87
330
75
100
AcDbEntity
  8
$DDT_AUDIT_GENERATED_(86)
  6
Continuous
 62
     7
100
AcDbLine
 10
112.6737484317
 20
642.1157418383
 30
0.0
 11
112.6737484317
 21
642.4379263002
 31
0.0
  0
ARC
  5
88
330
75
100
AcDbEntity
  8
$DDT_AUDIT_GENERATED_(86)
  6
Continuous
 62
     7
100
AcDbCircle
 10
96.636370217
 20
654.0657418383
 30
0.0
 40
20.0
100
AcDbArc
 50
294.8345874897
 51
323.308942622
  0
ARC
  5
89
330
75
100
AcDbEntity
  8
$DDT_AUDIT_GENERATED_(86)
  6
Continuous
 62
     7
100
AcDbCircle
 10
96.636370217
 20
654.0657418383
 30
0.0
 40
20.0
100
AcDbArc
 50
61.9994401864
 51
65.1654125103
  0
ELLIPSE
  5
8B
330
75
100
AcDbEntity
  8
$DDT_AUDIT_GENERATED_(8A)
  6
Continuous
 62
     7
100
AcDbEllipse
 10
107.7147212592
 20
654.2358075594
 30
0.0
 11
-10.08096584688196
 21
19.42612349167661
 31
0.0
210
0.0
220
0.0
230
1.0
 40
0.058061664
 41
1.590995554122412
 42
2.896585171341164
  0
ELLIPSE
  5
8C
330
75
100
AcDbEntity
  8
$DDT_AUDIT_GENERATED_(8A)
  6
Continuous
 62
     7
100
AcDbEllipse
 10
106.5326621373
 20
654.3340409478
 30
0.0
 11
0.5338919995330205
 21
-19.69276413642419
 31
0.0
210
0.0
220
0.0
230
0.9999999999999999
 40
0.0038087859
 41
3.167118781262213
 42
4.700204194615623
  0
ARC
  5
8D
330
75
100
AcDbEntity
  8
$DDT_AUDIT_GENERATED_(8A)
  6
Continuous
 62
     7
100
AcDbCircle
 10
109.46877605
 20
654.6510587718
 30
0.0
 40
3.018655732052695
100
AcDbArc
 50
181.501628781
 51
207.4776487995
  0
SPLINE
  5
8E
330
75
100
AcDbEntity
  8
$DDT_AUDIT_GENERATED_(8A)
  6
Continuous
 62
     7
100
AcDbSpline
210
0.0
220
0.0
230
1.0
 70
     8
 71
     3
 72
     8
 73
     4
 74
     0
 42
0.0000000005176516
 43
0.0000000001
 40
0.9205541986105459
 40
0.9205541986105459
 40
0.9205541986105459
 40
0.9205541986105459
 40
0.9925073271288131
 40
0.9925073271288131
 40
0.9925073271288131
 40
0.9925073271288131
 10
131.4313958887798
 20
635.0010276310165
 30
0.0
 10
131.0101231361599
 20
634.9893379570935
 30
0.0
 10
130.5342280460091
 20
634.9813260287608
 30
0.0
 10
130.0417809355921
 20
634.969293828713
 30
0.0
  0
ELLIPSE
  5
8F
330
75
100
AcDbEntity
  8
$DDT_AUDIT_GENERATED_(8A)
  6
Continuous
 62
     7
100
AcDbEllipse
 10
136.0543742659
 20
655.1344062906
 30
0.0
 11
0.5239679239769923
 21
-19.32671167756021
 31
0.0
210
0.0
220
0.0
230
0.9999999999999998
 40
0.0038087859
 41
-3.220432592812484
 42
-3.165051164088976
  0
ELLIPSE
  5
90
330
75
100
AcDbEntity
  8
$DDT_AUDIT_GENERATED_(8A)
  6
Continuous
 62
     7
100
AcDbEllipse
 10
136.0543742659
 20
655.1344062906
 30
0.0
 11
0.5239679239769923
 21
-19.32671167756021
 31
0.0
210
0.0
220
0.0
230
0.9999999999999998
 40
0.0038087859
 41
3.171613604296767
 42
6.239173711449361
  0
LINE
  5
91
330
75
100
AcDbEntity
  8
$DDT_AUDIT_GENERATED_(8A)
  6
Continuous
 62
     7
100
AcDbLine
 10
133.0344132331
 20
671.4628773343
 30
0.0
 11
124.5375969379
 21
671.232519513
 31
0.0
  0
ELLIPSE
  5
92
330
75
100
AcDbEntity
  8
$DDT_AUDIT_GENERATED_(8A)
  6
Continuous
 62
     7
100
AcDbEllipse
 10
133.5225491926
 20
655.0657657919
 30
0.0
 11
0.5420223345513481
 21
-19.99265394560816
 31
0.0
210
0.0
220
0.0
230
0.9999999999999998
 40
0.0038087859
 41
3.141592653589793
 42
3.750600663313792
  0
ELLIPSE
  5
93
330
75
100
AcDbEntity
  8
$DDT_AUDIT_GENERATED_(8A)
  6
Continuous
 62
     7
100
AcDbEllipse
 10
125.0257328974
 20
654.8354079706
 30
0.0
 11
0.5420223345513064
 21
-19.99265394560842
 31
0.0
210
0.0
220
0.0
230
0.9999999999999997
 40
0.0038087859
 41
3.141592653589942
 42
3.750600663314129
  0
LINE
  5
94
330
75
100
AcDbEntity
  8
$DDT_AUDIT_GENERATED_(8A)
  6
Continuous
 62
     7
100
AcDbLine
 10
126.3483354724
 20
672.2413009533
 30
0.0
 11
131.4670167591
 21
672.380073904
 31
0.0
  0
ARC
  5
95
330
75
100
AcDbEntity
  8
$DDT_AUDIT_GENERATED_(8A)
  6
Continuous
 62
     7
100
AcDbCircle
 10
123.2742228854
 20
675.6297525713
 30
0.0
 40
4.575125415279772
100
AcDbArc
 50
286.0299481698
 51
312.2153287527
  0
LINE
  5
96
330
75
100
AcDbEntity
  8
$DDT_AUDIT_GENERATED_(8A)
  6
Continuous
 62
     7
100
AcDbLine
 10
125.3119376567
 20
722.9058701462
 30
0.0
 11
126.6765999044
 21
673.5448650228
 31
0.0
  0
ARC
  5
97
330
75
100
AcDbEntity
  8
$DDT_AUDIT_GENERATED_(8A)
  6
Continuous
 62
     7
100
AcDbCircle
 10
124.2043491261
 20
673.4743150474
 30
0.0
 40
2.473257206567077
100
AcDbArc
 50
330.0966408715
 51
1.6345910988
  0
LINE
  5
98
330
75
100
AcDbEntity
  8
$DDT_AUDIT_GENERATED_(8A)
  6
Continuous
 62
     7
100
AcDbLine
 10
125.9768620918
 20
673.6233155494
 30
0.0
 11
124.6121998442
 21
722.9843206728
 31
0.0
  0
LINE
  5
99
330
75
100
AcDbEntity
  8
$DDT_AUDIT_GENERATED_(8A)
  6
Continuous
 62
     7
100
AcDbLine
 10
125.2927805772
 20
723.6962193291
 30
0.0
 11
129.8910576311
 21
723.8208835618
 31
0.0
  0
LINE
  5
9A
330
75
100
AcDbEntity
  8
$DDT_AUDIT_GENERATED_(8A)
  6
Continuous
 62
     7
100
AcDbLine
 10
125.2927805772
 20
725.8673197041
 30
0.0
 11
125.2927805772
 21
723.6962193291
 31
0.0
  0
ELLIPSE
  5
9B
330
75
100
AcDbEntity
  8
$DDT_AUDIT_GENERATED_(8A)
  6
Continuous
 62
     7
100
AcDbEllipse
 10
125.3119376567
 20
723.0032913169
 30
0.0
 11
0.6999999999999923
 21
5.828670879282072E-13
 31
0.0
210
0.0
220
0.0
230
1.0
 40
0.9902680687
 41
3.141592653589793
 42
3.16896332734359
  0
ELLIPSE
  5
9C
330
75
100
AcDbEntity
  8
$DDT_AUDIT_GENERATED_(8A)
  6
Continuous
 62
     7
100
AcDbEllipse
 10
132.5229237461
 20
655.0386648717
 30
0.0
 11
0.5691234512788801
 21
-20.99228664288949
 31
0.0
210
0.0
220
0.0
230
0.9999999999999998
 40
0.0038087859
 41
3.220805890466778
 42
3.661714564595597
  0
LINE
  5
9D
330
75
100
AcDbEntity
  8
$DDT_AUDIT_GENERATED_(8A)
  6
Continuous
 62
     7
100
AcDbLine
 10
131.9777746726
 20
675.842725083
 30
0.0
 11
130.6099525231
 21
725.3180265686
 31
0.0
  0
LINE
  5
9E
330
75
100
AcDbEntity
  8
$DDT_AUDIT_GENERATED_(8A)
  6
Continuous
 62
     7
100
AcDbLine
 10
129.8910576311
 20
723.8208835618
 30
0.0
 11
129.8910576311
 21
725.9919839368
 31
0.0
  0
LINE
  5
9F
330
75
100
AcDbEntity
  8
$DDT_AUDIT_GENERATED_(8A)
  6
Continuous
 62
     7
100
AcDbLine
 10
129.9102147106
 20
723.0305343789
 30
0.0
 11
125.3119376567
 21
722.9058701462
 31
0.0
  0
ARC
  5
A0
330
75
100
AcDbEntity
  8
$DDT_AUDIT_GENERATED_(8A)
  6
Continuous
 62
     7
100
AcDbCircle
 10
133.2095277585
 20
673.1877610806
 30
0.0
 40
1.92059968713714
100
AcDbArc
 50
181.501571462
 51
204.8686249326
  0
LINE
  5
A1
330
75
100
AcDbEntity
  8
$DDT_AUDIT_GENERATED_(8A)
  6
Continuous
 62
     7
100
AcDbLine
 10
131.2895875925
 20
673.1374329833
 30
0.0
 11
129.9102147106
 21
723.0305343789
 31
0.0
  0
ARC
  5
A2
330
75
100
AcDbEntity
  8
$DDT_AUDIT_GENERATED_(8A)
  6
Continuous
 62
     7
100
AcDbCircle
 10
133.7797612974
 20
674.534461603
 30
0.0
 40
3.16072359704361
100
AcDbArc
 50
222.9697532319
 51
256.3602930554
  0
LINE
  5
A3
330
75
100
AcDbEntity
  8
$DDT_AUDIT_GENERATED_(8A)
  6
Continuous
 62
     7
100
AcDbLine
 10
131.4269508413
 20
635.0016031148
 30
0.0
 11
135.8974756171
 21
635.122803846
 31
0.0
  0
LINE
  5
A4
330
75
100
AcDbEntity
  8
$DDT_AUDIT_GENERATED_(8A)
  6
Continuous
 62
     7
100
AcDbLine
 10
118.0340112564
 20
634.6385061293
 30
0.0
 11
128.1006220368
 21
634.9114227661
 31
0.0
  0
LINE
  5
A5
330
75
100
AcDbEntity
  8
$DDT_AUDIT_GENERATED_(8A)
  6
Continuous
 62
     7
100
AcDbLine
 10
124.4837105629
 20
674.8280619162
 30
0.0
 11
106.2905274367
 21
674.3348251695
 31
0.0
  0
LINE
  5
A6
330
75
100
AcDbEntity
  8
$DDT_AUDIT_GENERATED_(8A)
  6
Continuous
 62
     7
100
AcDbLine
 10
134.813430948
 20
675.1081117372
 30
0.0
 11
132.9805268581
 21
675.0584197375
 31
0.0
  0
SPLINE
  5
A7
330
75
100
AcDbEntity
  8
$DDT_AUDIT_GENERATED_(8A)
  6
Continuous
 62
     7
100
AcDbSpline
210
0.0
220
0.0
230
1.0
 70
     8
 71
     3
 72
    12
 73
     8
 74
     0
 42
0.0000000101089996
 43
0.0000000001
 40
0.0
 40
0.0
 40
0.0
 40
0.0
 40
0.2317718884548046
 40
0.5284651742659875
 40
0.7754160218216337
 40
0.9256061123682993
 40
1.0
 40
1.0
 40
1.0
 40
1.0
 10
117.2568218196234
 20
635.1955717296036
 30
0.0
 10
117.3240678486263
 20
635.1173348697419
 30
0.0
 10
117.4536795465049
 20
634.9686425253628
 30
0.0
 10
117.63144682126
 20
634.8016371827572
 30
0.0
 10
117.7840507547021
 20
634.7006569281326
 30
0.0
 10
117.9170458647634
 20
634.6407003171956
 30
0.0
 10
118.0003976052311
 20
634.6439420809618
 30
0.0
 10
118.0329720086871
 20
634.6452608158122
 30
0.0
  0
SPLINE
  5
A8
330
75
100
AcDbEntity
  8
$DDT_AUDIT_GENERATED_(8A)
  6
Continuous
 62
     7
100
AcDbSpline
210
0.0
220
0.0
230
1.0
 70
     8
 71
     3
 72
    15
 73
    11
 74
     0
 42
0.0000000229422939
 43
0.0000000001
 40
0.0
 40
0.0
 40
0.0
 40
0.0
 40
0.0750265238237813
 40
0.2193563270853022
 40
0.3381008223288209
 40
0.4422374825690492
 40
0.535931776465495
 40
0.637532515657572
 40
0.792544671308534
 40
1.0
 40
1.0
 40
1.0
 40
1.0
 10
106.2908578924153
 20
674.3295679829806
 30
0.0
 10
106.2710947647158
 20
674.3303872803488
 30
0.0
 10
106.2214890711928
 20
674.331852491727
 30
0.0
 10
106.1434047950052
 20
674.2966137532211
 30
0.0
 10
106.0778456100164
 20
674.2428891498894
 30
0.0
 10
106.0384287016118
 20
674.1880384115012
 30
0.0
 10
106.0177955306401
 20
674.1435807067714
 30
0.0
 10
106.0067427384821
 20
674.1084684706789
 30
0.0
 10
106.0013519255555
 20
674.0816208997043
 30
0.0
 10
105.999981817752
 20
674.0719322750555
 30
0.0
 10
105.9995547238046
 20
674.0664445052846
 30
0.0
  0
LINE
  5
A9
330
75
100
AcDbEntity
  8
$DDT_AUDIT_GENERATED_(8A)
  6
Continuous
 62
     7
100
AcDbLine
 10
129.8912439289
 20
725.9987988126
 30
0.0
 11
125.292966875
 21
725.8741345799
 31
0.0
  0
ARC
  5
AA
330
75
100
AcDbEntity
  8
$DDT_AUDIT_GENERATED_(8A)
  6
Continuous
 62
     7
100
AcDbCircle
 10
-263.5786594268
 20
644.2999252619
 30
0.0
 40
400.2499999999953
100
AcDbArc
 50
358.7928643817
 51
4.3130751181
  0
ARC
  5
AB
330
75
100
AcDbEntity
  8
$DDT_AUDIT_GENERATED_(8A)
  6
Continuous
 62
     7
100
AcDbCircle
 10
135.8892322851
 20
635.8279918292
 30
0.0
 40
0.6972603128036005
100
AcDbArc
 50
270.6585408379
 51
5.7837082125
  0
ARC
  5
AC
330
75
100
AcDbEntity
  8
$DDT_AUDIT_GENERATED_(8A)
  6
Continuous
 62
     7
100
AcDbCircle
 10
134.8494077052
 20
674.4178384801
 30
0.0
 40
0.6820495463299577
100
AcDbArc
 50
9.9334890913
 51
92.9991872023
  0
ARC
  5
AD
330
75
100
AcDbEntity
  8
$DDT_AUDIT_GENERATED_(8A)
  6
Continuous
 62
     7
100
AcDbCircle
 10
132.9521662994
 20
676.0555996585
 30
0.0
 40
0.997080487225774
100
AcDbArc
 50
189.0175007396
 51
271.3047583337
  0
ARC
  5
AE
330
75
100
AcDbEntity
  8
$DDT_AUDIT_GENERATED_(8A)
  6
Continuous
 62
     7
100
AcDbCircle
 10
124.4441825987
 20
676.3246241945
 30
0.0
 40
1.496886061539073
100
AcDbArc
 50
271.7004831648
 51
348.5347450922
  0
ARC
  5
AF
330
75
100
AcDbEntity
  8
$DDT_AUDIT_GENERATED_(8A)
  6
Continuous
 62
     7
100
AcDbCircle
 10
125.3119376567
 20
725.1743916918
 30
0.0
 40
0.7000000000000308
100
AcDbArc
 50
91.5529697499
 51
180.0
  0
LINE
  5
B0
330
75
100
AcDbEntity
  8
$DDT_AUDIT_GENERATED_(8A)
  6
Continuous
 62
     7
100
AcDbLine
 10
124.6119376567
 20
725.1743916918
 30
0.0
 11
124.6119376567
 21
723.0032913169
 31
0.0
  0
ARC
  5
B1
330
75
100
AcDbEntity
  8
$DDT_AUDIT_GENERATED_(8A)
  6
Continuous
 62
     7
100
AcDbCircle
 10
129.9102147106
 20
725.2990559245
 30
0.0
 40
0.7000000000000081
100
AcDbArc
 50
1.5836281147
 51
91.5529697499
  0
LINE
  5
B3
330
75
100
AcDbEntity
  8
$DDT_AUDIT_GENERATED_(B2)
  6
Continuous
 62
     7
100
AcDbLine
 10
31.536370217
 20
404.3657418383
 30
0.0
 11
32.636370217
 21
404.3657418383
 31
0.0
  0
LINE
  5
B4
330
75
100
AcDbEntity
  8
$DDT_AUDIT_GENERATED_(B2)
  6
Continuous
 62
     7
100
AcDbLine
 10
32.636370217
 20
404.3657418383
 30
0.0
 11
81.436370217
 21
404.3657418383
 31
0.0
  0
LINE
  5
B5
330
75
100
AcDbEntity
  8
$DDT_AUDIT_GENERATED_(B2)
  6
Continuous
 62
     7
100
AcDbLine
 10
81.436370217
 20
404.3657418383
 30
0.0
 11
82.536370217
 21
404.3657418383
 31
0.0
  0
LINE
  5
B6
330
75
100
AcDbEntity
  8
$DDT_AUDIT_GENERATED_(B2)
  6
Continuous
 62
     7
100
AcDbLine
 10
83.036370217
 20
403.8657418383
 30
0.0
 11
83.036370217
 21
396.3657418383
 31
0.0
  0
LINE
  5
B7
330
75
100
AcDbEntity
  8
$DDT_AUDIT_GENERATED_(B2)
  6
Continuous
 62
     7
100
AcDbLine
 10
31.036370217
 20
403.8657418383
 30
0.0
 11
31.036370217
 21
396.3657418383
 31
0.0
  0
ARC
  5
B8
330
75
100
AcDbEntity
  8
$DDT_AUDIT_GENERATED_(B2)
  6
Continuous
 62
     7
100
AcDbCircle
 10
31.536370217
 20
403.8657418383
 30
0.0
 40
0.5000000000000004
100
AcDbArc
 50
90.0
 51
180.0
  0
ARC
  5
B9
330
75
100
AcDbEntity
  8
$DDT_AUDIT_GENERATED_(B2)
  6
Continuous
 62
     7
100
AcDbCircle
 10
82.536370217
 20
403.8657418383
 30
0.0
 40
0.5000000000000004
100
AcDbArc
 50
0.0
 51
90.0
  0
LINE
  5
BA
330
75
100
AcDbEntity
  8
$DDT_AUDIT_GENERATED_(B2)
  6
Continuous
 62
     7
100
AcDbLine
 10
83.036370217
 20
396.3657418383
 30
0.0
 11
81.436370217
 21
396.3657418383
 31
0.0
  0
LINE
  5
BB
330
75
100
AcDbEntity
  8
$DDT_AUDIT_GENERATED_(B2)
  6
Continuous
 62
     7
100
AcDbLine
 10
81.436370217
 20
396.3657418383
 30
0.0
 11
32.636370217
 21
396.3657418383
 31
0.0
  0
LINE
  5
BC
330
75
100
AcDbEntity
  8
$DDT_AUDIT_GENERATED_(B2)
  6
Continuous
 62
     7
100
AcDbLine
 10
32.636370217
 20
396.3657418383
 30
0.0
 11
31.036370217
 21
396.3657418383
 31
0.0
  0
ELLIPSE
  5
BE
330
75
100
AcDbEntity
  8
$DDT_AUDIT_GENERATED_(BD)
  6
Continuous
 62
     7
100
AcDbEllipse
 10
129.7557301369
 20
635.4034660672
 30
0.0
 11
-3.330861439730742
 21
-0.3575780604495246
 31
0.0
210
0.0
220
0.0
230
0.9999999999999999
 40
0.1383932758
 41
0.468297585104986
 42
1.641685497063416
  0
LINE
  5
C0
330
75
100
AcDbEntity
  8
$DDT_AUDIT_GENERATED_(BF)
  6
Continuous
 62
     7
100
AcDbLine
 10
72.036370217
 20
764.8301318242
 30
0.0
 11
72.036370217
 21
688.3657418383
 31
0.0
  0
LINE
  5
C1
330
75
100
AcDbEntity
  8
$DDT_AUDIT_GENERATED_(BF)
  6
Continuous
 62
     7
100
AcDbLine
 10
42.036370217
 20
688.3657418383
 30
0.0
 11
42.036370217
 21
764.8301318242
 31
0.0
  0
LINE
  5
C2
330
75
100
AcDbEntity
  8
$DDT_AUDIT_GENERATED_(BF)
  6
Continuous
 62
     7
100
AcDbLine
 10
42.536370217
 20
775.6380207673
 30
0.0
 11
71.536370217
 21
775.6380207673
 31
0.0
  0
LINE
  5
C3
330
75
100
AcDbEntity
  8
$DDT_AUDIT_GENERATED_(BF)
  6
Continuous
 62
     7
100
AcDbLine
 10
42.036370217
 20
775.5511966785
 30
0.0
 11
42.036370217
 21
807.3657418383
 31
0.0
  0
LINE
  5
C4
330
75
100
AcDbEntity
  8
$DDT_AUDIT_GENERATED_(BF)
  6
Continuous
 62
     7
100
AcDbLine
 10
42.536370217
 20
807.8657418383
 30
0.0
 11
71.536370217
 21
807.8657418383
 31
0.0
  0
ARC
  5
C5
330
75
100
AcDbEntity
  8
$DDT_AUDIT_GENERATED_(BF)
  6
Continuous
 62
     7
100
AcDbCircle
 10
42.536370217
 20
807.3657418383
 30
0.0
 40
0.5000000000000004
100
AcDbArc
 50
90.0
 51
180.0
  0
LINE
  5
C6
330
75
100
AcDbEntity
  8
$DDT_AUDIT_GENERATED_(BF)
  6
Continuous
 62
     7
100
AcDbLine
 10
72.036370217
 20
775.5511966785
 30
0.0
 11
72.036370217
 21
766.9833692273
 31
0.0
  0
LINE
  5
C7
330
75
100
AcDbEntity
  8
$DDT_AUDIT_GENERATED_(BF)
  6
Continuous
 62
     7
100
AcDbLine
 10
72.036370217
 20
807.3657418383
 30
0.0
 11
72.036370217
 21
775.5511966785
 31
0.0
  0
ARC
  5
C8
330
75
100
AcDbEntity
  8
$DDT_AUDIT_GENERATED_(BF)
  6
Continuous
 62
     7
100
AcDbCircle
 10
71.536370217
 20
807.3657418383
 30
0.0
 40
0.5000000000000004
100
AcDbArc
 50
0.0
 51
90.0
  0
LINE
  5
C9
330
75
100
AcDbEntity
  8
$DDT_AUDIT_GENERATED_(BF)
  6
Continuous
 62
     7
100
AcDbLine
 10
72.036370217
 20
766.9833692273
 30
0.0
 11
72.036370217
 21
764.8301318242
 31
0.0
  0
LINE
  5
CA
330
75
100
AcDbEntity
  8
$DDT_AUDIT_GENERATED_(BF)
  6
Continuous
 62
     7
100
AcDbLine
 10
42.036370217
 20
766.9833692273
 30
0.0
 11
42.036370217
 21
775.5511966785
 31
0.0
  0
LINE
  5
CB
330
75
100
AcDbEntity
  8
$DDT_AUDIT_GENERATED_(BF)
  6
Continuous
 62
     7
100
AcDbLine
 10
42.036370217
 20
764.8301318242
 30
0.0
 11
42.036370217
 21
766.9833692273
 31
0.0
  0
LINE
  5
CC
330
75
100
AcDbEntity
  8
$DDT_AUDIT_GENERATED_(BF)
  6
Continuous
 62
     7
100
AcDbLine
 10
44.786370217
 20
766.0984485277
 30
0.0
 11
44.786370217
 21
765.9444544389
 31
0.0
  0
LINE
  5
CD
330
75
100
AcDbEntity
  8
$DDT_AUDIT_GENERATED_(BF)
  6
Continuous
 62
     7
100
AcDbLine
 10
69.286370217
 20
765.9444544389
 30
0.0
 11
69.286370217
 21
766.0990181728
 31
0.0
  0
ARC
  5
CE
330
75
100
AcDbEntity
  8
$DDT_AUDIT_GENERATED_(BF)
  6
Continuous
 62
     7
100
AcDbCircle
 10
71.536370217
 20
764.8301318242
 30
0.0
 40
0.5000000000000004
100
AcDbArc
 50
270.0
 51
360.0
  0
ARC
  5
CF
330
75
100
AcDbEntity
  8
$DDT_AUDIT_GENERATED_(BF)
  6
Continuous
 62
     7
100
AcDbCircle
 10
42.536370217
 20
764.8301318242
 30
0.0
 40
0.5000000000000004
100
AcDbArc
 50
180.0
 51
270.0
  0
LINE
  5
D0
330
75
100
AcDbEntity
  8
$DDT_AUDIT_GENERATED_(BF)
  6
Continuous
 62
     7
100
AcDbLine
 10
42.536370217
 20
764.3301318242
 30
0.0
 11
71.536370217
 21
764.3301318242
 31
0.0
  0
SPLINE
  5
D1
330
75
100
AcDbEntity
  8
$DDT_AUDIT_GENERATED_(BF)
  6
Continuous
 62
     7
100
AcDbSpline
210
0.0
220
0.0
230
1.0
 70
     8
 71
     3
 72
    16
 73
    12
 74
     0
 42
0.0000000034468752
 43
0.0000000001
 40
0.0
 40
0.0
 40
0.0
 40
0.0
 40
0.0821920211357787
 40
0.1949440269588716
 40
0.3068519967260175
 40
0.417343610092949
 40
0.5254443908947068
 40
0.6181245074764984
 40
0.7013071624596922
 40
0.7729147919201678
 40
0.7802736575576407
 40
0.7802736575576407
 40
0.7802736575576407
 40
0.7802736575576407
 10
67.21113170159524
 20
766.3806810589792
 30
0.0
 10
67.34443433600991
 20
766.3742459683169
 30
0.0
 10
67.6120382986251
 20
766.3609184730474
 30
0.0
 10
68.04203883337031
 20
766.323756320738
 30
0.0
 10
68.45879460867344
 20
766.2743624014488
 30
0.0
 10
68.82041003974457
 20
766.2159948811976
 30
0.0
 10
69.1006582753742
 20
766.155228187964
 30
0.0
 10
69.29500310324612
 20
766.0987864047862
 30
0.0
 10
69.40629041850389
 20
766.0549938710144
 30
0.0
 10
69.43629675552575
 20
766.0376353906731
 30
0.0
 10
69.43738626209526
 20
766.0368584244014
 30
0.0
 10
69.43737135151343
 20
766.0368606057013
 30
0.0
  0
ARC
  5
D2
330
75
100
AcDbEntity
  8
$DDT_AUDIT_GENERATED_(BF)
  6
Continuous
 62
     7
100
AcDbCircle
 10
66.3388765276
 20
749.9318764544
 30
0.0
 40
16.47191555374424
100
AcDbArc
 50
86.9645347978
 51
90.1826378408
  0
LINE
  5
D3
330
75
100
AcDbEntity
  8
$DDT_AUDIT_GENERATED_(BF)
  6
Continuous
 62
     7
100
AcDbLine
 10
47.786370217
 20
766.4037083226
 30
0.0
 11
66.286370217
 21
766.4037083226
 31
0.0
  0
ARC
  5
D4
330
75
100
AcDbEntity
  8
$DDT_AUDIT_GENERATED_(BF)
  6
Continuous
 62
     7
100
AcDbCircle
 10
47.7411620129
 20
749.5279073819
 30
0.0
 40
16.87586149428244
100
AcDbArc
 50
89.8465119902
 51
93.0331027504
  0
SPLINE
  5
D5
330
75
100
AcDbEntity
  8
$DDT_AUDIT_GENERATED_(BF)
  6
Continuous
 62
     7
100
AcDbSpline
210
0.0
220
0.0
230
1.0
 70
     8
 71
     3
 72
    16
 73
    12
 74
     0
 42
0.0000000034652319
 43
0.0000000001
 40
0.2202540911398852
 40
0.2202540911398852
 40
0.2202540911398852
 40
0.2202540911398852
 40
0.2458468861060253
 40
0.3153157178748791
 40
0.3962112866308197
 40
0.4881236112662843
 40
0.588560716541397
 40
0.694649812037105
 40
0.8041747672590548
 40
0.9157192552770445
 40
1.0
 40
1.0
 40
1.0
 40
1.0
 10
44.63541934338684
 20
766.0368570455549
 30
0.0
 10
44.63539030108648
 20
766.0368440625962
 30
0.0
 10
44.64036128470516
 20
766.0402076583142
 30
0.0
 10
44.68385997196393
 20
766.0626700449669
 30
0.0
 10
44.8025446863825
 20
766.1068065509065
 30
0.0
 10
44.99703300600427
 20
766.1611082390156
 30
0.0
 10
45.26928235966063
 20
766.2187972451566
 30
0.0
 10
45.61479558741439
 20
766.2742953162666
 30
0.0
 10
46.01953959037451
 20
766.3225448736254
 30
0.0
 10
46.44486282632318
 20
766.3597390150863
 30
0.0
 10
46.71219803071125
 20
766.3733930406416
 30
0.0
 10
46.84821111173942
 20
766.3801280029722
 30
0.0
  0
LINE
  5
D7
330
75
100
AcDbEntity
  8
$DDT_AUDIT_GENERATED_(D6)
  6
Continuous
 62
     7
100
AcDbLine
 10
77.036370217
 20
584.3657418383
 30
0.0
 11
37.036370217
 21
584.3657418383
 31
0.0
  0
LINE
  5
D8
330
75
100
AcDbEntity
  8
$DDT_AUDIT_GENERATED_(D6)
  6
Continuous
 62
     7
100
AcDbLine
 10
77.036370217
 20
404.3657418383
 30
0.0
 11
77.036370217
 21
584.3657418383
 31
0.0
  0
LINE
  5
D9
330
75
100
AcDbEntity
  8
$DDT_AUDIT_GENERATED_(D6)
  6
Continuous
 62
     7
100
AcDbLine
 10
37.036370217
 20
584.3657418383
 30
0.0
 11
37.036370217
 21
404.3657418383
 31
0.0
  0
LINE
  5
DB
330
75
100
AcDbEntity
  8
$DDT_AUDIT_GENERATED_(DA)
  6
Continuous
 62
     7
100
AcDbLine
 10
62.036370217
 20
648.3829398965
 30
0.0
 11
62.036370217
 21
649.8683419996
 31
0.0
  0
LINE
  5
DD
330
75
100
AcDbEntity
  8
$DDT_AUDIT_GENERATED_(DC)
  6
Continuous
 62
     7
100
AcDbLine
 10
64.593549894
 20
766.1473645446
 30
0.0
 11
49.47919054
 21
766.1473645446
 31
0.0
  0
ELLIPSE
  5
DE
330
75
100
AcDbEntity
  8
$DDT_AUDIT_GENERATED_(DC)
  6
Continuous
 62
     7
100
AcDbEllipse
 10
65.786370217
 20
766.3383775401
 30
0.0
 11
2.749999999999999
 21
0.0
 31
0.0
210
0.0
220
0.0
230
1.0
 40
0.1736481777
 41
4.71238898038469
 42
6.137750665107899
  0
ELLIPSE
  5
DF
330
75
100
AcDbEntity
  8
$DDT_AUDIT_GENERATED_(DC)
  6
Continuous
 62
     7
100
AcDbEllipse
 10
65.786370217
 20
766.3383775401
 30
0.0
 11
3.050000000000001
 21
0.0
 31
0.0
210
0.0
220
0.0
230
1.0
 40
0.1736481777
 41
4.71238898038469
 42
6.071183180180684
  0
LINE
  5
E0
330
75
100
AcDbEntity
  8
$DDT_AUDIT_GENERATED_(DC)
  6
Continuous
 62
     7
100
AcDbLine
 10
65.0536779093
 20
766.3536557208
 30
0.0
 11
64.8872616329
 21
766.4037083226
 31
0.0
  0
LINE
  5
E1
330
75
100
AcDbEntity
  8
$DDT_AUDIT_GENERATED_(DC)
  6
Continuous
 62
     7
100
AcDbLine
 10
66.6382365161
 20
766.351793924
 30
0.0
 11
66.6382365161
 21
766.3997499763
 31
0.0
  0
LINE
  5
E2
330
75
100
AcDbEntity
  8
$DDT_AUDIT_GENERATED_(DC)
  6
Continuous
 62
     7
100
AcDbLine
 10
66.3845039179
 20
766.3397372061
 30
0.0
 11
66.3845039179
 21
766.4030403883
 31
0.0
  0
LINE
  5
E3
330
75
100
AcDbEntity
  8
$DDT_AUDIT_GENERATED_(DC)
  6
Continuous
 62
     7
100
AcDbLine
 10
65.5461778381
 20
765.8608450515
 30
0.0
 11
64.593549894
 21
766.1473645446
 31
0.0
  0
LINE
  5
E4
330
75
100
AcDbEntity
  8
$DDT_AUDIT_GENERATED_(DC)
  6
Continuous
 62
     7
100
AcDbLine
 10
49.8256007016
 20
766.043175638
 30
0.0
 11
64.2471397325
 21
766.043175638
 31
0.0
  0
LINE
  5
E5
330
75
100
AcDbEntity
  8
$DDT_AUDIT_GENERATED_(DC)
  6
Continuous
 62
     7
100
AcDbLine
 10
49.1854788011
 20
766.4037083226
 30
0.0
 11
49.0190625247
 21
766.3536557208
 31
0.0
  0
ELLIPSE
  5
E6
330
75
100
AcDbEntity
  8
$DDT_AUDIT_GENERATED_(DC)
  6
Continuous
 62
     7
100
AcDbEllipse
 10
49.0190625247
 20
766.4786136675
 30
0.0
 11
0.09826517420550433
 21
0.1086094382236335
 31
0.0
210
0.0
220
0.0
230
1.0
 40
0.7391071595
 41
2.474077460632922
 42
4.027420495051443
  0
ELLIPSE
  5
E7
330
75
100
AcDbEntity
  8
$DDT_AUDIT_GENERATED_(DC)
  6
Continuous
 62
     7
100
AcDbEllipse
 10
48.286370217
 20
766.3383775401
 30
0.0
 11
2.749999999999978
 21
0.0
 31
0.0
210
0.0
220
0.0
230
1.0
 40
0.1736481777
 41
3.141592653589793
 42
4.71238898038469
  0
ELLIPSE
  5
E8
330
75
100
AcDbEntity
  8
$DDT_AUDIT_GENERATED_(DC)
  6
Continuous
 62
     7
100
AcDbEllipse
 10
48.286370217
 20
766.3383775401
 30
0.0
 11
-3.050000000000001
 21
0.0
 31
0.0
210
0.0
220
0.0
230
1.0
 40
0.1736481777
 41
0.2115852284632557
 42
1.570796326794894
  0
LINE
  5
E9
330
75
100
AcDbEntity
  8
$DDT_AUDIT_GENERATED_(DC)
  6
Continuous
 62
     7
100
AcDbLine
 10
48.286370217
 20
765.8087505982
 30
0.0
 11
49.0461778381
 21
765.8087505982
 31
0.0
  0
LINE
  5
EA
330
75
100
AcDbEntity
  8
$DDT_AUDIT_GENERATED_(DC)
  6
Continuous
 62
     7
100
AcDbLine
 10
49.47919054
 20
766.1473645446
 30
0.0
 11
48.5265625959
 21
765.8608450515
 31
0.0
  0
LINE
  5
EB
330
75
100
AcDbEntity
  8
$DDT_AUDIT_GENERATED_(DC)
  6
Continuous
 62
     7
100
AcDbLine
 10
48.5265625959
 20
765.8608450515
 30
0.0
 11
48.286370217
 21
765.8608450515
 31
0.0
  0
LINE
  5
EC
330
75
100
AcDbEntity
  8
$DDT_AUDIT_GENERATED_(DC)
  6
Continuous
 62
     7
100
AcDbLine
 10
47.6882365161
 20
766.3397372061
 30
0.0
 11
47.6882365161
 21
766.4029727283
 31
0.0
  0
ARC
  5
ED
330
75
100
AcDbEntity
  8
$DDT_AUDIT_GENERATED_(DC)
  6
Continuous
 62
     7
100
AcDbCircle
 10
47.5687178172
 20
766.3417311391
 30
0.0
 40
0.1195353301590548
100
AcDbArc
 50
266.4759202371
 51
359.0442219322
  0
LINE
  5
EE
330
75
100
AcDbEntity
  8
$DDT_AUDIT_GENERATED_(DC)
  6
Continuous
 62
     7
100
AcDbLine
 10
48.5265625959
 20
765.8608450515
 30
0.0
 11
48.5265625959
 21
766.4037083226
 31
0.0
  0
LINE
  5
EF
330
75
100
AcDbEntity
  8
$DDT_AUDIT_GENERATED_(DC)
  6
Continuous
 62
     7
100
AcDbLine
 10
47.4345039179
 20
766.351793924
 30
0.0
 11
47.4345039179
 21
766.4000244835
 31
0.0
  0
LINE
  5
F0
330
75
100
AcDbEntity
  8
$DDT_AUDIT_GENERATED_(DC)
  6
Continuous
 62
     7
100
AcDbLine
 10
47.6882365162
 20
766.3397372073
 30
0.0
 11
47.6903647661
 21
766.4597311497
 31
0.0
  0
ARC
  5
F1
330
75
100
AcDbEntity
  8
$DDT_AUDIT_GENERATED_(DC)
  6
Continuous
 62
     7
100
AcDbCircle
 10
47.5683192208
 20
766.35612682
 30
0.0
 40
0.1338854334778947
100
AcDbArc
 50
181.8545707534
 51
267.0248625304
  0
LINE
  5
F2
330
75
100
AcDbEntity
  8
$DDT_AUDIT_GENERATED_(DC)
  6
Continuous
 62
     7
100
AcDbLine
 10
49.8256007016
 20
766.043175638
 30
0.0
 11
49.0461778381
 21
765.8087505982
 31
0.0
  0
LINE
  5
F3
330
75
100
AcDbEntity
  8
$DDT_AUDIT_GENERATED_(DC)
  6
Continuous
 62
     7
100
AcDbLine
 10
65.786370217
 20
765.8087505982
 30
0.0
 11
65.0265625959
 21
765.8087505982
 31
0.0
  0
LINE
  5
F4
330
75
100
AcDbEntity
  8
$DDT_AUDIT_GENERATED_(DC)
  6
Continuous
 62
     7
100
AcDbLine
 10
65.786370217
 20
765.8608450515
 30
0.0
 11
65.5461778381
 21
765.8608450515
 31
0.0
  0
LINE
  5
F5
330
75
100
AcDbEntity
  8
$DDT_AUDIT_GENERATED_(DC)
  6
Continuous
 62
     7
100
AcDbLine
 10
65.5461778381
 20
766.4037083226
 30
0.0
 11
65.5461778381
 21
765.8608450515
 31
0.0
  0
ELLIPSE
  5
F6
330
75
100
AcDbEntity
  8
$DDT_AUDIT_GENERATED_(DC)
  6
Continuous
 62
     7
100
AcDbEllipse
 10
65.0536779093
 20
766.4786136675
 30
0.0
 11
-0.09826517420551648
 21
0.108609438223578
 31
0.0
210
0.0
220
0.0
230
1.0
 40
0.7391071595
 41
2.255764812073963
 42
3.809107846546197
  0
LINE
  5
F7
330
75
100
AcDbEntity
  8
$DDT_AUDIT_GENERATED_(DC)
  6
Continuous
 62
     7
100
AcDbLine
 10
66.382375668
 20
766.4597311497
 30
0.0
 11
66.3845039178
 21
766.339737208
 31
0.0
  0
SPLINE
  5
F8
330
75
100
AcDbEntity
  8
$DDT_AUDIT_GENERATED_(DC)
  6
Continuous
 62
     7
100
AcDbSpline
210
0.0
220
0.0
230
1.0
 70
     8
 71
     3
 72
    35
 73
    31
 74
     0
 42
0.0000000253892666
 43
0.0000000001
 40
0.0
 40
0.0
 40
0.0
 40
0.0
 40
0.1046847765140872
 40
0.1046847765140872
 40
0.1046847765140872
 40
0.2093071473766229
 40
0.2093071473766229
 40
0.2093071473766229
 40
0.3149115124464854
 40
0.3149115124464854
 40
0.3149115124464854
 40
0.4230228469561366
 40
0.4230228469561366
 40
0.4230228469561366
 40
0.4983686516439949
 40
0.4983686516439949
 40
0.4983686516439949
 40
0.61294954872734
 40
0.61294954872734
 40
0.61294954872734
 40
0.727600219724805
 40
0.727600219724805
 40
0.727600219724805
 40
0.8409049636571091
 40
0.8409049636571091
 40
0.8409049636571091
 40
0.949619529573423
 40
0.949619529573423
 40
0.949619529573423
 40
1.0
 40
1.0
 40
1.0
 40
1.0
 10
66.38450391787664
 20
766.3397372060531
 30
0.0
 10
66.38474723105267
 20
766.3260189895362
 30
0.0
 10
66.38735971315677
 20
766.3122454949867
 30
0.0
 10
66.39210409840145
 20
766.2995643442767
 30
0.0
 10
66.39684690761024
 20
766.2868874061143
 30
0.0
 10
66.40384606788602
 20
766.274955973777
 30
0.0
 10
66.412487310215
 20
766.264723627287
 30
0.0
 10
66.42121121246477
 20
766.2543934007797
 30
0.0
 10
66.43183759458134
 20
766.2455165191684
 30
0.0
 10
66.4434753477755
 20
766.2387545386017
 30
0.0
 10
66.45538808909578
 20
766.2318327793961
 30
0.0
 10
66.46867300441816
 20
766.2269399761719
 30
0.0
 10
66.48225823642727
 20
766.224403316956
 30
0.0
 10
66.49179262644455
 20
766.2226230383202
 30
0.0
 10
66.5016196571121
 20
766.2219590923452
 30
0.0
 10
66.51137021700944
 20
766.2224218438853
 30
0.0
 10
66.5260807365713
 20
766.2231199900078
 30
0.0
 10
66.54095803841636
 20
766.2264344525443
 30
0.0
 10
66.55478035171065
 20
766.2320890697785
 30
0.0
 10
66.56860686520474
 20
766.2377454052869
 30
0.0
 10
66.58176888396846
 20
766.2459067508374
 30
0.0
 10
66.59312631218306
 20
766.2559356368126
 30
0.0
 10
66.60434495697486
 20
766.2658419736422
 30
0.0
 10
66.61412486325499
 20
766.2778691647869
 30
0.0
 10
66.62151384424585
 20
766.2910011743577
 30
0.0
 10
66.6286057383108
 20
766.3036051884769
 30
0.0
 10
66.63369530434734
 20
766.317601184867
 30
0.0
 10
66.6362515071236
 20
766.3317400015335
 30
0.0
 10
66.63745084303187
 20
766.3383737438509
 30
0.0
 10
66.638118093525
 20
766.3451058679163
 30
0.0
 10
66.6382365161422
 20
766.3517939240324
 30
0.0
  0
LINE
  5
F9
330
75
100
AcDbEntity
  8
$DDT_AUDIT_GENERATED_(DC)
  6
Continuous
 62
     7
100
AcDbLine
 10
65.0265625959
 20
765.8087505982
 30
0.0
 11
64.2471397325
 21
766.043175638
 31
0.0
  0
LINE
  5
FA
330
75
100
AcDbEntity
  8
$DDT_AUDIT_GENERATED_(DC)
  6
Continuous
 62
     7
100
AcDbLine
 10
49.47919054
 20
766.4037083226
 30
0.0
 11
49.47919054
 21
766.1473645446
 31
0.0
  0
LINE
  5
FB
330
75
100
AcDbEntity
  8
$DDT_AUDIT_GENERATED_(DC)
  6
Continuous
 62
     7
100
AcDbLine
 10
64.593549894
 20
766.4037083226
 30
0.0
 11
64.593549894
 21
766.1473645446
 31
0.0
  0
ENDBLK
  5
FD
330
75
100
AcDbEntity
  8
0
100
AcDbBlockEnd
  0
BLOCK
  5
136
330
FE
100
AcDbEntity
  8
0
100
AcDbBlockBegin
  2
SE1
 70
     0
 10
0.0
 20
0.0
 30
0.0
  3
SE1
  1

  0
LINE
  5
100
330
FE
100
AcDbEntity
  8
$DDT_AUDIT_GENERATED_(77)
  6
Continuous
 62
     7
100
AcDbLine
 10
245.0512769357
 20
688.3657418383
 30
0.0
 11
285.0512769357
 21
688.3657418383
 31
0.0
  0
LINE
  5
101
330
FE
100
AcDbEntity
  8
$DDT_AUDIT_GENERATED_(77)
  6
Continuous
 62
     7
100
AcDbLine
 10
285.0512769357
 20
584.3657418383
 30
0.0
 11
245.0512769357
 21
584.3657418383
 31
0.0
  0
ARC
  5
102
330
FE
100
AcDbEntity
  8
$DDT_AUDIT_GENERATED_(77)
  6
Continuous
 62
     7
100
AcDbCircle
 10
36.6189827053
 20
606.487210039
 30
0.0
 40
208.6020443705864
100
AcDbArc
 50
357.6883989883
 51
2.3115995156
  0
ARC
  5
103
330
FE
100
AcDbEntity
  8
$DDT_AUDIT_GENERATED_(77)
  6
Continuous
 62
     7
100
AcDbCircle
 10
225.3074181249
 20
681.3657418399
 30
0.0
 40
20.00955923385714
100
AcDbArc
 50
351.6526361408
 51
9.3475271988
  0
LINE
  5
104
330
FE
100
AcDbEntity
  8
$DDT_AUDIT_GENERATED_(77)
  6
Continuous
 62
     7
100
AcDbLine
 10
285.0512769357
 20
654.0657418383
 30
0.0
 11
285.0512769357
 21
688.3657418383
 31
0.0
  0
LINE
  5
105
330
FE
100
AcDbEntity
  8
$DDT_AUDIT_GENERATED_(77)
  6
Continuous
 62
     7
100
AcDbLine
 10
285.0512769357
 20
584.3657418383
 30
0.0
 11
285.0512769357
 21
654.0657418383
 31
0.0
  0
LINE
  5
106
330
FE
100
AcDbEntity
  8
$DDT_AUDIT_GENERATED_(77)
  6
Continuous
 62
     7
100
AcDbLine
 10
245.0512769357
 20
598.0734333942
 30
0.0
 11
245.0512769357
 21
584.3657418383
 31
0.0
  0
LINE
  5
107
330
FE
100
AcDbEntity
  8
$DDT_AUDIT_GENERATED_(77)
  6
Continuous
 62
     7
100
AcDbLine
 10
245.0512769357
 20
654.0657418383
 30
0.0
 11
245.0512769357
 21
614.8980136988
 31
0.0
  0
LINE
  5
108
330
FE
100
AcDbEntity
  8
$DDT_AUDIT_GENERATED_(77)
  6
Continuous
 62
     7
100
AcDbLine
 10
245.0512769357
 20
678.0157418383
 30
0.0
 11
245.0512769357
 21
654.0657418383
 31
0.0
  0
LINE
  5
109
330
FE
100
AcDbEntity
  8
$DDT_AUDIT_GENERATED_(77)
  6
Continuous
 62
     7
100
AcDbLine
 10
245.0512769357
 20
688.3657418383
 30
0.0
 11
245.0512769357
 21
684.7157418383
 31
0.0
  0
ELLIPSE
  5
10A
330
FE
100
AcDbEntity
  8
$DDT_AUDIT_GENERATED_(8A)
  6
Continuous
 62
     7
100
AcDbEllipse
 10
265.0901265523
 20
654.3421712239
 30
0.0
 11
-19.80536137486752
 21
2.783462018939226
 31
0.0
210
0.0
220
0.0
230
1.0
 40
0.9996254465
 41
3.293352158661565
 42
3.343390615017014
  0
ELLIPSE
  5
10B
330
FE
100
AcDbEntity
  8
$DDT_AUDIT_GENERATED_(8A)
  6
Continuous
 62
     7
100
AcDbEllipse
 10
265.0945010945
 20
654.3732977091
 30
0.0
 11
-19.8053613748314
 21
2.783462019201433
 31
0.0
210
0.0
220
0.0
230
1.0
 40
0.9864777622
 41
3.217676234456182
 42
3.232815444158224
  0
ELLIPSE
  5
10C
330
FE
100
AcDbEntity
  8
$DDT_AUDIT_GENERATED_(8A)
  6
Continuous
 62
     7
100
AcDbEllipse
 10
265.198804892
 20
655.1154577916
 30
0.0
 11
-19.80536137512468
 21
2.783462017121901
 31
0.0
210
0.0
220
0.0
230
0.9999999999999999
 40
0.9996254465
 41
3.159690901924679
 42
3.40264384367985
  0
LINE
  5
10D
330
FE
100
AcDbEntity
  8
$DDT_AUDIT_GENERATED_(8A)
  6
Continuous
 62
     7
100
AcDbLine
 10
283.3096603956
 20
722.9058701462
 30
0.0
 11
278.4553619324
 21
688.3657418383
 31
0.0
  0
LINE
  5
10E
330
FE
100
AcDbEntity
  8
$DDT_AUDIT_GENERATED_(8A)
  6
Continuous
 62
     7
100
AcDbLine
 10
283.3271808109
 20
723.0305343789
 30
0.0
 11
283.3096603956
 21
722.9058701462
 31
0.0
  0
ELLIPSE
  5
10F
330
FE
100
AcDbEntity
  8
$DDT_AUDIT_GENERATED_(8A)
  6
Continuous
 62
     7
100
AcDbEllipse
 10
282.6339931628
 20
723.1279555496
 30
0.0
 11
0.693187648117686
 21
-0.0974211706821493
 31
0.0
210
0.0
220
0.0
230
1.0
 40
0.9996254465
 41
0.0
 42
1.570796326809436
  0
LINE
  5
110
330
FE
100
AcDbEntity
  8
$DDT_AUDIT_GENERATED_(8A)
  6
Continuous
 62
     7
100
AcDbLine
 10
282.7314143334
 20
723.8211431977
 30
0.0
 11
271.5512769357
 21
725.3924090396
 31
0.0
  0
LINE
  5
111
330
FE
100
AcDbEntity
  8
$DDT_AUDIT_GENERATED_(B2)
  6
Continuous
 62
     7
100
AcDbLine
 10
240.6512769357
 20
404.3657418383
 30
0.0
 11
289.4512769357
 21
404.3657418383
 31
0.0
  0
LINE
  5
112
330
FE
100
AcDbEntity
  8
$DDT_AUDIT_GENERATED_(B2)
  6
Continuous
 62
     7
100
AcDbLine
 10
239.5512769357
 20
404.3657418383
 30
0.0
 11
240.6512769357
 21
404.3657418383
 31
0.0
  0
LINE
  5
113
330
FE
100
AcDbEntity
  8
$DDT_AUDIT_GENERATED_(B2)
  6
Continuous
 62
     7
100
AcDbLine
 10
289.4512769357
 20
404.3657418383
 30
0.0
 11
290.5512769357
 21
404.3657418383
 31
0.0
  0
LINE
  5
114
330
FE
100
AcDbEntity
  8
$DDT_AUDIT_GENERATED_(B2)
  6
Continuous
 62
     7
100
AcDbLine
 10
291.0512769357
 20
403.8657418383
 30
0.0
 11
291.0512769357
 21
396.3657418383
 31
0.0
  0
LINE
  5
115
330
FE
100
AcDbEntity
  8
$DDT_AUDIT_GENERATED_(B2)
  6
Continuous
 62
     7
100
AcDbLine
 10
239.0512769357
 20
403.8657418383
 30
0.0
 11
239.0512769357
 21
396.3657418383
 31
0.0
  0
ARC
  5
116
330
FE
100
AcDbEntity
  8
$DDT_AUDIT_GENERATED_(B2)
  6
Continuous
 62
     7
100
AcDbCircle
 10
290.5512769357
 20
403.8657418383
 30
0.0
 40
0.5000000000000004
100
AcDbArc
 50
0.0
 51
90.0
  0
ARC
  5
117
330
FE
100
AcDbEntity
  8
$DDT_AUDIT_GENERATED_(B2)
  6
Continuous
 62
     7
100
AcDbCircle
 10
239.5512769357
 20
403.8657418383
 30
0.0
 40
0.5000000000000004
100
AcDbArc
 50
90.0
 51
180.0
  0
LINE
  5
118
330
FE
100
AcDbEntity
  8
$DDT_AUDIT_GENERATED_(B2)
  6
Continuous
 62
     7
100
AcDbLine
 10
289.4512769357
 20
396.3657418383
 30
0.0
 11
240.6512769357
 21
396.3657418383
 31
0.0
  0
LINE
  5
119
330
FE
100
AcDbEntity
  8
$DDT_AUDIT_GENERATED_(B2)
  6
Continuous
 62
     7
100
AcDbLine
 10
291.0512769357
 20
396.3657418383
 30
0.0
 11
289.4512769357
 21
396.3657418383
 31
0.0
  0
LINE
  5
11A
330
FE
100
AcDbEntity
  8
$DDT_AUDIT_GENERATED_(B2)
  6
Continuous
 62
     7
100
AcDbLine
 10
240.6512769357
 20
396.3657418383
 30
0.0
 11
239.0512769357
 21
396.3657418383
 31
0.0
  0
LINE
  5
11C
330
FE
100
AcDbEntity
  8
$DDT_AUDIT_GENERATED_(11B)
  6
Continuous
 62
     7
100
AcDbLine
 10
219.5277671348
 20
634.8842435304
 30
0.0
 11
219.5277671348
 21
638.8842435304
 31
0.0
  0
LINE
  5
11D
330
FE
100
AcDbEntity
  8
$DDT_AUDIT_GENERATED_(11B)
  6
Continuous
 62
     7
100
AcDbLine
 10
232.9950544947
 20
634.8842435304
 30
0.0
 11
232.9950544947
 21
638.8842435304
 31
0.0
  0
LINE
  5
11E
330
FE
100
AcDbEntity
  8
$DDT_AUDIT_GENERATED_(11B)
  6
Continuous
 62
     7
100
AcDbLine
 10
233.946111011
 20
634.1932605248
 30
0.0
 11
237.7503370762
 21
635.4293285023
 31
0.0
  0
LINE
  5
11F
330
FE
100
AcDbEntity
  8
$DDT_AUDIT_GENERATED_(11B)
  6
Continuous
 62
     7
100
AcDbLine
 10
232.9950544947
 20
638.8842435304
 30
0.0
 11
219.5277671348
 21
638.8842435304
 31
0.0
  0
LINE
  5
120
330
FE
100
AcDbEntity
  8
$DDT_AUDIT_GENERATED_(11B)
  6
Continuous
 62
     7
100
AcDbLine
 10
219.5277671348
 20
634.8842435304
 30
0.0
 11
232.9950544947
 21
634.8842435304
 31
0.0
  0
ARC
  5
121
330
FE
100
AcDbEntity
  8
$DDT_AUDIT_GENERATED_(11B)
  6
Continuous
 62
     7
100
AcDbCircle
 10
232.9950544947
 20
633.8842435304
 30
0.0
 40
1.000000000000001
100
AcDbArc
 50
18.0
 51
90.0
  0
ARC
  5
122
330
FE
100
AcDbEntity
  8
$DDT_AUDIT_GENERATED_(11B)
  6
Continuous
 62
     7
100
AcDbCircle
 10
232.9950544947
 20
633.8842435304
 30
0.0
 40
4.999999999999995
100
AcDbArc
 50
18.0
 51
90.0
  0
LINE
  5
123
330
FE
100
AcDbEntity
  8
$DDT_AUDIT_GENERATED_(11B)
  6
Continuous
 62
     7
100
AcDbLine
 10
245.1200473288
 20
612.7476925842
 30
0.0
 11
237.7503370762
 21
635.4293285023
 31
0.0
  0
LINE
  5
124
330
FE
100
AcDbEntity
  8
$DDT_AUDIT_GENERATED_(11B)
  6
Continuous
 62
     7
100
AcDbLine
 10
233.946111011
 20
634.1932605248
 30
0.0
 11
245.1202666084
 21
599.802745801
 31
0.0
  0
ARC
  5
125
330
FE
100
AcDbEntity
  8
$DDT_AUDIT_GENERATED_(BF)
  6
Continuous
 62
     7
100
AcDbCircle
 10
371.4512769357
 20
769.3497971634
 30
0.0
 40
25.51594467490883
100
AcDbArc
 50
10.0
 51
90.0
  0
LINE
  5
126
330
FE
100
AcDbEntity
  8
$DDT_AUDIT_GENERATED_(BF)
  6
Continuous
 62
     7
100
AcDbLine
 10
371.4512769357
 20
794.8657418383
 30
0.0
 11
297.0512769357
 21
794.8657418383
 31
0.0
  0
ARC
  5
127
330
FE
100
AcDbEntity
  8
$DDT_AUDIT_GENERATED_(BF)
  6
Continuous
 62
     7
100
AcDbCircle
 10
297.0512769357
 20
769.3657418383
 30
0.0
 40
25.5
100
AcDbArc
 50
90.0
 51
180.0
  0
LINE
  5
128
330
FE
100
AcDbEntity
  8
$DDT_AUDIT_GENERATED_(BF)
  6
Continuous
 62
     7
100
AcDbLine
 10
271.5512769357
 20
769.3657418383
 30
0.0
 11
271.5512769357
 21
688.3657418383
 31
0.0
  0
LINE
  5
129
330
FE
100
AcDbEntity
  8
$DDT_AUDIT_GENERATED_(BF)
  6
Continuous
 62
     7
100
AcDbLine
 10
409.8587793032
 20
775.6380207673
 30
0.0
 11
411.3695184489
 21
767.0701933161
 31
0.0
  0
ARC
  5
12A
330
FE
100
AcDbEntity
  8
$DDT_AUDIT_GENERATED_(BF)
  6
Continuous
 62
     7
100
AcDbCircle
 10
371.4512769357
 20
768.8657418383
 30
0.0
 40
39.00000000000001
100
AcDbArc
 50
10.0
 51
90.0
  0
LINE
  5
12B
330
FE
100
AcDbEntity
  8
$DDT_AUDIT_GENERATED_(BF)
  6
Continuous
 62
     7
100
AcDbLine
 10
297.0512769357
 20
807.8657418383
 30
0.0
 11
371.4512769357
 21
807.8657418383
 31
0.0
  0
ARC
  5
12C
330
FE
100
AcDbEntity
  8
$DDT_AUDIT_GENERATED_(BF)
  6
Continuous
 62
     7
100
AcDbCircle
 10
297.0512769357
 20
769.3657418383
 30
0.0
 40
38.50000000000001
100
AcDbArc
 50
90.0
 51
180.0
  0
LINE
  5
12D
330
FE
100
AcDbEntity
  8
$DDT_AUDIT_GENERATED_(BF)
  6
Continuous
 62
     7
100
AcDbLine
 10
258.5512769357
 20
688.3657418383
 30
0.0
 11
258.5512769357
 21
769.3657418383
 31
0.0
  0
LINE
  5
12E
330
FE
100
AcDbEntity
  8
$DDT_AUDIT_GENERATED_(BF)
  6
Continuous
 62
     7
100
AcDbLine
 10
398.1730945586
 20
764.7433077354
 30
0.0
 11
396.579577077
 21
773.7805944577
 31
0.0
  0
LINE
  5
12F
330
FE
100
AcDbEntity
  8
$DDT_AUDIT_GENERATED_(BF)
  6
Continuous
 62
     7
100
AcDbLine
 10
410.9639386612
 20
766.4909653508
 30
0.0
 11
398.7523225239
 21
764.3377279477
 31
0.0
  0
ARC
  5
130
330
FE
100
AcDbEntity
  8
$DDT_AUDIT_GENERATED_(BF)
  6
Continuous
 62
     7
100
AcDbCircle
 10
410.8771145724
 20
766.9833692273
 30
0.0
 40
0.4999999999999865
100
AcDbArc
 50
280.0
 51
10.0
  0
ARC
  5
131
330
FE
100
AcDbEntity
  8
$DDT_AUDIT_GENERATED_(BF)
  6
Continuous
 62
     7
100
AcDbCircle
 10
398.6654984351
 20
764.8301318242
 30
0.0
 40
0.4999999999999865
100
AcDbArc
 50
190.0
 51
280.0
  0
LINE
  5
132
330
FE
100
AcDbEntity
  8
$DDT_AUDIT_GENERATED_(BD)
  6
Continuous
 62
     7
100
AcDbLine
 10
245.0512769357
 20
684.7157418383
 30
0.0
 11
245.0512769357
 21
678.0157418383
 31
0.0
  0
LINE
  5
133
330
FE
100
AcDbEntity
  8
$DDT_AUDIT_GENERATED_(D6)
  6
Continuous
 62
     7
100
AcDbLine
 10
245.0512769357
 20
584.3657418383
 30
0.0
 11
285.0512769357
 21
584.3657418383
 31
0.0
  0
LINE
  5
134
330
FE
100
AcDbEntity
  8
$DDT_AUDIT_GENERATED_(D6)
  6
Continuous
 62
     7
100
AcDbLine
 10
285.0512769357
 20
404.3657418383
 30
0.0
 11
285.0512769357
 21
584.3657418383
 31
0.0
  0
LINE
  5
135
330
FE
100
AcDbEntity
  8
$DDT_AUDIT_GENERATED_(D6)
  6
Continuous
 62
     7
100
AcDbLine
 10
245.0512769357
 20
584.3657418383
 30
0.0
 11
245.0512769357
 21
404.3657418383
 31
0.0
  0
ENDBLK
  5
137
330
FE
100
AcDbEntity
  8
0
100
AcDbBlockEnd
  0
BLOCK
  5
197
330
138
100
AcDbEntity
  8
0
100
AcDbBlockBegin
  2
SE2
 70
     0
 10
0.0
 20
0.0
 30
0.0
  3
SE2
  1

  0
ARC
  5
13A
330
138
100
AcDbEntity
  8
$DDT_AUDIT_GENERATED_(77)
  6
Continuous
 62
     7
100
AcDbCircle
 10
57.036370217
 20
252.6758376367
 30
0.0
 40
20.0
100
AcDbArc
 50
318.5903778907
 51
0.0
  0
ARC
  5
13B
330
138
100
AcDbEntity
  8
$DDT_AUDIT_GENERATED_(77)
  6
Continuous
 62
     7
100
AcDbCircle
 10
57.036370217
 20
252.6758376367
 30
0.0
 40
20.0
100
AcDbArc
 50
0.0
 51
221.4096221093
  0
LINE
  5
13C
330
138
100
AcDbEntity
  8
$DDT_AUDIT_GENERATED_(77)
  6
Continuous
 62
     7
100
AcDbLine
 10
105.036370217
 20
232.6758376367
 30
0.0
 11
105.036370217
 21
272.6758376367
 31
0.0
  0
SPLINE
  5
13D
330
138
100
AcDbEntity
  8
$DDT_AUDIT_GENERATED_(77)
  6
Continuous
 62
     7
100
AcDbSpline
210
0.0
220
0.0
230
1.0
 70
     8
 71
     3
 72
    22
 73
    18
 74
     0
 42
0.0000000001359264
 43
0.0000000001
 40
0.0567020148124291
 40
0.0567020148124291
 40
0.0567020148124291
 40
0.0567020148124291
 40
0.0674449265250022
 40
0.1008938358914923
 40
0.1340444008661739
 40
0.1668207611493154
 40
0.1991779411750517
 40
0.2625101565117978
 40
0.3241074007173927
 40
0.3841719208786169
 40
0.4427466060648573
 40
0.5000018647817837
 40
0.5572569086335001
 40
0.615831801943552
 40
0.6758971986281073
 40
0.7374955403596103
 40
0.7503215395800541
 40
0.7503215395800541
 40
0.7503215395800541
 40
0.7503215395800541
 10
60.38621717913298
 20
272.4141151452824
 30
0.0
 10
60.60066734233245
 20
272.381722820539
 30
0.0
 10
61.48464776319379
 20
272.2367293985047
 30
0.0
 10
63.04439862464914
 20
271.8964453430613
 30
0.0
 10
65.06042555736444
 20
271.3015817994178
 30
0.0
 10
67.05689074922306
 20
270.5614934468855
 30
0.0
 10
69.653773817431
 20
269.398296797313
 30
0.0
 10
72.78624399260067
 20
267.6140955950962
 30
0.0
 10
76.26870972885
 20
264.897330436765
 30
0.0
 10
79.26639429584348
 20
261.537305482707
 30
0.0
 10
81.4602651114542
 20
257.4382974084051
 30
0.0
 10
82.32102400737435
 20
252.6758621519621
 30
0.0
 10
81.46073762218231
 20
247.9133086921662
 30
0.0
 10
79.26696524224394
 20
243.814209320498
 30
0.0
 10
76.2692264348624
 20
240.4541780839082
 30
0.0
 10
73.7374277780409
 20
238.4791553401086
 30
0.0
 10
72.28800648983585
 20
237.5343990466028
 30
0.0
 10
72.03696920220055
 20
237.3758899261077
 30
0.0
  0
LINE
  5
13E
330
138
100
AcDbEntity
  8
$DDT_AUDIT_GENERATED_(77)
  6
Continuous
 62
     7
100
AcDbLine
 10
72.036370217
 20
232.6758376367
 30
0.0
 11
105.036370217
 21
232.6758376367
 31
0.0
  0
LINE
  5
13F
330
138
100
AcDbEntity
  8
$DDT_AUDIT_GENERATED_(77)
  6
Continuous
 62
     7
100
AcDbLine
 10
105.036370217
 20
272.6758376367
 30
0.0
 11
60.386370217
 21
272.6758376367
 31
0.0
  0
SPLINE
  5
141
330
138
100
AcDbEntity
  8
$DDT_AUDIT_GENERATED_(140)
  6
Continuous
 62
     7
100
AcDbSpline
210
0.0
220
0.0
230
1.0
 70
     8
 71
     3
 72
    10
 73
     6
 74
     0
 42
0.0000000141184473
 43
0.0000000001
 40
0.4532479491834702
 40
0.4532479491834702
 40
0.4532479491834702
 40
0.4532479491834702
 40
0.5
 40
0.5
 40
1.0
 40
1.0
 40
1.0
 40
1.0
 10
75.36405526363303
 20
260.6027999780297
 30
0.0
 10
75.37327735903185
 20
260.5961166506856
 30
0.0
 10
75.38219728753678
 20
260.5891448460828
 30
0.0
 10
75.48264932350183
 20
260.5043735134815
 30
0.0
 10
75.53637021700943
 20
260.3956695059431
 30
0.0
 10
75.53637021700943
 20
260.2838142798639
 30
0.0
  0
ARC
  5
142
330
138
100
AcDbEntity
  8
$DDT_AUDIT_GENERATED_(86)
  6
Continuous
 62
     7
100
AcDbCircle
 10
96.636370217
 20
252.6758376367
 30
0.0
 40
20.0
100
AcDbArc
 50
60.9260946914
 51
65.1654125103
  0
ARC
  5
143
330
138
100
AcDbEntity
  8
$DDT_AUDIT_GENERATED_(86)
  6
Continuous
 62
     7
100
AcDbCircle
 10
96.636370217
 20
252.6758376367
 30
0.0
 40
20.0
100
AcDbArc
 50
294.8345874897
 51
298.6372891658
  0
ARC
  5
144
330
138
100
AcDbEntity
  8
$DDT_AUDIT_GENERATED_(8A)
  6
Continuous
 62
     7
100
AcDbCircle
 10
106.7435039701
 20
234.9876654917
 30
0.0
 40
2.349056188333005
100
AcDbArc
 50
270.1536499855
 51
270.5694842303
  0
ELLIPSE
  5
145
330
138
100
AcDbEntity
  8
$DDT_AUDIT_GENERATED_(8A)
  6
Continuous
 62
     7
100
AcDbEllipse
 10
107.9806593745
 20
252.6326134779
 30
0.0
 11
-1.860091744554857
 21
-19.97318210898006
 31
0.0
210
0.0
220
0.0
230
1.0
 40
0.4996809218
 41
3.186178380503255
 42
3.325721573933573
  0
ELLIPSE
  5
146
330
138
100
AcDbEntity
  8
$DDT_AUDIT_GENERATED_(8A)
  6
Continuous
 62
     7
100
AcDbEllipse
 10
106.5326621373
 20
252.6381306559
 30
0.0
 11
-0.07506065258432865
 21
-19.6998570019793
 31
0.0
210
0.0
220
0.0
230
0.9999999999999999
 40
0.0271009202
 41
3.433030138270561
 42
6.159494879199064
  0
ELLIPSE
  5
147
330
138
100
AcDbEntity
  8
$DDT_AUDIT_GENERATED_(8A)
  6
Continuous
 62
     7
100
AcDbEllipse
 10
106.7510446174
 20
232.9385933041
 30
0.0
 11
0.1231991543217057
 21
0.2735360458411655
 31
0.0
210
0.0
220
0.0
230
0.9999999999999997
 40
0.9995597487
 41
3.131868313242924
 42
3.560800732994882
  0
ELLIPSE
  5
148
330
138
100
AcDbEntity
  8
$DDT_AUDIT_GENERATED_(8A)
  6
Continuous
 62
     7
100
AcDbEllipse
 10
136.0543742659
 20
252.5256466425
 30
0.0
 11
0.0
 21
18.80435797441427
 31
0.0
210
0.0
220
0.0
230
1.0
 40
1.0
 41
0.0026684266587202
 42
3.130689271939125
  0
ELLIPSE
  5
149
330
138
100
AcDbEntity
  8
$DDT_AUDIT_GENERATED_(8A)
  6
Continuous
 62
     7
100
AcDbEllipse
 10
136.0543742659
 20
252.5256466425
 30
0.0
 11
0.0
 21
19.07167951303586
 31
0.0
210
0.0
220
0.0
230
1.0
 40
1.0
 41
3.142292848677556
 42
3.156127060363135
  0
ELLIPSE
  5
14A
330
138
100
AcDbEntity
  8
$DDT_AUDIT_GENERATED_(8A)
  6
Continuous
 62
     7
100
AcDbEllipse
 10
136.0543742659
 20
252.5256466425
 30
0.0
 11
0.0
 21
16.01281822456335
 31
0.0
210
0.0
220
0.0
230
1.0
 40
1.0
 41
-0.0221547960323456
 42
-0.008872075703394
  0
LINE
  5
14B
330
138
100
AcDbEntity
  8
$DDT_AUDIT_GENERATED_(8A)
  6
Continuous
 62
     7
100
AcDbLine
 10
133.0344132331
 20
241.0942945127
 30
0.0
 11
131.8050754983
 21
241.0989785514
 31
0.0
  0
ELLIPSE
  5
14C
330
138
100
AcDbEntity
  8
$DDT_AUDIT_GENERATED_(8A)
  6
Continuous
 62
     7
100
AcDbEllipse
 10
133.5225491926
 20
252.5352934355
 30
0.0
 11
0.0
 21
6.496502362861925
 31
0.0
210
0.0
220
0.0
230
1.0
 40
1.0
 41
0.0752091540128808
 42
3.098953012252844
  0
LINE
  5
14D
330
138
100
AcDbEntity
  8
$DDT_AUDIT_GENERATED_(8A)
  6
Continuous
 62
     7
100
AcDbLine
 10
124.5375969379
 20
259.0458056752
 30
0.0
 11
133.0344132331
 21
259.0134309947
 31
0.0
  0
ELLIPSE
  5
14E
330
138
100
AcDbEntity
  8
$DDT_AUDIT_GENERATED_(8A)
  6
Continuous
 62
     7
100
AcDbEllipse
 10
125.0257328974
 20
252.567668116
 30
0.0
 11
-0.07620370820743405
 21
-19.99985482434456
 31
0.0
210
0.0
220
0.0
230
0.9999999999999999
 40
0.0271009202
 41
4.382633669572346
 42
5.321500250388454
  0
ARC
  5
14F
330
138
100
AcDbEntity
  8
$DDT_AUDIT_GENERATED_(8A)
  6
Continuous
 62
     7
100
AcDbCircle
 10
129.480449271
 20
262.5758763831
 30
0.0
 40
6.073976324402574
100
AcDbArc
 50
215.5335473567
 51
232.1643449379
  0
ARC
  5
150
330
138
100
AcDbEntity
  8
$DDT_AUDIT_GENERATED_(8A)
  6
Continuous
 62
     7
100
AcDbCircle
 10
128.148109939
 20
265.983626066
 30
0.0
 40
7.82107127614375
100
AcDbArc
 50
242.5070679465
 51
256.6959419581
  0
LINE
  5
151
330
138
100
AcDbEntity
  8
$DDT_AUDIT_GENERATED_(8A)
  6
Continuous
 62
     7
100
AcDbLine
 10
125.3119376567
 20
251.2520113455
 30
0.0
 11
129.9102147106
 21
251.2344909301
 31
0.0
  0
LINE
  5
152
330
138
100
AcDbEntity
  8
$DDT_AUDIT_GENERATED_(8A)
  6
Continuous
 62
     7
100
AcDbLine
 10
126.6765999044
 20
258.1892482073
 30
0.0
 11
125.3119376567
 21
251.2520113455
 31
0.0
  0
LINE
  5
153
330
138
100
AcDbEntity
  8
$DDT_AUDIT_GENERATED_(8A)
  6
Continuous
 62
     7
100
AcDbLine
 10
125.2927805772
 20
250.4614390161
 30
0.0
 11
125.2927805772
 21
235.0132571437
 31
0.0
  0
ELLIPSE
  5
154
330
138
100
AcDbEntity
  8
$DDT_AUDIT_GENERATED_(8A)
  6
Continuous
 62
     7
100
AcDbEllipse
 10
126.3483354724
 20
257.6792645416
 30
0.0
 11
0.1653053172719215
 21
0.6802015525427911
 31
0.0
210
0.0
220
0.0
230
1.0
 40
0.8593327239
 41
0.2756083446750611
 42
1.63292317589293
  0
ELLIPSE
  5
155
330
138
100
AcDbEntity
  8
$DDT_AUDIT_GENERATED_(8A)
  6
Continuous
 62
     7
100
AcDbEllipse
 10
125.3119376567
 20
250.5588236973
 30
0.0
 11
0.6868368711892697
 21
-0.1351114812845832
 31
0.0
210
0.0
220
0.0
230
0.9999999999999999
 40
0.9898971604
 41
1.763117697036896
 42
3.141592653589795
  0
ELLIPSE
  5
156
330
138
100
AcDbEntity
  8
$DDT_AUDIT_GENERATED_(8A)
  6
Continuous
 62
     7
100
AcDbEllipse
 10
125.3119376567
 20
250.5588236973
 30
0.0
 11
0.7000000000000201
 21
0.0
 31
0.0
210
0.0
220
0.0
230
1.0
 40
0.139173101
 41
3.114221979834463
 42
3.141592653589793
  0
ELLIPSE
  5
157
330
138
100
AcDbEntity
  8
$DDT_AUDIT_GENERATED_(8A)
  6
Continuous
 62
     7
100
AcDbEllipse
 10
125.3119376567
 20
235.110641825
 30
0.0
 11
0.6999999999999923
 21
-3.399077683617228E-30
 31
0.0
210
0.0
220
0.0
230
1.0
 40
0.139173101
 41
3.11422197983443
 42
3.141592653589793
  0
LINE
  5
158
330
138
100
AcDbEntity
  8
$DDT_AUDIT_GENERATED_(8A)
  6
Continuous
 62
     7
100
AcDbLine
 10
131.4670167591
 20
258.3529489233
 30
0.0
 11
126.3483354724
 21
258.3724521897
 31
0.0
  0
ARC
  5
159
330
138
100
AcDbEntity
  8
$DDT_AUDIT_GENERATED_(8A)
  6
Continuous
 62
     7
100
AcDbCircle
 10
129.5192297249
 20
265.1653044153
 30
0.0
 40
7.085341324136349
100
AcDbArc
 50
285.9562795035
 51
299.7436685326
  0
ELLIPSE
  5
15A
330
138
100
AcDbEntity
  8
$DDT_AUDIT_GENERATED_(8A)
  6
Continuous
 62
     7
100
AcDbEllipse
 10
132.5229237461
 20
252.5391022215
 30
0.0
 11
-0.08001389361782241
 21
-20.99984756556209
 31
0.0
210
0.0
220
0.0
230
0.9999999999999999
 40
0.0271009202
 41
4.47151976829058
 42
5.232614151670261
  0
SPLINE
  5
15B
330
138
100
AcDbEntity
  8
$DDT_AUDIT_GENERATED_(8A)
  6
Continuous
 62
     7
100
AcDbSpline
210
0.0
220
0.0
230
1.0
 70
     8
 71
     3
 72
    12
 73
     8
 74
     0
 42
0.0000000073316709
 43
0.0000000001
 40
0.0
 40
0.0
 40
0.0
 40
0.0
 40
0.2499999999999985
 40
0.2499999999999985
 40
0.499999999999997
 40
0.499999999999997
 40
1.0
 40
1.0
 40
1.0
 40
1.0
 10
132.0949553957015
 20
242.0598191684573
 30
0.0
 10
132.1554787212339
 20
242.0462502688215
 30
0.0
 10
132.2282879399394
 20
241.9962746821371
 30
0.0
 10
132.3814437507534
 20
241.8673320519359
 30
0.0
 10
132.4606111407759
 20
241.7885259719428
 30
0.0
 10
132.7026447526711
 20
241.5266932291766
 30
0.0
 10
132.8699446963417
 20
241.3181477916269
 30
0.0
 10
133.0344132331251
 20
241.0942945127099
 30
0.0
  0
ARC
  5
15C
330
138
100
AcDbEntity
  8
$DDT_AUDIT_GENERATED_(8A)
  6
Continuous
 62
     7
100
AcDbCircle
 10
126.1354715486
 20
263.0834284085
 30
0.0
 40
8.010010943541147
100
AcDbArc
 50
318.0736604952
 51
329.4617249958
  0
LINE
  5
15D
330
138
100
AcDbEntity
  8
$DDT_AUDIT_GENERATED_(8A)
  6
Continuous
 62
     7
100
AcDbLine
 10
129.9102147106
 20
251.2344909301
 30
0.0
 11
131.2895875925
 21
258.2465090462
 31
0.0
  0
LINE
  5
15E
330
138
100
AcDbEntity
  8
$DDT_AUDIT_GENERATED_(8A)
  6
Continuous
 62
     7
100
AcDbLine
 10
129.8910576311
 20
234.9957367284
 30
0.0
 11
129.8910576311
 21
250.4439186008
 31
0.0
  0
ELLIPSE
  5
15F
330
138
100
AcDbEntity
  8
$DDT_AUDIT_GENERATED_(8A)
  6
Continuous
 62
     7
100
AcDbEllipse
 10
131.2895875925
 20
242.1051395257
 30
0.0
 11
-0.6868368711893391
 21
0.1351114812843113
 31
0.0
210
0.0
220
0.0
230
1.0
 40
0.9898971604
 41
3.141592653589773
 42
3.33391402383147
  0
ELLIPSE
  5
160
330
138
100
AcDbEntity
  8
$DDT_AUDIT_GENERATED_(8A)
  6
Continuous
 62
     7
100
AcDbEllipse
 10
129.9102147106
 20
250.541303282
 30
0.0
 11
-0.6868368711892976
 21
0.1351114812844774
 31
0.0
210
0.0
220
0.0
230
0.9999999999999999
 40
0.9898971604
 41
3.333914023831607
 42
4.904710350626582
  0
LINE
  5
161
330
138
100
AcDbEntity
  8
$DDT_AUDIT_GENERATED_(8A)
  6
Continuous
 62
     7
100
AcDbLine
 10
106.7968035363
 20
232.6369790442
 30
0.0
 11
135.2792495744
 21
232.5284548561
 31
0.0
  0
LINE
  5
162
330
138
100
AcDbEntity
  8
$DDT_AUDIT_GENERATED_(8A)
  6
Continuous
 62
     7
100
AcDbLine
 10
135.4316569908
 20
272.5281645047
 30
0.0
 11
109.3940747348
 21
272.6273732409
 31
0.0
  0
ARC
  5
163
330
138
100
AcDbEntity
  8
$DDT_AUDIT_GENERATED_(8A)
  6
Continuous
 62
     7
100
AcDbCircle
 10
108.9450681258
 20
267.8494903509
 30
0.0
 40
4.690711134506872
100
AcDbArc
 50
102.8132651207
 51
115.3711001488
  0
SPLINE
  5
164
330
138
100
AcDbEntity
  8
$DDT_AUDIT_GENERATED_(8A)
  6
Continuous
 62
     7
100
AcDbSpline
210
0.0
220
0.0
230
1.0
 70
     8
 71
     3
 72
    11
 73
     7
 74
     0
 42
0.000000022318643
 43
0.0000000001
 40
0.0
 40
0.0
 40
0.0
 40
0.0
 40
0.5710375222046816
 40
0.7807932159057445
 40
0.9300684049229427
 40
1.0
 40
1.0
 40
1.0
 40
1.0
 10
106.3998917913468
 20
233.0256564387918
 30
0.0
 10
106.4095817513296
 20
232.9651858595822
 30
0.0
 10
106.4298849416674
 20
232.8899918436765
 30
0.0
 10
106.4847176994924
 20
232.7829654954896
 30
0.0
 10
106.548690481255
 20
232.7077633194415
 30
0.0
 10
106.6061303914297
 20
232.6767936211795
 30
0.0
 10
106.627845463042
 20
232.6650572582313
 30
0.0
  0
SPLINE
  5
165
330
138
100
AcDbEntity
  8
$DDT_AUDIT_GENERATED_(8A)
  6
Continuous
 62
     7
100
AcDbSpline
210
0.0
220
0.0
230
1.0
 70
     8
 71
     3
 72
    11
 73
     7
 74
     0
 42
0.0000000127541446
 43
0.0000000001
 40
0.0
 40
0.0
 40
0.0
 40
0.0
 40
0.2357192829292787
 40
0.5338268965732019
 40
0.7921001070088237
 40
1.0
 40
1.0
 40
1.0
 40
1.0
 10
106.9427529425292
 20
272.082798229804
 30
0.0
 10
106.8776362615519
 20
272.0558228552442
 30
0.0
 10
106.7536116483336
 20
272.0018192701463
 30
0.0
 10
106.6009222049618
 20
271.8740397032315
 30
0.0
 10
106.4845224289046
 20
271.708741557375
 30
0.0
 10
106.4660930190065
 20
271.5943453286403
 30
0.0
 10
106.4571355473382
 20
271.5338435047988
 30
0.0
  0
LINE
  5
166
330
138
100
AcDbEntity
  8
$DDT_AUDIT_GENERATED_(8A)
  6
Continuous
 62
     7
100
AcDbLine
 10
125.3092705269
 20
234.4106469061
 30
0.0
 11
129.9075475808
 21
234.3931264908
 31
0.0
  0
ARC
  5
167
330
138
100
AcDbEntity
  8
$DDT_AUDIT_GENERATED_(8A)
  6
Continuous
 62
     7
100
AcDbCircle
 10
-263.5786594268
 20
254.0483336499
 30
0.0
 40
400.2499999999954
100
AcDbArc
 50
357.4892313953
 51
2.0741524619
  0
SPLINE
  5
168
330
138
100
AcDbEntity
  8
$DDT_AUDIT_GENERATED_(8A)
  6
Continuous
 62
     7
100
AcDbSpline
210
0.0
220
0.0
230
1.0
 70
     8
 71
     3
 72
    16
 73
    12
 74
     0
 42
0.0000000078179753
 43
0.0000000001
 40
0.0
 40
0.0
 40
0.0
 40
0.0
 40
0.068670175047471
 40
0.1456738676044839
 40
0.2191282202570249
 40
0.2953096323433366
 40
0.3821389741053369
 40
0.492229285673525
 40
0.6468660896232593
 40
0.8950455736850316
 40
1.0
 40
1.0
 40
1.0
 40
1.0
 10
135.2806997069347
 20
232.5354012205577
 30
0.0
 10
135.3528011176491
 20
232.5376375801798
 30
0.0
 10
135.4817081193483
 20
232.5428333008796
 30
0.0
 10
135.6660731092525
 20
232.6312337857185
 30
0.0
 10
135.7992646914362
 20
232.741219452728
 30
0.0
 10
135.8861975715772
 20
232.8510665112148
 30
0.0
 10
135.9427486544396
 20
232.9515452013042
 30
0.0
 10
135.9834948749852
 20
233.050059557701
 30
0.0
 10
136.0179790510809
 20
233.1651595421003
 30
0.0
 10
136.0419302134449
 20
233.2684139051668
 30
0.0
 10
136.0541783718875
 20
233.3511303434334
 30
0.0
 10
136.0583248905598
 20
233.3798303019956
 30
0.0
  0
SPLINE
  5
169
330
138
100
AcDbEntity
  8
$DDT_AUDIT_GENERATED_(8A)
  6
Continuous
 62
     7
100
AcDbSpline
210
0.0
220
0.0
230
1.0
 70
     8
 71
     3
 72
    16
 73
    12
 74
     0
 42
0.0000000073125378
 43
0.0000000001
 40
0.0
 40
0.0
 40
0.0
 40
0.0
 40
0.0999457286303173
 40
0.4602154501019247
 40
0.5891692346156524
 40
0.6874046811312159
 40
0.7651211395760658
 40
0.8371284245786125
 40
0.9083273763773959
 40
0.9803470437242282
 40
1.0
 40
1.0
 40
1.0
 40
1.0
 10
136.2162256279636
 20
271.5914829547386
 30
0.0
 10
136.2122192881139
 20
271.6237089213298
 30
0.0
 10
136.1956433075225
 20
271.7516425527695
 30
0.0
 10
136.1699926056445
 20
271.8783724211403
 30
0.0
 10
136.1206899107199
 20
272.0326373229352
 30
0.0
 10
136.0738758223522
 20
272.1372710740868
 30
0.0
 10
136.0018127406559
 20
272.2508863024397
 30
0.0
 10
135.8855272377698
 20
272.374465806975
 30
0.0
 10
135.71308853472
 20
272.4783986515423
 30
0.0
 10
135.5400110654919
 20
272.5336473393641
 30
0.0
 10
135.4503780083468
 20
272.5229655238284
 30
0.0
 10
135.4279083857809
 20
272.5202015602952
 30
0.0
  0
LINE
  5
16A
330
138
100
AcDbEntity
  8
$DDT_AUDIT_GENERATED_(8A)
  6
Continuous
 62
     7
100
AcDbLine
 10
125.9897630332
 20
257.6311720404
 30
0.0
 11
124.6251007855
 21
250.6939351786
 31
0.0
  0
ARC
  5
16B
330
138
100
AcDbEntity
  8
$DDT_AUDIT_GENERATED_(8A)
  6
Continuous
 62
     7
100
AcDbCircle
 10
125.3119376567
 20
250.5588236973
 30
0.0
 40
0.7000000000000023
100
AcDbArc
 50
168.8711294509
 51
180.0
  0
LINE
  5
16C
330
138
100
AcDbEntity
  8
$DDT_AUDIT_GENERATED_(8A)
  6
Continuous
 62
     7
100
AcDbLine
 10
124.6119376567
 20
250.5588236973
 30
0.0
 11
124.6119376567
 21
235.110641825
 31
0.0
  0
ARC
  5
16D
330
138
100
AcDbEntity
  8
$DDT_AUDIT_GENERATED_(8A)
  6
Continuous
 62
     7
100
AcDbCircle
 10
125.3119376567
 20
235.110641825
 30
0.0
 40
0.6999999999999923
100
AcDbArc
 50
180.0
 51
269.7816919286
  0
LINE
  5
16E
330
138
100
AcDbEntity
  8
$DDT_AUDIT_GENERATED_(8A)
  6
Continuous
 62
     7
100
AcDbLine
 10
130.5970515818
 20
234.9580099284
 30
0.0
 11
131.9764244637
 21
241.9700280444
 31
0.0
  0
ARC
  5
16F
330
138
100
AcDbEntity
  8
$DDT_AUDIT_GENERATED_(8A)
  6
Continuous
 62
     7
100
AcDbCircle
 10
129.9102147106
 20
235.0931214097
 30
0.0
 40
0.7000000000000023
100
AcDbArc
 50
269.7816919286
 51
348.8711294509
  0
LINE
  5
170
330
138
100
AcDbEntity
  8
$DDT_AUDIT_GENERATED_(B2)
  6
Continuous
 62
     7
100
AcDbLine
 10
83.036370217
 20
277.0758376367
 30
0.0
 11
83.036370217
 21
272.6758376367
 31
0.0
  0
LINE
  5
171
330
138
100
AcDbEntity
  8
$DDT_AUDIT_GENERATED_(B2)
  6
Continuous
 62
     7
100
AcDbLine
 10
83.036370217
 20
232.6758376367
 30
0.0
 11
83.036370217
 21
228.2758376367
 31
0.0
  0
ARC
  5
172
330
138
100
AcDbEntity
  8
$DDT_AUDIT_GENERATED_(B2)
  6
Continuous
 62
     7
100
AcDbCircle
 10
81.436370217
 20
228.2758376367
 30
0.0
 40
1.600000000000001
100
AcDbArc
 50
270.0
 51
0.0
  0
ARC
  5
173
330
138
100
AcDbEntity
  8
$DDT_AUDIT_GENERATED_(B2)
  6
Continuous
 62
     7
100
AcDbCircle
 10
81.436370217
 20
277.0758376367
 30
0.0
 40
1.600000000000001
100
AcDbArc
 50
0.0
 51
90.0
  0
LINE
  5
174
330
138
100
AcDbEntity
  8
$DDT_AUDIT_GENERATED_(B2)
  6
Continuous
 62
     7
100
AcDbLine
 10
81.436370217
 20
226.6758376367
 30
0.0
 11
72.036370217
 21
226.6758376367
 31
0.0
  0
LINE
  5
175
330
138
100
AcDbEntity
  8
$DDT_AUDIT_GENERATED_(B2)
  6
Continuous
 62
     7
100
AcDbLine
 10
42.036370217
 20
226.6758376367
 30
0.0
 11
32.636370217
 21
226.6758376367
 31
0.0
  0
LINE
  5
176
330
138
100
AcDbEntity
  8
$DDT_AUDIT_GENERATED_(B2)
  6
Continuous
 62
     7
100
AcDbLine
 10
32.636370217
 20
278.6758376367
 30
0.0
 11
55.036370217
 21
278.6758376367
 31
0.0
  0
LINE
  5
177
330
138
100
AcDbEntity
  8
$DDT_AUDIT_GENERATED_(B2)
  6
Continuous
 62
     7
100
AcDbLine
 10
59.036370217
 20
278.6758376367
 30
0.0
 11
81.436370217
 21
278.6758376367
 31
0.0
  0
ARC
  5
178
330
138
100
AcDbEntity
  8
$DDT_AUDIT_GENERATED_(B2)
  6
Continuous
 62
     7
100
AcDbCircle
 10
32.636370217
 20
228.2758376367
 30
0.0
 40
1.599999999999997
100
AcDbArc
 50
180.0
 51
270.0
  0
ARC
  5
179
330
138
100
AcDbEntity
  8
$DDT_AUDIT_GENERATED_(B2)
  6
Continuous
 62
     7
100
AcDbCircle
 10
32.636370217
 20
277.0758376367
 30
0.0
 40
1.600000000000001
100
AcDbArc
 50
90.0
 51
180.0
  0
LINE
  5
17A
330
138
100
AcDbEntity
  8
$DDT_AUDIT_GENERATED_(B2)
  6
Continuous
 62
     7
100
AcDbLine
 10
31.036370217
 20
228.2758376367
 30
0.0
 11
31.036370217
 21
277.0758376367
 31
0.0
  0
LINE
  5
17B
330
138
100
AcDbEntity
  8
$DDT_AUDIT_GENERATED_(11B)
  6
Continuous
 62
     7
100
AcDbLine
 10
55.036370217
 20
298.1993474377
 30
0.0
 11
59.036370217
 21
298.1993474377
 31
0.0
  0
LINE
  5
17C
330
138
100
AcDbEntity
  8
$DDT_AUDIT_GENERATED_(11B)
  6
Continuous
 62
     7
100
AcDbLine
 10
55.036370217
 20
284.7320600777
 30
0.0
 11
59.036370217
 21
284.7320600777
 31
0.0
  0
ELLIPSE
  5
17D
330
138
100
AcDbEntity
  8
$DDT_AUDIT_GENERATED_(11B)
  6
Continuous
 62
     7
100
AcDbEllipse
 10
57.036370217
 20
281.8788905288
 30
0.0
 11
-2.000000000000002
 21
-2.428612866367530E-14
 31
0.0
210
0.0
220
0.0
230
1.0
 40
0.9510565163
 41
0.0
 42
3.141592653589793
  0
LINE
  5
17E
330
138
100
AcDbEntity
  8
$DDT_AUDIT_GENERATED_(11B)
  6
Continuous
 62
     7
100
AcDbLine
 10
59.036370217
 20
284.7320600777
 30
0.0
 11
59.036370217
 21
298.1993474377
 31
0.0
  0
LINE
  5
17F
330
138
100
AcDbEntity
  8
$DDT_AUDIT_GENERATED_(11B)
  6
Continuous
 62
     7
100
AcDbLine
 10
55.036370217
 20
298.1993474377
 30
0.0
 11
55.036370217
 21
284.7320600777
 31
0.0
  0
LINE
  5
180
330
138
100
AcDbEntity
  8
$DDT_AUDIT_GENERATED_(11B)
  6
Continuous
 62
     7
100
AcDbLine
 10
55.036370217
 20
284.7320600777
 30
0.0
 11
55.036370217
 21
281.8788905288
 31
0.0
  0
LINE
  5
181
330
138
100
AcDbEntity
  8
$DDT_AUDIT_GENERATED_(11B)
  6
Continuous
 62
     7
100
AcDbLine
 10
59.036370217
 20
281.8788905288
 30
0.0
 11
59.036370217
 21
284.7320600777
 31
0.0
  0
LINE
  5
182
330
138
100
AcDbEntity
  8
$DDT_AUDIT_GENERATED_(11B)
  6
Continuous
 62
     7
100
AcDbLine
 10
59.036370217
 20
272.6758376367
 30
0.0
 11
59.036370217
 21
281.8788905288
 31
0.0
  0
LINE
  5
183
330
138
100
AcDbEntity
  8
$DDT_AUDIT_GENERATED_(11B)
  6
Continuous
 62
     7
100
AcDbLine
 10
55.036370217
 20
281.8788905288
 30
0.0
 11
55.036370217
 21
272.6758376367
 31
0.0
  0
LINE
  5
184
330
138
100
AcDbEntity
  8
$DDT_AUDIT_GENERATED_(BF)
  6
Continuous
 62
     7
100
AcDbLine
 10
42.036370217
 20
220.6758376367
 30
0.0
 11
42.036370217
 21
258.6758376367
 31
0.0
  0
LINE
  5
185
330
138
100
AcDbEntity
  8
$DDT_AUDIT_GENERATED_(BF)
  6
Continuous
 62
     7
100
AcDbLine
 10
42.036370217
 20
146.2758376367
 30
0.0
 11
42.036370217
 21
220.6758376367
 31
0.0
  0
LINE
  5
186
330
138
100
AcDbEntity
  8
$DDT_AUDIT_GENERATED_(BF)
  6
Continuous
 62
     7
100
AcDbLine
 10
42.036370217
 20
108.3607391457
 30
0.0
 11
42.036370217
 21
146.2758376367
 31
0.0
  0
LINE
  5
187
330
138
100
AcDbEntity
  8
$DDT_AUDIT_GENERATED_(BF)
  6
Continuous
 62
     7
100
AcDbLine
 10
42.536370217
 20
146.2758376367
 30
0.0
 11
71.536370217
 21
146.2758376367
 31
0.0
  0
LINE
  5
188
330
138
100
AcDbEntity
  8
$DDT_AUDIT_GENERATED_(BF)
  6
Continuous
 62
     7
100
AcDbLine
 10
42.536370217
 20
220.6758376367
 30
0.0
 11
71.536370217
 21
220.6758376367
 31
0.0
  0
LINE
  5
189
330
138
100
AcDbEntity
  8
$DDT_AUDIT_GENERATED_(BF)
  6
Continuous
 62
     7
100
AcDbLine
 10
42.536370217
 20
259.1758376367
 30
0.0
 11
71.536370217
 21
259.1758376367
 31
0.0
  0
ARC
  5
18A
330
138
100
AcDbEntity
  8
$DDT_AUDIT_GENERATED_(BF)
  6
Continuous
 62
     7
100
AcDbCircle
 10
42.536370217
 20
258.6758376367
 30
0.0
 40
0.5000000000000004
100
AcDbArc
 50
90.0
 51
180.0
  0
LINE
  5
18B
330
138
100
AcDbEntity
  8
$DDT_AUDIT_GENERATED_(BF)
  6
Continuous
 62
     7
100
AcDbLine
 10
72.036370217
 20
108.3607391457
 30
0.0
 11
72.036370217
 21
106.85
 31
0.0
  0
LINE
  5
18C
330
138
100
AcDbEntity
  8
$DDT_AUDIT_GENERATED_(BF)
  6
Continuous
 62
     7
100
AcDbLine
 10
72.036370217
 20
146.2758376367
 30
0.0
 11
72.036370217
 21
108.3607391457
 31
0.0
  0
LINE
  5
18D
330
138
100
AcDbEntity
  8
$DDT_AUDIT_GENERATED_(BF)
  6
Continuous
 62
     7
100
AcDbLine
 10
72.036370217
 20
220.6758376367
 30
0.0
 11
72.036370217
 21
146.2758376367
 31
0.0
  0
LINE
  5
18E
330
138
100
AcDbEntity
  8
$DDT_AUDIT_GENERATED_(BF)
  6
Continuous
 62
     7
100
AcDbLine
 10
72.036370217
 20
258.6758376367
 30
0.0
 11
72.036370217
 21
220.6758376367
 31
0.0
  0
ARC
  5
18F
330
138
100
AcDbEntity
  8
$DDT_AUDIT_GENERATED_(BF)
  6
Continuous
 62
     7
100
AcDbCircle
 10
71.536370217
 20
258.6758376367
 30
0.0
 40
0.5000000000000004
100
AcDbArc
 50
0.0
 51
90.0
  0
LINE
  5
190
330
138
100
AcDbEntity
  8
$DDT_AUDIT_GENERATED_(BF)
  6
Continuous
 62
     7
100
AcDbLine
 10
42.036370217
 20
106.85
 30
0.0
 11
42.036370217
 21
108.3607391457
 31
0.0
  0
LINE
  5
191
330
138
100
AcDbEntity
  8
$DDT_AUDIT_GENERATED_(BF)
  6
Continuous
 62
     7
100
AcDbLine
 10
42.536370217
 20
106.35
 30
0.0
 11
71.536370217
 21
106.35
 31
0.0
  0
ARC
  5
192
330
138
100
AcDbEntity
  8
$DDT_AUDIT_GENERATED_(BF)
  6
Continuous
 62
     7
100
AcDbCircle
 10
71.536370217
 20
106.85
 30
0.0
 40
0.5000000000000004
100
AcDbArc
 50
270.0
 51
0.0
  0
ARC
  5
193
330
138
100
AcDbEntity
  8
$DDT_AUDIT_GENERATED_(BF)
  6
Continuous
 62
     7
100
AcDbCircle
 10
42.536370217
 20
106.85
 30
0.0
 40
0.5000000000000004
100
AcDbArc
 50
180.0
 51
270.0
  0
LINE
  5
194
330
138
100
AcDbEntity
  8
$DDT_AUDIT_GENERATED_(BD)
  6
Continuous
 62
     7
100
AcDbLine
 10
60.386370217
 20
272.6758376367
 30
0.0
 11
53.686370217
 21
272.6758376367
 31
0.0
  0
LINE
  5
195
330
138
100
AcDbEntity
  8
$DDT_AUDIT_GENERATED_(BD)
  6
Continuous
 62
     7
100
AcDbLine
 10
53.686370217
 20
272.6758376367
 30
0.0
 11
53.686370217
 21
272.3932791543
 31
0.0
  0
LINE
  5
196
330
138
100
AcDbEntity
  8
$DDT_AUDIT_GENERATED_(BD)
  6
Continuous
 62
     7
100
AcDbLine
 10
60.386370217
 20
272.3932791543
 30
0.0
 11
60.386370217
 21
272.6758376367
 31
0.0
  0
ENDBLK
  5
198
330
138
100
AcDbEntity
  8
0
100
AcDbBlockEnd
  0
ENDSEC
  0
SECTION
  2
ENTITIES
  0
INSERT
  5
5F
330
1F
100
AcDbEntity
  8
Default
100
AcDbBlockReference
  2
SEANNOT_GROUP
 10
0.0
 20
0.0
 30
0.0
  0
INSERT
  5
66
330
1F
100
AcDbEntity
  8
Default
100
AcDbBlockReference
  2
SEANNOT_GROUP1
 10
0.0
 20
0.0
 30
0.0
  0
INSERT
  5
6C
330
1F
100
AcDbEntity
  8
Default
100
AcDbBlockReference
  2
SEANNOT_GROUP2
 10
0.0
 20
0.0
 30
0.0
  0
INSERT
  5
76
330
1F
100
AcDbEntity
  8
Default
100
AcDbBlockReference
  2
SE
 10
0.0
 20
0.0
 30
0.0
  0
INSERT
  5
FF
330
1F
100
AcDbEntity
  8
Default
100
AcDbBlockReference
  2
SE1
 10
0.0
 20
0.0
 30
0.0
  0
INSERT
  5
139
330
1F
100
AcDbEntity
  8
Default
100
AcDbBlockReference
  2
SE2
 10
0.0
 20
0.0
 30
0.0
  0
TEXT
  5
19A
330
1F
100
AcDbEntity
  8
Default
  6
Continuous
 62
     7
100
AcDbText
 10
5.9362635081
 20
53.4225120485
 30
0.0
 40
10.0
  1
Grohe AG^J
  7
SEACAD_seiso_ttf
 11
5.9362635081
 21
63.4225120485
 31
0.0
100
AcDbText
 73
     3
  0
TEXT
  5
19B
330
1F
100
AcDbEntity
  8
Default
  6
Continuous
 62
     7
100
AcDbText
 10
5.9362635081
 20
37.0588756849
 30
0.0
 40
10.0
  1
 
  7
SEACAD_seiso_ttf
 11
5.9362635081
 21
47.0588756849
 31
0.0
100
AcDbText
 73
     3
  0
TEXT
  5
19C
330
1F
100
AcDbEntity
  8
Default
  6
Continuous
 62
     7
100
AcDbText
 10
5.9362635081
 20
20.6952393213
 30
0.0
 40
10.0
  1
ecn: 
  7
SEACAD_seiso_ttf
 11
5.9362635081
 21
30.6952393213
 31
0.0
100
AcDbText
 73
     3
  0
TEXT
  5
19D
330
1F
100
AcDbEntity
  8
Default
  6
Continuous
 62
     7
100
AcDbText
 10
5.9362635081
 20
4.3316029576
 30
0.0
 40
10.0
  1
unit: mm
  7
SEACAD_seiso_ttf
 11
5.9362635081
 21
14.3316029576
 31
0.0
100
AcDbText
 73
     3
  0
LINE
  5
19E
330
1F
100
AcDbEntity
  8
Default
  6
Continuous
 62
     7
100
AcDbLine
 10
0.0
 20
0.0
 30
0.0
 11
100.0
 21
0.0
 31
0.0
  0
LINE
  5
19F
330
1F
100
AcDbEntity
  8
Default
  6
Continuous
 62
     7
100
AcDbLine
 10
0.0
 20
0.0
 30
0.0
 11
0.0
 21
100.0
 31
0.0
  0
TEXT
  5
1A0
330
1F
100
AcDbEntity
  8
Default
  6
Continuous
 62
     7
100
AcDbText
 10
24.3923665681
 20
-18.2375342018
 30
0.0
 40
10.0
  1
100 mm
  7
SEACAD_seiso_ttf
 11
24.3923665681
 21
-8.2375342018
 31
0.0
100
AcDbText
 73
     3
  0
TEXT
  5
1A1
330
1F
100
AcDbEntity
  8
Default
  6
Continuous
 62
     7
100
AcDbText
 10
-7.6150308803
 20
24.6231930421
 30
0.0
 40
10.0
  1
100 mm
 50
90.0
  7
SEACAD_seiso_ttf
 11
-17.6150308803
 21
24.6231930421
 31
0.0
100
AcDbText
 73
     3
  0
TEXT
  5
1A2
330
1F
100
AcDbEntity
  8
Default
  6
Continuous
 62
     7
100
AcDbText
 10
28.4878128572
 20
20.0907663715
 30
0.0
 40
10.0
  1
218661
  7
SEACAD_seiso_ttf
 11
28.4878128572
 21
30.0907663715
 31
0.0
100
AcDbText
 73
     3
  0
TEXT
  5
1A3
330
1F
100
AcDbEntity
  8
Default
  6
Continuous
 62
     7
100
AcDbText
 10
5.9012241913
 20
36.7242780188
 30
0.0
 40
10.0
  1
32249000
  7
SEACAD_seiso_ttf
 11
5.9012241913
 21
46.7242780188
 31
0.0
100
AcDbText
 73
     3
  0
ENDSEC
  0
SECTION
  2
OBJECTS
  0
DICTIONARY
  5
C
330
0
100
AcDbDictionary
281
     1
  3
ACAD_GROUP
350
D
  3
ACAD_LAYOUT
350
1A
  3
ACAD_MLEADERSTYLE
350
1A7
  3
ACAD_MLINESTYLE
350
17
  3
ACAD_PLOTSETTINGS
350
19
  3
ACAD_PLOTSTYLENAME
350
E
  3
ACAD_SCALELIST
350
3B
  3
ACAD_TABLESTYLE
350
1A6
  3
ACAD_VISUALSTYLE
350
2A
  3
AcDbVariableDictionary
350
1A4
  0
DICTIONARY
  5
D
102
{ACAD_REACTORS
330
C
102
}
330
C
100
AcDbDictionary
281
     1
  0
DICTIONARY
  5
1A
102
{ACAD_REACTORS
330
C
102
}
330
C
100
AcDbDictionary
281
     1
  3
Layout1
350
1E
  3
Model
350
22
  0
DICTIONARY
  5
1A7
102
{ACAD_REACTORS
330
C
102
}
330
C
100
AcDbDictionary
281
     1
  0
DICTIONARY
  5
17
102
{ACAD_REACTORS
330
C
102
}
330
C
100
AcDbDictionary
281
     1
  3
Standard
350
18
  0
DICTIONARY
  5
19
102
{ACAD_REACTORS
330
C
102
}
330
C
100
AcDbDictionary
281
     1
  0
ACDBDICTIONARYWDFLT
  5
E
102
{ACAD_REACTORS
330
C
102
}
330
C
100
AcDbDictionary
281
     1
  3
Normal
350
F
100
AcDbDictionaryWithDefault
340
F
  0
DICTIONARY
  5
3B
102
{ACAD_REACTORS
330
C
102
}
330
C
100
AcDbDictionary
281
     1
  3
A0
350
3C
  3
A1
350
3D
  3
A2
350
3E
  3
A3
350
3F
  3
A4
350
40
  3
A5
350
41
  3
A6
350
42
  3
A7
350
43
  3
A8
350
44
  3
A9
350
45
  3
B0
350
46
  3
B1
350
47
  3
B2
350
48
  3
B3
350
49
  3
B4
350
4A
  3
B5
350
4B
  3
B6
350
4C
  3
B7
350
4D
  3
B8
350
4E
  3
B9
350
4F
  3
C0
350
50
  3
C1
350
51
  3
C2
350
52
  3
C3
350
53
  3
C4
350
54
  3
C5
350
55
  3
C6
350
56
  3
C7
350
57
  3
C8
350
58
  3
C9
350
59
  3
D0
350
5A
  3
D1
350
5B
  3
D2
350
5C
  0
DICTIONARY
  5
1A6
102
{ACAD_REACTORS
330
C
102
}
330
C
100
AcDbDictionary
281
     1
  0
DICTIONARY
  5
2A
102
{ACAD_REACTORS
330
C
102
}
330
C
100
AcDbDictionary
281
     1
  3
2dWireframe
350
2F
  3
3D Hidden
350
31
  3
3dWireframe
350
30
  3
Basic
350
32
  3
Brighten
350
36
  3
ColorChange
350
3A
  3
Conceptual
350
34
  3
Dim
350
35
  3
Facepattern
350
39
  3
Flat
350
2B
  3
FlatWithEdges
350
2C
  3
Gouraud
350
2D
  3
GouraudWithEdges
350
2E
  3
Linepattern
350
38
  3
Realistic
350
33
  3
Thicken
350
37
  0
DICTIONARY
  5
1A4
102
{ACAD_REACTORS
330
C
102
}
330
C
100
AcDbDictionary
281
     1
  3
CANNOSCALE
350
1A5
  3
PSOLHEIGHT
350
1A9
  3
PSOLWIDTH
350
1A8
  0
LAYOUT
  5
1E
102
{ACAD_REACTORS
330
1A
102
}
330
1A
100
AcDbPlotSettings
  1

  2
none_device
  4

  6

 40
0.0
 41
0.0
 42
0.0
 43
0.0
 44
0.0
 45
0.0
 46
0.0
 47
0.0
 48
0.0
 49
0.0
140
0.0
141
0.0
142
1.0
143
1.0
 70
   688
 72
     0
 73
     0
 74
     5
  7

 75
    16
147
1.0
148
0.0
149
0.0
100
AcDbLayout
  1
Layout1
 70
     1
 71
     1
 10
0.0
 20
0.0
 11
1682.0
 21
2378.0
 12
0.0
 22
0.0
 32
0.0
 14
0.0
 24
0.0
 34
0.0
 15
1682.0
 25
2378.0
 35
0.0
146
0.0
 13
0.0
 23
0.0
 33
0.0
 16
1.0
 26
0.0
 36
0.0
 17
0.0
 27
1.0
 37
0.0
 76
     0
330
1B
  0
LAYOUT
  5
22
102
{ACAD_REACTORS
330
1A
102
}
330
1A
100
AcDbPlotSettings
  1

  2
none_device
  4

  6

 40
0.0
 41
0.0
 42
0.0
 43
0.0
 44
0.0
 45
0.0
 46
0.0
 47
0.0
 48
0.0
 49
0.0
140
0.0
141
0.0
142
1.0
143
1.0
 70
  1712
 72
     0
 73
     0
 74
     0
  7

 75
     0
147
1.0
148
0.0
149
0.0
100
AcDbLayout
  1
Model
 70
     1
 71
     0
 10
0.0
 20
0.0
 11
1682.0
 21
2378.0
 12
0.0
 22
0.0
 32
0.0
 14
0.0
 24
0.0
 34
0.0
 15
1682.0
 25
2378.0
 35
0.0
146
0.0
 13
0.0
 23
0.0
 33
0.0
 16
1.0
 26
0.0
 36
0.0
 17
0.0
 27
1.0
 37
0.0
 76
     0
330
1F
331
29
  0
MLINESTYLE
  5
18
102
{ACAD_REACTORS
330
17
102
}
330
17
100
AcDbMlineStyle
  2
Standard
 70
     0
  3

 62
   256
 51
90.0
 52
90.0
 71
     2
 49
0.5
 62
   256
  6
BYLAYER
 49
-0.5
 62
   256
  6
BYLAYER
  0
ACDBPLACEHOLDER
  5
F
102
{ACAD_REACTORS
330
E
102
}
330
E
  0
SCALE
  5
3C
102
{ACAD_REACTORS
330
3B
102
}
330
3B
100
AcDbScale
 70
     0
300
1:1
140
1.0
141
1.0
290
     1
  0
SCALE
  5
3D
102
{ACAD_REACTORS
330
3B
102
}
330
3B
100
AcDbScale
 70
     0
300
1:2
140
1.0
141
2.0
290
     0
  0
SCALE
  5
3E
102
{ACAD_REACTORS
330
3B
102
}
330
3B
100
AcDbScale
 70
     0
300
1:4
140
1.0
141
4.0
290
     0
  0
SCALE
  5
3F
102
{ACAD_REACTORS
330
3B
102
}
330
3B
100
AcDbScale
 70
     0
300
1:5
140
1.0
141
5.0
290
     0
  0
SCALE
  5
40
102
{ACAD_REACTORS
330
3B
102
}
330
3B
100
AcDbScale
 70
     0
300
1:8
140
1.0
141
8.0
290
     0
  0
SCALE
  5
41
102
{ACAD_REACTORS
330
3B
102
}
330
3B
100
AcDbScale
 70
     0
300
1:10
140
1.0
141
10.0
290
     0
  0
SCALE
  5
42
102
{ACAD_REACTORS
330
3B
102
}
330
3B
100
AcDbScale
 70
     0
300
1:16
140
1.0
141
16.0
290
     0
  0
SCALE
  5
43
102
{ACAD_REACTORS
330
3B
102
}
330
3B
100
AcDbScale
 70
     0
300
1:20
140
1.0
141
20.0
290
     0
  0
SCALE
  5
44
102
{ACAD_REACTORS
330
3B
102
}
330
3B
100
AcDbScale
 70
     0
300
1:30
140
1.0
141
30.0
290
     0
  0
SCALE
  5
45
102
{ACAD_REACTORS
330
3B
102
}
330
3B
100
AcDbScale
 70
     0
300
1:40
140
1.0
141
40.0
290
     0
  0
SCALE
  5
46
102
{ACAD_REACTORS
330
3B
102
}
330
3B
100
AcDbScale
 70
     0
300
1:50
140
1.0
141
50.0
290
     0
  0
SCALE
  5
47
102
{ACAD_REACTORS
330
3B
102
}
330
3B
100
AcDbScale
 70
     0
300
1:100
140
1.0
141
100.0
290
     0
  0
SCALE
  5
48
102
{ACAD_REACTORS
330
3B
102
}
330
3B
100
AcDbScale
 70
     0
300
2:1
140
2.0
141
1.0
290
     0
  0
SCALE
  5
49
102
{ACAD_REACTORS
330
3B
102
}
330
3B
100
AcDbScale
 70
     0
300
4:1
140
4.0
141
1.0
290
     0
  0
SCALE
  5
4A
102
{ACAD_REACTORS
330
3B
102
}
330
3B
100
AcDbScale
 70
     0
300
8:1
140
8.0
141
1.0
290
     0
  0
SCALE
  5
4B
102
{ACAD_REACTORS
330
3B
102
}
330
3B
100
AcDbScale
 70
     0
300
10:1
140
10.0
141
1.0
290
     0
  0
SCALE
  5
4C
102
{ACAD_REACTORS
330
3B
102
}
330
3B
100
AcDbScale
 70
     0
300
100:1
140
100.0
141
1.0
290
     0
  0
SCALE
  5
4D
102
{ACAD_REACTORS
330
3B
102
}
330
3B
100
AcDbScale
 70
     0
300
1/128" = 1'-0"
140
0.0078125
141
12.0
290
     0
  0
SCALE
  5
4E
102
{ACAD_REACTORS
330
3B
102
}
330
3B
100
AcDbScale
 70
     0
300
1/64" = 1'-0"
140
0.015625
141
12.0
290
     0
  0
SCALE
  5
4F
102
{ACAD_REACTORS
330
3B
102
}
330
3B
100
AcDbScale
 70
     0
300
1/32" = 1'-0"
140
0.03125
141
12.0
290
     0
  0
SCALE
  5
50
102
{ACAD_REACTORS
330
3B
102
}
330
3B
100
AcDbScale
 70
     0
300
1/16" = 1'-0"
140
0.0625
141
12.0
290
     0
  0
SCALE
  5
51
102
{ACAD_REACTORS
330
3B
102
}
330
3B
100
AcDbScale
 70
     0
300
3/32" = 1'-0"
140
0.09375
141
12.0
290
     0
  0
SCALE
  5
52
102
{ACAD_REACTORS
330
3B
102
}
330
3B
100
AcDbScale
 70
     0
300
1/8" = 1'-0"
140
0.125
141
12.0
290
     0
  0
SCALE
  5
53
102
{ACAD_REACTORS
330
3B
102
}
330
3B
100
AcDbScale
 70
     0
300
3/16" = 1'-0"
140
0.1875
141
12.0
290
     0
  0
SCALE
  5
54
102
{ACAD_REACTORS
330
3B
102
}
330
3B
100
AcDbScale
 70
     0
300
1/4" = 1'-0"
140
0.25
141
12.0
290
     0
  0
SCALE
  5
55
102
{ACAD_REACTORS
330
3B
102
}
330
3B
100
AcDbScale
 70
     0
300
3/8" = 1'-0"
140
0.375
141
12.0
290
     0
  0
SCALE
  5
56
102
{ACAD_REACTORS
330
3B
102
}
330
3B
100
AcDbScale
 70
     0
300
1/2" = 1'-0"
140
0.5
141
12.0
290
     0
  0
SCALE
  5
57
102
{ACAD_REACTORS
330
3B
102
}
330
3B
100
AcDbScale
 70
     0
300
3/4" = 1'-0"
140
0.75
141
12.0
290
     0
  0
SCALE
  5
58
102
{ACAD_REACTORS
330
3B
102
}
330
3B
100
AcDbScale
 70
     0
300
1" = 1'-0"
140
1.0
141
12.0
290
     0
  0
SCALE
  5
59
102
{ACAD_REACTORS
330
3B
102
}
330
3B
100
AcDbScale
 70
     0
300
1-1/2" = 1'-0"
140
1.5
141
12.0
290
     0
  0
SCALE
  5
5A
102
{ACAD_REACTORS
330
3B
102
}
330
3B
100
AcDbScale
 70
     0
300
3" = 1'-0"
140
3.0
141
12.0
290
     0
  0
SCALE
  5
5B
102
{ACAD_REACTORS
330
3B
102
}
330
3B
100
AcDbScale
 70
     0
300
6" = 1'-0"
140
6.0
141
12.0
290
     0
  0
SCALE
  5
5C
102
{ACAD_REACTORS
330
3B
102
}
330
3B
100
AcDbScale
 70
     0
300
1'-0" = 1'-0"
140
12.0
141
12.0
290
     0
  0
VISUALSTYLE
  5
2F
102
{ACAD_REACTORS
330
2A
102
}
330
2A
100
AcDbVisualStyle
  2
2dWireframe
 70
     4
 71
     0
 72
     2
 73
     0
 90
        0
 40
-0.6
 41
-30.0
 62
     5
 63
     7
 74
     1
 91
        4
 64
     7
 65
   257
 75
     1
175
     1
 42
1.0
 92
        0
 66
   257
 43
1.0
 76
     1
 77
     6
 78
     2
 67
     7
 79
     5
170
     0
171
     0
290
     0
174
     0
 93
        1
 44
0.0
173
     0
291
     0
 45
0.0
1001
ACAD
1000
AcDbSavedByObjectVersion
1070
     0
  0
VISUALSTYLE
  5
31
102
{ACAD_REACTORS
330
2A
102
}
330
2A
100
AcDbVisualStyle
  2
3D Hidden
 70
     6
 71
     1
 72
     2
 73
     2
 90
        0
 40
-0.6
 41
-30.0
 62
     5
 63
     7
 74
     2
 91
        2
 64
     7
 65
   257
 75
     2
175
     1
 42
40.0
 92
        0
 66
   257
 43
1.0
 76
     1
 77
     6
 78
     2
 67
     7
 79
     3
170
     0
171
     0
290
     0
174
     0
 93
        1
 44
0.0
173
     0
291
     0
 45
0.0
1001
ACAD
1000
AcDbSavedByObjectVersion
1070
     0
  0
VISUALSTYLE
  5
30
102
{ACAD_REACTORS
330
2A
102
}
330
2A
100
AcDbVisualStyle
  2
3dWireframe
 70
     5
 71
     0
 72
     2
 73
     0
 90
        0
 40
-0.6
 41
-30.0
 62
     5
 63
     7
 74
     1
 91
        4
 64
     7
 65
   257
 75
     1
175
     1
 42
1.0
 92
        0
 66
   257
 43
1.0
 76
     1
 77
     6
 78
     2
 67
     7
 79
     5
170
     0
171
     0
290
     0
174
     0
 93
        1
 44
0.0
173
     0
291
     0
 45
0.0
1001
ACAD
1000
AcDbSavedByObjectVersion
1070
     0
  0
VISUALSTYLE
  5
32
102
{ACAD_REACTORS
330
2A
102
}
330
2A
100
AcDbVisualStyle
  2
Basic
 70
     7
 71
     1
 72
     0
 73
     1
 90
        0
 40
-0.6
 41
-30.0
 62
     5
 63
     7
 74
     0
 91
        4
 64
     7
 65
   257
 75
     1
175
     1
 42
1.0
 92
        8
 66
     7
 43
1.0
 76
     1
 77
     6
 78
     2
 67
     7
 79
     5
170
     0
171
     0
290
     0
174
     0
 93
        1
 44
0.0
173
     0
291
     1
 45
0.0
1001
ACAD
1000
AcDbSavedByObjectVersion
1070
     0
  0
VISUALSTYLE
  5
36
102
{ACAD_REACTORS
330
2A
102
}
330
2A
100
AcDbVisualStyle
  2
Brighten
 70
    12
 71
     2
 72
     2
 73
     0
 90
        0
 40
-0.6
 41
-30.0
 62
     5
 63
     7
 74
     1
 91
        4
 64
     7
 65
   257
 75
     1
175
     1
 42
1.0
 92
        8
 66
     7
 43
1.0
 76
     1
 77
     6
 78
     2
 67
     7
 79
     5
170
     0
171
     0
290
     0
174
     0
 93
        1
 44
50.0
173
     0
291
     1
 45
0.0
1001
ACAD
1000
AcDbSavedByObjectVersion
1070
     0
  0
VISUALSTYLE
  5
3A
102
{ACAD_REACTORS
330
2A
102
}
330
2A
100
AcDbVisualStyle
  2
ColorChange
 70
    16
 71
     2
 72
     2
 73
     3
 90
        0
 40
-0.6
 41
-30.0
 62
     5
 63
     8
 74
     1
 91
        4
 64
     7
 65
   257
 75
     1
175
     1
 42
1.0
 92
        8
 66
     8
 43
1.0
 76
     1
 77
     6
 78
     2
 67
     7
 79
     5
170
     0
171
     0
290
     0
174
     0
 93
        1
 44
0.0
173
     0
291
     1
 45
0.0
1001
ACAD
1000
AcDbSavedByObjectVersion
1070
     0
  0
VISUALSTYLE
  5
34
102
{ACAD_REACTORS
330
2A
102
}
330
2A
100
AcDbVisualStyle
  2
Conceptual
 70
     9
 71
     3
 72
     2
 73
     0
 90
        0
 40
-0.6
 41
-30.0
 62
     5
 63
     7
 74
     2
 91
        2
 64
     7
 65
   257
 75
     1
175
     1
 42
40.0
 92
        8
 66
     7
 43
1.0
 76
     1
 77
     6
 78
     2
 67
     7
 79
     3
170
     0
171
     0
290
     0
174
     0
 93
        1
 44
0.0
173
     0
291
     0
 45
0.0
1001
ACAD
1000
AcDbSavedByObjectVersion
1070
     0
  0
VISUALSTYLE
  5
35
102
{ACAD_REACTORS
330
2A
102
}
330
2A
100
AcDbVisualStyle
  2
Dim
 70
    11
 71
     2
 72
     2
 73
     0
 90
        0
 40
-0.6
 41
-30.0
 62
     5
 63
     7
 74
     1
 91
        4
 64
     7
 65
   257
 75
     1
175
     1
 42
1.0
 92
        8
 66
     7
 43
1.0
 76
     1
 77
     6
 78
     2
 67
     7
 79
     5
170
     0
171
     0
290
     0
174
     0
 93
        1
 44
-50.0
173
     0
291
     1
 45
0.0
1001
ACAD
1000
AcDbSavedByObjectVersion
1070
     0
  0
VISUALSTYLE
  5
39
102
{ACAD_REACTORS
330
2A
102
}
330
2A
100
AcDbVisualStyle
  2
Facepattern
 70
    15
 71
     2
 72
     2
 73
     0
 90
        0
 40
-0.6
 41
-30.0
 62
     5
 63
     7
 74
     1
 91
        4
 64
     7
 65
   257
 75
     1
175
     1
 42
1.0
 92
        8
 66
     7
 43
1.0
 76
     1
 77
     6
 78
     2
 67
     7
 79
     5
170
     0
171
     0
290
     0
174
     0
 93
        1
 44
0.0
173
     0
291
     1
 45
0.0
1001
ACAD
1000
AcDbSavedByObjectVersion
1070
     0
  0
VISUALSTYLE
  5
2B
102
{ACAD_REACTORS
330
2A
102
}
330
2A
100
AcDbVisualStyle
  2
Flat
 70
     0
 71
     2
 72
     1
 73
     1
 90
        2
 40
-0.6
 41
30.0
 62
     5
 63
     7
 74
     0
 91
        4
 64
     7
 65
   257
 75
     1
175
     1
 42
1.0
 92
        8
 66
     7
 43
1.0
 76
     1
 77
     6
 78
     2
 67
     7
 79
     5
170
     0
171
     0
290
     0
174
     0
 93
       13
 44
0.0
173
     0
291
     1
 45
0.0
1001
ACAD
1000
AcDbSavedByObjectVersion
1070
     0
  0
VISUALSTYLE
  5
2C
102
{ACAD_REACTORS
330
2A
102
}
330
2A
100
AcDbVisualStyle
  2
FlatWithEdges
 70
     1
 71
     2
 72
     1
 73
     1
 90
        2
 40
-0.6
 41
30.0
 62
     5
 63
     7
 74
     1
 91
        4
 64
     7
 65
   257
 75
     1
175
     1
 42
1.0
 92
        0
 66
   257
 43
1.0
 76
     1
 77
     6
 78
     2
 67
     7
 79
     5
170
     0
171
     0
290
     0
174
     0
 93
       13
 44
0.0
173
     0
291
     1
 45
0.0
1001
ACAD
1000
AcDbSavedByObjectVersion
1070
     0
  0
VISUALSTYLE
  5
2D
102
{ACAD_REACTORS
330
2A
102
}
330
2A
100
AcDbVisualStyle
  2
Gouraud
 70
     2
 71
     2
 72
     2
 73
     1
 90
        2
 40
-0.6
 41
30.0
 62
     5
 63
     7
 74
     0
 91
        4
 64
     7
 65
   257
 75
     1
175
     1
 42
1.0
 92
        0
 66
     7
 43
1.0
 76
     1
 77
     6
 78
     2
 67
     7
 79
     5
170
     0
171
     0
290
     0
174
     0
 93
       13
 44
0.0
173
     0
291
     1
 45
0.0
1001
ACAD
1000
AcDbSavedByObjectVersion
1070
     0
  0
VISUALSTYLE
  5
2E
102
{ACAD_REACTORS
330
2A
102
}
330
2A
100
AcDbVisualStyle
  2
GouraudWithEdges
 70
     3
 71
     2
 72
     2
 73
     1
 90
        2
 40
-0.6
 41
30.0
 62
     5
 63
     7
 74
     1
 91
        4
 64
     7
 65
   257
 75
     1
175
     1
 42
1.0
 92
        0
 66
   257
 43
1.0
 76
     1
 77
     6
 78
     2
 67
     7
 79
     5
170
     0
171
     0
290
     0
174
     0
 93
       13
 44
0.0
173
     0
291
     1
 45
0.0
1001
ACAD
1000
AcDbSavedByObjectVersion
1070
     0
  0
VISUALSTYLE
  5
38
102
{ACAD_REACTORS
330
2A
102
}
330
2A
100
AcDbVisualStyle
  2
Linepattern
 70
    14
 71
     2
 72
     2
 73
     0
 90
        0
 40
-0.6
 41
-30.0
 62
     5
 63
     7
 74
     1
 91
        4
 64
     7
 65
   257
 75
     7
175
     7
 42
1.0
 92
        8
 66
     7
 43
1.0
 76
     1
 77
     6
 78
     2
 67
     7
 79
     5
170
     0
171
     0
290
     0
174
     0
 93
        1
 44
0.0
173
     0
291
     1
 45
0.0
1001
ACAD
1000
AcDbSavedByObjectVersion
1070
     0
  0
VISUALSTYLE
  5
33
102
{ACAD_REACTORS
330
2A
102
}
330
2A
100
AcDbVisualStyle
  2
Realistic
 70
     8
 71
     2
 72
     2
 73
     0
 90
        0
 40
-0.6
 41
-30.0
 62
     5
 63
     7
 74
     1
 91
        0
 64
     7
 65
   257
 75
     1
175
     1
 42
1.0
 92
        8
 66
     8
 43
1.0
 76
     1
 77
     6
 78
     2
 67
     7
 79
     5
170
     0
171
     0
290
     0
174
     0
 93
       13
 44
0.0
173
     0
291
     0
 45
0.0
1001
ACAD
1000
AcDbSavedByObjectVersion
1070
     0
  0
VISUALSTYLE
  5
37
102
{ACAD_REACTORS
330
2A
102
}
330
2A
100
AcDbVisualStyle
  2
Thicken
 70
    13
 71
     2
 72
     2
 73
     0
 90
        0
 40
-0.6
 41
-30.0
 62
     5
 63
     7
 74
     1
 91
        4
 64
     7
 65
   257
 75
     1
175
     1
 42
1.0
 92
       12
 66
     7
 43
1.0
 76
     1
 77
     6
 78
     2
 67
     7
 79
     5
170
     0
171
     0
290
     0
174
     0
 93
        1
 44
0.0
173
     0
291
     1
 45
0.0
1001
ACAD
1000
AcDbSavedByObjectVersion
1070
     0
  0
DICTIONARYVAR
  5
1A5
102
{ACAD_REACTORS
330
1A4
102
}
330
1A4
100
DictionaryVariables
280
     0
  1
1:1
  0
DICTIONARYVAR
  5
1A9
102
{ACAD_REACTORS
330
1A4
102
}
330
1A4
100
DictionaryVariables
280
     0
  1
80.000000
  0
DICTIONARYVAR
  5
1A8
102
{ACAD_REACTORS
330
1A4
102
}
330
1A4
100
DictionaryVariables
280
     0
  1
5.000000
  0
ENDSEC
  0
EOF
