  0
SECTION
  2
HEADER
  9
$ACADVER
  1
AC1009
  9
$DWGCODEPAGE
  3
ansi_1252
  9
$INSBASE
 10
0.0
 20
0.0
 30
0.0
  9
$EXTMIN
 10
1.000000000000000E+20
 20
1.000000000000000E+20
 30
1.000000000000000E+20
  9
$EXTMAX
 10
-1.000000000000000E+20
 20
-1.000000000000000E+20
 30
-1.000000000000000E+20
  9
$LIMMIN
 10
0.0
 20
0.0
  9
$LIMMAX
 10
12.0
 20
9.0
  9
$ORTHOMODE
 70
     0
  9
$REGENMODE
 70
     1
  9
$FILLMODE
 70
     1
  9
$QTEXTMODE
 70
     0
  9
$MIRRTEXT
 70
     1
  9
$DRAGMODE
 70
     2
  9
$LTSCALE
 40
1.0
  9
$OSMODE
 70
    37
  9
$ATTMODE
 70
     1
  9
$TEXTSIZE
 40
0.2
  9
$TRACEWID
 40
0.05
  9
$TEXTSTYLE
  7
STANDARD
  9
$CLAYER
  8
0
  9
$CELTYPE
  6
BYLAYER
  9
$CECOLOR
 62
   256
  9
$DIMSCALE
 40
1.0
  9
$DIMASZ
 40
0.18
  9
$DIMEXO
 40
0.0625
  9
$DIMDLI
 40
0.38
  9
$DIMRND
 40
0.0
  9
$DIMDLE
 40
0.0
  9
$DIMEXE
 40
0.18
  9
$DIMTP
 40
0.0
  9
$DIMTM
 40
0.0
  9
$DIMTXT
 40
0.18
  9
$DIMCEN
 40
0.09
  9
$DIMTSZ
 40
0.0
  9
$DIMTOL
 70
     0
  9
$DIMLIM
 70
     0
  9
$DIMTIH
 70
     1
  9
$DIMTOH
 70
     1
  9
$DIMSE1
 70
     0
  9
$DIMSE2
 70
     0
  9
$DIMTAD
 70
     0
  9
$DIMZIN
 70
     0
  9
$DIMBLK
  1

  9
$DIMASO
 70
     1
  9
$DIMSHO
 70
     1
  9
$DIMPOST
  1

  9
$DIMAPOST
  1

  9
$DIMALT
 70
     0
  9
$DIMALTD
 70
     2
  9
$DIMALTF
 40
25.4
  9
$DIMLFAC
 40
1.0
  9
$DIMTOFL
 70
     0
  9
$DIMTVP
 40
0.0
  9
$DIMTIX
 70
     0
  9
$DIMSOXD
 70
     0
  9
$DIMSAH
 70
     0
  9
$DIMBLK1
  1

  9
$DIMBLK2
  1

  9
$DIMSTYLE
  2
STANDARD
  9
$DIMCLRD
 70
     0
  9
$DIMCLRE
 70
     0
  9
$DIMCLRT
 70
     0
  9
$DIMTFAC
 40
1.0
  9
$DIMGAP
 40
0.09
  9
$LUNITS
 70
     2
  9
$LUPREC
 70
     4
  9
$SKETCHINC
 40
0.1
  9
$FILLETRAD
 40
0.5
  9
$AUNITS
 70
     0
  9
$AUPREC
 70
     0
  9
$MENU
  1
.
  9
$ELEVATION
 40
0.0
  9
$PELEVATION
 40
0.0
  9
$THICKNESS
 40
0.0
  9
$LIMCHECK
 70
     0
  9
$CHAMFERA
 40
0.5
  9
$CHAMFERB
 40
0.5
  9
$SKPOLY
 70
     0
  9
$TDCREATE
 40
2455359.707267431
  9
$TDUPDATE
 40
2455359.707267431
  9
$TDINDWG
 40
0.0000000116
  9
$TDUSRTIMER
 40
0.0000000116
  9
$USRTIMER
 70
     1
  9
$ANGBASE
 50
0.0
  9
$ANGDIR
 70
     0
  9
$PDMODE
 70
     0
  9
$PDSIZE
 40
0.0
  9
$PLINEWID
 40
0.0
  9
$COORDS
 70
     1
  9
$SPLFRAME
 70
     0
  9
$SPLINETYPE
 70
     6
  9
$SPLINESEGS
 70
     8
  9
$ATTDIA
 70
     0
  9
$ATTREQ
 70
     1
  9
$HANDLING
 70
     1
  9
$HANDSEED
  5
7AD
  9
$SURFTAB1
 70
     6
  9
$SURFTAB2
 70
     6
  9
$SURFTYPE
 70
     6
  9
$SURFU
 70
     6
  9
$SURFV
 70
     6
  9
$UCSNAME
  2

  9
$UCSORG
 10
0.0
 20
0.0
 30
0.0
  9
$UCSXDIR
 10
1.0
 20
0.0
 30
0.0
  9
$UCSYDIR
 10
0.0
 20
1.0
 30
0.0
  9
$PUCSNAME
  2

  9
$PUCSORG
 10
0.0
 20
0.0
 30
0.0
  9
$PUCSXDIR
 10
1.0
 20
0.0
 30
0.0
  9
$PUCSYDIR
 10
0.0
 20
1.0
 30
0.0
  9
$USERI1
 70
     0
  9
$USERI2
 70
     0
  9
$USERI3
 70
     0
  9
$USERI4
 70
     0
  9
$USERI5
 70
     0
  9
$USERR1
 40
0.0
  9
$USERR2
 40
0.0
  9
$USERR3
 40
0.0
  9
$USERR4
 40
0.0
  9
$USERR5
 40
0.0
  9
$WORLDVIEW
 70
     1
  9
$SHADEDGE
 70
     3
  9
$SHADEDIF
 70
    70
  9
$TILEMODE
 70
     1
  9
$MAXACTVP
 70
    64
  9
$PLIMCHECK
 70
     0
  9
$PEXTMIN
 10
1.000000000000000E+20
 20
1.000000000000000E+20
 30
1.000000000000000E+20
  9
$PEXTMAX
 10
-1.000000000000000E+20
 20
-1.000000000000000E+20
 30
-1.000000000000000E+20
  9
$PLIMMIN
 10
0.0
 20
0.0
  9
$PLIMMAX
 10
12.0
 20
9.0
  9
$UNITMODE
 70
     0
  9
$VISRETAIN
 70
     1
  9
$PLINEGEN
 70
     0
  9
$PSLTSCALE
 70
     1
  0
ENDSEC
  0
SECTION
  2
TABLES
  0
TABLE
  2
VPORT
 70
     1
  0
VPORT
  2
*ACTIVE
 70
     0
 10
0.0
 20
0.0
 11
1.0
 21
1.0
 12
0.0
 22
0.0
 13
0.0
 23
0.0
 14
0.5
 24
0.5
 15
0.5
 25
0.5
 16
569.450439453125
 26
325.3722534179688
 36
569.450439453125
 17
96.48052978515625
 27
34.74899291992188
 37
166.396484375
 40
390.5801425288277
 41
1.972972972850329
 42
50.0
 43
0.0
 44
0.0
 50
0.0
 51
0.0
 71
     0
 72
   100
 73
     1
 74
     3
 75
     0
 76
     0
 77
     0
 78
     0
  0
ENDTAB
  0
TABLE
  2
LTYPE
 70
     1
  0
LTYPE
  2
CONTINUOUS
 70
     0
  3
Solid line
 72
    65
 73
     0
 40
0.0
  0
ENDTAB
  0
TABLE
  2
LAYER
 70
     2
  0
LAYER
  2
0
 70
     0
 62
     7
  6
CONTINUOUS
  0
LAYER
  2
LAYER_1
 70
     0
 62
     7
  6
CONTINUOUS
  0
ENDTAB
  0
TABLE
  2
STYLE
 70
     1
  0
STYLE
  2
STANDARD
 70
     0
 40
0.0
 41
1.0
 50
0.0
 71
     0
 42
0.2
  3
txt
  4

  0
ENDTAB
  0
TABLE
  2
VIEW
 70
     0
  0
ENDTAB
  0
TABLE
  2
UCS
 70
     0
  0
ENDTAB
  0
TABLE
  2
APPID
 70
     1
  0
APPID
  2
ACAD
 70
     0
  0
ENDTAB
  0
TABLE
  2
DIMSTYLE
 70
     1
  0
DIMSTYLE
  2
STANDARD
 70
     0
  3

  4

  5

  6

  7

 40
1.0
 41
0.18
 42
0.0625
 43
0.38
 44
0.18
 45
0.0
 46
0.0
 47
0.0
 48
0.0
140
0.18
141
0.09
142
0.0
143
25.4
144
1.0
145
0.0
146
1.0
147
0.09
 71
     0
 72
     0
 73
     1
 74
     1
 75
     0
 76
     0
 77
     0
 78
     0
170
     0
171
     2
172
     0
173
     0
174
     0
175
     0
176
     0
177
     0
178
     0
  0
ENDTAB
  0
ENDSEC
  0
SECTION
  2
BLOCKS
  0
BLOCK
  8
0
  2
$MODEL_SPACE
 70
     0
 10
0.0
 20
0.0
 30
0.0
  3
$MODEL_SPACE
  1

  0
ENDBLK
  5
21
  8
0
  0
BLOCK
 67
     1
  8
0
  2
$PAPER_SPACE
 70
     0
 10
0.0
 20
0.0
 30
0.0
  3
$PAPER_SPACE
  1

  0
ENDBLK
  5
1D
 67
     1
  8
0
  0
BLOCK
  8
0
  2
E3_NODE
 70
     0
 10
0.0
 20
0.0
 30
0.0
  3
E3_NODE
  1

  0
POLYLINE
  5
3C
  8
0
 62
     9
 66
     1
 10
0.0
 20
0.0
 30
0.0
 70
    64
 71
    12
 72
    10
  0
VERTEX
  5
3D
  8
0
 10
19.78300094604492
 20
-13.39999961853027
 30
96.39099884033203
 70
   192
  0
VERTEX
  5
3E
  8
0
 10
-16.82600021362305
 20
-23.20899963378906
 30
96.39099884033203
 70
   192
  0
VERTEX
  5
3F
  8
0
 10
-3.426000118255615
 20
-26.79999923706055
 30
96.39099884033203
 70
   192
  0
VERTEX
  5
40
  8
0
 10
23.37400054931641
 20
0.0
 30
96.39099884033203
 70
   192
  0
VERTEX
  5
41
  8
0
 10
-16.82600021362305
 20
23.20899963378906
 30
96.39099884033203
 70
   192
  0
VERTEX
  5
42
  8
0
 10
-26.63599967956543
 20
13.39999961853027
 30
96.39099884033203
 70
   192
  0
VERTEX
  5
43
  8
0
 10
9.973999977111816
 20
-23.20899963378906
 30
96.39099884033203
 70
   192
  0
VERTEX
  5
44
  8
0
 10
-3.426000118255615
 20
26.79999923706055
 30
96.39099884033203
 70
   192
  0
VERTEX
  5
45
  8
0
 10
19.78300094604492
 20
13.39999961853027
 30
96.39099884033203
 70
   192
  0
VERTEX
  5
46
  8
0
 10
9.973999977111816
 20
23.20899963378906
 30
96.39099884033203
 70
   192
  0
VERTEX
  5
47
  8
0
 10
-26.63599967956543
 20
-13.39999961853027
 30
96.39099884033203
 70
   192
  0
VERTEX
  5
48
  8
0
 10
-30.22599983215332
 20
0.0
 30
96.39099884033203
 70
   192
  0
VERTEX
  5
49
  8
0
 62
     9
 10
0.0
 20
0.0
 30
0.0
 70
   128
 71
     3
 72
     2
 73
     1
  0
VERTEX
  5
4A
  8
0
 62
     9
 10
0.0
 20
0.0
 30
0.0
 70
   128
 71
     6
 72
     5
 73
     4
  0
VERTEX
  5
4B
  8
0
 62
     9
 10
0.0
 20
0.0
 30
0.0
 70
   128
 71
     1
 72
     7
 73
     3
  0
VERTEX
  5
4C
  8
0
 62
     9
 10
0.0
 20
0.0
 30
0.0
 70
   128
 71
     5
 72
     8
 73
     4
  0
VERTEX
  5
4D
  8
0
 62
     9
 10
0.0
 20
0.0
 30
0.0
 70
   128
 71
    10
 72
     9
 73
     4
  0
VERTEX
  5
4E
  8
0
 62
     9
 10
0.0
 20
0.0
 30
0.0
 70
   128
 71
     2
 72
    11
 73
     4
  0
VERTEX
  5
4F
  8
0
 62
     9
 10
0.0
 20
0.0
 30
0.0
 70
   128
 71
     4
 72
     8
 73
    10
  0
VERTEX
  5
50
  8
0
 62
     9
 10
0.0
 20
0.0
 30
0.0
 70
   128
 71
    11
 72
    12
 73
     4
  0
VERTEX
  5
51
  8
0
 62
     9
 10
0.0
 20
0.0
 30
0.0
 70
   128
 71
     2
 72
     4
 73
     1
  0
VERTEX
  5
52
  8
0
 62
     9
 10
0.0
 20
0.0
 30
0.0
 70
   128
 71
     4
 72
    12
 73
     6
  0
SEQEND
  5
53
  8
0
 62
     9
  0
ENDBLK
  5
57
  8
0
  0
BLOCK
  8
0
  2
E3_NODE_1_
 70
     0
 10
0.0
 20
0.0
 30
0.0
  3
E3_NODE_1_
  1

  0
POLYLINE
  5
59
  8
0
 62
     9
 66
     1
 10
0.0
 20
0.0
 30
0.0
 70
    64
 71
    86
 72
    88
  0
VERTEX
  5
5A
  8
0
 10
-16.82600021362305
 20
-23.20899963378906
 30
96.39099884033203
 70
   192
  0
VERTEX
  5
5B
  8
0
 10
-16.82600021362305
 20
-23.20899963378906
 30
-13.60900020599365
 70
   192
  0
VERTEX
  5
5C
  8
0
 10
-3.426000118255615
 20
-26.79999923706055
 30
-13.60900020599365
 70
   192
  0
VERTEX
  5
5D
  8
0
 10
-26.63599967956543
 20
-13.39999961853027
 30
96.39099884033203
 70
   192
  0
VERTEX
  5
5E
  8
0
 10
-26.63599967956543
 20
-13.39999961853027
 30
-13.60900020599365
 70
   192
  0
VERTEX
  5
5F
  8
0
 10
-30.22599983215332
 20
0.0
 30
96.39099884033203
 70
   192
  0
VERTEX
  5
60
  8
0
 10
-30.22599983215332
 20
0.0
 30
-13.60900020599365
 70
   192
  0
VERTEX
  5
61
  8
0
 10
19.78300094604492
 20
-13.39999961853027
 30
96.39099884033203
 70
   192
  0
VERTEX
  5
62
  8
0
 10
19.78300094604492
 20
-13.39999961853027
 30
-13.60900020599365
 70
   192
  0
VERTEX
  5
63
  8
0
 10
23.37400054931641
 20
0.0
 30
-13.60900020599365
 70
   192
  0
VERTEX
  5
64
  8
0
 10
9.973999977111816
 20
-23.20899963378906
 30
96.39099884033203
 70
   192
  0
VERTEX
  5
65
  8
0
 10
9.973999977111816
 20
-23.20899963378906
 30
-13.60900020599365
 70
   192
  0
VERTEX
  5
66
  8
0
 10
-3.426000118255615
 20
-26.79999923706055
 30
96.39099884033203
 70
   192
  0
VERTEX
  5
67
  8
0
 10
-16.82600021362305
 20
23.20899963378906
 30
96.39099884033203
 70
   192
  0
VERTEX
  5
68
  8
0
 10
-15.06700038909912
 20
24.13999938964844
 30
68.59300231933594
 70
   192
  0
VERTEX
  5
69
  8
0
 10
-16.2549991607666
 20
23.51000022888184
 30
67.85299682617188
 70
   192
  0
VERTEX
  5
6A
  8
0
 10
-9.213000297546387
 20
26.16799926757812
 30
70.9260025024414
 70
   192
  0
VERTEX
  5
6B
  8
0
 10
-10.79899978637695
 20
25.76600074768066
 30
70.46800231933594
 70
   192
  0
VERTEX
  5
6C
  8
0
 10
-3.426000118255615
 20
26.79999923706055
 30
96.39099884033203
 70
   192
  0
VERTEX
  5
6D
  8
0
 10
-4.764999866485596
 20
26.76700019836426
 30
71.60399627685547
 70
   192
  0
VERTEX
  5
6E
  8
0
 10
-3.426000118255615
 20
26.79999923706055
 30
71.64099884033203
 70
   192
  0
VERTEX
  5
6F
  8
0
 10
-26.63599967956543
 20
13.39999961853027
 30
96.39099884033203
 70
   192
  0
VERTEX
  5
70
  8
0
 10
-22.8129997253418
 20
18.50399971008301
 30
61.61100006103516
 70
   192
  0
VERTEX
  5
71
  8
0
 10
-25.00799942016602
 20
15.86699962615967
 30
57.74499893188477
 70
   192
  0
VERTEX
  5
72
  8
0
 10
-16.82500076293945
 20
23.20800018310547
 30
67.49800109863281
 70
   192
  0
VERTEX
  5
73
  8
0
 10
-16.86499977111816
 20
23.1870002746582
 30
67.4739990234375
 70
   192
  0
VERTEX
  5
74
  8
0
 10
-20.65500068664551
 20
20.52799987792969
 30
64.23799896240234
 70
   192
  0
VERTEX
  5
75
  8
0
 10
-25.13999938964844
 20
15.70800018310547
 30
57.51300048828125
 70
   192
  0
VERTEX
  5
76
  8
0
 10
-26.17200088500977
 20
14.17300033569336
 30
54.72499847412109
 70
   192
  0
VERTEX
  5
77
  8
0
 10
-26.63599967956543
 20
13.39999961853027
 30
-13.60900020599365
 70
   192
  0
VERTEX
  5
78
  8
0
 10
-27.08200073242188
 20
12.5939998626709
 30
45.78400039672852
 70
   192
  0
VERTEX
  5
79
  8
0
 10
-26.85799980163574
 20
12.98900032043457
 30
44.52500152587891
 70
   192
  0
VERTEX
  5
7A
  8
0
 10
-27.14100074768066
 20
12.48499965667725
 30
46.59199905395508
 70
   192
  0
VERTEX
  5
7B
  8
0
 10
-26.62700080871582
 20
13.39500045776367
 30
43.22600173950195
 70
   192
  0
VERTEX
  5
7C
  8
0
 10
-27.06800079345703
 20
12.62100028991699
 30
50.15399932861328
 70
   192
  0
VERTEX
  5
7D
  8
0
 10
-26.62599945068359
 20
13.39400005340576
 30
52.62200164794922
 70
   192
  0
VERTEX
  5
7E
  8
0
 10
-26.96500015258789
 20
12.8120002746582
 30
51.05099868774414
 70
   192
  0
VERTEX
  5
7F
  8
0
 10
-19.44400024414062
 20
21.48600006103516
 30
30.35600090026855
 70
   192
  0
VERTEX
  5
80
  8
0
 10
-16.81999969482422
 20
23.19899940490723
 30
28.29700088500977
 70
   192
  0
VERTEX
  5
81
  8
0
 10
-22.67600059509277
 20
18.64599990844727
 30
33.98099899291992
 70
   192
  0
VERTEX
  5
82
  8
0
 10
-21.28400039672852
 20
19.8700008392334
 30
32.41999816894531
 70
   192
  0
VERTEX
  5
83
  8
0
 10
-24.65800094604492
 20
16.35300064086914
 30
37.24900054931641
 70
   192
  0
VERTEX
  5
84
  8
0
 10
-26.35799980163574
 20
13.86900043487549
 30
41.71200180053711
 70
   192
  0
VERTEX
  5
85
  8
0
 10
-3.426000118255615
 20
26.79999923706055
 30
-13.60900020599365
 70
   192
  0
VERTEX
  5
86
  8
0
 10
-11.36499977111816
 20
25.59700012207031
 30
25.50699996948242
 70
   192
  0
VERTEX
  5
87
  8
0
 10
-10.0959997177124
 20
25.87800025939941
 30
25.1879997253418
 70
   192
  0
VERTEX
  5
88
  8
0
 10
-16.64599990844727
 20
23.3120002746582
 30
28.1609992980957
 70
   192
  0
VERTEX
  5
89
  8
0
 10
-12.60099983215332
 20
25.18000030517578
 30
25.98500061035156
 70
   192
  0
VERTEX
  5
8A
  8
0
 10
-7.035999774932861
 20
26.55599975585938
 30
24.41699981689453
 70
   192
  0
VERTEX
  5
8B
  8
0
 10
-5.570000171661377
 20
26.7140007019043
 30
24.23800086975098
 70
   192
  0
VERTEX
  5
8C
  8
0
 10
-16.82600021362305
 20
23.20899963378906
 30
-13.60900020599365
 70
   192
  0
VERTEX
  5
8D
  8
0
 10
-3.426000118255615
 20
26.70599937438965
 30
24.24699974060059
 70
   192
  0
VERTEX
  5
8E
  8
0
 10
9.973999977111816
 20
23.20899963378906
 30
-13.60900020599365
 70
   192
  0
VERTEX
  5
8F
  8
0
 10
1.118000030517578
 20
26.41200065612793
 30
24.57999992370605
 70
   192
  0
VERTEX
  5
90
  8
0
 10
3.233999967575073
 20
25.86100006103516
 30
25.20899963378906
 70
   192
  0
VERTEX
  5
91
  8
0
 10
5.494999885559082
 20
25.27099990844727
 30
25.88100051879883
 70
   192
  0
VERTEX
  5
92
  8
0
 10
7.197999954223633
 20
24.60400009155273
 30
26.64999961853027
 70
   192
  0
VERTEX
  5
93
  8
0
 10
-1.08299994468689
 20
26.69700050354004
 30
24.25699996948242
 70
   192
  0
VERTEX
  5
94
  8
0
 10
19.78300094604492
 20
13.39999961853027
 30
-13.60900020599365
 70
   192
  0
VERTEX
  5
95
  8
0
 10
18.4060001373291
 20
15.54300022125244
 30
38.54199981689453
 70
   192
  0
VERTEX
  5
96
  8
0
 10
19.6830005645752
 20
13.57299995422363
 30
42.40999984741211
 70
   192
  0
VERTEX
  5
97
  8
0
 10
13.33300018310547
 20
20.91399955749512
 30
31.0629997253418
 70
   192
  0
VERTEX
  5
98
  8
0
 10
14.42700004577637
 20
19.87800025939941
 30
32.41699981689453
 70
   192
  0
VERTEX
  5
99
  8
0
 10
9.932000160217285
 20
23.13199996948242
 30
28.38500022888184
 70
   192
  0
VERTEX
  5
9A
  8
0
 10
11.26900005340576
 20
22.41200065612793
 30
29.23299980163574
 70
   192
  0
VERTEX
  5
9B
  8
0
 10
16.54100036621094
 20
17.87599945068359
 30
35.03099822998047
 70
   192
  0
VERTEX
  5
9C
  8
0
 10
23.37400054931641
 20
0.0
 30
96.39099884033203
 70
   192
  0
VERTEX
  5
9D
  8
0
 10
20.01399993896484
 20
12.99199962615967
 30
51.7130012512207
 70
   192
  0
VERTEX
  5
9E
  8
0
 10
19.77099990844727
 20
13.39299964904785
 30
52.65000152587891
 70
   192
  0
VERTEX
  5
9F
  8
0
 10
20.32399940490723
 20
12.41699981689453
 30
47.80300140380859
 70
   192
  0
VERTEX
  5
A0
  8
0
 10
19.98500061035156
 20
13.04399967193604
 30
43.89500045776367
 70
   192
  0
VERTEX
  5
A1
  8
0
 10
20.03899955749512
 20
12.94499969482422
 30
44.51499938964844
 70
   192
  0
VERTEX
  5
A2
  8
0
 10
19.7819995880127
 20
13.39900016784668
 30
42.89799880981445
 70
   192
  0
VERTEX
  5
A3
  8
0
 10
19.78300094604492
 20
13.39999961853027
 30
96.39099884033203
 70
   192
  0
VERTEX
  5
A4
  8
0
 10
11.50699996948242
 20
22.25399971008301
 30
66.35900115966797
 70
   192
  0
VERTEX
  5
A5
  8
0
 10
9.951000213623047
 20
23.17000007629395
 30
67.4469985961914
 70
   192
  0
VERTEX
  5
A6
  8
0
 10
16.72900009155273
 20
17.66300010681152
 30
60.45399856567383
 70
   192
  0
VERTEX
  5
A7
  8
0
 10
14.9060001373291
 20
19.54899978637695
 30
62.99100112915039
 70
   192
  0
VERTEX
  5
A8
  8
0
 10
18.9109992980957
 20
14.80900001525879
 30
55.96200180053711
 70
   192
  0
VERTEX
  5
A9
  8
0
 10
18.06500053405762
 20
15.91600036621094
 30
57.70299911499023
 70
   192
  0
VERTEX
  5
AA
  8
0
 10
9.973999977111816
 20
23.20899963378906
 30
96.39099884033203
 70
   192
  0
VERTEX
  5
AB
  8
0
 10
3.069999933242798
 20
26.00099945068359
 30
70.73600006103516
 70
   192
  0
VERTEX
  5
AC
  8
0
 10
-1.309000015258789
 20
26.71599960327148
 30
71.5469970703125
 70
   192
  0
VERTEX
  5
AD
  8
0
 10
8.777999877929688
 20
23.86000061035156
 30
68.26599884033203
 70
   192
  0
VERTEX
  5
AE
  8
0
 10
4.677000045776367
 20
25.54500007629395
 30
70.21600341796875
 70
   192
  0
VERTEX
  5
AF
  8
0
 10
9.390999794006348
 20
23.49900054931641
 30
67.83799743652344
 70
   192
  0
VERTEX
  5
B0
  8
0
 62
     9
 10
0.0
 20
0.0
 30
0.0
 70
   128
 71
     3
 72
     2
 73
     1
  0
VERTEX
  5
B1
  8
0
 62
     9
 10
0.0
 20
0.0
 30
0.0
 70
   128
 71
     2
 72
     5
 73
     4
  0
VERTEX
  5
B2
  8
0
 62
     9
 10
0.0
 20
0.0
 30
0.0
 70
   128
 71
     5
 72
     7
 73
     6
  0
VERTEX
  5
B3
  8
0
 62
     9
 10
0.0
 20
0.0
 30
0.0
 70
   128
 71
    10
 72
     9
 73
     8
  0
VERTEX
  5
B4
  8
0
 62
     9
 10
0.0
 20
0.0
 30
0.0
 70
   128
 71
     9
 72
    12
 73
    11
  0
VERTEX
  5
B5
  8
0
 62
     9
 10
0.0
 20
0.0
 30
0.0
 70
   128
 71
    12
 72
     3
 73
    13
  0
VERTEX
  5
B6
  8
0
 62
     9
 10
0.0
 20
0.0
 30
0.0
 70
   128
 71
    16
 72
    15
 73
    14
  0
VERTEX
  5
B7
  8
0
 62
     9
 10
0.0
 20
0.0
 30
0.0
 70
   128
 71
    18
 72
    17
 73
    14
  0
VERTEX
  5
B8
  8
0
 62
     9
 10
0.0
 20
0.0
 30
0.0
 70
   128
 71
    20
 72
    19
 73
    14
  0
VERTEX
  5
B9
  8
0
 62
     9
 10
0.0
 20
0.0
 30
0.0
 70
   128
 71
    20
 72
    21
 73
    19
  0
VERTEX
  5
BA
  8
0
 62
     9
 10
0.0
 20
0.0
 30
0.0
 70
   128
 71
    14
 72
    17
 73
    20
  0
VERTEX
  5
BB
  8
0
 62
     9
 10
0.0
 20
0.0
 30
0.0
 70
   128
 71
    14
 72
    15
 73
    18
  0
VERTEX
  5
BC
  8
0
 62
     9
 10
0.0
 20
0.0
 30
0.0
 70
   128
 71
    24
 72
    23
 73
    22
  0
VERTEX
  5
BD
  8
0
 62
     9
 10
0.0
 20
0.0
 30
0.0
 70
   128
 71
    25
 72
    14
 73
    22
  0
VERTEX
  5
BE
  8
0
 62
     9
 10
0.0
 20
0.0
 30
0.0
 70
   128
 71
    22
 72
    26
 73
    25
  0
VERTEX
  5
BF
  8
0
 62
     9
 10
0.0
 20
0.0
 30
0.0
 70
   128
 71
    22
 72
    27
 73
    26
  0
VERTEX
  5
C0
  8
0
 62
     9
 10
0.0
 20
0.0
 30
0.0
 70
   128
 71
    22
 72
    23
 73
    27
  0
VERTEX
  5
C1
  8
0
 62
     9
 10
0.0
 20
0.0
 30
0.0
 70
   128
 71
    22
 72
    28
 73
    24
  0
VERTEX
  5
C2
  8
0
 62
     9
 10
0.0
 20
0.0
 30
0.0
 70
   128
 71
    22
 72
    29
 73
    28
  0
VERTEX
  5
C3
  8
0
 62
     9
 10
0.0
 20
0.0
 30
0.0
 70
   128
 71
    32
 72
    31
 73
    30
  0
VERTEX
  5
C4
  8
0
 62
     9
 10
0.0
 20
0.0
 30
0.0
 70
   128
 71
    31
 72
    33
 73
     7
  0
VERTEX
  5
C5
  8
0
 62
     9
 10
0.0
 20
0.0
 30
0.0
 70
   128
 71
     7
 72
    30
 73
    31
  0
VERTEX
  5
C6
  8
0
 62
     9
 10
0.0
 20
0.0
 30
0.0
 70
   128
 71
    30
 72
    34
 73
    32
  0
VERTEX
  5
C7
  8
0
 62
     9
 10
0.0
 20
0.0
 30
0.0
 70
   128
 71
    33
 72
    35
 73
     6
  0
VERTEX
  5
C8
  8
0
 62
     9
 10
0.0
 20
0.0
 30
0.0
 70
   128
 71
    36
 72
    22
 73
     6
  0
VERTEX
  5
C9
  8
0
 62
     9
 10
0.0
 20
0.0
 30
0.0
 70
   128
 71
     6
 72
    37
 73
    36
  0
VERTEX
  5
CA
  8
0
 62
     9
 10
0.0
 20
0.0
 30
0.0
 70
   128
 71
     6
 72
    35
 73
    37
  0
VERTEX
  5
CB
  8
0
 62
     9
 10
0.0
 20
0.0
 30
0.0
 70
   128
 71
     6
 72
     7
 73
    33
  0
VERTEX
  5
CC
  8
0
 62
     9
 10
0.0
 20
0.0
 30
0.0
 70
   128
 71
    39
 72
    38
 73
    30
  0
VERTEX
  5
CD
  8
0
 62
     9
 10
0.0
 20
0.0
 30
0.0
 70
   128
 71
    41
 72
    40
 73
    30
  0
VERTEX
  5
CE
  8
0
 62
     9
 10
0.0
 20
0.0
 30
0.0
 70
   128
 71
    30
 72
    38
 73
    41
  0
VERTEX
  5
CF
  8
0
 62
     9
 10
0.0
 20
0.0
 30
0.0
 70
   128
 71
    40
 72
    42
 73
    30
  0
VERTEX
  5
D0
  8
0
 62
     9
 10
0.0
 20
0.0
 30
0.0
 70
   128
 71
    42
 72
    43
 73
    30
  0
VERTEX
  5
D1
  8
0
 62
     9
 10
0.0
 20
0.0
 30
0.0
 70
   128
 71
    43
 72
    34
 73
    30
  0
VERTEX
  5
D2
  8
0
 62
     9
 10
0.0
 20
0.0
 30
0.0
 70
   128
 71
    46
 72
    45
 73
    44
  0
VERTEX
  5
D3
  8
0
 62
     9
 10
0.0
 20
0.0
 30
0.0
 70
   128
 71
    48
 72
    47
 73
    44
  0
VERTEX
  5
D4
  8
0
 62
     9
 10
0.0
 20
0.0
 30
0.0
 70
   128
 71
    44
 72
    45
 73
    48
  0
VERTEX
  5
D5
  8
0
 62
     9
 10
0.0
 20
0.0
 30
0.0
 70
   128
 71
    44
 72
    49
 73
    46
  0
VERTEX
  5
D6
  8
0
 62
     9
 10
0.0
 20
0.0
 30
0.0
 70
   128
 71
    44
 72
    50
 73
    49
  0
VERTEX
  5
D7
  8
0
 62
     9
 10
0.0
 20
0.0
 30
0.0
 70
   128
 71
    47
 72
    39
 73
    51
  0
VERTEX
  5
D8
  8
0
 62
     9
 10
0.0
 20
0.0
 30
0.0
 70
   128
 71
    51
 72
    44
 73
    47
  0
VERTEX
  5
D9
  8
0
 62
     9
 10
0.0
 20
0.0
 30
0.0
 70
   128
 71
    44
 72
    52
 73
    50
  0
VERTEX
  5
DA
  8
0
 62
     9
 10
0.0
 20
0.0
 30
0.0
 70
   128
 71
    55
 72
    54
 73
    53
  0
VERTEX
  5
DB
  8
0
 62
     9
 10
0.0
 20
0.0
 30
0.0
 70
   128
 71
    53
 72
    56
 73
    55
  0
VERTEX
  5
DC
  8
0
 62
     9
 10
0.0
 20
0.0
 30
0.0
 70
   128
 71
    53
 72
    57
 73
    56
  0
VERTEX
  5
DD
  8
0
 62
     9
 10
0.0
 20
0.0
 30
0.0
 70
   128
 71
    58
 72
    44
 73
    53
  0
VERTEX
  5
DE
  8
0
 62
     9
 10
0.0
 20
0.0
 30
0.0
 70
   128
 71
    53
 72
    54
 73
    58
  0
VERTEX
  5
DF
  8
0
 62
     9
 10
0.0
 20
0.0
 30
0.0
 70
   128
 71
    58
 72
    52
 73
    44
  0
VERTEX
  5
E0
  8
0
 62
     9
 10
0.0
 20
0.0
 30
0.0
 70
   128
 71
    61
 72
    60
 73
    59
  0
VERTEX
  5
E1
  8
0
 62
     9
 10
0.0
 20
0.0
 30
0.0
 70
   128
 71
    63
 72
    62
 73
    59
  0
VERTEX
  5
E2
  8
0
 62
     9
 10
0.0
 20
0.0
 30
0.0
 70
   128
 71
    64
 72
    53
 73
    59
  0
VERTEX
  5
E3
  8
0
 62
     9
 10
0.0
 20
0.0
 30
0.0
 70
   128
 71
    59
 72
    65
 73
    64
  0
VERTEX
  5
E4
  8
0
 62
     9
 10
0.0
 20
0.0
 30
0.0
 70
   128
 71
    59
 72
    62
 73
    65
  0
VERTEX
  5
E5
  8
0
 62
     9
 10
0.0
 20
0.0
 30
0.0
 70
   128
 71
    59
 72
    66
 73
    63
  0
VERTEX
  5
E6
  8
0
 62
     9
 10
0.0
 20
0.0
 30
0.0
 70
   128
 71
    59
 72
    60
 73
    66
  0
VERTEX
  5
E7
  8
0
 62
     9
 10
0.0
 20
0.0
 30
0.0
 70
   128
 71
    69
 72
    68
 73
    67
  0
VERTEX
  5
E8
  8
0
 62
     9
 10
0.0
 20
0.0
 30
0.0
 70
   128
 71
    68
 72
    70
 73
    67
  0
VERTEX
  5
E9
  8
0
 62
     9
 10
0.0
 20
0.0
 30
0.0
 70
   128
 71
    72
 72
    71
 73
    10
  0
VERTEX
  5
EA
  8
0
 62
     9
 10
0.0
 20
0.0
 30
0.0
 70
   128
 71
    10
 72
    67
 73
    72
  0
VERTEX
  5
EB
  8
0
 62
     9
 10
0.0
 20
0.0
 30
0.0
 70
   128
 71
    67
 72
    70
 73
    72
  0
VERTEX
  5
EC
  8
0
 62
     9
 10
0.0
 20
0.0
 30
0.0
 70
   128
 71
    73
 72
    59
 73
    10
  0
VERTEX
  5
ED
  8
0
 62
     9
 10
0.0
 20
0.0
 30
0.0
 70
   128
 71
    10
 72
    71
 73
    73
  0
VERTEX
  5
EE
  8
0
 62
     9
 10
0.0
 20
0.0
 30
0.0
 70
   128
 71
    76
 72
    75
 73
    74
  0
VERTEX
  5
EF
  8
0
 62
     9
 10
0.0
 20
0.0
 30
0.0
 70
   128
 71
    78
 72
    77
 73
    74
  0
VERTEX
  5
F0
  8
0
 62
     9
 10
0.0
 20
0.0
 30
0.0
 70
   128
 71
    74
 72
    75
 73
    78
  0
VERTEX
  5
F1
  8
0
 62
     9
 10
0.0
 20
0.0
 30
0.0
 70
   128
 71
    80
 72
    79
 73
    74
  0
VERTEX
  5
F2
  8
0
 62
     9
 10
0.0
 20
0.0
 30
0.0
 70
   128
 71
    74
 72
    77
 73
    80
  0
VERTEX
  5
F3
  8
0
 62
     9
 10
0.0
 20
0.0
 30
0.0
 70
   128
 71
    79
 72
    69
 73
    74
  0
VERTEX
  5
F4
  8
0
 62
     9
 10
0.0
 20
0.0
 30
0.0
 70
   128
 71
    83
 72
    82
 73
    81
  0
VERTEX
  5
F5
  8
0
 62
     9
 10
0.0
 20
0.0
 30
0.0
 70
   128
 71
    85
 72
    84
 73
    81
  0
VERTEX
  5
F6
  8
0
 62
     9
 10
0.0
 20
0.0
 30
0.0
 70
   128
 71
    81
 72
    82
 73
    85
  0
VERTEX
  5
F7
  8
0
 62
     9
 10
0.0
 20
0.0
 30
0.0
 70
   128
 71
    81
 72
    19
 73
    83
  0
VERTEX
  5
F8
  8
0
 62
     9
 10
0.0
 20
0.0
 30
0.0
 70
   128
 71
    86
 72
    76
 73
    81
  0
VERTEX
  5
F9
  8
0
 62
     9
 10
0.0
 20
0.0
 30
0.0
 70
   128
 71
    81
 72
    84
 73
    86
  0
VERTEX
  5
FA
  8
0
 62
     9
 10
0.0
 20
0.0
 30
0.0
 70
   128
 71
    19
 72
    21
 73
    83
  0
VERTEX
  5
FB
  8
0
 62
     9
 10
0.0
 20
0.0
 30
0.0
 70
   128
 71
    74
 72
    81
 73
    76
  0
VERTEX
  5
FC
  8
0
 62
     9
 10
0.0
 20
0.0
 30
0.0
 70
   128
 71
    67
 72
    74
 73
    69
  0
VERTEX
  5
FD
  8
0
 62
     9
 10
0.0
 20
0.0
 30
0.0
 70
   128
 71
    59
 72
    73
 73
    61
  0
VERTEX
  5
FE
  8
0
 62
     9
 10
0.0
 20
0.0
 30
0.0
 70
   128
 71
    53
 72
    64
 73
    57
  0
VERTEX
  5
FF
  8
0
 62
     9
 10
0.0
 20
0.0
 30
0.0
 70
   128
 71
    30
 72
    51
 73
    39
  0
VERTEX
  5
100
  8
0
 62
     9
 10
0.0
 20
0.0
 30
0.0
 70
   128
 71
    22
 72
    36
 73
    29
  0
VERTEX
  5
101
  8
0
 62
     9
 10
0.0
 20
0.0
 30
0.0
 70
   128
 71
    14
 72
    25
 73
    16
  0
VERTEX
  5
102
  8
0
 62
     9
 10
0.0
 20
0.0
 30
0.0
 70
   128
 71
    13
 72
    11
 73
    12
  0
VERTEX
  5
103
  8
0
 62
     9
 10
0.0
 20
0.0
 30
0.0
 70
   128
 71
    11
 72
     8
 73
     9
  0
VERTEX
  5
104
  8
0
 62
     9
 10
0.0
 20
0.0
 30
0.0
 70
   128
 71
     8
 72
    67
 73
    10
  0
VERTEX
  5
105
  8
0
 62
     9
 10
0.0
 20
0.0
 30
0.0
 70
   128
 71
     6
 72
     4
 73
     5
  0
VERTEX
  5
106
  8
0
 62
     9
 10
0.0
 20
0.0
 30
0.0
 70
   128
 71
     4
 72
     1
 73
     2
  0
VERTEX
  5
107
  8
0
 62
     9
 10
0.0
 20
0.0
 30
0.0
 70
   128
 71
     1
 72
    13
 73
     3
  0
SEQEND
  5
108
  8
0
 62
     9
  0
ENDBLK
  5
10B
  8
0
  0
BLOCK
  8
0
  2
E3_NODE_2_
 70
     0
 10
0.0
 20
0.0
 30
0.0
  3
E3_NODE_2_
  1

  0
POLYLINE
  5
10D
  8
0
 62
     9
 66
     1
 10
0.0
 20
0.0
 30
0.0
 70
    64
 71
    74
 72
    74
  0
VERTEX
  5
10E
  8
0
 10
9.413999557495117
 20
58.0
 30
67.87100219726562
 70
   192
  0
VERTEX
  5
10F
  8
0
 10
3.069999933242798
 20
26.00099945068359
 30
70.73600006103516
 70
   192
  0
VERTEX
  5
110
  8
0
 10
4.677000045776367
 20
25.54500007629395
 30
70.21600341796875
 70
   192
  0
VERTEX
  5
111
  8
0
 10
-3.426000118255615
 20
58.0
 30
71.64099884033203
 70
   192
  0
VERTEX
  5
112
  8
0
 10
-1.309000015258789
 20
26.71599960327148
 30
71.5469970703125
 70
   192
  0
VERTEX
  5
113
  8
0
 10
8.777999877929688
 20
23.86000061035156
 30
68.26599884033203
 70
   192
  0
VERTEX
  5
114
  8
0
 10
-3.426000118255615
 20
26.79999923706055
 30
71.64099884033203
 70
   192
  0
VERTEX
  5
115
  8
0
 10
18.17799949645996
 20
58.0
 30
57.75799942016602
 70
   192
  0
VERTEX
  5
116
  8
0
 10
14.9060001373291
 20
19.54899978637695
 30
62.99100112915039
 70
   192
  0
VERTEX
  5
117
  8
0
 10
16.72900009155273
 20
17.66300010681152
 30
60.45399856567383
 70
   192
  0
VERTEX
  5
118
  8
0
 10
11.50699996948242
 20
22.25399971008301
 30
66.35900115966797
 70
   192
  0
VERTEX
  5
119
  8
0
 10
9.390999794006348
 20
23.49900054931641
 30
67.83799743652344
 70
   192
  0
VERTEX
  5
11A
  8
0
 10
9.951000213623047
 20
23.17000007629395
 30
67.4469985961914
 70
   192
  0
VERTEX
  5
11B
  8
0
 10
20.08200073242188
 20
58.0
 30
44.51200103759766
 70
   192
  0
VERTEX
  5
11C
  8
0
 10
20.01399993896484
 20
12.99199962615967
 30
51.7130012512207
 70
   192
  0
VERTEX
  5
11D
  8
0
 10
20.32399940490723
 20
12.41699981689453
 30
47.80300140380859
 70
   192
  0
VERTEX
  5
11E
  8
0
 10
19.77099990844727
 20
13.39299964904785
 30
52.65000152587891
 70
   192
  0
VERTEX
  5
11F
  8
0
 10
18.06500053405762
 20
15.91600036621094
 30
57.70299911499023
 70
   192
  0
VERTEX
  5
120
  8
0
 10
18.9109992980957
 20
14.80900001525879
 30
55.96200180053711
 70
   192
  0
VERTEX
  5
121
  8
0
 10
16.54100036621094
 20
17.87599945068359
 30
35.03099822998047
 70
   192
  0
VERTEX
  5
122
  8
0
 10
14.42700004577637
 20
19.87800025939941
 30
32.41699981689453
 70
   192
  0
VERTEX
  5
123
  8
0
 10
19.7819995880127
 20
13.39900016784668
 30
42.89799880981445
 70
   192
  0
VERTEX
  5
124
  8
0
 10
19.6830005645752
 20
13.57299995422363
 30
42.40999984741211
 70
   192
  0
VERTEX
  5
125
  8
0
 10
18.4060001373291
 20
15.54300022125244
 30
38.54199981689453
 70
   192
  0
VERTEX
  5
126
  8
0
 10
20.03899955749512
 20
12.94499969482422
 30
44.51499938964844
 70
   192
  0
VERTEX
  5
127
  8
0
 10
19.98500061035156
 20
13.04399967193604
 30
43.89500045776367
 70
   192
  0
VERTEX
  5
128
  8
0
 10
14.52299976348877
 20
58.0
 30
32.3390007019043
 70
   192
  0
VERTEX
  5
129
  8
0
 10
5.494999885559082
 20
25.27099990844727
 30
25.88100051879883
 70
   192
  0
VERTEX
  5
12A
  8
0
 10
3.233999967575073
 20
25.86100006103516
 30
25.20899963378906
 70
   192
  0
VERTEX
  5
12B
  8
0
 10
11.26900005340576
 20
22.41200065612793
 30
29.23299980163574
 70
   192
  0
VERTEX
  5
12C
  8
0
 10
9.932000160217285
 20
23.13199996948242
 30
28.38500022888184
 70
   192
  0
VERTEX
  5
12D
  8
0
 10
13.33300018310547
 20
20.91399955749512
 30
31.0629997253418
 70
   192
  0
VERTEX
  5
12E
  8
0
 10
7.197999954223633
 20
24.60400009155273
 30
26.64999961853027
 70
   192
  0
VERTEX
  5
12F
  8
0
 10
-10.11699962615967
 20
58.0
 30
25.10400009155273
 70
   192
  0
VERTEX
  5
130
  8
0
 10
-5.570000171661377
 20
26.7140007019043
 30
24.23800086975098
 70
   192
  0
VERTEX
  5
131
  8
0
 10
-7.035999774932861
 20
26.55599975585938
 30
24.41699981689453
 70
   192
  0
VERTEX
  5
132
  8
0
 10
3.265000104904175
 20
58.0
 30
25.10400009155273
 70
   192
  0
VERTEX
  5
133
  8
0
 10
-3.426000118255615
 20
26.70599937438965
 30
24.24699974060059
 70
   192
  0
VERTEX
  5
134
  8
0
 10
-1.08299994468689
 20
26.69700050354004
 30
24.25699996948242
 70
   192
  0
VERTEX
  5
135
  8
0
 10
1.118000030517578
 20
26.41200065612793
 30
24.57999992370605
 70
   192
  0
VERTEX
  5
136
  8
0
 10
-21.375
 20
58.0
 30
32.3390007019043
 70
   192
  0
VERTEX
  5
137
  8
0
 10
-16.64599990844727
 20
23.3120002746582
 30
28.1609992980957
 70
   192
  0
VERTEX
  5
138
  8
0
 10
-16.81999969482422
 20
23.19899940490723
 30
28.29700088500977
 70
   192
  0
VERTEX
  5
139
  8
0
 10
-19.44400024414062
 20
21.48600006103516
 30
30.35600090026855
 70
   192
  0
VERTEX
  5
13A
  8
0
 10
-11.36499977111816
 20
25.59700012207031
 30
25.50699996948242
 70
   192
  0
VERTEX
  5
13B
  8
0
 10
-12.60099983215332
 20
25.18000030517578
 30
25.98500061035156
 70
   192
  0
VERTEX
  5
13C
  8
0
 10
-10.0959997177124
 20
25.87800025939941
 30
25.1879997253418
 70
   192
  0
VERTEX
  5
13D
  8
0
 10
-26.93400001525879
 20
58.0
 30
44.51200103759766
 70
   192
  0
VERTEX
  5
13E
  8
0
 10
-24.65800094604492
 20
16.35300064086914
 30
37.24900054931641
 70
   192
  0
VERTEX
  5
13F
  8
0
 10
-26.35799980163574
 20
13.86900043487549
 30
41.71200180053711
 70
   192
  0
VERTEX
  5
140
  8
0
 10
-22.67600059509277
 20
18.64599990844727
 30
33.98099899291992
 70
   192
  0
VERTEX
  5
141
  8
0
 10
-21.28400039672852
 20
19.8700008392334
 30
32.41999816894531
 70
   192
  0
VERTEX
  5
142
  8
0
 10
-26.62700080871582
 20
13.39500045776367
 30
43.22600173950195
 70
   192
  0
VERTEX
  5
143
  8
0
 10
-27.17600059509277
 20
58.0
 30
47.89099884033203
 70
   192
  0
VERTEX
  5
144
  8
0
 10
-26.85799980163574
 20
12.98900032043457
 30
44.52500152587891
 70
   192
  0
VERTEX
  5
145
  8
0
 10
-27.08200073242188
 20
12.5939998626709
 30
45.78400039672852
 70
   192
  0
VERTEX
  5
146
  8
0
 10
-25.13999938964844
 20
15.70800018310547
 30
57.51300048828125
 70
   192
  0
VERTEX
  5
147
  8
0
 10
-25.00799942016602
 20
15.86699962615967
 30
57.74499893188477
 70
   192
  0
VERTEX
  5
148
  8
0
 10
-26.62599945068359
 20
13.39400005340576
 30
52.62200164794922
 70
   192
  0
VERTEX
  5
149
  8
0
 10
-26.17200088500977
 20
14.17300033569336
 30
54.72499847412109
 70
   192
  0
VERTEX
  5
14A
  8
0
 10
-27.14100074768066
 20
12.48499965667725
 30
46.59199905395508
 70
   192
  0
VERTEX
  5
14B
  8
0
 10
-27.06800079345703
 20
12.62100028991699
 30
50.15399932861328
 70
   192
  0
VERTEX
  5
14C
  8
0
 10
-26.96500015258789
 20
12.8120002746582
 30
51.05099868774414
 70
   192
  0
VERTEX
  5
14D
  8
0
 10
-25.03000068664551
 20
58.0
 30
57.75799942016602
 70
   192
  0
VERTEX
  5
14E
  8
0
 10
-16.86499977111816
 20
23.1870002746582
 30
67.4739990234375
 70
   192
  0
VERTEX
  5
14F
  8
0
 10
-16.82500076293945
 20
23.20800018310547
 30
67.49800109863281
 70
   192
  0
VERTEX
  5
150
  8
0
 10
-16.26600074768066
 20
58.0
 30
67.87100219726562
 70
   192
  0
VERTEX
  5
151
  8
0
 10
-16.2549991607666
 20
23.51000022888184
 30
67.85299682617188
 70
   192
  0
VERTEX
  5
152
  8
0
 10
-22.8129997253418
 20
18.50399971008301
 30
61.61100006103516
 70
   192
  0
VERTEX
  5
153
  8
0
 10
-20.65500068664551
 20
20.52799987792969
 30
64.23799896240234
 70
   192
  0
VERTEX
  5
154
  8
0
 10
-9.213000297546387
 20
26.16799926757812
 30
70.9260025024414
 70
   192
  0
VERTEX
  5
155
  8
0
 10
-4.764999866485596
 20
26.76700019836426
 30
71.60399627685547
 70
   192
  0
VERTEX
  5
156
  8
0
 10
-15.06700038909912
 20
24.13999938964844
 30
68.59300231933594
 70
   192
  0
VERTEX
  5
157
  8
0
 10
-10.79899978637695
 20
25.76600074768066
 30
70.46800231933594
 70
   192
  0
VERTEX
  5
158
  8
0
 62
     9
 10
0.0
 20
0.0
 30
0.0
 70
   128
 71
     3
 72
     2
 73
     1
  0
VERTEX
  5
159
  8
0
 62
     9
 10
0.0
 20
0.0
 30
0.0
 70
   128
 71
     5
 72
     4
 73
     1
  0
VERTEX
  5
15A
  8
0
 62
     9
 10
0.0
 20
0.0
 30
0.0
 70
   128
 71
     1
 72
     2
 73
     5
  0
VERTEX
  5
15B
  8
0
 62
     9
 10
0.0
 20
0.0
 30
0.0
 70
   128
 71
     1
 72
     6
 73
     3
  0
VERTEX
  5
15C
  8
0
 62
     9
 10
0.0
 20
0.0
 30
0.0
 70
   128
 71
     5
 72
     7
 73
     4
  0
VERTEX
  5
15D
  8
0
 62
     9
 10
0.0
 20
0.0
 30
0.0
 70
   128
 71
    10
 72
     9
 73
     8
  0
VERTEX
  5
15E
  8
0
 62
     9
 10
0.0
 20
0.0
 30
0.0
 70
   128
 71
     9
 72
    11
 73
     8
  0
VERTEX
  5
15F
  8
0
 62
     9
 10
0.0
 20
0.0
 30
0.0
 70
   128
 71
    12
 72
     1
 73
     8
  0
VERTEX
  5
160
  8
0
 62
     9
 10
0.0
 20
0.0
 30
0.0
 70
   128
 71
     8
 72
    13
 73
    12
  0
VERTEX
  5
161
  8
0
 62
     9
 10
0.0
 20
0.0
 30
0.0
 70
   128
 71
     8
 72
    11
 73
    13
  0
VERTEX
  5
162
  8
0
 62
     9
 10
0.0
 20
0.0
 30
0.0
 70
   128
 71
    16
 72
    15
 73
    14
  0
VERTEX
  5
163
  8
0
 62
     9
 10
0.0
 20
0.0
 30
0.0
 70
   128
 71
    15
 72
    17
 73
    14
  0
VERTEX
  5
164
  8
0
 62
     9
 10
0.0
 20
0.0
 30
0.0
 70
   128
 71
    18
 72
     8
 73
    14
  0
VERTEX
  5
165
  8
0
 62
     9
 10
0.0
 20
0.0
 30
0.0
 70
   128
 71
    14
 72
    19
 73
    18
  0
VERTEX
  5
166
  8
0
 62
     9
 10
0.0
 20
0.0
 30
0.0
 70
   128
 71
    14
 72
    17
 73
    19
  0
VERTEX
  5
167
  8
0
 62
     9
 10
0.0
 20
0.0
 30
0.0
 70
   128
 71
    21
 72
    20
 73
    14
  0
VERTEX
  5
168
  8
0
 62
     9
 10
0.0
 20
0.0
 30
0.0
 70
   128
 71
    23
 72
    22
 73
    14
  0
VERTEX
  5
169
  8
0
 62
     9
 10
0.0
 20
0.0
 30
0.0
 70
   128
 71
    14
 72
    24
 73
    23
  0
VERTEX
  5
16A
  8
0
 62
     9
 10
0.0
 20
0.0
 30
0.0
 70
   128
 71
    14
 72
    20
 73
    24
  0
VERTEX
  5
16B
  8
0
 62
     9
 10
0.0
 20
0.0
 30
0.0
 70
   128
 71
    26
 72
    25
 73
    14
  0
VERTEX
  5
16C
  8
0
 62
     9
 10
0.0
 20
0.0
 30
0.0
 70
   128
 71
    14
 72
    22
 73
    26
  0
VERTEX
  5
16D
  8
0
 62
     9
 10
0.0
 20
0.0
 30
0.0
 70
   128
 71
    29
 72
    28
 73
    27
  0
VERTEX
  5
16E
  8
0
 62
     9
 10
0.0
 20
0.0
 30
0.0
 70
   128
 71
    31
 72
    30
 73
    27
  0
VERTEX
  5
16F
  8
0
 62
     9
 10
0.0
 20
0.0
 30
0.0
 70
   128
 71
    32
 72
    21
 73
    27
  0
VERTEX
  5
170
  8
0
 62
     9
 10
0.0
 20
0.0
 30
0.0
 70
   128
 71
    27
 72
    30
 73
    32
  0
VERTEX
  5
171
  8
0
 62
     9
 10
0.0
 20
0.0
 30
0.0
 70
   128
 71
    27
 72
    33
 73
    31
  0
VERTEX
  5
172
  8
0
 62
     9
 10
0.0
 20
0.0
 30
0.0
 70
   128
 71
    27
 72
    28
 73
    33
  0
VERTEX
  5
173
  8
0
 62
     9
 10
0.0
 20
0.0
 30
0.0
 70
   128
 71
    36
 72
    35
 73
    34
  0
VERTEX
  5
174
  8
0
 62
     9
 10
0.0
 20
0.0
 30
0.0
 70
   128
 71
    38
 72
    37
 73
    34
  0
VERTEX
  5
175
  8
0
 62
     9
 10
0.0
 20
0.0
 30
0.0
 70
   128
 71
    38
 72
    39
 73
    37
  0
VERTEX
  5
176
  8
0
 62
     9
 10
0.0
 20
0.0
 30
0.0
 70
   128
 71
    34
 72
    35
 73
    38
  0
VERTEX
  5
177
  8
0
 62
     9
 10
0.0
 20
0.0
 30
0.0
 70
   128
 71
    39
 72
    40
 73
    37
  0
VERTEX
  5
178
  8
0
 62
     9
 10
0.0
 20
0.0
 30
0.0
 70
   128
 71
    40
 72
    29
 73
    37
  0
VERTEX
  5
179
  8
0
 62
     9
 10
0.0
 20
0.0
 30
0.0
 70
   128
 71
    43
 72
    42
 73
    41
  0
VERTEX
  5
17A
  8
0
 62
     9
 10
0.0
 20
0.0
 30
0.0
 70
   128
 71
    41
 72
    44
 73
    43
  0
VERTEX
  5
17B
  8
0
 62
     9
 10
0.0
 20
0.0
 30
0.0
 70
   128
 71
    46
 72
    45
 73
    41
  0
VERTEX
  5
17C
  8
0
 62
     9
 10
0.0
 20
0.0
 30
0.0
 70
   128
 71
    47
 72
    34
 73
    41
  0
VERTEX
  5
17D
  8
0
 62
     9
 10
0.0
 20
0.0
 30
0.0
 70
   128
 71
    41
 72
    45
 73
    47
  0
VERTEX
  5
17E
  8
0
 62
     9
 10
0.0
 20
0.0
 30
0.0
 70
   128
 71
    41
 72
    42
 73
    46
  0
VERTEX
  5
17F
  8
0
 62
     9
 10
0.0
 20
0.0
 30
0.0
 70
   128
 71
    50
 72
    49
 73
    48
  0
VERTEX
  5
180
  8
0
 62
     9
 10
0.0
 20
0.0
 30
0.0
 70
   128
 71
    49
 72
    51
 73
    48
  0
VERTEX
  5
181
  8
0
 62
     9
 10
0.0
 20
0.0
 30
0.0
 70
   128
 71
    52
 72
    41
 73
    48
  0
VERTEX
  5
182
  8
0
 62
     9
 10
0.0
 20
0.0
 30
0.0
 70
   128
 71
    48
 72
    51
 73
    52
  0
VERTEX
  5
183
  8
0
 62
     9
 10
0.0
 20
0.0
 30
0.0
 70
   128
 71
    48
 72
    53
 73
    50
  0
VERTEX
  5
184
  8
0
 62
     9
 10
0.0
 20
0.0
 30
0.0
 70
   128
 71
    55
 72
    48
 73
    54
  0
VERTEX
  5
185
  8
0
 62
     9
 10
0.0
 20
0.0
 30
0.0
 70
   128
 71
    54
 72
    56
 73
    55
  0
VERTEX
  5
186
  8
0
 62
     9
 10
0.0
 20
0.0
 30
0.0
 70
   128
 71
    58
 72
    57
 73
    54
  0
VERTEX
  5
187
  8
0
 62
     9
 10
0.0
 20
0.0
 30
0.0
 70
   128
 71
    60
 72
    59
 73
    54
  0
VERTEX
  5
188
  8
0
 62
     9
 10
0.0
 20
0.0
 30
0.0
 70
   128
 71
    54
 72
    57
 73
    60
  0
VERTEX
  5
189
  8
0
 62
     9
 10
0.0
 20
0.0
 30
0.0
 70
   128
 71
    62
 72
    61
 73
    54
  0
VERTEX
  5
18A
  8
0
 62
     9
 10
0.0
 20
0.0
 30
0.0
 70
   128
 71
    54
 72
    63
 73
    62
  0
VERTEX
  5
18B
  8
0
 62
     9
 10
0.0
 20
0.0
 30
0.0
 70
   128
 71
    54
 72
    59
 73
    63
  0
VERTEX
  5
18C
  8
0
 62
     9
 10
0.0
 20
0.0
 30
0.0
 70
   128
 71
    54
 72
    64
 73
    58
  0
VERTEX
  5
18D
  8
0
 62
     9
 10
0.0
 20
0.0
 30
0.0
 70
   128
 71
    66
 72
    65
 73
    64
  0
VERTEX
  5
18E
  8
0
 62
     9
 10
0.0
 20
0.0
 30
0.0
 70
   128
 71
    64
 72
    67
 73
    66
  0
VERTEX
  5
18F
  8
0
 62
     9
 10
0.0
 20
0.0
 30
0.0
 70
   128
 71
    67
 72
    68
 73
    66
  0
VERTEX
  5
190
  8
0
 62
     9
 10
0.0
 20
0.0
 30
0.0
 70
   128
 71
    69
 72
    58
 73
    64
  0
VERTEX
  5
191
  8
0
 62
     9
 10
0.0
 20
0.0
 30
0.0
 70
   128
 71
    64
 72
    70
 73
    69
  0
VERTEX
  5
192
  8
0
 62
     9
 10
0.0
 20
0.0
 30
0.0
 70
   128
 71
    64
 72
    65
 73
    70
  0
VERTEX
  5
193
  8
0
 62
     9
 10
0.0
 20
0.0
 30
0.0
 70
   128
 71
    72
 72
    71
 73
    67
  0
VERTEX
  5
194
  8
0
 62
     9
 10
0.0
 20
0.0
 30
0.0
 70
   128
 71
    73
 72
    68
 73
    67
  0
VERTEX
  5
195
  8
0
 62
     9
 10
0.0
 20
0.0
 30
0.0
 70
   128
 71
    67
 72
    74
 73
    73
  0
VERTEX
  5
196
  8
0
 62
     9
 10
0.0
 20
0.0
 30
0.0
 70
   128
 71
    67
 72
    71
 73
    74
  0
VERTEX
  5
197
  8
0
 62
     9
 10
0.0
 20
0.0
 30
0.0
 70
   128
 71
    67
 72
     4
 73
    72
  0
VERTEX
  5
198
  8
0
 62
     9
 10
0.0
 20
0.0
 30
0.0
 70
   128
 71
     4
 72
     7
 73
    72
  0
VERTEX
  5
199
  8
0
 62
     9
 10
0.0
 20
0.0
 30
0.0
 70
   128
 71
    54
 72
    61
 73
    56
  0
VERTEX
  5
19A
  8
0
 62
     9
 10
0.0
 20
0.0
 30
0.0
 70
   128
 71
    48
 72
    55
 73
    53
  0
VERTEX
  5
19B
  8
0
 62
     9
 10
0.0
 20
0.0
 30
0.0
 70
   128
 71
    41
 72
    52
 73
    44
  0
VERTEX
  5
19C
  8
0
 62
     9
 10
0.0
 20
0.0
 30
0.0
 70
   128
 71
    34
 72
    47
 73
    36
  0
VERTEX
  5
19D
  8
0
 62
     9
 10
0.0
 20
0.0
 30
0.0
 70
   128
 71
    27
 72
    37
 73
    29
  0
VERTEX
  5
19E
  8
0
 62
     9
 10
0.0
 20
0.0
 30
0.0
 70
   128
 71
    14
 72
    27
 73
    21
  0
VERTEX
  5
19F
  8
0
 62
     9
 10
0.0
 20
0.0
 30
0.0
 70
   128
 71
    14
 72
    25
 73
    16
  0
VERTEX
  5
1A0
  8
0
 62
     9
 10
0.0
 20
0.0
 30
0.0
 70
   128
 71
     8
 72
    18
 73
    10
  0
VERTEX
  5
1A1
  8
0
 62
     9
 10
0.0
 20
0.0
 30
0.0
 70
   128
 71
     1
 72
    12
 73
     6
  0
SEQEND
  5
1A2
  8
0
 62
     9
  0
ENDBLK
  5
1A5
  8
0
  0
BLOCK
  8
0
  2
E3_NODE_3_
 70
     0
 10
0.0
 20
0.0
 30
0.0
  3
E3_NODE_3_
  1

  0
POLYLINE
  5
1A7
  8
0
 62
     9
 66
     1
 10
0.0
 20
0.0
 30
0.0
 70
    64
 71
    12
 72
    10
  0
VERTEX
  5
1A8
  8
0
 10
19.78300094604492
 20
-13.39999961853027
 30
-13.60900020599365
 70
   192
  0
VERTEX
  5
1A9
  8
0
 10
-3.426000118255615
 20
-26.79999923706055
 30
-13.60900020599365
 70
   192
  0
VERTEX
  5
1AA
  8
0
 10
-16.82600021362305
 20
-23.20899963378906
 30
-13.60900020599365
 70
   192
  0
VERTEX
  5
1AB
  8
0
 10
23.37400054931641
 20
0.0
 30
-13.60900020599365
 70
   192
  0
VERTEX
  5
1AC
  8
0
 10
-26.63599967956543
 20
13.39999961853027
 30
-13.60900020599365
 70
   192
  0
VERTEX
  5
1AD
  8
0
 10
-16.82600021362305
 20
23.20899963378906
 30
-13.60900020599365
 70
   192
  0
VERTEX
  5
1AE
  8
0
 10
9.973999977111816
 20
-23.20899963378906
 30
-13.60900020599365
 70
   192
  0
VERTEX
  5
1AF
  8
0
 10
-3.426000118255615
 20
26.79999923706055
 30
-13.60900020599365
 70
   192
  0
VERTEX
  5
1B0
  8
0
 10
9.973999977111816
 20
23.20899963378906
 30
-13.60900020599365
 70
   192
  0
VERTEX
  5
1B1
  8
0
 10
-30.22599983215332
 20
0.0
 30
-13.60900020599365
 70
   192
  0
VERTEX
  5
1B2
  8
0
 10
-26.63599967956543
 20
-13.39999961853027
 30
-13.60900020599365
 70
   192
  0
VERTEX
  5
1B3
  8
0
 10
19.78300094604492
 20
13.39999961853027
 30
-13.60900020599365
 70
   192
  0
VERTEX
  5
1B4
  8
0
 62
     9
 10
0.0
 20
0.0
 30
0.0
 70
   128
 71
     3
 72
     2
 73
     1
  0
VERTEX
  5
1B5
  8
0
 62
     9
 10
0.0
 20
0.0
 30
0.0
 70
   128
 71
     6
 72
     5
 73
     4
  0
VERTEX
  5
1B6
  8
0
 62
     9
 10
0.0
 20
0.0
 30
0.0
 70
   128
 71
     2
 72
     7
 73
     1
  0
VERTEX
  5
1B7
  8
0
 62
     9
 10
0.0
 20
0.0
 30
0.0
 70
   128
 71
     9
 72
     8
 73
     4
  0
VERTEX
  5
1B8
  8
0
 62
     9
 10
0.0
 20
0.0
 30
0.0
 70
   128
 71
     5
 72
    10
 73
     4
  0
VERTEX
  5
1B9
  8
0
 62
     9
 10
0.0
 20
0.0
 30
0.0
 70
   128
 71
     1
 72
    11
 73
     3
  0
VERTEX
  5
1BA
  8
0
 62
     9
 10
0.0
 20
0.0
 30
0.0
 70
   128
 71
     4
 72
     8
 73
     6
  0
VERTEX
  5
1BB
  8
0
 62
     9
 10
0.0
 20
0.0
 30
0.0
 70
   128
 71
     1
 72
     4
 73
    10
  0
VERTEX
  5
1BC
  8
0
 62
     9
 10
0.0
 20
0.0
 30
0.0
 70
   128
 71
     1
 72
    10
 73
    11
  0
VERTEX
  5
1BD
  8
0
 62
     9
 10
0.0
 20
0.0
 30
0.0
 70
   128
 71
     4
 72
    12
 73
     9
  0
SEQEND
  5
1BE
  8
0
 62
     9
  0
ENDBLK
  5
1C1
  8
0
  0
BLOCK
  8
0
  2
E3_NODE_4_
 70
     0
 10
0.0
 20
0.0
 30
0.0
  3
E3_NODE_4_
  1

  0
POLYLINE
  5
1C3
  8
0
 62
     9
 66
     1
 10
0.0
 20
0.0
 30
0.0
 70
    64
 71
     7
 72
     5
  0
VERTEX
  5
1C4
  8
0
 10
196.8520050048828
 20
0.0
 30
203.0590057373047
 70
   192
  0
VERTEX
  5
1C5
  8
0
 10
213.7079925537109
 20
13.64900016784668
 30
206.031005859375
 70
   192
  0
VERTEX
  5
1C6
  8
0
 10
223.0619964599609
 20
6.073999881744385
 30
207.6799926757812
 70
   192
  0
VERTEX
  5
1C7
  8
0
 10
223.0619964599609
 20
-6.073999881744385
 30
207.6799926757812
 70
   192
  0
VERTEX
  5
1C8
  8
0
 10
213.7079925537109
 20
-13.64900016784668
 30
206.031005859375
 70
   192
  0
VERTEX
  5
1C9
  8
0
 10
202.0429992675781
 20
-10.94600009918213
 30
203.9739990234375
 70
   192
  0
VERTEX
  5
1CA
  8
0
 10
202.0429992675781
 20
10.94600009918213
 30
203.9739990234375
 70
   192
  0
VERTEX
  5
1CB
  8
0
 62
     9
 10
0.0
 20
0.0
 30
0.0
 70
   128
 71
     3
 72
     2
 73
     1
  0
VERTEX
  5
1CC
  8
0
 62
     9
 10
0.0
 20
0.0
 30
0.0
 70
   128
 71
     6
 72
     5
 73
     4
  0
VERTEX
  5
1CD
  8
0
 62
     9
 10
0.0
 20
0.0
 30
0.0
 70
   128
 71
     2
 72
     7
 73
     1
  0
VERTEX
  5
1CE
  8
0
 62
     9
 10
0.0
 20
0.0
 30
0.0
 70
   128
 71
     1
 72
     4
 73
     3
  0
VERTEX
  5
1CF
  8
0
 62
     9
 10
0.0
 20
0.0
 30
0.0
 70
   128
 71
     4
 72
     1
 73
     6
  0
SEQEND
  5
1D0
  8
0
 62
     9
  0
ENDBLK
  5
1D3
  8
0
  0
BLOCK
  8
0
  2
E3_NODE_5_
 70
     0
 10
0.0
 20
0.0
 30
0.0
  3
E3_NODE_5_
  1

  0
POLYLINE
  5
1D5
  8
0
 62
     9
 66
     1
 10
0.0
 20
0.0
 30
0.0
 70
    64
 71
    15
 72
    15
  0
VERTEX
  5
1D6
  8
0
 10
202.0429992675781
 20
10.94600009918213
 30
203.9739990234375
 70
   192
  0
VERTEX
  5
1D7
  8
0
 10
196.8520050048828
 20
0.0
 30
203.0590057373047
 70
   192
  0
VERTEX
  5
1D8
  8
0
 10
190.2530059814453
 20
0.0
 30
240.4850006103516
 70
   192
  0
VERTEX
  5
1D9
  8
0
 10
213.7079925537109
 20
13.64900016784668
 30
206.031005859375
 70
   192
  0
VERTEX
  5
1DA
  8
0
 10
195.4440002441406
 20
10.94600009918213
 30
241.3999938964844
 70
   192
  0
VERTEX
  5
1DB
  8
0
 10
223.0619964599609
 20
6.073999881744385
 30
207.6799926757812
 70
   192
  0
VERTEX
  5
1DC
  8
0
 10
207.1080017089844
 20
13.64900016784668
 30
243.4570007324219
 70
   192
  0
VERTEX
  5
1DD
  8
0
 10
216.4620056152344
 20
6.073999881744385
 30
245.1060028076172
 70
   192
  0
VERTEX
  5
1DE
  8
0
 10
217.8280029296875
 20
0.0
 30
245.3470001220703
 70
   192
  0
VERTEX
  5
1DF
  8
0
 10
223.0619964599609
 20
-6.073999881744385
 30
207.6799926757812
 70
   192
  0
VERTEX
  5
1E0
  8
0
 10
213.7079925537109
 20
-13.64900016784668
 30
206.031005859375
 70
   192
  0
VERTEX
  5
1E1
  8
0
 10
216.4620056152344
 20
-6.073999881744385
 30
245.1060028076172
 70
   192
  0
VERTEX
  5
1E2
  8
0
 10
195.4440002441406
 20
-10.94600009918213
 30
241.3999938964844
 70
   192
  0
VERTEX
  5
1E3
  8
0
 10
202.0429992675781
 20
-10.94600009918213
 30
203.9739990234375
 70
   192
  0
VERTEX
  5
1E4
  8
0
 10
207.1080017089844
 20
-13.64900016784668
 30
243.4570007324219
 70
   192
  0
VERTEX
  5
1E5
  8
0
 62
     9
 10
0.0
 20
0.0
 30
0.0
 70
   128
 71
     3
 72
     2
 73
     1
  0
VERTEX
  5
1E6
  8
0
 62
     9
 10
0.0
 20
0.0
 30
0.0
 70
   128
 71
     5
 72
     1
 73
     4
  0
VERTEX
  5
1E7
  8
0
 62
     9
 10
0.0
 20
0.0
 30
0.0
 70
   128
 71
     7
 72
     4
 73
     6
  0
VERTEX
  5
1E8
  8
0
 62
     9
 10
0.0
 20
0.0
 30
0.0
 70
   128
 71
     9
 72
     8
 73
     6
  0
VERTEX
  5
1E9
  8
0
 62
     9
 10
0.0
 20
0.0
 30
0.0
 70
   128
 71
     6
 72
    10
 73
     9
  0
VERTEX
  5
1EA
  8
0
 62
     9
 10
0.0
 20
0.0
 30
0.0
 70
   128
 71
    12
 72
    10
 73
    11
  0
VERTEX
  5
1EB
  8
0
 62
     9
 10
0.0
 20
0.0
 30
0.0
 70
   128
 71
    11
 72
    14
 73
    13
  0
VERTEX
  5
1EC
  8
0
 62
     9
 10
0.0
 20
0.0
 30
0.0
 70
   128
 71
    14
 72
     2
 73
     3
  0
VERTEX
  5
1ED
  8
0
 62
     9
 10
0.0
 20
0.0
 30
0.0
 70
   128
 71
     3
 72
    13
 73
    14
  0
VERTEX
  5
1EE
  8
0
 62
     9
 10
0.0
 20
0.0
 30
0.0
 70
   128
 71
    13
 72
    15
 73
    11
  0
VERTEX
  5
1EF
  8
0
 62
     9
 10
0.0
 20
0.0
 30
0.0
 70
   128
 71
    11
 72
    15
 73
    12
  0
VERTEX
  5
1F0
  8
0
 62
     9
 10
0.0
 20
0.0
 30
0.0
 70
   128
 71
    10
 72
    12
 73
     9
  0
VERTEX
  5
1F1
  8
0
 62
     9
 10
0.0
 20
0.0
 30
0.0
 70
   128
 71
     6
 72
     8
 73
     7
  0
VERTEX
  5
1F2
  8
0
 62
     9
 10
0.0
 20
0.0
 30
0.0
 70
   128
 71
     4
 72
     7
 73
     5
  0
VERTEX
  5
1F3
  8
0
 62
     9
 10
0.0
 20
0.0
 30
0.0
 70
   128
 71
     1
 72
     5
 73
     3
  0
SEQEND
  5
1F4
  8
0
 62
     9
  0
ENDBLK
  5
1F7
  8
0
  0
BLOCK
  8
0
  2
E3_NODE_6_
 70
     0
 10
0.0
 20
0.0
 30
0.0
  3
E3_NODE_6_
  1

  0
POLYLINE
  5
1F9
  8
0
 62
     9
 66
     1
 10
0.0
 20
0.0
 30
0.0
 70
    64
 71
     8
 72
     6
  0
VERTEX
  5
1FA
  8
0
 10
190.2530059814453
 20
0.0
 30
240.4850006103516
 70
   192
  0
VERTEX
  5
1FB
  8
0
 10
216.4620056152344
 20
6.073999881744385
 30
245.1060028076172
 70
   192
  0
VERTEX
  5
1FC
  8
0
 10
207.1080017089844
 20
13.64900016784668
 30
243.4570007324219
 70
   192
  0
VERTEX
  5
1FD
  8
0
 10
216.4620056152344
 20
-6.073999881744385
 30
245.1060028076172
 70
   192
  0
VERTEX
  5
1FE
  8
0
 10
195.4440002441406
 20
-10.94600009918213
 30
241.3999938964844
 70
   192
  0
VERTEX
  5
1FF
  8
0
 10
217.8280029296875
 20
0.0
 30
245.3470001220703
 70
   192
  0
VERTEX
  5
200
  8
0
 10
207.1080017089844
 20
-13.64900016784668
 30
243.4570007324219
 70
   192
  0
VERTEX
  5
201
  8
0
 10
195.4440002441406
 20
10.94600009918213
 30
241.3999938964844
 70
   192
  0
VERTEX
  5
202
  8
0
 62
     9
 10
0.0
 20
0.0
 30
0.0
 70
   128
 71
     3
 72
     2
 73
     1
  0
VERTEX
  5
203
  8
0
 62
     9
 10
0.0
 20
0.0
 30
0.0
 70
   128
 71
     5
 72
     1
 73
     4
  0
VERTEX
  5
204
  8
0
 62
     9
 10
0.0
 20
0.0
 30
0.0
 70
   128
 71
     2
 72
     6
 73
     1
  0
VERTEX
  5
205
  8
0
 62
     9
 10
0.0
 20
0.0
 30
0.0
 70
   128
 71
     4
 72
     7
 73
     5
  0
VERTEX
  5
206
  8
0
 62
     9
 10
0.0
 20
0.0
 30
0.0
 70
   128
 71
     1
 72
     6
 73
     4
  0
VERTEX
  5
207
  8
0
 62
     9
 10
0.0
 20
0.0
 30
0.0
 70
   128
 71
     1
 72
     8
 73
     3
  0
SEQEND
  5
208
  8
0
 62
     9
  0
ENDBLK
  5
20B
  8
0
  0
BLOCK
  8
0
  2
E3_NODE_7_
 70
     0
 10
0.0
 20
0.0
 30
0.0
  3
E3_NODE_7_
  1

  0
POLYLINE
  5
20D
  8
0
 62
     9
 66
     1
 10
0.0
 20
0.0
 30
0.0
 70
    64
 71
     4
 72
     2
  0
VERTEX
  5
20E
  8
0
 10
16.20100021362305
 20
83.57599639892578
 30
130.3979949951172
 70
   192
  0
VERTEX
  5
20F
  8
0
 10
11.27700042724609
 20
88.57599639892578
 30
131.2660064697266
 70
   192
  0
VERTEX
  5
210
  8
0
 10
6.353000164031982
 20
83.57599639892578
 30
132.1349945068359
 70
   192
  0
VERTEX
  5
211
  8
0
 10
11.27700042724609
 20
78.57599639892578
 30
131.2660064697266
 70
   192
  0
VERTEX
  5
212
  8
0
 62
     9
 10
0.0
 20
0.0
 30
0.0
 70
   128
 71
     3
 72
     2
 73
     1
  0
VERTEX
  5
213
  8
0
 62
     9
 10
0.0
 20
0.0
 30
0.0
 70
   128
 71
     1
 72
     4
 73
     3
  0
SEQEND
  5
214
  8
0
 62
     9
  0
ENDBLK
  5
217
  8
0
  0
BLOCK
  8
0
  2
E3_NODE_8_
 70
     0
 10
0.0
 20
0.0
 30
0.0
  3
E3_NODE_8_
  1

  0
POLYLINE
  5
219
  8
0
 62
     9
 66
     1
 10
0.0
 20
0.0
 30
0.0
 70
    64
 71
    19
 72
    20
  0
VERTEX
  5
21A
  8
0
 10
6.353000164031982
 20
83.57599639892578
 30
132.1349945068359
 70
   192
  0
VERTEX
  5
21B
  8
0
 10
-3.338000059127808
 20
80.87000274658203
 30
72.59400177001953
 70
   192
  0
VERTEX
  5
21C
  8
0
 10
0.8669999837875366
 20
78.57599639892578
 30
72.23899841308594
 70
   192
  0
VERTEX
  5
21D
  8
0
 10
-4.151999950408936
 20
83.57099914550781
 30
72.55999755859375
 70
   192
  0
VERTEX
  5
21E
  8
0
 10
-4.013999938964844
 20
82.4280014038086
 30
72.572998046875
 70
   192
  0
VERTEX
  5
21F
  8
0
 10
-4.151000022888184
 20
83.57599639892578
 30
72.55999755859375
 70
   192
  0
VERTEX
  5
220
  8
0
 10
11.27700042724609
 20
78.57599639892578
 30
131.2660064697266
 70
   192
  0
VERTEX
  5
221
  8
0
 10
16.20100021362305
 20
83.57599639892578
 30
130.3979949951172
 70
   192
  0
VERTEX
  5
222
  8
0
 10
0.8679999709129333
 20
78.5770034790039
 30
72.23799896240234
 70
   192
  0
VERTEX
  5
223
  8
0
 10
4.945000171661377
 20
80.8740005493164
 30
71.13200378417969
 70
   192
  0
VERTEX
  5
224
  8
0
 10
5.248000144958496
 20
85.68900299072266
 30
70.97599792480469
 70
   192
  0
VERTEX
  5
225
  8
0
 10
1.473999977111816
 20
88.53600311279297
 30
72.03600311279297
 70
   192
  0
VERTEX
  5
226
  8
0
 10
5.118000030517578
 20
83.61699676513672
 30
71.04299926757812
 70
   192
  0
VERTEX
  5
227
  8
0
 10
11.27700042724609
 20
88.57599639892578
 30
131.2660064697266
 70
   192
  0
VERTEX
  5
228
  8
0
 10
-3.359999895095825
 20
86.26000213623047
 30
72.5469970703125
 70
   192
  0
VERTEX
  5
229
  8
0
 10
-2.668999910354614
 20
87.11100006103516
 30
72.53600311279297
 70
   192
  0
VERTEX
  5
22A
  8
0
 10
0.8519999980926514
 20
88.57599639892578
 30
72.15299987792969
 70
   192
  0
VERTEX
  5
22B
  8
0
 10
-4.021999835968018
 20
84.7020034790039
 30
72.55400085449219
 70
   192
  0
VERTEX
  5
22C
  8
0
 10
0.8539999723434448
 20
88.57599639892578
 30
72.15299987792969
 70
   192
  0
VERTEX
  5
22D
  8
0
 62
     9
 10
0.0
 20
0.0
 30
0.0
 70
   128
 71
     3
 72
     2
 73
     1
  0
VERTEX
  5
22E
  8
0
 62
     9
 10
0.0
 20
0.0
 30
0.0
 70
   128
 71
     5
 72
     4
 73
     1
  0
VERTEX
  5
22F
  8
0
 62
     9
 10
0.0
 20
0.0
 30
0.0
 70
   128
 71
     4
 72
     6
 73
     1
  0
VERTEX
  5
230
  8
0
 62
     9
 10
0.0
 20
0.0
 30
0.0
 70
   128
 71
     1
 72
     2
 73
     5
  0
VERTEX
  5
231
  8
0
 62
     9
 10
0.0
 20
0.0
 30
0.0
 70
   128
 71
     1
 72
     7
 73
     3
  0
VERTEX
  5
232
  8
0
 62
     9
 10
0.0
 20
0.0
 30
0.0
 70
   128
 71
     9
 72
     7
 73
     8
  0
VERTEX
  5
233
  8
0
 62
     9
 10
0.0
 20
0.0
 30
0.0
 70
   128
 71
     8
 72
    10
 73
     9
  0
VERTEX
  5
234
  8
0
 62
     9
 10
0.0
 20
0.0
 30
0.0
 70
   128
 71
    12
 72
    11
 73
     8
  0
VERTEX
  5
235
  8
0
 62
     9
 10
0.0
 20
0.0
 30
0.0
 70
   128
 71
    11
 72
    13
 73
     8
  0
VERTEX
  5
236
  8
0
 62
     9
 10
0.0
 20
0.0
 30
0.0
 70
   128
 71
     8
 72
    14
 73
    12
  0
VERTEX
  5
237
  8
0
 62
     9
 10
0.0
 20
0.0
 30
0.0
 70
   128
 71
    16
 72
     6
 73
    15
  0
VERTEX
  5
238
  8
0
 62
     9
 10
0.0
 20
0.0
 30
0.0
 70
   128
 71
    15
 72
    17
 73
    16
  0
VERTEX
  5
239
  8
0
 62
     9
 10
0.0
 20
0.0
 30
0.0
 70
   128
 71
     6
 72
    18
 73
    15
  0
VERTEX
  5
23A
  8
0
 62
     9
 10
0.0
 20
0.0
 30
0.0
 70
   128
 71
    16
 72
    17
 73
     1
  0
VERTEX
  5
23B
  8
0
 62
     9
 10
0.0
 20
0.0
 30
0.0
 70
   128
 71
    17
 72
    19
 73
    14
  0
VERTEX
  5
23C
  8
0
 62
     9
 10
0.0
 20
0.0
 30
0.0
 70
   128
 71
    14
 72
     1
 73
    17
  0
VERTEX
  5
23D
  8
0
 62
     9
 10
0.0
 20
0.0
 30
0.0
 70
   128
 71
     1
 72
     6
 73
    16
  0
VERTEX
  5
23E
  8
0
 62
     9
 10
0.0
 20
0.0
 30
0.0
 70
   128
 71
    14
 72
    19
 73
    12
  0
VERTEX
  5
23F
  8
0
 62
     9
 10
0.0
 20
0.0
 30
0.0
 70
   128
 71
     8
 72
    13
 73
    10
  0
VERTEX
  5
240
  8
0
 62
     9
 10
0.0
 20
0.0
 30
0.0
 70
   128
 71
     7
 72
     9
 73
     3
  0
SEQEND
  5
241
  8
0
 62
     9
  0
ENDBLK
  5
244
  8
0
  0
BLOCK
  8
0
  2
E3_NODE_9_
 70
     0
 10
0.0
 20
0.0
 30
0.0
  3
E3_NODE_9_
  1

  0
POLYLINE
  5
246
  8
0
 62
     9
 66
     1
 10
0.0
 20
0.0
 30
0.0
 70
    64
 71
    73
 72
    78
  0
VERTEX
  5
247
  8
0
 10
17.55999946594238
 20
72.41300201416016
 30
34.81499862670898
 70
   192
  0
VERTEX
  5
248
  8
0
 10
19.51000022888184
 20
58.24399948120117
 30
38.35499954223633
 70
   192
  0
VERTEX
  5
249
  8
0
 10
18.84600067138672
 20
58.24399948120117
 30
36.90200042724609
 70
   192
  0
VERTEX
  5
24A
  8
0
 10
20.9689998626709
 20
73.60399627685547
 30
43.83100128173828
 70
   192
  0
VERTEX
  5
24B
  8
0
 10
20.97500038146973
 20
58.24399948120117
 30
43.88199996948242
 70
   192
  0
VERTEX
  5
24C
  8
0
 10
20.67000007629395
 20
74.7979965209961
 30
53.47200012207031
 70
   192
  0
VERTEX
  5
24D
  8
0
 10
16.68099975585938
 20
75.8219985961914
 30
62.29800033569336
 70
   192
  0
VERTEX
  5
24E
  8
0
 10
17.74099922180176
 20
58.24399948120117
 30
60.97200012207031
 70
   192
  0
VERTEX
  5
24F
  8
0
 10
20.47400093078613
 20
58.24399948120117
 30
54.77299880981445
 70
   192
  0
VERTEX
  5
250
  8
0
 10
16.70599937438965
 20
58.24399948120117
 30
62.4640007019043
 70
   192
  0
VERTEX
  5
251
  8
0
 10
16.86800003051758
 20
58.24399948120117
 30
62.29199981689453
 70
   192
  0
VERTEX
  5
252
  8
0
 10
9.579999923706055
 20
76.51000213623047
 30
68.93499755859375
 70
   192
  0
VERTEX
  5
253
  8
0
 10
12.23999977111816
 20
58.24399948120117
 30
67.23600006103516
 70
   192
  0
VERTEX
  5
254
  8
0
 10
9.513999938964844
 20
58.24399948120117
 30
68.95999908447266
 70
   192
  0
VERTEX
  5
255
  8
0
 10
10.97500038146973
 20
58.24399948120117
 30
68.1969985961914
 70
   192
  0
VERTEX
  5
256
  8
0
 10
21.38899993896484
 20
58.24399948120117
 30
46.47900009155273
 70
   192
  0
VERTEX
  5
257
  8
0
 10
21.24600028991699
 20
58.24399948120117
 30
44.90299987792969
 70
   192
  0
VERTEX
  5
258
  8
0
 10
20.86199951171875
 20
58.24399948120117
 30
53.23300170898438
 70
   192
  0
VERTEX
  5
259
  8
0
 10
2.055000066757202
 20
70.70500183105469
 30
23.78400039672852
 70
   192
  0
VERTEX
  5
25A
  8
0
 10
10.9350004196167
 20
71.3949966430664
 30
27.76600074768066
 70
   192
  0
VERTEX
  5
25B
  8
0
 10
7.077000141143799
 20
58.24399948120117
 30
25.41399955749512
 70
   192
  0
VERTEX
  5
25C
  8
0
 10
10.80300045013428
 20
58.24399948120117
 30
27.83699989318848
 70
   192
  0
VERTEX
  5
25D
  8
0
 10
8.50100040435791
 20
58.24399948120117
 30
26.13400077819824
 70
   192
  0
VERTEX
  5
25E
  8
0
 10
15.03999996185303
 20
58.24399948120117
 30
31.30200004577637
 70
   192
  0
VERTEX
  5
25F
  8
0
 10
13.94699954986572
 20
58.24399948120117
 30
30.16399955749512
 70
   192
  0
VERTEX
  5
260
  8
0
 10
17.45199966430664
 20
58.24399948120117
 30
34.85100173950195
 70
   192
  0
VERTEX
  5
261
  8
0
 10
-7.718999862670898
 20
70.46099853515625
 30
23.54599952697754
 70
   192
  0
VERTEX
  5
262
  8
0
 10
-0.9610000252723694
 20
58.24399948120117
 30
23.21100044250488
 70
   192
  0
VERTEX
  5
263
  8
0
 10
1.978000044822693
 20
58.24399948120117
 30
23.84000015258789
 70
   192
  0
VERTEX
  5
264
  8
0
 10
0.6110000014305115
 20
58.24399948120117
 30
23.41799926757812
 70
   192
  0
VERTEX
  5
265
  8
0
 10
0.8700000047683716
 20
76.73999786376953
 30
72.25399780273438
 70
   192
  0
VERTEX
  5
266
  8
0
 10
4.968999862670898
 20
58.24399948120117
 30
71.33100128173828
 70
   192
  0
VERTEX
  5
267
  8
0
 10
3.459000110626221
 20
58.24399948120117
 30
71.81900024414062
 70
   192
  0
VERTEX
  5
268
  8
0
 10
0.8970000147819519
 20
58.24399948120117
 30
72.41200256347656
 70
   192
  0
VERTEX
  5
269
  8
0
 10
-1.41700005531311
 20
82.73100280761719
 30
23.33200073242188
 70
   192
  0
VERTEX
  5
26A
  8
0
 10
1.771000027656555
 20
83.04299926757812
 30
24.0359992980957
 70
   192
  0
VERTEX
  5
26B
  8
0
 10
-7.704999923706055
 20
82.52999877929688
 30
23.62299919128418
 70
   192
  0
VERTEX
  5
26C
  8
0
 10
-2.825999975204468
 20
82.6510009765625
 30
23.25699996948242
 70
   192
  0
VERTEX
  5
26D
  8
0
 10
6.341000080108643
 20
83.5459976196289
 30
25.27300071716309
 70
   192
  0
VERTEX
  5
26E
  8
0
 10
10.78400039672852
 20
84.40299987792969
 30
27.96100044250488
 70
   192
  0
VERTEX
  5
26F
  8
0
 10
5.072000026702881
 20
83.36499786376953
 30
24.76499938964844
 70
   192
  0
VERTEX
  5
270
  8
0
 10
2.032000064849854
 20
83.06800079345703
 30
24.0939998626709
 70
   192
  0
VERTEX
  5
271
  8
0
 10
12.04100036621094
 20
84.6449966430664
 30
28.72100067138672
 70
   192
  0
VERTEX
  5
272
  8
0
 10
13.15100002288818
 20
84.92900085449219
 30
29.67300033569336
 70
   192
  0
VERTEX
  5
273
  8
0
 10
10.85099983215332
 20
84.41600036621094
 30
28.00099945068359
 70
   192
  0
VERTEX
  5
274
  8
0
 10
17.51399993896484
 20
86.4260025024414
 30
34.94599914550781
 70
   192
  0
VERTEX
  5
275
  8
0
 10
18.24300003051758
 20
86.7699966430664
 30
36.20000076293945
 70
   192
  0
VERTEX
  5
276
  8
0
 10
17.4370002746582
 20
86.38899993896484
 30
34.8120002746582
 70
   192
  0
VERTEX
  5
277
  8
0
 10
20.59000015258789
 20
88.44100189208984
 30
42.5
 70
   192
  0
VERTEX
  5
278
  8
0
 10
20.91200065612793
 20
88.88800048828125
 30
44.23300170898438
 70
   192
  0
VERTEX
  5
279
  8
0
 10
20.98299980163574
 20
90.5770034790039
 30
50.9739990234375
 70
   192
  0
VERTEX
  5
27A
  8
0
 10
20.83399963378906
 20
88.77999877929688
 30
43.81399917602539
 70
   192
  0
VERTEX
  5
27B
  8
0
 10
18.43899917602539
 20
92.51899719238281
 30
59.14899826049805
 70
   192
  0
VERTEX
  5
27C
  8
0
 10
17.53499984741211
 20
92.88300323486328
 30
60.75
 70
   192
  0
VERTEX
  5
27D
  8
0
 10
20.44400024414062
 20
91.18099975585938
 30
53.47700119018555
 70
   192
  0
VERTEX
  5
27E
  8
0
 10
20.67600059509277
 20
91.0270004272461
 30
52.82099914550781
 70
   192
  0
VERTEX
  5
27F
  8
0
 10
16.41200065612793
 20
93.1780014038086
 30
62.11800003051758
 70
   192
  0
VERTEX
  5
280
  8
0
 10
13.28999996185303
 20
94.0
 30
65.91899871826172
 70
   192
  0
VERTEX
  5
281
  8
0
 10
11.98600006103516
 20
94.22599792480469
 30
67.04499816894531
 70
   192
  0
VERTEX
  5
282
  8
0
 10
16.5
 20
93.15499877929688
 30
62.01100158691406
 70
   192
  0
VERTEX
  5
283
  8
0
 10
4.945000171661377
 20
80.8740005493164
 30
71.13200378417969
 70
   192
  0
VERTEX
  5
284
  8
0
 10
0.8679999709129333
 20
78.5770034790039
 30
72.23799896240234
 70
   192
  0
VERTEX
  5
285
  8
0
 10
9.446999549865723
 20
94.4990005493164
 30
68.5719985961914
 70
   192
  0
VERTEX
  5
286
  8
0
 10
5.248000144958496
 20
85.68900299072266
 30
70.97599792480469
 70
   192
  0
VERTEX
  5
287
  8
0
 10
5.118000030517578
 20
83.61699676513672
 30
71.04299926757812
 70
   192
  0
VERTEX
  5
288
  8
0
 10
9.371000289916992
 20
94.50700378417969
 30
68.61799621582031
 70
   192
  0
VERTEX
  5
289
  8
0
 10
6.288000106811523
 20
94.83899688720703
 30
70.47200012207031
 70
   192
  0
VERTEX
  5
28A
  8
0
 10
0.8420000076293945
 20
95.00800323486328
 30
72.0989990234375
 70
   192
  0
VERTEX
  5
28B
  8
0
 10
0.8519999980926514
 20
88.57599639892578
 30
72.15299987792969
 70
   192
  0
VERTEX
  5
28C
  8
0
 10
0.8539999723434448
 20
88.57599639892578
 30
72.15299987792969
 70
   192
  0
VERTEX
  5
28D
  8
0
 10
1.473999977111816
 20
88.53600311279297
 30
72.03600311279297
 70
   192
  0
VERTEX
  5
28E
  8
0
 10
0.8669999837875366
 20
78.57599639892578
 30
72.23899841308594
 70
   192
  0
VERTEX
  5
28F
  8
0
 10
-7.732999801635742
 20
58.24399948120117
 30
23.46699905395508
 70
   192
  0
VERTEX
  5
290
  8
0
 62
     9
 10
0.0
 20
0.0
 30
0.0
 70
   128
 71
     3
 72
     2
 73
     1
  0
VERTEX
  5
291
  8
0
 62
     9
 10
0.0
 20
0.0
 30
0.0
 70
   128
 71
     2
 72
     5
 73
     4
  0
VERTEX
  5
292
  8
0
 62
     9
 10
0.0
 20
0.0
 30
0.0
 70
   128
 71
     4
 72
     1
 73
     2
  0
VERTEX
  5
293
  8
0
 62
     9
 10
0.0
 20
0.0
 30
0.0
 70
   128
 71
     8
 72
     7
 73
     6
  0
VERTEX
  5
294
  8
0
 62
     9
 10
0.0
 20
0.0
 30
0.0
 70
   128
 71
     6
 72
     9
 73
     8
  0
VERTEX
  5
295
  8
0
 62
     9
 10
0.0
 20
0.0
 30
0.0
 70
   128
 71
    11
 72
    10
 73
     7
  0
VERTEX
  5
296
  8
0
 62
     9
 10
0.0
 20
0.0
 30
0.0
 70
   128
 71
     7
 72
     8
 73
    11
  0
VERTEX
  5
297
  8
0
 62
     9
 10
0.0
 20
0.0
 30
0.0
 70
   128
 71
    13
 72
    12
 73
     7
  0
VERTEX
  5
298
  8
0
 62
     9
 10
0.0
 20
0.0
 30
0.0
 70
   128
 71
    15
 72
    14
 73
    12
  0
VERTEX
  5
299
  8
0
 62
     9
 10
0.0
 20
0.0
 30
0.0
 70
   128
 71
    12
 72
    13
 73
    15
  0
VERTEX
  5
29A
  8
0
 62
     9
 10
0.0
 20
0.0
 30
0.0
 70
   128
 71
    17
 72
    16
 73
     4
  0
VERTEX
  5
29B
  8
0
 62
     9
 10
0.0
 20
0.0
 30
0.0
 70
   128
 71
    16
 72
    18
 73
     6
  0
VERTEX
  5
29C
  8
0
 62
     9
 10
0.0
 20
0.0
 30
0.0
 70
   128
 71
     6
 72
     4
 73
    16
  0
VERTEX
  5
29D
  8
0
 62
     9
 10
0.0
 20
0.0
 30
0.0
 70
   128
 71
    21
 72
    20
 73
    19
  0
VERTEX
  5
29E
  8
0
 62
     9
 10
0.0
 20
0.0
 30
0.0
 70
   128
 71
    23
 72
    22
 73
    20
  0
VERTEX
  5
29F
  8
0
 62
     9
 10
0.0
 20
0.0
 30
0.0
 70
   128
 71
    20
 72
    21
 73
    23
  0
VERTEX
  5
2A0
  8
0
 62
     9
 10
0.0
 20
0.0
 30
0.0
 70
   128
 71
    24
 72
     1
 73
    20
  0
VERTEX
  5
2A1
  8
0
 62
     9
 10
0.0
 20
0.0
 30
0.0
 70
   128
 71
    20
 72
    25
 73
    24
  0
VERTEX
  5
2A2
  8
0
 62
     9
 10
0.0
 20
0.0
 30
0.0
 70
   128
 71
    24
 72
    26
 73
     1
  0
VERTEX
  5
2A3
  8
0
 62
     9
 10
0.0
 20
0.0
 30
0.0
 70
   128
 71
    28
 72
    19
 73
    27
  0
VERTEX
  5
2A4
  8
0
 62
     9
 10
0.0
 20
0.0
 30
0.0
 70
   128
 71
    30
 72
    29
 73
    19
  0
VERTEX
  5
2A5
  8
0
 62
     9
 10
0.0
 20
0.0
 30
0.0
 70
   128
 71
    19
 72
    28
 73
    30
  0
VERTEX
  5
2A6
  8
0
 62
     9
 10
0.0
 20
0.0
 30
0.0
 70
   128
 71
    32
 72
    31
 73
    12
  0
VERTEX
  5
2A7
  8
0
 62
     9
 10
0.0
 20
0.0
 30
0.0
 70
   128
 71
    32
 72
    33
 73
    31
  0
VERTEX
  5
2A8
  8
0
 62
     9
 10
0.0
 20
0.0
 30
0.0
 70
   128
 71
    33
 72
    34
 73
    31
  0
VERTEX
  5
2A9
  8
0
 62
     9
 10
0.0
 20
0.0
 30
0.0
 70
   128
 71
    36
 72
    35
 73
    19
  0
VERTEX
  5
2AA
  8
0
 62
     9
 10
0.0
 20
0.0
 30
0.0
 70
   128
 71
    38
 72
    37
 73
    27
  0
VERTEX
  5
2AB
  8
0
 62
     9
 10
0.0
 20
0.0
 30
0.0
 70
   128
 71
    27
 72
    19
 73
    38
  0
VERTEX
  5
2AC
  8
0
 62
     9
 10
0.0
 20
0.0
 30
0.0
 70
   128
 71
    19
 72
    35
 73
    38
  0
VERTEX
  5
2AD
  8
0
 62
     9
 10
0.0
 20
0.0
 30
0.0
 70
   128
 71
    40
 72
    39
 73
    20
  0
VERTEX
  5
2AE
  8
0
 62
     9
 10
0.0
 20
0.0
 30
0.0
 70
   128
 71
    41
 72
    19
 73
    20
  0
VERTEX
  5
2AF
  8
0
 62
     9
 10
0.0
 20
0.0
 30
0.0
 70
   128
 71
    20
 72
    39
 73
    41
  0
VERTEX
  5
2B0
  8
0
 62
     9
 10
0.0
 20
0.0
 30
0.0
 70
   128
 71
    41
 72
    42
 73
    19
  0
VERTEX
  5
2B1
  8
0
 62
     9
 10
0.0
 20
0.0
 30
0.0
 70
   128
 71
    44
 72
    43
 73
    20
  0
VERTEX
  5
2B2
  8
0
 62
     9
 10
0.0
 20
0.0
 30
0.0
 70
   128
 71
    20
 72
     1
 73
    44
  0
VERTEX
  5
2B3
  8
0
 62
     9
 10
0.0
 20
0.0
 30
0.0
 70
   128
 71
    43
 72
    45
 73
    20
  0
VERTEX
  5
2B4
  8
0
 62
     9
 10
0.0
 20
0.0
 30
0.0
 70
   128
 71
    47
 72
    46
 73
     1
  0
VERTEX
  5
2B5
  8
0
 62
     9
 10
0.0
 20
0.0
 30
0.0
 70
   128
 71
    46
 72
    48
 73
     1
  0
VERTEX
  5
2B6
  8
0
 62
     9
 10
0.0
 20
0.0
 30
0.0
 70
   128
 71
     1
 72
     4
 73
    47
  0
VERTEX
  5
2B7
  8
0
 62
     9
 10
0.0
 20
0.0
 30
0.0
 70
   128
 71
     4
 72
    49
 73
    47
  0
VERTEX
  5
2B8
  8
0
 62
     9
 10
0.0
 20
0.0
 30
0.0
 70
   128
 71
    50
 72
     4
 73
     6
  0
VERTEX
  5
2B9
  8
0
 62
     9
 10
0.0
 20
0.0
 30
0.0
 70
   128
 71
     6
 72
    51
 73
    50
  0
VERTEX
  5
2BA
  8
0
 62
     9
 10
0.0
 20
0.0
 30
0.0
 70
   128
 71
    50
 72
    52
 73
     4
  0
VERTEX
  5
2BB
  8
0
 62
     9
 10
0.0
 20
0.0
 30
0.0
 70
   128
 71
    54
 72
    53
 73
     7
  0
VERTEX
  5
2BC
  8
0
 62
     9
 10
0.0
 20
0.0
 30
0.0
 70
   128
 71
    55
 72
     6
 73
     7
  0
VERTEX
  5
2BD
  8
0
 62
     9
 10
0.0
 20
0.0
 30
0.0
 70
   128
 71
     7
 72
    53
 73
    55
  0
VERTEX
  5
2BE
  8
0
 62
     9
 10
0.0
 20
0.0
 30
0.0
 70
   128
 71
    55
 72
    56
 73
     6
  0
VERTEX
  5
2BF
  8
0
 62
     9
 10
0.0
 20
0.0
 30
0.0
 70
   128
 71
    57
 72
     7
 73
    12
  0
VERTEX
  5
2C0
  8
0
 62
     9
 10
0.0
 20
0.0
 30
0.0
 70
   128
 71
    12
 72
    58
 73
    57
  0
VERTEX
  5
2C1
  8
0
 62
     9
 10
0.0
 20
0.0
 30
0.0
 70
   128
 71
    12
 72
    59
 73
    58
  0
VERTEX
  5
2C2
  8
0
 62
     9
 10
0.0
 20
0.0
 30
0.0
 70
   128
 71
    57
 72
    60
 73
     7
  0
VERTEX
  5
2C3
  8
0
 62
     9
 10
0.0
 20
0.0
 30
0.0
 70
   128
 71
    62
 72
    61
 73
    12
  0
VERTEX
  5
2C4
  8
0
 62
     9
 10
0.0
 20
0.0
 30
0.0
 70
   128
 71
    12
 72
    31
 73
    62
  0
VERTEX
  5
2C5
  8
0
 62
     9
 10
0.0
 20
0.0
 30
0.0
 70
   128
 71
    64
 72
    63
 73
    12
  0
VERTEX
  5
2C6
  8
0
 62
     9
 10
0.0
 20
0.0
 30
0.0
 70
   128
 71
    12
 72
    65
 73
    64
  0
VERTEX
  5
2C7
  8
0
 62
     9
 10
0.0
 20
0.0
 30
0.0
 70
   128
 71
    12
 72
    61
 73
    65
  0
VERTEX
  5
2C8
  8
0
 62
     9
 10
0.0
 20
0.0
 30
0.0
 70
   128
 71
    67
 72
    66
 73
    64
  0
VERTEX
  5
2C9
  8
0
 62
     9
 10
0.0
 20
0.0
 30
0.0
 70
   128
 71
    66
 72
    63
 73
    64
  0
VERTEX
  5
2CA
  8
0
 62
     9
 10
0.0
 20
0.0
 30
0.0
 70
   128
 71
    70
 72
    69
 73
    68
  0
VERTEX
  5
2CB
  8
0
 62
     9
 10
0.0
 20
0.0
 30
0.0
 70
   128
 71
    68
 72
    67
 73
    70
  0
VERTEX
  5
2CC
  8
0
 62
     9
 10
0.0
 20
0.0
 30
0.0
 70
   128
 71
    67
 72
    71
 73
    70
  0
VERTEX
  5
2CD
  8
0
 62
     9
 10
0.0
 20
0.0
 30
0.0
 70
   128
 71
    64
 72
    71
 73
    67
  0
VERTEX
  5
2CE
  8
0
 62
     9
 10
0.0
 20
0.0
 30
0.0
 70
   128
 71
    31
 72
    72
 73
    62
  0
VERTEX
  5
2CF
  8
0
 62
     9
 10
0.0
 20
0.0
 30
0.0
 70
   128
 71
    12
 72
    63
 73
    59
  0
VERTEX
  5
2D0
  8
0
 62
     9
 10
0.0
 20
0.0
 30
0.0
 70
   128
 71
     7
 72
    60
 73
    54
  0
VERTEX
  5
2D1
  8
0
 62
     9
 10
0.0
 20
0.0
 30
0.0
 70
   128
 71
     6
 72
    56
 73
    51
  0
VERTEX
  5
2D2
  8
0
 62
     9
 10
0.0
 20
0.0
 30
0.0
 70
   128
 71
     4
 72
    52
 73
    49
  0
VERTEX
  5
2D3
  8
0
 62
     9
 10
0.0
 20
0.0
 30
0.0
 70
   128
 71
     1
 72
    48
 73
    44
  0
VERTEX
  5
2D4
  8
0
 62
     9
 10
0.0
 20
0.0
 30
0.0
 70
   128
 71
    20
 72
    45
 73
    40
  0
VERTEX
  5
2D5
  8
0
 62
     9
 10
0.0
 20
0.0
 30
0.0
 70
   128
 71
    19
 72
    42
 73
    36
  0
VERTEX
  5
2D6
  8
0
 62
     9
 10
0.0
 20
0.0
 30
0.0
 70
   128
 71
    12
 72
    14
 73
    32
  0
VERTEX
  5
2D7
  8
0
 62
     9
 10
0.0
 20
0.0
 30
0.0
 70
   128
 71
    27
 72
    73
 73
    28
  0
VERTEX
  5
2D8
  8
0
 62
     9
 10
0.0
 20
0.0
 30
0.0
 70
   128
 71
    20
 72
    22
 73
    25
  0
VERTEX
  5
2D9
  8
0
 62
     9
 10
0.0
 20
0.0
 30
0.0
 70
   128
 71
    19
 72
    29
 73
    21
  0
VERTEX
  5
2DA
  8
0
 62
     9
 10
0.0
 20
0.0
 30
0.0
 70
   128
 71
     4
 72
     5
 73
    17
  0
VERTEX
  5
2DB
  8
0
 62
     9
 10
0.0
 20
0.0
 30
0.0
 70
   128
 71
     7
 72
    10
 73
    13
  0
VERTEX
  5
2DC
  8
0
 62
     9
 10
0.0
 20
0.0
 30
0.0
 70
   128
 71
     6
 72
    18
 73
     9
  0
VERTEX
  5
2DD
  8
0
 62
     9
 10
0.0
 20
0.0
 30
0.0
 70
   128
 71
     1
 72
    26
 73
     3
  0
SEQEND
  5
2DE
  8
0
 62
     9
  0
ENDBLK
  5
2E1
  8
0
  0
BLOCK
  8
0
  2
E3_NODE_10_
 70
     0
 10
0.0
 20
0.0
 30
0.0
  3
E3_NODE_10_
  1

  0
POLYLINE
  5
2E3
  8
0
 62
     9
 66
     1
 10
0.0
 20
0.0
 30
0.0
 70
    64
 71
    55
 72
    54
  0
VERTEX
  5
2E4
  8
0
 10
9.513999938964844
 20
58.24399948120117
 30
68.95999908447266
 70
   192
  0
VERTEX
  5
2E5
  8
0
 10
-23.60799980163574
 20
58.24399948120117
 30
33.80599975585938
 70
   192
  0
VERTEX
  5
2E6
  8
0
 10
-20.8120002746582
 20
58.24399948120117
 30
30.19300079345703
 70
   192
  0
VERTEX
  5
2E7
  8
0
 10
-25.70100021362305
 20
58.24399948120117
 30
36.94100189208984
 70
   192
  0
VERTEX
  5
2E8
  8
0
 10
-24.95999908447266
 20
58.24399948120117
 30
35.55199813842773
 70
   192
  0
VERTEX
  5
2E9
  8
0
 10
-27.58399963378906
 20
58.24399948120117
 30
42.58599853515625
 70
   192
  0
VERTEX
  5
2EA
  8
0
 10
-28.26399993896484
 20
58.24399948120117
 30
47.4640007019043
 70
   192
  0
VERTEX
  5
2EB
  8
0
 10
-27.8430004119873
 20
58.24399948120117
 30
43.36100006103516
 70
   192
  0
VERTEX
  5
2EC
  8
0
 10
-28.0
 20
58.24399948120117
 30
51.57899856567383
 70
   192
  0
VERTEX
  5
2ED
  8
0
 10
-27.87100028991699
 20
58.24399948120117
 30
52.25600051879883
 70
   192
  0
VERTEX
  5
2EE
  8
0
 10
-26.34499931335449
 20
58.24399948120117
 30
57.52299880981445
 70
   192
  0
VERTEX
  5
2EF
  8
0
 10
-27.61499977111816
 20
58.24399948120117
 30
53.5989990234375
 70
   192
  0
VERTEX
  5
2F0
  8
0
 10
-24.18899917602539
 20
58.24399948120117
 30
61.17399978637695
 70
   192
  0
VERTEX
  5
2F1
  8
0
 10
-25.68199920654297
 20
58.24399948120117
 30
58.97700119018555
 70
   192
  0
VERTEX
  5
2F2
  8
0
 10
-20.7819995880127
 20
58.24399948120117
 30
65.71499633789062
 70
   192
  0
VERTEX
  5
2F3
  8
0
 10
-21.87599945068359
 20
58.24399948120117
 30
64.5770034790039
 70
   192
  0
VERTEX
  5
2F4
  8
0
 10
-17.54400062561035
 20
58.24399948120117
 30
68.11199951171875
 70
   192
  0
VERTEX
  5
2F5
  8
0
 10
-13.91300010681152
 20
58.24399948120117
 30
70.46399688720703
 70
   192
  0
VERTEX
  5
2F6
  8
0
 10
-15.33699989318848
 20
58.24399948120117
 30
69.74400329589844
 70
   192
  0
VERTEX
  5
2F7
  8
0
 10
-8.758000373840332
 20
58.24399948120117
 30
72.05599975585938
 70
   192
  0
VERTEX
  5
2F8
  8
0
 10
3.459000110626221
 20
58.24399948120117
 30
71.81900024414062
 70
   192
  0
VERTEX
  5
2F9
  8
0
 10
0.8970000147819519
 20
58.24399948120117
 30
72.41200256347656
 70
   192
  0
VERTEX
  5
2FA
  8
0
 10
-5.875
 20
58.24399948120117
 30
72.66799926757812
 70
   192
  0
VERTEX
  5
2FB
  8
0
 10
4.968999862670898
 20
58.24399948120117
 30
71.33100128173828
 70
   192
  0
VERTEX
  5
2FC
  8
0
 10
-7.447000026702881
 20
58.24399948120117
 30
72.46099853515625
 70
   192
  0
VERTEX
  5
2FD
  8
0
 10
-19.65399932861328
 20
58.24399948120117
 30
29.12700080871582
 70
   192
  0
VERTEX
  5
2FE
  8
0
 10
16.70599937438965
 20
58.24399948120117
 30
62.4640007019043
 70
   192
  0
VERTEX
  5
2FF
  8
0
 10
12.23999977111816
 20
58.24399948120117
 30
67.23600006103516
 70
   192
  0
VERTEX
  5
300
  8
0
 10
10.97500038146973
 20
58.24399948120117
 30
68.1969985961914
 70
   192
  0
VERTEX
  5
301
  8
0
 10
13.75500011444092
 20
58.24399948120117
 30
45.1510009765625
 70
   192
  0
VERTEX
  5
302
  8
0
 10
20.47400093078613
 20
58.24399948120117
 30
54.77299880981445
 70
   192
  0
VERTEX
  5
303
  8
0
 10
17.74099922180176
 20
58.24399948120117
 30
60.97200012207031
 70
   192
  0
VERTEX
  5
304
  8
0
 10
21.38899993896484
 20
58.24399948120117
 30
46.47900009155273
 70
   192
  0
VERTEX
  5
305
  8
0
 10
20.86199951171875
 20
58.24399948120117
 30
53.23300170898438
 70
   192
  0
VERTEX
  5
306
  8
0
 10
20.97500038146973
 20
58.24399948120117
 30
43.88199996948242
 70
   192
  0
VERTEX
  5
307
  8
0
 10
21.24600028991699
 20
58.24399948120117
 30
44.90299987792969
 70
   192
  0
VERTEX
  5
308
  8
0
 10
16.86800003051758
 20
58.24399948120117
 30
62.29199981689453
 70
   192
  0
VERTEX
  5
309
  8
0
 10
18.84600067138672
 20
58.24399948120117
 30
36.90200042724609
 70
   192
  0
VERTEX
  5
30A
  8
0
 10
19.51000022888184
 20
58.24399948120117
 30
38.35499954223633
 70
   192
  0
VERTEX
  5
30B
  8
0
 10
17.45199966430664
 20
58.24399948120117
 30
34.85100173950195
 70
   192
  0
VERTEX
  5
30C
  8
0
 10
13.94699954986572
 20
58.24399948120117
 30
30.16399955749512
 70
   192
  0
VERTEX
  5
30D
  8
0
 10
15.03999996185303
 20
58.24399948120117
 30
31.30200004577637
 70
   192
  0
VERTEX
  5
30E
  8
0
 10
10.80300045013428
 20
58.24399948120117
 30
27.83699989318848
 70
   192
  0
VERTEX
  5
30F
  8
0
 10
7.077000141143799
 20
58.24399948120117
 30
25.41399955749512
 70
   192
  0
VERTEX
  5
310
  8
0
 10
8.50100040435791
 20
58.24399948120117
 30
26.13400077819824
 70
   192
  0
VERTEX
  5
311
  8
0
 10
1.978000044822693
 20
58.24399948120117
 30
23.84000015258789
 70
   192
  0
VERTEX
  5
312
  8
0
 10
-0.9610000252723694
 20
58.24399948120117
 30
23.21100044250488
 70
   192
  0
VERTEX
  5
313
  8
0
 10
0.6110000014305115
 20
58.24399948120117
 30
23.41799926757812
 70
   192
  0
VERTEX
  5
314
  8
0
 10
-7.732999801635742
 20
58.24399948120117
 30
23.46699905395508
 70
   192
  0
VERTEX
  5
315
  8
0
 10
-8.958999633789062
 20
58.24399948120117
 30
23.71500015258789
 70
   192
  0
VERTEX
  5
316
  8
0
 10
-10.16699981689453
 20
58.24399948120117
 30
24.02400016784668
 70
   192
  0
VERTEX
  5
317
  8
0
 10
-11.3459997177124
 20
58.24399948120117
 30
24.38800048828125
 70
   192
  0
VERTEX
  5
318
  8
0
 10
-16.64999961853027
 20
58.24399948120117
 30
27.17900085449219
 70
   192
  0
VERTEX
  5
319
  8
0
 10
-13.97299957275391
 20
58.24399948120117
 30
25.44300079345703
 70
   192
  0
VERTEX
  5
31A
  8
0
 10
-12.50500011444092
 20
58.24399948120117
 30
24.80999946594238
 70
   192
  0
VERTEX
  5
31B
  8
0
 62
     9
 10
0.0
 20
0.0
 30
0.0
 70
   128
 71
     3
 72
     2
 73
     1
  0
VERTEX
  5
31C
  8
0
 62
     9
 10
0.0
 20
0.0
 30
0.0
 70
   128
 71
     5
 72
     4
 73
     1
  0
VERTEX
  5
31D
  8
0
 62
     9
 10
0.0
 20
0.0
 30
0.0
 70
   128
 71
     4
 72
     6
 73
     1
  0
VERTEX
  5
31E
  8
0
 62
     9
 10
0.0
 20
0.0
 30
0.0
 70
   128
 71
     8
 72
     7
 73
     1
  0
VERTEX
  5
31F
  8
0
 62
     9
 10
0.0
 20
0.0
 30
0.0
 70
   128
 71
     7
 72
     9
 73
     1
  0
VERTEX
  5
320
  8
0
 62
     9
 10
0.0
 20
0.0
 30
0.0
 70
   128
 71
     9
 72
    10
 73
     1
  0
VERTEX
  5
321
  8
0
 62
     9
 10
0.0
 20
0.0
 30
0.0
 70
   128
 71
     1
 72
     6
 73
     8
  0
VERTEX
  5
322
  8
0
 62
     9
 10
0.0
 20
0.0
 30
0.0
 70
   128
 71
     1
 72
     2
 73
     5
  0
VERTEX
  5
323
  8
0
 62
     9
 10
0.0
 20
0.0
 30
0.0
 70
   128
 71
    12
 72
    11
 73
     1
  0
VERTEX
  5
324
  8
0
 62
     9
 10
0.0
 20
0.0
 30
0.0
 70
   128
 71
    14
 72
    13
 73
     1
  0
VERTEX
  5
325
  8
0
 62
     9
 10
0.0
 20
0.0
 30
0.0
 70
   128
 71
     1
 72
    11
 73
    14
  0
VERTEX
  5
326
  8
0
 62
     9
 10
0.0
 20
0.0
 30
0.0
 70
   128
 71
    16
 72
    15
 73
     1
  0
VERTEX
  5
327
  8
0
 62
     9
 10
0.0
 20
0.0
 30
0.0
 70
   128
 71
    15
 72
    17
 73
     1
  0
VERTEX
  5
328
  8
0
 62
     9
 10
0.0
 20
0.0
 30
0.0
 70
   128
 71
    19
 72
    18
 73
     1
  0
VERTEX
  5
329
  8
0
 62
     9
 10
0.0
 20
0.0
 30
0.0
 70
   128
 71
    18
 72
    20
 73
     1
  0
VERTEX
  5
32A
  8
0
 62
     9
 10
0.0
 20
0.0
 30
0.0
 70
   128
 71
    22
 72
    21
 73
    20
  0
VERTEX
  5
32B
  8
0
 62
     9
 10
0.0
 20
0.0
 30
0.0
 70
   128
 71
    20
 72
    23
 73
    22
  0
VERTEX
  5
32C
  8
0
 62
     9
 10
0.0
 20
0.0
 30
0.0
 70
   128
 71
    24
 72
     1
 73
    20
  0
VERTEX
  5
32D
  8
0
 62
     9
 10
0.0
 20
0.0
 30
0.0
 70
   128
 71
    20
 72
    21
 73
    24
  0
VERTEX
  5
32E
  8
0
 62
     9
 10
0.0
 20
0.0
 30
0.0
 70
   128
 71
    20
 72
    25
 73
    23
  0
VERTEX
  5
32F
  8
0
 62
     9
 10
0.0
 20
0.0
 30
0.0
 70
   128
 71
     1
 72
    17
 73
    19
  0
VERTEX
  5
330
  8
0
 62
     9
 10
0.0
 20
0.0
 30
0.0
 70
   128
 71
     1
 72
    13
 73
    16
  0
VERTEX
  5
331
  8
0
 62
     9
 10
0.0
 20
0.0
 30
0.0
 70
   128
 71
     1
 72
    10
 73
    12
  0
VERTEX
  5
332
  8
0
 62
     9
 10
0.0
 20
0.0
 30
0.0
 70
   128
 71
    28
 72
    27
 73
    26
  0
VERTEX
  5
333
  8
0
 62
     9
 10
0.0
 20
0.0
 30
0.0
 70
   128
 71
    26
 72
    29
 73
    28
  0
VERTEX
  5
334
  8
0
 62
     9
 10
0.0
 20
0.0
 30
0.0
 70
   128
 71
    26
 72
     1
 73
    29
  0
VERTEX
  5
335
  8
0
 62
     9
 10
0.0
 20
0.0
 30
0.0
 70
   128
 71
    32
 72
    31
 73
    30
  0
VERTEX
  5
336
  8
0
 62
     9
 10
0.0
 20
0.0
 30
0.0
 70
   128
 71
    34
 72
    33
 73
    30
  0
VERTEX
  5
337
  8
0
 62
     9
 10
0.0
 20
0.0
 30
0.0
 70
   128
 71
    30
 72
    31
 73
    34
  0
VERTEX
  5
338
  8
0
 62
     9
 10
0.0
 20
0.0
 30
0.0
 70
   128
 71
    36
 72
    35
 73
    30
  0
VERTEX
  5
339
  8
0
 62
     9
 10
0.0
 20
0.0
 30
0.0
 70
   128
 71
    30
 72
    33
 73
    36
  0
VERTEX
  5
33A
  8
0
 62
     9
 10
0.0
 20
0.0
 30
0.0
 70
   128
 71
    30
 72
    37
 73
    32
  0
VERTEX
  5
33B
  8
0
 62
     9
 10
0.0
 20
0.0
 30
0.0
 70
   128
 71
    39
 72
    38
 73
    30
  0
VERTEX
  5
33C
  8
0
 62
     9
 10
0.0
 20
0.0
 30
0.0
 70
   128
 71
    38
 72
    40
 73
    30
  0
VERTEX
  5
33D
  8
0
 62
     9
 10
0.0
 20
0.0
 30
0.0
 70
   128
 71
    42
 72
    41
 73
    30
  0
VERTEX
  5
33E
  8
0
 62
     9
 10
0.0
 20
0.0
 30
0.0
 70
   128
 71
    41
 72
    43
 73
    30
  0
VERTEX
  5
33F
  8
0
 62
     9
 10
0.0
 20
0.0
 30
0.0
 70
   128
 71
    30
 72
    40
 73
    42
  0
VERTEX
  5
340
  8
0
 62
     9
 10
0.0
 20
0.0
 30
0.0
 70
   128
 71
    30
 72
    35
 73
    39
  0
VERTEX
  5
341
  8
0
 62
     9
 10
0.0
 20
0.0
 30
0.0
 70
   128
 71
    45
 72
    44
 73
    30
  0
VERTEX
  5
342
  8
0
 62
     9
 10
0.0
 20
0.0
 30
0.0
 70
   128
 71
    44
 72
    46
 73
    30
  0
VERTEX
  5
343
  8
0
 62
     9
 10
0.0
 20
0.0
 30
0.0
 70
   128
 71
    48
 72
    47
 73
    30
  0
VERTEX
  5
344
  8
0
 62
     9
 10
0.0
 20
0.0
 30
0.0
 70
   128
 71
    47
 72
    49
 73
    30
  0
VERTEX
  5
345
  8
0
 62
     9
 10
0.0
 20
0.0
 30
0.0
 70
   128
 71
    49
 72
    50
 73
    30
  0
VERTEX
  5
346
  8
0
 62
     9
 10
0.0
 20
0.0
 30
0.0
 70
   128
 71
    50
 72
    51
 73
    30
  0
VERTEX
  5
347
  8
0
 62
     9
 10
0.0
 20
0.0
 30
0.0
 70
   128
 71
    51
 72
    52
 73
    30
  0
VERTEX
  5
348
  8
0
 62
     9
 10
0.0
 20
0.0
 30
0.0
 70
   128
 71
    54
 72
    53
 73
    30
  0
VERTEX
  5
349
  8
0
 62
     9
 10
0.0
 20
0.0
 30
0.0
 70
   128
 71
    30
 72
    55
 73
    54
  0
VERTEX
  5
34A
  8
0
 62
     9
 10
0.0
 20
0.0
 30
0.0
 70
   128
 71
    30
 72
    52
 73
    55
  0
VERTEX
  5
34B
  8
0
 62
     9
 10
0.0
 20
0.0
 30
0.0
 70
   128
 71
    53
 72
    26
 73
    30
  0
VERTEX
  5
34C
  8
0
 62
     9
 10
0.0
 20
0.0
 30
0.0
 70
   128
 71
    30
 72
    46
 73
    48
  0
VERTEX
  5
34D
  8
0
 62
     9
 10
0.0
 20
0.0
 30
0.0
 70
   128
 71
    30
 72
    43
 73
    45
  0
VERTEX
  5
34E
  8
0
 62
     9
 10
0.0
 20
0.0
 30
0.0
 70
   128
 71
    26
 72
    27
 73
    30
  0
VERTEX
  5
34F
  8
0
 62
     9
 10
0.0
 20
0.0
 30
0.0
 70
   128
 71
    30
 72
    27
 73
    37
  0
VERTEX
  5
350
  8
0
 62
     9
 10
0.0
 20
0.0
 30
0.0
 70
   128
 71
     1
 72
    26
 73
     3
  0
SEQEND
  5
351
  8
0
 62
     9
  0
ENDBLK
  5
354
  8
0
  0
BLOCK
  8
0
  2
E3_NODE_11_
 70
     0
 10
0.0
 20
0.0
 30
0.0
  3
E3_NODE_11_
  1

  0
POLYLINE
  5
356
  8
0
 62
     9
 66
     1
 10
0.0
 20
0.0
 30
0.0
 70
    64
 71
    76
 72
    81
  0
VERTEX
  5
357
  8
0
 10
-24.31399917602539
 20
74.76399993896484
 30
61.13600158691406
 70
   192
  0
VERTEX
  5
358
  8
0
 10
-26.34499931335449
 20
58.24399948120117
 30
57.52299880981445
 70
   192
  0
VERTEX
  5
359
  8
0
 10
-25.68199920654297
 20
58.24399948120117
 30
58.97700119018555
 70
   192
  0
VERTEX
  5
35A
  8
0
 10
-27.77899932861328
 20
73.57499694824219
 30
52.20000076293945
 70
   192
  0
VERTEX
  5
35B
  8
0
 10
-27.61499977111816
 20
58.24399948120117
 30
53.5989990234375
 70
   192
  0
VERTEX
  5
35C
  8
0
 10
-27.87100028991699
 20
58.24399948120117
 30
52.25600051879883
 70
   192
  0
VERTEX
  5
35D
  8
0
 10
-16.77599906921387
 20
70.7030029296875
 30
27.08300018310547
 70
   192
  0
VERTEX
  5
35E
  8
0
 10
-12.50500011444092
 20
58.24399948120117
 30
24.80999946594238
 70
   192
  0
VERTEX
  5
35F
  8
0
 10
-13.97299957275391
 20
58.24399948120117
 30
25.44300079345703
 70
   192
  0
VERTEX
  5
360
  8
0
 10
-7.718999862670898
 20
70.46099853515625
 30
23.54599952697754
 70
   192
  0
VERTEX
  5
361
  8
0
 10
-11.3459997177124
 20
58.24399948120117
 30
24.38800048828125
 70
   192
  0
VERTEX
  5
362
  8
0
 10
-7.732999801635742
 20
58.24399948120117
 30
23.46699905395508
 70
   192
  0
VERTEX
  5
363
  8
0
 10
-8.958999633789062
 20
58.24399948120117
 30
23.71500015258789
 70
   192
  0
VERTEX
  5
364
  8
0
 10
-10.16699981689453
 20
58.24399948120117
 30
24.02400016784668
 70
   192
  0
VERTEX
  5
365
  8
0
 10
-27.58300018310547
 20
72.39299774169922
 30
42.61199951171875
 70
   192
  0
VERTEX
  5
366
  8
0
 10
-23.73600006103516
 20
71.38500213623047
 30
33.79199981689453
 70
   192
  0
VERTEX
  5
367
  8
0
 10
-25.70100021362305
 20
58.24399948120117
 30
36.94100189208984
 70
   192
  0
VERTEX
  5
368
  8
0
 10
-23.60799980163574
 20
58.24399948120117
 30
33.80599975585938
 70
   192
  0
VERTEX
  5
369
  8
0
 10
-24.95999908447266
 20
58.24399948120117
 30
35.55199813842773
 70
   192
  0
VERTEX
  5
36A
  8
0
 10
-19.65399932861328
 20
58.24399948120117
 30
29.12700080871582
 70
   192
  0
VERTEX
  5
36B
  8
0
 10
-20.8120002746582
 20
58.24399948120117
 30
30.19300079345703
 70
   192
  0
VERTEX
  5
36C
  8
0
 10
-16.64999961853027
 20
58.24399948120117
 30
27.17900085449219
 70
   192
  0
VERTEX
  5
36D
  8
0
 10
-27.8430004119873
 20
58.24399948120117
 30
43.36100006103516
 70
   192
  0
VERTEX
  5
36E
  8
0
 10
-28.26399993896484
 20
58.24399948120117
 30
47.4640007019043
 70
   192
  0
VERTEX
  5
36F
  8
0
 10
-27.58399963378906
 20
58.24399948120117
 30
42.58599853515625
 70
   192
  0
VERTEX
  5
370
  8
0
 10
-28.0
 20
58.24399948120117
 30
51.57899856567383
 70
   192
  0
VERTEX
  5
371
  8
0
 10
-8.843999862670898
 20
76.48999786376953
 30
72.02899932861328
 70
   192
  0
VERTEX
  5
372
  8
0
 10
-17.69000053405762
 20
75.79000091552734
 30
68.10099792480469
 70
   192
  0
VERTEX
  5
373
  8
0
 10
-13.91300010681152
 20
58.24399948120117
 30
70.46399688720703
 70
   192
  0
VERTEX
  5
374
  8
0
 10
-17.54400062561035
 20
58.24399948120117
 30
68.11199951171875
 70
   192
  0
VERTEX
  5
375
  8
0
 10
-15.33699989318848
 20
58.24399948120117
 30
69.74400329589844
 70
   192
  0
VERTEX
  5
376
  8
0
 10
-21.87599945068359
 20
58.24399948120117
 30
64.5770034790039
 70
   192
  0
VERTEX
  5
377
  8
0
 10
-20.7819995880127
 20
58.24399948120117
 30
65.71499633789062
 70
   192
  0
VERTEX
  5
378
  8
0
 10
-24.18899917602539
 20
58.24399948120117
 30
61.17399978637695
 70
   192
  0
VERTEX
  5
379
  8
0
 10
0.8700000047683716
 20
76.73999786376953
 30
72.25399780273438
 70
   192
  0
VERTEX
  5
37A
  8
0
 10
-5.875
 20
58.24399948120117
 30
72.66799926757812
 70
   192
  0
VERTEX
  5
37B
  8
0
 10
-8.758000373840332
 20
58.24399948120117
 30
72.05599975585938
 70
   192
  0
VERTEX
  5
37C
  8
0
 10
-7.447000026702881
 20
58.24399948120117
 30
72.46099853515625
 70
   192
  0
VERTEX
  5
37D
  8
0
 10
-3.359999895095825
 20
86.26000213623047
 30
72.5469970703125
 70
   192
  0
VERTEX
  5
37E
  8
0
 10
-4.037000179290771
 20
94.88300323486328
 30
72.46499633789062
 70
   192
  0
VERTEX
  5
37F
  8
0
 10
-5.456999778747559
 20
94.80000305175781
 30
72.38899993896484
 70
   192
  0
VERTEX
  5
380
  8
0
 10
0.8519999980926514
 20
88.57599639892578
 30
72.15299987792969
 70
   192
  0
VERTEX
  5
381
  8
0
 10
0.8420000076293945
 20
95.00800323486328
 30
72.0989990234375
 70
   192
  0
VERTEX
  5
382
  8
0
 10
-8.696000099182129
 20
94.4739990234375
 30
71.6729965209961
 70
   192
  0
VERTEX
  5
383
  8
0
 10
-8.831000328063965
 20
94.45999908447266
 30
71.64299774169922
 70
   192
  0
VERTEX
  5
384
  8
0
 10
-4.151999950408936
 20
83.57099914550781
 30
72.55999755859375
 70
   192
  0
VERTEX
  5
385
  8
0
 10
-4.151000022888184
 20
83.57599639892578
 30
72.55999755859375
 70
   192
  0
VERTEX
  5
386
  8
0
 10
-4.013999938964844
 20
82.4280014038086
 30
72.572998046875
 70
   192
  0
VERTEX
  5
387
  8
0
 10
-4.021999835968018
 20
84.7020034790039
 30
72.55400085449219
 70
   192
  0
VERTEX
  5
388
  8
0
 10
-3.338000059127808
 20
80.87000274658203
 30
72.59400177001953
 70
   192
  0
VERTEX
  5
389
  8
0
 10
0.8669999837875366
 20
78.57599639892578
 30
72.23899841308594
 70
   192
  0
VERTEX
  5
38A
  8
0
 10
-13.20499992370605
 20
93.96299743652344
 30
70.44999694824219
 70
   192
  0
VERTEX
  5
38B
  8
0
 10
-17.39100074768066
 20
93.13700103759766
 30
67.91699981689453
 70
   192
  0
VERTEX
  5
38C
  8
0
 10
-11.9370002746582
 20
94.14800262451172
 30
70.95600128173828
 70
   192
  0
VERTEX
  5
38D
  8
0
 10
-19.99200057983398
 20
92.55500030517578
 30
66.06800079345703
 70
   192
  0
VERTEX
  5
38E
  8
0
 10
-24.28700065612793
 20
91.072998046875
 30
60.93000030517578
 70
   192
  0
VERTEX
  5
38F
  8
0
 10
-17.61800003051758
 20
93.09200286865234
 30
67.77999877929688
 70
   192
  0
VERTEX
  5
390
  8
0
 10
-18.89800071716309
 20
92.83999633789062
 30
67.00599670410156
 70
   192
  0
VERTEX
  5
391
  8
0
 10
-27.45100021362305
 20
89.00499725341797
 30
53.23199844360352
 70
   192
  0
VERTEX
  5
392
  8
0
 10
-25.09600067138672
 20
90.68800354003906
 30
59.54000091552734
 70
   192
  0
VERTEX
  5
393
  8
0
 10
-27.58799934387207
 20
88.81500244140625
 30
52.49499893188477
 70
   192
  0
VERTEX
  5
394
  8
0
 10
-27.84499931335449
 20
86.87200164794922
 30
44.73899841308594
 70
   192
  0
VERTEX
  5
395
  8
0
 10
-27.77700042724609
 20
88.5530014038086
 30
51.47900009155273
 70
   192
  0
VERTEX
  5
396
  8
0
 10
-27.65399932861328
 20
88.7229995727539
 30
52.13899993896484
 70
   192
  0
VERTEX
  5
397
  8
0
 10
-24.39599990844727
 20
84.60099792480469
 30
34.96900177001953
 70
   192
  0
VERTEX
  5
398
  8
0
 10
-23.76000022888184
 20
84.43699645996094
 30
34.19400024414062
 70
   192
  0
VERTEX
  5
399
  8
0
 10
-25.29700088500977
 20
84.95600128173828
 30
36.5629997253418
 70
   192
  0
VERTEX
  5
39A
  8
0
 10
-27.5359992980957
 20
86.42400360107422
 30
42.88600158691406
 70
   192
  0
VERTEX
  5
39B
  8
0
 10
-18.86800003051758
 20
83.29299926757812
 30
28.6919994354248
 70
   192
  0
VERTEX
  5
39C
  8
0
 10
-16.78300094604492
 20
83.0739974975586
 30
27.43499946594238
 70
   192
  0
VERTEX
  5
39D
  8
0
 10
-20.1569995880127
 20
83.51100158691406
 30
29.80599975585938
 70
   192
  0
VERTEX
  5
39E
  8
0
 10
-23.59099960327148
 20
84.39399719238281
 30
33.98799896240234
 70
   192
  0
VERTEX
  5
39F
  8
0
 10
-13.17000007629395
 20
82.69499969482422
 30
25.25799942016602
 70
   192
  0
VERTEX
  5
3A0
  8
0
 10
-16.6609992980957
 20
83.06099700927734
 30
27.36199951171875
 70
   192
  0
VERTEX
  5
3A1
  8
0
 10
-7.704999923706055
 20
82.52999877929688
 30
23.62299919128418
 70
   192
  0
VERTEX
  5
3A2
  8
0
 10
0.8970000147819519
 20
58.24399948120117
 30
72.41200256347656
 70
   192
  0
VERTEX
  5
3A3
  8
0
 62
     9
 10
0.0
 20
0.0
 30
0.0
 70
   128
 71
     3
 72
     2
 73
     1
  0
VERTEX
  5
3A4
  8
0
 62
     9
 10
0.0
 20
0.0
 30
0.0
 70
   128
 71
     2
 72
     5
 73
     4
  0
VERTEX
  5
3A5
  8
0
 62
     9
 10
0.0
 20
0.0
 30
0.0
 70
   128
 71
     5
 72
     6
 73
     4
  0
VERTEX
  5
3A6
  8
0
 62
     9
 10
0.0
 20
0.0
 30
0.0
 70
   128
 71
     4
 72
     1
 73
     2
  0
VERTEX
  5
3A7
  8
0
 62
     9
 10
0.0
 20
0.0
 30
0.0
 70
   128
 71
     9
 72
     8
 73
     7
  0
VERTEX
  5
3A8
  8
0
 62
     9
 10
0.0
 20
0.0
 30
0.0
 70
   128
 71
     8
 72
    11
 73
    10
  0
VERTEX
  5
3A9
  8
0
 62
     9
 10
0.0
 20
0.0
 30
0.0
 70
   128
 71
    10
 72
     7
 73
     8
  0
VERTEX
  5
3AA
  8
0
 62
     9
 10
0.0
 20
0.0
 30
0.0
 70
   128
 71
    13
 72
    12
 73
    10
  0
VERTEX
  5
3AB
  8
0
 62
     9
 10
0.0
 20
0.0
 30
0.0
 70
   128
 71
    10
 72
    14
 73
    13
  0
VERTEX
  5
3AC
  8
0
 62
     9
 10
0.0
 20
0.0
 30
0.0
 70
   128
 71
    10
 72
    11
 73
    14
  0
VERTEX
  5
3AD
  8
0
 62
     9
 10
0.0
 20
0.0
 30
0.0
 70
   128
 71
    17
 72
    16
 73
    15
  0
VERTEX
  5
3AE
  8
0
 62
     9
 10
0.0
 20
0.0
 30
0.0
 70
   128
 71
    19
 72
    18
 73
    16
  0
VERTEX
  5
3AF
  8
0
 62
     9
 10
0.0
 20
0.0
 30
0.0
 70
   128
 71
    16
 72
    17
 73
    19
  0
VERTEX
  5
3B0
  8
0
 62
     9
 10
0.0
 20
0.0
 30
0.0
 70
   128
 71
    21
 72
    20
 73
     7
  0
VERTEX
  5
3B1
  8
0
 62
     9
 10
0.0
 20
0.0
 30
0.0
 70
   128
 71
    20
 72
    22
 73
     7
  0
VERTEX
  5
3B2
  8
0
 62
     9
 10
0.0
 20
0.0
 30
0.0
 70
   128
 71
     7
 72
    16
 73
    21
  0
VERTEX
  5
3B3
  8
0
 62
     9
 10
0.0
 20
0.0
 30
0.0
 70
   128
 71
    24
 72
    23
 73
    15
  0
VERTEX
  5
3B4
  8
0
 62
     9
 10
0.0
 20
0.0
 30
0.0
 70
   128
 71
    23
 72
    25
 73
    15
  0
VERTEX
  5
3B5
  8
0
 62
     9
 10
0.0
 20
0.0
 30
0.0
 70
   128
 71
    15
 72
     4
 73
    24
  0
VERTEX
  5
3B6
  8
0
 62
     9
 10
0.0
 20
0.0
 30
0.0
 70
   128
 71
     4
 72
    26
 73
    24
  0
VERTEX
  5
3B7
  8
0
 62
     9
 10
0.0
 20
0.0
 30
0.0
 70
   128
 71
    29
 72
    28
 73
    27
  0
VERTEX
  5
3B8
  8
0
 62
     9
 10
0.0
 20
0.0
 30
0.0
 70
   128
 71
    31
 72
    30
 73
    28
  0
VERTEX
  5
3B9
  8
0
 62
     9
 10
0.0
 20
0.0
 30
0.0
 70
   128
 71
    28
 72
    29
 73
    31
  0
VERTEX
  5
3BA
  8
0
 62
     9
 10
0.0
 20
0.0
 30
0.0
 70
   128
 71
    32
 72
     1
 73
    28
  0
VERTEX
  5
3BB
  8
0
 62
     9
 10
0.0
 20
0.0
 30
0.0
 70
   128
 71
    28
 72
    33
 73
    32
  0
VERTEX
  5
3BC
  8
0
 62
     9
 10
0.0
 20
0.0
 30
0.0
 70
   128
 71
    32
 72
    34
 73
     1
  0
VERTEX
  5
3BD
  8
0
 62
     9
 10
0.0
 20
0.0
 30
0.0
 70
   128
 71
    36
 72
    27
 73
    35
  0
VERTEX
  5
3BE
  8
0
 62
     9
 10
0.0
 20
0.0
 30
0.0
 70
   128
 71
    38
 72
    37
 73
    27
  0
VERTEX
  5
3BF
  8
0
 62
     9
 10
0.0
 20
0.0
 30
0.0
 70
   128
 71
    27
 72
    36
 73
    38
  0
VERTEX
  5
3C0
  8
0
 62
     9
 10
0.0
 20
0.0
 30
0.0
 70
   128
 71
    41
 72
    40
 73
    39
  0
VERTEX
  5
3C1
  8
0
 62
     9
 10
0.0
 20
0.0
 30
0.0
 70
   128
 71
    42
 72
    39
 73
    40
  0
VERTEX
  5
3C2
  8
0
 62
     9
 10
0.0
 20
0.0
 30
0.0
 70
   128
 71
    40
 72
    43
 73
    42
  0
VERTEX
  5
3C3
  8
0
 62
     9
 10
0.0
 20
0.0
 30
0.0
 70
   128
 71
    39
 72
    44
 73
    41
  0
VERTEX
  5
3C4
  8
0
 62
     9
 10
0.0
 20
0.0
 30
0.0
 70
   128
 71
    46
 72
    27
 73
    45
  0
VERTEX
  5
3C5
  8
0
 62
     9
 10
0.0
 20
0.0
 30
0.0
 70
   128
 71
    45
 72
    47
 73
    46
  0
VERTEX
  5
3C6
  8
0
 62
     9
 10
0.0
 20
0.0
 30
0.0
 70
   128
 71
    46
 72
    48
 73
    27
  0
VERTEX
  5
3C7
  8
0
 62
     9
 10
0.0
 20
0.0
 30
0.0
 70
   128
 71
    45
 72
    49
 73
    47
  0
VERTEX
  5
3C8
  8
0
 62
     9
 10
0.0
 20
0.0
 30
0.0
 70
   128
 71
    48
 72
    50
 73
    27
  0
VERTEX
  5
3C9
  8
0
 62
     9
 10
0.0
 20
0.0
 30
0.0
 70
   128
 71
    51
 72
    35
 73
    27
  0
VERTEX
  5
3CA
  8
0
 62
     9
 10
0.0
 20
0.0
 30
0.0
 70
   128
 71
    27
 72
    50
 73
    51
  0
VERTEX
  5
3CB
  8
0
 62
     9
 10
0.0
 20
0.0
 30
0.0
 70
   128
 71
    45
 72
    39
 73
    49
  0
VERTEX
  5
3CC
  8
0
 62
     9
 10
0.0
 20
0.0
 30
0.0
 70
   128
 71
    53
 72
    52
 73
    27
  0
VERTEX
  5
3CD
  8
0
 62
     9
 10
0.0
 20
0.0
 30
0.0
 70
   128
 71
    54
 72
    45
 73
    27
  0
VERTEX
  5
3CE
  8
0
 62
     9
 10
0.0
 20
0.0
 30
0.0
 70
   128
 71
    27
 72
    52
 73
    54
  0
VERTEX
  5
3CF
  8
0
 62
     9
 10
0.0
 20
0.0
 30
0.0
 70
   128
 71
    27
 72
    28
 73
    53
  0
VERTEX
  5
3D0
  8
0
 62
     9
 10
0.0
 20
0.0
 30
0.0
 70
   128
 71
    56
 72
    55
 73
    28
  0
VERTEX
  5
3D1
  8
0
 62
     9
 10
0.0
 20
0.0
 30
0.0
 70
   128
 71
    58
 72
    57
 73
    28
  0
VERTEX
  5
3D2
  8
0
 62
     9
 10
0.0
 20
0.0
 30
0.0
 70
   128
 71
    28
 72
    55
 73
    58
  0
VERTEX
  5
3D3
  8
0
 62
     9
 10
0.0
 20
0.0
 30
0.0
 70
   128
 71
    59
 72
     1
 73
     4
  0
VERTEX
  5
3D4
  8
0
 62
     9
 10
0.0
 20
0.0
 30
0.0
 70
   128
 71
    59
 72
    60
 73
     1
  0
VERTEX
  5
3D5
  8
0
 62
     9
 10
0.0
 20
0.0
 30
0.0
 70
   128
 71
    60
 72
    56
 73
     1
  0
VERTEX
  5
3D6
  8
0
 62
     9
 10
0.0
 20
0.0
 30
0.0
 70
   128
 71
     4
 72
    61
 73
    59
  0
VERTEX
  5
3D7
  8
0
 62
     9
 10
0.0
 20
0.0
 30
0.0
 70
   128
 71
    62
 72
     4
 73
    15
  0
VERTEX
  5
3D8
  8
0
 62
     9
 10
0.0
 20
0.0
 30
0.0
 70
   128
 71
    62
 72
    63
 73
     4
  0
VERTEX
  5
3D9
  8
0
 62
     9
 10
0.0
 20
0.0
 30
0.0
 70
   128
 71
    63
 72
    64
 73
     4
  0
VERTEX
  5
3DA
  8
0
 62
     9
 10
0.0
 20
0.0
 30
0.0
 70
   128
 71
    66
 72
    65
 73
    16
  0
VERTEX
  5
3DB
  8
0
 62
     9
 10
0.0
 20
0.0
 30
0.0
 70
   128
 71
    65
 72
    67
 73
    15
  0
VERTEX
  5
3DC
  8
0
 62
     9
 10
0.0
 20
0.0
 30
0.0
 70
   128
 71
    67
 72
    68
 73
    15
  0
VERTEX
  5
3DD
  8
0
 62
     9
 10
0.0
 20
0.0
 30
0.0
 70
   128
 71
    15
 72
    16
 73
    65
  0
VERTEX
  5
3DE
  8
0
 62
     9
 10
0.0
 20
0.0
 30
0.0
 70
   128
 71
    70
 72
    69
 73
     7
  0
VERTEX
  5
3DF
  8
0
 62
     9
 10
0.0
 20
0.0
 30
0.0
 70
   128
 71
    69
 72
    71
 73
    16
  0
VERTEX
  5
3E0
  8
0
 62
     9
 10
0.0
 20
0.0
 30
0.0
 70
   128
 71
    71
 72
    72
 73
    16
  0
VERTEX
  5
3E1
  8
0
 62
     9
 10
0.0
 20
0.0
 30
0.0
 70
   128
 71
    16
 72
     7
 73
    69
  0
VERTEX
  5
3E2
  8
0
 62
     9
 10
0.0
 20
0.0
 30
0.0
 70
   128
 71
    73
 72
     7
 73
    10
  0
VERTEX
  5
3E3
  8
0
 62
     9
 10
0.0
 20
0.0
 30
0.0
 70
   128
 71
    73
 72
    74
 73
     7
  0
VERTEX
  5
3E4
  8
0
 62
     9
 10
0.0
 20
0.0
 30
0.0
 70
   128
 71
    10
 72
    75
 73
    73
  0
VERTEX
  5
3E5
  8
0
 62
     9
 10
0.0
 20
0.0
 30
0.0
 70
   128
 71
     7
 72
    74
 73
    70
  0
VERTEX
  5
3E6
  8
0
 62
     9
 10
0.0
 20
0.0
 30
0.0
 70
   128
 71
    16
 72
    72
 73
    66
  0
VERTEX
  5
3E7
  8
0
 62
     9
 10
0.0
 20
0.0
 30
0.0
 70
   128
 71
    15
 72
    68
 73
    62
  0
VERTEX
  5
3E8
  8
0
 62
     9
 10
0.0
 20
0.0
 30
0.0
 70
   128
 71
     4
 72
    64
 73
    61
  0
VERTEX
  5
3E9
  8
0
 62
     9
 10
0.0
 20
0.0
 30
0.0
 70
   128
 71
    28
 72
     1
 73
    56
  0
VERTEX
  5
3EA
  8
0
 62
     9
 10
0.0
 20
0.0
 30
0.0
 70
   128
 71
    28
 72
    57
 73
    53
  0
VERTEX
  5
3EB
  8
0
 62
     9
 10
0.0
 20
0.0
 30
0.0
 70
   128
 71
    39
 72
    45
 73
    44
  0
VERTEX
  5
3EC
  8
0
 62
     9
 10
0.0
 20
0.0
 30
0.0
 70
   128
 71
    35
 72
    76
 73
    36
  0
VERTEX
  5
3ED
  8
0
 62
     9
 10
0.0
 20
0.0
 30
0.0
 70
   128
 71
    28
 72
    30
 73
    33
  0
VERTEX
  5
3EE
  8
0
 62
     9
 10
0.0
 20
0.0
 30
0.0
 70
   128
 71
    27
 72
    37
 73
    29
  0
VERTEX
  5
3EF
  8
0
 62
     9
 10
0.0
 20
0.0
 30
0.0
 70
   128
 71
     4
 72
     6
 73
    26
  0
VERTEX
  5
3F0
  8
0
 62
     9
 10
0.0
 20
0.0
 30
0.0
 70
   128
 71
    16
 72
    18
 73
    21
  0
VERTEX
  5
3F1
  8
0
 62
     9
 10
0.0
 20
0.0
 30
0.0
 70
   128
 71
    15
 72
    25
 73
    17
  0
VERTEX
  5
3F2
  8
0
 62
     9
 10
0.0
 20
0.0
 30
0.0
 70
   128
 71
     7
 72
    22
 73
     9
  0
VERTEX
  5
3F3
  8
0
 62
     9
 10
0.0
 20
0.0
 30
0.0
 70
   128
 71
     1
 72
    34
 73
     3
  0
SEQEND
  5
3F4
  8
0
 62
     9
  0
ENDBLK
  5
3F7
  8
0
  0
BLOCK
  8
0
  2
E3_NODE_12_
 70
     0
 10
0.0
 20
0.0
 30
0.0
  3
E3_NODE_12_
  1

  0
POLYLINE
  5
3F9
  8
0
 62
     9
 66
     1
 10
0.0
 20
0.0
 30
0.0
 70
    64
 71
    65
 72
    70
  0
VERTEX
  5
3FA
  8
0
 10
0.7120000123977661
 20
95.6520004272461
 30
71.35800170898438
 70
   192
  0
VERTEX
  5
3FB
  8
0
 10
0.8420000076293945
 20
95.00800323486328
 30
72.0989990234375
 70
   192
  0
VERTEX
  5
3FC
  8
0
 10
6.288000106811523
 20
94.83899688720703
 30
70.47200012207031
 70
   192
  0
VERTEX
  5
3FD
  8
0
 10
9.144000053405762
 20
95.21499633789062
 30
68.13600158691406
 70
   192
  0
VERTEX
  5
3FE
  8
0
 10
16.0049991607666
 20
93.9000015258789
 30
61.68999862670898
 70
   192
  0
VERTEX
  5
3FF
  8
0
 10
13.28999996185303
 20
94.0
 30
65.91899871826172
 70
   192
  0
VERTEX
  5
400
  8
0
 10
9.446999549865723
 20
94.4990005493164
 30
68.5719985961914
 70
   192
  0
VERTEX
  5
401
  8
0
 10
11.98600006103516
 20
94.22599792480469
 30
67.04499816894531
 70
   192
  0
VERTEX
  5
402
  8
0
 10
9.371000289916992
 20
94.50700378417969
 30
68.61799621582031
 70
   192
  0
VERTEX
  5
403
  8
0
 10
19.82200050354004
 20
91.93299865722656
 30
53.16999816894531
 70
   192
  0
VERTEX
  5
404
  8
0
 10
18.43899917602539
 20
92.51899719238281
 30
59.14899826049805
 70
   192
  0
VERTEX
  5
405
  8
0
 10
16.5
 20
93.15499877929688
 30
62.01100158691406
 70
   192
  0
VERTEX
  5
406
  8
0
 10
17.53499984741211
 20
92.88300323486328
 30
60.75
 70
   192
  0
VERTEX
  5
407
  8
0
 10
16.41200065612793
 20
93.1780014038086
 30
62.11800003051758
 70
   192
  0
VERTEX
  5
408
  8
0
 10
20.09000015258789
 20
89.62200164794922
 30
43.88000106811523
 70
   192
  0
VERTEX
  5
409
  8
0
 10
20.98299980163574
 20
90.5770034790039
 30
50.9739990234375
 70
   192
  0
VERTEX
  5
40A
  8
0
 10
20.44400024414062
 20
91.18099975585938
 30
53.47700119018555
 70
   192
  0
VERTEX
  5
40B
  8
0
 10
20.67600059509277
 20
91.0270004272461
 30
52.82099914550781
 70
   192
  0
VERTEX
  5
40C
  8
0
 10
16.7810001373291
 20
87.3030014038086
 30
35.16799926757812
 70
   192
  0
VERTEX
  5
40D
  8
0
 10
20.59000015258789
 20
88.44100189208984
 30
42.5
 70
   192
  0
VERTEX
  5
40E
  8
0
 10
20.83399963378906
 20
88.77999877929688
 30
43.81399917602539
 70
   192
  0
VERTEX
  5
40F
  8
0
 10
18.24300003051758
 20
86.7699966430664
 30
36.20000076293945
 70
   192
  0
VERTEX
  5
410
  8
0
 10
20.91200065612793
 20
88.88800048828125
 30
44.23300170898438
 70
   192
  0
VERTEX
  5
411
  8
0
 10
10.3129997253418
 20
85.31800079345703
 30
28.33099937438965
 70
   192
  0
VERTEX
  5
412
  8
0
 10
13.15100002288818
 20
84.92900085449219
 30
29.67300033569336
 70
   192
  0
VERTEX
  5
413
  8
0
 10
12.04100036621094
 20
84.6449966430664
 30
28.72100067138672
 70
   192
  0
VERTEX
  5
414
  8
0
 10
17.4370002746582
 20
86.38899993896484
 30
34.8120002746582
 70
   192
  0
VERTEX
  5
415
  8
0
 10
17.51399993896484
 20
86.4260025024414
 30
34.94599914550781
 70
   192
  0
VERTEX
  5
416
  8
0
 10
10.85099983215332
 20
84.41600036621094
 30
28.00099945068359
 70
   192
  0
VERTEX
  5
417
  8
0
 10
1.58299994468689
 20
83.98500061035156
 30
24.49900054931641
 70
   192
  0
VERTEX
  5
418
  8
0
 10
6.341000080108643
 20
83.5459976196289
 30
25.27300071716309
 70
   192
  0
VERTEX
  5
419
  8
0
 10
5.072000026702881
 20
83.36499786376953
 30
24.76499938964844
 70
   192
  0
VERTEX
  5
41A
  8
0
 10
10.78400039672852
 20
84.40299987792969
 30
27.96100044250488
 70
   192
  0
VERTEX
  5
41B
  8
0
 10
2.032000064849854
 20
83.06800079345703
 30
24.0939998626709
 70
   192
  0
VERTEX
  5
41C
  8
0
 10
-7.581999778747559
 20
83.54100036621094
 30
24.32500076293945
 70
   192
  0
VERTEX
  5
41D
  8
0
 10
1.771000027656555
 20
83.04299926757812
 30
24.0359992980957
 70
   192
  0
VERTEX
  5
41E
  8
0
 10
-1.41700005531311
 20
82.73100280761719
 30
23.33200073242188
 70
   192
  0
VERTEX
  5
41F
  8
0
 10
-2.825999975204468
 20
82.6510009765625
 30
23.25699996948242
 70
   192
  0
VERTEX
  5
420
  8
0
 10
-7.704999923706055
 20
82.52999877929688
 30
23.62299919128418
 70
   192
  0
VERTEX
  5
421
  8
0
 10
-7.458000183105469
 20
84.5530014038086
 30
25.02700042724609
 70
   192
  0
VERTEX
  5
422
  8
0
 10
-2.407000064849854
 20
84.69400024414062
 30
24.70100021362305
 70
   192
  0
VERTEX
  5
423
  8
0
 10
-1.001000046730042
 20
84.78299713134766
 30
24.8080005645752
 70
   192
  0
VERTEX
  5
424
  8
0
 10
5.235000133514404
 20
85.44999694824219
 30
26.37599945068359
 70
   192
  0
VERTEX
  5
425
  8
0
 10
6.664000034332275
 20
85.6729965209961
 30
27.01399993896484
 70
   192
  0
VERTEX
  5
426
  8
0
 10
1.28600001335144
 20
85.0270004272461
 30
25.38299942016602
 70
   192
  0
VERTEX
  5
427
  8
0
 10
12.01399993896484
 20
86.81199645996094
 30
30.62700080871582
 70
   192
  0
VERTEX
  5
428
  8
0
 10
13.1560001373291
 20
87.13899993896484
 30
31.73100090026855
 70
   192
  0
VERTEX
  5
429
  8
0
 10
9.625
 20
86.3030014038086
 30
29.01399993896484
 70
   192
  0
VERTEX
  5
42A
  8
0
 10
17.62299919128418
 20
88.98400115966797
 30
38.32300186157227
 70
   192
  0
VERTEX
  5
42B
  8
0
 10
19.21299934387207
 20
90.43000030517578
 30
43.82699966430664
 70
   192
  0
VERTEX
  5
42C
  8
0
 10
16.97100067138672
 20
88.62300109863281
 30
36.99100112915039
 70
   192
  0
VERTEX
  5
42D
  8
0
 10
15.88899993896484
 20
88.2020034790039
 30
35.49900054931641
 70
   192
  0
VERTEX
  5
42E
  8
0
 10
19.58399963378906
 20
90.96600341796875
 30
45.90800094604492
 70
   192
  0
VERTEX
  5
42F
  8
0
 10
19.4370002746582
 20
90.63300323486328
 30
44.60100173950195
 70
   192
  0
VERTEX
  5
430
  8
0
 10
19.21599960327148
 20
90.43299865722656
 30
43.83599853515625
 70
   192
  0
VERTEX
  5
431
  8
0
 10
18.94799995422363
 20
92.84600067138672
 30
53.55199813842773
 70
   192
  0
VERTEX
  5
432
  8
0
 10
16.47599983215332
 20
94.23899841308594
 30
59.56700134277344
 70
   192
  0
VERTEX
  5
433
  8
0
 10
19.20400047302246
 20
92.5780029296875
 30
52.43099975585938
 70
   192
  0
VERTEX
  5
434
  8
0
 10
15.92099952697754
 20
94.43800354003906
 30
60.46500015258789
 70
   192
  0
VERTEX
  5
435
  8
0
 10
15.3769998550415
 20
94.56999969482422
 30
61.0890007019043
 70
   192
  0
VERTEX
  5
436
  8
0
 10
11.67500019073486
 20
95.46700286865234
 30
65.33699798583984
 70
   192
  0
VERTEX
  5
437
  8
0
 10
10.80700016021729
 20
95.60800170898438
 30
66.052001953125
 70
   192
  0
VERTEX
  5
438
  8
0
 10
5.239999771118164
 20
96.16799926757812
 30
69.27799987792969
 70
   192
  0
VERTEX
  5
439
  8
0
 10
8.687000274658203
 20
95.82099914550781
 30
67.28099822998047
 70
   192
  0
VERTEX
  5
43A
  8
0
 10
0.5809999704360962
 20
96.2979965209961
 30
70.61699676513672
 70
   192
  0
VERTEX
  5
43B
  8
0
 62
     9
 10
0.0
 20
0.0
 30
0.0
 70
   128
 71
     3
 72
     2
 73
     1
  0
VERTEX
  5
43C
  8
0
 62
     9
 10
0.0
 20
0.0
 30
0.0
 70
   128
 71
     1
 72
     4
 73
     3
  0
VERTEX
  5
43D
  8
0
 62
     9
 10
0.0
 20
0.0
 30
0.0
 70
   128
 71
     6
 72
     4
 73
     5
  0
VERTEX
  5
43E
  8
0
 62
     9
 10
0.0
 20
0.0
 30
0.0
 70
   128
 71
     8
 72
     7
 73
     4
  0
VERTEX
  5
43F
  8
0
 62
     9
 10
0.0
 20
0.0
 30
0.0
 70
   128
 71
     4
 72
     6
 73
     8
  0
VERTEX
  5
440
  8
0
 62
     9
 10
0.0
 20
0.0
 30
0.0
 70
   128
 71
     7
 72
     9
 73
     4
  0
VERTEX
  5
441
  8
0
 62
     9
 10
0.0
 20
0.0
 30
0.0
 70
   128
 71
    11
 72
     5
 73
    10
  0
VERTEX
  5
442
  8
0
 62
     9
 10
0.0
 20
0.0
 30
0.0
 70
   128
 71
    13
 72
    12
 73
     5
  0
VERTEX
  5
443
  8
0
 62
     9
 10
0.0
 20
0.0
 30
0.0
 70
   128
 71
     5
 72
    11
 73
    13
  0
VERTEX
  5
444
  8
0
 62
     9
 10
0.0
 20
0.0
 30
0.0
 70
   128
 71
    12
 72
    14
 73
     5
  0
VERTEX
  5
445
  8
0
 62
     9
 10
0.0
 20
0.0
 30
0.0
 70
   128
 71
    16
 72
    10
 73
    15
  0
VERTEX
  5
446
  8
0
 62
     9
 10
0.0
 20
0.0
 30
0.0
 70
   128
 71
    18
 72
    17
 73
    10
  0
VERTEX
  5
447
  8
0
 62
     9
 10
0.0
 20
0.0
 30
0.0
 70
   128
 71
    10
 72
    16
 73
    18
  0
VERTEX
  5
448
  8
0
 62
     9
 10
0.0
 20
0.0
 30
0.0
 70
   128
 71
    20
 72
    15
 73
    19
  0
VERTEX
  5
449
  8
0
 62
     9
 10
0.0
 20
0.0
 30
0.0
 70
   128
 71
    20
 72
    21
 73
    15
  0
VERTEX
  5
44A
  8
0
 62
     9
 10
0.0
 20
0.0
 30
0.0
 70
   128
 71
    19
 72
    22
 73
    20
  0
VERTEX
  5
44B
  8
0
 62
     9
 10
0.0
 20
0.0
 30
0.0
 70
   128
 71
    21
 72
    23
 73
    15
  0
VERTEX
  5
44C
  8
0
 62
     9
 10
0.0
 20
0.0
 30
0.0
 70
   128
 71
    26
 72
    25
 73
    24
  0
VERTEX
  5
44D
  8
0
 62
     9
 10
0.0
 20
0.0
 30
0.0
 70
   128
 71
    25
 72
    27
 73
    19
  0
VERTEX
  5
44E
  8
0
 62
     9
 10
0.0
 20
0.0
 30
0.0
 70
   128
 71
    27
 72
    28
 73
    19
  0
VERTEX
  5
44F
  8
0
 62
     9
 10
0.0
 20
0.0
 30
0.0
 70
   128
 71
    19
 72
    24
 73
    25
  0
VERTEX
  5
450
  8
0
 62
     9
 10
0.0
 20
0.0
 30
0.0
 70
   128
 71
    24
 72
    29
 73
    26
  0
VERTEX
  5
451
  8
0
 62
     9
 10
0.0
 20
0.0
 30
0.0
 70
   128
 71
    32
 72
    31
 73
    30
  0
VERTEX
  5
452
  8
0
 62
     9
 10
0.0
 20
0.0
 30
0.0
 70
   128
 71
    31
 72
    33
 73
    24
  0
VERTEX
  5
453
  8
0
 62
     9
 10
0.0
 20
0.0
 30
0.0
 70
   128
 71
    24
 72
    30
 73
    31
  0
VERTEX
  5
454
  8
0
 62
     9
 10
0.0
 20
0.0
 30
0.0
 70
   128
 71
    30
 72
    34
 73
    32
  0
VERTEX
  5
455
  8
0
 62
     9
 10
0.0
 20
0.0
 30
0.0
 70
   128
 71
    37
 72
    36
 73
    35
  0
VERTEX
  5
456
  8
0
 62
     9
 10
0.0
 20
0.0
 30
0.0
 70
   128
 71
    35
 72
    38
 73
    37
  0
VERTEX
  5
457
  8
0
 62
     9
 10
0.0
 20
0.0
 30
0.0
 70
   128
 71
    35
 72
    39
 73
    38
  0
VERTEX
  5
458
  8
0
 62
     9
 10
0.0
 20
0.0
 30
0.0
 70
   128
 71
    41
 72
    40
 73
    35
  0
VERTEX
  5
459
  8
0
 62
     9
 10
0.0
 20
0.0
 30
0.0
 70
   128
 71
    35
 72
    30
 73
    41
  0
VERTEX
  5
45A
  8
0
 62
     9
 10
0.0
 20
0.0
 30
0.0
 70
   128
 71
    30
 72
    42
 73
    41
  0
VERTEX
  5
45B
  8
0
 62
     9
 10
0.0
 20
0.0
 30
0.0
 70
   128
 71
    43
 72
    30
 73
    24
  0
VERTEX
  5
45C
  8
0
 62
     9
 10
0.0
 20
0.0
 30
0.0
 70
   128
 71
    24
 72
    44
 73
    43
  0
VERTEX
  5
45D
  8
0
 62
     9
 10
0.0
 20
0.0
 30
0.0
 70
   128
 71
    43
 72
    45
 73
    30
  0
VERTEX
  5
45E
  8
0
 62
     9
 10
0.0
 20
0.0
 30
0.0
 70
   128
 71
    47
 72
    46
 73
    24
  0
VERTEX
  5
45F
  8
0
 62
     9
 10
0.0
 20
0.0
 30
0.0
 70
   128
 71
    24
 72
    19
 73
    47
  0
VERTEX
  5
460
  8
0
 62
     9
 10
0.0
 20
0.0
 30
0.0
 70
   128
 71
    46
 72
    48
 73
    24
  0
VERTEX
  5
461
  8
0
 62
     9
 10
0.0
 20
0.0
 30
0.0
 70
   128
 71
    49
 72
    19
 73
    15
  0
VERTEX
  5
462
  8
0
 62
     9
 10
0.0
 20
0.0
 30
0.0
 70
   128
 71
    15
 72
    50
 73
    49
  0
VERTEX
  5
463
  8
0
 62
     9
 10
0.0
 20
0.0
 30
0.0
 70
   128
 71
    49
 72
    51
 73
    19
  0
VERTEX
  5
464
  8
0
 62
     9
 10
0.0
 20
0.0
 30
0.0
 70
   128
 71
    51
 72
    52
 73
    19
  0
VERTEX
  5
465
  8
0
 62
     9
 10
0.0
 20
0.0
 30
0.0
 70
   128
 71
    53
 72
    15
 73
    10
  0
VERTEX
  5
466
  8
0
 62
     9
 10
0.0
 20
0.0
 30
0.0
 70
   128
 71
    53
 72
    54
 73
    15
  0
VERTEX
  5
467
  8
0
 62
     9
 10
0.0
 20
0.0
 30
0.0
 70
   128
 71
    54
 72
    55
 73
    15
  0
VERTEX
  5
468
  8
0
 62
     9
 10
0.0
 20
0.0
 30
0.0
 70
   128
 71
    57
 72
    56
 73
    10
  0
VERTEX
  5
469
  8
0
 62
     9
 10
0.0
 20
0.0
 30
0.0
 70
   128
 71
    10
 72
     5
 73
    57
  0
VERTEX
  5
46A
  8
0
 62
     9
 10
0.0
 20
0.0
 30
0.0
 70
   128
 71
    56
 72
    58
 73
    10
  0
VERTEX
  5
46B
  8
0
 62
     9
 10
0.0
 20
0.0
 30
0.0
 70
   128
 71
     5
 72
    59
 73
    57
  0
VERTEX
  5
46C
  8
0
 62
     9
 10
0.0
 20
0.0
 30
0.0
 70
   128
 71
    61
 72
    60
 73
     5
  0
VERTEX
  5
46D
  8
0
 62
     9
 10
0.0
 20
0.0
 30
0.0
 70
   128
 71
     5
 72
     4
 73
    61
  0
VERTEX
  5
46E
  8
0
 62
     9
 10
0.0
 20
0.0
 30
0.0
 70
   128
 71
     4
 72
    62
 73
    61
  0
VERTEX
  5
46F
  8
0
 62
     9
 10
0.0
 20
0.0
 30
0.0
 70
   128
 71
    63
 72
     4
 73
     1
  0
VERTEX
  5
470
  8
0
 62
     9
 10
0.0
 20
0.0
 30
0.0
 70
   128
 71
    63
 72
    64
 73
     4
  0
VERTEX
  5
471
  8
0
 62
     9
 10
0.0
 20
0.0
 30
0.0
 70
   128
 71
     1
 72
    65
 73
    63
  0
VERTEX
  5
472
  8
0
 62
     9
 10
0.0
 20
0.0
 30
0.0
 70
   128
 71
     4
 72
    64
 73
    62
  0
VERTEX
  5
473
  8
0
 62
     9
 10
0.0
 20
0.0
 30
0.0
 70
   128
 71
     5
 72
    60
 73
    59
  0
VERTEX
  5
474
  8
0
 62
     9
 10
0.0
 20
0.0
 30
0.0
 70
   128
 71
    10
 72
    58
 73
    53
  0
VERTEX
  5
475
  8
0
 62
     9
 10
0.0
 20
0.0
 30
0.0
 70
   128
 71
    15
 72
    55
 73
    50
  0
VERTEX
  5
476
  8
0
 62
     9
 10
0.0
 20
0.0
 30
0.0
 70
   128
 71
    19
 72
    52
 73
    47
  0
VERTEX
  5
477
  8
0
 62
     9
 10
0.0
 20
0.0
 30
0.0
 70
   128
 71
    24
 72
    48
 73
    44
  0
VERTEX
  5
478
  8
0
 62
     9
 10
0.0
 20
0.0
 30
0.0
 70
   128
 71
    30
 72
    45
 73
    42
  0
VERTEX
  5
479
  8
0
 62
     9
 10
0.0
 20
0.0
 30
0.0
 70
   128
 71
    36
 72
    30
 73
    35
  0
VERTEX
  5
47A
  8
0
 62
     9
 10
0.0
 20
0.0
 30
0.0
 70
   128
 71
    30
 72
    36
 73
    34
  0
VERTEX
  5
47B
  8
0
 62
     9
 10
0.0
 20
0.0
 30
0.0
 70
   128
 71
    24
 72
    33
 73
    29
  0
VERTEX
  5
47C
  8
0
 62
     9
 10
0.0
 20
0.0
 30
0.0
 70
   128
 71
    19
 72
    28
 73
    22
  0
VERTEX
  5
47D
  8
0
 62
     9
 10
0.0
 20
0.0
 30
0.0
 70
   128
 71
    15
 72
    23
 73
    16
  0
VERTEX
  5
47E
  8
0
 62
     9
 10
0.0
 20
0.0
 30
0.0
 70
   128
 71
    10
 72
    17
 73
    11
  0
VERTEX
  5
47F
  8
0
 62
     9
 10
0.0
 20
0.0
 30
0.0
 70
   128
 71
     5
 72
    14
 73
     6
  0
VERTEX
  5
480
  8
0
 62
     9
 10
0.0
 20
0.0
 30
0.0
 70
   128
 71
     4
 72
     9
 73
     3
  0
SEQEND
  5
481
  8
0
 62
     9
  0
ENDBLK
  5
484
  8
0
  0
BLOCK
  8
0
  2
E3_NODE_13_
 70
     0
 10
0.0
 20
0.0
 30
0.0
  3
E3_NODE_13_
  1

  0
POLYLINE
  5
486
  8
0
 62
     9
 66
     1
 10
0.0
 20
0.0
 30
0.0
 70
    64
 71
    64
 72
    69
  0
VERTEX
  5
487
  8
0
 10
0.7120000123977661
 20
95.6520004272461
 30
71.35800170898438
 70
   192
  0
VERTEX
  5
488
  8
0
 10
0.5809999704360962
 20
96.2979965209961
 30
70.61699676513672
 70
   192
  0
VERTEX
  5
489
  8
0
 10
-4.255000114440918
 20
96.16799926757812
 30
70.9520034790039
 70
   192
  0
VERTEX
  5
48A
  8
0
 10
-8.645000457763672
 20
95.18299865722656
 30
71.14199829101562
 70
   192
  0
VERTEX
  5
48B
  8
0
 10
-17.14900016784668
 20
93.86000061035156
 30
67.3759994506836
 70
   192
  0
VERTEX
  5
48C
  8
0
 10
-11.64999961853027
 20
95.46700286865234
 30
69.44999694824219
 70
   192
  0
VERTEX
  5
48D
  8
0
 10
-10.59000015258789
 20
95.60800170898438
 30
69.82499694824219
 70
   192
  0
VERTEX
  5
48E
  8
0
 10
-8.501999855041504
 20
95.79299926757812
 30
70.1969985961914
 70
   192
  0
VERTEX
  5
48F
  8
0
 10
-23.52700042724609
 20
91.90699768066406
 30
60.70999908447266
 70
   192
  0
VERTEX
  5
490
  8
0
 10
-18.13500022888184
 20
94.23899841308594
 30
65.66899871826172
 70
   192
  0
VERTEX
  5
491
  8
0
 10
-17.30599975585938
 20
94.43800354003906
 30
66.3239974975586
 70
   192
  0
VERTEX
  5
492
  8
0
 10
-22.51600074768066
 20
92.84600067138672
 30
60.86199951171875
 70
   192
  0
VERTEX
  5
493
  8
0
 10
-16.77199935913086
 20
94.53500366210938
 30
66.61900329589844
 70
   192
  0
VERTEX
  5
494
  8
0
 10
-23.13899993896484
 20
92.5780029296875
 30
59.89699935913086
 70
   192
  0
VERTEX
  5
495
  8
0
 10
-25.72699928283691
 20
90.96600341796875
 30
53.89699935913086
 70
   192
  0
VERTEX
  5
496
  8
0
 10
-26.89599990844727
 20
89.62200164794922
 30
52.16500091552734
 70
   192
  0
VERTEX
  5
497
  8
0
 10
-26.0359992980957
 20
90.63300323486328
 30
52.61899948120117
 70
   192
  0
VERTEX
  5
498
  8
0
 10
-26.09000015258789
 20
90.43000030517578
 30
51.81499862670898
 70
   192
  0
VERTEX
  5
499
  8
0
 10
-26.47800064086914
 20
88.98400115966797
 30
46.0989990234375
 70
   192
  0
VERTEX
  5
49A
  8
0
 10
-26.09000015258789
 20
90.43299865722656
 30
51.82500076293945
 70
   192
  0
VERTEX
  5
49B
  8
0
 10
-26.78899955749512
 20
87.3290023803711
 30
42.95600128173828
 70
   192
  0
VERTEX
  5
49C
  8
0
 10
-26.32200050354004
 20
88.62300109863281
 30
44.62400054931641
 70
   192
  0
VERTEX
  5
49D
  8
0
 10
-23.15500068664551
 20
85.35900115966797
 30
34.39599990844727
 70
   192
  0
VERTEX
  5
49E
  8
0
 10
-24.5359992980957
 20
87.13899993896484
 30
38.37699890136719
 70
   192
  0
VERTEX
  5
49F
  8
0
 10
-25.84499931335449
 20
88.22599792480469
 30
42.95700073242188
 70
   192
  0
VERTEX
  5
4A0
  8
0
 10
-23.84000015258789
 20
86.81199645996094
 30
36.94800186157227
 70
   192
  0
VERTEX
  5
4A1
  8
0
 10
-16.42399978637695
 20
84.01799774169922
 30
27.8080005645752
 70
   192
  0
VERTEX
  5
4A2
  8
0
 10
-20.04800033569336
 20
85.6729965209961
 30
31.72400093078613
 70
   192
  0
VERTEX
  5
4A3
  8
0
 10
-22.27499961853027
 20
86.34200286865234
 30
34.79299926757812
 70
   192
  0
VERTEX
  5
4A4
  8
0
 10
-18.92300033569336
 20
85.44999694824219
 30
30.63599967956543
 70
   192
  0
VERTEX
  5
4A5
  8
0
 10
-7.581999778747559
 20
83.54100036621094
 30
24.32500076293945
 70
   192
  0
VERTEX
  5
4A6
  8
0
 10
-12.3149995803833
 20
84.69400024414062
 30
26.44799995422363
 70
   192
  0
VERTEX
  5
4A7
  8
0
 10
-7.458000183105469
 20
84.5530014038086
 30
25.02700042724609
 70
   192
  0
VERTEX
  5
4A8
  8
0
 10
-13.60000038146973
 20
84.78299713134766
 30
27.03000068664551
 70
   192
  0
VERTEX
  5
4A9
  8
0
 10
-15.82499980926514
 20
85.06199645996094
 30
28.53700065612793
 70
   192
  0
VERTEX
  5
4AA
  8
0
 10
-7.704999923706055
 20
82.52999877929688
 30
23.62299919128418
 70
   192
  0
VERTEX
  5
4AB
  8
0
 10
-13.17000007629395
 20
82.69499969482422
 30
25.25799942016602
 70
   192
  0
VERTEX
  5
4AC
  8
0
 10
-16.6609992980957
 20
83.06099700927734
 30
27.36199951171875
 70
   192
  0
VERTEX
  5
4AD
  8
0
 10
-20.1569995880127
 20
83.51100158691406
 30
29.80599975585938
 70
   192
  0
VERTEX
  5
4AE
  8
0
 10
-16.78300094604492
 20
83.0739974975586
 30
27.43499946594238
 70
   192
  0
VERTEX
  5
4AF
  8
0
 10
-18.86800003051758
 20
83.29299926757812
 30
28.6919994354248
 70
   192
  0
VERTEX
  5
4B0
  8
0
 10
-23.59099960327148
 20
84.39399719238281
 30
33.98799896240234
 70
   192
  0
VERTEX
  5
4B1
  8
0
 10
-25.29700088500977
 20
84.95600128173828
 30
36.5629997253418
 70
   192
  0
VERTEX
  5
4B2
  8
0
 10
-23.76000022888184
 20
84.43699645996094
 30
34.19400024414062
 70
   192
  0
VERTEX
  5
4B3
  8
0
 10
-24.39599990844727
 20
84.60099792480469
 30
34.96900177001953
 70
   192
  0
VERTEX
  5
4B4
  8
0
 10
-27.84499931335449
 20
86.87200164794922
 30
44.73899841308594
 70
   192
  0
VERTEX
  5
4B5
  8
0
 10
-27.5359992980957
 20
86.42400360107422
 30
42.88600158691406
 70
   192
  0
VERTEX
  5
4B6
  8
0
 10
-27.77700042724609
 20
88.5530014038086
 30
51.47900009155273
 70
   192
  0
VERTEX
  5
4B7
  8
0
 10
-27.65399932861328
 20
88.7229995727539
 30
52.13899993896484
 70
   192
  0
VERTEX
  5
4B8
  8
0
 10
-27.45100021362305
 20
89.00499725341797
 30
53.23199844360352
 70
   192
  0
VERTEX
  5
4B9
  8
0
 10
-25.09600067138672
 20
90.68800354003906
 30
59.54000091552734
 70
   192
  0
VERTEX
  5
4BA
  8
0
 10
-27.58799934387207
 20
88.81500244140625
 30
52.49499893188477
 70
   192
  0
VERTEX
  5
4BB
  8
0
 10
-19.99200057983398
 20
92.55500030517578
 30
66.06800079345703
 70
   192
  0
VERTEX
  5
4BC
  8
0
 10
-18.89800071716309
 20
92.83999633789062
 30
67.00599670410156
 70
   192
  0
VERTEX
  5
4BD
  8
0
 10
-24.28700065612793
 20
91.072998046875
 30
60.93000030517578
 70
   192
  0
VERTEX
  5
4BE
  8
0
 10
-17.61800003051758
 20
93.09200286865234
 30
67.77999877929688
 70
   192
  0
VERTEX
  5
4BF
  8
0
 10
-17.39100074768066
 20
93.13700103759766
 30
67.91699981689453
 70
   192
  0
VERTEX
  5
4C0
  8
0
 10
-13.20499992370605
 20
93.96299743652344
 30
70.44999694824219
 70
   192
  0
VERTEX
  5
4C1
  8
0
 10
-11.9370002746582
 20
94.14800262451172
 30
70.95600128173828
 70
   192
  0
VERTEX
  5
4C2
  8
0
 10
-8.831000328063965
 20
94.45999908447266
 30
71.64299774169922
 70
   192
  0
VERTEX
  5
4C3
  8
0
 10
-4.037000179290771
 20
94.88300323486328
 30
72.46499633789062
 70
   192
  0
VERTEX
  5
4C4
  8
0
 10
-8.696000099182129
 20
94.4739990234375
 30
71.6729965209961
 70
   192
  0
VERTEX
  5
4C5
  8
0
 10
-5.456999778747559
 20
94.80000305175781
 30
72.38899993896484
 70
   192
  0
VERTEX
  5
4C6
  8
0
 10
0.8420000076293945
 20
95.00800323486328
 30
72.0989990234375
 70
   192
  0
VERTEX
  5
4C7
  8
0
 62
     9
 10
0.0
 20
0.0
 30
0.0
 70
   128
 71
     3
 72
     2
 73
     1
  0
VERTEX
  5
4C8
  8
0
 62
     9
 10
0.0
 20
0.0
 30
0.0
 70
   128
 71
     1
 72
     4
 73
     3
  0
VERTEX
  5
4C9
  8
0
 62
     9
 10
0.0
 20
0.0
 30
0.0
 70
   128
 71
     6
 72
     4
 73
     5
  0
VERTEX
  5
4CA
  8
0
 62
     9
 10
0.0
 20
0.0
 30
0.0
 70
   128
 71
     6
 72
     7
 73
     4
  0
VERTEX
  5
4CB
  8
0
 62
     9
 10
0.0
 20
0.0
 30
0.0
 70
   128
 71
     7
 72
     8
 73
     4
  0
VERTEX
  5
4CC
  8
0
 62
     9
 10
0.0
 20
0.0
 30
0.0
 70
   128
 71
    10
 72
     5
 73
     9
  0
VERTEX
  5
4CD
  8
0
 62
     9
 10
0.0
 20
0.0
 30
0.0
 70
   128
 71
    10
 72
    11
 73
     5
  0
VERTEX
  5
4CE
  8
0
 62
     9
 10
0.0
 20
0.0
 30
0.0
 70
   128
 71
     9
 72
    12
 73
    10
  0
VERTEX
  5
4CF
  8
0
 62
     9
 10
0.0
 20
0.0
 30
0.0
 70
   128
 71
    11
 72
    13
 73
     5
  0
VERTEX
  5
4D0
  8
0
 62
     9
 10
0.0
 20
0.0
 30
0.0
 70
   128
 71
    15
 72
    14
 73
     9
  0
VERTEX
  5
4D1
  8
0
 62
     9
 10
0.0
 20
0.0
 30
0.0
 70
   128
 71
     9
 72
    16
 73
    15
  0
VERTEX
  5
4D2
  8
0
 62
     9
 10
0.0
 20
0.0
 30
0.0
 70
   128
 71
    16
 72
    17
 73
    15
  0
VERTEX
  5
4D3
  8
0
 62
     9
 10
0.0
 20
0.0
 30
0.0
 70
   128
 71
    19
 72
    18
 73
    16
  0
VERTEX
  5
4D4
  8
0
 62
     9
 10
0.0
 20
0.0
 30
0.0
 70
   128
 71
    18
 72
    20
 73
    16
  0
VERTEX
  5
4D5
  8
0
 62
     9
 10
0.0
 20
0.0
 30
0.0
 70
   128
 71
    16
 72
    21
 73
    19
  0
VERTEX
  5
4D6
  8
0
 62
     9
 10
0.0
 20
0.0
 30
0.0
 70
   128
 71
    21
 72
    22
 73
    19
  0
VERTEX
  5
4D7
  8
0
 62
     9
 10
0.0
 20
0.0
 30
0.0
 70
   128
 71
    24
 72
    21
 73
    23
  0
VERTEX
  5
4D8
  8
0
 62
     9
 10
0.0
 20
0.0
 30
0.0
 70
   128
 71
    24
 72
    25
 73
    21
  0
VERTEX
  5
4D9
  8
0
 62
     9
 10
0.0
 20
0.0
 30
0.0
 70
   128
 71
    23
 72
    26
 73
    24
  0
VERTEX
  5
4DA
  8
0
 62
     9
 10
0.0
 20
0.0
 30
0.0
 70
   128
 71
    28
 72
    23
 73
    27
  0
VERTEX
  5
4DB
  8
0
 62
     9
 10
0.0
 20
0.0
 30
0.0
 70
   128
 71
    28
 72
    29
 73
    23
  0
VERTEX
  5
4DC
  8
0
 62
     9
 10
0.0
 20
0.0
 30
0.0
 70
   128
 71
    27
 72
    30
 73
    28
  0
VERTEX
  5
4DD
  8
0
 62
     9
 10
0.0
 20
0.0
 30
0.0
 70
   128
 71
    32
 72
    27
 73
    31
  0
VERTEX
  5
4DE
  8
0
 62
     9
 10
0.0
 20
0.0
 30
0.0
 70
   128
 71
    31
 72
    33
 73
    32
  0
VERTEX
  5
4DF
  8
0
 62
     9
 10
0.0
 20
0.0
 30
0.0
 70
   128
 71
    32
 72
    34
 73
    27
  0
VERTEX
  5
4E0
  8
0
 62
     9
 10
0.0
 20
0.0
 30
0.0
 70
   128
 71
    34
 72
    35
 73
    27
  0
VERTEX
  5
4E1
  8
0
 62
     9
 10
0.0
 20
0.0
 30
0.0
 70
   128
 71
    37
 72
    36
 73
    31
  0
VERTEX
  5
4E2
  8
0
 62
     9
 10
0.0
 20
0.0
 30
0.0
 70
   128
 71
    31
 72
    27
 73
    37
  0
VERTEX
  5
4E3
  8
0
 62
     9
 10
0.0
 20
0.0
 30
0.0
 70
   128
 71
    27
 72
    38
 73
    37
  0
VERTEX
  5
4E4
  8
0
 62
     9
 10
0.0
 20
0.0
 30
0.0
 70
   128
 71
    39
 72
    27
 73
    23
  0
VERTEX
  5
4E5
  8
0
 62
     9
 10
0.0
 20
0.0
 30
0.0
 70
   128
 71
    41
 72
    40
 73
    27
  0
VERTEX
  5
4E6
  8
0
 62
     9
 10
0.0
 20
0.0
 30
0.0
 70
   128
 71
    27
 72
    39
 73
    41
  0
VERTEX
  5
4E7
  8
0
 62
     9
 10
0.0
 20
0.0
 30
0.0
 70
   128
 71
    23
 72
    42
 73
    39
  0
VERTEX
  5
4E8
  8
0
 62
     9
 10
0.0
 20
0.0
 30
0.0
 70
   128
 71
    43
 72
    23
 73
    21
  0
VERTEX
  5
4E9
  8
0
 62
     9
 10
0.0
 20
0.0
 30
0.0
 70
   128
 71
    45
 72
    44
 73
    23
  0
VERTEX
  5
4EA
  8
0
 62
     9
 10
0.0
 20
0.0
 30
0.0
 70
   128
 71
    23
 72
    43
 73
    45
  0
VERTEX
  5
4EB
  8
0
 62
     9
 10
0.0
 20
0.0
 30
0.0
 70
   128
 71
    46
 72
    21
 73
    16
  0
VERTEX
  5
4EC
  8
0
 62
     9
 10
0.0
 20
0.0
 30
0.0
 70
   128
 71
    46
 72
    47
 73
    21
  0
VERTEX
  5
4ED
  8
0
 62
     9
 10
0.0
 20
0.0
 30
0.0
 70
   128
 71
    16
 72
    48
 73
    46
  0
VERTEX
  5
4EE
  8
0
 62
     9
 10
0.0
 20
0.0
 30
0.0
 70
   128
 71
    16
 72
    49
 73
    48
  0
VERTEX
  5
4EF
  8
0
 62
     9
 10
0.0
 20
0.0
 30
0.0
 70
   128
 71
    51
 72
    50
 73
    16
  0
VERTEX
  5
4F0
  8
0
 62
     9
 10
0.0
 20
0.0
 30
0.0
 70
   128
 71
    50
 72
    52
 73
    16
  0
VERTEX
  5
4F1
  8
0
 62
     9
 10
0.0
 20
0.0
 30
0.0
 70
   128
 71
    16
 72
     9
 73
    51
  0
VERTEX
  5
4F2
  8
0
 62
     9
 10
0.0
 20
0.0
 30
0.0
 70
   128
 71
    54
 72
    53
 73
     5
  0
VERTEX
  5
4F3
  8
0
 62
     9
 10
0.0
 20
0.0
 30
0.0
 70
   128
 71
    53
 72
    55
 73
     9
  0
VERTEX
  5
4F4
  8
0
 62
     9
 10
0.0
 20
0.0
 30
0.0
 70
   128
 71
     9
 72
     5
 73
    53
  0
VERTEX
  5
4F5
  8
0
 62
     9
 10
0.0
 20
0.0
 30
0.0
 70
   128
 71
     5
 72
    56
 73
    54
  0
VERTEX
  5
4F6
  8
0
 62
     9
 10
0.0
 20
0.0
 30
0.0
 70
   128
 71
    58
 72
    57
 73
     5
  0
VERTEX
  5
4F7
  8
0
 62
     9
 10
0.0
 20
0.0
 30
0.0
 70
   128
 71
     5
 72
     4
 73
    58
  0
VERTEX
  5
4F8
  8
0
 62
     9
 10
0.0
 20
0.0
 30
0.0
 70
   128
 71
     4
 72
    59
 73
    58
  0
VERTEX
  5
4F9
  8
0
 62
     9
 10
0.0
 20
0.0
 30
0.0
 70
   128
 71
     4
 72
    60
 73
    59
  0
VERTEX
  5
4FA
  8
0
 62
     9
 10
0.0
 20
0.0
 30
0.0
 70
   128
 71
    61
 72
     4
 73
     1
  0
VERTEX
  5
4FB
  8
0
 62
     9
 10
0.0
 20
0.0
 30
0.0
 70
   128
 71
    63
 72
    62
 73
     4
  0
VERTEX
  5
4FC
  8
0
 62
     9
 10
0.0
 20
0.0
 30
0.0
 70
   128
 71
     4
 72
    61
 73
    63
  0
VERTEX
  5
4FD
  8
0
 62
     9
 10
0.0
 20
0.0
 30
0.0
 70
   128
 71
     1
 72
    64
 73
    61
  0
VERTEX
  5
4FE
  8
0
 62
     9
 10
0.0
 20
0.0
 30
0.0
 70
   128
 71
     4
 72
    62
 73
    60
  0
VERTEX
  5
4FF
  8
0
 62
     9
 10
0.0
 20
0.0
 30
0.0
 70
   128
 71
     5
 72
    57
 73
    56
  0
VERTEX
  5
500
  8
0
 62
     9
 10
0.0
 20
0.0
 30
0.0
 70
   128
 71
     9
 72
    55
 73
    51
  0
VERTEX
  5
501
  8
0
 62
     9
 10
0.0
 20
0.0
 30
0.0
 70
   128
 71
    16
 72
    52
 73
    49
  0
VERTEX
  5
502
  8
0
 62
     9
 10
0.0
 20
0.0
 30
0.0
 70
   128
 71
    21
 72
    47
 73
    43
  0
VERTEX
  5
503
  8
0
 62
     9
 10
0.0
 20
0.0
 30
0.0
 70
   128
 71
    23
 72
    44
 73
    42
  0
VERTEX
  5
504
  8
0
 62
     9
 10
0.0
 20
0.0
 30
0.0
 70
   128
 71
    27
 72
    40
 73
    38
  0
VERTEX
  5
505
  8
0
 62
     9
 10
0.0
 20
0.0
 30
0.0
 70
   128
 71
    27
 72
    35
 73
    30
  0
VERTEX
  5
506
  8
0
 62
     9
 10
0.0
 20
0.0
 30
0.0
 70
   128
 71
    23
 72
    29
 73
    26
  0
VERTEX
  5
507
  8
0
 62
     9
 10
0.0
 20
0.0
 30
0.0
 70
   128
 71
    21
 72
    25
 73
    22
  0
VERTEX
  5
508
  8
0
 62
     9
 10
0.0
 20
0.0
 30
0.0
 70
   128
 71
    16
 72
    20
 73
    17
  0
VERTEX
  5
509
  8
0
 62
     9
 10
0.0
 20
0.0
 30
0.0
 70
   128
 71
     9
 72
    14
 73
    12
  0
VERTEX
  5
50A
  8
0
 62
     9
 10
0.0
 20
0.0
 30
0.0
 70
   128
 71
     5
 72
    13
 73
     6
  0
VERTEX
  5
50B
  8
0
 62
     9
 10
0.0
 20
0.0
 30
0.0
 70
   128
 71
     4
 72
     8
 73
     3
  0
SEQEND
  5
50C
  8
0
 62
     9
  0
ENDBLK
  5
50F
  8
0
  0
BLOCK
  8
0
  2
E3_NODE_14_
 70
     0
 10
0.0
 20
0.0
 30
0.0
  3
E3_NODE_14_
  1

  0
POLYLINE
  5
511
  8
0
 62
     9
 66
     1
 10
0.0
 20
0.0
 30
0.0
 70
    64
 71
    52
 72
    52
  0
VERTEX
  5
512
  8
0
 10
-3.492000102996826
 20
91.63200378417969
 30
47.52000045776367
 70
   192
  0
VERTEX
  5
513
  8
0
 10
-25.84499931335449
 20
88.22599792480469
 30
42.95700073242188
 70
   192
  0
VERTEX
  5
514
  8
0
 10
-26.32200050354004
 20
88.62300109863281
 30
44.62400054931641
 70
   192
  0
VERTEX
  5
515
  8
0
 10
-26.47800064086914
 20
88.98400115966797
 30
46.0989990234375
 70
   192
  0
VERTEX
  5
516
  8
0
 10
-22.27499961853027
 20
86.34200286865234
 30
34.79299926757812
 70
   192
  0
VERTEX
  5
517
  8
0
 10
-23.84000015258789
 20
86.81199645996094
 30
36.94800186157227
 70
   192
  0
VERTEX
  5
518
  8
0
 10
-24.5359992980957
 20
87.13899993896484
 30
38.37699890136719
 70
   192
  0
VERTEX
  5
519
  8
0
 10
-15.82499980926514
 20
85.06199645996094
 30
28.53700065612793
 70
   192
  0
VERTEX
  5
51A
  8
0
 10
-18.92300033569336
 20
85.44999694824219
 30
30.63599967956543
 70
   192
  0
VERTEX
  5
51B
  8
0
 10
-20.04800033569336
 20
85.6729965209961
 30
31.72400093078613
 70
   192
  0
VERTEX
  5
51C
  8
0
 10
-12.3149995803833
 20
84.69400024414062
 30
26.44799995422363
 70
   192
  0
VERTEX
  5
51D
  8
0
 10
-13.60000038146973
 20
84.78299713134766
 30
27.03000068664551
 70
   192
  0
VERTEX
  5
51E
  8
0
 10
-7.458000183105469
 20
84.5530014038086
 30
25.02700042724609
 70
   192
  0
VERTEX
  5
51F
  8
0
 10
-26.0359992980957
 20
90.63300323486328
 30
52.61899948120117
 70
   192
  0
VERTEX
  5
520
  8
0
 10
-25.72699928283691
 20
90.96600341796875
 30
53.89699935913086
 70
   192
  0
VERTEX
  5
521
  8
0
 10
-25.90900039672852
 20
90.70700073242188
 30
52.85900115966797
 70
   192
  0
VERTEX
  5
522
  8
0
 10
-8.501999855041504
 20
95.79299926757812
 30
70.1969985961914
 70
   192
  0
VERTEX
  5
523
  8
0
 10
-4.255000114440918
 20
96.16799926757812
 30
70.9520034790039
 70
   192
  0
VERTEX
  5
524
  8
0
 10
-11.64999961853027
 20
95.46700286865234
 30
69.44999694824219
 70
   192
  0
VERTEX
  5
525
  8
0
 10
-10.59000015258789
 20
95.60800170898438
 30
69.82499694824219
 70
   192
  0
VERTEX
  5
526
  8
0
 10
-16.77199935913086
 20
94.53500366210938
 30
66.61900329589844
 70
   192
  0
VERTEX
  5
527
  8
0
 10
-18.13500022888184
 20
94.23899841308594
 30
65.66899871826172
 70
   192
  0
VERTEX
  5
528
  8
0
 10
-17.30599975585938
 20
94.43800354003906
 30
66.3239974975586
 70
   192
  0
VERTEX
  5
529
  8
0
 10
-23.13899993896484
 20
92.5780029296875
 30
59.89699935913086
 70
   192
  0
VERTEX
  5
52A
  8
0
 10
-22.51600074768066
 20
92.84600067138672
 30
60.86199951171875
 70
   192
  0
VERTEX
  5
52B
  8
0
 10
-26.09000015258789
 20
90.43000030517578
 30
51.81499862670898
 70
   192
  0
VERTEX
  5
52C
  8
0
 10
-26.09000015258789
 20
90.43299865722656
 30
51.82500076293945
 70
   192
  0
VERTEX
  5
52D
  8
0
 10
0.5809999704360962
 20
96.2979965209961
 30
70.61699676513672
 70
   192
  0
VERTEX
  5
52E
  8
0
 10
19.58399963378906
 20
90.96600341796875
 30
45.90800094604492
 70
   192
  0
VERTEX
  5
52F
  8
0
 10
19.4370002746582
 20
90.63300323486328
 30
44.60100173950195
 70
   192
  0
VERTEX
  5
530
  8
0
 10
19.20400047302246
 20
92.5780029296875
 30
52.43099975585938
 70
   192
  0
VERTEX
  5
531
  8
0
 10
16.47599983215332
 20
94.23899841308594
 30
59.56700134277344
 70
   192
  0
VERTEX
  5
532
  8
0
 10
18.94799995422363
 20
92.84600067138672
 30
53.55199813842773
 70
   192
  0
VERTEX
  5
533
  8
0
 10
15.3769998550415
 20
94.56999969482422
 30
61.0890007019043
 70
   192
  0
VERTEX
  5
534
  8
0
 10
15.92099952697754
 20
94.43800354003906
 30
60.46500015258789
 70
   192
  0
VERTEX
  5
535
  8
0
 10
19.21599960327148
 20
90.43299865722656
 30
43.83599853515625
 70
   192
  0
VERTEX
  5
536
  8
0
 10
8.687000274658203
 20
95.82099914550781
 30
67.28099822998047
 70
   192
  0
VERTEX
  5
537
  8
0
 10
10.80700016021729
 20
95.60800170898438
 30
66.052001953125
 70
   192
  0
VERTEX
  5
538
  8
0
 10
11.67500019073486
 20
95.46700286865234
 30
65.33699798583984
 70
   192
  0
VERTEX
  5
539
  8
0
 10
5.239999771118164
 20
96.16799926757812
 30
69.27799987792969
 70
   192
  0
VERTEX
  5
53A
  8
0
 10
-2.407000064849854
 20
84.69400024414062
 30
24.70100021362305
 70
   192
  0
VERTEX
  5
53B
  8
0
 10
1.28600001335144
 20
85.0270004272461
 30
25.38299942016602
 70
   192
  0
VERTEX
  5
53C
  8
0
 10
-1.001000046730042
 20
84.78299713134766
 30
24.8080005645752
 70
   192
  0
VERTEX
  5
53D
  8
0
 10
6.664000034332275
 20
85.6729965209961
 30
27.01399993896484
 70
   192
  0
VERTEX
  5
53E
  8
0
 10
5.235000133514404
 20
85.44999694824219
 30
26.37599945068359
 70
   192
  0
VERTEX
  5
53F
  8
0
 10
9.625
 20
86.3030014038086
 30
29.01399993896484
 70
   192
  0
VERTEX
  5
540
  8
0
 10
13.1560001373291
 20
87.13899993896484
 30
31.73100090026855
 70
   192
  0
VERTEX
  5
541
  8
0
 10
12.01399993896484
 20
86.81199645996094
 30
30.62700080871582
 70
   192
  0
VERTEX
  5
542
  8
0
 10
15.88899993896484
 20
88.2020034790039
 30
35.49900054931641
 70
   192
  0
VERTEX
  5
543
  8
0
 10
17.62299919128418
 20
88.98400115966797
 30
38.32300186157227
 70
   192
  0
VERTEX
  5
544
  8
0
 10
16.97100067138672
 20
88.62300109863281
 30
36.99100112915039
 70
   192
  0
VERTEX
  5
545
  8
0
 10
19.21299934387207
 20
90.43000030517578
 30
43.82699966430664
 70
   192
  0
VERTEX
  5
546
  8
0
 62
     9
 10
0.0
 20
0.0
 30
0.0
 70
   128
 71
     3
 72
     2
 73
     1
  0
VERTEX
  5
547
  8
0
 62
     9
 10
0.0
 20
0.0
 30
0.0
 70
   128
 71
     1
 72
     4
 73
     3
  0
VERTEX
  5
548
  8
0
 62
     9
 10
0.0
 20
0.0
 30
0.0
 70
   128
 71
     6
 72
     5
 73
     1
  0
VERTEX
  5
549
  8
0
 62
     9
 10
0.0
 20
0.0
 30
0.0
 70
   128
 71
     1
 72
     7
 73
     6
  0
VERTEX
  5
54A
  8
0
 62
     9
 10
0.0
 20
0.0
 30
0.0
 70
   128
 71
     9
 72
     8
 73
     1
  0
VERTEX
  5
54B
  8
0
 62
     9
 10
0.0
 20
0.0
 30
0.0
 70
   128
 71
     1
 72
    10
 73
     9
  0
VERTEX
  5
54C
  8
0
 62
     9
 10
0.0
 20
0.0
 30
0.0
 70
   128
 71
    12
 72
    11
 73
     1
  0
VERTEX
  5
54D
  8
0
 62
     9
 10
0.0
 20
0.0
 30
0.0
 70
   128
 71
    11
 72
    13
 73
     1
  0
VERTEX
  5
54E
  8
0
 62
     9
 10
0.0
 20
0.0
 30
0.0
 70
   128
 71
     1
 72
     8
 73
    12
  0
VERTEX
  5
54F
  8
0
 62
     9
 10
0.0
 20
0.0
 30
0.0
 70
   128
 71
     1
 72
     5
 73
    10
  0
VERTEX
  5
550
  8
0
 62
     9
 10
0.0
 20
0.0
 30
0.0
 70
   128
 71
     1
 72
     2
 73
     7
  0
VERTEX
  5
551
  8
0
 62
     9
 10
0.0
 20
0.0
 30
0.0
 70
   128
 71
    16
 72
    15
 73
    14
  0
VERTEX
  5
552
  8
0
 62
     9
 10
0.0
 20
0.0
 30
0.0
 70
   128
 71
    18
 72
    17
 73
     1
  0
VERTEX
  5
553
  8
0
 62
     9
 10
0.0
 20
0.0
 30
0.0
 70
   128
 71
    20
 72
    19
 73
     1
  0
VERTEX
  5
554
  8
0
 62
     9
 10
0.0
 20
0.0
 30
0.0
 70
   128
 71
    19
 72
    21
 73
     1
  0
VERTEX
  5
555
  8
0
 62
     9
 10
0.0
 20
0.0
 30
0.0
 70
   128
 71
     1
 72
    17
 73
    20
  0
VERTEX
  5
556
  8
0
 62
     9
 10
0.0
 20
0.0
 30
0.0
 70
   128
 71
    23
 72
    22
 73
     1
  0
VERTEX
  5
557
  8
0
 62
     9
 10
0.0
 20
0.0
 30
0.0
 70
   128
 71
    25
 72
    24
 73
     1
  0
VERTEX
  5
558
  8
0
 62
     9
 10
0.0
 20
0.0
 30
0.0
 70
   128
 71
     1
 72
    22
 73
    25
  0
VERTEX
  5
559
  8
0
 62
     9
 10
0.0
 20
0.0
 30
0.0
 70
   128
 71
    15
 72
    16
 73
     1
  0
VERTEX
  5
55A
  8
0
 62
     9
 10
0.0
 20
0.0
 30
0.0
 70
   128
 71
     1
 72
    24
 73
    15
  0
VERTEX
  5
55B
  8
0
 62
     9
 10
0.0
 20
0.0
 30
0.0
 70
   128
 71
    27
 72
    26
 73
     1
  0
VERTEX
  5
55C
  8
0
 62
     9
 10
0.0
 20
0.0
 30
0.0
 70
   128
 71
     1
 72
    16
 73
    27
  0
VERTEX
  5
55D
  8
0
 62
     9
 10
0.0
 20
0.0
 30
0.0
 70
   128
 71
     1
 72
    21
 73
    23
  0
VERTEX
  5
55E
  8
0
 62
     9
 10
0.0
 20
0.0
 30
0.0
 70
   128
 71
     1
 72
    28
 73
    18
  0
VERTEX
  5
55F
  8
0
 62
     9
 10
0.0
 20
0.0
 30
0.0
 70
   128
 71
    14
 72
    27
 73
    16
  0
VERTEX
  5
560
  8
0
 62
     9
 10
0.0
 20
0.0
 30
0.0
 70
   128
 71
    30
 72
    29
 73
     1
  0
VERTEX
  5
561
  8
0
 62
     9
 10
0.0
 20
0.0
 30
0.0
 70
   128
 71
    29
 72
    31
 73
     1
  0
VERTEX
  5
562
  8
0
 62
     9
 10
0.0
 20
0.0
 30
0.0
 70
   128
 71
    33
 72
    32
 73
     1
  0
VERTEX
  5
563
  8
0
 62
     9
 10
0.0
 20
0.0
 30
0.0
 70
   128
 71
    35
 72
    34
 73
     1
  0
VERTEX
  5
564
  8
0
 62
     9
 10
0.0
 20
0.0
 30
0.0
 70
   128
 71
     1
 72
    32
 73
    35
  0
VERTEX
  5
565
  8
0
 62
     9
 10
0.0
 20
0.0
 30
0.0
 70
   128
 71
     1
 72
    31
 73
    33
  0
VERTEX
  5
566
  8
0
 62
     9
 10
0.0
 20
0.0
 30
0.0
 70
   128
 71
     1
 72
    36
 73
    30
  0
VERTEX
  5
567
  8
0
 62
     9
 10
0.0
 20
0.0
 30
0.0
 70
   128
 71
    38
 72
    37
 73
     1
  0
VERTEX
  5
568
  8
0
 62
     9
 10
0.0
 20
0.0
 30
0.0
 70
   128
 71
     1
 72
    39
 73
    38
  0
VERTEX
  5
569
  8
0
 62
     9
 10
0.0
 20
0.0
 30
0.0
 70
   128
 71
    40
 72
    28
 73
     1
  0
VERTEX
  5
56A
  8
0
 62
     9
 10
0.0
 20
0.0
 30
0.0
 70
   128
 71
     1
 72
    37
 73
    40
  0
VERTEX
  5
56B
  8
0
 62
     9
 10
0.0
 20
0.0
 30
0.0
 70
   128
 71
     1
 72
    34
 73
    39
  0
VERTEX
  5
56C
  8
0
 62
     9
 10
0.0
 20
0.0
 30
0.0
 70
   128
 71
    13
 72
    41
 73
     1
  0
VERTEX
  5
56D
  8
0
 62
     9
 10
0.0
 20
0.0
 30
0.0
 70
   128
 71
    43
 72
    42
 73
     1
  0
VERTEX
  5
56E
  8
0
 62
     9
 10
0.0
 20
0.0
 30
0.0
 70
   128
 71
     1
 72
    41
 73
    43
  0
VERTEX
  5
56F
  8
0
 62
     9
 10
0.0
 20
0.0
 30
0.0
 70
   128
 71
    45
 72
    44
 73
     1
  0
VERTEX
  5
570
  8
0
 62
     9
 10
0.0
 20
0.0
 30
0.0
 70
   128
 71
    44
 72
    46
 73
     1
  0
VERTEX
  5
571
  8
0
 62
     9
 10
0.0
 20
0.0
 30
0.0
 70
   128
 71
    48
 72
    47
 73
     1
  0
VERTEX
  5
572
  8
0
 62
     9
 10
0.0
 20
0.0
 30
0.0
 70
   128
 71
    47
 72
    49
 73
     1
  0
VERTEX
  5
573
  8
0
 62
     9
 10
0.0
 20
0.0
 30
0.0
 70
   128
 71
     1
 72
    46
 73
    48
  0
VERTEX
  5
574
  8
0
 62
     9
 10
0.0
 20
0.0
 30
0.0
 70
   128
 71
    51
 72
    50
 73
     1
  0
VERTEX
  5
575
  8
0
 62
     9
 10
0.0
 20
0.0
 30
0.0
 70
   128
 71
    50
 72
    52
 73
     1
  0
VERTEX
  5
576
  8
0
 62
     9
 10
0.0
 20
0.0
 30
0.0
 70
   128
 71
     1
 72
    49
 73
    51
  0
VERTEX
  5
577
  8
0
 62
     9
 10
0.0
 20
0.0
 30
0.0
 70
   128
 71
     1
 72
    42
 73
    45
  0
VERTEX
  5
578
  8
0
 62
     9
 10
0.0
 20
0.0
 30
0.0
 70
   128
 71
     1
 72
    52
 73
    36
  0
VERTEX
  5
579
  8
0
 62
     9
 10
0.0
 20
0.0
 30
0.0
 70
   128
 71
     1
 72
    26
 73
     4
  0
SEQEND
  5
57A
  8
0
 62
     9
  0
ENDBLK
  5
57D
  8
0
  0
BLOCK
  8
0
  2
E3_NODE_15_
 70
     0
 10
0.0
 20
0.0
 30
0.0
  3
E3_NODE_15_
  1

  0
POLYLINE
  5
57F
  8
0
 62
     9
 66
     1
 10
0.0
 20
0.0
 30
0.0
 70
    64
 71
    18
 72
    18
  0
VERTEX
  5
580
  8
0
 10
192.5189971923828
 20
0.0
 30
236.8500061035156
 70
   192
  0
VERTEX
  5
581
  8
0
 10
190.7819976806641
 20
0.0
 30
246.697998046875
 70
   192
  0
VERTEX
  5
582
  8
0
 10
193.6390075683594
 20
7.971000194549561
 30
247.2010040283203
 70
   192
  0
VERTEX
  5
583
  8
0
 10
198.625
 20
10.73900032043457
 30
237.9259948730469
 70
   192
  0
VERTEX
  5
584
  8
0
 10
210.8359985351562
 20
10.73900032043457
 30
240.0789947509766
 70
   192
  0
VERTEX
  5
585
  8
0
 10
200.8730010986328
 20
12.21199989318848
 30
248.4770050048828
 70
   192
  0
VERTEX
  5
586
  8
0
 10
197.2559967041016
 20
10.09099960327148
 30
247.8390045166016
 70
   192
  0
VERTEX
  5
587
  8
0
 10
209.1000061035156
 20
10.73900032043457
 30
249.9279937744141
 70
   192
  0
VERTEX
  5
588
  8
0
 10
214.468994140625
 20
4.241000175476074
 30
250.8739929199219
 70
   192
  0
VERTEX
  5
589
  8
0
 10
216.9420013427734
 20
0.0
 30
241.156005859375
 70
   192
  0
VERTEX
  5
58A
  8
0
 10
210.8359985351562
 20
-10.73900032043457
 30
240.0789947509766
 70
   192
  0
VERTEX
  5
58B
  8
0
 10
214.468994140625
 20
-4.241000175476074
 30
250.8739929199219
 70
   192
  0
VERTEX
  5
58C
  8
0
 10
214.468994140625
 20
0.0
 30
250.8739929199219
 70
   192
  0
VERTEX
  5
58D
  8
0
 10
209.1000061035156
 20
-10.73900032043457
 30
249.9279937744141
 70
   192
  0
VERTEX
  5
58E
  8
0
 10
200.8730010986328
 20
-12.21199989318848
 30
248.4770050048828
 70
   192
  0
VERTEX
  5
58F
  8
0
 10
198.625
 20
-10.73900032043457
 30
237.9259948730469
 70
   192
  0
VERTEX
  5
590
  8
0
 10
193.6390075683594
 20
-7.971000194549561
 30
247.2010040283203
 70
   192
  0
VERTEX
  5
591
  8
0
 10
197.2559967041016
 20
-10.09099960327148
 30
247.8390045166016
 70
   192
  0
VERTEX
  5
592
  8
0
 62
     9
 10
0.0
 20
0.0
 30
0.0
 70
   128
 71
     3
 72
     2
 73
     1
  0
VERTEX
  5
593
  8
0
 62
     9
 10
0.0
 20
0.0
 30
0.0
 70
   128
 71
     1
 72
     4
 73
     3
  0
VERTEX
  5
594
  8
0
 62
     9
 10
0.0
 20
0.0
 30
0.0
 70
   128
 71
     6
 72
     4
 73
     5
  0
VERTEX
  5
595
  8
0
 62
     9
 10
0.0
 20
0.0
 30
0.0
 70
   128
 71
     6
 72
     7
 73
     4
  0
VERTEX
  5
596
  8
0
 62
     9
 10
0.0
 20
0.0
 30
0.0
 70
   128
 71
     9
 72
     8
 73
     5
  0
VERTEX
  5
597
  8
0
 62
     9
 10
0.0
 20
0.0
 30
0.0
 70
   128
 71
     5
 72
    10
 73
     9
  0
VERTEX
  5
598
  8
0
 62
     9
 10
0.0
 20
0.0
 30
0.0
 70
   128
 71
    12
 72
    10
 73
    11
  0
VERTEX
  5
599
  8
0
 62
     9
 10
0.0
 20
0.0
 30
0.0
 70
   128
 71
    12
 72
    13
 73
    10
  0
VERTEX
  5
59A
  8
0
 62
     9
 10
0.0
 20
0.0
 30
0.0
 70
   128
 71
    15
 72
    14
 73
    11
  0
VERTEX
  5
59B
  8
0
 62
     9
 10
0.0
 20
0.0
 30
0.0
 70
   128
 71
    11
 72
    16
 73
    15
  0
VERTEX
  5
59C
  8
0
 62
     9
 10
0.0
 20
0.0
 30
0.0
 70
   128
 71
    17
 72
    16
 73
     1
  0
VERTEX
  5
59D
  8
0
 62
     9
 10
0.0
 20
0.0
 30
0.0
 70
   128
 71
    17
 72
    18
 73
    16
  0
VERTEX
  5
59E
  8
0
 62
     9
 10
0.0
 20
0.0
 30
0.0
 70
   128
 71
     1
 72
     2
 73
    17
  0
VERTEX
  5
59F
  8
0
 62
     9
 10
0.0
 20
0.0
 30
0.0
 70
   128
 71
    16
 72
    18
 73
    15
  0
VERTEX
  5
5A0
  8
0
 62
     9
 10
0.0
 20
0.0
 30
0.0
 70
   128
 71
    11
 72
    14
 73
    12
  0
VERTEX
  5
5A1
  8
0
 62
     9
 10
0.0
 20
0.0
 30
0.0
 70
   128
 71
    10
 72
    13
 73
     9
  0
VERTEX
  5
5A2
  8
0
 62
     9
 10
0.0
 20
0.0
 30
0.0
 70
   128
 71
     5
 72
     8
 73
     6
  0
VERTEX
  5
5A3
  8
0
 62
     9
 10
0.0
 20
0.0
 30
0.0
 70
   128
 71
     4
 72
     7
 73
     3
  0
SEQEND
  5
5A4
  8
0
 62
     9
  0
ENDBLK
  5
5A7
  8
0
  0
BLOCK
  8
0
  2
E3_NODE_16_
 70
     0
 10
0.0
 20
0.0
 30
0.0
  3
E3_NODE_16_
  1

  0
POLYLINE
  5
5A9
  8
0
 62
     9
 66
     1
 10
0.0
 20
0.0
 30
0.0
 70
    64
 71
   132
 72
   240
  0
VERTEX
  5
5AA
  8
0
 10
6.072999954223633
 20
-7.971000194549561
 30
230.7910003662109
 70
   192
  0
VERTEX
  5
5AB
  8
0
 10
8.973999977111816
 20
0.0
 30
230.7910003662109
 70
   192
  0
VERTEX
  5
5AC
  8
0
 10
11.34899997711182
 20
0.0
 30
251.5169982910156
 70
   192
  0
VERTEX
  5
5AD
  8
0
 10
18.35199928283691
 20
0.0
 30
271.1669921875
 70
   192
  0
VERTEX
  5
5AE
  8
0
 10
15.7480001449585
 20
-7.971000194549561
 30
272.4460144042969
 70
   192
  0
VERTEX
  5
5AF
  8
0
 10
29.6200008392334
 20
0.0
 30
288.7229919433594
 70
   192
  0
VERTEX
  5
5B0
  8
0
 10
27.37299919128418
 20
-7.971000194549561
 30
290.5580139160156
 70
   192
  0
VERTEX
  5
5B1
  8
0
 10
44.56800079345703
 20
0.0
 30
303.2749938964844
 70
   192
  0
VERTEX
  5
5B2
  8
0
 10
42.79399871826172
 20
-7.971000194549561
 30
305.5710144042969
 70
   192
  0
VERTEX
  5
5B3
  8
0
 10
62.41999816894531
 20
0.0
 30
314.0669860839844
 70
   192
  0
VERTEX
  5
5B4
  8
0
 10
61.21200180053711
 20
-7.971000194549561
 30
316.7049865722656
 70
   192
  0
VERTEX
  5
5B5
  8
0
 10
82.25199890136719
 20
0.0
 30
320.5400085449219
 70
   192
  0
VERTEX
  5
5B6
  8
0
 10
81.6709976196289
 20
-7.971000194549561
 30
323.3829956054688
 70
   192
  0
VERTEX
  5
5B7
  8
0
 10
103.0329971313477
 20
0.0
 30
322.3580017089844
 70
   192
  0
VERTEX
  5
5B8
  8
0
 10
103.1110000610352
 20
-7.971000194549561
 30
325.2579956054688
 70
   192
  0
VERTEX
  5
5B9
  8
0
 10
123.6869964599609
 20
0.0
 30
319.427001953125
 70
   192
  0
VERTEX
  5
5BA
  8
0
 10
124.4189987182617
 20
-7.971000194549561
 30
322.2349853515625
 70
   192
  0
VERTEX
  5
5BB
  8
0
 10
143.1430053710938
 20
0.0
 30
311.8989868164062
 70
   192
  0
VERTEX
  5
5BC
  8
0
 10
144.4909973144531
 20
-7.971000194549561
 30
314.4679870605469
 70
   192
  0
VERTEX
  5
5BD
  8
0
 10
160.3899993896484
 20
0.0
 30
300.1640014648438
 70
   192
  0
VERTEX
  5
5BE
  8
0
 10
162.2839965820312
 20
-7.971000194549561
 30
302.3609924316406
 70
   192
  0
VERTEX
  5
5BF
  8
0
 10
174.5350036621094
 20
0.0
 30
284.8309936523438
 70
   192
  0
VERTEX
  5
5C0
  8
0
 10
176.8769989013672
 20
-7.971000194549561
 30
286.5429992675781
 70
   192
  0
VERTEX
  5
5C1
  8
0
 10
184.843994140625
 20
0.0
 30
266.6960144042969
 70
   192
  0
VERTEX
  5
5C2
  8
0
 10
187.5130004882812
 20
-7.971000194549561
 30
267.8330078125
 70
   192
  0
VERTEX
  5
5C3
  8
0
 10
193.6390075683594
 20
-7.971000194549561
 30
247.2010040283203
 70
   192
  0
VERTEX
  5
5C4
  8
0
 10
1.368000030517578
 20
-12.21199989318848
 30
253.8350067138672
 70
   192
  0
VERTEX
  5
5C5
  8
0
 10
2.400000095367432
 20
-10.09099960327148
 30
230.7910003662109
 70
   192
  0
VERTEX
  5
5C6
  8
0
 10
-1.273000001907349
 20
-12.21199989318848
 30
230.7910003662109
 70
   192
  0
VERTEX
  5
5C7
  8
0
 10
8.52400016784668
 20
-7.971000194549561
 30
252.1730041503906
 70
   192
  0
VERTEX
  5
5C8
  8
0
 10
9.154999732971191
 20
-12.21199989318848
 30
275.6839904785156
 70
   192
  0
VERTEX
  5
5C9
  8
0
 10
21.6830005645752
 20
-12.21199989318848
 30
295.2040100097656
 70
   192
  0
VERTEX
  5
5CA
  8
0
 10
38.30300140380859
 20
-12.21199989318848
 30
311.3829956054688
 70
   192
  0
VERTEX
  5
5CB
  8
0
 10
58.15200042724609
 20
-12.21199989318848
 30
323.3829956054688
 70
   192
  0
VERTEX
  5
5CC
  8
0
 10
80.2020034790039
 20
-12.21199989318848
 30
330.5799865722656
 70
   192
  0
VERTEX
  5
5CD
  8
0
 10
103.3079986572266
 20
-12.21199989318848
 30
332.6019897460938
 70
   192
  0
VERTEX
  5
5CE
  8
0
 10
126.2730026245117
 20
-12.21199989318848
 30
329.3429870605469
 70
   192
  0
VERTEX
  5
5CF
  8
0
 10
147.9040069580078
 20
-12.21199989318848
 30
320.9719848632812
 70
   192
  0
VERTEX
  5
5D0
  8
0
 10
167.0809936523438
 20
-12.21199989318848
 30
307.9249877929688
 70
   192
  0
VERTEX
  5
5D1
  8
0
 10
182.8090057373047
 20
-12.21199989318848
 30
290.8770141601562
 70
   192
  0
VERTEX
  5
5D2
  8
0
 10
194.27099609375
 20
-12.21199989318848
 30
270.7120056152344
 70
   192
  0
VERTEX
  5
5D3
  8
0
 10
197.2559967041016
 20
-10.09099960327148
 30
247.8390045166016
 70
   192
  0
VERTEX
  5
5D4
  8
0
 10
-9.62600040435791
 20
-10.73900032043457
 30
230.7910003662109
 70
   192
  0
VERTEX
  5
5D5
  8
0
 10
1.656999945640564
 20
-10.73900032043457
 30
279.3659973144531
 70
   192
  0
VERTEX
  5
5D6
  8
0
 10
15.21199989318848
 20
-10.73900032043457
 30
300.4869995117188
 70
   192
  0
VERTEX
  5
5D7
  8
0
 10
33.19499969482422
 20
-10.73900032043457
 30
317.9930114746094
 70
   192
  0
VERTEX
  5
5D8
  8
0
 10
54.67300033569336
 20
-10.73900032043457
 30
330.9769897460938
 70
   192
  0
VERTEX
  5
5D9
  8
0
 10
78.53099822998047
 20
-10.73900032043457
 30
338.7640075683594
 70
   192
  0
VERTEX
  5
5DA
  8
0
 10
103.5329971313477
 20
-10.73900032043457
 30
340.9519958496094
 70
   192
  0
VERTEX
  5
5DB
  8
0
 10
128.3809967041016
 20
-10.73900032043457
 30
337.4259948730469
 70
   192
  0
VERTEX
  5
5DC
  8
0
 10
151.7859954833984
 20
-10.73900032043457
 30
328.3689880371094
 70
   192
  0
VERTEX
  5
5DD
  8
0
 10
172.5359954833984
 20
-10.73900032043457
 30
314.2510070800781
 70
   192
  0
VERTEX
  5
5DE
  8
0
 10
189.5529937744141
 20
-10.73900032043457
 30
295.8049926757812
 70
   192
  0
VERTEX
  5
5DF
  8
0
 10
201.9559936523438
 20
-10.73900032043457
 30
273.9859924316406
 70
   192
  0
VERTEX
  5
5E0
  8
0
 10
209.1000061035156
 20
-10.73900032043457
 30
249.9279937744141
 70
   192
  0
VERTEX
  5
5E1
  8
0
 10
-12.07900047302246
 20
-4.241000175476074
 30
256.9590148925781
 70
   192
  0
VERTEX
  5
5E2
  8
0
 10
-15.07800006866455
 20
-4.241000175476074
 30
230.7910003662109
 70
   192
  0
VERTEX
  5
5E3
  8
0
 10
-6.76800012588501
 20
-10.73900032043457
 30
255.7250061035156
 70
   192
  0
VERTEX
  5
5E4
  8
0
 10
-3.236999988555908
 20
-4.241000175476074
 30
281.7690124511719
 70
   192
  0
VERTEX
  5
5E5
  8
0
 10
10.98900032043457
 20
-4.241000175476074
 30
303.9349975585938
 70
   192
  0
VERTEX
  5
5E6
  8
0
 10
29.86199951171875
 20
-4.241000175476074
 30
322.3080139160156
 70
   192
  0
VERTEX
  5
5E7
  8
0
 10
52.40200042724609
 20
-4.241000175476074
 30
335.9339904785156
 70
   192
  0
VERTEX
  5
5E8
  8
0
 10
77.44000244140625
 20
-4.241000175476074
 30
344.1059875488281
 70
   192
  0
VERTEX
  5
5E9
  8
0
 10
103.6790008544922
 20
-4.241000175476074
 30
346.4020080566406
 70
   192
  0
VERTEX
  5
5EA
  8
0
 10
129.7559967041016
 20
-4.241000175476074
 30
342.7009887695312
 70
   192
  0
VERTEX
  5
5EB
  8
0
 10
154.3200073242188
 20
-4.241000175476074
 30
333.1960144042969
 70
   192
  0
VERTEX
  5
5EC
  8
0
 10
176.0959930419922
 20
-4.241000175476074
 30
318.3800048828125
 70
   192
  0
VERTEX
  5
5ED
  8
0
 10
193.9559936523438
 20
-4.241000175476074
 30
299.02099609375
 70
   192
  0
VERTEX
  5
5EE
  8
0
 10
206.9720001220703
 20
-4.241000175476074
 30
276.1229858398438
 70
   192
  0
VERTEX
  5
5EF
  8
0
 10
214.468994140625
 20
-4.241000175476074
 30
250.8739929199219
 70
   192
  0
VERTEX
  5
5F0
  8
0
 10
-12.07900047302246
 20
4.241000175476074
 30
256.9590148925781
 70
   192
  0
VERTEX
  5
5F1
  8
0
 10
-15.07800006866455
 20
0.0
 30
230.7910003662109
 70
   192
  0
VERTEX
  5
5F2
  8
0
 10
-15.07800006866455
 20
4.241000175476074
 30
230.7910003662109
 70
   192
  0
VERTEX
  5
5F3
  8
0
 10
-3.236999988555908
 20
4.241000175476074
 30
281.7690124511719
 70
   192
  0
VERTEX
  5
5F4
  8
0
 10
10.98900032043457
 20
4.241000175476074
 30
303.9349975585938
 70
   192
  0
VERTEX
  5
5F5
  8
0
 10
29.86199951171875
 20
4.241000175476074
 30
322.3080139160156
 70
   192
  0
VERTEX
  5
5F6
  8
0
 10
52.40200042724609
 20
4.241000175476074
 30
335.9339904785156
 70
   192
  0
VERTEX
  5
5F7
  8
0
 10
77.44000244140625
 20
4.241000175476074
 30
344.1059875488281
 70
   192
  0
VERTEX
  5
5F8
  8
0
 10
103.6790008544922
 20
4.241000175476074
 30
346.4020080566406
 70
   192
  0
VERTEX
  5
5F9
  8
0
 10
129.7559967041016
 20
4.241000175476074
 30
342.7009887695312
 70
   192
  0
VERTEX
  5
5FA
  8
0
 10
154.3200073242188
 20
4.241000175476074
 30
333.1960144042969
 70
   192
  0
VERTEX
  5
5FB
  8
0
 10
176.0959930419922
 20
4.241000175476074
 30
318.3800048828125
 70
   192
  0
VERTEX
  5
5FC
  8
0
 10
193.9559936523438
 20
4.241000175476074
 30
299.02099609375
 70
   192
  0
VERTEX
  5
5FD
  8
0
 10
206.9720001220703
 20
4.241000175476074
 30
276.1229858398438
 70
   192
  0
VERTEX
  5
5FE
  8
0
 10
214.468994140625
 20
0.0
 30
250.8739929199219
 70
   192
  0
VERTEX
  5
5FF
  8
0
 10
-6.76800012588501
 20
10.73900032043457
 30
255.7250061035156
 70
   192
  0
VERTEX
  5
600
  8
0
 10
1.656999945640564
 20
10.73900032043457
 30
279.3659973144531
 70
   192
  0
VERTEX
  5
601
  8
0
 10
15.21199989318848
 20
10.73900032043457
 30
300.4869995117188
 70
   192
  0
VERTEX
  5
602
  8
0
 10
33.19499969482422
 20
10.73900032043457
 30
317.9930114746094
 70
   192
  0
VERTEX
  5
603
  8
0
 10
54.67300033569336
 20
10.73900032043457
 30
330.9769897460938
 70
   192
  0
VERTEX
  5
604
  8
0
 10
78.53099822998047
 20
10.73900032043457
 30
338.7640075683594
 70
   192
  0
VERTEX
  5
605
  8
0
 10
103.5329971313477
 20
10.73900032043457
 30
340.9519958496094
 70
   192
  0
VERTEX
  5
606
  8
0
 10
128.3809967041016
 20
10.73900032043457
 30
337.4259948730469
 70
   192
  0
VERTEX
  5
607
  8
0
 10
151.7859954833984
 20
10.73900032043457
 30
328.3689880371094
 70
   192
  0
VERTEX
  5
608
  8
0
 10
172.5359954833984
 20
10.73900032043457
 30
314.2510070800781
 70
   192
  0
VERTEX
  5
609
  8
0
 10
189.5529937744141
 20
10.73900032043457
 30
295.8049926757812
 70
   192
  0
VERTEX
  5
60A
  8
0
 10
201.9559936523438
 20
10.73900032043457
 30
273.9859924316406
 70
   192
  0
VERTEX
  5
60B
  8
0
 10
214.468994140625
 20
4.241000175476074
 30
250.8739929199219
 70
   192
  0
VERTEX
  5
60C
  8
0
 10
209.1000061035156
 20
10.73900032043457
 30
249.9279937744141
 70
   192
  0
VERTEX
  5
60D
  8
0
 10
-9.62600040435791
 20
10.73900032043457
 30
230.7910003662109
 70
   192
  0
VERTEX
  5
60E
  8
0
 10
1.368000030517578
 20
12.21199989318848
 30
253.8350067138672
 70
   192
  0
VERTEX
  5
60F
  8
0
 10
9.154999732971191
 20
12.21199989318848
 30
275.6839904785156
 70
   192
  0
VERTEX
  5
610
  8
0
 10
21.6830005645752
 20
12.21199989318848
 30
295.2040100097656
 70
   192
  0
VERTEX
  5
611
  8
0
 10
38.30300140380859
 20
12.21199989318848
 30
311.3829956054688
 70
   192
  0
VERTEX
  5
612
  8
0
 10
58.15200042724609
 20
12.21199989318848
 30
323.3829956054688
 70
   192
  0
VERTEX
  5
613
  8
0
 10
80.2020034790039
 20
12.21199989318848
 30
330.5799865722656
 70
   192
  0
VERTEX
  5
614
  8
0
 10
103.3079986572266
 20
12.21199989318848
 30
332.6019897460938
 70
   192
  0
VERTEX
  5
615
  8
0
 10
126.2730026245117
 20
12.21199989318848
 30
329.3429870605469
 70
   192
  0
VERTEX
  5
616
  8
0
 10
147.9040069580078
 20
12.21199989318848
 30
320.9719848632812
 70
   192
  0
VERTEX
  5
617
  8
0
 10
167.0809936523438
 20
12.21199989318848
 30
307.9249877929688
 70
   192
  0
VERTEX
  5
618
  8
0
 10
182.8090057373047
 20
12.21199989318848
 30
290.8770141601562
 70
   192
  0
VERTEX
  5
619
  8
0
 10
194.27099609375
 20
12.21199989318848
 30
270.7120056152344
 70
   192
  0
VERTEX
  5
61A
  8
0
 10
200.8730010986328
 20
12.21199989318848
 30
248.4770050048828
 70
   192
  0
VERTEX
  5
61B
  8
0
 10
2.400000095367432
 20
10.09099960327148
 30
230.7910003662109
 70
   192
  0
VERTEX
  5
61C
  8
0
 10
8.52400016784668
 20
7.971000194549561
 30
252.1730041503906
 70
   192
  0
VERTEX
  5
61D
  8
0
 10
6.072999954223633
 20
7.971000194549561
 30
230.7910003662109
 70
   192
  0
VERTEX
  5
61E
  8
0
 10
15.7480001449585
 20
7.971000194549561
 30
272.4460144042969
 70
   192
  0
VERTEX
  5
61F
  8
0
 10
27.37299919128418
 20
7.971000194549561
 30
290.5580139160156
 70
   192
  0
VERTEX
  5
620
  8
0
 10
42.79399871826172
 20
7.971000194549561
 30
305.5710144042969
 70
   192
  0
VERTEX
  5
621
  8
0
 10
61.21200180053711
 20
7.971000194549561
 30
316.7049865722656
 70
   192
  0
VERTEX
  5
622
  8
0
 10
81.6709976196289
 20
7.971000194549561
 30
323.3829956054688
 70
   192
  0
VERTEX
  5
623
  8
0
 10
103.1110000610352
 20
7.971000194549561
 30
325.2579956054688
 70
   192
  0
VERTEX
  5
624
  8
0
 10
124.4189987182617
 20
7.971000194549561
 30
322.2349853515625
 70
   192
  0
VERTEX
  5
625
  8
0
 10
144.4909973144531
 20
7.971000194549561
 30
314.4679870605469
 70
   192
  0
VERTEX
  5
626
  8
0
 10
162.2839965820312
 20
7.971000194549561
 30
302.3609924316406
 70
   192
  0
VERTEX
  5
627
  8
0
 10
176.8769989013672
 20
7.971000194549561
 30
286.5429992675781
 70
   192
  0
VERTEX
  5
628
  8
0
 10
187.5130004882812
 20
7.971000194549561
 30
267.8330078125
 70
   192
  0
VERTEX
  5
629
  8
0
 10
197.2559967041016
 20
10.09099960327148
 30
247.8390045166016
 70
   192
  0
VERTEX
  5
62A
  8
0
 10
193.6390075683594
 20
7.971000194549561
 30
247.2010040283203
 70
   192
  0
VERTEX
  5
62B
  8
0
 10
190.7819976806641
 20
0.0
 30
246.697998046875
 70
   192
  0
VERTEX
  5
62C
  8
0
 10
-1.273000001907349
 20
12.21199989318848
 30
230.7910003662109
 70
   192
  0
VERTEX
  5
62D
  8
0
 10
200.8730010986328
 20
-12.21199989318848
 30
248.4770050048828
 70
   192
  0
VERTEX
  5
62E
  8
0
 62
     9
 10
0.0
 20
0.0
 30
0.0
 70
   128
 71
     3
 72
     2
 73
     1
  0
VERTEX
  5
62F
  8
0
 62
     9
 10
0.0
 20
0.0
 30
0.0
 70
   128
 71
     5
 72
     4
 73
     3
  0
VERTEX
  5
630
  8
0
 62
     9
 10
0.0
 20
0.0
 30
0.0
 70
   128
 71
     7
 72
     6
 73
     4
  0
VERTEX
  5
631
  8
0
 62
     9
 10
0.0
 20
0.0
 30
0.0
 70
   128
 71
     9
 72
     8
 73
     6
  0
VERTEX
  5
632
  8
0
 62
     9
 10
0.0
 20
0.0
 30
0.0
 70
   128
 71
    11
 72
    10
 73
     8
  0
VERTEX
  5
633
  8
0
 62
     9
 10
0.0
 20
0.0
 30
0.0
 70
   128
 71
    13
 72
    12
 73
    10
  0
VERTEX
  5
634
  8
0
 62
     9
 10
0.0
 20
0.0
 30
0.0
 70
   128
 71
    15
 72
    14
 73
    12
  0
VERTEX
  5
635
  8
0
 62
     9
 10
0.0
 20
0.0
 30
0.0
 70
   128
 71
    17
 72
    16
 73
    14
  0
VERTEX
  5
636
  8
0
 62
     9
 10
0.0
 20
0.0
 30
0.0
 70
   128
 71
    19
 72
    18
 73
    16
  0
VERTEX
  5
637
  8
0
 62
     9
 10
0.0
 20
0.0
 30
0.0
 70
   128
 71
    21
 72
    20
 73
    18
  0
VERTEX
  5
638
  8
0
 62
     9
 10
0.0
 20
0.0
 30
0.0
 70
   128
 71
    23
 72
    22
 73
    20
  0
VERTEX
  5
639
  8
0
 62
     9
 10
0.0
 20
0.0
 30
0.0
 70
   128
 71
    25
 72
    24
 73
    22
  0
VERTEX
  5
63A
  8
0
 62
     9
 10
0.0
 20
0.0
 30
0.0
 70
   128
 71
    24
 72
    25
 73
    26
  0
VERTEX
  5
63B
  8
0
 62
     9
 10
0.0
 20
0.0
 30
0.0
 70
   128
 71
     1
 72
    28
 73
    27
  0
VERTEX
  5
63C
  8
0
 62
     9
 10
0.0
 20
0.0
 30
0.0
 70
   128
 71
    28
 72
    29
 73
    27
  0
VERTEX
  5
63D
  8
0
 62
     9
 10
0.0
 20
0.0
 30
0.0
 70
   128
 71
    31
 72
     5
 73
    30
  0
VERTEX
  5
63E
  8
0
 62
     9
 10
0.0
 20
0.0
 30
0.0
 70
   128
 71
    32
 72
     7
 73
     5
  0
VERTEX
  5
63F
  8
0
 62
     9
 10
0.0
 20
0.0
 30
0.0
 70
   128
 71
    33
 72
     9
 73
     7
  0
VERTEX
  5
640
  8
0
 62
     9
 10
0.0
 20
0.0
 30
0.0
 70
   128
 71
    34
 72
    11
 73
     9
  0
VERTEX
  5
641
  8
0
 62
     9
 10
0.0
 20
0.0
 30
0.0
 70
   128
 71
    35
 72
    13
 73
    11
  0
VERTEX
  5
642
  8
0
 62
     9
 10
0.0
 20
0.0
 30
0.0
 70
   128
 71
    36
 72
    15
 73
    13
  0
VERTEX
  5
643
  8
0
 62
     9
 10
0.0
 20
0.0
 30
0.0
 70
   128
 71
    37
 72
    17
 73
    15
  0
VERTEX
  5
644
  8
0
 62
     9
 10
0.0
 20
0.0
 30
0.0
 70
   128
 71
    38
 72
    19
 73
    17
  0
VERTEX
  5
645
  8
0
 62
     9
 10
0.0
 20
0.0
 30
0.0
 70
   128
 71
    39
 72
    21
 73
    19
  0
VERTEX
  5
646
  8
0
 62
     9
 10
0.0
 20
0.0
 30
0.0
 70
   128
 71
    40
 72
    23
 73
    21
  0
VERTEX
  5
647
  8
0
 62
     9
 10
0.0
 20
0.0
 30
0.0
 70
   128
 71
    41
 72
    25
 73
    23
  0
VERTEX
  5
648
  8
0
 62
     9
 10
0.0
 20
0.0
 30
0.0
 70
   128
 71
    25
 72
    41
 73
    42
  0
VERTEX
  5
649
  8
0
 62
     9
 10
0.0
 20
0.0
 30
0.0
 70
   128
 71
    42
 72
    26
 73
    25
  0
VERTEX
  5
64A
  8
0
 62
     9
 10
0.0
 20
0.0
 30
0.0
 70
   128
 71
    27
 72
    29
 73
    43
  0
VERTEX
  5
64B
  8
0
 62
     9
 10
0.0
 20
0.0
 30
0.0
 70
   128
 71
    44
 72
    31
 73
    27
  0
VERTEX
  5
64C
  8
0
 62
     9
 10
0.0
 20
0.0
 30
0.0
 70
   128
 71
    45
 72
    32
 73
    31
  0
VERTEX
  5
64D
  8
0
 62
     9
 10
0.0
 20
0.0
 30
0.0
 70
   128
 71
    46
 72
    33
 73
    32
  0
VERTEX
  5
64E
  8
0
 62
     9
 10
0.0
 20
0.0
 30
0.0
 70
   128
 71
    47
 72
    34
 73
    33
  0
VERTEX
  5
64F
  8
0
 62
     9
 10
0.0
 20
0.0
 30
0.0
 70
   128
 71
    48
 72
    35
 73
    34
  0
VERTEX
  5
650
  8
0
 62
     9
 10
0.0
 20
0.0
 30
0.0
 70
   128
 71
    49
 72
    36
 73
    35
  0
VERTEX
  5
651
  8
0
 62
     9
 10
0.0
 20
0.0
 30
0.0
 70
   128
 71
    50
 72
    37
 73
    36
  0
VERTEX
  5
652
  8
0
 62
     9
 10
0.0
 20
0.0
 30
0.0
 70
   128
 71
    51
 72
    38
 73
    37
  0
VERTEX
  5
653
  8
0
 62
     9
 10
0.0
 20
0.0
 30
0.0
 70
   128
 71
    52
 72
    39
 73
    38
  0
VERTEX
  5
654
  8
0
 62
     9
 10
0.0
 20
0.0
 30
0.0
 70
   128
 71
    53
 72
    40
 73
    39
  0
VERTEX
  5
655
  8
0
 62
     9
 10
0.0
 20
0.0
 30
0.0
 70
   128
 71
    54
 72
    41
 73
    40
  0
VERTEX
  5
656
  8
0
 62
     9
 10
0.0
 20
0.0
 30
0.0
 70
   128
 71
    41
 72
    54
 73
    55
  0
VERTEX
  5
657
  8
0
 62
     9
 10
0.0
 20
0.0
 30
0.0
 70
   128
 71
    43
 72
    57
 73
    56
  0
VERTEX
  5
658
  8
0
 62
     9
 10
0.0
 20
0.0
 30
0.0
 70
   128
 71
    59
 72
    44
 73
    58
  0
VERTEX
  5
659
  8
0
 62
     9
 10
0.0
 20
0.0
 30
0.0
 70
   128
 71
    60
 72
    45
 73
    44
  0
VERTEX
  5
65A
  8
0
 62
     9
 10
0.0
 20
0.0
 30
0.0
 70
   128
 71
    61
 72
    46
 73
    45
  0
VERTEX
  5
65B
  8
0
 62
     9
 10
0.0
 20
0.0
 30
0.0
 70
   128
 71
    62
 72
    47
 73
    46
  0
VERTEX
  5
65C
  8
0
 62
     9
 10
0.0
 20
0.0
 30
0.0
 70
   128
 71
    63
 72
    48
 73
    47
  0
VERTEX
  5
65D
  8
0
 62
     9
 10
0.0
 20
0.0
 30
0.0
 70
   128
 71
    64
 72
    49
 73
    48
  0
VERTEX
  5
65E
  8
0
 62
     9
 10
0.0
 20
0.0
 30
0.0
 70
   128
 71
    65
 72
    50
 73
    49
  0
VERTEX
  5
65F
  8
0
 62
     9
 10
0.0
 20
0.0
 30
0.0
 70
   128
 71
    66
 72
    51
 73
    50
  0
VERTEX
  5
660
  8
0
 62
     9
 10
0.0
 20
0.0
 30
0.0
 70
   128
 71
    67
 72
    52
 73
    51
  0
VERTEX
  5
661
  8
0
 62
     9
 10
0.0
 20
0.0
 30
0.0
 70
   128
 71
    68
 72
    53
 73
    52
  0
VERTEX
  5
662
  8
0
 62
     9
 10
0.0
 20
0.0
 30
0.0
 70
   128
 71
    69
 72
    54
 73
    53
  0
VERTEX
  5
663
  8
0
 62
     9
 10
0.0
 20
0.0
 30
0.0
 70
   128
 71
    54
 72
    69
 73
    70
  0
VERTEX
  5
664
  8
0
 62
     9
 10
0.0
 20
0.0
 30
0.0
 70
   128
 71
    72
 72
    71
 73
    56
  0
VERTEX
  5
665
  8
0
 62
     9
 10
0.0
 20
0.0
 30
0.0
 70
   128
 71
    72
 72
    73
 73
    71
  0
VERTEX
  5
666
  8
0
 62
     9
 10
0.0
 20
0.0
 30
0.0
 70
   128
 71
    74
 72
    59
 73
    56
  0
VERTEX
  5
667
  8
0
 62
     9
 10
0.0
 20
0.0
 30
0.0
 70
   128
 71
    75
 72
    60
 73
    59
  0
VERTEX
  5
668
  8
0
 62
     9
 10
0.0
 20
0.0
 30
0.0
 70
   128
 71
    76
 72
    61
 73
    60
  0
VERTEX
  5
669
  8
0
 62
     9
 10
0.0
 20
0.0
 30
0.0
 70
   128
 71
    77
 72
    62
 73
    61
  0
VERTEX
  5
66A
  8
0
 62
     9
 10
0.0
 20
0.0
 30
0.0
 70
   128
 71
    78
 72
    63
 73
    62
  0
VERTEX
  5
66B
  8
0
 62
     9
 10
0.0
 20
0.0
 30
0.0
 70
   128
 71
    79
 72
    64
 73
    63
  0
VERTEX
  5
66C
  8
0
 62
     9
 10
0.0
 20
0.0
 30
0.0
 70
   128
 71
    80
 72
    65
 73
    64
  0
VERTEX
  5
66D
  8
0
 62
     9
 10
0.0
 20
0.0
 30
0.0
 70
   128
 71
    81
 72
    66
 73
    65
  0
VERTEX
  5
66E
  8
0
 62
     9
 10
0.0
 20
0.0
 30
0.0
 70
   128
 71
    82
 72
    67
 73
    66
  0
VERTEX
  5
66F
  8
0
 62
     9
 10
0.0
 20
0.0
 30
0.0
 70
   128
 71
    83
 72
    68
 73
    67
  0
VERTEX
  5
670
  8
0
 62
     9
 10
0.0
 20
0.0
 30
0.0
 70
   128
 71
    84
 72
    69
 73
    68
  0
VERTEX
  5
671
  8
0
 62
     9
 10
0.0
 20
0.0
 30
0.0
 70
   128
 71
    85
 72
    70
 73
    69
  0
VERTEX
  5
672
  8
0
 62
     9
 10
0.0
 20
0.0
 30
0.0
 70
   128
 71
    69
 72
    84
 73
    85
  0
VERTEX
  5
673
  8
0
 62
     9
 10
0.0
 20
0.0
 30
0.0
 70
   128
 71
    86
 72
    71
 73
    73
  0
VERTEX
  5
674
  8
0
 62
     9
 10
0.0
 20
0.0
 30
0.0
 70
   128
 71
    87
 72
    74
 73
    71
  0
VERTEX
  5
675
  8
0
 62
     9
 10
0.0
 20
0.0
 30
0.0
 70
   128
 71
    88
 72
    75
 73
    74
  0
VERTEX
  5
676
  8
0
 62
     9
 10
0.0
 20
0.0
 30
0.0
 70
   128
 71
    89
 72
    76
 73
    75
  0
VERTEX
  5
677
  8
0
 62
     9
 10
0.0
 20
0.0
 30
0.0
 70
   128
 71
    90
 72
    77
 73
    76
  0
VERTEX
  5
678
  8
0
 62
     9
 10
0.0
 20
0.0
 30
0.0
 70
   128
 71
    91
 72
    78
 73
    77
  0
VERTEX
  5
679
  8
0
 62
     9
 10
0.0
 20
0.0
 30
0.0
 70
   128
 71
    92
 72
    79
 73
    78
  0
VERTEX
  5
67A
  8
0
 62
     9
 10
0.0
 20
0.0
 30
0.0
 70
   128
 71
    93
 72
    80
 73
    79
  0
VERTEX
  5
67B
  8
0
 62
     9
 10
0.0
 20
0.0
 30
0.0
 70
   128
 71
    94
 72
    81
 73
    80
  0
VERTEX
  5
67C
  8
0
 62
     9
 10
0.0
 20
0.0
 30
0.0
 70
   128
 71
    95
 72
    82
 73
    81
  0
VERTEX
  5
67D
  8
0
 62
     9
 10
0.0
 20
0.0
 30
0.0
 70
   128
 71
    96
 72
    83
 73
    82
  0
VERTEX
  5
67E
  8
0
 62
     9
 10
0.0
 20
0.0
 30
0.0
 70
   128
 71
    97
 72
    84
 73
    83
  0
VERTEX
  5
67F
  8
0
 62
     9
 10
0.0
 20
0.0
 30
0.0
 70
   128
 71
    99
 72
    98
 73
    84
  0
VERTEX
  5
680
  8
0
 62
     9
 10
0.0
 20
0.0
 30
0.0
 70
   128
 71
   101
 72
    86
 73
   100
  0
VERTEX
  5
681
  8
0
 62
     9
 10
0.0
 20
0.0
 30
0.0
 70
   128
 71
   102
 72
    87
 73
    86
  0
VERTEX
  5
682
  8
0
 62
     9
 10
0.0
 20
0.0
 30
0.0
 70
   128
 71
   103
 72
    88
 73
    87
  0
VERTEX
  5
683
  8
0
 62
     9
 10
0.0
 20
0.0
 30
0.0
 70
   128
 71
   104
 72
    89
 73
    88
  0
VERTEX
  5
684
  8
0
 62
     9
 10
0.0
 20
0.0
 30
0.0
 70
   128
 71
   105
 72
    90
 73
    89
  0
VERTEX
  5
685
  8
0
 62
     9
 10
0.0
 20
0.0
 30
0.0
 70
   128
 71
   106
 72
    91
 73
    90
  0
VERTEX
  5
686
  8
0
 62
     9
 10
0.0
 20
0.0
 30
0.0
 70
   128
 71
   107
 72
    92
 73
    91
  0
VERTEX
  5
687
  8
0
 62
     9
 10
0.0
 20
0.0
 30
0.0
 70
   128
 71
   108
 72
    93
 73
    92
  0
VERTEX
  5
688
  8
0
 62
     9
 10
0.0
 20
0.0
 30
0.0
 70
   128
 71
   109
 72
    94
 73
    93
  0
VERTEX
  5
689
  8
0
 62
     9
 10
0.0
 20
0.0
 30
0.0
 70
   128
 71
   110
 72
    95
 73
    94
  0
VERTEX
  5
68A
  8
0
 62
     9
 10
0.0
 20
0.0
 30
0.0
 70
   128
 71
   111
 72
    96
 73
    95
  0
VERTEX
  5
68B
  8
0
 62
     9
 10
0.0
 20
0.0
 30
0.0
 70
   128
 71
   112
 72
    97
 73
    96
  0
VERTEX
  5
68C
  8
0
 62
     9
 10
0.0
 20
0.0
 30
0.0
 70
   128
 71
   112
 72
   113
 73
    99
  0
VERTEX
  5
68D
  8
0
 62
     9
 10
0.0
 20
0.0
 30
0.0
 70
   128
 71
   115
 72
   101
 73
   114
  0
VERTEX
  5
68E
  8
0
 62
     9
 10
0.0
 20
0.0
 30
0.0
 70
   128
 71
   114
 72
   116
 73
   115
  0
VERTEX
  5
68F
  8
0
 62
     9
 10
0.0
 20
0.0
 30
0.0
 70
   128
 71
   117
 72
   102
 73
   101
  0
VERTEX
  5
690
  8
0
 62
     9
 10
0.0
 20
0.0
 30
0.0
 70
   128
 71
   118
 72
   103
 73
   102
  0
VERTEX
  5
691
  8
0
 62
     9
 10
0.0
 20
0.0
 30
0.0
 70
   128
 71
   119
 72
   104
 73
   103
  0
VERTEX
  5
692
  8
0
 62
     9
 10
0.0
 20
0.0
 30
0.0
 70
   128
 71
   120
 72
   105
 73
   104
  0
VERTEX
  5
693
  8
0
 62
     9
 10
0.0
 20
0.0
 30
0.0
 70
   128
 71
   121
 72
   106
 73
   105
  0
VERTEX
  5
694
  8
0
 62
     9
 10
0.0
 20
0.0
 30
0.0
 70
   128
 71
   122
 72
   107
 73
   106
  0
VERTEX
  5
695
  8
0
 62
     9
 10
0.0
 20
0.0
 30
0.0
 70
   128
 71
   123
 72
   108
 73
   107
  0
VERTEX
  5
696
  8
0
 62
     9
 10
0.0
 20
0.0
 30
0.0
 70
   128
 71
   124
 72
   109
 73
   108
  0
VERTEX
  5
697
  8
0
 62
     9
 10
0.0
 20
0.0
 30
0.0
 70
   128
 71
   125
 72
   110
 73
   109
  0
VERTEX
  5
698
  8
0
 62
     9
 10
0.0
 20
0.0
 30
0.0
 70
   128
 71
   126
 72
   111
 73
   110
  0
VERTEX
  5
699
  8
0
 62
     9
 10
0.0
 20
0.0
 30
0.0
 70
   128
 71
   127
 72
   112
 73
   111
  0
VERTEX
  5
69A
  8
0
 62
     9
 10
0.0
 20
0.0
 30
0.0
 70
   128
 71
   129
 72
   128
 73
   112
  0
VERTEX
  5
69B
  8
0
 62
     9
 10
0.0
 20
0.0
 30
0.0
 70
   128
 71
   128
 72
   113
 73
   112
  0
VERTEX
  5
69C
  8
0
 62
     9
 10
0.0
 20
0.0
 30
0.0
 70
   128
 71
     3
 72
   115
 73
   116
  0
VERTEX
  5
69D
  8
0
 62
     9
 10
0.0
 20
0.0
 30
0.0
 70
   128
 71
     4
 72
   117
 73
   115
  0
VERTEX
  5
69E
  8
0
 62
     9
 10
0.0
 20
0.0
 30
0.0
 70
   128
 71
     6
 72
   118
 73
   117
  0
VERTEX
  5
69F
  8
0
 62
     9
 10
0.0
 20
0.0
 30
0.0
 70
   128
 71
     8
 72
   119
 73
   118
  0
VERTEX
  5
6A0
  8
0
 62
     9
 10
0.0
 20
0.0
 30
0.0
 70
   128
 71
    10
 72
   120
 73
   119
  0
VERTEX
  5
6A1
  8
0
 62
     9
 10
0.0
 20
0.0
 30
0.0
 70
   128
 71
    12
 72
   121
 73
   120
  0
VERTEX
  5
6A2
  8
0
 62
     9
 10
0.0
 20
0.0
 30
0.0
 70
   128
 71
    14
 72
   122
 73
   121
  0
VERTEX
  5
6A3
  8
0
 62
     9
 10
0.0
 20
0.0
 30
0.0
 70
   128
 71
    16
 72
   123
 73
   122
  0
VERTEX
  5
6A4
  8
0
 62
     9
 10
0.0
 20
0.0
 30
0.0
 70
   128
 71
    18
 72
   124
 73
   123
  0
VERTEX
  5
6A5
  8
0
 62
     9
 10
0.0
 20
0.0
 30
0.0
 70
   128
 71
    20
 72
   125
 73
   124
  0
VERTEX
  5
6A6
  8
0
 62
     9
 10
0.0
 20
0.0
 30
0.0
 70
   128
 71
    22
 72
   126
 73
   125
  0
VERTEX
  5
6A7
  8
0
 62
     9
 10
0.0
 20
0.0
 30
0.0
 70
   128
 71
    24
 72
   127
 73
   126
  0
VERTEX
  5
6A8
  8
0
 62
     9
 10
0.0
 20
0.0
 30
0.0
 70
   128
 71
    24
 72
   130
 73
   129
  0
VERTEX
  5
6A9
  8
0
 62
     9
 10
0.0
 20
0.0
 30
0.0
 70
   128
 71
   129
 72
   127
 73
    24
  0
VERTEX
  5
6AA
  8
0
 62
     9
 10
0.0
 20
0.0
 30
0.0
 70
   128
 71
   126
 72
    22
 73
    24
  0
VERTEX
  5
6AB
  8
0
 62
     9
 10
0.0
 20
0.0
 30
0.0
 70
   128
 71
   125
 72
    20
 73
    22
  0
VERTEX
  5
6AC
  8
0
 62
     9
 10
0.0
 20
0.0
 30
0.0
 70
   128
 71
   124
 72
    18
 73
    20
  0
VERTEX
  5
6AD
  8
0
 62
     9
 10
0.0
 20
0.0
 30
0.0
 70
   128
 71
   123
 72
    16
 73
    18
  0
VERTEX
  5
6AE
  8
0
 62
     9
 10
0.0
 20
0.0
 30
0.0
 70
   128
 71
   122
 72
    14
 73
    16
  0
VERTEX
  5
6AF
  8
0
 62
     9
 10
0.0
 20
0.0
 30
0.0
 70
   128
 71
   121
 72
    12
 73
    14
  0
VERTEX
  5
6B0
  8
0
 62
     9
 10
0.0
 20
0.0
 30
0.0
 70
   128
 71
   120
 72
    10
 73
    12
  0
VERTEX
  5
6B1
  8
0
 62
     9
 10
0.0
 20
0.0
 30
0.0
 70
   128
 71
   119
 72
     8
 73
    10
  0
VERTEX
  5
6B2
  8
0
 62
     9
 10
0.0
 20
0.0
 30
0.0
 70
   128
 71
   118
 72
     6
 73
     8
  0
VERTEX
  5
6B3
  8
0
 62
     9
 10
0.0
 20
0.0
 30
0.0
 70
   128
 71
   117
 72
     4
 73
     6
  0
VERTEX
  5
6B4
  8
0
 62
     9
 10
0.0
 20
0.0
 30
0.0
 70
   128
 71
   115
 72
     3
 73
     4
  0
VERTEX
  5
6B5
  8
0
 62
     9
 10
0.0
 20
0.0
 30
0.0
 70
   128
 71
   116
 72
     2
 73
     3
  0
VERTEX
  5
6B6
  8
0
 62
     9
 10
0.0
 20
0.0
 30
0.0
 70
   128
 71
   112
 72
   127
 73
   129
  0
VERTEX
  5
6B7
  8
0
 62
     9
 10
0.0
 20
0.0
 30
0.0
 70
   128
 71
   111
 72
   126
 73
   127
  0
VERTEX
  5
6B8
  8
0
 62
     9
 10
0.0
 20
0.0
 30
0.0
 70
   128
 71
   110
 72
   125
 73
   126
  0
VERTEX
  5
6B9
  8
0
 62
     9
 10
0.0
 20
0.0
 30
0.0
 70
   128
 71
   109
 72
   124
 73
   125
  0
VERTEX
  5
6BA
  8
0
 62
     9
 10
0.0
 20
0.0
 30
0.0
 70
   128
 71
   108
 72
   123
 73
   124
  0
VERTEX
  5
6BB
  8
0
 62
     9
 10
0.0
 20
0.0
 30
0.0
 70
   128
 71
   107
 72
   122
 73
   123
  0
VERTEX
  5
6BC
  8
0
 62
     9
 10
0.0
 20
0.0
 30
0.0
 70
   128
 71
   106
 72
   121
 73
   122
  0
VERTEX
  5
6BD
  8
0
 62
     9
 10
0.0
 20
0.0
 30
0.0
 70
   128
 71
   105
 72
   120
 73
   121
  0
VERTEX
  5
6BE
  8
0
 62
     9
 10
0.0
 20
0.0
 30
0.0
 70
   128
 71
   104
 72
   119
 73
   120
  0
VERTEX
  5
6BF
  8
0
 62
     9
 10
0.0
 20
0.0
 30
0.0
 70
   128
 71
   103
 72
   118
 73
   119
  0
VERTEX
  5
6C0
  8
0
 62
     9
 10
0.0
 20
0.0
 30
0.0
 70
   128
 71
   102
 72
   117
 73
   118
  0
VERTEX
  5
6C1
  8
0
 62
     9
 10
0.0
 20
0.0
 30
0.0
 70
   128
 71
   101
 72
   115
 73
   117
  0
VERTEX
  5
6C2
  8
0
 62
     9
 10
0.0
 20
0.0
 30
0.0
 70
   128
 71
   101
 72
   131
 73
   114
  0
VERTEX
  5
6C3
  8
0
 62
     9
 10
0.0
 20
0.0
 30
0.0
 70
   128
 71
    99
 72
    97
 73
   112
  0
VERTEX
  5
6C4
  8
0
 62
     9
 10
0.0
 20
0.0
 30
0.0
 70
   128
 71
    96
 72
   111
 73
   112
  0
VERTEX
  5
6C5
  8
0
 62
     9
 10
0.0
 20
0.0
 30
0.0
 70
   128
 71
    95
 72
   110
 73
   111
  0
VERTEX
  5
6C6
  8
0
 62
     9
 10
0.0
 20
0.0
 30
0.0
 70
   128
 71
    94
 72
   109
 73
   110
  0
VERTEX
  5
6C7
  8
0
 62
     9
 10
0.0
 20
0.0
 30
0.0
 70
   128
 71
    93
 72
   108
 73
   109
  0
VERTEX
  5
6C8
  8
0
 62
     9
 10
0.0
 20
0.0
 30
0.0
 70
   128
 71
    92
 72
   107
 73
   108
  0
VERTEX
  5
6C9
  8
0
 62
     9
 10
0.0
 20
0.0
 30
0.0
 70
   128
 71
    91
 72
   106
 73
   107
  0
VERTEX
  5
6CA
  8
0
 62
     9
 10
0.0
 20
0.0
 30
0.0
 70
   128
 71
    90
 72
   105
 73
   106
  0
VERTEX
  5
6CB
  8
0
 62
     9
 10
0.0
 20
0.0
 30
0.0
 70
   128
 71
    89
 72
   104
 73
   105
  0
VERTEX
  5
6CC
  8
0
 62
     9
 10
0.0
 20
0.0
 30
0.0
 70
   128
 71
    88
 72
   103
 73
   104
  0
VERTEX
  5
6CD
  8
0
 62
     9
 10
0.0
 20
0.0
 30
0.0
 70
   128
 71
    87
 72
   102
 73
   103
  0
VERTEX
  5
6CE
  8
0
 62
     9
 10
0.0
 20
0.0
 30
0.0
 70
   128
 71
    86
 72
   101
 73
   102
  0
VERTEX
  5
6CF
  8
0
 62
     9
 10
0.0
 20
0.0
 30
0.0
 70
   128
 71
   100
 72
   131
 73
   101
  0
VERTEX
  5
6D0
  8
0
 62
     9
 10
0.0
 20
0.0
 30
0.0
 70
   128
 71
    84
 72
    97
 73
    99
  0
VERTEX
  5
6D1
  8
0
 62
     9
 10
0.0
 20
0.0
 30
0.0
 70
   128
 71
    83
 72
    96
 73
    97
  0
VERTEX
  5
6D2
  8
0
 62
     9
 10
0.0
 20
0.0
 30
0.0
 70
   128
 71
    82
 72
    95
 73
    96
  0
VERTEX
  5
6D3
  8
0
 62
     9
 10
0.0
 20
0.0
 30
0.0
 70
   128
 71
    81
 72
    94
 73
    95
  0
VERTEX
  5
6D4
  8
0
 62
     9
 10
0.0
 20
0.0
 30
0.0
 70
   128
 71
    80
 72
    93
 73
    94
  0
VERTEX
  5
6D5
  8
0
 62
     9
 10
0.0
 20
0.0
 30
0.0
 70
   128
 71
    79
 72
    92
 73
    93
  0
VERTEX
  5
6D6
  8
0
 62
     9
 10
0.0
 20
0.0
 30
0.0
 70
   128
 71
    78
 72
    91
 73
    92
  0
VERTEX
  5
6D7
  8
0
 62
     9
 10
0.0
 20
0.0
 30
0.0
 70
   128
 71
    77
 72
    90
 73
    91
  0
VERTEX
  5
6D8
  8
0
 62
     9
 10
0.0
 20
0.0
 30
0.0
 70
   128
 71
    76
 72
    89
 73
    90
  0
VERTEX
  5
6D9
  8
0
 62
     9
 10
0.0
 20
0.0
 30
0.0
 70
   128
 71
    75
 72
    88
 73
    89
  0
VERTEX
  5
6DA
  8
0
 62
     9
 10
0.0
 20
0.0
 30
0.0
 70
   128
 71
    74
 72
    87
 73
    88
  0
VERTEX
  5
6DB
  8
0
 62
     9
 10
0.0
 20
0.0
 30
0.0
 70
   128
 71
    71
 72
    86
 73
    87
  0
VERTEX
  5
6DC
  8
0
 62
     9
 10
0.0
 20
0.0
 30
0.0
 70
   128
 71
    73
 72
   100
 73
    86
  0
VERTEX
  5
6DD
  8
0
 62
     9
 10
0.0
 20
0.0
 30
0.0
 70
   128
 71
    84
 72
    98
 73
    85
  0
VERTEX
  5
6DE
  8
0
 62
     9
 10
0.0
 20
0.0
 30
0.0
 70
   128
 71
    68
 72
    83
 73
    84
  0
VERTEX
  5
6DF
  8
0
 62
     9
 10
0.0
 20
0.0
 30
0.0
 70
   128
 71
    67
 72
    82
 73
    83
  0
VERTEX
  5
6E0
  8
0
 62
     9
 10
0.0
 20
0.0
 30
0.0
 70
   128
 71
    66
 72
    81
 73
    82
  0
VERTEX
  5
6E1
  8
0
 62
     9
 10
0.0
 20
0.0
 30
0.0
 70
   128
 71
    65
 72
    80
 73
    81
  0
VERTEX
  5
6E2
  8
0
 62
     9
 10
0.0
 20
0.0
 30
0.0
 70
   128
 71
    64
 72
    79
 73
    80
  0
VERTEX
  5
6E3
  8
0
 62
     9
 10
0.0
 20
0.0
 30
0.0
 70
   128
 71
    63
 72
    78
 73
    79
  0
VERTEX
  5
6E4
  8
0
 62
     9
 10
0.0
 20
0.0
 30
0.0
 70
   128
 71
    62
 72
    77
 73
    78
  0
VERTEX
  5
6E5
  8
0
 62
     9
 10
0.0
 20
0.0
 30
0.0
 70
   128
 71
    61
 72
    76
 73
    77
  0
VERTEX
  5
6E6
  8
0
 62
     9
 10
0.0
 20
0.0
 30
0.0
 70
   128
 71
    60
 72
    75
 73
    76
  0
VERTEX
  5
6E7
  8
0
 62
     9
 10
0.0
 20
0.0
 30
0.0
 70
   128
 71
    59
 72
    74
 73
    75
  0
VERTEX
  5
6E8
  8
0
 62
     9
 10
0.0
 20
0.0
 30
0.0
 70
   128
 71
    56
 72
    71
 73
    74
  0
VERTEX
  5
6E9
  8
0
 62
     9
 10
0.0
 20
0.0
 30
0.0
 70
   128
 71
    56
 72
    57
 73
    72
  0
VERTEX
  5
6EA
  8
0
 62
     9
 10
0.0
 20
0.0
 30
0.0
 70
   128
 71
    70
 72
    55
 73
    54
  0
VERTEX
  5
6EB
  8
0
 62
     9
 10
0.0
 20
0.0
 30
0.0
 70
   128
 71
    53
 72
    68
 73
    69
  0
VERTEX
  5
6EC
  8
0
 62
     9
 10
0.0
 20
0.0
 30
0.0
 70
   128
 71
    52
 72
    67
 73
    68
  0
VERTEX
  5
6ED
  8
0
 62
     9
 10
0.0
 20
0.0
 30
0.0
 70
   128
 71
    51
 72
    66
 73
    67
  0
VERTEX
  5
6EE
  8
0
 62
     9
 10
0.0
 20
0.0
 30
0.0
 70
   128
 71
    50
 72
    65
 73
    66
  0
VERTEX
  5
6EF
  8
0
 62
     9
 10
0.0
 20
0.0
 30
0.0
 70
   128
 71
    49
 72
    64
 73
    65
  0
VERTEX
  5
6F0
  8
0
 62
     9
 10
0.0
 20
0.0
 30
0.0
 70
   128
 71
    48
 72
    63
 73
    64
  0
VERTEX
  5
6F1
  8
0
 62
     9
 10
0.0
 20
0.0
 30
0.0
 70
   128
 71
    47
 72
    62
 73
    63
  0
VERTEX
  5
6F2
  8
0
 62
     9
 10
0.0
 20
0.0
 30
0.0
 70
   128
 71
    46
 72
    61
 73
    62
  0
VERTEX
  5
6F3
  8
0
 62
     9
 10
0.0
 20
0.0
 30
0.0
 70
   128
 71
    45
 72
    60
 73
    61
  0
VERTEX
  5
6F4
  8
0
 62
     9
 10
0.0
 20
0.0
 30
0.0
 70
   128
 71
    44
 72
    59
 73
    60
  0
VERTEX
  5
6F5
  8
0
 62
     9
 10
0.0
 20
0.0
 30
0.0
 70
   128
 71
    58
 72
    56
 73
    59
  0
VERTEX
  5
6F6
  8
0
 62
     9
 10
0.0
 20
0.0
 30
0.0
 70
   128
 71
    56
 72
    58
 73
    43
  0
VERTEX
  5
6F7
  8
0
 62
     9
 10
0.0
 20
0.0
 30
0.0
 70
   128
 71
    55
 72
   132
 73
    41
  0
VERTEX
  5
6F8
  8
0
 62
     9
 10
0.0
 20
0.0
 30
0.0
 70
   128
 71
    40
 72
    53
 73
    54
  0
VERTEX
  5
6F9
  8
0
 62
     9
 10
0.0
 20
0.0
 30
0.0
 70
   128
 71
    39
 72
    52
 73
    53
  0
VERTEX
  5
6FA
  8
0
 62
     9
 10
0.0
 20
0.0
 30
0.0
 70
   128
 71
    38
 72
    51
 73
    52
  0
VERTEX
  5
6FB
  8
0
 62
     9
 10
0.0
 20
0.0
 30
0.0
 70
   128
 71
    37
 72
    50
 73
    51
  0
VERTEX
  5
6FC
  8
0
 62
     9
 10
0.0
 20
0.0
 30
0.0
 70
   128
 71
    36
 72
    49
 73
    50
  0
VERTEX
  5
6FD
  8
0
 62
     9
 10
0.0
 20
0.0
 30
0.0
 70
   128
 71
    35
 72
    48
 73
    49
  0
VERTEX
  5
6FE
  8
0
 62
     9
 10
0.0
 20
0.0
 30
0.0
 70
   128
 71
    34
 72
    47
 73
    48
  0
VERTEX
  5
6FF
  8
0
 62
     9
 10
0.0
 20
0.0
 30
0.0
 70
   128
 71
    33
 72
    46
 73
    47
  0
VERTEX
  5
700
  8
0
 62
     9
 10
0.0
 20
0.0
 30
0.0
 70
   128
 71
    32
 72
    45
 73
    46
  0
VERTEX
  5
701
  8
0
 62
     9
 10
0.0
 20
0.0
 30
0.0
 70
   128
 71
    31
 72
    44
 73
    45
  0
VERTEX
  5
702
  8
0
 62
     9
 10
0.0
 20
0.0
 30
0.0
 70
   128
 71
    27
 72
    58
 73
    44
  0
VERTEX
  5
703
  8
0
 62
     9
 10
0.0
 20
0.0
 30
0.0
 70
   128
 71
    43
 72
    58
 73
    27
  0
VERTEX
  5
704
  8
0
 62
     9
 10
0.0
 20
0.0
 30
0.0
 70
   128
 71
    41
 72
   132
 73
    42
  0
VERTEX
  5
705
  8
0
 62
     9
 10
0.0
 20
0.0
 30
0.0
 70
   128
 71
    23
 72
    40
 73
    41
  0
VERTEX
  5
706
  8
0
 62
     9
 10
0.0
 20
0.0
 30
0.0
 70
   128
 71
    21
 72
    39
 73
    40
  0
VERTEX
  5
707
  8
0
 62
     9
 10
0.0
 20
0.0
 30
0.0
 70
   128
 71
    19
 72
    38
 73
    39
  0
VERTEX
  5
708
  8
0
 62
     9
 10
0.0
 20
0.0
 30
0.0
 70
   128
 71
    17
 72
    37
 73
    38
  0
VERTEX
  5
709
  8
0
 62
     9
 10
0.0
 20
0.0
 30
0.0
 70
   128
 71
    15
 72
    36
 73
    37
  0
VERTEX
  5
70A
  8
0
 62
     9
 10
0.0
 20
0.0
 30
0.0
 70
   128
 71
    13
 72
    35
 73
    36
  0
VERTEX
  5
70B
  8
0
 62
     9
 10
0.0
 20
0.0
 30
0.0
 70
   128
 71
    11
 72
    34
 73
    35
  0
VERTEX
  5
70C
  8
0
 62
     9
 10
0.0
 20
0.0
 30
0.0
 70
   128
 71
     9
 72
    33
 73
    34
  0
VERTEX
  5
70D
  8
0
 62
     9
 10
0.0
 20
0.0
 30
0.0
 70
   128
 71
     7
 72
    32
 73
    33
  0
VERTEX
  5
70E
  8
0
 62
     9
 10
0.0
 20
0.0
 30
0.0
 70
   128
 71
     5
 72
    31
 73
    32
  0
VERTEX
  5
70F
  8
0
 62
     9
 10
0.0
 20
0.0
 30
0.0
 70
   128
 71
    30
 72
    27
 73
    31
  0
VERTEX
  5
710
  8
0
 62
     9
 10
0.0
 20
0.0
 30
0.0
 70
   128
 71
    27
 72
    30
 73
     1
  0
VERTEX
  5
711
  8
0
 62
     9
 10
0.0
 20
0.0
 30
0.0
 70
   128
 71
    26
 72
   130
 73
    24
  0
VERTEX
  5
712
  8
0
 62
     9
 10
0.0
 20
0.0
 30
0.0
 70
   128
 71
    22
 72
    23
 73
    25
  0
VERTEX
  5
713
  8
0
 62
     9
 10
0.0
 20
0.0
 30
0.0
 70
   128
 71
    20
 72
    21
 73
    23
  0
VERTEX
  5
714
  8
0
 62
     9
 10
0.0
 20
0.0
 30
0.0
 70
   128
 71
    18
 72
    19
 73
    21
  0
VERTEX
  5
715
  8
0
 62
     9
 10
0.0
 20
0.0
 30
0.0
 70
   128
 71
    16
 72
    17
 73
    19
  0
VERTEX
  5
716
  8
0
 62
     9
 10
0.0
 20
0.0
 30
0.0
 70
   128
 71
    14
 72
    15
 73
    17
  0
VERTEX
  5
717
  8
0
 62
     9
 10
0.0
 20
0.0
 30
0.0
 70
   128
 71
    12
 72
    13
 73
    15
  0
VERTEX
  5
718
  8
0
 62
     9
 10
0.0
 20
0.0
 30
0.0
 70
   128
 71
    10
 72
    11
 73
    13
  0
VERTEX
  5
719
  8
0
 62
     9
 10
0.0
 20
0.0
 30
0.0
 70
   128
 71
     8
 72
     9
 73
    11
  0
VERTEX
  5
71A
  8
0
 62
     9
 10
0.0
 20
0.0
 30
0.0
 70
   128
 71
     6
 72
     7
 73
     9
  0
VERTEX
  5
71B
  8
0
 62
     9
 10
0.0
 20
0.0
 30
0.0
 70
   128
 71
     4
 72
     5
 73
     7
  0
VERTEX
  5
71C
  8
0
 62
     9
 10
0.0
 20
0.0
 30
0.0
 70
   128
 71
     3
 72
    30
 73
     5
  0
VERTEX
  5
71D
  8
0
 62
     9
 10
0.0
 20
0.0
 30
0.0
 70
   128
 71
     1
 72
    30
 73
     3
  0
SEQEND
  5
71E
  8
0
 62
     9
  0
ENDBLK
  5
721
  8
0
  0
BLOCK
  8
0
  2
E3_NODE_17_
 70
     0
 10
0.0
 20
0.0
 30
0.0
  3
E3_NODE_17_
  1

  0
POLYLINE
  5
723
  8
0
 62
     9
 66
     1
 10
0.0
 20
0.0
 30
0.0
 70
    64
 71
    18
 72
    18
  0
VERTEX
  5
724
  8
0
 10
8.973999977111816
 20
0.0
 30
97.19100189208984
 70
   192
  0
VERTEX
  5
725
  8
0
 10
2.773999929428101
 20
10.73900032043457
 30
97.19100189208984
 70
   192
  0
VERTEX
  5
726
  8
0
 10
6.072999954223633
 20
7.971000194549561
 30
230.7910003662109
 70
   192
  0
VERTEX
  5
727
  8
0
 10
2.400000095367432
 20
10.09099960327148
 30
230.7910003662109
 70
   192
  0
VERTEX
  5
728
  8
0
 10
-9.62600040435791
 20
10.73900032043457
 30
97.19100189208984
 70
   192
  0
VERTEX
  5
729
  8
0
 10
-9.62600040435791
 20
10.73900032043457
 30
230.7910003662109
 70
   192
  0
VERTEX
  5
72A
  8
0
 10
-1.273000001907349
 20
12.21199989318848
 30
230.7910003662109
 70
   192
  0
VERTEX
  5
72B
  8
0
 10
-15.82600021362305
 20
0.0
 30
97.19100189208984
 70
   192
  0
VERTEX
  5
72C
  8
0
 10
-15.07800006866455
 20
4.241000175476074
 30
230.7910003662109
 70
   192
  0
VERTEX
  5
72D
  8
0
 10
-15.07800006866455
 20
0.0
 30
230.7910003662109
 70
   192
  0
VERTEX
  5
72E
  8
0
 10
-9.62600040435791
 20
-10.73900032043457
 30
97.19100189208984
 70
   192
  0
VERTEX
  5
72F
  8
0
 10
-9.62600040435791
 20
-10.73900032043457
 30
230.7910003662109
 70
   192
  0
VERTEX
  5
730
  8
0
 10
-15.07800006866455
 20
-4.241000175476074
 30
230.7910003662109
 70
   192
  0
VERTEX
  5
731
  8
0
 10
2.773999929428101
 20
-10.73900032043457
 30
97.19100189208984
 70
   192
  0
VERTEX
  5
732
  8
0
 10
-1.273000001907349
 20
-12.21199989318848
 30
230.7910003662109
 70
   192
  0
VERTEX
  5
733
  8
0
 10
2.400000095367432
 20
-10.09099960327148
 30
230.7910003662109
 70
   192
  0
VERTEX
  5
734
  8
0
 10
8.973999977111816
 20
0.0
 30
230.7910003662109
 70
   192
  0
VERTEX
  5
735
  8
0
 10
6.072999954223633
 20
-7.971000194549561
 30
230.7910003662109
 70
   192
  0
VERTEX
  5
736
  8
0
 62
     9
 10
0.0
 20
0.0
 30
0.0
 70
   128
 71
     3
 72
     2
 73
     1
  0
VERTEX
  5
737
  8
0
 62
     9
 10
0.0
 20
0.0
 30
0.0
 70
   128
 71
     3
 72
     4
 73
     2
  0
VERTEX
  5
738
  8
0
 62
     9
 10
0.0
 20
0.0
 30
0.0
 70
   128
 71
     7
 72
     6
 73
     5
  0
VERTEX
  5
739
  8
0
 62
     9
 10
0.0
 20
0.0
 30
0.0
 70
   128
 71
     5
 72
     2
 73
     7
  0
VERTEX
  5
73A
  8
0
 62
     9
 10
0.0
 20
0.0
 30
0.0
 70
   128
 71
     9
 72
     8
 73
     5
  0
VERTEX
  5
73B
  8
0
 62
     9
 10
0.0
 20
0.0
 30
0.0
 70
   128
 71
     9
 72
    10
 73
     8
  0
VERTEX
  5
73C
  8
0
 62
     9
 10
0.0
 20
0.0
 30
0.0
 70
   128
 71
    13
 72
    12
 73
    11
  0
VERTEX
  5
73D
  8
0
 62
     9
 10
0.0
 20
0.0
 30
0.0
 70
   128
 71
    11
 72
     8
 73
    13
  0
VERTEX
  5
73E
  8
0
 62
     9
 10
0.0
 20
0.0
 30
0.0
 70
   128
 71
    15
 72
    14
 73
    11
  0
VERTEX
  5
73F
  8
0
 62
     9
 10
0.0
 20
0.0
 30
0.0
 70
   128
 71
    15
 72
    16
 73
    14
  0
VERTEX
  5
740
  8
0
 62
     9
 10
0.0
 20
0.0
 30
0.0
 70
   128
 71
    18
 72
    17
 73
     1
  0
VERTEX
  5
741
  8
0
 62
     9
 10
0.0
 20
0.0
 30
0.0
 70
   128
 71
     1
 72
    14
 73
    18
  0
VERTEX
  5
742
  8
0
 62
     9
 10
0.0
 20
0.0
 30
0.0
 70
   128
 71
    14
 72
    16
 73
    18
  0
VERTEX
  5
743
  8
0
 62
     9
 10
0.0
 20
0.0
 30
0.0
 70
   128
 71
    11
 72
    12
 73
    15
  0
VERTEX
  5
744
  8
0
 62
     9
 10
0.0
 20
0.0
 30
0.0
 70
   128
 71
     8
 72
    10
 73
    13
  0
VERTEX
  5
745
  8
0
 62
     9
 10
0.0
 20
0.0
 30
0.0
 70
   128
 71
     5
 72
     6
 73
     9
  0
VERTEX
  5
746
  8
0
 62
     9
 10
0.0
 20
0.0
 30
0.0
 70
   128
 71
     2
 72
     4
 73
     7
  0
VERTEX
  5
747
  8
0
 62
     9
 10
0.0
 20
0.0
 30
0.0
 70
   128
 71
     1
 72
    17
 73
     3
  0
SEQEND
  5
748
  8
0
 62
     9
  0
ENDBLK
  5
74B
  8
0
  0
BLOCK
  8
0
  2
E3_NODE_18_
 70
     0
 10
0.0
 20
0.0
 30
0.0
  3
E3_NODE_18_
  1

  0
POLYLINE
  5
74D
  8
0
 62
     9
 66
     1
 10
0.0
 20
0.0
 30
0.0
 70
    64
 71
    12
 72
    12
  0
VERTEX
  5
74E
  8
0
 10
206.7700042724609
 20
-7.794000148773193
 30
201.5200042724609
 70
   192
  0
VERTEX
  5
74F
  8
0
 10
202.3390045166016
 20
0.0
 30
200.7380065917969
 70
   192
  0
VERTEX
  5
750
  8
0
 10
202.5749969482422
 20
0.0
 30
199.3970031738281
 70
   192
  0
VERTEX
  5
751
  8
0
 10
215.6340026855469
 20
-7.794000148773193
 30
203.0820007324219
 70
   192
  0
VERTEX
  5
752
  8
0
 10
207.0070037841797
 20
-7.794000148773193
 30
200.1779937744141
 70
   192
  0
VERTEX
  5
753
  8
0
 10
220.0650024414062
 20
0.0
 30
203.8639984130859
 70
   192
  0
VERTEX
  5
754
  8
0
 10
215.8699951171875
 20
-7.794000148773193
 30
201.7409973144531
 70
   192
  0
VERTEX
  5
755
  8
0
 10
215.8699951171875
 20
7.794000148773193
 30
201.7409973144531
 70
   192
  0
VERTEX
  5
756
  8
0
 10
215.6340026855469
 20
7.794000148773193
 30
203.0820007324219
 70
   192
  0
VERTEX
  5
757
  8
0
 10
207.0070037841797
 20
7.794000148773193
 30
200.1779937744141
 70
   192
  0
VERTEX
  5
758
  8
0
 10
206.7700042724609
 20
7.794000148773193
 30
201.5200042724609
 70
   192
  0
VERTEX
  5
759
  8
0
 10
220.302001953125
 20
0.0
 30
202.5229949951172
 70
   192
  0
VERTEX
  5
75A
  8
0
 62
     9
 10
0.0
 20
0.0
 30
0.0
 70
   128
 71
     3
 72
     2
 73
     1
  0
VERTEX
  5
75B
  8
0
 62
     9
 10
0.0
 20
0.0
 30
0.0
 70
   128
 71
     5
 72
     1
 73
     4
  0
VERTEX
  5
75C
  8
0
 62
     9
 10
0.0
 20
0.0
 30
0.0
 70
   128
 71
     7
 72
     4
 73
     6
  0
VERTEX
  5
75D
  8
0
 62
     9
 10
0.0
 20
0.0
 30
0.0
 70
   128
 71
     6
 72
     9
 73
     8
  0
VERTEX
  5
75E
  8
0
 62
     9
 10
0.0
 20
0.0
 30
0.0
 70
   128
 71
     9
 72
    11
 73
    10
  0
VERTEX
  5
75F
  8
0
 62
     9
 10
0.0
 20
0.0
 30
0.0
 70
   128
 71
    11
 72
     2
 73
     3
  0
VERTEX
  5
760
  8
0
 62
     9
 10
0.0
 20
0.0
 30
0.0
 70
   128
 71
     3
 72
    10
 73
    11
  0
VERTEX
  5
761
  8
0
 62
     9
 10
0.0
 20
0.0
 30
0.0
 70
   128
 71
    10
 72
     8
 73
     9
  0
VERTEX
  5
762
  8
0
 62
     9
 10
0.0
 20
0.0
 30
0.0
 70
   128
 71
     8
 72
    12
 73
     6
  0
VERTEX
  5
763
  8
0
 62
     9
 10
0.0
 20
0.0
 30
0.0
 70
   128
 71
     6
 72
    12
 73
     7
  0
VERTEX
  5
764
  8
0
 62
     9
 10
0.0
 20
0.0
 30
0.0
 70
   128
 71
     4
 72
     7
 73
     5
  0
VERTEX
  5
765
  8
0
 62
     9
 10
0.0
 20
0.0
 30
0.0
 70
   128
 71
     1
 72
     5
 73
     3
  0
SEQEND
  5
766
  8
0
 62
     9
  0
ENDBLK
  5
769
  8
0
  0
BLOCK
  8
0
  2
E3_NODE_19_
 70
     0
 10
0.0
 20
0.0
 30
0.0
  3
E3_NODE_19_
  1

  0
POLYLINE
  5
76B
  8
0
 62
     9
 66
     1
 10
0.0
 20
0.0
 30
0.0
 70
    64
 71
     6
 72
     4
  0
VERTEX
  5
76C
  8
0
 10
215.8699951171875
 20
7.794000148773193
 30
201.7409973144531
 70
   192
  0
VERTEX
  5
76D
  8
0
 10
220.302001953125
 20
0.0
 30
202.5229949951172
 70
   192
  0
VERTEX
  5
76E
  8
0
 10
215.8699951171875
 20
-7.794000148773193
 30
201.7409973144531
 70
   192
  0
VERTEX
  5
76F
  8
0
 10
207.0070037841797
 20
-7.794000148773193
 30
200.1779937744141
 70
   192
  0
VERTEX
  5
770
  8
0
 10
202.5749969482422
 20
0.0
 30
199.3970031738281
 70
   192
  0
VERTEX
  5
771
  8
0
 10
207.0070037841797
 20
7.794000148773193
 30
200.1779937744141
 70
   192
  0
VERTEX
  5
772
  8
0
 62
     9
 10
0.0
 20
0.0
 30
0.0
 70
   128
 71
     3
 72
     2
 73
     1
  0
VERTEX
  5
773
  8
0
 62
     9
 10
0.0
 20
0.0
 30
0.0
 70
   128
 71
     6
 72
     5
 73
     4
  0
VERTEX
  5
774
  8
0
 62
     9
 10
0.0
 20
0.0
 30
0.0
 70
   128
 71
     4
 72
     1
 73
     6
  0
VERTEX
  5
775
  8
0
 62
     9
 10
0.0
 20
0.0
 30
0.0
 70
   128
 71
     1
 72
     4
 73
     3
  0
SEQEND
  5
776
  8
0
 62
     9
  0
ENDBLK
  5
779
  8
0
  0
BLOCK
  8
0
  2
E3_NODE_20_
 70
     0
 10
0.0
 20
0.0
 30
0.0
  3
E3_NODE_20_
  1

  0
POLYLINE
  5
77B
  8
0
 62
     9
 66
     1
 10
0.0
 20
0.0
 30
0.0
 70
    64
 71
    12
 72
    12
  0
VERTEX
  5
77C
  8
0
 10
203.2030029296875
 20
-10.39200019836426
 30
213.1139984130859
 70
   192
  0
VERTEX
  5
77D
  8
0
 10
197.2940063476562
 20
0.0
 30
212.0720062255859
 70
   192
  0
VERTEX
  5
77E
  8
0
 10
199.5509948730469
 20
0.0
 30
199.2700042724609
 70
   192
  0
VERTEX
  5
77F
  8
0
 10
217.2779998779297
 20
-10.39200019836426
 30
202.39599609375
 70
   192
  0
VERTEX
  5
780
  8
0
 10
215.0200042724609
 20
-10.39200019836426
 30
215.197998046875
 70
   192
  0
VERTEX
  5
781
  8
0
 10
220.9290008544922
 20
0.0
 30
216.2400054931641
 70
   192
  0
VERTEX
  5
782
  8
0
 10
217.2779998779297
 20
10.39200019836426
 30
202.39599609375
 70
   192
  0
VERTEX
  5
783
  8
0
 10
215.0200042724609
 20
10.39200019836426
 30
215.197998046875
 70
   192
  0
VERTEX
  5
784
  8
0
 10
203.2030029296875
 20
10.39200019836426
 30
213.1139984130859
 70
   192
  0
VERTEX
  5
785
  8
0
 10
205.4600067138672
 20
10.39200019836426
 30
200.3119964599609
 70
   192
  0
VERTEX
  5
786
  8
0
 10
223.1869964599609
 20
0.0
 30
203.4369964599609
 70
   192
  0
VERTEX
  5
787
  8
0
 10
205.4600067138672
 20
-10.39200019836426
 30
200.3119964599609
 70
   192
  0
VERTEX
  5
788
  8
0
 62
     9
 10
0.0
 20
0.0
 30
0.0
 70
   128
 71
     3
 72
     2
 73
     1
  0
VERTEX
  5
789
  8
0
 62
     9
 10
0.0
 20
0.0
 30
0.0
 70
   128
 71
     1
 72
     5
 73
     4
  0
VERTEX
  5
78A
  8
0
 62
     9
 10
0.0
 20
0.0
 30
0.0
 70
   128
 71
     4
 72
     5
 73
     6
  0
VERTEX
  5
78B
  8
0
 62
     9
 10
0.0
 20
0.0
 30
0.0
 70
   128
 71
     6
 72
     8
 73
     7
  0
VERTEX
  5
78C
  8
0
 62
     9
 10
0.0
 20
0.0
 30
0.0
 70
   128
 71
     7
 72
     8
 73
     9
  0
VERTEX
  5
78D
  8
0
 62
     9
 10
0.0
 20
0.0
 30
0.0
 70
   128
 71
     9
 72
     2
 73
     3
  0
VERTEX
  5
78E
  8
0
 62
     9
 10
0.0
 20
0.0
 30
0.0
 70
   128
 71
     3
 72
    10
 73
     9
  0
VERTEX
  5
78F
  8
0
 62
     9
 10
0.0
 20
0.0
 30
0.0
 70
   128
 71
     9
 72
    10
 73
     7
  0
VERTEX
  5
790
  8
0
 62
     9
 10
0.0
 20
0.0
 30
0.0
 70
   128
 71
     7
 72
    11
 73
     6
  0
VERTEX
  5
791
  8
0
 62
     9
 10
0.0
 20
0.0
 30
0.0
 70
   128
 71
     6
 72
    11
 73
     4
  0
VERTEX
  5
792
  8
0
 62
     9
 10
0.0
 20
0.0
 30
0.0
 70
   128
 71
     4
 72
    12
 73
     1
  0
VERTEX
  5
793
  8
0
 62
     9
 10
0.0
 20
0.0
 30
0.0
 70
   128
 71
     1
 72
    12
 73
     3
  0
SEQEND
  5
794
  8
0
 62
     9
  0
ENDBLK
  5
797
  8
0
  0
BLOCK
  8
0
  2
E3_NODE_21_
 70
     0
 10
0.0
 20
0.0
 30
0.0
  3
E3_NODE_21_
  1

  0
POLYLINE
  5
799
  8
0
 62
     9
 66
     1
 10
0.0
 20
0.0
 30
0.0
 70
    64
 71
     6
 72
     4
  0
VERTEX
  5
79A
  8
0
 10
205.4600067138672
 20
-10.39200019836426
 30
200.3119964599609
 70
   192
  0
VERTEX
  5
79B
  8
0
 10
199.5509948730469
 20
0.0
 30
199.2700042724609
 70
   192
  0
VERTEX
  5
79C
  8
0
 10
205.4600067138672
 20
10.39200019836426
 30
200.3119964599609
 70
   192
  0
VERTEX
  5
79D
  8
0
 10
217.2779998779297
 20
10.39200019836426
 30
202.39599609375
 70
   192
  0
VERTEX
  5
79E
  8
0
 10
223.1869964599609
 20
0.0
 30
203.4369964599609
 70
   192
  0
VERTEX
  5
79F
  8
0
 10
217.2779998779297
 20
-10.39200019836426
 30
202.39599609375
 70
   192
  0
VERTEX
  5
7A0
  8
0
 62
     9
 10
0.0
 20
0.0
 30
0.0
 70
   128
 71
     3
 72
     2
 73
     1
  0
VERTEX
  5
7A1
  8
0
 62
     9
 10
0.0
 20
0.0
 30
0.0
 70
   128
 71
     6
 72
     5
 73
     4
  0
VERTEX
  5
7A2
  8
0
 62
     9
 10
0.0
 20
0.0
 30
0.0
 70
   128
 71
     4
 72
     1
 73
     6
  0
VERTEX
  5
7A3
  8
0
 62
     9
 10
0.0
 20
0.0
 30
0.0
 70
   128
 71
     1
 72
     4
 73
     3
  0
SEQEND
  5
7A4
  8
0
 62
     9
  0
ENDBLK
  5
7A7
  8
0
  0
ENDSEC
  0
SECTION
  2
ENTITIES
  0
INSERT
  5
54
  8
LAYER_1
  2
E3_NODE
 10
0.0
 20
0.0
 30
0.0
  0
INSERT
  5
109
  8
LAYER_1
  2
E3_NODE_1_
 10
0.0
 20
0.0
 30
0.0
  0
INSERT
  5
1A3
  8
LAYER_1
  2
E3_NODE_2_
 10
0.0
 20
0.0
 30
0.0
  0
INSERT
  5
1BF
  8
LAYER_1
  2
E3_NODE_3_
 10
0.0
 20
0.0
 30
0.0
  0
INSERT
  5
1D1
  8
LAYER_1
  2
E3_NODE_4_
 10
0.0
 20
0.0
 30
0.0
  0
INSERT
  5
1F5
  8
LAYER_1
  2
E3_NODE_5_
 10
0.0
 20
0.0
 30
0.0
  0
INSERT
  5
209
  8
LAYER_1
  2
E3_NODE_6_
 10
0.0
 20
0.0
 30
0.0
  0
INSERT
  5
215
  8
LAYER_1
  2
E3_NODE_7_
 10
0.0
 20
0.0
 30
0.0
  0
INSERT
  5
242
  8
LAYER_1
  2
E3_NODE_8_
 10
0.0
 20
0.0
 30
0.0
  0
INSERT
  5
2DF
  8
LAYER_1
  2
E3_NODE_9_
 10
0.0
 20
0.0
 30
0.0
  0
INSERT
  5
352
  8
LAYER_1
  2
E3_NODE_10_
 10
0.0
 20
0.0
 30
0.0
  0
INSERT
  5
3F5
  8
LAYER_1
  2
E3_NODE_11_
 10
0.0
 20
0.0
 30
0.0
  0
INSERT
  5
482
  8
LAYER_1
  2
E3_NODE_12_
 10
0.0
 20
0.0
 30
0.0
  0
INSERT
  5
50D
  8
LAYER_1
  2
E3_NODE_13_
 10
0.0
 20
0.0
 30
0.0
  0
INSERT
  5
57B
  8
LAYER_1
  2
E3_NODE_14_
 10
0.0
 20
0.0
 30
0.0
  0
INSERT
  5
5A5
  8
LAYER_1
  2
E3_NODE_15_
 10
0.0
 20
0.0
 30
0.0
  0
INSERT
  5
71F
  8
LAYER_1
  2
E3_NODE_16_
 10
0.0
 20
0.0
 30
0.0
  0
INSERT
  5
749
  8
LAYER_1
  2
E3_NODE_17_
 10
0.0
 20
0.0
 30
0.0
  0
INSERT
  5
767
  8
LAYER_1
  2
E3_NODE_18_
 10
0.0
 20
0.0
 30
0.0
  0
INSERT
  5
777
  8
LAYER_1
  2
E3_NODE_19_
 10
0.0
 20
0.0
 30
0.0
  0
INSERT
  5
795
  8
LAYER_1
  2
E3_NODE_20_
 10
0.0
 20
0.0
 30
0.0
  0
INSERT
  5
7A5
  8
LAYER_1
  2
E3_NODE_21_
 10
0.0
 20
0.0
 30
0.0
  0
ENDSEC
  0
EOF
