  0
SECTION
  2
HEADER
  9
$ACADVER
  1
AC1015
  9
$ACADMAINTVER
 70
     6
  9
$DWGCODEPAGE
  3
ANSI_1252
  9
$INSBASE
 10
0.0
 20
0.0
 30
0.0
  9
$EXTMIN
 10
0.0
 20
0.0
 30
0.0
  9
$EXTMAX
 10
1682.0
 20
2378.0
 30
0.0
  9
$LIMMIN
 10
0.0
 20
0.0
  9
$LIMMAX
 10
1682.0
 20
2378.0
  9
$ORTHOMODE
 70
     0
  9
$REGENMODE
 70
     1
  9
$FILLMODE
 70
     1
  9
$QTEXTMODE
 70
     0
  9
$MIRRTEXT
 70
     1
  9
$LTSCALE
 40
1.0
  9
$ATTMODE
 70
     1
  9
$TEXTSIZE
 40
2.5
  9
$TRACEWID
 40
1.0
  9
$TEXTSTYLE
  7
Standard
  9
$CLAYER
  8
0
  9
$CELTYPE
  6
ByLayer
  9
$CECOLOR
 62
   256
  9
$CELTSCALE
 40
1.0
  9
$DISPSILH
 70
     0
  9
$DIMSCALE
 40
1.0
  9
$DIMASZ
 40
2.5
  9
$DIMEXO
 40
0.625
  9
$DIMDLI
 40
3.75
  9
$DIMRND
 40
0.0
  9
$DIMDLE
 40
0.0
  9
$DIMEXE
 40
1.25
  9
$DIMTP
 40
0.0
  9
$DIMTM
 40
0.0
  9
$DIMTXT
 40
2.5
  9
$DIMCEN
 40
2.5
  9
$DIMTSZ
 40
0.0
  9
$DIMTOL
 70
     0
  9
$DIMLIM
 70
     0
  9
$DIMTIH
 70
     0
  9
$DIMTOH
 70
     0
  9
$DIMSE1
 70
     0
  9
$DIMSE2
 70
     0
  9
$DIMTAD
 70
     1
  9
$DIMZIN
 70
     8
  9
$DIMBLK
  1

  9
$DIMASO
 70
     1
  9
$DIMSHO
 70
     1
  9
$DIMPOST
  1

  9
$DIMAPOST
  1

  9
$DIMALT
 70
     0
  9
$DIMALTD
 70
     3
  9
$DIMALTF
 40
0.0393700787
  9
$DIMLFAC
 40
1.0
  9
$DIMTOFL
 70
     1
  9
$DIMTVP
 40
0.0
  9
$DIMTIX
 70
     0
  9
$DIMSOXD
 70
     0
  9
$DIMSAH
 70
     0
  9
$DIMBLK1
  1

  9
$DIMBLK2
  1

  9
$DIMSTYLE
  2
ISO-25
  9
$DIMCLRD
 70
     0
  9
$DIMCLRE
 70
     0
  9
$DIMCLRT
 70
     0
  9
$DIMTFAC
 40
1.0
  9
$DIMGAP
 40
0.625
  9
$DIMJUST
 70
     0
  9
$DIMSD1
 70
     0
  9
$DIMSD2
 70
     0
  9
$DIMTOLJ
 70
     0
  9
$DIMTZIN
 70
     8
  9
$DIMALTZ
 70
     0
  9
$DIMALTTZ
 70
     0
  9
$DIMUPT
 70
     0
  9
$DIMDEC
 70
     2
  9
$DIMTDEC
 70
     2
  9
$DIMALTU
 70
     2
  9
$DIMALTTD
 70
     3
  9
$DIMTXSTY
  7
Standard
  9
$DIMAUNIT
 70
     0
  9
$DIMADEC
 70
     0
  9
$DIMALTRND
 40
0.0
  9
$DIMAZIN
 70
     0
  9
$DIMDSEP
 70
    44
  9
$DIMATFIT
 70
     3
  9
$DIMFRAC
 70
     0
  9
$DIMLDRBLK
  1

  9
$DIMLUNIT
 70
     2
  9
$DIMLWD
 70
    -2
  9
$DIMLWE
 70
    -2
  9
$DIMTMOVE
 70
     0
  9
$LUNITS
 70
     2
  9
$LUPREC
 70
     4
  9
$SKETCHINC
 40
1.0
  9
$FILLETRAD
 40
10.0
  9
$AUNITS
 70
     0
  9
$AUPREC
 70
     0
  9
$MENU
  1
.
  9
$ELEVATION
 40
0.0
  9
$PELEVATION
 40
0.0
  9
$THICKNESS
 40
0.0
  9
$LIMCHECK
 70
     0
  9
$CHAMFERA
 40
10.0
  9
$CHAMFERB
 40
10.0
  9
$CHAMFERC
 40
20.0
  9
$CHAMFERD
 40
0.0
  9
$SKPOLY
 70
     0
  9
$TDCREATE
 40
2455504.460483194
  9
$TDUCREATE
 40
2455504.418816528
  9
$TDUPDATE
 40
2455504.460483206
  9
$TDUUPDATE
 40
2455504.418816539
  9
$TDINDWG
 40
0.0000000116
  9
$TDUSRTIMER
 40
0.0000000116
  9
$USRTIMER
 70
     1
  9
$ANGBASE
 50
0.0
  9
$ANGDIR
 70
     0
  9
$PDMODE
 70
     0
  9
$PDSIZE
 40
0.0
  9
$PLINEWID
 40
0.0
  9
$SPLFRAME
 70
     0
  9
$SPLINETYPE
 70
     6
  9
$SPLINESEGS
 70
     8
  9
$HANDSEED
  5
17D
  9
$SURFTAB1
 70
     6
  9
$SURFTAB2
 70
     6
  9
$SURFTYPE
 70
     6
  9
$SURFU
 70
     6
  9
$SURFV
 70
     6
  9
$UCSBASE
  2

  9
$UCSNAME
  2

  9
$UCSORG
 10
0.0
 20
0.0
 30
0.0
  9
$UCSXDIR
 10
1.0
 20
0.0
 30
0.0
  9
$UCSYDIR
 10
0.0
 20
1.0
 30
0.0
  9
$UCSORTHOREF
  2

  9
$UCSORTHOVIEW
 70
     0
  9
$UCSORGTOP
 10
0.0
 20
0.0
 30
0.0
  9
$UCSORGBOTTOM
 10
0.0
 20
0.0
 30
0.0
  9
$UCSORGLEFT
 10
0.0
 20
0.0
 30
0.0
  9
$UCSORGRIGHT
 10
0.0
 20
0.0
 30
0.0
  9
$UCSORGFRONT
 10
0.0
 20
0.0
 30
0.0
  9
$UCSORGBACK
 10
0.0
 20
0.0
 30
0.0
  9
$PUCSBASE
  2

  9
$PUCSNAME
  2

  9
$PUCSORG
 10
0.0
 20
0.0
 30
0.0
  9
$PUCSXDIR
 10
1.0
 20
0.0
 30
0.0
  9
$PUCSYDIR
 10
0.0
 20
1.0
 30
0.0
  9
$PUCSORTHOREF
  2

  9
$PUCSORTHOVIEW
 70
     0
  9
$PUCSORGTOP
 10
0.0
 20
0.0
 30
0.0
  9
$PUCSORGBOTTOM
 10
0.0
 20
0.0
 30
0.0
  9
$PUCSORGLEFT
 10
0.0
 20
0.0
 30
0.0
  9
$PUCSORGRIGHT
 10
0.0
 20
0.0
 30
0.0
  9
$PUCSORGFRONT
 10
0.0
 20
0.0
 30
0.0
  9
$PUCSORGBACK
 10
0.0
 20
0.0
 30
0.0
  9
$USERI1
 70
     0
  9
$USERI2
 70
     0
  9
$USERI3
 70
     0
  9
$USERI4
 70
     0
  9
$USERI5
 70
     0
  9
$USERR1
 40
0.0
  9
$USERR2
 40
0.0
  9
$USERR3
 40
0.0
  9
$USERR4
 40
0.0
  9
$USERR5
 40
0.0
  9
$WORLDVIEW
 70
     1
  9
$SHADEDGE
 70
     3
  9
$SHADEDIF
 70
    70
  9
$TILEMODE
 70
     1
  9
$MAXACTVP
 70
    64
  9
$PINSBASE
 10
0.0
 20
0.0
 30
0.0
  9
$PLIMCHECK
 70
     0
  9
$PEXTMIN
 10
0.0
 20
0.0
 30
0.0
  9
$PEXTMAX
 10
1682.0
 20
2378.0
 30
0.0
  9
$PLIMMIN
 10
0.0
 20
0.0
  9
$PLIMMAX
 10
1682.0
 20
2378.0
  9
$UNITMODE
 70
     0
  9
$VISRETAIN
 70
     1
  9
$PLINEGEN
 70
     0
  9
$PSLTSCALE
 70
     1
  9
$TREEDEPTH
 70
  3020
  9
$CMLSTYLE
  2
Standard
  9
$CMLJUST
 70
     0
  9
$CMLSCALE
 40
20.0
  9
$PROXYGRAPHICS
 70
     1
  9
$MEASUREMENT
 70
     1
  9
$CELWEIGHT
370
    -1
  9
$ENDCAPS
280
     0
  9
$JOINSTYLE
280
     0
  9
$LWDISPLAY
290
     0
  9
$INSUNITS
 70
     4
  9
$HYPERLINKBASE
  1

  9
$STYLESHEET
  1

  9
$XEDIT
290
     1
  9
$CEPSNTYPE
380
     0
  9
$PSTYLEMODE
290
     1
  9
$FINGERPRINTGUID
  2
{0D447B4B-F1B0-4739-9E2B-B7F22C5307FB}
  9
$VERSIONGUID
  2
{FAEB1C32-E019-11D5-929B-00C0DF256EC4}
  9
$EXTNAMES
290
     1
  9
$PSVPSCALE
 40
0.0
  9
$OLESTARTUP
290
     0
  0
ENDSEC
  0
SECTION
  2
CLASSES
  0
CLASS
  1
ACDBDICTIONARYWDFLT
  2
AcDbDictionaryWithDefault
  3
ObjectDBX Classes
 90
        0
280
     0
281
     0
  0
CLASS
  1
VISUALSTYLE
  2
AcDbVisualStyle
  3
ObjectDBX Classes
 90
     4095
280
     0
281
     0
  0
CLASS
  1
SCALE
  2
AcDbScale
  3
ObjectDBX Classes
 90
     1153
280
     0
281
     0
  0
CLASS
  1
DICTIONARYVAR
  2
AcDbDictionaryVar
  3
ObjectDBX Classes
 90
        0
280
     0
281
     0
  0
CLASS
  1
ACDBPLACEHOLDER
  2
AcDbPlaceHolder
  3
ObjectDBX Classes
 90
        0
280
     0
281
     0
  0
CLASS
  1
LAYOUT
  2
AcDbLayout
  3
ObjectDBX Classes
 90
        0
280
     0
281
     0
  0
ENDSEC
  0
SECTION
  2
TABLES
  0
TABLE
  2
VPORT
  5
8
330
0
100
AcDbSymbolTable
 70
     1
  0
VPORT
  5
29
330
8
100
AcDbSymbolTableRecord
100
AcDbViewportTableRecord
  2
*Active
 70
     0
 10
0.0
 20
0.0
 11
1.0
 21
1.0
 12
344.1869158879
 22
148.5
 13
0.0
 23
0.0
 14
10.0
 24
10.0
 15
10.0
 25
10.0
 16
0.0
 26
0.0
 36
1.0
 17
0.0
 27
0.0
 37
0.0
 40
297.0
 41
1.9729729729
 42
50.0
 43
0.0
 44
0.0
 50
0.0
 51
0.0
 71
     0
 72
   100
 73
     1
 74
     3
 75
     0
 76
     0
 77
     0
 78
     0
281
     0
 65
     1
110
0.0
120
0.0
130
0.0
111
1.0
121
0.0
131
0.0
112
0.0
122
1.0
132
0.0
 79
     0
146
0.0
  0
ENDTAB
  0
TABLE
  2
LTYPE
  5
5
330
0
100
AcDbSymbolTable
 70
     2
  0
LTYPE
  5
14
330
5
100
AcDbSymbolTableRecord
100
AcDbLinetypeTableRecord
  2
ByBlock
 70
     0
  3

 72
    65
 73
     0
 40
0.0
  0
LTYPE
  5
15
330
5
100
AcDbSymbolTableRecord
100
AcDbLinetypeTableRecord
  2
ByLayer
 70
     0
  3

 72
    65
 73
     0
 40
0.0
  0
LTYPE
  5
16
330
5
100
AcDbSymbolTableRecord
100
AcDbLinetypeTableRecord
  2
Continuous
 70
     0
  3
Solid line
 72
    65
 73
     0
 40
0.0
  0
LTYPE
  5
60
330
5
100
AcDbSymbolTableRecord
100
AcDbLinetypeTableRecord
  2
CENTER2
 70
     0
  3
Center (.5x) ___ _ ___ _ ___ _ ___ _ ___ _ ___
 72
    65
 73
     4
 40
28.575
 49
19.05
 74
     4
 75
     0
340
0
 46
0.0
 50
0.0
 44
0.0
 45
0.0
 49
-3.175
 74
     4
 75
     0
340
0
 46
0.0
 50
0.0
 44
0.0
 45
0.0
 49
3.175
 74
     4
 75
     0
340
0
 46
0.0
 50
0.0
 44
0.0
 45
0.0
 49
-3.175
 74
     4
 75
     0
340
0
 46
0.0
 50
0.0
 44
0.0
 45
0.0
  0
ENDTAB
  0
TABLE
  2
LAYER
  5
2
330
0
100
AcDbSymbolTable
 70
    12
  0
LAYER
  5
10
330
2
100
AcDbSymbolTableRecord
100
AcDbLayerTableRecord
  2
0
 70
     0
 62
     7
  6
Continuous
370
    -3
390
F
  0
LAYER
  5
5D
330
2
100
AcDbSymbolTableRecord
100
AcDbLayerTableRecord
  2
Default
 70
     0
 62
     7
  6
Continuous
370
    -3
390
F
  0
LAYER
  5
77
330
2
100
AcDbSymbolTableRecord
100
AcDbLayerTableRecord
  2
$DDT_AUDIT_GENERATED_(77)
 70
     0
 62
     7
  6
Continuous
370
    -3
390
F
  0
LAYER
  5
85
330
2
100
AcDbSymbolTableRecord
100
AcDbLayerTableRecord
  2
$DDT_AUDIT_GENERATED_(85)
 70
     0
 62
     7
  6
Continuous
370
    -3
390
F
  0
LAYER
  5
89
330
2
100
AcDbSymbolTableRecord
100
AcDbLayerTableRecord
  2
$DDT_AUDIT_GENERATED_(89)
 70
     0
 62
     7
  6
Continuous
370
    -3
390
F
  0
LAYER
  5
A5
330
2
100
AcDbSymbolTableRecord
100
AcDbLayerTableRecord
  2
$DDT_AUDIT_GENERATED_(A5)
 70
     0
 62
     7
  6
Continuous
370
    -3
390
F
  0
LAYER
  5
B0
330
2
100
AcDbSymbolTableRecord
100
AcDbLayerTableRecord
  2
$DDT_AUDIT_GENERATED_(B0)
 70
     0
 62
     7
  6
Continuous
370
    -3
390
F
  0
LAYER
  5
B2
330
2
100
AcDbSymbolTableRecord
100
AcDbLayerTableRecord
  2
$DDT_AUDIT_GENERATED_(B2)
 70
     0
 62
     7
  6
Continuous
370
    -3
390
F
  0
LAYER
  5
C8
330
2
100
AcDbSymbolTableRecord
100
AcDbLayerTableRecord
  2
$DDT_AUDIT_GENERATED_(C8)
 70
     0
 62
     7
  6
Continuous
370
    -3
390
F
  0
LAYER
  5
E8
330
2
100
AcDbSymbolTableRecord
100
AcDbLayerTableRecord
  2
$DDT_AUDIT_GENERATED_(E8)
 70
     0
 62
     7
  6
Continuous
370
    -3
390
F
  0
LAYER
  5
108
330
2
100
AcDbSymbolTableRecord
100
AcDbLayerTableRecord
  2
$DDT_AUDIT_GENERATED_(108)
 70
     0
 62
     7
  6
Continuous
370
    -3
390
F
  0
LAYER
  5
128
330
2
100
AcDbSymbolTableRecord
100
AcDbLayerTableRecord
  2
$DDT_AUDIT_GENERATED_(128)
 70
     0
 62
     7
  6
Continuous
370
    -3
390
F
  0
ENDTAB
  0
TABLE
  2
STYLE
  5
3
330
0
100
AcDbSymbolTable
 70
     2
  0
STYLE
  5
11
330
3
100
AcDbSymbolTableRecord
100
AcDbTextStyleTableRecord
  2
Standard
 70
     0
 40
0.0
 41
1.0
 50
0.0
 71
     0
 42
2.5
  3
txt
  4

  0
STYLE
  5
16C
330
3
100
AcDbSymbolTableRecord
100
AcDbTextStyleTableRecord
  2
SEACAD_seiso_ttf
 70
     0
 40
0.0
 41
1.0
 50
0.0
 71
     0
 42
0.2
  3
seiso.ttf
  4

  0
ENDTAB
  0
TABLE
  2
VIEW
  5
6
330
0
100
AcDbSymbolTable
 70
     0
  0
ENDTAB
  0
TABLE
  2
UCS
  5
7
330
0
100
AcDbSymbolTable
 70
     0
  0
ENDTAB
  0
TABLE
  2
APPID
  5
9
330
0
100
AcDbSymbolTable
 70
     1
  0
APPID
  5
12
330
9
100
AcDbSymbolTableRecord
100
AcDbRegAppTableRecord
  2
ACAD
 70
     0
  0
ENDTAB
  0
TABLE
  2
DIMSTYLE
  5
A
330
0
100
AcDbSymbolTable
 70
     1
100
AcDbDimStyleTable
  0
DIMSTYLE
105
27
330
A
100
AcDbSymbolTableRecord
100
AcDbDimStyleTableRecord
  2
ISO-25
 70
     0
 41
2.5
 42
0.625
 43
3.75
 44
1.25
 73
     0
 74
     0
 77
     1
 78
     8
140
2.5
141
2.5
143
0.0393700787
147
0.625
171
     3
172
     1
271
     2
272
     2
274
     3
278
    44
283
     0
284
     8
340
11
  0
ENDTAB
  0
TABLE
  2
BLOCK_RECORD
  5
1
330
0
100
AcDbSymbolTable
 70
     7
  0
BLOCK_RECORD
  5
1F
330
1
100
AcDbSymbolTableRecord
100
AcDbBlockTableRecord
  2
*Model_Space
340
22
  0
BLOCK_RECORD
  5
1B
330
1
100
AcDbSymbolTableRecord
100
AcDbBlockTableRecord
  2
*Paper_Space
340
1E
  0
BLOCK_RECORD
  5
5E
330
1
100
AcDbSymbolTableRecord
100
AcDbBlockTableRecord
  2
SEANNOT_GROUP
340
0
102
{BLKREFS
331
5F
102
}
  0
BLOCK_RECORD
  5
65
330
1
100
AcDbSymbolTableRecord
100
AcDbBlockTableRecord
  2
SEANNOT_GROUP1
340
0
102
{BLKREFS
331
66
102
}
  0
BLOCK_RECORD
  5
6B
330
1
100
AcDbSymbolTableRecord
100
AcDbBlockTableRecord
  2
SEANNOT_GROUP2
340
0
102
{BLKREFS
331
6C
102
}
  0
BLOCK_RECORD
  5
75
330
1
100
AcDbSymbolTableRecord
100
AcDbBlockTableRecord
  2
SE
340
0
102
{BLKREFS
331
76
102
}
  0
BLOCK_RECORD
  5
EC
330
1
100
AcDbSymbolTableRecord
100
AcDbBlockTableRecord
  2
SE1
340
0
102
{BLKREFS
331
ED
102
}
  0
BLOCK_RECORD
  5
120
330
1
100
AcDbSymbolTableRecord
100
AcDbBlockTableRecord
  2
SE2
340
0
102
{BLKREFS
331
121
102
}
  0
ENDTAB
  0
ENDSEC
  0
SECTION
  2
BLOCKS
  0
BLOCK
  5
20
330
1F
100
AcDbEntity
  8
0
100
AcDbBlockBegin
  2
*Model_Space
 70
     0
 10
0.0
 20
0.0
 30
0.0
  3
*Model_Space
  1

  0
ENDBLK
  5
21
330
1F
100
AcDbEntity
  8
0
100
AcDbBlockEnd
  0
BLOCK
  5
1C
330
1B
100
AcDbEntity
 67
     1
  8
0
100
AcDbBlockBegin
  2
*Paper_Space
 70
     0
 10
0.0
 20
0.0
 30
0.0
  3
*Paper_Space
  1

  0
ENDBLK
  5
1D
330
1B
100
AcDbEntity
 67
     1
  8
0
100
AcDbBlockEnd
  0
BLOCK
  5
63
330
5E
100
AcDbEntity
  8
0
100
AcDbBlockBegin
  2
SEANNOT_GROUP
 70
     0
 10
0.0
 20
0.0
 30
0.0
  3
SEANNOT_GROUP
  1

  0
LINE
  5
61
330
5E
100
AcDbEntity
  8
Default
  6
CENTER2
 62
     7
100
AcDbLine
 10
119.0985157389
 20
360.5053278216
 30
0.0
 11
79.098516633
 21
360.5053278216
 31
0.0
  0
LINE
  5
62
330
5E
100
AcDbEntity
  8
Default
  6
CENTER2
 62
     7
100
AcDbLine
 10
99.0985161859
 20
380.5053273746
 30
0.0
 11
99.0985161859
 21
340.5053282686
 31
0.0
  0
ENDBLK
  5
64
330
5E
100
AcDbEntity
  8
0
100
AcDbBlockEnd
  0
BLOCK
  5
69
330
65
100
AcDbEntity
  8
0
100
AcDbBlockBegin
  2
SEANNOT_GROUP1
 70
     0
 10
0.0
 20
0.0
 30
0.0
  3
SEANNOT_GROUP1
  1

  0
LINE
  5
67
330
65
100
AcDbEntity
  8
Default
  6
CENTER2
 62
     7
100
AcDbLine
 10
298.5798487162
 20
360.5053278216
 30
0.0
 11
258.5798496103
 21
360.5053278216
 31
0.0
  0
LINE
  5
68
330
65
100
AcDbEntity
  8
Default
  6
CENTER2
 62
     7
100
AcDbLine
 10
278.5798491632
 20
380.5053273746
 30
0.0
 11
278.5798491632
 21
340.5053282686
 31
0.0
  0
ENDBLK
  5
6A
330
65
100
AcDbEntity
  8
0
100
AcDbBlockEnd
  0
BLOCK
  5
73
330
6B
100
AcDbEntity
  8
0
100
AcDbBlockBegin
  2
SEANNOT_GROUP2
 70
     0
 10
0.0
 20
0.0
 30
0.0
  3
SEANNOT_GROUP2
  1

  0
LINE
  5
6D
330
6B
100
AcDbEntity
  8
Default
  6
CENTER2
 62
     7
100
AcDbLine
 10
119.0985157389
 20
252.6758376367
 30
0.0
 11
79.098516633
 21
252.6758376367
 31
0.0
  0
LINE
  5
6E
330
6B
100
AcDbEntity
  8
Default
  6
CENTER2
 62
     7
100
AcDbLine
 10
99.0985161859
 20
272.6758371896
 30
0.0
 11
99.0985161859
 21
232.6758380837
 31
0.0
  0
LINE
  5
6F
330
6B
100
AcDbEntity
  8
Default
  6
CENTER2
 62
     7
100
AcDbLine
 10
124.0985156271
 20
252.6758376367
 30
0.0
 11
122.5985161859
 21
252.6758376367
 31
0.0
  0
LINE
  5
70
330
6B
100
AcDbEntity
  8
Default
  6
CENTER2
 62
     7
100
AcDbLine
 10
99.0985161859
 20
277.6758370779
 30
0.0
 11
99.0985161859
 21
276.1758376367
 31
0.0
  0
LINE
  5
71
330
6B
100
AcDbEntity
  8
Default
  6
CENTER2
 62
     7
100
AcDbLine
 10
74.0985167447
 20
252.6758376367
 30
0.0
 11
75.5985161859
 21
252.6758376367
 31
0.0
  0
LINE
  5
72
330
6B
100
AcDbEntity
  8
Default
  6
CENTER2
 62
     7
100
AcDbLine
 10
99.0985161859
 20
227.6758381955
 30
0.0
 11
99.0985161859
 21
229.1758376367
 31
0.0
  0
ENDBLK
  5
74
330
6B
100
AcDbEntity
  8
0
100
AcDbBlockEnd
  0
BLOCK
  5
EA
330
75
100
AcDbEntity
  8
0
100
AcDbBlockBegin
  2
SE
 70
     0
 10
0.0
 20
0.0
 30
0.0
  3
SE
  1

  0
LINE
  5
78
330
75
100
AcDbEntity
  8
$DDT_AUDIT_GENERATED_(77)
  6
Continuous
 62
     7
100
AcDbLine
 10
119.0985161859
 20
472.5053278216
 30
0.0
 11
79.0985161859
 21
472.5053278216
 31
0.0
  0
LINE
  5
79
330
75
100
AcDbEntity
  8
$DDT_AUDIT_GENERATED_(77)
  6
Continuous
 62
     7
100
AcDbLine
 10
147.0985161859
 20
458.2053278216
 30
0.0
 11
147.0985161859
 21
418.2053278216
 31
0.0
  0
ARC
  5
7A
330
75
100
AcDbEntity
  8
$DDT_AUDIT_GENERATED_(77)
  6
Continuous
 62
     7
100
AcDbCircle
 10
-18.349989989
 20
552.6641333091
 30
0.0
 40
163.9968589831923
100
AcDbArc
 50
315.7386043215
 51
326.9417788282
  0
ARC
  5
7B
330
75
100
AcDbEntity
  8
$DDT_AUDIT_GENERATED_(77)
  6
Continuous
 62
     7
100
AcDbCircle
 10
213.5573809088
 20
320.7567476024
 30
0.0
 40
163.9969533532978
100
AcDbArc
 50
123.0582244055
 51
134.2613924448
  0
ARC
  5
7C
330
75
100
AcDbEntity
  8
$DDT_AUDIT_GENERATED_(77)
  6
Continuous
 62
     7
100
AcDbCircle
 10
-18.3500663441
 20
323.7464612443
 30
0.0
 40
163.9969563025018
100
AcDbArc
 50
33.0582245085
 51
44.2613923454
  0
ARC
  5
7D
330
75
100
AcDbEntity
  8
$DDT_AUDIT_GENERATED_(77)
  6
Continuous
 62
     7
100
AcDbCircle
 10
213.557319352
 20
555.6538310876
 30
0.0
 40
163.9968552797787
100
AcDbArc
 50
225.738604193
 51
236.9417789531
  0
LINE
  5
7E
330
75
100
AcDbEntity
  8
$DDT_AUDIT_GENERATED_(77)
  6
Continuous
 62
     7
100
AcDbLine
 10
124.0985160313
 20
418.2053278216
 30
0.0
 11
147.0985161859
 21
418.2053278216
 31
0.0
  0
LINE
  5
7F
330
75
100
AcDbEntity
  8
$DDT_AUDIT_GENERATED_(77)
  6
Continuous
 62
     7
100
AcDbLine
 10
147.0985161859
 20
458.2053278216
 30
0.0
 11
124.0985160329
 21
458.2053278216
 31
0.0
  0
ARC
  5
80
330
75
100
AcDbEntity
  8
$DDT_AUDIT_GENERATED_(77)
  6
Continuous
 62
     7
100
AcDbCircle
 10
124.0985160428
 20
463.2053276785
 30
0.0
 40
4.999999856872477
100
AcDbArc
 50
180.0000001133
 51
269.9999998867
  0
ARC
  5
81
330
75
100
AcDbEntity
  8
$DDT_AUDIT_GENERATED_(77)
  6
Continuous
 62
     7
100
AcDbCircle
 10
124.0985160413
 20
413.2053279662
 30
0.0
 40
4.9999998553675
100
AcDbArc
 50
90.0000001145
 51
179.9999998855
  0
LINE
  5
82
330
75
100
AcDbEntity
  8
$DDT_AUDIT_GENERATED_(77)
  6
Continuous
 62
     7
100
AcDbLine
 10
119.0985161859
 20
463.2053276686
 30
0.0
 11
119.0985161859
 21
472.5053278216
 31
0.0
  0
LINE
  5
83
330
75
100
AcDbEntity
  8
$DDT_AUDIT_GENERATED_(77)
  6
Continuous
 62
     7
100
AcDbLine
 10
119.0985161859
 20
368.5053278216
 30
0.0
 11
119.0985161859
 21
413.2053279762
 31
0.0
  0
LINE
  5
84
330
75
100
AcDbEntity
  8
$DDT_AUDIT_GENERATED_(77)
  6
Continuous
 62
     7
100
AcDbLine
 10
79.0985161859
 20
472.5053278216
 30
0.0
 11
79.0985161859
 21
368.5053278216
 31
0.0
  0
LINE
  5
86
330
75
100
AcDbEntity
  8
$DDT_AUDIT_GENERATED_(85)
  6
Continuous
 62
     7
100
AcDbLine
 10
154.7358944006
 20
426.5775122835
 30
0.0
 11
154.7358944006
 21
426.2553278216
 31
0.0
  0
ARC
  5
87
330
75
100
AcDbEntity
  8
$DDT_AUDIT_GENERATED_(85)
  6
Continuous
 62
     7
100
AcDbCircle
 10
138.6985161859
 20
438.2053278216
 30
0.0
 40
20.0
100
AcDbArc
 50
294.8345874897
 51
323.308942622
  0
ARC
  5
88
330
75
100
AcDbEntity
  8
$DDT_AUDIT_GENERATED_(85)
  6
Continuous
 62
     7
100
AcDbCircle
 10
138.6985161859
 20
438.2053278216
 30
0.0
 40
20.0
100
AcDbArc
 50
61.9994401862
 51
65.1654125103
  0
ELLIPSE
  5
8A
330
75
100
AcDbEntity
  8
$DDT_AUDIT_GENERATED_(89)
  6
Continuous
 62
     7
100
AcDbEllipse
 10
150.0428053434
 20
438.5128836923
 30
0.0
 11
-10.08837497820701
 21
19.72628268888162
 31
0.0
210
0.0
220
0.0
230
1.0
 40
0.057563324
 41
-3.173028592502914
 42
-3.169082790768679
  0
ELLIPSE
  5
8B
330
75
100
AcDbEntity
  8
$DDT_AUDIT_GENERATED_(89)
  6
Continuous
 62
     7
100
AcDbEllipse
 10
149.7768672281
 20
438.3753935426
 30
0.0
 11
-10.08096584688195
 21
19.42612349167661
 31
0.0
210
0.0
220
0.0
230
0.9999999999999999
 40
0.058061664
 41
1.590995554122408
 42
2.931346193804049
  0
ELLIPSE
  5
8C
330
75
100
AcDbEntity
  8
$DDT_AUDIT_GENERATED_(89)
  6
Continuous
 62
     7
100
AcDbEllipse
 10
148.5948081062
 20
438.4736269311
 30
0.0
 11
0.5338919995330136
 21
-19.69276413642419
 31
0.0
210
0.0
220
0.0
230
1.0
 40
0.0038087859
 41
3.164980516774044
 42
4.700204194615623
  0
ARC
  5
8D
330
75
100
AcDbEntity
  8
$DDT_AUDIT_GENERATED_(89)
  6
Continuous
 62
     7
100
AcDbCircle
 10
151.5309220189
 20
438.7906447551
 30
0.0
 40
3.018655732052695
100
AcDbArc
 50
181.501628781
 51
207.4776487995
  0
SPLINE
  5
8E
330
75
100
AcDbEntity
  8
$DDT_AUDIT_GENERATED_(89)
  6
Continuous
 62
     7
100
AcDbSpline
210
0.0
220
0.0
230
1.0
 70
     8
 71
     3
 72
     8
 73
     4
 74
     0
 42
0.0000000005170253
 43
0.0000000001
 40
0.9205541986105423
 40
0.9205541986105423
 40
0.9205541986105423
 40
0.9205541986105423
 40
0.9938979223658342
 40
0.9938979223658342
 40
0.9938979223658342
 40
0.9938979223658342
 10
173.4935418576859
 20
419.1406136142878
 30
0.0
 10
173.0641274176183
 20
419.128698021003
 30
0.0
 10
172.5779589313017
 20
419.1206037021774
 30
0.0
 10
172.0753569367414
 20
419.1081776341011
 30
0.0
  0
ELLIPSE
  5
8F
330
75
100
AcDbEntity
  8
$DDT_AUDIT_GENERATED_(89)
  6
Continuous
 62
     7
100
AcDbEllipse
 10
178.1165202348
 20
439.2739922738
 30
0.0
 11
0.5239679239769923
 21
-19.32671167756021
 31
0.0
210
0.0
220
0.0
230
0.9999999999999998
 40
0.0038087859
 41
-3.220432592812372
 42
-3.176108982029148
  0
ELLIPSE
  5
90
330
75
100
AcDbEntity
  8
$DDT_AUDIT_GENERATED_(89)
  6
Continuous
 62
     7
100
AcDbEllipse
 10
178.1165202348
 20
439.2739922738
 30
0.0
 11
0.5239679239769923
 21
-19.32671167756021
 31
0.0
210
0.0
220
0.0
230
0.9999999999999998
 40
0.0038087859
 41
3.191860177437316
 42
6.231355123594119
  0
LINE
  5
91
330
75
100
AcDbEntity
  8
$DDT_AUDIT_GENERATED_(89)
  6
Continuous
 62
     7
100
AcDbLine
 10
168.0390080607
 20
457.7629015326
 30
0.0
 11
166.6743458131
 21
507.123906656
 31
0.0
  0
ELLIPSE
  5
92
330
75
100
AcDbEntity
  8
$DDT_AUDIT_GENERATED_(89)
  6
Continuous
 62
     7
100
AcDbEllipse
 10
167.3740836256
 20
507.1428773001
 30
0.0
 11
0.6999999999999923
 21
-1.665334536937735E-13
 31
0.0
210
0.0
220
0.0
230
1.0
 40
0.9902680687
 41
3.141592653589793
 42
3.168963327346134
  0
ELLIPSE
  5
93
330
75
100
AcDbEntity
  8
$DDT_AUDIT_GENERATED_(89)
  6
Continuous
 62
     7
100
AcDbEllipse
 10
174.585069715
 20
439.178250855
 30
0.0
 11
0.5691234512789217
 21
-20.99228664288925
 31
0.0
210
0.0
220
0.0
230
0.9999999999999999
 40
0.0038087859
 41
3.226710660375689
 42
3.66171456459549
  0
ELLIPSE
  5
94
330
75
100
AcDbEntity
  8
$DDT_AUDIT_GENERATED_(89)
  6
Continuous
 62
     7
100
AcDbEllipse
 10
174.585069715
 20
439.178250855
 30
0.0
 11
0.5691234512789217
 21
-20.99228664288925
 31
0.0
210
0.0
220
0.0
230
0.9999999999999999
 40
0.0038087859
 41
-3.253759684879099
 42
-3.172850706687347
  0
LINE
  5
95
330
75
100
AcDbEntity
  8
$DDT_AUDIT_GENERATED_(89)
  6
Continuous
 62
     7
100
AcDbLine
 10
174.0398837286
 20
459.9836462383
 30
0.0
 11
172.672098492
 21
509.4576125519
 31
0.0
  0
LINE
  5
96
330
75
100
AcDbEntity
  8
$DDT_AUDIT_GENERATED_(89)
  6
Continuous
 62
     7
100
AcDbLine
 10
173.4890968102
 20
419.1411890981
 30
0.0
 11
177.9596215861
 21
419.2623898292
 31
0.0
  0
LINE
  5
97
330
75
100
AcDbEntity
  8
$DDT_AUDIT_GENERATED_(89)
  6
Continuous
 62
     7
100
AcDbLine
 10
160.0961572253
 20
418.7780921126
 30
0.0
 11
170.1627680057
 21
419.0510087494
 31
0.0
  0
LINE
  5
98
330
75
100
AcDbEntity
  8
$DDT_AUDIT_GENERATED_(89)
  6
Continuous
 62
     7
100
AcDbLine
 10
166.5458565318
 20
458.9676478995
 30
0.0
 11
148.3526734056
 21
458.4744111527
 31
0.0
  0
LINE
  5
99
330
75
100
AcDbEntity
  8
$DDT_AUDIT_GENERATED_(89)
  6
Continuous
 62
     7
100
AcDbLine
 10
176.8755769169
 20
459.2476977205
 30
0.0
 11
175.042672827
 21
459.1980057208
 31
0.0
  0
SPLINE
  5
9A
330
75
100
AcDbEntity
  8
$DDT_AUDIT_GENERATED_(89)
  6
Continuous
 62
     7
100
AcDbSpline
210
0.0
220
0.0
230
1.0
 70
     8
 71
     3
 72
    12
 73
     8
 74
     0
 42
0.0000000127721486
 43
0.0000000001
 40
0.0
 40
0.0
 40
0.0
 40
0.0
 40
0.2533402583690548
 40
0.6130867731237087
 40
0.8122379273740177
 40
0.9768066219711318
 40
1.0
 40
1.0
 40
1.0
 40
1.0
 10
159.4439723556935
 20
419.1946576246811
 30
0.0
 10
159.5005236488246
 20
419.133076458869
 30
0.0
 10
159.6175299938074
 20
419.0089610750168
 30
0.0
 10
159.7639498310082
 20
418.886211126022
 30
0.0
 10
159.9086342994299
 20
418.8137156645298
 30
0.0
 10
160.0077188927957
 20
418.7730126940522
 30
0.0
 10
160.0673236888757
 20
418.7807145892745
 30
0.0
 10
160.0759092850845
 20
418.7818194369631
 30
0.0
  0
SPLINE
  5
9B
330
75
100
AcDbEntity
  8
$DDT_AUDIT_GENERATED_(89)
  6
Continuous
 62
     7
100
AcDbSpline
210
0.0
220
0.0
230
1.0
 70
     8
 71
     3
 72
    15
 73
    11
 74
     0
 42
0.0000000229228461
 43
0.0000000001
 40
0.0
 40
0.0
 40
0.0
 40
0.0
 40
0.0200120762396735
 40
0.1863962816774357
 40
0.3188502149334946
 40
0.4332554981257679
 40
0.5347188509109128
 40
0.6349653979809404
 40
0.7702389618324958
 40
1.0
 40
1.0
 40
1.0
 40
1.0
 10
148.355973147049
 20
458.4722538163817
 30
0.0
 10
148.3510276655365
 20
458.4729776281332
 30
0.0
 10
148.3113236555649
 20
458.4786898323611
 30
0.0
 10
148.2362206391563
 20
458.4521907267471
 30
0.0
 10
148.159732073285
 20
458.4024452193494
 30
0.0
 10
148.1117098130046
 20
458.3458761493406
 30
0.0
 10
148.0856434553257
 20
458.2973552808731
 30
0.0
 10
148.0720875861365
 20
458.2597142636675
 30
0.0
 10
148.0645909961024
 20
458.2280935365291
 30
0.0
 10
148.0627406184375
 20
458.2168513725214
 30
0.0
 10
148.0620844767364
 20
458.2098110880315
 30
0.0
  0
LINE
  5
9C
330
75
100
AcDbEntity
  8
$DDT_AUDIT_GENERATED_(89)
  6
Continuous
 62
     7
100
AcDbLine
 10
171.9533898978
 20
510.1383847959
 30
0.0
 11
167.3551128439
 21
510.0137205632
 31
0.0
  0
ARC
  5
9D
330
75
100
AcDbEntity
  8
$DDT_AUDIT_GENERATED_(89)
  6
Continuous
 62
     7
100
AcDbCircle
 10
-221.5165134579
 20
428.4395112452
 30
0.0
 40
400.2499999999952
100
AcDbArc
 50
358.7928643817
 51
4.3130751181
  0
SPLINE
  5
9E
330
75
100
AcDbEntity
  8
$DDT_AUDIT_GENERATED_(89)
  6
Continuous
 62
     7
100
AcDbSpline
210
0.0
220
0.0
230
1.0
 70
     8
 71
     3
 72
    19
 73
    15
 74
     0
 42
0.0000000087568914
 43
0.0000000001
 40
0.0
 40
0.0
 40
0.0
 40
0.0
 40
0.0175598307264541
 40
0.1153615538809781
 40
0.1968642638848593
 40
0.2677696972739078
 40
0.3299235598103346
 40
0.3838632362649313
 40
0.4287617326442026
 40
0.4765945053520118
 40
0.5512684117777171
 40
0.6636048502837397
 40
0.8600456764824796
 40
1.0
 40
1.0
 40
1.0
 40
1.0
 10
177.9588991571298
 20
419.2675190253873
 30
0.0
 10
177.9735084968797
 20
419.2660823092797
 30
0.0
 10
178.0561215884251
 20
419.2582795861963
 30
0.0
 10
178.2091283763596
 20
419.307317917142
 30
0.0
 10
178.3723843606561
 20
419.4015190906591
 30
0.0
 10
178.4879562613154
 20
419.5171310027942
 30
0.0
 10
178.5628207685232
 20
419.6328848941516
 30
0.0
 10
178.6045319499098
 20
419.7333999111704
 30
0.0
 10
178.6242822850655
 20
419.8057551975411
 30
0.0
 10
178.6344268972767
 20
419.8597691214169
 30
0.0
 10
178.6395853855982
 20
419.902684438298
 30
0.0
 10
178.6425630930157
 20
419.9427996698051
 30
0.0
 10
178.6439905390945
 20
419.974558538349
 30
0.0
 10
178.6443560525241
 20
420.0015228259394
 30
0.0
 10
178.6444795274743
 20
420.0143422822381
 30
0.0
  0
ARC
  5
9F
330
75
100
AcDbEntity
  8
$DDT_AUDIT_GENERATED_(89)
  6
Continuous
 62
     7
100
AcDbCircle
 10
176.9086171694
 20
458.5542649107
 30
0.0
 40
0.6865099984538798
100
AcDbArc
 50
6.6117681138
 51
92.6646274391
  0
ARC
  5
A0
330
75
100
AcDbEntity
  8
$DDT_AUDIT_GENERATED_(89)
  6
Continuous
 62
     7
100
AcDbCircle
 10
174.9992911122
 20
460.1865722442
 30
0.0
 40
0.9809574019822307
100
AcDbArc
 50
188.6906561664
 51
272.5624449252
  0
ARC
  5
A1
330
75
100
AcDbEntity
  8
$DDT_AUDIT_GENERATED_(89)
  6
Continuous
 62
     7
100
AcDbCircle
 10
166.521508761
 20
460.4570966344
 30
0.0
 40
1.481244949624351
100
AcDbArc
 50
270.9015927877
 51
348.7528465777
  0
ARC
  5
A2
330
75
100
AcDbEntity
  8
$DDT_AUDIT_GENERATED_(89)
  6
Continuous
 62
     7
100
AcDbCircle
 10
167.3740836256
 20
509.3139776751
 30
0.0
 40
0.6999999999999758
100
AcDbArc
 50
91.5529697499
 51
180.0
  0
LINE
  5
A3
330
75
100
AcDbEntity
  8
$DDT_AUDIT_GENERATED_(89)
  6
Continuous
 62
     7
100
AcDbLine
 10
166.6740836256
 20
509.3139776751
 30
0.0
 11
166.6740836256
 21
507.1428773001
 31
0.0
  0
ARC
  5
A4
330
75
100
AcDbEntity
  8
$DDT_AUDIT_GENERATED_(89)
  6
Continuous
 62
     7
100
AcDbCircle
 10
171.9723606795
 20
509.4386419078
 30
0.0
 40
0.6999999999999933
100
AcDbArc
 50
1.5836281147
 51
91.5529697499
  0
LINE
  5
A6
330
75
100
AcDbEntity
  8
$DDT_AUDIT_GENERATED_(A5)
  6
Continuous
 62
     7
100
AcDbLine
 10
73.5985161859
 20
368.5053278216
 30
0.0
 11
74.6985161859
 21
368.5053278216
 31
0.0
  0
LINE
  5
A7
330
75
100
AcDbEntity
  8
$DDT_AUDIT_GENERATED_(A5)
  6
Continuous
 62
     7
100
AcDbLine
 10
74.6985161859
 20
368.5053278216
 30
0.0
 11
123.4985161859
 21
368.5053278216
 31
0.0
  0
LINE
  5
A8
330
75
100
AcDbEntity
  8
$DDT_AUDIT_GENERATED_(A5)
  6
Continuous
 62
     7
100
AcDbLine
 10
123.4985161859
 20
368.5053278216
 30
0.0
 11
124.5985161859
 21
368.5053278216
 31
0.0
  0
LINE
  5
A9
330
75
100
AcDbEntity
  8
$DDT_AUDIT_GENERATED_(A5)
  6
Continuous
 62
     7
100
AcDbLine
 10
125.0985161859
 20
368.0053278216
 30
0.0
 11
125.0985161859
 21
360.5053278216
 31
0.0
  0
LINE
  5
AA
330
75
100
AcDbEntity
  8
$DDT_AUDIT_GENERATED_(A5)
  6
Continuous
 62
     7
100
AcDbLine
 10
73.0985161859
 20
368.0053278216
 30
0.0
 11
73.0985161859
 21
360.5053278216
 31
0.0
  0
ARC
  5
AB
330
75
100
AcDbEntity
  8
$DDT_AUDIT_GENERATED_(A5)
  6
Continuous
 62
     7
100
AcDbCircle
 10
73.5985161859
 20
368.0053278216
 30
0.0
 40
0.5000000000000004
100
AcDbArc
 50
90.0
 51
180.0
  0
ARC
  5
AC
330
75
100
AcDbEntity
  8
$DDT_AUDIT_GENERATED_(A5)
  6
Continuous
 62
     7
100
AcDbCircle
 10
124.5985161859
 20
368.0053278216
 30
0.0
 40
0.5000000000000004
100
AcDbArc
 50
0.0
 51
90.0
  0
LINE
  5
AD
330
75
100
AcDbEntity
  8
$DDT_AUDIT_GENERATED_(A5)
  6
Continuous
 62
     7
100
AcDbLine
 10
125.0985161859
 20
360.5053278216
 30
0.0
 11
123.4985161859
 21
360.5053278216
 31
0.0
  0
LINE
  5
AE
330
75
100
AcDbEntity
  8
$DDT_AUDIT_GENERATED_(A5)
  6
Continuous
 62
     7
100
AcDbLine
 10
123.4985161859
 20
360.5053278216
 30
0.0
 11
74.6985161859
 21
360.5053278216
 31
0.0
  0
LINE
  5
AF
330
75
100
AcDbEntity
  8
$DDT_AUDIT_GENERATED_(A5)
  6
Continuous
 62
     7
100
AcDbLine
 10
74.6985161859
 20
360.5053278216
 30
0.0
 11
73.0985161859
 21
360.5053278216
 31
0.0
  0
ELLIPSE
  5
B1
330
75
100
AcDbEntity
  8
$DDT_AUDIT_GENERATED_(B0)
  6
Continuous
 62
     7
100
AcDbEllipse
 10
171.8178761058
 20
419.5430520505
 30
0.0
 11
-3.330861439730742
 21
-0.3575780604495246
 31
0.0
210
0.0
220
0.0
230
1.0
 40
0.1383932758
 41
0.4682975851049248
 42
1.63369481689855
  0
LINE
  5
B3
330
75
100
AcDbEntity
  8
$DDT_AUDIT_GENERATED_(B2)
  6
Continuous
 62
     7
100
AcDbLine
 10
114.0985161859
 20
548.9697178075
 30
0.0
 11
114.0985161859
 21
472.5053278216
 31
0.0
  0
LINE
  5
B4
330
75
100
AcDbEntity
  8
$DDT_AUDIT_GENERATED_(B2)
  6
Continuous
 62
     7
100
AcDbLine
 10
84.0985161859
 20
472.5053278216
 30
0.0
 11
84.0985161859
 21
548.9697178075
 31
0.0
  0
LINE
  5
B5
330
75
100
AcDbEntity
  8
$DDT_AUDIT_GENERATED_(B2)
  6
Continuous
 62
     7
100
AcDbLine
 10
84.0985161859
 20
559.6907826618
 30
0.0
 11
84.0985161859
 21
591.5053278216
 31
0.0
  0
LINE
  5
B6
330
75
100
AcDbEntity
  8
$DDT_AUDIT_GENERATED_(B2)
  6
Continuous
 62
     7
100
AcDbLine
 10
84.5985161859
 20
592.0053278216
 30
0.0
 11
113.5985161859
 21
592.0053278216
 31
0.0
  0
ARC
  5
B7
330
75
100
AcDbEntity
  8
$DDT_AUDIT_GENERATED_(B2)
  6
Continuous
 62
     7
100
AcDbCircle
 10
84.5985161859
 20
591.5053278216
 30
0.0
 40
0.5000000000000004
100
AcDbArc
 50
90.0
 51
180.0
  0
LINE
  5
B8
330
75
100
AcDbEntity
  8
$DDT_AUDIT_GENERATED_(B2)
  6
Continuous
 62
     7
100
AcDbLine
 10
114.0985161859
 20
559.6907826618
 30
0.0
 11
114.0985161859
 21
551.1229552106
 31
0.0
  0
LINE
  5
B9
330
75
100
AcDbEntity
  8
$DDT_AUDIT_GENERATED_(B2)
  6
Continuous
 62
     7
100
AcDbLine
 10
114.0985161859
 20
591.5053278216
 30
0.0
 11
114.0985161859
 21
559.6907826618
 31
0.0
  0
ARC
  5
BA
330
75
100
AcDbEntity
  8
$DDT_AUDIT_GENERATED_(B2)
  6
Continuous
 62
     7
100
AcDbCircle
 10
113.5985161859
 20
591.5053278216
 30
0.0
 40
0.5000000000000004
100
AcDbArc
 50
0.0
 51
90.0
  0
LINE
  5
BB
330
75
100
AcDbEntity
  8
$DDT_AUDIT_GENERATED_(B2)
  6
Continuous
 62
     7
100
AcDbLine
 10
114.0985161859
 20
551.1229552106
 30
0.0
 11
114.0985161859
 21
548.9697178075
 31
0.0
  0
LINE
  5
BC
330
75
100
AcDbEntity
  8
$DDT_AUDIT_GENERATED_(B2)
  6
Continuous
 62
     7
100
AcDbLine
 10
84.0985161859
 20
551.1229552106
 30
0.0
 11
84.0985161859
 21
559.6907826618
 31
0.0
  0
LINE
  5
BD
330
75
100
AcDbEntity
  8
$DDT_AUDIT_GENERATED_(B2)
  6
Continuous
 62
     7
100
AcDbLine
 10
84.0985161859
 20
548.9697178075
 30
0.0
 11
84.0985161859
 21
551.1229552106
 31
0.0
  0
LINE
  5
BE
330
75
100
AcDbEntity
  8
$DDT_AUDIT_GENERATED_(B2)
  6
Continuous
 62
     7
100
AcDbLine
 10
86.8485161859
 20
550.2387551554
 30
0.0
 11
86.8485161859
 21
550.0840404221
 31
0.0
  0
LINE
  5
BF
330
75
100
AcDbEntity
  8
$DDT_AUDIT_GENERATED_(B2)
  6
Continuous
 62
     7
100
AcDbLine
 10
111.3485161859
 20
550.0840404221
 30
0.0
 11
111.3485161859
 21
550.2377847482
 31
0.0
  0
ARC
  5
C0
330
75
100
AcDbEntity
  8
$DDT_AUDIT_GENERATED_(B2)
  6
Continuous
 62
     7
100
AcDbCircle
 10
113.5985161859
 20
548.9697178075
 30
0.0
 40
0.5000000000000004
100
AcDbArc
 50
270.0
 51
360.0
  0
ARC
  5
C1
330
75
100
AcDbEntity
  8
$DDT_AUDIT_GENERATED_(B2)
  6
Continuous
 62
     7
100
AcDbCircle
 10
84.5985161859
 20
548.9697178075
 30
0.0
 40
0.5000000000000004
100
AcDbArc
 50
180.0
 51
270.0
  0
LINE
  5
C2
330
75
100
AcDbEntity
  8
$DDT_AUDIT_GENERATED_(B2)
  6
Continuous
 62
     7
100
AcDbLine
 10
84.5985161859
 20
548.4697178075
 30
0.0
 11
113.5985161859
 21
548.4697178075
 31
0.0
  0
SPLINE
  5
C3
330
75
100
AcDbEntity
  8
$DDT_AUDIT_GENERATED_(B2)
  6
Continuous
 62
     7
100
AcDbSpline
210
0.0
220
0.0
230
1.0
 70
     8
 71
     3
 72
    16
 73
    12
 74
     0
 42
0.0000000034502992
 43
0.0000000001
 40
0.0
 40
0.0
 40
0.0
 40
0.0
 40
0.075017150734721
 40
0.1852089168405716
 40
0.2946252362938004
 40
0.4027543477158443
 40
0.5087397486973934
 40
0.6006623888084007
 40
0.6841644694449011
 40
0.7567834016407874
 40
0.7802773915238936
 40
0.7802773915238936
 40
0.7802773915238936
 40
0.7802773915238936
 10
109.2754418863949
 20
550.5200987248032
 30
0.0
 10
109.3972321228543
 20
550.5143370912822
 30
0.0
 10
109.651945666561
 20
550.50193005612
 30
0.0
 10
110.0669029991588
 20
550.4669197961924
 30
0.0
 10
110.4784573258618
 20
550.4196356130277
 30
0.0
 10
110.8388158655144
 20
550.3634709773727
 30
0.0
 10
111.1230985729088
 20
550.3043996143476
 30
0.0
 10
111.3266208927644
 20
550.2483042861028
 30
0.0
 10
111.4504710009118
 20
550.2026724975274
 30
0.0
 10
111.4948916044489
 20
550.1795821250641
 30
0.0
 10
111.4994932520428
 20
550.176426497157
 30
0.0
 10
111.499459867504
 20
550.1764341301431
 30
0.0
  0
ARC
  5
C4
330
75
100
AcDbEntity
  8
$DDT_AUDIT_GENERATED_(B2)
  6
Continuous
 62
     7
100
AcDbCircle
 10
108.4044836755
 20
534.2476499596
 30
0.0
 40
16.29574045639751
100
AcDbArc
 50
86.9362534565
 51
90.1967819293
  0
LINE
  5
C5
330
75
100
AcDbEntity
  8
$DDT_AUDIT_GENERATED_(B2)
  6
Continuous
 62
     7
100
AcDbLine
 10
89.8485161859
 20
550.5432943059
 30
0.0
 11
108.3485161859
 21
550.5432943059
 31
0.0
  0
ARC
  5
C6
330
75
100
AcDbEntity
  8
$DDT_AUDIT_GENERATED_(B2)
  6
Continuous
 62
     7
100
AcDbCircle
 10
89.8406746967
 20
531.4289873568
 30
0.0
 40
19.1143085575379
100
AcDbArc
 50
89.9764948729
 51
92.90509898
  0
SPLINE
  5
C7
330
75
100
AcDbEntity
  8
$DDT_AUDIT_GENERATED_(B2)
  6
Continuous
 62
     7
100
AcDbSpline
210
0.0
220
0.0
230
1.0
 70
     8
 71
     3
 72
    16
 73
    12
 74
     0
 42
0.0000000035169332
 43
0.0000000001
 40
0.2221467806752108
 40
0.2221467806752108
 40
0.2221467806752108
 40
0.2221467806752108
 40
0.2421024803905802
 40
0.3097131840603798
 40
0.3882361482145604
 40
0.4775590600055631
 40
0.5754652338675349
 40
0.6792025665890131
 40
0.7865536545352949
 40
0.896060391991857
 40
1.0
 40
1.0
 40
1.0
 40
1.0
 10
86.69755429170092
 20
550.1764453292478
 30
0.0
 10
86.69752503630649
 20
550.176437795701
 30
0.0
 10
86.7009951796133
 20
550.1788065888678
 30
0.0
 10
86.73739519595038
 20
550.1983175992057
 30
0.0
 10
86.84510301722976
 20
550.2398306872525
 30
0.0
 10
87.02465861819245
 20
550.2919769065892
 30
0.0
 10
87.27877337012028
 20
550.3482880747223
 30
0.0
 10
87.60410001458324
 20
550.4033055505249
 30
0.0
 10
87.98808931409029
 20
550.4522052650815
 30
0.0
 10
88.42266894504321
 20
550.49301941394
 30
0.0
 10
88.70742624918279
 20
550.50951189104
 30
0.0
 10
88.8719267528925
 20
550.5187311752802
 30
0.0
  0
LINE
  5
C9
330
75
100
AcDbEntity
  8
$DDT_AUDIT_GENERATED_(C8)
  6
Continuous
 62
     7
100
AcDbLine
 10
106.6556958629
 20
550.2869505279
 30
0.0
 11
91.5413365089
 21
550.2869505279
 31
0.0
  0
ELLIPSE
  5
CA
330
75
100
AcDbEntity
  8
$DDT_AUDIT_GENERATED_(C8)
  6
Continuous
 62
     7
100
AcDbEllipse
 10
107.8485161859
 20
550.4779635233
 30
0.0
 11
2.749999999999997
 21
-2.775557561562891E-14
 31
0.0
210
0.0
220
0.0
230
1.0
 40
0.1736481777
 41
4.712388980384691
 42
6.136075844902388
  0
ELLIPSE
  5
CB
330
75
100
AcDbEntity
  8
$DDT_AUDIT_GENERATED_(C8)
  6
Continuous
 62
     7
100
AcDbEllipse
 10
107.8485161859
 20
550.4779635233
 30
0.0
 11
3.050000000000001
 21
-2.775557561562891E-14
 31
0.0
210
0.0
220
0.0
230
1.0
 40
0.1736481777
 41
4.712388980384691
 42
6.071904355968484
  0
LINE
  5
CC
330
75
100
AcDbEntity
  8
$DDT_AUDIT_GENERATED_(C8)
  6
Continuous
 62
     7
100
AcDbLine
 10
107.1158238782
 20
550.4932417041
 30
0.0
 11
106.9494076018
 21
550.5432943059
 31
0.0
  0
LINE
  5
CD
330
75
100
AcDbEntity
  8
$DDT_AUDIT_GENERATED_(C8)
  6
Continuous
 62
     7
100
AcDbLine
 10
108.700382485
 20
550.4913799073
 30
0.0
 11
108.700382485
 21
550.5393049549
 31
0.0
  0
LINE
  5
CE
330
75
100
AcDbEntity
  8
$DDT_AUDIT_GENERATED_(C8)
  6
Continuous
 62
     7
100
AcDbLine
 10
108.4466498868
 20
550.4793231893
 30
0.0
 11
108.4466498868
 21
550.5426419988
 31
0.0
  0
LINE
  5
CF
330
75
100
AcDbEntity
  8
$DDT_AUDIT_GENERATED_(C8)
  6
Continuous
 62
     7
100
AcDbLine
 10
107.6083238071
 20
550.0004310348
 30
0.0
 11
106.6556958629
 21
550.2869505279
 31
0.0
  0
LINE
  5
D0
330
75
100
AcDbEntity
  8
$DDT_AUDIT_GENERATED_(C8)
  6
Continuous
 62
     7
100
AcDbLine
 10
91.8877466705
 20
550.1827616213
 30
0.0
 11
106.3092857014
 21
550.1827616213
 31
0.0
  0
LINE
  5
D1
330
75
100
AcDbEntity
  8
$DDT_AUDIT_GENERATED_(C8)
  6
Continuous
 62
     7
100
AcDbLine
 10
91.24762477
 20
550.5432943059
 30
0.0
 11
91.0812084936
 21
550.4932417041
 31
0.0
  0
ELLIPSE
  5
D2
330
75
100
AcDbEntity
  8
$DDT_AUDIT_GENERATED_(C8)
  6
Continuous
 62
     7
100
AcDbEllipse
 10
91.0812084936
 20
550.6181996508
 30
0.0
 11
0.09826517420549742
 21
0.1086094382236058
 31
0.0
210
0.0
220
0.0
230
1.0
 40
0.7391071595
 41
2.474077460631192
 42
4.02742049505179
  0
ELLIPSE
  5
D3
330
75
100
AcDbEntity
  8
$DDT_AUDIT_GENERATED_(C8)
  6
Continuous
 62
     7
100
AcDbEllipse
 10
90.3485161859
 20
550.4779635233
 30
0.0
 11
2.750000000000006
 21
0.0
 31
0.0
210
0.0
220
0.0
230
1.0
 40
0.1736481777
 41
3.141592653589793
 42
4.71238898038469
  0
ELLIPSE
  5
D4
330
75
100
AcDbEntity
  8
$DDT_AUDIT_GENERATED_(C8)
  6
Continuous
 62
     7
100
AcDbEllipse
 10
90.3485161859
 20
550.4779635233
 30
0.0
 11
-3.050000000000001
 21
0.0
 31
0.0
210
0.0
220
0.0
230
1.0
 40
0.1736481777
 41
0.2128730927573908
 42
1.570796326794897
  0
LINE
  5
D5
330
75
100
AcDbEntity
  8
$DDT_AUDIT_GENERATED_(C8)
  6
Continuous
 62
     7
100
AcDbLine
 10
90.3485161859
 20
549.9483365815
 30
0.0
 11
91.1083238071
 21
549.9483365815
 31
0.0
  0
LINE
  5
D6
330
75
100
AcDbEntity
  8
$DDT_AUDIT_GENERATED_(C8)
  6
Continuous
 62
     7
100
AcDbLine
 10
91.5413365089
 20
550.2869505279
 30
0.0
 11
90.5887085648
 21
550.0004310348
 31
0.0
  0
LINE
  5
D7
330
75
100
AcDbEntity
  8
$DDT_AUDIT_GENERATED_(C8)
  6
Continuous
 62
     7
100
AcDbLine
 10
90.5887085648
 20
550.0004310348
 30
0.0
 11
90.3485161859
 21
550.0004310348
 31
0.0
  0
LINE
  5
D8
330
75
100
AcDbEntity
  8
$DDT_AUDIT_GENERATED_(C8)
  6
Continuous
 62
     7
100
AcDbLine
 10
89.750382485
 20
550.4793231893
 30
0.0
 11
89.750382485
 21
550.5421901893
 31
0.0
  0
ARC
  5
D9
330
75
100
AcDbEntity
  8
$DDT_AUDIT_GENERATED_(C8)
  6
Continuous
 62
     7
100
AcDbCircle
 10
89.6308637861
 20
550.4813171224
 30
0.0
 40
0.1195353301590548
100
AcDbArc
 50
266.4759202371
 51
359.0442219322
  0
LINE
  5
DA
330
75
100
AcDbEntity
  8
$DDT_AUDIT_GENERATED_(C8)
  6
Continuous
 62
     7
100
AcDbLine
 10
90.5887085648
 20
550.0004310348
 30
0.0
 11
90.5887085648
 21
550.5432943059
 31
0.0
  0
LINE
  5
DB
330
75
100
AcDbEntity
  8
$DDT_AUDIT_GENERATED_(C8)
  6
Continuous
 62
     7
100
AcDbLine
 10
89.4966498868
 20
550.4913799073
 30
0.0
 11
89.4966498868
 21
550.5393354068
 31
0.0
  0
LINE
  5
DC
330
75
100
AcDbEntity
  8
$DDT_AUDIT_GENERATED_(C8)
  6
Continuous
 62
     7
100
AcDbLine
 10
89.7503824851
 20
550.4793231906
 30
0.0
 11
89.752510735
 21
550.599317133
 31
0.0
  0
ARC
  5
DD
330
75
100
AcDbEntity
  8
$DDT_AUDIT_GENERATED_(C8)
  6
Continuous
 62
     7
100
AcDbCircle
 10
89.6304651898
 20
550.4957128033
 30
0.0
 40
0.1338854334778926
100
AcDbArc
 50
181.8545707534
 51
267.0248625304
  0
LINE
  5
DE
330
75
100
AcDbEntity
  8
$DDT_AUDIT_GENERATED_(C8)
  6
Continuous
 62
     7
100
AcDbLine
 10
91.8877466705
 20
550.1827616213
 30
0.0
 11
91.1083238071
 21
549.9483365815
 31
0.0
  0
LINE
  5
DF
330
75
100
AcDbEntity
  8
$DDT_AUDIT_GENERATED_(C8)
  6
Continuous
 62
     7
100
AcDbLine
 10
107.8485161859
 20
549.9483365815
 30
0.0
 11
107.0887085648
 21
549.9483365815
 31
0.0
  0
LINE
  5
E0
330
75
100
AcDbEntity
  8
$DDT_AUDIT_GENERATED_(C8)
  6
Continuous
 62
     7
100
AcDbLine
 10
107.8485161859
 20
550.0004310348
 30
0.0
 11
107.6083238071
 21
550.0004310348
 31
0.0
  0
LINE
  5
E1
330
75
100
AcDbEntity
  8
$DDT_AUDIT_GENERATED_(C8)
  6
Continuous
 62
     7
100
AcDbLine
 10
107.6083238071
 20
550.5432943059
 30
0.0
 11
107.6083238071
 21
550.0004310348
 31
0.0
  0
ELLIPSE
  5
E2
330
75
100
AcDbEntity
  8
$DDT_AUDIT_GENERATED_(C8)
  6
Continuous
 62
     7
100
AcDbEllipse
 10
107.1158238782
 20
550.6181996508
 30
0.0
 11
-0.09826517420545232
 21
0.1086094382237168
 31
0.0
210
0.0
220
0.0
230
1.0
 40
0.7391071595
 41
2.255764812074087
 42
3.8091078465466
  0
LINE
  5
E3
330
75
100
AcDbEntity
  8
$DDT_AUDIT_GENERATED_(C8)
  6
Continuous
 62
     7
100
AcDbLine
 10
108.4445216369
 20
550.599317133
 30
0.0
 11
108.4466498867
 21
550.4793231913
 31
0.0
  0
SPLINE
  5
E4
330
75
100
AcDbEntity
  8
$DDT_AUDIT_GENERATED_(C8)
  6
Continuous
 62
     7
100
AcDbSpline
210
0.0
220
0.0
230
1.0
 70
     8
 71
     3
 72
    35
 73
    31
 74
     0
 42
0.0000000253892666
 43
0.0000000001
 40
0.0
 40
0.0
 40
0.0
 40
0.0
 40
0.1046847765140872
 40
0.1046847765140872
 40
0.1046847765140872
 40
0.2093071473766229
 40
0.2093071473766229
 40
0.2093071473766229
 40
0.3149115124464854
 40
0.3149115124464854
 40
0.3149115124464854
 40
0.4230228469561366
 40
0.4230228469561366
 40
0.4230228469561366
 40
0.4983686516439949
 40
0.4983686516439949
 40
0.4983686516439949
 40
0.61294954872734
 40
0.61294954872734
 40
0.61294954872734
 40
0.727600219724805
 40
0.727600219724805
 40
0.727600219724805
 40
0.8409049636571091
 40
0.8409049636571091
 40
0.8409049636571091
 40
0.949619529573423
 40
0.949619529573423
 40
0.949619529573423
 40
1.0
 40
1.0
 40
1.0
 40
1.0
 10
108.4466498867827
 20
550.4793231893242
 30
0.0
 10
108.4468931999587
 20
550.4656049728073
 30
0.0
 10
108.4495056820628
 20
550.4518314782579
 30
0.0
 10
108.4542500673075
 20
550.4391503275478
 30
0.0
 10
108.4589928765163
 20
550.4264733893855
 30
0.0
 10
108.4659920367921
 20
550.4145419570481
 30
0.0
 10
108.4746332791211
 20
550.4043096105582
 30
0.0
 10
108.4833571813708
 20
550.3939793840509
 30
0.0
 10
108.4939835634874
 20
550.3851025024395
 30
0.0
 10
108.5056213166816
 20
550.3783405218728
 30
0.0
 10
108.5175340580018
 20
550.3714187626673
 30
0.0
 10
108.5308189733242
 20
550.3665259594432
 30
0.0
 10
108.5444042053333
 20
550.3639893002271
 30
0.0
 10
108.5539385953506
 20
550.3622090215914
 30
0.0
 10
108.5637656260182
 20
550.3615450756163
 30
0.0
 10
108.5735161859155
 20
550.3620078271565
 30
0.0
 10
108.5882267054774
 20
550.3627059732789
 30
0.0
 10
108.6031040073224
 20
550.3660204358154
 30
0.0
 10
108.6169263206167
 20
550.3716750530497
 30
0.0
 10
108.6307528341108
 20
550.377331388558
 30
0.0
 10
108.6439148528745
 20
550.3854927341087
 30
0.0
 10
108.6552722810891
 20
550.3955216200837
 30
0.0
 10
108.6664909258809
 20
550.4054279569134
 30
0.0
 10
108.6762708321611
 20
550.417455148058
 30
0.0
 10
108.6836598131519
 20
550.4305871576288
 30
0.0
 10
108.6907517072168
 20
550.4431911717481
 30
0.0
 10
108.6958412732534
 20
550.4571871681381
 30
0.0
 10
108.6983974760297
 20
550.4713259848046
 30
0.0
 10
108.6995968119379
 20
550.477959727122
 30
0.0
 10
108.700264062431
 20
550.4846918511876
 30
0.0
 10
108.7003824850483
 20
550.4913799073036
 30
0.0
  0
LINE
  5
E5
330
75
100
AcDbEntity
  8
$DDT_AUDIT_GENERATED_(C8)
  6
Continuous
 62
     7
100
AcDbLine
 10
107.0887085648
 20
549.9483365815
 30
0.0
 11
106.3092857014
 21
550.1827616213
 31
0.0
  0
LINE
  5
E6
330
75
100
AcDbEntity
  8
$DDT_AUDIT_GENERATED_(C8)
  6
Continuous
 62
     7
100
AcDbLine
 10
91.5413365089
 20
550.5432943059
 30
0.0
 11
91.5413365089
 21
550.2869505279
 31
0.0
  0
LINE
  5
E7
330
75
100
AcDbEntity
  8
$DDT_AUDIT_GENERATED_(C8)
  6
Continuous
 62
     7
100
AcDbLine
 10
106.6556958629
 20
550.5432943059
 30
0.0
 11
106.6556958629
 21
550.2869505279
 31
0.0
  0
LINE
  5
E9
330
75
100
AcDbEntity
  8
$DDT_AUDIT_GENERATED_(E8)
  6
Continuous
 62
     7
100
AcDbLine
 10
104.0985161859
 20
432.5225258797
 30
0.0
 11
104.0985161859
 21
434.0079279829
 31
0.0
  0
ENDBLK
  5
EB
330
75
100
AcDbEntity
  8
0
100
AcDbBlockEnd
  0
BLOCK
  5
11E
330
EC
100
AcDbEntity
  8
0
100
AcDbBlockBegin
  2
SE1
 70
     0
 10
0.0
 20
0.0
 30
0.0
  3
SE1
  1

  0
LINE
  5
EE
330
EC
100
AcDbEntity
  8
$DDT_AUDIT_GENERATED_(77)
  6
Continuous
 62
     7
100
AcDbLine
 10
258.5798491632
 20
472.5053278216
 30
0.0
 11
298.5798491632
 21
472.5053278216
 31
0.0
  0
ARC
  5
EF
330
EC
100
AcDbEntity
  8
$DDT_AUDIT_GENERATED_(77)
  6
Continuous
 62
     7
100
AcDbCircle
 10
48.6227669591
 20
390.6267746161
 30
0.0
 40
210.1256014115287
100
AcDbArc
 50
357.7052187783
 51
2.2948371868
  0
ARC
  5
F0
330
EC
100
AcDbEntity
  8
$DDT_AUDIT_GENERATED_(77)
  6
Continuous
 62
     7
100
AcDbCircle
 10
238.8359903524
 20
465.5053278232
 30
0.0
 40
20.00955923385707
100
AcDbArc
 50
351.6693590803
 51
9.3475271988
  0
LINE
  5
F1
330
EC
100
AcDbEntity
  8
$DDT_AUDIT_GENERATED_(77)
  6
Continuous
 62
     7
100
AcDbLine
 10
298.5798491632
 20
438.2053278216
 30
0.0
 11
298.5798491632
 21
472.5053278216
 31
0.0
  0
LINE
  5
F2
330
EC
100
AcDbEntity
  8
$DDT_AUDIT_GENERATED_(77)
  6
Continuous
 62
     7
100
AcDbLine
 10
298.5798491632
 20
368.5053278216
 30
0.0
 11
298.5798491632
 21
438.2053278216
 31
0.0
  0
LINE
  5
F3
330
EC
100
AcDbEntity
  8
$DDT_AUDIT_GENERATED_(77)
  6
Continuous
 62
     7
100
AcDbLine
 10
258.5798491632
 20
382.2186358026
 30
0.0
 11
258.5798491632
 21
368.5053278216
 31
0.0
  0
LINE
  5
F4
330
EC
100
AcDbEntity
  8
$DDT_AUDIT_GENERATED_(77)
  6
Continuous
 62
     7
100
AcDbLine
 10
258.5798491632
 20
438.2053278216
 30
0.0
 11
258.5798491632
 21
399.0405728605
 31
0.0
  0
LINE
  5
F5
330
EC
100
AcDbEntity
  8
$DDT_AUDIT_GENERATED_(77)
  6
Continuous
 62
     7
100
AcDbLine
 10
258.5798491632
 20
462.1553278216
 30
0.0
 11
258.5798491632
 21
438.2053278216
 31
0.0
  0
LINE
  5
F6
330
EC
100
AcDbEntity
  8
$DDT_AUDIT_GENERATED_(77)
  6
Continuous
 62
     7
100
AcDbLine
 10
258.5798491632
 20
472.5053278216
 30
0.0
 11
258.5798491632
 21
468.8553278216
 31
0.0
  0
ELLIPSE
  5
F7
330
EC
100
AcDbEntity
  8
$DDT_AUDIT_GENERATED_(89)
  6
Continuous
 62
     7
100
AcDbEllipse
 10
278.6186987798
 20
438.4817572071
 30
0.0
 11
-19.80536137478024
 21
2.783462019559757
 31
0.0
210
0.0
220
0.0
230
1.0
 40
0.9996254465
 41
3.293352158692911
 42
3.34339061504828
  0
ELLIPSE
  5
F8
330
EC
100
AcDbEntity
  8
$DDT_AUDIT_GENERATED_(89)
  6
Continuous
 62
     7
100
AcDbEllipse
 10
278.623073322
 20
438.5128836923
 30
0.0
 11
-19.80536137483167
 21
2.783462019200475
 31
0.0
210
0.0
220
0.0
230
1.0
 40
0.9864777622
 41
3.217676234456145
 42
3.232815444158176
  0
ELLIPSE
  5
F9
330
EC
100
AcDbEntity
  8
$DDT_AUDIT_GENERATED_(89)
  6
Continuous
 62
     7
100
AcDbEllipse
 10
278.7273771195
 20
439.2550437749
 30
0.0
 11
-19.80536137461597
 21
2.783462020728947
 31
0.0
210
0.0
220
0.0
230
1.0
 40
0.9996254465
 41
3.159690902101974
 42
3.40264384386159
  0
LINE
  5
FA
330
EC
100
AcDbEntity
  8
$DDT_AUDIT_GENERATED_(89)
  6
Continuous
 62
     7
100
AcDbLine
 10
296.838232623
 20
507.0454561295
 30
0.0
 11
291.9839341599
 21
472.5053278216
 31
0.0
  0
LINE
  5
FB
330
EC
100
AcDbEntity
  8
$DDT_AUDIT_GENERATED_(89)
  6
Continuous
 62
     7
100
AcDbLine
 10
296.8557530384
 20
507.1701203622
 30
0.0
 11
296.838232623
 21
507.0454561295
 31
0.0
  0
ELLIPSE
  5
FC
330
EC
100
AcDbEntity
  8
$DDT_AUDIT_GENERATED_(89)
  6
Continuous
 62
     7
100
AcDbEllipse
 10
296.1625653902
 20
507.2675415328
 30
0.0
 11
0.6931876481182514
 21
-0.09742117067954026
 31
0.0
210
0.0
220
0.0
230
1.0
 40
0.9996254465
 41
0.0000000000106898
 42
1.570796326805658
  0
LINE
  5
FD
330
EC
100
AcDbEntity
  8
$DDT_AUDIT_GENERATED_(89)
  6
Continuous
 62
     7
100
AcDbLine
 10
296.2599865609
 20
507.960729181
 30
0.0
 11
285.0798491632
 21
509.5319950229
 31
0.0
  0
LINE
  5
FE
330
EC
100
AcDbEntity
  8
$DDT_AUDIT_GENERATED_(A5)
  6
Continuous
 62
     7
100
AcDbLine
 10
254.1798491632
 20
368.5053278216
 30
0.0
 11
302.9798491632
 21
368.5053278216
 31
0.0
  0
LINE
  5
FF
330
EC
100
AcDbEntity
  8
$DDT_AUDIT_GENERATED_(A5)
  6
Continuous
 62
     7
100
AcDbLine
 10
253.0798491632
 20
368.5053278216
 30
0.0
 11
254.1798491632
 21
368.5053278216
 31
0.0
  0
LINE
  5
100
330
EC
100
AcDbEntity
  8
$DDT_AUDIT_GENERATED_(A5)
  6
Continuous
 62
     7
100
AcDbLine
 10
302.9798491632
 20
368.5053278216
 30
0.0
 11
304.0798491632
 21
368.5053278216
 31
0.0
  0
LINE
  5
101
330
EC
100
AcDbEntity
  8
$DDT_AUDIT_GENERATED_(A5)
  6
Continuous
 62
     7
100
AcDbLine
 10
304.5798491632
 20
368.0053278216
 30
0.0
 11
304.5798491632
 21
360.5053278216
 31
0.0
  0
LINE
  5
102
330
EC
100
AcDbEntity
  8
$DDT_AUDIT_GENERATED_(A5)
  6
Continuous
 62
     7
100
AcDbLine
 10
252.5798491632
 20
368.0053278216
 30
0.0
 11
252.5798491632
 21
360.5053278216
 31
0.0
  0
ARC
  5
103
330
EC
100
AcDbEntity
  8
$DDT_AUDIT_GENERATED_(A5)
  6
Continuous
 62
     7
100
AcDbCircle
 10
304.0798491632
 20
368.0053278216
 30
0.0
 40
0.5000000000000004
100
AcDbArc
 50
0.0
 51
90.0
  0
ARC
  5
104
330
EC
100
AcDbEntity
  8
$DDT_AUDIT_GENERATED_(A5)
  6
Continuous
 62
     7
100
AcDbCircle
 10
253.0798491632
 20
368.0053278216
 30
0.0
 40
0.5000000000000004
100
AcDbArc
 50
90.0
 51
180.0
  0
LINE
  5
105
330
EC
100
AcDbEntity
  8
$DDT_AUDIT_GENERATED_(A5)
  6
Continuous
 62
     7
100
AcDbLine
 10
302.9798491632
 20
360.5053278216
 30
0.0
 11
254.1798491632
 21
360.5053278216
 31
0.0
  0
LINE
  5
106
330
EC
100
AcDbEntity
  8
$DDT_AUDIT_GENERATED_(A5)
  6
Continuous
 62
     7
100
AcDbLine
 10
304.5798491632
 20
360.5053278216
 30
0.0
 11
302.9798491632
 21
360.5053278216
 31
0.0
  0
LINE
  5
107
330
EC
100
AcDbEntity
  8
$DDT_AUDIT_GENERATED_(A5)
  6
Continuous
 62
     7
100
AcDbLine
 10
254.1798491632
 20
360.5053278216
 30
0.0
 11
252.5798491632
 21
360.5053278216
 31
0.0
  0
LINE
  5
109
330
EC
100
AcDbEntity
  8
$DDT_AUDIT_GENERATED_(108)
  6
Continuous
 62
     7
100
AcDbLine
 10
236.5798491632
 20
408.1795814061
 30
0.0
 11
236.5798491632
 21
412.1795814061
 31
0.0
  0
LINE
  5
10A
330
EC
100
AcDbEntity
  8
$DDT_AUDIT_GENERATED_(108)
  6
Continuous
 62
     7
100
AcDbLine
 10
250.0471365232
 20
412.1795814061
 30
0.0
 11
236.5798491632
 21
412.1795814061
 31
0.0
  0
LINE
  5
10B
330
EC
100
AcDbEntity
  8
$DDT_AUDIT_GENERATED_(108)
  6
Continuous
 62
     7
100
AcDbLine
 10
236.5798491632
 20
408.1795814061
 30
0.0
 11
250.0471365232
 21
408.1795814061
 31
0.0
  0
ARC
  5
10C
330
EC
100
AcDbEntity
  8
$DDT_AUDIT_GENERATED_(108)
  6
Continuous
 62
     7
100
AcDbCircle
 10
250.0471365232
 20
407.1795814061
 30
0.0
 40
0.9999999999999454
100
AcDbArc
 50
18.0
 51
90.0
  0
ARC
  5
10D
330
EC
100
AcDbEntity
  8
$DDT_AUDIT_GENERATED_(108)
  6
Continuous
 62
     7
100
AcDbCircle
 10
250.0471365232
 20
407.1795814061
 30
0.0
 40
4.999999999999967
100
AcDbArc
 50
18.0
 51
90.0
  0
LINE
  5
10E
330
EC
100
AcDbEntity
  8
$DDT_AUDIT_GENERATED_(108)
  6
Continuous
 62
     7
100
AcDbLine
 10
258.6485225666
 20
396.887577071
 30
0.0
 11
254.8024191047
 21
408.724666378
 31
0.0
  0
LINE
  5
10F
330
EC
100
AcDbEntity
  8
$DDT_AUDIT_GENERATED_(108)
  6
Continuous
 62
     7
100
AcDbLine
 10
250.9981930395
 20
407.4885984005
 30
0.0
 11
258.6486134668
 21
383.943025399
 31
0.0
  0
ARC
  5
110
330
EC
100
AcDbEntity
  8
$DDT_AUDIT_GENERATED_(B2)
  6
Continuous
 62
     7
100
AcDbCircle
 10
384.9798491632
 20
553.4893831467
 30
0.0
 40
25.51594467490883
100
AcDbArc
 50
10.0
 51
90.0
  0
LINE
  5
111
330
EC
100
AcDbEntity
  8
$DDT_AUDIT_GENERATED_(B2)
  6
Continuous
 62
     7
100
AcDbLine
 10
384.9798491632
 20
579.0053278216
 30
0.0
 11
310.5798491632
 21
579.0053278216
 31
0.0
  0
ARC
  5
112
330
EC
100
AcDbEntity
  8
$DDT_AUDIT_GENERATED_(B2)
  6
Continuous
 62
     7
100
AcDbCircle
 10
310.5798491632
 20
553.5053278216
 30
0.0
 40
25.5
100
AcDbArc
 50
90.0
 51
180.0
  0
LINE
  5
113
330
EC
100
AcDbEntity
  8
$DDT_AUDIT_GENERATED_(B2)
  6
Continuous
 62
     7
100
AcDbLine
 10
285.0798491632
 20
553.5053278216
 30
0.0
 11
285.0798491632
 21
472.5053278216
 31
0.0
  0
LINE
  5
114
330
EC
100
AcDbEntity
  8
$DDT_AUDIT_GENERATED_(B2)
  6
Continuous
 62
     7
100
AcDbLine
 10
423.3873515307
 20
559.7776067506
 30
0.0
 11
424.8980906764
 21
551.2097792994
 31
0.0
  0
ARC
  5
115
330
EC
100
AcDbEntity
  8
$DDT_AUDIT_GENERATED_(B2)
  6
Continuous
 62
     7
100
AcDbCircle
 10
384.9798491632
 20
553.0053278216
 30
0.0
 40
39.00000000000001
100
AcDbArc
 50
10.0
 51
90.0
  0
LINE
  5
116
330
EC
100
AcDbEntity
  8
$DDT_AUDIT_GENERATED_(B2)
  6
Continuous
 62
     7
100
AcDbLine
 10
310.5798491632
 20
592.0053278216
 30
0.0
 11
384.9798491632
 21
592.0053278216
 31
0.0
  0
ARC
  5
117
330
EC
100
AcDbEntity
  8
$DDT_AUDIT_GENERATED_(B2)
  6
Continuous
 62
     7
100
AcDbCircle
 10
310.5798491632
 20
553.5053278216
 30
0.0
 40
38.50000000000001
100
AcDbArc
 50
90.0
 51
180.0
  0
LINE
  5
118
330
EC
100
AcDbEntity
  8
$DDT_AUDIT_GENERATED_(B2)
  6
Continuous
 62
     7
100
AcDbLine
 10
272.0798491632
 20
472.5053278216
 30
0.0
 11
272.0798491632
 21
553.5053278216
 31
0.0
  0
LINE
  5
119
330
EC
100
AcDbEntity
  8
$DDT_AUDIT_GENERATED_(B2)
  6
Continuous
 62
     7
100
AcDbLine
 10
411.701666786
 20
548.8828937187
 30
0.0
 11
410.1081493045
 21
557.9201804409
 31
0.0
  0
LINE
  5
11A
330
EC
100
AcDbEntity
  8
$DDT_AUDIT_GENERATED_(B2)
  6
Continuous
 62
     7
100
AcDbLine
 10
424.4925108887
 20
550.6305513341
 30
0.0
 11
412.2808947514
 21
548.477313931
 31
0.0
  0
ARC
  5
11B
330
EC
100
AcDbEntity
  8
$DDT_AUDIT_GENERATED_(B2)
  6
Continuous
 62
     7
100
AcDbCircle
 10
424.4056867999
 20
551.1229552106
 30
0.0
 40
0.4999999999999865
100
AcDbArc
 50
280.0
 51
10.0
  0
ARC
  5
11C
330
EC
100
AcDbEntity
  8
$DDT_AUDIT_GENERATED_(B2)
  6
Continuous
 62
     7
100
AcDbCircle
 10
412.1940706625
 20
548.9697178075
 30
0.0
 40
0.4999999999999865
100
AcDbArc
 50
190.0
 51
280.0
  0
LINE
  5
11D
330
EC
100
AcDbEntity
  8
$DDT_AUDIT_GENERATED_(B0)
  6
Continuous
 62
     7
100
AcDbLine
 10
258.5798491632
 20
468.8553278216
 30
0.0
 11
258.5798491632
 21
462.1553278216
 31
0.0
  0
ENDBLK
  5
11F
330
EC
100
AcDbEntity
  8
0
100
AcDbBlockEnd
  0
BLOCK
  5
16A
330
120
100
AcDbEntity
  8
0
100
AcDbBlockBegin
  2
SE2
 70
     0
 10
0.0
 20
0.0
 30
0.0
  3
SE2
  1

  0
ARC
  5
122
330
120
100
AcDbEntity
  8
$DDT_AUDIT_GENERATED_(77)
  6
Continuous
 62
     7
100
AcDbCircle
 10
99.0985161859
 20
252.6758376367
 30
0.0
 40
20.0
100
AcDbArc
 50
318.5903778907
 51
0.0
  0
ARC
  5
123
330
120
100
AcDbEntity
  8
$DDT_AUDIT_GENERATED_(77)
  6
Continuous
 62
     7
100
AcDbCircle
 10
99.0985161859
 20
252.6758376367
 30
0.0
 40
20.0
100
AcDbArc
 50
0.0
 51
221.4096221093
  0
LINE
  5
124
330
120
100
AcDbEntity
  8
$DDT_AUDIT_GENERATED_(77)
  6
Continuous
 62
     7
100
AcDbLine
 10
147.0985161859
 20
232.6758376367
 30
0.0
 11
147.0985161859
 21
272.6758376367
 31
0.0
  0
SPLINE
  5
125
330
120
100
AcDbEntity
  8
$DDT_AUDIT_GENERATED_(77)
  6
Continuous
 62
     7
100
AcDbSpline
210
0.0
220
0.0
230
1.0
 70
     8
 71
     3
 72
    22
 73
    18
 74
     0
 42
0.0000000001359264
 43
0.0000000001
 40
0.0567020148124296
 40
0.0567020148124296
 40
0.0567020148124296
 40
0.0567020148124296
 40
0.0674449265250022
 40
0.1008938358914923
 40
0.1340444008661739
 40
0.1668207611493154
 40
0.1991779411750517
 40
0.2625101565117978
 40
0.3241074007173927
 40
0.3841719208786169
 40
0.4427466060648573
 40
0.5000018647817837
 40
0.5572569086335001
 40
0.615831801943552
 40
0.6758971986281073
 40
0.7374955403596103
 40
0.7503215395800541
 40
0.7503215395800541
 40
0.7503215395800541
 40
0.7503215395800541
 10
102.4483631480391
 20
272.4141151452824
 30
0.0
 10
102.6628133112385
 20
272.3817228205391
 30
0.0
 10
103.5467937320999
 20
272.2367293985048
 30
0.0
 10
105.1065445935552
 20
271.8964453430614
 30
0.0
 10
107.1225715262705
 20
271.3015817994179
 30
0.0
 10
109.1190367181291
 20
270.5614934468856
 30
0.0
 10
111.7159197863371
 20
269.3982967973131
 30
0.0
 10
114.8483899615067
 20
267.6140955950963
 30
0.0
 10
118.3308556977561
 20
264.8973304367651
 30
0.0
 10
121.3285402647495
 20
261.537305482707
 30
0.0
 10
123.5224110803603
 20
257.4382974084052
 30
0.0
 10
124.3831699762804
 20
252.6758621519622
 30
0.0
 10
123.5228835910884
 20
247.9133086921662
 30
0.0
 10
121.32911121115
 20
243.814209320498
 30
0.0
 10
118.3313724037685
 20
240.4541780839083
 30
0.0
 10
115.7995737469469
 20
238.4791553401087
 30
0.0
 10
114.3501524587419
 20
237.5343990466029
 30
0.0
 10
114.0991151711066
 20
237.3758899261077
 30
0.0
  0
LINE
  5
126
330
120
100
AcDbEntity
  8
$DDT_AUDIT_GENERATED_(77)
  6
Continuous
 62
     7
100
AcDbLine
 10
114.0985161859
 20
232.6758376367
 30
0.0
 11
147.0985161859
 21
232.6758376367
 31
0.0
  0
LINE
  5
127
330
120
100
AcDbEntity
  8
$DDT_AUDIT_GENERATED_(77)
  6
Continuous
 62
     7
100
AcDbLine
 10
147.0985161859
 20
272.6758376367
 30
0.0
 11
102.4485161859
 21
272.6758376367
 31
0.0
  0
SPLINE
  5
129
330
120
100
AcDbEntity
  8
$DDT_AUDIT_GENERATED_(128)
  6
Continuous
 62
     7
100
AcDbSpline
210
0.0
220
0.0
230
1.0
 70
     8
 71
     3
 72
     8
 73
     4
 74
     0
 42
0.0000000142705108
 43
0.0000000001
 40
0.539108358582227
 40
0.539108358582227
 40
0.539108358582227
 40
0.539108358582227
 40
1.0
 40
1.0
 40
1.0
 40
1.0
 10
117.473780841485
 20
260.5631465835465
 30
0.0
 10
117.5528703796459
 20
260.4873492935594
 30
0.0
 10
117.5985161859155
 20
260.3869205573616
 30
0.0
 10
117.5985161859155
 20
260.2838142798639
 30
0.0
  0
ARC
  5
12A
330
120
100
AcDbEntity
  8
$DDT_AUDIT_GENERATED_(85)
  6
Continuous
 62
     7
100
AcDbCircle
 10
138.6985161859
 20
252.6758376367
 30
0.0
 40
20.0
100
AcDbArc
 50
60.9260946914
 51
65.1654125103
  0
ARC
  5
12B
330
120
100
AcDbEntity
  8
$DDT_AUDIT_GENERATED_(85)
  6
Continuous
 62
     7
100
AcDbCircle
 10
138.6985161859
 20
252.6758376367
 30
0.0
 40
20.0
100
AcDbArc
 50
294.8345874897
 51
298.6372891658
  0
ARC
  5
12C
330
120
100
AcDbEntity
  8
$DDT_AUDIT_GENERATED_(89)
  6
Continuous
 62
     7
100
AcDbCircle
 10
148.805649939
 20
234.9876654917
 30
0.0
 40
2.349056188334574
100
AcDbArc
 50
270.1536499855
 51
270.5694842303
  0
ELLIPSE
  5
12D
330
120
100
AcDbEntity
  8
$DDT_AUDIT_GENERATED_(89)
  6
Continuous
 62
     7
100
AcDbEllipse
 10
150.0428053434
 20
252.6326134779
 30
0.0
 11
-1.860091744554822
 21
-19.97318210898005
 31
0.0
210
0.0
220
0.0
230
1.0
 40
0.4996809218
 41
3.18617838050327
 42
3.321949861445082
  0
ELLIPSE
  5
12E
330
120
100
AcDbEntity
  8
$DDT_AUDIT_GENERATED_(89)
  6
Continuous
 62
     7
100
AcDbEllipse
 10
148.5948081062
 20
252.6381306559
 30
0.0
 11
-0.07506065258432865
 21
-19.6998570019793
 31
0.0
210
0.0
220
0.0
230
0.9999999999999999
 40
0.0271009202
 41
3.433030138270561
 42
6.15923774349278
  0
ELLIPSE
  5
12F
330
120
100
AcDbEntity
  8
$DDT_AUDIT_GENERATED_(89)
  6
Continuous
 62
     7
100
AcDbEllipse
 10
148.8131905863
 20
232.9385933041
 30
0.0
 11
0.1231991543727343
 21
0.2735360458181041
 31
0.0
210
0.0
220
0.0
230
0.9999999999999999
 40
0.9995597487
 41
3.13419075111146
 42
3.560800733181492
  0
ELLIPSE
  5
130
330
120
100
AcDbEntity
  8
$DDT_AUDIT_GENERATED_(89)
  6
Continuous
 62
     7
100
AcDbEllipse
 10
178.1165202348
 20
252.5256466425
 30
0.0
 11
0.0
 21
18.90010824580522
 31
0.0
210
0.0
220
0.0
230
1.0
 40
1.0
 41
0.0020310217111217
 42
3.131325302833046
  0
ELLIPSE
  5
131
330
120
100
AcDbEntity
  8
$DDT_AUDIT_GENERATED_(89)
  6
Continuous
 62
     7
100
AcDbEllipse
 10
178.1165202348
 20
252.5256466425
 30
0.0
 11
0.0
 21
19.02686463410909
 31
0.0
210
0.0
220
0.0
230
1.0
 40
1.0
 41
3.142671840284998
 42
3.15612706036313
  0
ELLIPSE
  5
132
330
120
100
AcDbEntity
  8
$DDT_AUDIT_GENERATED_(89)
  6
Continuous
 62
     7
100
AcDbEllipse
 10
178.1165202348
 20
252.5256466425
 30
0.0
 11
0.0
 21
16.01281822456426
 31
0.0
210
0.0
220
0.0
230
1.0
 40
1.0
 41
-0.0221547960323407
 42
-0.0094844510886398
  0
LINE
  5
133
330
120
100
AcDbEntity
  8
$DDT_AUDIT_GENERATED_(89)
  6
Continuous
 62
     7
100
AcDbLine
 10
166.5997429068
 20
259.0458056752
 30
0.0
 11
175.096559202
 21
259.0134309947
 31
0.0
  0
ELLIPSE
  5
134
330
120
100
AcDbEntity
  8
$DDT_AUDIT_GENERATED_(89)
  6
Continuous
 62
     7
100
AcDbEllipse
 10
167.3740836256
 20
250.5588236973
 30
0.0
 11
0.6999999999999923
 21
-4.336808689942013E-16
 31
0.0
210
0.0
220
0.0
230
1.0
 40
0.139173101
 41
3.114221979833688
 42
3.141592653589793
  0
ELLIPSE
  5
135
330
120
100
AcDbEntity
  8
$DDT_AUDIT_GENERATED_(89)
  6
Continuous
 62
     7
100
AcDbEllipse
 10
167.3740836256
 20
235.110641825
 30
0.0
 11
0.6999999999999923
 21
0.0
 31
0.0
210
0.0
220
0.0
230
1.0
 40
0.139173101
 41
3.114221979833688
 42
3.141592653589793
  0
ELLIPSE
  5
136
330
120
100
AcDbEntity
  8
$DDT_AUDIT_GENERATED_(89)
  6
Continuous
 62
     7
100
AcDbEllipse
 10
174.585069715
 20
252.5391022215
 30
0.0
 11
-0.08001389361783628
 21
-20.99984756556199
 31
0.0
210
0.0
220
0.0
230
0.9999999999999999
 40
0.0271009202
 41
4.471519768290618
 42
5.232614151670171
  0
ELLIPSE
  5
137
330
120
100
AcDbEntity
  8
$DDT_AUDIT_GENERATED_(89)
  6
Continuous
 62
     7
100
AcDbEllipse
 10
173.3517335614
 20
242.1051395257
 30
0.0
 11
-0.6868368711892557
 21
0.1351114812847692
 31
0.0
210
0.0
220
0.0
230
1.0
 40
0.9898971604
 41
3.141592653589793
 42
3.333914023832259
  0
LINE
  5
138
330
120
100
AcDbEntity
  8
$DDT_AUDIT_GENERATED_(89)
  6
Continuous
 62
     7
100
AcDbLine
 10
148.8589495052
 20
232.6369790442
 30
0.0
 11
177.3413955433
 21
232.5284548561
 31
0.0
  0
LINE
  5
139
330
120
100
AcDbEntity
  8
$DDT_AUDIT_GENERATED_(89)
  6
Continuous
 62
     7
100
AcDbLine
 10
177.4938029597
 20
272.5281645047
 30
0.0
 11
151.4562207038
 21
272.6273732409
 31
0.0
  0
ARC
  5
13A
330
120
100
AcDbEntity
  8
$DDT_AUDIT_GENERATED_(89)
  6
Continuous
 62
     7
100
AcDbCircle
 10
151.5953800876
 20
266.2493970437
 30
0.0
 40
6.390354877489951
100
AcDbArc
 50
104.3900151294
 51
113.9886920143
  0
SPLINE
  5
13B
330
120
100
AcDbEntity
  8
$DDT_AUDIT_GENERATED_(89)
  6
Continuous
 62
     7
100
AcDbSpline
210
0.0
220
0.0
230
1.0
 70
     8
 71
     3
 72
    11
 73
     7
 74
     0
 42
0.0000000222774147
 43
0.0000000001
 40
0.0
 40
0.0
 40
0.0
 40
0.0
 40
0.5435269660932116
 40
0.7667924265132017
 40
0.913205422741226
 40
1.0
 40
1.0
 40
1.0
 40
1.0
 10
148.4619832111551
 20
233.026732356798
 30
0.0
 10
148.4718732660548
 20
232.9681687154981
 30
0.0
 10
148.4916353625707
 20
232.8931887372527
 30
0.0
 10
148.54170510267
 20
232.7914768989666
 30
0.0
 10
148.6037089293822
 20
232.7134700157007
 30
0.0
 10
148.663542735721
 20
232.6799306827234
 30
0.0
 10
148.689991431948
 20
232.6650572582313
 30
0.0
  0
ARC
  5
13C
330
120
100
AcDbEntity
  8
$DDT_AUDIT_GENERATED_(89)
  6
Continuous
 62
     7
100
AcDbCircle
 10
149.1881246116
 20
271.4266318259
 30
0.0
 40
0.681469884200457
100
AcDbArc
 50
105.6064572595
 51
170.867183674
  0
LINE
  5
13D
330
120
100
AcDbEntity
  8
$DDT_AUDIT_GENERATED_(89)
  6
Continuous
 62
     7
100
AcDbLine
 10
167.3714164958
 20
234.4106469061
 30
0.0
 11
171.9696935497
 21
234.3931264908
 31
0.0
  0
ARC
  5
13E
330
120
100
AcDbEntity
  8
$DDT_AUDIT_GENERATED_(89)
  6
Continuous
 62
     7
100
AcDbCircle
 10
-221.5165134579
 20
254.0483336499
 30
0.0
 40
400.2499999999953
100
AcDbArc
 50
357.4892313953
 51
2.0741524619
  0
SPLINE
  5
13F
330
120
100
AcDbEntity
  8
$DDT_AUDIT_GENERATED_(89)
  6
Continuous
 62
     7
100
AcDbSpline
210
0.0
220
0.0
230
1.0
 70
     8
 71
     3
 72
    16
 73
    12
 74
     0
 42
0.000000007485907
 43
0.0000000001
 40
0.0
 40
0.0
 40
0.0
 40
0.0
 40
0.0540172880534494
 40
0.1249574396478964
 40
0.1919350537836715
 40
0.2604271789317549
 40
0.3368563233769842
 40
0.4313723563978046
 40
0.5604502234962769
 40
0.758337916274022
 40
1.0
 40
1.0
 40
1.0
 40
1.0
 10
177.3424858838937
 20
232.5375493736224
 30
0.0
 10
177.4034375498437
 20
232.5372434740349
 30
0.0
 10
177.522592268993
 20
232.5376840975997
 30
0.0
 10
177.7021212422364
 20
232.6157567417816
 30
0.0
 10
177.8413949138017
 20
232.7212402539583
 30
0.0
 10
177.9339228488146
 20
232.8301283992764
 30
0.0
 10
177.9941943459923
 20
232.9301125683443
 30
0.0
 10
178.0368255319543
 20
233.0262962600069
 30
0.0
 10
178.0714335535512
 20
233.1325044583708
 30
0.0
 10
178.1021988195149
 20
233.2586758099505
 30
0.0
 10
178.1186462037685
 20
233.3661859370759
 30
0.0
 10
178.1286096296725
 20
233.4355496767877
 30
0.0
  0
SPLINE
  5
140
330
120
100
AcDbEntity
  8
$DDT_AUDIT_GENERATED_(89)
  6
Continuous
 62
     7
100
AcDbSpline
210
0.0
220
0.0
230
1.0
 70
     8
 71
     3
 72
    17
 73
    13
 74
     0
 42
0.000000006852625
 43
0.0000000001
 40
0.0
 40
0.0
 40
0.0
 40
0.0
 40
0.0477713897831636
 40
0.3517282173925304
 40
0.5286809526132698
 40
0.6587073379216114
 40
0.7360240963787457
 40
0.8031860639740402
 40
0.8662558379221017
 40
0.9291148310777233
 40
0.9926711201343319
 40
1.0
 40
1.0
 40
1.0
 40
1.0
 10
178.2910178098474
 20
271.5012983982293
 30
0.0
 10
178.2889454940048
 20
271.5200910206631
 30
0.0
 10
178.2757287416937
 20
271.6388683448457
 30
0.0
 10
178.2512911429574
 20
271.7801146830507
 30
0.0
 10
178.2143943202239
 20
271.9376661018071
 30
0.0
 10
178.1755463846942
 20
272.053062460559
 30
0.0
 10
178.1193650217368
 20
272.1668619347749
 30
0.0
 10
178.0416835605208
 20
272.2786896676427
 30
0.0
 10
177.9153991074043
 20
272.3996784229493
 30
0.0
 10
177.7369473350375
 20
272.4926168376292
 30
0.0
 10
177.5747770860306
 20
272.5371419599072
 30
0.0
 10
177.4982887990379
 20
272.525829115261
 30
0.0
 10
177.4890886136639
 20
272.5244538859305
 30
0.0
  0
LINE
  5
141
330
120
100
AcDbEntity
  8
$DDT_AUDIT_GENERATED_(89)
  6
Continuous
 62
     7
100
AcDbLine
 10
168.0519090021
 20
257.6311720404
 30
0.0
 11
166.6872467544
 21
250.6939351786
 31
0.0
  0
ARC
  5
142
330
120
100
AcDbEntity
  8
$DDT_AUDIT_GENERATED_(89)
  6
Continuous
 62
     7
100
AcDbCircle
 10
167.3740836256
 20
250.5588236973
 30
0.0
 40
0.7000000000000021
100
AcDbArc
 50
168.8711294509
 51
180.0
  0
LINE
  5
143
330
120
100
AcDbEntity
  8
$DDT_AUDIT_GENERATED_(89)
  6
Continuous
 62
     7
100
AcDbLine
 10
166.6740836256
 20
250.5588236973
 30
0.0
 11
166.6740836256
 21
235.110641825
 31
0.0
  0
ARC
  5
144
330
120
100
AcDbEntity
  8
$DDT_AUDIT_GENERATED_(89)
  6
Continuous
 62
     7
100
AcDbCircle
 10
167.3740836256
 20
235.110641825
 30
0.0
 40
0.6999999999999923
100
AcDbArc
 50
180.0
 51
269.7816919286
  0
LINE
  5
145
330
120
100
AcDbEntity
  8
$DDT_AUDIT_GENERATED_(89)
  6
Continuous
 62
     7
100
AcDbLine
 10
172.6591975507
 20
234.9580099284
 30
0.0
 11
174.0385704326
 21
241.9700280444
 31
0.0
  0
ARC
  5
146
330
120
100
AcDbEntity
  8
$DDT_AUDIT_GENERATED_(89)
  6
Continuous
 62
     7
100
AcDbCircle
 10
171.9723606795
 20
235.0931214097
 30
0.0
 40
0.6999999999999988
100
AcDbArc
 50
269.7816919286
 51
348.8711294509
  0
LINE
  5
147
330
120
100
AcDbEntity
  8
$DDT_AUDIT_GENERATED_(A5)
  6
Continuous
 62
     7
100
AcDbLine
 10
125.0985161859
 20
277.0758376367
 30
0.0
 11
125.0985161859
 21
272.6758376367
 31
0.0
  0
LINE
  5
148
330
120
100
AcDbEntity
  8
$DDT_AUDIT_GENERATED_(A5)
  6
Continuous
 62
     7
100
AcDbLine
 10
125.0985161859
 20
232.6758376367
 30
0.0
 11
125.0985161859
 21
228.2758376367
 31
0.0
  0
ARC
  5
149
330
120
100
AcDbEntity
  8
$DDT_AUDIT_GENERATED_(A5)
  6
Continuous
 62
     7
100
AcDbCircle
 10
123.4985161859
 20
228.2758376367
 30
0.0
 40
1.600000000000001
100
AcDbArc
 50
270.0
 51
0.0
  0
ARC
  5
14A
330
120
100
AcDbEntity
  8
$DDT_AUDIT_GENERATED_(A5)
  6
Continuous
 62
     7
100
AcDbCircle
 10
123.4985161859
 20
277.0758376367
 30
0.0
 40
1.600000000000001
100
AcDbArc
 50
0.0
 51
90.0
  0
LINE
  5
14B
330
120
100
AcDbEntity
  8
$DDT_AUDIT_GENERATED_(A5)
  6
Continuous
 62
     7
100
AcDbLine
 10
123.4985161859
 20
226.6758376367
 30
0.0
 11
114.0985161859
 21
226.6758376367
 31
0.0
  0
LINE
  5
14C
330
120
100
AcDbEntity
  8
$DDT_AUDIT_GENERATED_(A5)
  6
Continuous
 62
     7
100
AcDbLine
 10
84.0985161859
 20
226.6758376367
 30
0.0
 11
74.6985161859
 21
226.6758376367
 31
0.0
  0
LINE
  5
14D
330
120
100
AcDbEntity
  8
$DDT_AUDIT_GENERATED_(A5)
  6
Continuous
 62
     7
100
AcDbLine
 10
74.6985161859
 20
278.6758376367
 30
0.0
 11
97.0985161859
 21
278.6758376367
 31
0.0
  0
LINE
  5
14E
330
120
100
AcDbEntity
  8
$DDT_AUDIT_GENERATED_(A5)
  6
Continuous
 62
     7
100
AcDbLine
 10
101.0985161859
 20
278.6758376367
 30
0.0
 11
123.4985161859
 21
278.6758376367
 31
0.0
  0
ARC
  5
14F
330
120
100
AcDbEntity
  8
$DDT_AUDIT_GENERATED_(A5)
  6
Continuous
 62
     7
100
AcDbCircle
 10
74.6985161859
 20
228.2758376367
 30
0.0
 40
1.599999999999997
100
AcDbArc
 50
180.0
 51
270.0
  0
ARC
  5
150
330
120
100
AcDbEntity
  8
$DDT_AUDIT_GENERATED_(A5)
  6
Continuous
 62
     7
100
AcDbCircle
 10
74.6985161859
 20
277.0758376367
 30
0.0
 40
1.600000000000001
100
AcDbArc
 50
90.0
 51
180.0
  0
LINE
  5
151
330
120
100
AcDbEntity
  8
$DDT_AUDIT_GENERATED_(A5)
  6
Continuous
 62
     7
100
AcDbLine
 10
73.0985161859
 20
228.2758376367
 30
0.0
 11
73.0985161859
 21
277.0758376367
 31
0.0
  0
LINE
  5
152
330
120
100
AcDbEntity
  8
$DDT_AUDIT_GENERATED_(108)
  6
Continuous
 62
     7
100
AcDbLine
 10
97.0985161859
 20
294.6758376367
 30
0.0
 11
101.0985161859
 21
294.6758376367
 31
0.0
  0
LINE
  5
153
330
120
100
AcDbEntity
  8
$DDT_AUDIT_GENERATED_(108)
  6
Continuous
 62
     7
100
AcDbLine
 10
101.0985161859
 20
281.2085502767
 30
0.0
 11
101.0985161859
 21
294.6758376367
 31
0.0
  0
LINE
  5
154
330
120
100
AcDbEntity
  8
$DDT_AUDIT_GENERATED_(108)
  6
Continuous
 62
     7
100
AcDbLine
 10
97.0985161859
 20
294.6758376367
 30
0.0
 11
97.0985161859
 21
281.2085502767
 31
0.0
  0
LINE
  5
155
330
120
100
AcDbEntity
  8
$DDT_AUDIT_GENERATED_(108)
  6
Continuous
 62
     7
100
AcDbLine
 10
97.0985161859
 20
281.2085502767
 30
0.0
 11
97.0985161859
 21
278.3553807278
 31
0.0
  0
LINE
  5
156
330
120
100
AcDbEntity
  8
$DDT_AUDIT_GENERATED_(108)
  6
Continuous
 62
     7
100
AcDbLine
 10
101.0985161859
 20
278.3553807278
 30
0.0
 11
101.0985161859
 21
281.2085502767
 31
0.0
  0
LINE
  5
157
330
120
100
AcDbEntity
  8
$DDT_AUDIT_GENERATED_(108)
  6
Continuous
 62
     7
100
AcDbLine
 10
101.0985161859
 20
272.6758376367
 30
0.0
 11
101.0985161859
 21
278.3553807278
 31
0.0
  0
LINE
  5
158
330
120
100
AcDbEntity
  8
$DDT_AUDIT_GENERATED_(108)
  6
Continuous
 62
     7
100
AcDbLine
 10
97.0985161859
 20
278.3553807278
 30
0.0
 11
97.0985161859
 21
272.6758376367
 31
0.0
  0
LINE
  5
159
330
120
100
AcDbEntity
  8
$DDT_AUDIT_GENERATED_(B2)
  6
Continuous
 62
     7
100
AcDbLine
 10
84.0985161859
 20
220.6758376367
 30
0.0
 11
84.0985161859
 21
258.6758376367
 31
0.0
  0
LINE
  5
15A
330
120
100
AcDbEntity
  8
$DDT_AUDIT_GENERATED_(B2)
  6
Continuous
 62
     7
100
AcDbLine
 10
84.0985161859
 20
146.2758376367
 30
0.0
 11
84.0985161859
 21
220.6758376367
 31
0.0
  0
LINE
  5
15B
330
120
100
AcDbEntity
  8
$DDT_AUDIT_GENERATED_(B2)
  6
Continuous
 62
     7
100
AcDbLine
 10
84.0985161859
 20
108.3607391457
 30
0.0
 11
84.0985161859
 21
146.2758376367
 31
0.0
  0
LINE
  5
15C
330
120
100
AcDbEntity
  8
$DDT_AUDIT_GENERATED_(B2)
  6
Continuous
 62
     7
100
AcDbLine
 10
84.5985161859
 20
259.1758376367
 30
0.0
 11
113.5985161859
 21
259.1758376367
 31
0.0
  0
ARC
  5
15D
330
120
100
AcDbEntity
  8
$DDT_AUDIT_GENERATED_(B2)
  6
Continuous
 62
     7
100
AcDbCircle
 10
84.5985161859
 20
258.6758376367
 30
0.0
 40
0.5000000000000004
100
AcDbArc
 50
90.0
 51
180.0
  0
LINE
  5
15E
330
120
100
AcDbEntity
  8
$DDT_AUDIT_GENERATED_(B2)
  6
Continuous
 62
     7
100
AcDbLine
 10
114.0985161859
 20
108.3607391457
 30
0.0
 11
114.0985161859
 21
106.85
 31
0.0
  0
LINE
  5
15F
330
120
100
AcDbEntity
  8
$DDT_AUDIT_GENERATED_(B2)
  6
Continuous
 62
     7
100
AcDbLine
 10
114.0985161859
 20
146.2758376367
 30
0.0
 11
114.0985161859
 21
108.3607391457
 31
0.0
  0
LINE
  5
160
330
120
100
AcDbEntity
  8
$DDT_AUDIT_GENERATED_(B2)
  6
Continuous
 62
     7
100
AcDbLine
 10
114.0985161859
 20
220.6758376367
 30
0.0
 11
114.0985161859
 21
146.2758376367
 31
0.0
  0
LINE
  5
161
330
120
100
AcDbEntity
  8
$DDT_AUDIT_GENERATED_(B2)
  6
Continuous
 62
     7
100
AcDbLine
 10
114.0985161859
 20
258.6758376367
 30
0.0
 11
114.0985161859
 21
220.6758376367
 31
0.0
  0
ARC
  5
162
330
120
100
AcDbEntity
  8
$DDT_AUDIT_GENERATED_(B2)
  6
Continuous
 62
     7
100
AcDbCircle
 10
113.5985161859
 20
258.6758376367
 30
0.0
 40
0.5000000000000004
100
AcDbArc
 50
0.0
 51
90.0
  0
LINE
  5
163
330
120
100
AcDbEntity
  8
$DDT_AUDIT_GENERATED_(B2)
  6
Continuous
 62
     7
100
AcDbLine
 10
84.0985161859
 20
106.85
 30
0.0
 11
84.0985161859
 21
108.3607391457
 31
0.0
  0
LINE
  5
164
330
120
100
AcDbEntity
  8
$DDT_AUDIT_GENERATED_(B2)
  6
Continuous
 62
     7
100
AcDbLine
 10
84.5985161859
 20
106.35
 30
0.0
 11
113.5985161859
 21
106.35
 31
0.0
  0
ARC
  5
165
330
120
100
AcDbEntity
  8
$DDT_AUDIT_GENERATED_(B2)
  6
Continuous
 62
     7
100
AcDbCircle
 10
113.5985161859
 20
106.85
 30
0.0
 40
0.5000000000000004
100
AcDbArc
 50
270.0
 51
0.0
  0
ARC
  5
166
330
120
100
AcDbEntity
  8
$DDT_AUDIT_GENERATED_(B2)
  6
Continuous
 62
     7
100
AcDbCircle
 10
84.5985161859
 20
106.85
 30
0.0
 40
0.5000000000000004
100
AcDbArc
 50
180.0
 51
270.0
  0
LINE
  5
167
330
120
100
AcDbEntity
  8
$DDT_AUDIT_GENERATED_(B0)
  6
Continuous
 62
     7
100
AcDbLine
 10
102.4485161859
 20
272.6758376367
 30
0.0
 11
95.7485161859
 21
272.6758376367
 31
0.0
  0
LINE
  5
168
330
120
100
AcDbEntity
  8
$DDT_AUDIT_GENERATED_(B0)
  6
Continuous
 62
     7
100
AcDbLine
 10
95.7485161859
 20
272.6758376367
 30
0.0
 11
95.7485161859
 21
272.3932791543
 31
0.0
  0
LINE
  5
169
330
120
100
AcDbEntity
  8
$DDT_AUDIT_GENERATED_(B0)
  6
Continuous
 62
     7
100
AcDbLine
 10
102.4485161859
 20
272.3932791543
 30
0.0
 11
102.4485161859
 21
272.6758376367
 31
0.0
  0
ENDBLK
  5
16B
330
120
100
AcDbEntity
  8
0
100
AcDbBlockEnd
  0
ENDSEC
  0
SECTION
  2
ENTITIES
  0
INSERT
  5
5F
330
1F
100
AcDbEntity
  8
Default
100
AcDbBlockReference
  2
SEANNOT_GROUP
 10
0.0
 20
0.0
 30
0.0
  0
INSERT
  5
66
330
1F
100
AcDbEntity
  8
Default
100
AcDbBlockReference
  2
SEANNOT_GROUP1
 10
0.0
 20
0.0
 30
0.0
  0
INSERT
  5
6C
330
1F
100
AcDbEntity
  8
Default
100
AcDbBlockReference
  2
SEANNOT_GROUP2
 10
0.0
 20
0.0
 30
0.0
  0
INSERT
  5
76
330
1F
100
AcDbEntity
  8
Default
100
AcDbBlockReference
  2
SE
 10
0.0
 20
0.0
 30
0.0
  0
INSERT
  5
ED
330
1F
100
AcDbEntity
  8
Default
100
AcDbBlockReference
  2
SE1
 10
0.0
 20
0.0
 30
0.0
  0
INSERT
  5
121
330
1F
100
AcDbEntity
  8
Default
100
AcDbBlockReference
  2
SE2
 10
0.0
 20
0.0
 30
0.0
  0
TEXT
  5
16D
330
1F
100
AcDbEntity
  8
Default
  6
Continuous
 62
     7
100
AcDbText
 10
5.9362635081
 20
53.4225120485
 30
0.0
 40
10.0
  1
Grohe AG^J
  7
SEACAD_seiso_ttf
 11
5.9362635081
 21
63.4225120485
 31
0.0
100
AcDbText
 73
     3
  0
TEXT
  5
16E
330
1F
100
AcDbEntity
  8
Default
  6
Continuous
 62
     7
100
AcDbText
 10
5.9362635081
 20
37.0588756849
 30
0.0
 40
10.0
  1
 
  7
SEACAD_seiso_ttf
 11
5.9362635081
 21
47.0588756849
 31
0.0
100
AcDbText
 73
     3
  0
TEXT
  5
16F
330
1F
100
AcDbEntity
  8
Default
  6
Continuous
 62
     7
100
AcDbText
 10
5.9362635081
 20
20.6952393213
 30
0.0
 40
10.0
  1
ecn: 
  7
SEACAD_seiso_ttf
 11
5.9362635081
 21
30.6952393213
 31
0.0
100
AcDbText
 73
     3
  0
TEXT
  5
170
330
1F
100
AcDbEntity
  8
Default
  6
Continuous
 62
     7
100
AcDbText
 10
5.9362635081
 20
4.3316029576
 30
0.0
 40
10.0
  1
unit: mm
  7
SEACAD_seiso_ttf
 11
5.9362635081
 21
14.3316029576
 31
0.0
100
AcDbText
 73
     3
  0
LINE
  5
171
330
1F
100
AcDbEntity
  8
Default
  6
Continuous
 62
     7
100
AcDbLine
 10
0.0
 20
0.0
 30
0.0
 11
100.0
 21
0.0
 31
0.0
  0
LINE
  5
172
330
1F
100
AcDbEntity
  8
Default
  6
Continuous
 62
     7
100
AcDbLine
 10
0.0
 20
0.0
 30
0.0
 11
0.0
 21
100.0
 31
0.0
  0
TEXT
  5
173
330
1F
100
AcDbEntity
  8
Default
  6
Continuous
 62
     7
100
AcDbText
 10
24.3923665681
 20
-18.2375342018
 30
0.0
 40
10.0
  1
100 mm
  7
SEACAD_seiso_ttf
 11
24.3923665681
 21
-8.2375342018
 31
0.0
100
AcDbText
 73
     3
  0
TEXT
  5
174
330
1F
100
AcDbEntity
  8
Default
  6
Continuous
 62
     7
100
AcDbText
 10
-7.6150308803
 20
24.6231930421
 30
0.0
 40
10.0
  1
100 mm
 50
90.0
  7
SEACAD_seiso_ttf
 11
-17.6150308803
 21
24.6231930421
 31
0.0
100
AcDbText
 73
     3
  0
TEXT
  5
175
330
1F
100
AcDbEntity
  8
Default
  6
Continuous
 62
     7
100
AcDbText
 10
28.4878128572
 20
20.0907663715
 30
0.0
 40
10.0
  1
218661
  7
SEACAD_seiso_ttf
 11
28.4878128572
 21
30.0907663715
 31
0.0
100
AcDbText
 73
     3
  0
TEXT
  5
176
330
1F
100
AcDbEntity
  8
Default
  6
Continuous
 62
     7
100
AcDbText
 10
5.9012241913
 20
36.7242780188
 30
0.0
 40
10.0
  1
32146000
  7
SEACAD_seiso_ttf
 11
5.9012241913
 21
46.7242780188
 31
0.0
100
AcDbText
 73
     3
  0
ENDSEC
  0
SECTION
  2
OBJECTS
  0
DICTIONARY
  5
C
330
0
100
AcDbDictionary
281
     1
  3
ACAD_GROUP
350
D
  3
ACAD_LAYOUT
350
1A
  3
ACAD_MLEADERSTYLE
350
17A
  3
ACAD_MLINESTYLE
350
17
  3
ACAD_PLOTSETTINGS
350
19
  3
ACAD_PLOTSTYLENAME
350
E
  3
ACAD_SCALELIST
350
3B
  3
ACAD_TABLESTYLE
350
179
  3
ACAD_VISUALSTYLE
350
2A
  3
AcDbVariableDictionary
350
177
  0
DICTIONARY
  5
D
102
{ACAD_REACTORS
330
C
102
}
330
C
100
AcDbDictionary
281
     1
  0
DICTIONARY
  5
1A
102
{ACAD_REACTORS
330
C
102
}
330
C
100
AcDbDictionary
281
     1
  3
Layout1
350
1E
  3
Model
350
22
  0
DICTIONARY
  5
17A
102
{ACAD_REACTORS
330
C
102
}
330
C
100
AcDbDictionary
281
     1
  0
DICTIONARY
  5
17
102
{ACAD_REACTORS
330
C
102
}
330
C
100
AcDbDictionary
281
     1
  3
Standard
350
18
  0
DICTIONARY
  5
19
102
{ACAD_REACTORS
330
C
102
}
330
C
100
AcDbDictionary
281
     1
  0
ACDBDICTIONARYWDFLT
  5
E
102
{ACAD_REACTORS
330
C
102
}
330
C
100
AcDbDictionary
281
     1
  3
Normal
350
F
100
AcDbDictionaryWithDefault
340
F
  0
DICTIONARY
  5
3B
102
{ACAD_REACTORS
330
C
102
}
330
C
100
AcDbDictionary
281
     1
  3
A0
350
3C
  3
A1
350
3D
  3
A2
350
3E
  3
A3
350
3F
  3
A4
350
40
  3
A5
350
41
  3
A6
350
42
  3
A7
350
43
  3
A8
350
44
  3
A9
350
45
  3
B0
350
46
  3
B1
350
47
  3
B2
350
48
  3
B3
350
49
  3
B4
350
4A
  3
B5
350
4B
  3
B6
350
4C
  3
B7
350
4D
  3
B8
350
4E
  3
B9
350
4F
  3
C0
350
50
  3
C1
350
51
  3
C2
350
52
  3
C3
350
53
  3
C4
350
54
  3
C5
350
55
  3
C6
350
56
  3
C7
350
57
  3
C8
350
58
  3
C9
350
59
  3
D0
350
5A
  3
D1
350
5B
  3
D2
350
5C
  0
DICTIONARY
  5
179
102
{ACAD_REACTORS
330
C
102
}
330
C
100
AcDbDictionary
281
     1
  0
DICTIONARY
  5
2A
102
{ACAD_REACTORS
330
C
102
}
330
C
100
AcDbDictionary
281
     1
  3
2dWireframe
350
2F
  3
3D Hidden
350
31
  3
3dWireframe
350
30
  3
Basic
350
32
  3
Brighten
350
36
  3
ColorChange
350
3A
  3
Conceptual
350
34
  3
Dim
350
35
  3
Facepattern
350
39
  3
Flat
350
2B
  3
FlatWithEdges
350
2C
  3
Gouraud
350
2D
  3
GouraudWithEdges
350
2E
  3
Linepattern
350
38
  3
Realistic
350
33
  3
Thicken
350
37
  0
DICTIONARY
  5
177
102
{ACAD_REACTORS
330
C
102
}
330
C
100
AcDbDictionary
281
     1
  3
CANNOSCALE
350
178
  3
PSOLHEIGHT
350
17C
  3
PSOLWIDTH
350
17B
  0
LAYOUT
  5
1E
102
{ACAD_REACTORS
330
1A
102
}
330
1A
100
AcDbPlotSettings
  1

  2
none_device
  4

  6

 40
0.0
 41
0.0
 42
0.0
 43
0.0
 44
0.0
 45
0.0
 46
0.0
 47
0.0
 48
0.0
 49
0.0
140
0.0
141
0.0
142
1.0
143
1.0
 70
   688
 72
     0
 73
     0
 74
     5
  7

 75
    16
147
1.0
148
0.0
149
0.0
100
AcDbLayout
  1
Layout1
 70
     1
 71
     1
 10
0.0
 20
0.0
 11
1682.0
 21
2378.0
 12
0.0
 22
0.0
 32
0.0
 14
0.0
 24
0.0
 34
0.0
 15
1682.0
 25
2378.0
 35
0.0
146
0.0
 13
0.0
 23
0.0
 33
0.0
 16
1.0
 26
0.0
 36
0.0
 17
0.0
 27
1.0
 37
0.0
 76
     0
330
1B
  0
LAYOUT
  5
22
102
{ACAD_REACTORS
330
1A
102
}
330
1A
100
AcDbPlotSettings
  1

  2
none_device
  4

  6

 40
0.0
 41
0.0
 42
0.0
 43
0.0
 44
0.0
 45
0.0
 46
0.0
 47
0.0
 48
0.0
 49
0.0
140
0.0
141
0.0
142
1.0
143
1.0
 70
  1712
 72
     0
 73
     0
 74
     0
  7

 75
     0
147
1.0
148
0.0
149
0.0
100
AcDbLayout
  1
Model
 70
     1
 71
     0
 10
0.0
 20
0.0
 11
1682.0
 21
2378.0
 12
0.0
 22
0.0
 32
0.0
 14
0.0
 24
0.0
 34
0.0
 15
1682.0
 25
2378.0
 35
0.0
146
0.0
 13
0.0
 23
0.0
 33
0.0
 16
1.0
 26
0.0
 36
0.0
 17
0.0
 27
1.0
 37
0.0
 76
     0
330
1F
331
29
  0
MLINESTYLE
  5
18
102
{ACAD_REACTORS
330
17
102
}
330
17
100
AcDbMlineStyle
  2
Standard
 70
     0
  3

 62
   256
 51
90.0
 52
90.0
 71
     2
 49
0.5
 62
   256
  6
BYLAYER
 49
-0.5
 62
   256
  6
BYLAYER
  0
ACDBPLACEHOLDER
  5
F
102
{ACAD_REACTORS
330
E
102
}
330
E
  0
SCALE
  5
3C
102
{ACAD_REACTORS
330
3B
102
}
330
3B
100
AcDbScale
 70
     0
300
1:1
140
1.0
141
1.0
290
     1
  0
SCALE
  5
3D
102
{ACAD_REACTORS
330
3B
102
}
330
3B
100
AcDbScale
 70
     0
300
1:2
140
1.0
141
2.0
290
     0
  0
SCALE
  5
3E
102
{ACAD_REACTORS
330
3B
102
}
330
3B
100
AcDbScale
 70
     0
300
1:4
140
1.0
141
4.0
290
     0
  0
SCALE
  5
3F
102
{ACAD_REACTORS
330
3B
102
}
330
3B
100
AcDbScale
 70
     0
300
1:5
140
1.0
141
5.0
290
     0
  0
SCALE
  5
40
102
{ACAD_REACTORS
330
3B
102
}
330
3B
100
AcDbScale
 70
     0
300
1:8
140
1.0
141
8.0
290
     0
  0
SCALE
  5
41
102
{ACAD_REACTORS
330
3B
102
}
330
3B
100
AcDbScale
 70
     0
300
1:10
140
1.0
141
10.0
290
     0
  0
SCALE
  5
42
102
{ACAD_REACTORS
330
3B
102
}
330
3B
100
AcDbScale
 70
     0
300
1:16
140
1.0
141
16.0
290
     0
  0
SCALE
  5
43
102
{ACAD_REACTORS
330
3B
102
}
330
3B
100
AcDbScale
 70
     0
300
1:20
140
1.0
141
20.0
290
     0
  0
SCALE
  5
44
102
{ACAD_REACTORS
330
3B
102
}
330
3B
100
AcDbScale
 70
     0
300
1:30
140
1.0
141
30.0
290
     0
  0
SCALE
  5
45
102
{ACAD_REACTORS
330
3B
102
}
330
3B
100
AcDbScale
 70
     0
300
1:40
140
1.0
141
40.0
290
     0
  0
SCALE
  5
46
102
{ACAD_REACTORS
330
3B
102
}
330
3B
100
AcDbScale
 70
     0
300
1:50
140
1.0
141
50.0
290
     0
  0
SCALE
  5
47
102
{ACAD_REACTORS
330
3B
102
}
330
3B
100
AcDbScale
 70
     0
300
1:100
140
1.0
141
100.0
290
     0
  0
SCALE
  5
48
102
{ACAD_REACTORS
330
3B
102
}
330
3B
100
AcDbScale
 70
     0
300
2:1
140
2.0
141
1.0
290
     0
  0
SCALE
  5
49
102
{ACAD_REACTORS
330
3B
102
}
330
3B
100
AcDbScale
 70
     0
300
4:1
140
4.0
141
1.0
290
     0
  0
SCALE
  5
4A
102
{ACAD_REACTORS
330
3B
102
}
330
3B
100
AcDbScale
 70
     0
300
8:1
140
8.0
141
1.0
290
     0
  0
SCALE
  5
4B
102
{ACAD_REACTORS
330
3B
102
}
330
3B
100
AcDbScale
 70
     0
300
10:1
140
10.0
141
1.0
290
     0
  0
SCALE
  5
4C
102
{ACAD_REACTORS
330
3B
102
}
330
3B
100
AcDbScale
 70
     0
300
100:1
140
100.0
141
1.0
290
     0
  0
SCALE
  5
4D
102
{ACAD_REACTORS
330
3B
102
}
330
3B
100
AcDbScale
 70
     0
300
1/128" = 1'-0"
140
0.0078125
141
12.0
290
     0
  0
SCALE
  5
4E
102
{ACAD_REACTORS
330
3B
102
}
330
3B
100
AcDbScale
 70
     0
300
1/64" = 1'-0"
140
0.015625
141
12.0
290
     0
  0
SCALE
  5
4F
102
{ACAD_REACTORS
330
3B
102
}
330
3B
100
AcDbScale
 70
     0
300
1/32" = 1'-0"
140
0.03125
141
12.0
290
     0
  0
SCALE
  5
50
102
{ACAD_REACTORS
330
3B
102
}
330
3B
100
AcDbScale
 70
     0
300
1/16" = 1'-0"
140
0.0625
141
12.0
290
     0
  0
SCALE
  5
51
102
{ACAD_REACTORS
330
3B
102
}
330
3B
100
AcDbScale
 70
     0
300
3/32" = 1'-0"
140
0.09375
141
12.0
290
     0
  0
SCALE
  5
52
102
{ACAD_REACTORS
330
3B
102
}
330
3B
100
AcDbScale
 70
     0
300
1/8" = 1'-0"
140
0.125
141
12.0
290
     0
  0
SCALE
  5
53
102
{ACAD_REACTORS
330
3B
102
}
330
3B
100
AcDbScale
 70
     0
300
3/16" = 1'-0"
140
0.1875
141
12.0
290
     0
  0
SCALE
  5
54
102
{ACAD_REACTORS
330
3B
102
}
330
3B
100
AcDbScale
 70
     0
300
1/4" = 1'-0"
140
0.25
141
12.0
290
     0
  0
SCALE
  5
55
102
{ACAD_REACTORS
330
3B
102
}
330
3B
100
AcDbScale
 70
     0
300
3/8" = 1'-0"
140
0.375
141
12.0
290
     0
  0
SCALE
  5
56
102
{ACAD_REACTORS
330
3B
102
}
330
3B
100
AcDbScale
 70
     0
300
1/2" = 1'-0"
140
0.5
141
12.0
290
     0
  0
SCALE
  5
57
102
{ACAD_REACTORS
330
3B
102
}
330
3B
100
AcDbScale
 70
     0
300
3/4" = 1'-0"
140
0.75
141
12.0
290
     0
  0
SCALE
  5
58
102
{ACAD_REACTORS
330
3B
102
}
330
3B
100
AcDbScale
 70
     0
300
1" = 1'-0"
140
1.0
141
12.0
290
     0
  0
SCALE
  5
59
102
{ACAD_REACTORS
330
3B
102
}
330
3B
100
AcDbScale
 70
     0
300
1-1/2" = 1'-0"
140
1.5
141
12.0
290
     0
  0
SCALE
  5
5A
102
{ACAD_REACTORS
330
3B
102
}
330
3B
100
AcDbScale
 70
     0
300
3" = 1'-0"
140
3.0
141
12.0
290
     0
  0
SCALE
  5
5B
102
{ACAD_REACTORS
330
3B
102
}
330
3B
100
AcDbScale
 70
     0
300
6" = 1'-0"
140
6.0
141
12.0
290
     0
  0
SCALE
  5
5C
102
{ACAD_REACTORS
330
3B
102
}
330
3B
100
AcDbScale
 70
     0
300
1'-0" = 1'-0"
140
12.0
141
12.0
290
     0
  0
VISUALSTYLE
  5
2F
102
{ACAD_REACTORS
330
2A
102
}
330
2A
100
AcDbVisualStyle
  2
2dWireframe
 70
     4
 71
     0
 72
     2
 73
     0
 90
        0
 40
-0.6
 41
-30.0
 62
     5
 63
     7
 74
     1
 91
        4
 64
     7
 65
   257
 75
     1
175
     1
 42
1.0
 92
        0
 66
   257
 43
1.0
 76
     1
 77
     6
 78
     2
 67
     7
 79
     5
170
     0
171
     0
290
     0
174
     0
 93
        1
 44
0.0
173
     0
291
     0
 45
0.0
1001
ACAD
1000
AcDbSavedByObjectVersion
1070
     0
  0
VISUALSTYLE
  5
31
102
{ACAD_REACTORS
330
2A
102
}
330
2A
100
AcDbVisualStyle
  2
3D Hidden
 70
     6
 71
     1
 72
     2
 73
     2
 90
        0
 40
-0.6
 41
-30.0
 62
     5
 63
     7
 74
     2
 91
        2
 64
     7
 65
   257
 75
     2
175
     1
 42
40.0
 92
        0
 66
   257
 43
1.0
 76
     1
 77
     6
 78
     2
 67
     7
 79
     3
170
     0
171
     0
290
     0
174
     0
 93
        1
 44
0.0
173
     0
291
     0
 45
0.0
1001
ACAD
1000
AcDbSavedByObjectVersion
1070
     0
  0
VISUALSTYLE
  5
30
102
{ACAD_REACTORS
330
2A
102
}
330
2A
100
AcDbVisualStyle
  2
3dWireframe
 70
     5
 71
     0
 72
     2
 73
     0
 90
        0
 40
-0.6
 41
-30.0
 62
     5
 63
     7
 74
     1
 91
        4
 64
     7
 65
   257
 75
     1
175
     1
 42
1.0
 92
        0
 66
   257
 43
1.0
 76
     1
 77
     6
 78
     2
 67
     7
 79
     5
170
     0
171
     0
290
     0
174
     0
 93
        1
 44
0.0
173
     0
291
     0
 45
0.0
1001
ACAD
1000
AcDbSavedByObjectVersion
1070
     0
  0
VISUALSTYLE
  5
32
102
{ACAD_REACTORS
330
2A
102
}
330
2A
100
AcDbVisualStyle
  2
Basic
 70
     7
 71
     1
 72
     0
 73
     1
 90
        0
 40
-0.6
 41
-30.0
 62
     5
 63
     7
 74
     0
 91
        4
 64
     7
 65
   257
 75
     1
175
     1
 42
1.0
 92
        8
 66
     7
 43
1.0
 76
     1
 77
     6
 78
     2
 67
     7
 79
     5
170
     0
171
     0
290
     0
174
     0
 93
        1
 44
0.0
173
     0
291
     1
 45
0.0
1001
ACAD
1000
AcDbSavedByObjectVersion
1070
     0
  0
VISUALSTYLE
  5
36
102
{ACAD_REACTORS
330
2A
102
}
330
2A
100
AcDbVisualStyle
  2
Brighten
 70
    12
 71
     2
 72
     2
 73
     0
 90
        0
 40
-0.6
 41
-30.0
 62
     5
 63
     7
 74
     1
 91
        4
 64
     7
 65
   257
 75
     1
175
     1
 42
1.0
 92
        8
 66
     7
 43
1.0
 76
     1
 77
     6
 78
     2
 67
     7
 79
     5
170
     0
171
     0
290
     0
174
     0
 93
        1
 44
50.0
173
     0
291
     1
 45
0.0
1001
ACAD
1000
AcDbSavedByObjectVersion
1070
     0
  0
VISUALSTYLE
  5
3A
102
{ACAD_REACTORS
330
2A
102
}
330
2A
100
AcDbVisualStyle
  2
ColorChange
 70
    16
 71
     2
 72
     2
 73
     3
 90
        0
 40
-0.6
 41
-30.0
 62
     5
 63
     8
 74
     1
 91
        4
 64
     7
 65
   257
 75
     1
175
     1
 42
1.0
 92
        8
 66
     8
 43
1.0
 76
     1
 77
     6
 78
     2
 67
     7
 79
     5
170
     0
171
     0
290
     0
174
     0
 93
        1
 44
0.0
173
     0
291
     1
 45
0.0
1001
ACAD
1000
AcDbSavedByObjectVersion
1070
     0
  0
VISUALSTYLE
  5
34
102
{ACAD_REACTORS
330
2A
102
}
330
2A
100
AcDbVisualStyle
  2
Conceptual
 70
     9
 71
     3
 72
     2
 73
     0
 90
        0
 40
-0.6
 41
-30.0
 62
     5
 63
     7
 74
     2
 91
        2
 64
     7
 65
   257
 75
     1
175
     1
 42
40.0
 92
        8
 66
     7
 43
1.0
 76
     1
 77
     6
 78
     2
 67
     7
 79
     3
170
     0
171
     0
290
     0
174
     0
 93
        1
 44
0.0
173
     0
291
     0
 45
0.0
1001
ACAD
1000
AcDbSavedByObjectVersion
1070
     0
  0
VISUALSTYLE
  5
35
102
{ACAD_REACTORS
330
2A
102
}
330
2A
100
AcDbVisualStyle
  2
Dim
 70
    11
 71
     2
 72
     2
 73
     0
 90
        0
 40
-0.6
 41
-30.0
 62
     5
 63
     7
 74
     1
 91
        4
 64
     7
 65
   257
 75
     1
175
     1
 42
1.0
 92
        8
 66
     7
 43
1.0
 76
     1
 77
     6
 78
     2
 67
     7
 79
     5
170
     0
171
     0
290
     0
174
     0
 93
        1
 44
-50.0
173
     0
291
     1
 45
0.0
1001
ACAD
1000
AcDbSavedByObjectVersion
1070
     0
  0
VISUALSTYLE
  5
39
102
{ACAD_REACTORS
330
2A
102
}
330
2A
100
AcDbVisualStyle
  2
Facepattern
 70
    15
 71
     2
 72
     2
 73
     0
 90
        0
 40
-0.6
 41
-30.0
 62
     5
 63
     7
 74
     1
 91
        4
 64
     7
 65
   257
 75
     1
175
     1
 42
1.0
 92
        8
 66
     7
 43
1.0
 76
     1
 77
     6
 78
     2
 67
     7
 79
     5
170
     0
171
     0
290
     0
174
     0
 93
        1
 44
0.0
173
     0
291
     1
 45
0.0
1001
ACAD
1000
AcDbSavedByObjectVersion
1070
     0
  0
VISUALSTYLE
  5
2B
102
{ACAD_REACTORS
330
2A
102
}
330
2A
100
AcDbVisualStyle
  2
Flat
 70
     0
 71
     2
 72
     1
 73
     1
 90
        2
 40
-0.6
 41
30.0
 62
     5
 63
     7
 74
     0
 91
        4
 64
     7
 65
   257
 75
     1
175
     1
 42
1.0
 92
        8
 66
     7
 43
1.0
 76
     1
 77
     6
 78
     2
 67
     7
 79
     5
170
     0
171
     0
290
     0
174
     0
 93
       13
 44
0.0
173
     0
291
     1
 45
0.0
1001
ACAD
1000
AcDbSavedByObjectVersion
1070
     0
  0
VISUALSTYLE
  5
2C
102
{ACAD_REACTORS
330
2A
102
}
330
2A
100
AcDbVisualStyle
  2
FlatWithEdges
 70
     1
 71
     2
 72
     1
 73
     1
 90
        2
 40
-0.6
 41
30.0
 62
     5
 63
     7
 74
     1
 91
        4
 64
     7
 65
   257
 75
     1
175
     1
 42
1.0
 92
        0
 66
   257
 43
1.0
 76
     1
 77
     6
 78
     2
 67
     7
 79
     5
170
     0
171
     0
290
     0
174
     0
 93
       13
 44
0.0
173
     0
291
     1
 45
0.0
1001
ACAD
1000
AcDbSavedByObjectVersion
1070
     0
  0
VISUALSTYLE
  5
2D
102
{ACAD_REACTORS
330
2A
102
}
330
2A
100
AcDbVisualStyle
  2
Gouraud
 70
     2
 71
     2
 72
     2
 73
     1
 90
        2
 40
-0.6
 41
30.0
 62
     5
 63
     7
 74
     0
 91
        4
 64
     7
 65
   257
 75
     1
175
     1
 42
1.0
 92
        0
 66
     7
 43
1.0
 76
     1
 77
     6
 78
     2
 67
     7
 79
     5
170
     0
171
     0
290
     0
174
     0
 93
       13
 44
0.0
173
     0
291
     1
 45
0.0
1001
ACAD
1000
AcDbSavedByObjectVersion
1070
     0
  0
VISUALSTYLE
  5
2E
102
{ACAD_REACTORS
330
2A
102
}
330
2A
100
AcDbVisualStyle
  2
GouraudWithEdges
 70
     3
 71
     2
 72
     2
 73
     1
 90
        2
 40
-0.6
 41
30.0
 62
     5
 63
     7
 74
     1
 91
        4
 64
     7
 65
   257
 75
     1
175
     1
 42
1.0
 92
        0
 66
   257
 43
1.0
 76
     1
 77
     6
 78
     2
 67
     7
 79
     5
170
     0
171
     0
290
     0
174
     0
 93
       13
 44
0.0
173
     0
291
     1
 45
0.0
1001
ACAD
1000
AcDbSavedByObjectVersion
1070
     0
  0
VISUALSTYLE
  5
38
102
{ACAD_REACTORS
330
2A
102
}
330
2A
100
AcDbVisualStyle
  2
Linepattern
 70
    14
 71
     2
 72
     2
 73
     0
 90
        0
 40
-0.6
 41
-30.0
 62
     5
 63
     7
 74
     1
 91
        4
 64
     7
 65
   257
 75
     7
175
     7
 42
1.0
 92
        8
 66
     7
 43
1.0
 76
     1
 77
     6
 78
     2
 67
     7
 79
     5
170
     0
171
     0
290
     0
174
     0
 93
        1
 44
0.0
173
     0
291
     1
 45
0.0
1001
ACAD
1000
AcDbSavedByObjectVersion
1070
     0
  0
VISUALSTYLE
  5
33
102
{ACAD_REACTORS
330
2A
102
}
330
2A
100
AcDbVisualStyle
  2
Realistic
 70
     8
 71
     2
 72
     2
 73
     0
 90
        0
 40
-0.6
 41
-30.0
 62
     5
 63
     7
 74
     1
 91
        0
 64
     7
 65
   257
 75
     1
175
     1
 42
1.0
 92
        8
 66
     8
 43
1.0
 76
     1
 77
     6
 78
     2
 67
     7
 79
     5
170
     0
171
     0
290
     0
174
     0
 93
       13
 44
0.0
173
     0
291
     0
 45
0.0
1001
ACAD
1000
AcDbSavedByObjectVersion
1070
     0
  0
VISUALSTYLE
  5
37
102
{ACAD_REACTORS
330
2A
102
}
330
2A
100
AcDbVisualStyle
  2
Thicken
 70
    13
 71
     2
 72
     2
 73
     0
 90
        0
 40
-0.6
 41
-30.0
 62
     5
 63
     7
 74
     1
 91
        4
 64
     7
 65
   257
 75
     1
175
     1
 42
1.0
 92
       12
 66
     7
 43
1.0
 76
     1
 77
     6
 78
     2
 67
     7
 79
     5
170
     0
171
     0
290
     0
174
     0
 93
        1
 44
0.0
173
     0
291
     1
 45
0.0
1001
ACAD
1000
AcDbSavedByObjectVersion
1070
     0
  0
DICTIONARYVAR
  5
178
102
{ACAD_REACTORS
330
177
102
}
330
177
100
DictionaryVariables
280
     0
  1
1:1
  0
DICTIONARYVAR
  5
17C
102
{ACAD_REACTORS
330
177
102
}
330
177
100
DictionaryVariables
280
     0
  1
80.000000
  0
DICTIONARYVAR
  5
17B
102
{ACAD_REACTORS
330
177
102
}
330
177
100
DictionaryVariables
280
     0
  1
5.000000
  0
ENDSEC
  0
EOF
