  0
SECTION
  2
HEADER
  9
$ACADVER
  1
AC1015
  9
$ACADMAINTVER
 70
     6
  9
$DWGCODEPAGE
  3
ANSI_1252
  9
$INSBASE
 10
0.0
 20
0.0
 30
0.0
  9
$EXTMIN
 10
0.0
 20
0.0
 30
0.0
  9
$EXTMAX
 10
1682.0
 20
2378.0
 30
0.0
  9
$LIMMIN
 10
0.0
 20
0.0
  9
$LIMMAX
 10
1682.0
 20
2378.0
  9
$ORTHOMODE
 70
     0
  9
$REGENMODE
 70
     1
  9
$FILLMODE
 70
     1
  9
$QTEXTMODE
 70
     0
  9
$MIRRTEXT
 70
     1
  9
$LTSCALE
 40
1.0
  9
$ATTMODE
 70
     1
  9
$TEXTSIZE
 40
2.5
  9
$TRACEWID
 40
1.0
  9
$TEXTSTYLE
  7
Standard
  9
$CLAYER
  8
0
  9
$CELTYPE
  6
ByLayer
  9
$CECOLOR
 62
   256
  9
$CELTSCALE
 40
1.0
  9
$DISPSILH
 70
     0
  9
$DIMSCALE
 40
1.0
  9
$DIMASZ
 40
2.5
  9
$DIMEXO
 40
0.625
  9
$DIMDLI
 40
3.75
  9
$DIMRND
 40
0.0
  9
$DIMDLE
 40
0.0
  9
$DIMEXE
 40
1.25
  9
$DIMTP
 40
0.0
  9
$DIMTM
 40
0.0
  9
$DIMTXT
 40
2.5
  9
$DIMCEN
 40
2.5
  9
$DIMTSZ
 40
0.0
  9
$DIMTOL
 70
     0
  9
$DIMLIM
 70
     0
  9
$DIMTIH
 70
     0
  9
$DIMTOH
 70
     0
  9
$DIMSE1
 70
     0
  9
$DIMSE2
 70
     0
  9
$DIMTAD
 70
     1
  9
$DIMZIN
 70
     8
  9
$DIMBLK
  1

  9
$DIMASO
 70
     1
  9
$DIMSHO
 70
     1
  9
$DIMPOST
  1

  9
$DIMAPOST
  1

  9
$DIMALT
 70
     0
  9
$DIMALTD
 70
     3
  9
$DIMALTF
 40
0.0393700787
  9
$DIMLFAC
 40
1.0
  9
$DIMTOFL
 70
     1
  9
$DIMTVP
 40
0.0
  9
$DIMTIX
 70
     0
  9
$DIMSOXD
 70
     0
  9
$DIMSAH
 70
     0
  9
$DIMBLK1
  1

  9
$DIMBLK2
  1

  9
$DIMSTYLE
  2
ISO-25
  9
$DIMCLRD
 70
     0
  9
$DIMCLRE
 70
     0
  9
$DIMCLRT
 70
     0
  9
$DIMTFAC
 40
1.0
  9
$DIMGAP
 40
0.625
  9
$DIMJUST
 70
     0
  9
$DIMSD1
 70
     0
  9
$DIMSD2
 70
     0
  9
$DIMTOLJ
 70
     0
  9
$DIMTZIN
 70
     8
  9
$DIMALTZ
 70
     0
  9
$DIMALTTZ
 70
     0
  9
$DIMUPT
 70
     0
  9
$DIMDEC
 70
     2
  9
$DIMTDEC
 70
     2
  9
$DIMALTU
 70
     2
  9
$DIMALTTD
 70
     3
  9
$DIMTXSTY
  7
Standard
  9
$DIMAUNIT
 70
     0
  9
$DIMADEC
 70
     0
  9
$DIMALTRND
 40
0.0
  9
$DIMAZIN
 70
     0
  9
$DIMDSEP
 70
    44
  9
$DIMATFIT
 70
     3
  9
$DIMFRAC
 70
     0
  9
$DIMLDRBLK
  1

  9
$DIMLUNIT
 70
     2
  9
$DIMLWD
 70
    -2
  9
$DIMLWE
 70
    -2
  9
$DIMTMOVE
 70
     0
  9
$LUNITS
 70
     2
  9
$LUPREC
 70
     4
  9
$SKETCHINC
 40
1.0
  9
$FILLETRAD
 40
10.0
  9
$AUNITS
 70
     0
  9
$AUPREC
 70
     0
  9
$MENU
  1
.
  9
$ELEVATION
 40
0.0
  9
$PELEVATION
 40
0.0
  9
$THICKNESS
 40
0.0
  9
$LIMCHECK
 70
     0
  9
$CHAMFERA
 40
10.0
  9
$CHAMFERB
 40
10.0
  9
$CHAMFERC
 40
20.0
  9
$CHAMFERD
 40
0.0
  9
$SKPOLY
 70
     0
  9
$TDCREATE
 40
2455504.449602164
  9
$TDUCREATE
 40
2455504.407935498
  9
$TDUPDATE
 40
2455504.449602176
  9
$TDUUPDATE
 40
2455504.407935509
  9
$TDINDWG
 40
0.0000000116
  9
$TDUSRTIMER
 40
0.0000000116
  9
$USRTIMER
 70
     1
  9
$ANGBASE
 50
0.0
  9
$ANGDIR
 70
     0
  9
$PDMODE
 70
     0
  9
$PDSIZE
 40
0.0
  9
$PLINEWID
 40
0.0
  9
$SPLFRAME
 70
     0
  9
$SPLINETYPE
 70
     6
  9
$SPLINESEGS
 70
     8
  9
$HANDSEED
  5
1FB
  9
$SURFTAB1
 70
     6
  9
$SURFTAB2
 70
     6
  9
$SURFTYPE
 70
     6
  9
$SURFU
 70
     6
  9
$SURFV
 70
     6
  9
$UCSBASE
  2

  9
$UCSNAME
  2

  9
$UCSORG
 10
0.0
 20
0.0
 30
0.0
  9
$UCSXDIR
 10
1.0
 20
0.0
 30
0.0
  9
$UCSYDIR
 10
0.0
 20
1.0
 30
0.0
  9
$UCSORTHOREF
  2

  9
$UCSORTHOVIEW
 70
     0
  9
$UCSORGTOP
 10
0.0
 20
0.0
 30
0.0
  9
$UCSORGBOTTOM
 10
0.0
 20
0.0
 30
0.0
  9
$UCSORGLEFT
 10
0.0
 20
0.0
 30
0.0
  9
$UCSORGRIGHT
 10
0.0
 20
0.0
 30
0.0
  9
$UCSORGFRONT
 10
0.0
 20
0.0
 30
0.0
  9
$UCSORGBACK
 10
0.0
 20
0.0
 30
0.0
  9
$PUCSBASE
  2

  9
$PUCSNAME
  2

  9
$PUCSORG
 10
0.0
 20
0.0
 30
0.0
  9
$PUCSXDIR
 10
1.0
 20
0.0
 30
0.0
  9
$PUCSYDIR
 10
0.0
 20
1.0
 30
0.0
  9
$PUCSORTHOREF
  2

  9
$PUCSORTHOVIEW
 70
     0
  9
$PUCSORGTOP
 10
0.0
 20
0.0
 30
0.0
  9
$PUCSORGBOTTOM
 10
0.0
 20
0.0
 30
0.0
  9
$PUCSORGLEFT
 10
0.0
 20
0.0
 30
0.0
  9
$PUCSORGRIGHT
 10
0.0
 20
0.0
 30
0.0
  9
$PUCSORGFRONT
 10
0.0
 20
0.0
 30
0.0
  9
$PUCSORGBACK
 10
0.0
 20
0.0
 30
0.0
  9
$USERI1
 70
     0
  9
$USERI2
 70
     0
  9
$USERI3
 70
     0
  9
$USERI4
 70
     0
  9
$USERI5
 70
     0
  9
$USERR1
 40
0.0
  9
$USERR2
 40
0.0
  9
$USERR3
 40
0.0
  9
$USERR4
 40
0.0
  9
$USERR5
 40
0.0
  9
$WORLDVIEW
 70
     1
  9
$SHADEDGE
 70
     3
  9
$SHADEDIF
 70
    70
  9
$TILEMODE
 70
     1
  9
$MAXACTVP
 70
    64
  9
$PINSBASE
 10
0.0
 20
0.0
 30
0.0
  9
$PLIMCHECK
 70
     0
  9
$PEXTMIN
 10
0.0
 20
0.0
 30
0.0
  9
$PEXTMAX
 10
1682.0
 20
2378.0
 30
0.0
  9
$PLIMMIN
 10
0.0
 20
0.0
  9
$PLIMMAX
 10
1682.0
 20
2378.0
  9
$UNITMODE
 70
     0
  9
$VISRETAIN
 70
     1
  9
$PLINEGEN
 70
     0
  9
$PSLTSCALE
 70
     1
  9
$TREEDEPTH
 70
  3020
  9
$CMLSTYLE
  2
Standard
  9
$CMLJUST
 70
     0
  9
$CMLSCALE
 40
20.0
  9
$PROXYGRAPHICS
 70
     1
  9
$MEASUREMENT
 70
     1
  9
$CELWEIGHT
370
    -1
  9
$ENDCAPS
280
     0
  9
$JOINSTYLE
280
     0
  9
$LWDISPLAY
290
     0
  9
$INSUNITS
 70
     4
  9
$HYPERLINKBASE
  1

  9
$STYLESHEET
  1

  9
$XEDIT
290
     1
  9
$CEPSNTYPE
380
     0
  9
$PSTYLEMODE
290
     1
  9
$FINGERPRINTGUID
  2
{83B3BEE6-948F-4F9C-A263-9DE7FBA66481}
  9
$VERSIONGUID
  2
{FAEB1C32-E019-11D5-929B-00C0DF256EC4}
  9
$EXTNAMES
290
     1
  9
$PSVPSCALE
 40
0.0
  9
$OLESTARTUP
290
     0
  0
ENDSEC
  0
SECTION
  2
CLASSES
  0
CLASS
  1
ACDBDICTIONARYWDFLT
  2
AcDbDictionaryWithDefault
  3
ObjectDBX Classes
 90
        0
280
     0
281
     0
  0
CLASS
  1
VISUALSTYLE
  2
AcDbVisualStyle
  3
ObjectDBX Classes
 90
     4095
280
     0
281
     0
  0
CLASS
  1
SCALE
  2
AcDbScale
  3
ObjectDBX Classes
 90
     1153
280
     0
281
     0
  0
CLASS
  1
DICTIONARYVAR
  2
AcDbDictionaryVar
  3
ObjectDBX Classes
 90
        0
280
     0
281
     0
  0
CLASS
  1
ACDBPLACEHOLDER
  2
AcDbPlaceHolder
  3
ObjectDBX Classes
 90
        0
280
     0
281
     0
  0
CLASS
  1
LAYOUT
  2
AcDbLayout
  3
ObjectDBX Classes
 90
        0
280
     0
281
     0
  0
ENDSEC
  0
SECTION
  2
TABLES
  0
TABLE
  2
VPORT
  5
8
330
0
100
AcDbSymbolTable
 70
     1
  0
VPORT
  5
29
330
8
100
AcDbSymbolTableRecord
100
AcDbViewportTableRecord
  2
*Active
 70
     0
 10
0.0
 20
0.0
 11
1.0
 21
1.0
 12
344.1869158879
 22
148.5
 13
0.0
 23
0.0
 14
10.0
 24
10.0
 15
10.0
 25
10.0
 16
0.0
 26
0.0
 36
1.0
 17
0.0
 27
0.0
 37
0.0
 40
297.0
 41
1.9729729729
 42
50.0
 43
0.0
 44
0.0
 50
0.0
 51
0.0
 71
     0
 72
   100
 73
     1
 74
     3
 75
     0
 76
     0
 77
     0
 78
     0
281
     0
 65
     1
110
0.0
120
0.0
130
0.0
111
1.0
121
0.0
131
0.0
112
0.0
122
1.0
132
0.0
 79
     0
146
0.0
  0
ENDTAB
  0
TABLE
  2
LTYPE
  5
5
330
0
100
AcDbSymbolTable
 70
     2
  0
LTYPE
  5
14
330
5
100
AcDbSymbolTableRecord
100
AcDbLinetypeTableRecord
  2
ByBlock
 70
     0
  3

 72
    65
 73
     0
 40
0.0
  0
LTYPE
  5
15
330
5
100
AcDbSymbolTableRecord
100
AcDbLinetypeTableRecord
  2
ByLayer
 70
     0
  3

 72
    65
 73
     0
 40
0.0
  0
LTYPE
  5
16
330
5
100
AcDbSymbolTableRecord
100
AcDbLinetypeTableRecord
  2
Continuous
 70
     0
  3
Solid line
 72
    65
 73
     0
 40
0.0
  0
LTYPE
  5
60
330
5
100
AcDbSymbolTableRecord
100
AcDbLinetypeTableRecord
  2
CENTER2
 70
     0
  3
Center (.5x) ___ _ ___ _ ___ _ ___ _ ___ _ ___
 72
    65
 73
     4
 40
28.575
 49
19.05
 74
     4
 75
     0
340
0
 46
0.0
 50
0.0
 44
0.0
 45
0.0
 49
-3.175
 74
     4
 75
     0
340
0
 46
0.0
 50
0.0
 44
0.0
 45
0.0
 49
3.175
 74
     4
 75
     0
340
0
 46
0.0
 50
0.0
 44
0.0
 45
0.0
 49
-3.175
 74
     4
 75
     0
340
0
 46
0.0
 50
0.0
 44
0.0
 45
0.0
  0
ENDTAB
  0
TABLE
  2
LAYER
  5
2
330
0
100
AcDbSymbolTable
 70
    11
  0
LAYER
  5
10
330
2
100
AcDbSymbolTableRecord
100
AcDbLayerTableRecord
  2
0
 70
     0
 62
     7
  6
Continuous
370
    -3
390
F
  0
LAYER
  5
5D
330
2
100
AcDbSymbolTableRecord
100
AcDbLayerTableRecord
  2
Default
 70
     0
 62
     7
  6
Continuous
370
    -3
390
F
  0
LAYER
  5
77
330
2
100
AcDbSymbolTableRecord
100
AcDbLayerTableRecord
  2
$DDT_AUDIT_GENERATED_(77)
 70
     0
 62
     7
  6
Continuous
370
    -3
390
F
  0
LAYER
  5
8E
330
2
100
AcDbSymbolTableRecord
100
AcDbLayerTableRecord
  2
$DDT_AUDIT_GENERATED_(8E)
 70
     0
 62
     7
  6
Continuous
370
    -3
390
F
  0
LAYER
  5
AE
330
2
100
AcDbSymbolTableRecord
100
AcDbLayerTableRecord
  2
$DDT_AUDIT_GENERATED_(AE)
 70
     0
 62
     7
  6
Continuous
370
    -3
390
F
  0
LAYER
  5
B1
330
2
100
AcDbSymbolTableRecord
100
AcDbLayerTableRecord
  2
$DDT_AUDIT_GENERATED_(B1)
 70
     0
 62
     7
  6
Continuous
370
    -3
390
F
  0
LAYER
  5
B7
330
2
100
AcDbSymbolTableRecord
100
AcDbLayerTableRecord
  2
$DDT_AUDIT_GENERATED_(B7)
 70
     0
 62
     7
  6
Continuous
370
    -3
390
F
  0
LAYER
  5
1A8
330
2
100
AcDbSymbolTableRecord
100
AcDbLayerTableRecord
  2
$DDT_AUDIT_GENERATED_(1A8)
 70
     0
 62
     7
  6
Continuous
370
    -3
390
F
  0
LAYER
  5
1B3
330
2
100
AcDbSymbolTableRecord
100
AcDbLayerTableRecord
  2
$DDT_AUDIT_GENERATED_(1B3)
 70
     0
 62
     7
  6
Continuous
370
    -3
390
F
  0
LAYER
  5
1DA
330
2
100
AcDbSymbolTableRecord
100
AcDbLayerTableRecord
  2
$DDT_AUDIT_GENERATED_(1DA)
 70
     0
 62
     7
  6
Continuous
370
    -3
390
F
  0
LAYER
  5
1DE
330
2
100
AcDbSymbolTableRecord
100
AcDbLayerTableRecord
  2
$DDT_AUDIT_GENERATED_(1DE)
 70
     0
 62
     7
  6
Continuous
370
    -3
390
F
  0
ENDTAB
  0
TABLE
  2
STYLE
  5
3
330
0
100
AcDbSymbolTable
 70
     2
  0
STYLE
  5
11
330
3
100
AcDbSymbolTableRecord
100
AcDbTextStyleTableRecord
  2
Standard
 70
     0
 40
0.0
 41
1.0
 50
0.0
 71
     0
 42
2.5
  3
txt
  4

  0
STYLE
  5
1EA
330
3
100
AcDbSymbolTableRecord
100
AcDbTextStyleTableRecord
  2
SEACAD_seiso_ttf
 70
     0
 40
0.0
 41
1.0
 50
0.0
 71
     0
 42
0.2
  3
seiso.ttf
  4

  0
ENDTAB
  0
TABLE
  2
VIEW
  5
6
330
0
100
AcDbSymbolTable
 70
     0
  0
ENDTAB
  0
TABLE
  2
UCS
  5
7
330
0
100
AcDbSymbolTable
 70
     0
  0
ENDTAB
  0
TABLE
  2
APPID
  5
9
330
0
100
AcDbSymbolTable
 70
     1
  0
APPID
  5
12
330
9
100
AcDbSymbolTableRecord
100
AcDbRegAppTableRecord
  2
ACAD
 70
     0
  0
ENDTAB
  0
TABLE
  2
DIMSTYLE
  5
A
330
0
100
AcDbSymbolTable
 70
     1
100
AcDbDimStyleTable
  0
DIMSTYLE
105
27
330
A
100
AcDbSymbolTableRecord
100
AcDbDimStyleTableRecord
  2
ISO-25
 70
     0
 41
2.5
 42
0.625
 43
3.75
 44
1.25
 73
     0
 74
     0
 77
     1
 78
     8
140
2.5
141
2.5
143
0.0393700787
147
0.625
171
     3
172
     1
271
     2
272
     2
274
     3
278
    44
283
     0
284
     8
340
11
  0
ENDTAB
  0
TABLE
  2
BLOCK_RECORD
  5
1
330
0
100
AcDbSymbolTable
 70
     7
  0
BLOCK_RECORD
  5
1F
330
1
100
AcDbSymbolTableRecord
100
AcDbBlockTableRecord
  2
*Model_Space
340
22
  0
BLOCK_RECORD
  5
1B
330
1
100
AcDbSymbolTableRecord
100
AcDbBlockTableRecord
  2
*Paper_Space
340
1E
  0
BLOCK_RECORD
  5
5E
330
1
100
AcDbSymbolTableRecord
100
AcDbBlockTableRecord
  2
SEANNOT_GROUP
340
0
102
{BLKREFS
331
5F
102
}
  0
BLOCK_RECORD
  5
65
330
1
100
AcDbSymbolTableRecord
100
AcDbBlockTableRecord
  2
SEANNOT_GROUP1
340
0
102
{BLKREFS
331
66
102
}
  0
BLOCK_RECORD
  5
6B
330
1
100
AcDbSymbolTableRecord
100
AcDbBlockTableRecord
  2
SEANNOT_GROUP2
340
0
102
{BLKREFS
331
6C
102
}
  0
BLOCK_RECORD
  5
75
330
1
100
AcDbSymbolTableRecord
100
AcDbBlockTableRecord
  2
SE
340
0
102
{BLKREFS
331
76
102
}
  0
BLOCK_RECORD
  5
176
330
1
100
AcDbSymbolTableRecord
100
AcDbBlockTableRecord
  2
SE1
340
0
102
{BLKREFS
331
177
102
}
  0
BLOCK_RECORD
  5
1BE
330
1
100
AcDbSymbolTableRecord
100
AcDbBlockTableRecord
  2
SE2
340
0
102
{BLKREFS
331
1BF
102
}
  0
ENDTAB
  0
ENDSEC
  0
SECTION
  2
BLOCKS
  0
BLOCK
  5
20
330
1F
100
AcDbEntity
  8
0
100
AcDbBlockBegin
  2
*Model_Space
 70
     0
 10
0.0
 20
0.0
 30
0.0
  3
*Model_Space
  1

  0
ENDBLK
  5
21
330
1F
100
AcDbEntity
  8
0
100
AcDbBlockEnd
  0
BLOCK
  5
1C
330
1B
100
AcDbEntity
 67
     1
  8
0
100
AcDbBlockBegin
  2
*Paper_Space
 70
     0
 10
0.0
 20
0.0
 30
0.0
  3
*Paper_Space
  1

  0
ENDBLK
  5
1D
330
1B
100
AcDbEntity
 67
     1
  8
0
100
AcDbBlockEnd
  0
BLOCK
  5
63
330
5E
100
AcDbEntity
  8
0
100
AcDbBlockBegin
  2
SEANNOT_GROUP
 70
     0
 10
0.0
 20
0.0
 30
0.0
  3
SEANNOT_GROUP
  1

  0
LINE
  5
61
330
5E
100
AcDbEntity
  8
Default
  6
CENTER2
 62
     7
100
AcDbLine
 10
119.3562717785
 20
393.5864207501
 30
0.0
 11
79.3562726726
 21
393.5864207501
 31
0.0
  0
LINE
  5
62
330
5E
100
AcDbEntity
  8
Default
  6
CENTER2
 62
     7
100
AcDbLine
 10
99.3562722255
 20
413.5864203031
 30
0.0
 11
99.3562722255
 21
373.5864211972
 31
0.0
  0
ENDBLK
  5
64
330
5E
100
AcDbEntity
  8
0
100
AcDbBlockEnd
  0
BLOCK
  5
69
330
65
100
AcDbEntity
  8
0
100
AcDbBlockBegin
  2
SEANNOT_GROUP1
 70
     0
 10
0.0
 20
0.0
 30
0.0
  3
SEANNOT_GROUP1
  1

  0
LINE
  5
67
330
65
100
AcDbEntity
  8
Default
  6
CENTER2
 62
     7
100
AcDbLine
 10
299.4089799498
 20
393.5864207501
 30
0.0
 11
259.4089808439
 21
393.5864207501
 31
0.0
  0
LINE
  5
68
330
65
100
AcDbEntity
  8
Default
  6
CENTER2
 62
     7
100
AcDbLine
 10
279.4089803968
 20
413.5864203031
 30
0.0
 11
279.4089803968
 21
373.5864211972
 31
0.0
  0
ENDBLK
  5
6A
330
65
100
AcDbEntity
  8
0
100
AcDbBlockEnd
  0
BLOCK
  5
73
330
6B
100
AcDbEntity
  8
0
100
AcDbBlockBegin
  2
SEANNOT_GROUP2
 70
     0
 10
0.0
 20
0.0
 30
0.0
  3
SEANNOT_GROUP2
  1

  0
LINE
  5
6D
330
6B
100
AcDbEntity
  8
Default
  6
CENTER2
 62
     7
100
AcDbLine
 10
119.3562717785
 20
226.35
 30
0.0
 11
79.3562726726
 21
226.35
 31
0.0
  0
LINE
  5
6E
330
6B
100
AcDbEntity
  8
Default
  6
CENTER2
 62
     7
100
AcDbLine
 10
99.3562722255
 20
246.349999553
 30
0.0
 11
99.3562722255
 21
206.350000447
 31
0.0
  0
LINE
  5
6F
330
6B
100
AcDbEntity
  8
Default
  6
CENTER2
 62
     7
100
AcDbLine
 10
124.3562716667
 20
226.35
 30
0.0
 11
127.8562722255
 21
226.35
 31
0.0
  0
LINE
  5
70
330
6B
100
AcDbEntity
  8
Default
  6
CENTER2
 62
     7
100
AcDbLine
 10
99.3562722255
 20
251.3499994412
 30
0.0
 11
99.3562722255
 21
254.85
 31
0.0
  0
LINE
  5
71
330
6B
100
AcDbEntity
  8
Default
  6
CENTER2
 62
     7
100
AcDbLine
 10
74.3562727843
 20
226.35
 30
0.0
 11
70.8562722255
 21
226.35
 31
0.0
  0
LINE
  5
72
330
6B
100
AcDbEntity
  8
Default
  6
CENTER2
 62
     7
100
AcDbLine
 10
99.3562722255
 20
201.3500005588
 30
0.0
 11
99.3562722255
 21
197.85
 31
0.0
  0
ENDBLK
  5
74
330
6B
100
AcDbEntity
  8
0
100
AcDbBlockEnd
  0
BLOCK
  5
174
330
75
100
AcDbEntity
  8
0
100
AcDbBlockBegin
  2
SE
 70
     0
 10
0.0
 20
0.0
 30
0.0
  3
SE
  1

  0
LINE
  5
78
330
75
100
AcDbEntity
  8
$DDT_AUDIT_GENERATED_(77)
  6
Continuous
 62
     7
100
AcDbLine
 10
76.8562722255
 20
510.5864207501
 30
0.0
 11
121.8562722255
 21
510.5864207501
 31
0.0
  0
LINE
  5
79
330
75
100
AcDbEntity
  8
$DDT_AUDIT_GENERATED_(77)
  6
Continuous
 62
     7
100
AcDbLine
 10
83.5790484141
 20
480.5861178656
 30
0.0
 11
84.5562722255
 21
480.5861178656
 31
0.0
  0
LINE
  5
7A
330
75
100
AcDbEntity
  8
$DDT_AUDIT_GENERATED_(77)
  6
Continuous
 62
     7
100
AcDbLine
 10
84.5562722255
 20
480.5861178656
 30
0.0
 11
91.8562722255
 21
480.5861178656
 31
0.0
  0
LINE
  5
7B
330
75
100
AcDbEntity
  8
$DDT_AUDIT_GENERATED_(77)
  6
Continuous
 62
     7
100
AcDbLine
 10
91.8562722255
 20
480.5861178656
 30
0.0
 11
106.8562722255
 21
480.5861178656
 31
0.0
  0
LINE
  5
7C
330
75
100
AcDbEntity
  8
$DDT_AUDIT_GENERATED_(77)
  6
Continuous
 62
     7
100
AcDbLine
 10
106.8562722255
 20
480.5861178656
 30
0.0
 11
114.1562722255
 21
480.5861178656
 31
0.0
  0
LINE
  5
7D
330
75
100
AcDbEntity
  8
$DDT_AUDIT_GENERATED_(77)
  6
Continuous
 62
     7
100
AcDbLine
 10
114.1562722255
 20
480.5861178656
 30
0.0
 11
115.133496037
 21
480.5861178656
 31
0.0
  0
LINE
  5
7E
330
75
100
AcDbEntity
  8
$DDT_AUDIT_GENERATED_(77)
  6
Continuous
 62
     7
100
AcDbLine
 10
114.8562722255
 20
479.8861178656
 30
0.0
 11
114.8562722255
 21
459.2861178656
 31
0.0
  0
ARC
  5
7F
330
75
100
AcDbEntity
  8
$DDT_AUDIT_GENERATED_(77)
  6
Continuous
 62
     7
100
AcDbCircle
 10
84.5562722255
 20
479.8861178656
 30
0.0
 40
0.7000000000000062
100
AcDbArc
 50
90.0
 51
180.0
  0
ARC
  5
80
330
75
100
AcDbEntity
  8
$DDT_AUDIT_GENERATED_(77)
  6
Continuous
 62
     7
100
AcDbCircle
 10
114.1562722255
 20
479.8861178656
 30
0.0
 40
0.7000000000000062
100
AcDbArc
 50
0.0
 51
90.0
  0
LINE
  5
81
330
75
100
AcDbEntity
  8
$DDT_AUDIT_GENERATED_(77)
  6
Continuous
 62
     7
100
AcDbLine
 10
114.8562722255
 20
459.2861178656
 30
0.0
 11
114.8562722255
 21
456.9201137139
 31
0.0
  0
LINE
  5
82
330
75
100
AcDbEntity
  8
$DDT_AUDIT_GENERATED_(77)
  6
Continuous
 62
     7
100
AcDbLine
 10
91.8562722255
 20
458.5861178656
 30
0.0
 11
84.5562722255
 21
458.5861178656
 31
0.0
  0
LINE
  5
83
330
75
100
AcDbEntity
  8
$DDT_AUDIT_GENERATED_(77)
  6
Continuous
 62
     7
100
AcDbLine
 10
106.8562722255
 20
458.5861178656
 30
0.0
 11
91.8562722255
 21
458.5861178656
 31
0.0
  0
LINE
  5
84
330
75
100
AcDbEntity
  8
$DDT_AUDIT_GENERATED_(77)
  6
Continuous
 62
     7
100
AcDbLine
 10
114.1562722255
 20
458.5861178656
 30
0.0
 11
106.8562722255
 21
458.5861178656
 31
0.0
  0
LINE
  5
85
330
75
100
AcDbEntity
  8
$DDT_AUDIT_GENERATED_(77)
  6
Continuous
 62
     7
100
AcDbLine
 10
83.8562722255
 20
459.2861178656
 30
0.0
 11
83.8562722255
 21
479.8861178656
 31
0.0
  0
LINE
  5
86
330
75
100
AcDbEntity
  8
$DDT_AUDIT_GENERATED_(77)
  6
Continuous
 62
     7
100
AcDbLine
 10
83.8562722255
 20
456.9201137139
 30
0.0
 11
83.8562722255
 21
459.2861178656
 31
0.0
  0
ARC
  5
87
330
75
100
AcDbEntity
  8
$DDT_AUDIT_GENERATED_(77)
  6
Continuous
 62
     7
100
AcDbCircle
 10
84.5562722255
 20
459.2861178656
 30
0.0
 40
0.6999999999999993
100
AcDbArc
 50
180.0
 51
270.0
  0
ARC
  5
88
330
75
100
AcDbEntity
  8
$DDT_AUDIT_GENERATED_(77)
  6
Continuous
 62
     7
100
AcDbCircle
 10
114.1562722255
 20
459.2861178656
 30
0.0
 40
0.6999999999999993
100
AcDbArc
 50
270.0
 51
0.0
  0
LINE
  5
89
330
75
100
AcDbEntity
  8
$DDT_AUDIT_GENERATED_(77)
  6
Continuous
 62
     7
100
AcDbLine
 10
122.3562722255
 20
393.5864207501
 30
0.0
 11
76.3562722255
 21
393.5864207501
 31
0.0
  0
ARC
  5
8A
330
75
100
AcDbEntity
  8
$DDT_AUDIT_GENERATED_(77)
  6
Continuous
 62
     7
100
AcDbCircle
 10
121.8562722255
 20
510.0864207501
 30
0.0
 40
0.5000000000000004
100
AcDbArc
 50
0.0
 51
90.0
  0
ARC
  5
8B
330
75
100
AcDbEntity
  8
$DDT_AUDIT_GENERATED_(77)
  6
Continuous
 62
     7
100
AcDbCircle
 10
76.8562722255
 20
510.0864207501
 30
0.0
 40
0.5000000000000004
100
AcDbArc
 50
90.0
 51
180.0
  0
LINE
  5
8C
330
75
100
AcDbEntity
  8
$DDT_AUDIT_GENERATED_(77)
  6
Continuous
 62
     7
100
AcDbLine
 10
122.3562722255
 20
393.5864207501
 30
0.0
 11
122.3562722255
 21
510.0864207501
 31
0.0
  0
LINE
  5
8D
330
75
100
AcDbEntity
  8
$DDT_AUDIT_GENERATED_(77)
  6
Continuous
 62
     7
100
AcDbLine
 10
76.3562722255
 20
510.0864207501
 30
0.0
 11
76.3562722255
 21
393.5864207501
 31
0.0
  0
ELLIPSE
  5
8F
330
75
100
AcDbEntity
  8
$DDT_AUDIT_GENERATED_(8E)
  6
Continuous
 62
     7
100
AcDbEllipse
 10
104.7562722255
 20
529.9361486472
 30
0.0
 11
2.3
 21
0.0
 31
0.0
210
0.0
220
0.0
230
1.0
 40
0.0261769483
 41
4.71238898038469
 42
5.769406621962442
  0
ELLIPSE
  5
90
330
75
100
AcDbEntity
  8
$DDT_AUDIT_GENERATED_(8E)
  6
Continuous
 62
     7
100
AcDbEllipse
 10
93.9562722255
 20
529.9361486472
 30
0.0
 11
2.299999999999994
 21
0.0
 31
0.0
210
0.0
220
0.0
230
1.0
 40
0.0261769483
 41
3.641423637706856
 42
4.71238898038469
  0
LINE
  5
91
330
75
100
AcDbEntity
  8
$DDT_AUDIT_GENERATED_(8E)
  6
Continuous
 62
     7
100
AcDbLine
 10
90.9562722255
 20
530.6359087747
 30
0.0
 11
90.9562722255
 21
539.6767192676
 31
0.0
  0
ELLIPSE
  5
92
330
75
100
AcDbEntity
  8
$DDT_AUDIT_GENERATED_(8E)
  6
Continuous
 62
     7
100
AcDbEllipse
 10
99.3562722255
 20
513.674076963
 30
0.0
 11
23.0
 21
-2.775557561562891E-14
 31
0.0
210
0.0
220
0.0
230
1.0
 40
0.6426844963
 41
-0.0702949620504378
 42
0.000000000000002
  0
ELLIPSE
  5
93
330
75
100
AcDbEntity
  8
$DDT_AUDIT_GENERATED_(8E)
  6
Continuous
 62
     7
100
AcDbEllipse
 10
99.3562722255
 20
513.674076963
 30
0.0
 11
23.0
 21
-2.775557561562891E-14
 31
0.0
210
0.0
220
0.0
230
1.0
 40
0.6426844963
 41
3.141592653589795
 42
3.211887615640235
  0
ELLIPSE
  5
94
330
75
100
AcDbEntity
  8
$DDT_AUDIT_GENERATED_(8E)
  6
Continuous
 62
     7
100
AcDbEllipse
 10
99.3562722255
 20
511.9681112888
 30
0.0
 11
22.69999999999998
 21
1.387778780781446E-14
 31
0.0
210
0.0
220
0.0
230
1.0
 40
0.0261769483
 41
3.368414452020433
 42
6.073372155045868
  0
ELLIPSE
  5
95
330
75
100
AcDbEntity
  8
$DDT_AUDIT_GENERATED_(8E)
  6
Continuous
 62
     7
100
AcDbEllipse
 10
122.0002106342
 20
512.6364019873
 30
0.0
 11
-0.2982596285467688
 21
0.03226753754384526
 31
0.0
210
0.0
220
0.0
230
1.0
 40
0.8324031714
 41
3.156779694854906
 42
3.268633402199024
  0
ARC
  5
96
330
75
100
AcDbEntity
  8
$DDT_AUDIT_GENERATED_(8E)
  6
Continuous
 62
     7
100
AcDbCircle
 10
88.8014169885
 20
514.2968171465
 30
0.0
 40
27.76212475410339
100
AcDbArc
 50
85.7103128895
 51
92.597552744
  0
ARC
  5
97
330
75
100
AcDbEntity
  8
$DDT_AUDIT_GENERATED_(8E)
  6
Continuous
 62
     7
100
AcDbCircle
 10
93.1136310165
 20
563.3394763705
 30
0.0
 40
23.00991878782668
100
AcDbArc
 50
266.8538393442
 51
272.0808657127
  0
ARC
  5
98
330
75
100
AcDbEntity
  8
$DDT_AUDIT_GENERATED_(8E)
  6
Continuous
 62
     7
100
AcDbCircle
 10
99.3562722255
 20
10.940939586
 30
0.0
 40
529.4314039927901
100
AcDbArc
 50
89.4148205942
 51
90.5851794058
  0
ARC
  5
99
330
75
100
AcDbEntity
  8
$DDT_AUDIT_GENERATED_(8E)
  6
Continuous
 62
     7
100
AcDbCircle
 10
105.5985802416
 20
563.3637029516
 30
0.0
 40
23.03411732701644
100
AcDbArc
 50
267.9221506452
 51
273.114271373
  0
ARC
  5
9A
330
75
100
AcDbEntity
  8
$DDT_AUDIT_GENERATED_(8E)
  6
Continuous
 62
     7
100
AcDbCircle
 10
109.9111164258
 20
514.2972022035
 30
0.0
 40
27.76174059293909
100
AcDbArc
 50
87.4023884854
 51
94.3095857557
  0
LINE
  5
9B
330
75
100
AcDbEntity
  8
$DDT_AUDIT_GENERATED_(8E)
  6
Continuous
 62
     7
100
AcDbLine
 10
107.7562722255
 20
539.6767192676
 30
0.0
 11
107.7562722255
 21
530.6359087747
 31
0.0
  0
LINE
  5
9C
330
75
100
AcDbEntity
  8
$DDT_AUDIT_GENERATED_(8E)
  6
Continuous
 62
     7
100
AcDbLine
 10
107.7562722255
 20
541.2131319741
 30
0.0
 11
107.7562722255
 21
539.6767192676
 31
0.0
  0
LINE
  5
9D
330
75
100
AcDbEntity
  8
$DDT_AUDIT_GENERATED_(8E)
  6
Continuous
 62
     7
100
AcDbLine
 10
90.9562722255
 20
539.6767192676
 30
0.0
 11
90.9562722255
 21
541.2131319741
 31
0.0
  0
ELLIPSE
  5
9E
330
75
100
AcDbEntity
  8
$DDT_AUDIT_GENERATED_(8E)
  6
Continuous
 62
     7
100
AcDbEllipse
 10
99.3562722255
 20
542.1864912858
 30
0.0
 11
22.32953362974296
 21
-2.775557561562891E-14
 31
0.0
210
0.0
220
0.0
230
1.0
 40
0.0261769483
 41
0.2526538699783767
 42
0.668871006134815
  0
ELLIPSE
  5
9F
330
75
100
AcDbEntity
  8
$DDT_AUDIT_GENERATED_(8E)
  6
Continuous
 62
     7
100
AcDbEllipse
 10
99.3562722255
 20
542.1864912858
 30
0.0
 11
22.32953362974296
 21
-2.775557561562891E-14
 31
0.0
210
0.0
220
0.0
230
1.0
 40
0.0261769483
 41
-3.810463659724606
 42
-3.401899533714181
  0
ARC
  5
A0
330
75
100
AcDbEntity
  8
$DDT_AUDIT_GENERATED_(8E)
  6
Continuous
 62
     7
100
AcDbCircle
 10
108.3172054058
 20
522.273568623
 30
0.0
 40
9.303869160411098
100
AcDbArc
 50
93.2366989172
 51
93.4697636492
  0
SPLINE
  5
A1
330
75
100
AcDbEntity
  8
$DDT_AUDIT_GENERATED_(8E)
  6
Continuous
 62
     7
100
AcDbSpline
210
0.0
220
0.0
230
1.0
 70
     8
 71
     3
 72
    20
 73
    16
 74
     0
 42
0.0000000072983116
 43
0.0000000001
 40
0.0
 40
0.0
 40
0.0
 40
0.0
 40
0.0165830160151112
 40
0.1703461212201736
 40
0.3335102231082925
 40
0.4386325736856849
 40
0.5033413619920227
 40
0.5506336392996556
 40
0.6009601300141582
 40
0.659653451993296
 40
0.7245136141472379
 40
0.7943663235545108
 40
0.8680126154843459
 40
0.9437159790688507
 40
1.0
 40
1.0
 40
1.0
 40
1.0
 10
106.7925617812167
 20
529.9072103173253
 30
0.0
 10
106.7992587399392
 20
529.9074850825863
 30
0.0
 10
106.8583621149692
 20
529.9099178303892
 30
0.0
 10
106.9560195006059
 20
529.9158839493858
 30
0.0
 10
107.0581633569714
 20
529.9241476145131
 30
0.0
 10
107.1365572727574
 20
529.9340868293876
 30
0.0
 10
107.2097401415436
 20
529.9484841430603
 30
0.0
 10
107.2862199411852
 20
529.9709921678177
 30
0.0
 10
107.37146667475
 20
530.0066660725532
 30
0.0
 10
107.4663034134483
 20
530.0633415749612
 30
0.0
 10
107.5619691200435
 20
530.1451626204415
 30
0.0
 10
107.6477362684478
 20
530.252263629551
 30
0.0
 10
107.7135083667288
 20
530.3801399069387
 30
0.0
 10
107.7504211933023
 20
530.5144458043562
 30
0.0
 10
107.7546621067023
 20
530.5952730964002
 30
0.0
 10
107.7562722255155
 20
530.6359087746653
 30
0.0
  0
LINE
  5
A2
330
75
100
AcDbEntity
  8
$DDT_AUDIT_GENERATED_(8E)
  6
Continuous
 62
     7
100
AcDbLine
 10
93.9562722255
 20
529.8757017936
 30
0.0
 11
104.7562722255
 21
529.8757017936
 31
0.0
  0
SPLINE
  5
A3
330
75
100
AcDbEntity
  8
$DDT_AUDIT_GENERATED_(8E)
  6
Continuous
 62
     7
100
AcDbSpline
210
0.0
220
0.0
230
1.0
 70
     8
 71
     3
 72
    21
 73
    17
 74
     0
 42
0.0000000073835972
 43
0.0000000001
 40
0.0
 40
0.0
 40
0.0
 40
0.0
 40
0.0819209093548976
 40
0.1564678645774058
 40
0.2251046922153007
 40
0.2886667980318134
 40
0.3473645045733958
 40
0.4008921544065481
 40
0.4487153557588381
 40
0.4927312713940113
 40
0.5394501998618999
 40
0.5950979747962034
 40
0.6731597083908825
 40
0.8085974957224258
 40
0.9638487659025007
 40
1.0
 40
1.0
 40
1.0
 40
1.0
 10
90.95627222551553
 20
530.6359087746653
 30
0.0
 10
90.9595773767298
 20
530.577772793142
 30
0.0
 10
90.96642545468784
 20
530.4836931894636
 30
0.0
 10
91.01557781634185
 20
530.3425779805674
 30
0.0
 10
91.08266580738402
 20
530.2274031128608
 30
0.0
 10
91.16300529829316
 20
530.1338192627944
 30
0.0
 10
91.24929293015481
 20
530.0619968829534
 30
0.0
 10
91.33480792183052
 20
530.0103124895271
 30
0.0
 10
91.4130757988077
 20
529.9760131481158
 30
0.0
 10
91.48001062688382
 20
529.9547039505144
 30
0.0
 10
91.53577853786595
 20
529.9417114400153
 30
0.0
 10
91.58784699365938
 20
529.932721807989
 30
0.0
 10
91.65144717232268
 20
529.9246549188297
 30
0.0
 10
91.73762435579859
 20
529.9172539356092
 30
0.0
 10
91.8280471509681
 20
529.911368154425
 30
0.0
 10
91.89066774923141
 20
529.9086266150574
 30
0.0
 10
91.90450598553169
 20
529.9080252170685
 30
0.0
  0
SPLINE
  5
A4
330
75
100
AcDbEntity
  8
$DDT_AUDIT_GENERATED_(8E)
  6
Continuous
 62
     7
100
AcDbSpline
210
0.0
220
0.0
230
1.0
 70
     8
 71
     3
 72
     8
 73
     4
 74
     0
 42
0.0000000064291675
 43
0.0000000001
 40
0.0
 40
0.0
 40
0.0
 40
0.0
 40
0.0244171046878444
 40
0.0244171046878444
 40
0.0244171046878444
 40
0.0244171046878444
 10
90.91980599121963
 20
531.562629262278
 30
0.0
 10
90.93285365522962
 20
531.5618022048276
 30
0.0
 10
90.9454679636775
 20
531.5610012674101
 30
0.0
 10
90.95770812967605
 20
531.5602198957553
 30
0.0
  0
ARC
  5
A5
330
75
100
AcDbEntity
  8
$DDT_AUDIT_GENERATED_(8E)
  6
Continuous
 62
     7
100
AcDbCircle
 10
121.114451065
 20
516.1379076457
 30
0.0
 40
4.317694399982714
100
AcDbArc
 50
276.3386750008
 51
280.6326803905
  0
ARC
  5
A6
330
75
100
AcDbEntity
  8
$DDT_AUDIT_GENERATED_(8E)
  6
Continuous
 62
     7
100
AcDbCircle
 10
77.7282253996
 20
516.9311551624
 30
0.0
 40
5.121366273805033
100
AcDbArc
 50
259.5739099742
 51
264.1586079402
  0
SPLINE
  5
A7
330
75
100
AcDbEntity
  8
$DDT_AUDIT_GENERATED_(8E)
  6
Continuous
 62
     7
100
AcDbSpline
210
0.0
220
0.0
230
1.0
 70
     8
 71
     3
 72
    15
 73
    11
 74
     0
 42
0.0000000114247584
 43
0.0000000001
 40
0.0
 40
0.0
 40
0.0
 40
0.0
 40
0.0879963046862234
 40
0.1788205311738395
 40
0.2734257848843534
 40
0.3822046591509576
 40
0.521396334266431
 40
0.7199750342001099
 40
0.9200574887460617
 40
1.0
 40
1.0
 40
1.0
 40
1.0
 10
121.9108201788165
 20
511.8956083776609
 30
0.0
 10
121.9472707266756
 20
511.9053469829869
 30
0.0
 10
122.0093168932839
 20
511.9224540403168
 30
0.0
 10
122.0888283421686
 20
511.9816021909234
 30
0.0
 10
122.1467569125574
 20
512.0483603125405
 30
0.0
 10
122.1919976167325
 20
512.1261456877057
 30
0.0
 10
122.2315164393388
 20
512.2262019234997
 30
0.0
 10
122.2637241257888
 20
512.3567250352194
 30
0.0
 10
122.2863099528498
 20
512.4906568038741
 30
0.0
 10
122.2948857518206
 20
512.5785071387205
 30
0.0
 10
122.2977048222052
 20
512.6079963119125
 30
0.0
  0
SPLINE
  5
A8
330
75
100
AcDbEntity
  8
$DDT_AUDIT_GENERATED_(8E)
  6
Continuous
 62
     7
100
AcDbSpline
210
0.0
220
0.0
230
1.0
 70
     8
 71
     3
 72
    15
 73
    11
 74
     0
 42
0.0000000114738418
 43
0.0000000001
 40
0.0
 40
0.0
 40
0.0
 40
0.0
 40
0.1474072006695119
 40
0.3542183610060822
 40
0.5807372630612231
 40
0.7011570567952149
 40
0.8049074465420162
 40
0.9007979217412705
 40
0.9932353536582822
 40
1.0
 40
1.0
 40
1.0
 40
1.0
 10
76.41522053465226
 20
512.6022792985805
 30
0.0
 10
76.42087092897366
 20
512.5506575962136
 30
0.0
 10
76.43275968680557
 20
512.4460082141082
 30
0.0
 10
76.46250716824593
 20
512.2923781188334
 30
0.0
 10
76.50072530320503
 20
512.1663162260081
 30
0.0
 10
76.55412046078591
 20
512.0649516726196
 30
0.0
 10
76.6129533559151
 20
511.9904087456349
 30
0.0
 10
76.69182348295358
 20
511.9319994284661
 30
0.0
 10
76.76323001180883
 20
511.8969323932691
 30
0.0
 10
76.79920690878787
 20
511.8955461654314
 30
0.0
 10
76.80205811139393
 20
511.8954380100501
 30
0.0
  0
ARC
  5
A9
330
75
100
AcDbEntity
  8
$DDT_AUDIT_GENERATED_(8E)
  6
Continuous
 62
     7
100
AcDbCircle
 10
99.3562722255
 20
13.5889519223
 30
0.0
 40
529.2499999999991
100
AcDbArc
 50
88.1031804379
 51
91.8968195621
  0
LINE
  5
AA
330
75
100
AcDbEntity
  8
$DDT_AUDIT_GENERATED_(8E)
  6
Continuous
 62
     7
100
AcDbLine
 10
122.3562722255
 20
513.674076963
 30
0.0
 11
122.3562722255
 21
541.4873542474
 31
0.0
  0
LINE
  5
AB
330
75
100
AcDbEntity
  8
$DDT_AUDIT_GENERATED_(8E)
  6
Continuous
 62
     7
100
AcDbLine
 10
76.3562722255
 20
541.4873542474
 30
0.0
 11
76.3562722255
 21
513.674076963
 31
0.0
  0
SPLINE
  5
AC
330
75
100
AcDbEntity
  8
$DDT_AUDIT_GENERATED_(8E)
  6
Continuous
 62
     7
100
AcDbSpline
210
0.0
220
0.0
230
1.0
 70
     8
 71
     3
 72
    20
 73
    16
 74
     0
 42
0.0000000060033396
 43
0.0000000001
 40
0.0
 40
0.0
 40
0.0
 40
0.0
 40
0.0624218791635195
 40
0.2153862844230101
 40
0.3728872471701321
 40
0.5413031647523403
 40
0.645472911046679
 40
0.7219721986475115
 40
0.7716143077826432
 40
0.8137168090594769
 40
0.8502807905224797
 40
0.8838014276475228
 40
0.9160971065655555
 40
0.9481371667905503
 40
0.9508010958617654
 40
0.9508010958617654
 40
0.9508010958617654
 40
0.9508010958617654
 10
77.74274588658392
 20
542.334111230417
 30
0.0
 10
77.70387406491885
 20
542.3304338095184
 30
0.0
 10
77.59004070591804
 20
542.319596479584
 30
0.0
 10
77.409573292306
 20
542.298187427359
 30
0.0
 10
77.21224825623472
 20
542.2700142995727
 30
0.0
 10
77.05989378419392
 20
542.241223563128
 30
0.0
 10
76.93884492450827
 20
542.2097766196492
 30
0.0
 10
76.8481322350291
 20
542.1786032635279
 30
0.0
 10
76.76647800952594
 20
542.1418107599523
 30
0.0
 10
76.69019158893819
 20
542.0981624863739
 30
0.0
 10
76.61047897642716
 20
542.0392627241051
 30
0.0
 10
76.52972854087614
 20
541.9602163397335
 30
0.0
 10
76.45377445140706
 20
541.8563588816459
 30
0.0
 10
76.41163468261175
 20
541.7680984919139
 30
0.0
 10
76.39437762932376
 20
541.7178102292168
 30
0.0
 10
76.39308129955258
 20
541.7139263003328
 30
0.0
  0
SPLINE
  5
AD
330
75
100
AcDbEntity
  8
$DDT_AUDIT_GENERATED_(8E)
  6
Continuous
 62
     7
100
AcDbSpline
210
0.0
220
0.0
230
1.0
 70
     8
 71
     3
 72
    20
 73
    16
 74
     0
 42
0.0000000063153139
 43
0.0000000001
 40
0.0625263526851786
 40
0.0625263526851786
 40
0.0625263526851786
 40
0.0625263526851786
 40
0.0664181491348206
 40
0.0986299893056889
 40
0.1307767111812439
 40
0.1640716733349989
 40
0.2003163723258181
 40
0.2420522281382408
 40
0.2928609153840501
 40
0.3583530084558914
 40
0.4491460161548501
 40
0.5930364271120381
 40
0.7578816933165545
 40
0.9130319621650791
 40
1.0
 40
1.0
 40
1.0
 40
1.0
 10
122.3013246133849
 20
541.7624729463049
 30
0.0
 10
122.2991399943921
 20
541.7677014257687
 30
0.0
 10
122.2784234295364
 20
541.8157178092595
 30
0.0
 10
122.2322563129347
 20
541.8966938807212
 30
0.0
 10
122.157019098899
 20
541.9877109869799
 30
0.0
 10
122.0808764411486
 20
542.0561397571115
 30
0.0
 10
122.006963597969
 20
542.1076026680535
 30
0.0
 10
121.9351040185391
 20
542.1471407502296
 30
0.0
 10
121.8624231941681
 20
542.1789887840865
 30
0.0
 10
121.7826457610821
 20
542.2067325726225
 30
0.0
 10
121.6801068279485
 20
542.2345984130599
 30
0.0
 10
121.5451981558621
 20
542.2622032457867
 30
0.0
 10
121.368782629372
 20
542.2894593166292
 30
0.0
 10
121.1865626742582
 20
542.3124477796208
 30
0.0
 10
121.0673210161281
 20
542.3243385351074
 30
0.0
 10
121.0166243132481
 20
542.3293499056807
 30
0.0
  0
ARC
  5
AF
330
75
100
AcDbEntity
  8
$DDT_AUDIT_GENERATED_(AE)
  6
Continuous
 62
     7
100
AcDbCircle
 10
99.3562722255
 20
504.6364207501
 30
0.0
 40
21.60000000000001
100
AcDbArc
 50
160.8896906504
 51
164.0103943751
  0
ARC
  5
B0
330
75
100
AcDbEntity
  8
$DDT_AUDIT_GENERATED_(AE)
  6
Continuous
 62
     7
100
AcDbCircle
 10
99.3562722255
 20
504.6364207501
 30
0.0
 40
21.6
100
AcDbArc
 50
15.9896056249
 51
19.1103093496
  0
ELLIPSE
  5
B2
330
75
100
AcDbEntity
  8
$DDT_AUDIT_GENERATED_(B1)
  6
Continuous
 62
     7
100
AcDbEllipse
 10
99.3562722255
 20
448.9903746433
 30
0.0
 11
10.07500000000001
 21
6.938893903907228E-15
 31
0.0
210
0.0
220
0.0
230
1.0
 40
0.4226182617
 41
0.0
 42
6.283185307179586
  0
LINE
  5
B3
330
75
100
AcDbEntity
  8
$DDT_AUDIT_GENERATED_(B1)
  6
Continuous
 62
     7
100
AcDbLine
 10
110.9312722255
 20
449.8966824303
 30
0.0
 11
110.9312722255
 21
458.5861178656
 31
0.0
  0
LINE
  5
B4
330
75
100
AcDbEntity
  8
$DDT_AUDIT_GENERATED_(B1)
  6
Continuous
 62
     7
100
AcDbLine
 10
87.7812722255
 20
458.5861178656
 30
0.0
 11
87.7812722255
 21
449.8966824303
 31
0.0
  0
SPLINE
  5
B5
330
75
100
AcDbEntity
  8
$DDT_AUDIT_GENERATED_(B1)
  6
Continuous
 62
     7
100
AcDbSpline
210
0.0
220
0.0
230
1.0
 70
     8
 71
     3
 72
    36
 73
    32
 74
     0
 42
0.0000000007202453
 43
0.0000000001
 40
0.0
 40
0.0
 40
0.0
 40
0.0
 40
0.0077238815716207
 40
0.0392311930871017
 40
0.0707346355816984
 40
0.102486078462733
 40
0.134740079218732
 40
0.167711789744086
 40
0.2015541233614449
 40
0.2363323444815418
 40
0.2720066084107285
 40
0.3084370970765878
 40
0.3454186351938731
 40
0.3827325852395915
 40
0.4201914784981962
 40
0.4576374973182946
 40
0.4949921924767232
 40
0.5322223287935627
 40
0.5693172652611803
 40
0.6062794551470707
 40
0.6431182392845567
 40
0.6798461088131592
 40
0.7164765903653595
 40
0.7530231252698049
 40
0.7894985319206703
 40
0.8259147993866744
 40
0.8622830634480235
 40
0.8986136794472941
 40
0.934916343925928
 40
0.9712002389922608
 40
1.0
 40
1.0
 40
1.0
 40
1.0
 10
87.78464024490056
 20
449.8969034126021
 30
0.0
 10
87.78348075919794
 20
449.8678951410425
 30
0.0
 10
87.77870496629002
 20
449.7418218743322
 30
0.0
 10
87.80494706582719
 20
449.4931483024853
 30
0.0
 10
87.86524090881836
 20
449.1770027654503
 30
0.0
 10
87.963156406258
 20
448.8625078543417
 30
0.0
 10
88.09492133269339
 20
448.5541359612065
 30
0.0
 10
88.26173637305345
 20
448.250766463939
 30
0.0
 10
88.46387467586963
 20
447.9529119644604
 30
0.0
 10
88.70195602447264
 20
447.6610200293914
 30
0.0
 10
88.97614171957737
 20
447.3760993600924
 30
0.0
 10
89.28594041502429
 20
447.0995158570879
 30
0.0
 10
89.63006835440662
 20
446.8328209187868
 30
0.0
 10
90.00660939393528
 20
446.5774725580831
 30
0.0
 10
90.41323916638383
 20
446.3346892986884
 30
0.0
 10
90.84760092373716
 20
446.1053142966911
 30
0.0
 10
91.30751318550334
 20
445.8898583988804
 30
0.0
 10
91.79111925981738
 20
445.6885749745868
 30
0.0
 10
92.29674052476535
 20
445.5016178931932
 30
0.0
 10
92.82277829817471
 20
445.3291150230849
 30
0.0
 10
93.3676631291725
 20
445.1711950855242
 30
0.0
 10
93.92982029116511
 20
445.0279970928227
 30
0.0
 10
94.50764416224328
 20
444.8996703635831
 30
0.0
 10
95.09949987305002
 20
444.7863690021225
 30
0.0
 10
95.70366850000158
 20
444.6882480970706
 30
0.0
 10
96.3185334700805
 20
444.6054470544854
 30
0.0
 10
96.9418896974032
 20
444.5381208370339
 30
0.0
 10
97.57353381814747
 20
444.4862958526692
 30
0.0
 10
98.20563696880188
 20
444.4503835896833
 30
0.0
 10
98.81383090462383
 20
444.4306982414865
 30
0.0
 10
99.16988743555412
 20
444.428404593349
 30
0.0
 10
99.35627222551547
 20
444.4274943123797
 30
0.0
  0
SPLINE
  5
B6
330
75
100
AcDbEntity
  8
$DDT_AUDIT_GENERATED_(B1)
  6
Continuous
 62
     7
100
AcDbSpline
210
0.0
220
0.0
230
1.0
 70
     8
 71
     3
 72
    36
 73
    32
 74
     0
 42
0.0000000007199962
 43
0.0000000001
 40
0.0
 40
0.0
 40
0.0
 40
0.0
 40
0.019141602413564
 40
0.0553965932826522
 40
0.0916623425706539
 40
0.1279439447078491
 40
0.1642503683088662
 40
0.2005910183498847
 40
0.2369759003739937
 40
0.2734157822606305
 40
0.3099223426994331
 40
0.3465082856720805
 40
0.3831873818897029
 40
0.4199743664971349
 40
0.4568845685629805
 40
0.4939330582996961
 40
0.5311329541943693
 40
0.5684923172270392
 40
0.6060087835229949
 40
0.6436608660971666
 40
0.6813950920058743
 40
0.7190635885460978
 40
0.7564795521350005
 40
0.793402533814958
 40
0.8295794903092845
 40
0.8648130966889005
 40
0.8990215050963623
 40
0.9322565762496164
 40
0.9646806382710241
 40
0.9965265214940094
 40
1.0
 40
1.0
 40
1.0
 40
1.0
 10
99.35627222551547
 20
444.4274943123797
 30
0.0
 10
99.48020857703835
 20
444.4278967693993
 30
0.0
 10
99.78488475384205
 20
444.4292493719931
 30
0.0
 10
100.337381189715
 20
444.4433799039055
 30
0.0
 10
100.9696599501788
 20
444.475138072198
 30
0.0
 10
101.6025837647202
 20
444.5227427093592
 30
0.0
 10
102.2273432708491
 20
444.5858490453505
 30
0.0
 10
102.843981016499
 20
444.6644022376695
 30
0.0
 10
103.4502154891707
 20
444.7582418232696
 30
0.0
 10
104.0444423504689
 20
444.8672135188239
 30
0.0
 10
104.6249377418239
 20
444.9911469509082
 30
0.0
 10
105.1900792674054
 20
445.1298713023592
 30
0.0
 10
105.7382915731981
 20
445.2832228975892
 30
0.0
 10
106.2680624220701
 20
445.4510571012719
 30
0.0
 10
106.7779344528984
 20
445.633260871136
 30
0.0
 10
107.2664952430429
 20
445.8297658172345
 30
0.0
 10
107.7323554922369
 20
446.040559095828
 30
0.0
 10
108.1741126809587
 20
446.2656872570487
 30
0.0
 10
108.5902950834011
 20
446.5052439224439
 30
0.0
 10
108.9792846350149
 20
446.7593266823599
 30
0.0
 10
109.3390798772633
 20
447.0278337362262
 30
0.0
 10
109.6673630733363
 20
447.3103317214931
 30
0.0
 10
109.961572792644
 20
447.6058406180778
 30
0.0
 10
110.2192536289454
 20
447.9128192358446
 30
0.0
 10
110.4383057130221
 20
448.2290783192279
 30
0.0
 10
110.617513468595
 20
448.5521795042779
 30
0.0
 10
110.7561178642853
 20
448.8791401826695
 30
0.0
 10
110.8558258244909
 20
449.2090249114402
 30
0.0
 10
110.9129042725802
 20
449.5348785765909
 30
0.0
 10
110.9358415713996
 20
449.7742291627562
 30
0.0
 10
110.9301591880035
 20
449.8882444534097
 30
0.0
 10
110.9294971679086
 20
449.9012869209492
 30
0.0
  0
ELLIPSE
  5
B8
330
75
100
AcDbEntity
  8
$DDT_AUDIT_GENERATED_(B7)
  6
Continuous
 62
     7
100
AcDbEllipse
 10
99.3562722255
 20
448.7637976965
 30
0.0
 11
-9.000000000000002
 21
0.0
 31
0.0
210
0.0
220
0.0
230
1.0
 40
0.4226182617
 41
0.0
 42
6.283185307179586
  0
ELLIPSE
  5
B9
330
75
100
AcDbEntity
  8
$DDT_AUDIT_GENERATED_(B7)
  6
Continuous
 62
     7
100
AcDbEllipse
 10
99.3562722255
 20
451.5610932112
 30
0.0
 11
9.386474103794939
 21
3.469446951953614E-14
 31
0.0
210
0.0
220
0.0
230
1.0
 40
0.4226182617
 41
-0.2879555481429321
 42
-0.2081788922728798
  0
ELLIPSE
  5
BA
330
75
100
AcDbEntity
  8
$DDT_AUDIT_GENERATED_(B7)
  6
Continuous
 62
     7
100
AcDbEllipse
 10
99.3562722255
 20
451.5610932112
 30
0.0
 11
-9.386474103794999
 21
2.081668171172169E-14
 31
0.0
210
0.0
220
0.0
230
1.0
 40
0.4226182617
 41
0.2081788922728804
 42
0.2879555481429271
  0
ELLIPSE
  5
BB
330
75
100
AcDbEntity
  8
$DDT_AUDIT_GENERATED_(B7)
  6
Continuous
 62
     7
100
AcDbEllipse
 10
99.3562722255
 20
448.7637976965
 30
0.0
 11
5.250000000000001
 21
0.0
 31
0.0
210
0.0
220
0.0
230
1.0
 40
0.4226182617
 41
0.0
 42
6.283185307179586
  0
ELLIPSE
  5
BC
330
75
100
AcDbEntity
  8
$DDT_AUDIT_GENERATED_(B7)
  6
Continuous
 62
     7
100
AcDbEllipse
 10
99.3562722255
 20
448.7637976965
 30
0.0
 11
-6.249999999999999
 21
0.0
 31
0.0
210
0.0
220
0.0
230
1.0
 40
0.4226182617
 41
0.0
 42
6.283185307179586
  0
ELLIPSE
  5
BD
330
75
100
AcDbEntity
  8
$DDT_AUDIT_GENERATED_(B7)
  6
Continuous
 62
     7
100
AcDbEllipse
 10
99.3562722255
 20
448.7637976965
 30
0.0
 11
2.750000000000001
 21
0.0
 31
0.0
210
0.0
220
0.0
230
1.0
 40
0.4226182617
 41
0.0
 42
6.283185307179586
  0
ELLIPSE
  5
BE
330
75
100
AcDbEntity
  8
$DDT_AUDIT_GENERATED_(B7)
  6
Continuous
 62
     7
100
AcDbEllipse
 10
99.3562722255
 20
448.7637976965
 30
0.0
 11
2.150000000000001
 21
0.0
 31
0.0
210
0.0
220
0.0
230
1.0
 40
0.4226182617
 41
0.0
 42
6.283185307179586
  0
ELLIPSE
  5
BF
330
75
100
AcDbEntity
  8
$DDT_AUDIT_GENERATED_(B7)
  6
Continuous
 62
     7
100
AcDbEllipse
 10
99.3562722255
 20
448.9450592539
 30
0.0
 11
0.5196299438963558
 21
0.0
 31
0.0
210
0.0
220
0.0
230
1.0
 40
0.4226182617
 41
0.0
 42
6.283185307179586
  0
ELLIPSE
  5
C0
330
75
100
AcDbEntity
  8
$DDT_AUDIT_GENERATED_(B7)
  6
Continuous
 62
     7
100
AcDbEllipse
 10
99.3562722255
 20
448.7637976965
 30
0.0
 11
-8.699999999999998
 21
-6.938893903907228E-15
 31
0.0
210
0.0
220
0.0
230
1.0
 40
0.4226182617
 41
0.0
 42
6.283185307179586
  0
ARC
  5
C1
330
75
100
AcDbEntity
  8
$DDT_AUDIT_GENERATED_(B7)
  6
Continuous
 62
     7
100
AcDbCircle
 10
99.3562722255
 20
465.464374162
 30
0.0
 40
20.11157013995541
100
AcDbArc
 50
269.7151091874
 51
270.2848908126
  0
ELLIPSE
  5
C2
330
75
100
AcDbEntity
  8
$DDT_AUDIT_GENERATED_(B7)
  6
Continuous
 62
     7
100
AcDbEllipse
 10
99.3562722255
 20
448.9450592539
 30
0.0
 11
8.500000000014488
 21
-2.220446049250313E-12
 31
0.0
210
0.0
220
0.0
230
1.0
 40
0.4226182617
 41
4.724153957673305
 42
4.962423390895876
  0
LINE
  5
C3
330
75
100
AcDbEntity
  8
$DDT_AUDIT_GENERATED_(B7)
  6
Continuous
 62
     7
100
AcDbLine
 10
99.2562722255
 20
446.1227716769
 30
0.0
 11
99.2562722255
 21
445.3530526367
 31
0.0
  0
LINE
  5
C4
330
75
100
AcDbEntity
  8
$DDT_AUDIT_GENERATED_(B7)
  6
Continuous
 62
     7
100
AcDbLine
 10
99.4562722255
 20
446.1227716769
 30
0.0
 11
99.4562722255
 21
445.3530526367
 31
0.0
  0
LINE
  5
C5
330
75
100
AcDbEntity
  8
$DDT_AUDIT_GENERATED_(B7)
  6
Continuous
 62
     7
100
AcDbLine
 10
99.6062722255
 20
448.2667217368
 30
0.0
 11
99.6062722255
 21
448.7525403864
 31
0.0
  0
LINE
  5
C6
330
75
100
AcDbEntity
  8
$DDT_AUDIT_GENERATED_(B7)
  6
Continuous
 62
     7
100
AcDbLine
 10
99.1062722255
 20
448.2667217368
 30
0.0
 11
99.1062722255
 21
448.7525403864
 31
0.0
  0
ELLIPSE
  5
C7
330
75
100
AcDbEntity
  8
$DDT_AUDIT_GENERATED_(B7)
  6
Continuous
 62
     7
100
AcDbEllipse
 10
99.3562722255
 20
449.1691873871
 30
0.0
 11
-2.150000000004111
 21
-3.469446951953614E-14
 31
0.0
210
0.0
220
0.0
230
1.0
 40
0.4226182617
 41
1.454253618345762
 42
1.687339035243992
  0
LINE
  5
C8
330
75
100
AcDbEntity
  8
$DDT_AUDIT_GENERATED_(B7)
  6
Continuous
 62
     7
100
AcDbLine
 10
99.0867643562
 20
449.3569463586
 30
0.0
 11
99.0867643562
 21
449.6652599347
 31
0.0
  0
ELLIPSE
  5
C9
330
75
100
AcDbEntity
  8
$DDT_AUDIT_GENERATED_(B7)
  6
Continuous
 62
     7
100
AcDbEllipse
 10
99.3562722255
 20
449.1691873871
 30
0.0
 11
-0.5196299438963589
 21
3.469446951953614E-14
 31
0.0
210
0.0
220
0.0
230
1.0
 40
0.4226182617
 41
5.257664250557023
 42
6.261508812605568
  0
LINE
  5
CA
330
75
100
AcDbEntity
  8
$DDT_AUDIT_GENERATED_(B7)
  6
Continuous
 62
     7
100
AcDbLine
 10
97.8538840159
 20
449.4137688745
 30
0.0
 11
98.8367643562
 21
449.1739472832
 31
0.0
  0
LINE
  5
CB
330
75
100
AcDbEntity
  8
$DDT_AUDIT_GENERATED_(B7)
  6
Continuous
 62
     7
100
AcDbLine
 10
98.287003168
 20
449.5520871025
 30
0.0
 11
99.0867643562
 21
449.3569463586
 31
0.0
  0
ELLIPSE
  5
CC
330
75
100
AcDbEntity
  8
$DDT_AUDIT_GENERATED_(B7)
  6
Continuous
 62
     7
100
AcDbEllipse
 10
99.3562722255
 20
449.1691873871
 30
0.0
 11
0.5196299438963589
 21
2.081668171172169E-14
 31
0.0
210
0.0
220
0.0
230
1.0
 40
0.4226182617
 41
0.0216764945752885
 42
1.025521056622606
  0
LINE
  5
CD
330
75
100
AcDbEntity
  8
$DDT_AUDIT_GENERATED_(B7)
  6
Continuous
 62
     7
100
AcDbLine
 10
100.4255412831
 20
449.5520871025
 30
0.0
 11
99.6257800948
 21
449.3569463586
 31
0.0
  0
LINE
  5
CE
330
75
100
AcDbEntity
  8
$DDT_AUDIT_GENERATED_(B7)
  6
Continuous
 62
     7
100
AcDbLine
 10
99.6257800948
 20
449.3569463586
 30
0.0
 11
99.6257800948
 21
449.6652599347
 31
0.0
  0
LINE
  5
CF
330
75
100
AcDbEntity
  8
$DDT_AUDIT_GENERATED_(B7)
  6
Continuous
 62
     7
100
AcDbLine
 10
100.8586604351
 20
449.4137688745
 30
0.0
 11
99.8757800948
 21
449.1739472832
 31
0.0
  0
ELLIPSE
  5
D0
330
75
100
AcDbEntity
  8
$DDT_AUDIT_GENERATED_(B7)
  6
Continuous
 62
     7
100
AcDbEllipse
 10
99.3562721078
 20
448.9450590682
 30
0.0
 11
-8.49999975728384
 21
5.850971790399839E-8
 31
0.0
210
0.0
220
0.0
230
1.0
 40
0.4226182519
 41
1.297231970989027
 42
1.320761926194971
  0
ELLIPSE
  5
D1
330
75
100
AcDbEntity
  8
$DDT_AUDIT_GENERATED_(B7)
  6
Continuous
 62
     7
100
AcDbEllipse
 10
99.3562722255
 20
448.9450592539
 30
0.0
 11
-8.500000000002634
 21
-1.526556658859590E-13
 31
0.0
210
0.0
220
0.0
230
1.0
 40
0.4226182617
 41
1.320761916283836
 42
1.559031349506733
  0
LINE
  5
D2
330
75
100
AcDbEntity
  8
$DDT_AUDIT_GENERATED_(B7)
  6
Continuous
 62
     7
100
AcDbLine
 10
97.0598700113
 20
445.4863854596
 30
0.0
 11
97.0598700113
 21
446.3071879771
 31
0.0
  0
LINE
  5
D3
330
75
100
AcDbEntity
  8
$DDT_AUDIT_GENERATED_(B7)
  6
Continuous
 62
     7
100
AcDbLine
 10
97.535757427
 20
446.2369707127
 30
0.0
 11
97.0598700113
 21
445.4863854596
 31
0.0
  0
LINE
  5
D4
330
75
100
AcDbEntity
  8
$DDT_AUDIT_GENERATED_(B7)
  6
Continuous
 62
     7
100
AcDbLine
 10
97.7280229392
 20
446.2136438747
 30
0.0
 11
97.2530551765
 21
445.4645091286
 31
0.0
  0
ELLIPSE
  5
D5
330
75
100
AcDbEntity
  8
$DDT_AUDIT_GENERATED_(B7)
  6
Continuous
 62
     7
100
AcDbEllipse
 10
99.3562719981
 20
448.9450590874
 30
0.0
 11
-8.499999715771992
 21
1.013209030564788E-7
 31
0.0
210
0.0
220
0.0
230
1.0
 40
0.4226182561
 41
1.035432590213438
 42
1.058962545419115
  0
ELLIPSE
  5
D6
330
75
100
AcDbEntity
  8
$DDT_AUDIT_GENERATED_(B7)
  6
Continuous
 62
     7
100
AcDbEllipse
 10
99.3562722255
 20
448.9450592539
 30
0.0
 11
-8.500000000017311
 21
-5.620504062164855E-12
 31
0.0
210
0.0
220
0.0
230
1.0
 40
0.4226182617
 41
1.058962528483979
 42
1.297231961706524
  0
LINE
  5
D7
330
75
100
AcDbEntity
  8
$DDT_AUDIT_GENERATED_(B7)
  6
Continuous
 62
     7
100
AcDbLine
 10
95.019963813
 20
445.8554211859
 30
0.0
 11
95.019963813
 21
446.8615962641
 31
0.0
  0
LINE
  5
D8
330
75
100
AcDbEntity
  8
$DDT_AUDIT_GENERATED_(B7)
  6
Continuous
 62
     7
100
AcDbLine
 10
95.9629076136
 20
446.5456525605
 30
0.0
 11
95.019963813
 21
445.8554211859
 31
0.0
  0
LINE
  5
D9
330
75
100
AcDbEntity
  8
$DDT_AUDIT_GENERATED_(B7)
  6
Continuous
 62
     7
100
AcDbLine
 10
96.1326790211
 20
446.5008772982
 30
0.0
 11
95.1931688937
 21
445.8131593597
 31
0.0
  0
ELLIPSE
  5
DA
330
75
100
AcDbEntity
  8
$DDT_AUDIT_GENERATED_(B7)
  6
Continuous
 62
     7
100
AcDbEllipse
 10
99.3562719157
 20
448.9450591229
 30
0.0
 11
-8.49999967134818
 21
1.127400811595791E-7
 31
0.0
210
0.0
220
0.0
230
1.0
 40
0.4226182617
 41
0.7736332042972445
 42
0.797163159480033
  0
ELLIPSE
  5
DB
330
75
100
AcDbEntity
  8
$DDT_AUDIT_GENERATED_(B7)
  6
Continuous
 62
     7
100
AcDbEllipse
 10
99.3562722255
 20
448.9450592539
 30
0.0
 11
-8.499999999997637
 21
7.008282842946301E-13
 31
0.0
210
0.0
220
0.0
230
1.0
 40
0.4226182617
 41
0.7971631406856466
 42
1.035432573908661
  0
LINE
  5
DC
330
75
100
AcDbEntity
  8
$DDT_AUDIT_GENERATED_(B7)
  6
Continuous
 62
     7
100
AcDbLine
 10
93.2755698669
 20
446.4350106407
 30
0.0
 11
93.2755698669
 21
447.4125756214
 31
0.0
  0
LINE
  5
DD
330
75
100
AcDbEntity
  8
$DDT_AUDIT_GENERATED_(B7)
  6
Continuous
 62
     7
100
AcDbLine
 10
94.6609030379
 20
447.0204777373
 30
0.0
 11
93.2755698669
 21
446.4350106407
 31
0.0
  0
LINE
  5
DE
330
75
100
AcDbEntity
  8
$DDT_AUDIT_GENERATED_(B7)
  6
Continuous
 62
     7
100
AcDbLine
 10
94.7954529947
 20
446.9578065107
 30
0.0
 11
93.4169912231
 21
446.3752433929
 31
0.0
  0
ELLIPSE
  5
DF
330
75
100
AcDbEntity
  8
$DDT_AUDIT_GENERATED_(B7)
  6
Continuous
 62
     7
100
AcDbEllipse
 10
99.3562718757
 20
448.9450591684
 30
0.0
 11
-8.499999646553977
 21
9.007179724296321E-8
 31
0.0
210
0.0
220
0.0
230
1.0
 40
0.4226182668
 41
0.5118338127954714
 42
0.5353637679308968
  0
ELLIPSE
  5
E0
330
75
100
AcDbEntity
  8
$DDT_AUDIT_GENERATED_(B7)
  6
Continuous
 62
     7
100
AcDbEllipse
 10
99.3562722255
 20
448.9450592539
 30
0.0
 11
-8.499999999997277
 21
8.743006318923108E-13
 31
0.0
210
0.0
220
0.0
230
1.0
 40
0.4226182617
 41
0.5353637528865068
 42
0.7736331861095266
  0
LINE
  5
E1
330
75
100
AcDbEntity
  8
$DDT_AUDIT_GENERATED_(B7)
  6
Continuous
 62
     7
100
AcDbLine
 10
91.9455657377
 20
447.1856557604
 30
0.0
 11
91.9455657377
 21
448.0621165445
 31
0.0
  0
LINE
  5
E2
330
75
100
AcDbEntity
  8
$DDT_AUDIT_GENERATED_(B7)
  6
Continuous
 62
     7
100
AcDbLine
 10
93.723313962
 20
447.6194241355
 30
0.0
 11
91.9455657377
 21
447.1856557604
 31
0.0
  0
LINE
  5
E3
330
75
100
AcDbEntity
  8
$DDT_AUDIT_GENERATED_(B7)
  6
Continuous
 62
     7
100
AcDbLine
 10
93.8130007726
 20
447.5437080998
 30
0.0
 11
92.0455657377
 21
447.1124561302
 31
0.0
  0
ELLIPSE
  5
E4
330
75
100
AcDbEntity
  8
$DDT_AUDIT_GENERATED_(B7)
  6
Continuous
 62
     7
100
AcDbEllipse
 10
99.3562717368
 20
448.9450591986
 30
0.0
 11
-8.499999511019537
 21
6.503207694574797E-8
 31
0.0
210
0.0
220
0.0
230
1.0
 40
0.4226182726
 41
0.250034420835246
 42
0.2735643761116429
  0
ELLIPSE
  5
E5
330
75
100
AcDbEntity
  8
$DDT_AUDIT_GENERATED_(B7)
  6
Continuous
 62
     7
100
AcDbEllipse
 10
99.3562722255
 20
448.9450592539
 30
0.0
 11
-8.499999999996339
 21
8.326672684688674E-13
 31
0.0
210
0.0
220
0.0
230
1.0
 40
0.4226182617
 41
0.2735643650873386
 42
0.5118337983103576
  0
LINE
  5
E6
330
75
100
AcDbEntity
  8
$DDT_AUDIT_GENERATED_(B7)
  6
Continuous
 62
     7
100
AcDbLine
 10
91.1205890089
 20
448.0562013206
 30
0.0
 11
91.1205890089
 21
448.9027974277
 31
0.0
  0
LINE
  5
E7
330
75
100
AcDbEntity
  8
$DDT_AUDIT_GENERATED_(B7)
  6
Continuous
 62
     7
100
AcDbLine
 10
93.2066015732
 20
448.2924218463
 30
0.0
 11
91.1205890089
 21
448.0562013206
 31
0.0
  0
LINE
  5
E8
330
75
100
AcDbEntity
  8
$DDT_AUDIT_GENERATED_(B7)
  6
Continuous
 62
     7
100
AcDbLine
 10
93.2455300451
 20
448.2093247912
 30
0.0
 11
91.1723528179
 21
447.9745577419
 31
0.0
  0
ARC
  5
E9
330
75
100
AcDbEntity
  8
$DDT_AUDIT_GENERATED_(B7)
  6
Continuous
 62
     7
100
AcDbCircle
 10
92.3749080739
 20
448.9450592539
 30
0.0
 40
1.518635754795989
100
AcDbArc
 50
178.4053207506
 51
181.5946792494
  0
ELLIPSE
  5
EA
330
75
100
AcDbEntity
  8
$DDT_AUDIT_GENERATED_(B7)
  6
Continuous
 62
     7
100
AcDbEllipse
 10
99.3562722255
 20
448.9450592539
 30
0.0
 11
-8.500000000026487
 21
-1.658395643033828E-12
 31
0.0
210
0.0
220
0.0
230
1.0
 40
0.4226182617
 41
0.0117649772881214
 42
0.2500344105105902
  0
ARC
  5
EB
330
75
100
AcDbEntity
  8
$DDT_AUDIT_GENERATED_(B7)
  6
Continuous
 62
     7
100
AcDbCircle
 10
94.2232181023
 20
448.9450592539
 30
0.0
 40
1.116945641478297
100
AcDbArc
 50
177.8315843466
 51
180.0
  0
LINE
  5
EC
330
75
100
AcDbEntity
  8
$DDT_AUDIT_GENERATED_(B7)
  6
Continuous
 62
     7
100
AcDbLine
 10
93.1070722767
 20
448.9873210801
 30
0.0
 11
93.1070722767
 21
449.6089673811
 31
0.0
  0
LINE
  5
ED
330
75
100
AcDbEntity
  8
$DDT_AUDIT_GENERATED_(B7)
  6
Continuous
 62
     7
100
AcDbLine
 10
93.1070722767
 20
448.9873210801
 30
0.0
 11
90.8568604812
 21
448.9873210801
 31
0.0
  0
LINE
  5
EE
330
75
100
AcDbEntity
  8
$DDT_AUDIT_GENERATED_(B7)
  6
Continuous
 62
     7
100
AcDbLine
 10
93.1062722255
 20
448.9027974277
 30
0.0
 11
90.8568604812
 21
448.9027974277
 31
0.0
  0
ELLIPSE
  5
EF
330
75
100
AcDbEntity
  8
$DDT_AUDIT_GENERATED_(B7)
  6
Continuous
 62
     7
100
AcDbEllipse
 10
99.3562717702
 20
448.9450593054
 30
0.0
 11
-8.499999544375433
 21
-6.062164659148550E-8
 31
0.0
210
0.0
220
0.0
230
1.0
 40
0.4226182719
 41
-0.2735643753606025
 42
-0.2500344201319376
  0
ELLIPSE
  5
F0
330
75
100
AcDbEntity
  8
$DDT_AUDIT_GENERATED_(B7)
  6
Continuous
 62
     7
100
AcDbEllipse
 10
99.3562722255
 20
448.9450592539
 30
0.0
 11
-8.499999999994458
 21
-2.012279232133096E-13
 31
0.0
210
0.0
220
0.0
230
1.0
 40
0.4226182617
 41
6.033150896668443
 42
6.271420329891625
  0
ELLIPSE
  5
F1
330
75
100
AcDbEntity
  8
$DDT_AUDIT_GENERATED_(B7)
  6
Continuous
 62
     7
100
AcDbEllipse
 10
99.3562721661
 20
448.9450592606
 30
0.0
 11
-6.249999940556478
 21
-7.899479681494626E-9
 31
0.0
210
0.0
220
0.0
230
1.0
 40
0.4226182635
 41
-0.27780007238779
 42
-0.245798706739726
  0
LINE
  5
F2
330
75
100
AcDbEntity
  8
$DDT_AUDIT_GENERATED_(B7)
  6
Continuous
 62
     7
100
AcDbLine
 10
93.3458905058
 20
449.6694288758
 30
0.0
 11
93.3458905058
 21
450.3627852303
 31
0.0
  0
LINE
  5
F3
330
75
100
AcDbEntity
  8
$DDT_AUDIT_GENERATED_(B7)
  6
Continuous
 62
     7
100
AcDbLine
 10
93.3458905058
 20
449.6694288758
 30
0.0
 11
91.1723528179
 21
449.9155607659
 31
0.0
  0
LINE
  5
F4
330
75
100
AcDbEntity
  8
$DDT_AUDIT_GENERATED_(B7)
  6
Continuous
 62
     7
100
AcDbLine
 10
93.2941266968
 20
449.587785297
 30
0.0
 11
91.1205890089
 21
449.8339171872
 31
0.0
  0
ELLIPSE
  5
F5
330
75
100
AcDbEntity
  8
$DDT_AUDIT_GENERATED_(B7)
  6
Continuous
 62
     7
100
AcDbEllipse
 10
99.3562722255
 20
448.9450592539
 30
0.0
 11
-8.499999999995898
 21
-9.159339953157541E-13
 31
0.0
210
0.0
220
0.0
230
1.0
 40
0.4226182617
 41
-0.462921624833899
 42
-0.2735643650873509
  0
ELLIPSE
  5
F6
330
75
100
AcDbEntity
  8
$DDT_AUDIT_GENERATED_(B7)
  6
Continuous
 62
     7
100
AcDbEllipse
 10
99.3562722874
 20
448.9450592388
 30
0.0
 11
-6.250000062524748
 21
1.589552101055602E-8
 31
0.0
210
0.0
220
0.0
230
1.0
 40
0.4226182605
 41
-0.5395994547002774
 42
-0.5075980893924879
  0
LINE
  5
F7
330
75
100
AcDbEntity
  8
$DDT_AUDIT_GENERATED_(B7)
  6
Continuous
 62
     7
100
AcDbLine
 10
93.9943063165
 20
450.3021720788
 30
0.0
 11
93.9943063165
 21
451.1513567181
 31
0.0
  0
LINE
  5
F8
330
75
100
AcDbEntity
  8
$DDT_AUDIT_GENERATED_(B7)
  6
Continuous
 62
     7
100
AcDbLine
 10
93.9943063165
 20
450.3021720788
 30
0.0
 11
92.0686410835
 21
450.7720320217
 31
0.0
  0
LINE
  5
F9
330
75
100
AcDbEntity
  8
$DDT_AUDIT_GENERATED_(B7)
  6
Continuous
 62
     7
100
AcDbLine
 10
93.8943063165
 20
450.2289724486
 30
0.0
 11
91.9612389924
 21
450.7006384926
 31
0.0
  0
ELLIPSE
  5
FA
330
75
100
AcDbEntity
  8
$DDT_AUDIT_GENERATED_(B7)
  6
Continuous
 62
     7
100
AcDbEllipse
 10
99.3562722657
 20
448.9450592369
 30
0.0
 11
-6.250000042614583
 21
1.462321930212340E-8
 31
0.0
210
0.0
220
0.0
230
1.0
 40
0.4226182617
 41
-0.8013988428079157
 42
-0.7693974774627224
  0
LINE
  5
FB
330
75
100
AcDbEntity
  8
$DDT_AUDIT_GENERATED_(B7)
  6
Continuous
 62
     7
100
AcDbLine
 10
95.0081312429
 20
450.8424302855
 30
0.0
 11
95.0081312429
 21
451.9484350769
 31
0.0
  0
LINE
  5
FC
330
75
100
AcDbEntity
  8
$DDT_AUDIT_GENERATED_(B7)
  6
Continuous
 62
     7
100
AcDbLine
 10
95.0081312429
 20
450.8424302855
 30
0.0
 11
93.4962173267
 21
451.4813927167
 31
0.0
  0
LINE
  5
FD
330
75
100
AcDbEntity
  8
$DDT_AUDIT_GENERATED_(B7)
  6
Continuous
 62
     7
100
AcDbLine
 10
94.8667098866
 20
450.7826630378
 30
0.0
 11
93.3498627446
 21
451.4237103403
 31
0.0
  0
ELLIPSE
  5
FE
330
75
100
AcDbEntity
  8
$DDT_AUDIT_GENERATED_(B7)
  6
Continuous
 62
     7
100
AcDbEllipse
 10
99.3562722544
 20
448.9450592328
 30
0.0
 11
-6.250000036067089
 21
1.286594442095890E-8
 31
0.0
210
0.0
220
0.0
230
1.0
 40
0.4226182627
 41
-1.063198230997944
 42
-1.031196865655022
  0
LINE
  5
FF
330
75
100
AcDbEntity
  8
$DDT_AUDIT_GENERATED_(B7)
  6
Continuous
 62
     7
100
AcDbLine
 10
96.3182747915
 20
451.253385792
 30
0.0
 11
96.3182747915
 21
452.2091234895
 31
0.0
  0
LINE
  5
100
330
75
100
AcDbEntity
  8
$DDT_AUDIT_GENERATED_(B7)
  6
Continuous
 62
     7
100
AcDbLine
 10
96.3182747915
 20
451.253385792
 30
0.0
 11
95.281436799
 21
452.0123473678
 31
0.0
  0
LINE
  5
101
330
75
100
AcDbEntity
  8
$DDT_AUDIT_GENERATED_(B7)
  6
Continuous
 62
     7
100
AcDbLine
 10
96.1450697107
 20
451.2111239659
 30
0.0
 11
95.1057658555
 21
451.9718905441
 31
0.0
  0
ELLIPSE
  5
102
330
75
100
AcDbEntity
  8
$DDT_AUDIT_GENERATED_(B7)
  6
Continuous
 62
     7
100
AcDbEllipse
 10
99.3562722388
 20
448.9450592329
 30
0.0
 11
-6.250000027414533
 21
6.610607894419473E-9
 31
0.0
210
0.0
220
0.0
230
1.0
 40
0.4226182632
 41
-1.324997620202976
 42
-1.292996254843901
  0
LINE
  5
103
330
75
100
AcDbEntity
  8
$DDT_AUDIT_GENERATED_(B7)
  6
Continuous
 62
     7
100
AcDbLine
 10
97.8354528447
 20
451.5070326597
 30
0.0
 11
97.8354528447
 21
452.3839642873
 31
0.0
  0
LINE
  5
104
330
75
100
AcDbEntity
  8
$DDT_AUDIT_GENERATED_(B7)
  6
Continuous
 62
     7
100
AcDbLine
 10
97.8354528447
 20
451.5070326597
 30
0.0
 11
97.3090268431
 21
452.3373290294
 31
0.0
  0
LINE
  5
105
330
75
100
AcDbEntity
  8
$DDT_AUDIT_GENERATED_(B7)
  6
Continuous
 62
     7
100
AcDbLine
 10
97.6422676795
 20
451.4851563287
 30
0.0
 11
97.1151810989
 21
452.3164945852
 31
0.0
  0
ARC
  5
106
330
75
100
AcDbEntity
  8
$DDT_AUDIT_GENERATED_(B7)
  6
Continuous
 62
     7
100
AcDbCircle
 10
99.3562722255
 20
436.7992184613
 30
0.0
 40
14.7872049462946
100
AcDbArc
 50
89.6125284227
 51
90.3874715773
  0
LINE
  5
107
330
75
100
AcDbEntity
  8
$DDT_AUDIT_GENERATED_(B7)
  6
Continuous
 62
     7
100
AcDbLine
 10
99.4562722255
 20
451.5860852735
 30
0.0
 11
99.4562722255
 21
452.4403336816
 31
0.0
  0
LINE
  5
108
330
75
100
AcDbEntity
  8
$DDT_AUDIT_GENERATED_(B7)
  6
Continuous
 62
     7
100
AcDbLine
 10
99.2562722255
 20
451.5860852735
 30
0.0
 11
99.2562722255
 21
452.4403336816
 31
0.0
  0
ELLIPSE
  5
109
330
75
100
AcDbEntity
  8
$DDT_AUDIT_GENERATED_(B7)
  6
Continuous
 62
     7
100
AcDbEllipse
 10
99.3562722115
 20
448.9450592318
 30
0.0
 11
6.250000028928111
 21
6.980853395344155E-9
 31
0.0
210
0.0
220
0.0
230
1.0
 40
0.4226182633
 41
1.292996254762099
 42
1.324997620113938
  0
LINE
  5
10A
330
75
100
AcDbEntity
  8
$DDT_AUDIT_GENERATED_(B7)
  6
Continuous
 62
     7
100
AcDbLine
 10
101.0702767715
 20
451.4851563287
 30
0.0
 11
101.5973633521
 21
452.3164945852
 31
0.0
  0
LINE
  5
10B
330
75
100
AcDbEntity
  8
$DDT_AUDIT_GENERATED_(B7)
  6
Continuous
 62
     7
100
AcDbLine
 10
100.8770916063
 20
451.5070326597
 30
0.0
 11
101.4035176079
 21
452.3373290294
 31
0.0
  0
LINE
  5
10C
330
75
100
AcDbEntity
  8
$DDT_AUDIT_GENERATED_(B7)
  6
Continuous
 62
     7
100
AcDbLine
 10
100.8770916063
 20
451.5070326597
 30
0.0
 11
100.8770916063
 21
452.3839642873
 31
0.0
  0
ELLIPSE
  5
10D
330
75
100
AcDbEntity
  8
$DDT_AUDIT_GENERATED_(B7)
  6
Continuous
 62
     7
100
AcDbEllipse
 10
99.3562721967
 20
448.9450592328
 30
0.0
 11
6.250000036034501
 21
1.285141437712411E-8
 31
0.0
210
0.0
220
0.0
230
1.0
 40
0.4226182627
 41
1.031196865658912
 42
1.063198231001943
  0
LINE
  5
10E
330
75
100
AcDbEntity
  8
$DDT_AUDIT_GENERATED_(B7)
  6
Continuous
 62
     7
100
AcDbLine
 10
102.5674747403
 20
451.2111239659
 30
0.0
 11
103.6067785955
 21
451.9718905441
 31
0.0
  0
LINE
  5
10F
330
75
100
AcDbEntity
  8
$DDT_AUDIT_GENERATED_(B7)
  6
Continuous
 62
     7
100
AcDbLine
 10
102.3942696595
 20
451.253385792
 30
0.0
 11
103.431107652
 21
452.0123473678
 31
0.0
  0
LINE
  5
110
330
75
100
AcDbEntity
  8
$DDT_AUDIT_GENERATED_(B7)
  6
Continuous
 62
     7
100
AcDbLine
 10
102.3942696595
 20
451.253385792
 30
0.0
 11
102.3942696595
 21
452.2091234895
 31
0.0
  0
ELLIPSE
  5
111
330
75
100
AcDbEntity
  8
$DDT_AUDIT_GENERATED_(B7)
  6
Continuous
 62
     7
100
AcDbEllipse
 10
99.3562721752
 20
448.9450592326
 30
0.0
 11
6.250000053410403
 21
1.833268259421317E-8
 31
0.0
210
0.0
220
0.0
230
1.0
 40
0.4226182617
 41
0.7693974766579846
 42
0.8013988419661986
  0
LINE
  5
112
330
75
100
AcDbEntity
  8
$DDT_AUDIT_GENERATED_(B7)
  6
Continuous
 62
     7
100
AcDbLine
 10
103.8458345644
 20
450.7826630378
 30
0.0
 11
105.3626817064
 21
451.4237103403
 31
0.0
  0
LINE
  5
113
330
75
100
AcDbEntity
  8
$DDT_AUDIT_GENERATED_(B7)
  6
Continuous
 62
     7
100
AcDbLine
 10
103.7044132082
 20
450.8424302855
 30
0.0
 11
105.2163271244
 21
451.4813927167
 31
0.0
  0
LINE
  5
114
330
75
100
AcDbEntity
  8
$DDT_AUDIT_GENERATED_(B7)
  6
Continuous
 62
     7
100
AcDbLine
 10
103.7044132082
 20
450.8424302855
 30
0.0
 11
103.7044132082
 21
451.9484350769
 31
0.0
  0
ELLIPSE
  5
115
330
75
100
AcDbEntity
  8
$DDT_AUDIT_GENERATED_(B7)
  6
Continuous
 62
     7
100
AcDbEllipse
 10
99.3562721756
 20
448.9450592417
 30
0.0
 11
6.250000050399864
 21
1.284929801448342E-8
 31
0.0
210
0.0
220
0.0
230
1.0
 40
0.4226182608
 41
0.5075980900624459
 42
0.5395994554056227
  0
LINE
  5
116
330
75
100
AcDbEntity
  8
$DDT_AUDIT_GENERATED_(B7)
  6
Continuous
 62
     7
100
AcDbLine
 10
104.8182381345
 20
450.2289724486
 30
0.0
 11
106.7513054587
 21
450.7006384926
 31
0.0
  0
LINE
  5
117
330
75
100
AcDbEntity
  8
$DDT_AUDIT_GENERATED_(B7)
  6
Continuous
 62
     7
100
AcDbLine
 10
104.7182381345
 20
450.3021720788
 30
0.0
 11
106.6439033676
 21
450.7720320217
 31
0.0
  0
LINE
  5
118
330
75
100
AcDbEntity
  8
$DDT_AUDIT_GENERATED_(B7)
  6
Continuous
 62
     7
100
AcDbLine
 10
104.7182381345
 20
450.3021720788
 30
0.0
 11
104.7182381345
 21
451.1513567181
 31
0.0
  0
ELLIPSE
  5
119
330
75
100
AcDbEntity
  8
$DDT_AUDIT_GENERATED_(B7)
  6
Continuous
 62
     7
100
AcDbEllipse
 10
99.3562726483
 20
448.9450593018
 30
0.0
 11
8.499999576953137
 21
-5.637407901604163E-8
 31
0.0
210
0.0
220
0.0
230
1.0
 40
0.4226182712
 41
0.2500344194480547
 42
0.273564374630085
  0
ELLIPSE
  5
11A
330
75
100
AcDbEntity
  8
$DDT_AUDIT_GENERATED_(B7)
  6
Continuous
 62
     7
100
AcDbEllipse
 10
99.3562722255
 20
448.9450592539
 30
0.0
 11
8.500000000027393
 21
5.558054017029690E-12
 31
0.0
210
0.0
220
0.0
230
1.0
 40
0.4226182617
 41
0.2735643650865573
 42
0.4629216248327204
  0
ELLIPSE
  5
11B
330
75
100
AcDbEntity
  8
$DDT_AUDIT_GENERATED_(B7)
  6
Continuous
 62
     7
100
AcDbEllipse
 10
99.35627217
 20
448.9450592476
 30
0.0
 11
6.250000055522309
 21
7.402953250412736E-9
 31
0.0
210
0.0
220
0.0
230
1.0
 40
0.4226182601
 41
0.2457987034777094
 42
0.2778000688212944
  0
LINE
  5
11C
330
75
100
AcDbEntity
  8
$DDT_AUDIT_GENERATED_(B7)
  6
Continuous
 62
     7
100
AcDbLine
 10
105.4184177542
 20
449.587785297
 30
0.0
 11
107.5919554422
 21
449.8339171872
 31
0.0
  0
LINE
  5
11D
330
75
100
AcDbEntity
  8
$DDT_AUDIT_GENERATED_(B7)
  6
Continuous
 62
     7
100
AcDbLine
 10
105.3666539452
 20
449.6694288758
 30
0.0
 11
107.5401916331
 21
449.9155607659
 31
0.0
  0
LINE
  5
11E
330
75
100
AcDbEntity
  8
$DDT_AUDIT_GENERATED_(B7)
  6
Continuous
 62
     7
100
AcDbLine
 10
105.3666539452
 20
449.6694288758
 30
0.0
 11
105.3666539452
 21
450.3627852303
 31
0.0
  0
ARC
  5
11F
330
75
100
AcDbEntity
  8
$DDT_AUDIT_GENERATED_(B7)
  6
Continuous
 62
     7
100
AcDbCircle
 10
106.3376363771
 20
448.9450592539
 30
0.0
 40
1.518635754795119
100
AcDbArc
 50
358.4053207505
 51
1.5946792494
  0
ELLIPSE
  5
120
330
75
100
AcDbEntity
  8
$DDT_AUDIT_GENERATED_(B7)
  6
Continuous
 62
     7
100
AcDbEllipse
 10
99.3562722255
 20
448.9450592539
 30
0.0
 11
8.499999999997563
 21
-6.106226635438361E-13
 31
0.0
210
0.0
220
0.0
230
1.0
 40
0.4226182617
 41
0.0117649772880553
 42
0.2500344105111282
  0
ARC
  5
121
330
75
100
AcDbEntity
  8
$DDT_AUDIT_GENERATED_(B7)
  6
Continuous
 62
     7
100
AcDbCircle
 10
104.4893263487
 20
448.9450592539
 30
0.0
 40
1.116945641477811
100
AcDbArc
 50
0.0
 51
2.1684156534
  0
LINE
  5
122
330
75
100
AcDbEntity
  8
$DDT_AUDIT_GENERATED_(B7)
  6
Continuous
 62
     7
100
AcDbLine
 10
105.6062722255
 20
448.9027974277
 30
0.0
 11
107.8556839699
 21
448.9027974277
 31
0.0
  0
LINE
  5
123
330
75
100
AcDbEntity
  8
$DDT_AUDIT_GENERATED_(B7)
  6
Continuous
 62
     7
100
AcDbLine
 10
105.6054721743
 20
448.9873210801
 30
0.0
 11
107.8556839699
 21
448.9873210801
 31
0.0
  0
LINE
  5
124
330
75
100
AcDbEntity
  8
$DDT_AUDIT_GENERATED_(B7)
  6
Continuous
 62
     7
100
AcDbLine
 10
105.6054721743
 20
448.9873210801
 30
0.0
 11
105.6054721743
 21
449.6089673811
 31
0.0
  0
ELLIPSE
  5
125
330
75
100
AcDbEntity
  8
$DDT_AUDIT_GENERATED_(B7)
  6
Continuous
 62
     7
100
AcDbEllipse
 10
99.3562726816
 20
448.9450592023
 30
0.0
 11
8.499999543675928
 21
6.071480818103936E-8
 31
0.0
210
0.0
220
0.0
230
1.0
 40
0.4226182719
 41
-0.2735643753763561
 42
-0.2500344201467071
  0
ELLIPSE
  5
126
330
75
100
AcDbEntity
  8
$DDT_AUDIT_GENERATED_(B7)
  6
Continuous
 62
     7
100
AcDbEllipse
 10
99.3562722255
 20
448.9450592539
 30
0.0
 11
8.500000000026208
 21
-1.623701173514291E-12
 31
0.0
210
0.0
220
0.0
230
1.0
 40
0.4226182617
 41
6.033150896668989
 42
6.271420329891568
  0
LINE
  5
127
330
75
100
AcDbEntity
  8
$DDT_AUDIT_GENERATED_(B7)
  6
Continuous
 62
     7
100
AcDbLine
 10
107.5919554422
 20
448.0562013206
 30
0.0
 11
107.5919554422
 21
448.9027974277
 31
0.0
  0
LINE
  5
128
330
75
100
AcDbEntity
  8
$DDT_AUDIT_GENERATED_(B7)
  6
Continuous
 62
     7
100
AcDbLine
 10
105.4670144059
 20
448.2093247912
 30
0.0
 11
107.5401916331
 21
447.9745577419
 31
0.0
  0
LINE
  5
129
330
75
100
AcDbEntity
  8
$DDT_AUDIT_GENERATED_(B7)
  6
Continuous
 62
     7
100
AcDbLine
 10
105.5059428778
 20
448.2924218463
 30
0.0
 11
107.5919554422
 21
448.0562013206
 31
0.0
  0
ELLIPSE
  5
12A
330
75
100
AcDbEntity
  8
$DDT_AUDIT_GENERATED_(B7)
  6
Continuous
 62
     7
100
AcDbEllipse
 10
99.3562726042
 20
448.9450591615
 30
0.0
 11
8.499999617406116
 21
9.739448136869555E-8
 31
0.0
210
0.0
220
0.0
230
1.0
 40
0.4226182672
 41
-0.5353637691712931
 42
-0.511833813989977
  0
ELLIPSE
  5
12B
330
75
100
AcDbEntity
  8
$DDT_AUDIT_GENERATED_(B7)
  6
Continuous
 62
     7
100
AcDbEllipse
 10
99.3562722255
 20
448.9450592539
 30
0.0
 11
8.499999999997659
 21
5.759281940243000E-13
 31
0.0
210
0.0
220
0.0
230
1.0
 40
0.4226182617
 41
-0.5118337983103078
 42
-0.2735643650873101
  0
LINE
  5
12C
330
75
100
AcDbEntity
  8
$DDT_AUDIT_GENERATED_(B7)
  6
Continuous
 62
     7
100
AcDbLine
 10
106.7669787133
 20
447.1856557604
 30
0.0
 11
106.7669787133
 21
448.0621165445
 31
0.0
  0
LINE
  5
12D
330
75
100
AcDbEntity
  8
$DDT_AUDIT_GENERATED_(B7)
  6
Continuous
 62
     7
100
AcDbLine
 10
104.8995436785
 20
447.5437080998
 30
0.0
 11
106.6669787133
 21
447.1124561302
 31
0.0
  0
LINE
  5
12E
330
75
100
AcDbEntity
  8
$DDT_AUDIT_GENERATED_(B7)
  6
Continuous
 62
     7
100
AcDbLine
 10
104.989230489
 20
447.6194241355
 30
0.0
 11
106.7669787133
 21
447.1856557604
 31
0.0
  0
ELLIPSE
  5
12F
330
75
100
AcDbEntity
  8
$DDT_AUDIT_GENERATED_(B7)
  6
Continuous
 62
     7
100
AcDbEllipse
 10
99.3562725347
 20
448.9450591233
 30
0.0
 11
8.499999672083238
 21
1.124830367738028E-7
 31
0.0
210
0.0
220
0.0
230
1.0
 40
0.4226182617
 41
-0.7971631594451383
 42
-0.7736332042638727
  0
ELLIPSE
  5
130
330
75
100
AcDbEntity
  8
$DDT_AUDIT_GENERATED_(B7)
  6
Continuous
 62
     7
100
AcDbEllipse
 10
99.3562722255
 20
448.9450592539
 30
0.0
 11
8.500000000026205
 21
-7.827072323607354E-12
 31
0.0
210
0.0
220
0.0
230
1.0
 40
0.4226182617
 41
-0.7736331861078316
 42
-0.5353637528853099
  0
LINE
  5
131
330
75
100
AcDbEntity
  8
$DDT_AUDIT_GENERATED_(B7)
  6
Continuous
 62
     7
100
AcDbLine
 10
105.4369745842
 20
446.4350106407
 30
0.0
 11
105.4369745842
 21
447.4125756214
 31
0.0
  0
LINE
  5
132
330
75
100
AcDbEntity
  8
$DDT_AUDIT_GENERATED_(B7)
  6
Continuous
 62
     7
100
AcDbLine
 10
103.9170914564
 20
446.9578065107
 30
0.0
 11
105.2955532279
 21
446.3752433929
 31
0.0
  0
LINE
  5
133
330
75
100
AcDbEntity
  8
$DDT_AUDIT_GENERATED_(B7)
  6
Continuous
 62
     7
100
AcDbLine
 10
104.0516414131
 20
447.0204777373
 30
0.0
 11
105.4369745842
 21
446.4350106407
 31
0.0
  0
ELLIPSE
  5
134
330
75
100
AcDbEntity
  8
$DDT_AUDIT_GENERATED_(B7)
  6
Continuous
 62
     7
100
AcDbEllipse
 10
99.3562724619
 20
448.9450590809
 30
0.0
 11
8.499999704538048
 21
1.053188161681540E-7
 31
0.0
210
0.0
220
0.0
230
1.0
 40
0.4226182559
 41
-1.058962546090134
 42
-1.035432590859618
  0
ELLIPSE
  5
135
330
75
100
AcDbEntity
  8
$DDT_AUDIT_GENERATED_(B7)
  6
Continuous
 62
     7
100
AcDbEllipse
 10
99.3562722255
 20
448.9450592539
 30
0.0
 11
8.49999999999668
 21
1.269817584415023E-12
 31
0.0
210
0.0
220
0.0
230
1.0
 40
0.4226182617
 41
-1.035432573908745
 42
-0.7971631406857096
  0
LINE
  5
136
330
75
100
AcDbEntity
  8
$DDT_AUDIT_GENERATED_(B7)
  6
Continuous
 62
     7
100
AcDbLine
 10
103.6925806381
 20
445.8554211859
 30
0.0
 11
103.6925806381
 21
446.8615962641
 31
0.0
  0
LINE
  5
137
330
75
100
AcDbEntity
  8
$DDT_AUDIT_GENERATED_(B7)
  6
Continuous
 62
     7
100
AcDbLine
 10
102.5798654299
 20
446.5008772982
 30
0.0
 11
103.5193755573
 21
445.8131593597
 31
0.0
  0
LINE
  5
138
330
75
100
AcDbEntity
  8
$DDT_AUDIT_GENERATED_(B7)
  6
Continuous
 62
     7
100
AcDbLine
 10
102.7496368374
 20
446.5456525605
 30
0.0
 11
103.6925806381
 21
445.8554211859
 31
0.0
  0
ELLIPSE
  5
139
330
75
100
AcDbEntity
  8
$DDT_AUDIT_GENERATED_(B7)
  6
Continuous
 62
     7
100
AcDbEllipse
 10
99.3562723455
 20
448.9450590646
 30
0.0
 11
8.499999752641097
 21
5.963718407997476E-8
 31
0.0
210
0.0
220
0.0
230
1.0
 40
0.4226182518
 41
-1.320761926390912
 42
-1.297231971172913
  0
ELLIPSE
  5
13A
330
75
100
AcDbEntity
  8
$DDT_AUDIT_GENERATED_(B7)
  6
Continuous
 62
     7
100
AcDbEllipse
 10
99.3562722255
 20
448.9450592539
 30
0.0
 11
8.500000000016771
 21
-5.495603971894525E-12
 31
0.0
210
0.0
220
0.0
230
1.0
 40
0.4226182617
 41
-1.297231961706568
 42
-1.058962528484011
  0
LINE
  5
13B
330
75
100
AcDbEntity
  8
$DDT_AUDIT_GENERATED_(B7)
  6
Continuous
 62
     7
100
AcDbLine
 10
101.6526744398
 20
445.4863854596
 30
0.0
 11
101.6526744398
 21
446.3071879771
 31
0.0
  0
LINE
  5
13C
330
75
100
AcDbEntity
  8
$DDT_AUDIT_GENERATED_(B7)
  6
Continuous
 62
     7
100
AcDbLine
 10
100.9845215119
 20
446.2136438747
 30
0.0
 11
101.4594892745
 21
445.4645091286
 31
0.0
  0
LINE
  5
13D
330
75
100
AcDbEntity
  8
$DDT_AUDIT_GENERATED_(B7)
  6
Continuous
 62
     7
100
AcDbLine
 10
101.176787024
 20
446.2369707127
 30
0.0
 11
101.6526744398
 21
445.4863854596
 31
0.0
  0
ARC
  5
13E
330
75
100
AcDbEntity
  8
$DDT_AUDIT_GENERATED_(B7)
  6
Continuous
 62
     7
100
AcDbCircle
 10
99.3562722255
 20
459.1432013311
 30
0.0
 40
12.41688823285098
100
AcDbArc
 50
269.1924632648
 51
270.8075367352
  0
LINE
  5
13F
330
75
100
AcDbEntity
  8
$DDT_AUDIT_GENERATED_(B7)
  6
Continuous
 62
     7
100
AcDbLine
 10
99.1812722255
 20
447.6039530792
 30
0.0
 11
99.1812722255
 21
446.7275463589
 31
0.0
  0
LINE
  5
140
330
75
100
AcDbEntity
  8
$DDT_AUDIT_GENERATED_(B7)
  6
Continuous
 62
     7
100
AcDbLine
 10
99.5312722255
 20
447.6039530792
 30
0.0
 11
99.5312722255
 21
446.7275463589
 31
0.0
  0
ELLIPSE
  5
141
330
75
100
AcDbEntity
  8
$DDT_AUDIT_GENERATED_(B7)
  6
Continuous
 62
     7
100
AcDbEllipse
 10
99.3562722258
 20
448.9450592541
 30
0.0
 11
-5.250000000379322
 21
-1.363423263178731E-10
 31
0.0
210
0.0
220
0.0
230
1.0
 40
0.4226182618
 41
1.01385804190146
 42
1.080537060420179
  0
LINE
  5
142
330
75
100
AcDbEntity
  8
$DDT_AUDIT_GENERATED_(B7)
  6
Continuous
 62
     7
100
AcDbLine
 10
97.657856218
 20
447.8497414095
 30
0.0
 11
96.5811765185
 21
447.0616158516
 31
0.0
  0
LINE
  5
143
330
75
100
AcDbEntity
  8
$DDT_AUDIT_GENERATED_(B7)
  6
Continuous
 62
     7
100
AcDbLine
 10
97.9472484183
 20
447.7657426466
 30
0.0
 11
96.8842854098
 21
446.9876576557
 31
0.0
  0
LINE
  5
144
330
75
100
AcDbEntity
  8
$DDT_AUDIT_GENERATED_(B7)
  6
Continuous
 62
     7
100
AcDbLine
 10
96.5811765185
 20
448.1825397541
 30
0.0
 11
96.5811765185
 21
447.0616158516
 31
0.0
  0
ELLIPSE
  5
145
330
75
100
AcDbEntity
  8
$DDT_AUDIT_GENERATED_(B7)
  6
Continuous
 62
     7
100
AcDbEllipse
 10
99.3562722224
 20
448.9450592532
 30
0.0
 11
-5.249999996887064
 21
7.894171427658138E-10
 31
0.0
210
0.0
220
0.0
230
1.0
 40
0.4226182618
 41
0.4902592665361295
 42
0.5569382850813199
  0
LINE
  5
146
330
75
100
AcDbEntity
  8
$DDT_AUDIT_GENERATED_(B7)
  6
Continuous
 62
     7
100
AcDbLine
 10
96.7489728076
 20
448.3942809788
 30
0.0
 11
94.7246654651
 21
447.9003524828
 31
0.0
  0
LINE
  5
147
330
75
100
AcDbEntity
  8
$DDT_AUDIT_GENERATED_(B7)
  6
Continuous
 62
     7
100
AcDbLine
 10
96.8825664978
 20
448.2560785375
 30
0.0
 11
94.8996654651
 21
447.77225313
 31
0.0
  0
LINE
  5
148
330
75
100
AcDbEntity
  8
$DDT_AUDIT_GENERATED_(B7)
  6
Continuous
 62
     7
100
AcDbLine
 10
94.7246654651
 20
448.8711010581
 30
0.0
 11
94.7246654651
 21
447.9003524828
 31
0.0
  0
LINE
  5
149
330
75
100
AcDbEntity
  8
$DDT_AUDIT_GENERATED_(B7)
  6
Continuous
 62
     7
100
AcDbLine
 10
96.611846056
 20
449.5292962874
 30
0.0
 11
96.611846056
 21
449.0190174497
 31
0.0
  0
ELLIPSE
  5
14A
330
75
100
AcDbEntity
  8
$DDT_AUDIT_GENERATED_(B7)
  6
Continuous
 62
     7
100
AcDbEllipse
 10
99.3562722255
 20
448.9450592539
 30
0.0
 11
2.750000000000392
 21
-1.047772979489991E-12
 31
0.0
210
0.0
220
0.0
230
1.0
 40
0.4226182617
 41
3.077913261332916
 42
3.141592653589766
  0
LINE
  5
14B
330
75
100
AcDbEntity
  8
$DDT_AUDIT_GENERATED_(B7)
  6
Continuous
 62
     7
100
AcDbLine
 10
96.611846056
 20
449.0190174497
 30
0.0
 11
94.141120922
 21
449.0190174497
 31
0.0
  0
LINE
  5
14C
330
75
100
AcDbEntity
  8
$DDT_AUDIT_GENERATED_(B7)
  6
Continuous
 62
     7
100
AcDbLine
 10
96.6062722255
 20
448.8711010581
 30
0.0
 11
94.1124154305
 21
448.8711010581
 31
0.0
  0
LINE
  5
14D
330
75
100
AcDbEntity
  8
$DDT_AUDIT_GENERATED_(B7)
  6
Continuous
 62
     7
100
AcDbLine
 10
97.0670294439
 20
450.4728601118
 30
0.0
 11
97.0670294439
 21
449.5890312389
 31
0.0
  0
ELLIPSE
  5
14E
330
75
100
AcDbEntity
  8
$DDT_AUDIT_GENERATED_(B7)
  6
Continuous
 62
     7
100
AcDbEllipse
 10
99.3562722255
 20
448.9450592539
 30
0.0
 11
-2.749999999991908
 21
-1.644517855226013E-12
 31
0.0
210
0.0
220
0.0
230
1.0
 40
0.4226182617
 41
-0.5872781678563888
 42
-0.4599193833421342
  0
LINE
  5
14F
330
75
100
AcDbEntity
  8
$DDT_AUDIT_GENERATED_(B7)
  6
Continuous
 62
     7
100
AcDbLine
 10
97.0670294439
 20
449.5890312389
 30
0.0
 11
95.1075534604
 21
450.0671409632
 31
0.0
  0
LINE
  5
150
330
75
100
AcDbEntity
  8
$DDT_AUDIT_GENERATED_(B7)
  6
Continuous
 62
     7
100
AcDbLine
 10
96.8920294439
 20
449.4609318861
 30
0.0
 11
94.9110424414
 21
449.9442902726
 31
0.0
  0
LINE
  5
151
330
75
100
AcDbEntity
  8
$DDT_AUDIT_GENERATED_(B7)
  6
Continuous
 62
     7
100
AcDbLine
 10
98.1356135864
 20
450.9217385394
 30
0.0
 11
98.1356135864
 21
449.9864932548
 31
0.0
  0
ELLIPSE
  5
152
330
75
100
AcDbEntity
  8
$DDT_AUDIT_GENERATED_(B7)
  6
Continuous
 62
     7
100
AcDbEllipse
 10
99.3562722255
 20
448.9450592539
 30
0.0
 11
-2.749999999930293
 21
-2.462613446496675E-11
 31
0.0
210
0.0
220
0.0
230
1.0
 40
0.4226182617
 41
-1.110876943467463
 42
-0.9835181589508295
  0
LINE
  5
153
330
75
100
AcDbEntity
  8
$DDT_AUDIT_GENERATED_(B7)
  6
Continuous
 62
     7
100
AcDbLine
 10
98.1356135864
 20
449.9864932548
 30
0.0
 11
97.0757788504
 21
450.7622883618
 31
0.0
  0
LINE
  5
154
330
75
100
AcDbEntity
  8
$DDT_AUDIT_GENERATED_(B7)
  6
Continuous
 62
     7
100
AcDbLine
 10
97.8325046951
 20
449.912535059
 30
0.0
 11
96.7655116403
 21
450.6935700288
 31
0.0
  0
ARC
  5
155
330
75
100
AcDbEntity
  8
$DDT_AUDIT_GENERATED_(B7)
  6
Continuous
 62
     7
100
AcDbCircle
 10
99.3562722255
 20
443.6110383239
 30
0.0
 40
6.496223113856303
100
AcDbArc
 50
88.4563377267
 51
91.5436622733
  0
LINE
  5
156
330
75
100
AcDbEntity
  8
$DDT_AUDIT_GENERATED_(B7)
  6
Continuous
 62
     7
100
AcDbLine
 10
99.5312722255
 20
450.1049038711
 30
0.0
 11
99.5312722255
 21
450.9813105914
 31
0.0
  0
LINE
  5
157
330
75
100
AcDbEntity
  8
$DDT_AUDIT_GENERATED_(B7)
  6
Continuous
 62
     7
100
AcDbLine
 10
99.1812722255
 20
450.1049038711
 30
0.0
 11
99.1812722255
 21
450.9813105914
 31
0.0
  0
ELLIPSE
  5
158
330
75
100
AcDbEntity
  8
$DDT_AUDIT_GENERATED_(B7)
  6
Continuous
 62
     7
100
AcDbEllipse
 10
99.3562722255
 20
448.9450592539
 30
0.0
 11
2.749999999993213
 21
-2.171873791922962E-12
 31
0.0
210
0.0
220
0.0
230
1.0
 40
0.4226182617
 41
0.9835181589407204
 42
1.110876943455006
  0
LINE
  5
159
330
75
100
AcDbEntity
  8
$DDT_AUDIT_GENERATED_(B7)
  6
Continuous
 62
     7
100
AcDbLine
 10
100.5769308646
 20
450.9217385394
 30
0.0
 11
100.5769308646
 21
449.9864932548
 31
0.0
  0
LINE
  5
15A
330
75
100
AcDbEntity
  8
$DDT_AUDIT_GENERATED_(B7)
  6
Continuous
 62
     7
100
AcDbLine
 10
100.8800397559
 20
449.912535059
 30
0.0
 11
101.9470328107
 21
450.6935700288
 31
0.0
  0
LINE
  5
15B
330
75
100
AcDbEntity
  8
$DDT_AUDIT_GENERATED_(B7)
  6
Continuous
 62
     7
100
AcDbLine
 10
100.5769308646
 20
449.9864932548
 30
0.0
 11
101.6367656006
 21
450.7622883618
 31
0.0
  0
ELLIPSE
  5
15C
330
75
100
AcDbEntity
  8
$DDT_AUDIT_GENERATED_(B7)
  6
Continuous
 62
     7
100
AcDbEllipse
 10
99.3562722255
 20
448.9450592539
 30
0.0
 11
2.750000000005802
 21
1.054711873393899E-12
 31
0.0
210
0.0
220
0.0
230
1.0
 40
0.4226182617
 41
0.4599193833406723
 42
0.5872781678545553
  0
LINE
  5
15D
330
75
100
AcDbEntity
  8
$DDT_AUDIT_GENERATED_(B7)
  6
Continuous
 62
     7
100
AcDbLine
 10
101.6455150071
 20
450.4728601118
 30
0.0
 11
101.6455150071
 21
449.5890312389
 31
0.0
  0
LINE
  5
15E
330
75
100
AcDbEntity
  8
$DDT_AUDIT_GENERATED_(B7)
  6
Continuous
 62
     7
100
AcDbLine
 10
101.8205150071
 20
449.4609318861
 30
0.0
 11
103.8015020097
 21
449.9442902726
 31
0.0
  0
LINE
  5
15F
330
75
100
AcDbEntity
  8
$DDT_AUDIT_GENERATED_(B7)
  6
Continuous
 62
     7
100
AcDbLine
 10
101.6455150071
 20
449.5890312389
 30
0.0
 11
103.6049909907
 21
450.0671409632
 31
0.0
  0
ELLIPSE
  5
160
330
75
100
AcDbEntity
  8
$DDT_AUDIT_GENERATED_(B7)
  6
Continuous
 62
     7
100
AcDbEllipse
 10
99.3562722255
 20
448.9450592539
 30
0.0
 11
-2.749999999996603
 21
1.040834085586084E-12
 31
0.0
210
0.0
220
0.0
230
1.0
 40
0.4226182617
 41
3.141592653589759
 42
3.205272045846984
  0
LINE
  5
161
330
75
100
AcDbEntity
  8
$DDT_AUDIT_GENERATED_(B7)
  6
Continuous
 62
     7
100
AcDbLine
 10
102.100698395
 20
449.5292962874
 30
0.0
 11
102.100698395
 21
449.0190174497
 31
0.0
  0
LINE
  5
162
330
75
100
AcDbEntity
  8
$DDT_AUDIT_GENERATED_(B7)
  6
Continuous
 62
     7
100
AcDbLine
 10
102.1062722255
 20
448.8711010581
 30
0.0
 11
104.6001290206
 21
448.8711010581
 31
0.0
  0
LINE
  5
163
330
75
100
AcDbEntity
  8
$DDT_AUDIT_GENERATED_(B7)
  6
Continuous
 62
     7
100
AcDbLine
 10
102.100698395
 20
449.0190174497
 30
0.0
 11
104.571423529
 21
449.0190174497
 31
0.0
  0
ELLIPSE
  5
164
330
75
100
AcDbEntity
  8
$DDT_AUDIT_GENERATED_(B7)
  6
Continuous
 62
     7
100
AcDbEllipse
 10
99.3562722263
 20
448.9450592537
 30
0.0
 11
5.249999999195489
 21
2.046487979079359E-10
 31
0.0
210
0.0
220
0.0
230
1.0
 40
0.4226182618
 41
-0.556938284916864
 42
-0.4902592663884136
  0
LINE
  5
165
330
75
100
AcDbEntity
  8
$DDT_AUDIT_GENERATED_(B7)
  6
Continuous
 62
     7
100
AcDbLine
 10
101.8299779532
 20
448.2560785375
 30
0.0
 11
103.8128789859
 21
447.77225313
 31
0.0
  0
LINE
  5
166
330
75
100
AcDbEntity
  8
$DDT_AUDIT_GENERATED_(B7)
  6
Continuous
 62
     7
100
AcDbLine
 10
101.9635716434
 20
448.3942809788
 30
0.0
 11
103.9878789859
 21
447.9003524828
 31
0.0
  0
LINE
  5
167
330
75
100
AcDbEntity
  8
$DDT_AUDIT_GENERATED_(B7)
  6
Continuous
 62
     7
100
AcDbLine
 10
103.9878789859
 20
448.8711010581
 30
0.0
 11
103.9878789859
 21
447.9003524828
 31
0.0
  0
ELLIPSE
  5
168
330
75
100
AcDbEntity
  8
$DDT_AUDIT_GENERATED_(B7)
  6
Continuous
 62
     7
100
AcDbEllipse
 10
99.3562722262
 20
448.9450592534
 30
0.0
 11
5.249999999098793
 21
3.200217868482014E-10
 31
0.0
210
0.0
220
0.0
230
1.0
 40
0.4226182617
 41
-1.080537060548253
 42
-1.013858042016497
  0
LINE
  5
169
330
75
100
AcDbEntity
  8
$DDT_AUDIT_GENERATED_(B7)
  6
Continuous
 62
     7
100
AcDbLine
 10
100.7652960327
 20
447.7657426466
 30
0.0
 11
101.8282590412
 21
446.9876576557
 31
0.0
  0
LINE
  5
16A
330
75
100
AcDbEntity
  8
$DDT_AUDIT_GENERATED_(B7)
  6
Continuous
 62
     7
100
AcDbLine
 10
101.054688233
 20
447.8497414095
 30
0.0
 11
102.1313679325
 21
447.0616158516
 31
0.0
  0
LINE
  5
16B
330
75
100
AcDbEntity
  8
$DDT_AUDIT_GENERATED_(B7)
  6
Continuous
 62
     7
100
AcDbLine
 10
102.1313679325
 20
448.1825397541
 30
0.0
 11
102.1313679325
 21
447.0616158516
 31
0.0
  0
LINE
  5
16C
330
75
100
AcDbEntity
  8
$DDT_AUDIT_GENERATED_(B7)
  6
Continuous
 62
     7
100
AcDbLine
 10
90.3562722255
 20
450.9041227094
 30
0.0
 11
90.3562722255
 21
448.7637976965
 31
0.0
  0
LINE
  5
16D
330
75
100
AcDbEntity
  8
$DDT_AUDIT_GENERATED_(B7)
  6
Continuous
 62
     7
100
AcDbLine
 10
108.3562722255
 20
448.7637976965
 30
0.0
 11
108.3562722255
 21
450.9041227094
 31
0.0
  0
LINE
  5
16E
330
75
100
AcDbEntity
  8
$DDT_AUDIT_GENERATED_(B7)
  6
Continuous
 62
     7
100
AcDbLine
 10
93.1062722255
 20
448.9450592539
 30
0.0
 11
93.1062722255
 21
448.7637976965
 31
0.0
  0
LINE
  5
16F
330
75
100
AcDbEntity
  8
$DDT_AUDIT_GENERATED_(B7)
  6
Continuous
 62
     7
100
AcDbLine
 10
105.6062722255
 20
448.7637976965
 30
0.0
 11
105.6062722255
 21
448.9450592539
 31
0.0
  0
LINE
  5
170
330
75
100
AcDbEntity
  8
$DDT_AUDIT_GENERATED_(B7)
  6
Continuous
 62
     7
100
AcDbLine
 10
96.6062722255
 20
448.9450592539
 30
0.0
 11
96.6062722255
 21
448.7637976965
 31
0.0
  0
LINE
  5
171
330
75
100
AcDbEntity
  8
$DDT_AUDIT_GENERATED_(B7)
  6
Continuous
 62
     7
100
AcDbLine
 10
102.1062722255
 20
448.7637976965
 30
0.0
 11
102.1062722255
 21
448.9450592539
 31
0.0
  0
LINE
  5
172
330
75
100
AcDbEntity
  8
$DDT_AUDIT_GENERATED_(B7)
  6
Continuous
 62
     7
100
AcDbLine
 10
98.8366422816
 20
449.1739770692
 30
0.0
 11
98.8366422816
 21
448.9450592539
 31
0.0
  0
LINE
  5
173
330
75
100
AcDbEntity
  8
$DDT_AUDIT_GENERATED_(B7)
  6
Continuous
 62
     7
100
AcDbLine
 10
99.8759021694
 20
448.9450592539
 30
0.0
 11
99.8759021694
 21
449.1739770692
 31
0.0
  0
ENDBLK
  5
175
330
75
100
AcDbEntity
  8
0
100
AcDbBlockEnd
  0
BLOCK
  5
1BC
330
176
100
AcDbEntity
  8
0
100
AcDbBlockBegin
  2
SE1
 70
     0
 10
0.0
 20
0.0
 30
0.0
  3
SE1
  1

  0
LINE
  5
178
330
176
100
AcDbEntity
  8
$DDT_AUDIT_GENERATED_(77)
  6
Continuous
 62
     7
100
AcDbLine
 10
301.9089803968
 20
510.5864207501
 30
0.0
 11
256.9089803968
 21
510.5864207501
 31
0.0
  0
LINE
  5
179
330
176
100
AcDbEntity
  8
$DDT_AUDIT_GENERATED_(77)
  6
Continuous
 62
     7
100
AcDbLine
 10
291.7539170487
 20
443.5861178656
 30
0.0
 11
291.7539170487
 21
482.0861178656
 31
0.0
  0
LINE
  5
17A
330
176
100
AcDbEntity
  8
$DDT_AUDIT_GENERATED_(77)
  6
Continuous
 62
     7
100
AcDbLine
 10
302.4089803968
 20
443.5861178656
 30
0.0
 11
291.7539170487
 21
443.5861178656
 31
0.0
  0
LINE
  5
17B
330
176
100
AcDbEntity
  8
$DDT_AUDIT_GENERATED_(77)
  6
Continuous
 62
     7
100
AcDbLine
 10
291.7539170487
 20
482.0861178656
 30
0.0
 11
302.4089803968
 21
482.0861178656
 31
0.0
  0
LINE
  5
17C
330
176
100
AcDbEntity
  8
$DDT_AUDIT_GENERATED_(77)
  6
Continuous
 62
     7
100
AcDbLine
 10
305.1723264528
 20
480.5861178656
 30
0.0
 11
391.4089803968
 21
480.5861178656
 31
0.0
  0
LINE
  5
17D
330
176
100
AcDbEntity
  8
$DDT_AUDIT_GENERATED_(77)
  6
Continuous
 62
     7
100
AcDbLine
 10
298.1527582659
 20
480.5861178656
 30
0.0
 11
305.1723264528
 21
480.5861178656
 31
0.0
  0
LINE
  5
17E
330
176
100
AcDbEntity
  8
$DDT_AUDIT_GENERATED_(77)
  6
Continuous
 62
     7
100
AcDbLine
 10
391.4089803968
 20
480.5861178656
 30
0.0
 11
398.7089803968
 21
480.5861178656
 31
0.0
  0
LINE
  5
17F
330
176
100
AcDbEntity
  8
$DDT_AUDIT_GENERATED_(77)
  6
Continuous
 62
     7
100
AcDbLine
 10
399.4089803968
 20
479.8861178656
 30
0.0
 11
399.4089803968
 21
459.2861178656
 31
0.0
  0
LINE
  5
180
330
176
100
AcDbEntity
  8
$DDT_AUDIT_GENERATED_(77)
  6
Continuous
 62
     7
100
AcDbLine
 10
305.1723264528
 20
479.8861178656
 30
0.0
 11
305.1723264528
 21
456.9201137139
 31
0.0
  0
ARC
  5
181
330
176
100
AcDbEntity
  8
$DDT_AUDIT_GENERATED_(77)
  6
Continuous
 62
     7
100
AcDbCircle
 10
398.7089803968
 20
479.8861178656
 30
0.0
 40
0.7000000000000062
100
AcDbArc
 50
0.0
 51
90.0
  0
ARC
  5
182
330
176
100
AcDbEntity
  8
$DDT_AUDIT_GENERATED_(77)
  6
Continuous
 62
     7
100
AcDbCircle
 10
314.5001838016
 20
439.5118574772
 30
0.0
 40
19.07448117214735
100
AcDbArc
 50
90.2756736145
 51
110.5870208798
  0
LINE
  5
183
330
176
100
AcDbEntity
  8
$DDT_AUDIT_GENERATED_(77)
  6
Continuous
 62
     7
100
AcDbLine
 10
391.4089803968
 20
458.5861178656
 30
0.0
 11
314.4084089636
 21
458.5861178656
 31
0.0
  0
LINE
  5
184
330
176
100
AcDbEntity
  8
$DDT_AUDIT_GENERATED_(77)
  6
Continuous
 62
     7
100
AcDbLine
 10
398.7089803968
 20
458.5861178656
 30
0.0
 11
391.4089803968
 21
458.5861178656
 31
0.0
  0
ARC
  5
185
330
176
100
AcDbEntity
  8
$DDT_AUDIT_GENERATED_(77)
  6
Continuous
 62
     7
100
AcDbCircle
 10
398.7089803968
 20
459.2861178656
 30
0.0
 40
0.7000000000000062
100
AcDbArc
 50
270.0
 51
0.0
  0
LINE
  5
186
330
176
100
AcDbEntity
  8
$DDT_AUDIT_GENERATED_(77)
  6
Continuous
 62
     7
100
AcDbLine
 10
302.4089803968
 20
393.5864207501
 30
0.0
 11
256.4089803968
 21
393.5864207501
 31
0.0
  0
ARC
  5
187
330
176
100
AcDbEntity
  8
$DDT_AUDIT_GENERATED_(77)
  6
Continuous
 62
     7
100
AcDbCircle
 10
16.3927745532
 20
429.1028858543
 30
0.0
 40
240.1636330870921
100
AcDbArc
 50
357.9923171953
 51
2.0076573868
  0
ARC
  5
188
330
176
100
AcDbEntity
  8
$DDT_AUDIT_GENERATED_(77)
  6
Continuous
 62
     7
100
AcDbCircle
 10
301.9089803968
 20
510.0864207501
 30
0.0
 40
0.5000000000000004
100
AcDbArc
 50
0.0
 51
90.0
  0
ARC
  5
189
330
176
100
AcDbEntity
  8
$DDT_AUDIT_GENERATED_(77)
  6
Continuous
 62
     7
100
AcDbCircle
 10
256.9089803968
 20
510.0864207501
 30
0.0
 40
0.5000000000000004
100
AcDbArc
 50
90.0
 51
180.0
  0
ARC
  5
18A
330
176
100
AcDbEntity
  8
$DDT_AUDIT_GENERATED_(77)
  6
Continuous
 62
     7
100
AcDbCircle
 10
317.4089803968
 20
443.5861178656
 30
0.0
 40
15.0
100
AcDbArc
 50
90.0
 51
180.0
  0
ARC
  5
18B
330
176
100
AcDbEntity
  8
$DDT_AUDIT_GENERATED_(77)
  6
Continuous
 62
     7
100
AcDbCircle
 10
303.9089803968
 20
482.0861178656
 30
0.0
 40
1.500000000000001
100
AcDbArc
 50
180.0
 51
270.0
  0
LINE
  5
18C
330
176
100
AcDbEntity
  8
$DDT_AUDIT_GENERATED_(77)
  6
Continuous
 62
     7
100
AcDbLine
 10
302.4089803968
 20
482.0861178656
 30
0.0
 11
302.4089803968
 21
510.0864207501
 31
0.0
  0
LINE
  5
18D
330
176
100
AcDbEntity
  8
$DDT_AUDIT_GENERATED_(77)
  6
Continuous
 62
     7
100
AcDbLine
 10
302.4089803968
 20
393.5864207501
 30
0.0
 11
302.4089803968
 21
443.5861178656
 31
0.0
  0
LINE
  5
18E
330
176
100
AcDbEntity
  8
$DDT_AUDIT_GENERATED_(77)
  6
Continuous
 62
     7
100
AcDbLine
 10
256.4089803968
 20
420.6891120276
 30
0.0
 11
256.4089803968
 21
393.5864207501
 31
0.0
  0
LINE
  5
18F
330
176
100
AcDbEntity
  8
$DDT_AUDIT_GENERATED_(77)
  6
Continuous
 62
     7
100
AcDbLine
 10
256.4089803968
 20
510.0864207501
 30
0.0
 11
256.4089803968
 21
437.5134669917
 31
0.0
  0
LINE
  5
190
330
176
100
AcDbEntity
  8
$DDT_AUDIT_GENERATED_(8E)
  6
Continuous
 62
     7
100
AcDbLine
 10
367.3596886464
 20
529.8759416661
 30
0.0
 11
365.060476799
 21
529.9361486472
 31
0.0
  0
LINE
  5
191
330
176
100
AcDbEntity
  8
$DDT_AUDIT_GENERATED_(8E)
  6
Continuous
 62
     7
100
AcDbLine
 10
365.060476799
 20
529.9361486472
 30
0.0
 11
306.3872426939
 21
531.4725613537
 31
0.0
  0
LINE
  5
192
330
176
100
AcDbEntity
  8
$DDT_AUDIT_GENERATED_(8E)
  6
Continuous
 62
     7
100
AcDbLine
 10
306.3872426939
 20
531.4725613537
 30
0.0
 11
303.1194227717
 21
531.5581322299
 31
0.0
  0
LINE
  5
193
330
176
100
AcDbEntity
  8
$DDT_AUDIT_GENERATED_(8E)
  6
Continuous
 62
     7
100
AcDbLine
 10
299.6190791983
 20
532.3500319069
 30
0.0
 11
299.8538425089
 21
541.3152810381
 31
0.0
  0
ARC
  5
194
330
176
100
AcDbEntity
  8
$DDT_AUDIT_GENERATED_(8E)
  6
Continuous
 62
     7
100
AcDbCircle
 10
367.3780125103
 20
530.5757017936
 30
0.0
 40
0.7000000000000166
100
AcDbArc
 50
268.5
 51
358.5
  0
ARC
  5
195
330
176
100
AcDbEntity
  8
$DDT_AUDIT_GENERATED_(8E)
  6
Continuous
 62
     7
100
AcDbCircle
 10
234.3952504711
 20
538.6284994883
 30
0.0
 40
23.07883559606858
100
AcDbArc
 50
359.5983470817
 51
6.6106239076
  0
LINE
  5
196
330
176
100
AcDbEntity
  8
$DDT_AUDIT_GENERATED_(8E)
  6
Continuous
 62
     7
100
AcDbLine
 10
281.0076768809
 20
512.3862362406
 30
0.0
 11
257.1190075519
 21
528.1978015457
 31
0.0
  0
ARC
  5
197
330
176
100
AcDbEntity
  8
$DDT_AUDIT_GENERATED_(8E)
  6
Continuous
 62
     7
100
AcDbCircle
 10
282.6634878368
 20
514.8878937068
 30
0.0
 40
2.999999999999466
100
AcDbArc
 50
236.5
 51
268.5
  0
LINE
  5
198
330
176
100
AcDbEntity
  8
$DDT_AUDIT_GENERATED_(8E)
  6
Continuous
 62
     7
100
AcDbLine
 10
282.5849569919
 20
511.8889217319
 30
0.0
 11
302.2530510972
 21
511.3738945623
 31
0.0
  0
LINE
  5
199
330
176
100
AcDbEntity
  8
$DDT_AUDIT_GENERATED_(8E)
  6
Continuous
 62
     7
100
AcDbLine
 10
368.3152607599
 20
539.626683418
 30
0.0
 11
368.0777726377
 21
530.5573779297
 31
0.0
  0
LINE
  5
19A
330
176
100
AcDbEntity
  8
$DDT_AUDIT_GENERATED_(8E)
  6
Continuous
 62
     7
100
AcDbLine
 10
368.3152607599
 20
539.626683418
 30
0.0
 11
368.3159828673
 21
539.654259587
 31
0.0
  0
ARC
  5
19B
330
176
100
AcDbEntity
  8
$DDT_AUDIT_GENERATED_(8E)
  6
Continuous
 62
     7
100
AcDbCircle
 10
304.5419432155
 20
530.0203680323
 30
0.0
 40
1.499999999999996
100
AcDbArc
 50
88.5
 51
178.5
  0
ARC
  5
19C
330
176
100
AcDbEntity
  8
$DDT_AUDIT_GENERATED_(8E)
  6
Continuous
 62
     7
100
AcDbCircle
 10
302.2609041817
 20
511.6737917597
 30
0.0
 40
0.3000000000000012
100
AcDbArc
 50
268.5
 51
358.5
  0
ARC
  5
19D
330
176
100
AcDbEntity
  8
$DDT_AUDIT_GENERATED_(8E)
  6
Continuous
 62
     7
100
AcDbCircle
 10
257.2845886475
 20
528.4479672923
 30
0.0
 40
0.2999999999999989
100
AcDbArc
 50
181.4910413348
 51
236.5
  0
ARC
  5
19E
330
176
100
AcDbEntity
  8
$DDT_AUDIT_GENERATED_(8E)
  6
Continuous
 62
     7
100
AcDbCircle
 10
266.5103122414
 20
13.5889519223
 30
0.0
 40
529.249999999999
100
AcDbArc
 50
88.5
 51
90.9180782371
  0
LINE
  5
19F
330
176
100
AcDbEntity
  8
$DDT_AUDIT_GENERATED_(8E)
  6
Continuous
 62
     7
100
AcDbLine
 10
302.5608013792
 20
511.6659386753
 30
0.0
 11
303.042457228
 21
530.0596334548
 31
0.0
  0
LINE
  5
1A0
330
176
100
AcDbEntity
  8
$DDT_AUDIT_GENERATED_(8E)
  6
Continuous
 62
     7
100
AcDbLine
 10
257.1475542254
 20
534.675298847
 30
0.0
 11
256.98469145
 21
528.4558203768
 31
0.0
  0
LINE
  5
1A1
330
176
100
AcDbEntity
  8
$DDT_AUDIT_GENERATED_(8E)
  6
Continuous
 62
     7
100
AcDbLine
 10
257.3416999267
 20
542.0894240585
 30
0.0
 11
257.3198102596
 21
541.253491397
 31
0.0
  0
LINE
  5
1A2
330
176
100
AcDbEntity
  8
$DDT_AUDIT_GENERATED_(8E)
  6
Continuous
 62
     7
100
AcDbLine
 10
367.6345466037
 20
540.3723435783
 30
0.0
 11
280.3644621333
 21
542.6575911656
 31
0.0
  0
ARC
  5
1A3
330
176
100
AcDbEntity
  8
$DDT_AUDIT_GENERATED_(8E)
  6
Continuous
 62
     7
100
AcDbCircle
 10
258.0414600542
 20
542.0711001947
 30
0.0
 40
0.6999999999999396
100
AcDbArc
 50
90.9180782372
 51
178.5
  0
ARC
  5
1A4
330
176
100
AcDbEntity
  8
$DDT_AUDIT_GENERATED_(8E)
  6
Continuous
 62
     7
100
AcDbCircle
 10
367.6162227399
 20
539.6725834508
 30
0.0
 40
0.7000000000000013
100
AcDbArc
 50
358.5
 51
88.5
  0
LINE
  5
1A5
330
176
100
AcDbEntity
  8
$DDT_AUDIT_GENERATED_(AE)
  6
Continuous
 62
     7
100
AcDbLine
 10
267.9386736927
 20
521.0364207501
 30
0.0
 11
265.3519536842
 21
521.0364207501
 31
0.0
  0
ARC
  5
1A6
330
176
100
AcDbEntity
  8
$DDT_AUDIT_GENERATED_(AE)
  6
Continuous
 62
     7
100
AcDbCircle
 10
279.4089803968
 20
504.6364207501
 30
0.0
 40
21.6
100
AcDbArc
 50
15.9896056249
 51
18.3462820598
  0
ARC
  5
1A7
330
176
100
AcDbEntity
  8
$DDT_AUDIT_GENERATED_(AE)
  6
Continuous
 62
     7
100
AcDbCircle
 10
279.4089803968
 20
504.6364207501
 30
0.0
 40
21.60000000000001
100
AcDbArc
 50
130.6010607311
 51
164.0103943751
  0
LINE
  5
1A9
330
176
100
AcDbEntity
  8
$DDT_AUDIT_GENERATED_(1A8)
  6
Continuous
 62
     7
100
AcDbLine
 10
257.1414612376
 20
534.6758319143
 30
0.0
 11
257.4740502444
 21
538.4773416568
 31
0.0
  0
LINE
  5
1AA
330
176
100
AcDbEntity
  8
$DDT_AUDIT_GENERATED_(1A8)
  6
Continuous
 62
     7
100
AcDbLine
 10
257.1414612376
 20
534.6758319143
 30
0.0
 11
257.1475542254
 21
534.675298847
 31
0.0
  0
LINE
  5
1AB
330
176
100
AcDbEntity
  8
$DDT_AUDIT_GENERATED_(B1)
  6
Continuous
 62
     7
100
AcDbLine
 10
396.767753795
 20
453.4595627612
 30
0.0
 11
377.5993440992
 21
444.5211865253
 31
0.0
  0
LINE
  5
1AC
330
176
100
AcDbEntity
  8
$DDT_AUDIT_GENERATED_(B1)
  6
Continuous
 62
     7
100
AcDbLine
 10
397.2514433203
 20
454.7884888099
 30
0.0
 11
395.4805798088
 21
458.5861178656
 31
0.0
  0
LINE
  5
1AD
330
176
100
AcDbEntity
  8
$DDT_AUDIT_GENERATED_(B1)
  6
Continuous
 62
     7
100
AcDbLine
 10
369.9373809848
 20
458.5861178656
 30
0.0
 11
376.2704180504
 21
445.0048760506
 31
0.0
  0
ARC
  5
1AE
330
176
100
AcDbEntity
  8
$DDT_AUDIT_GENERATED_(B1)
  6
Continuous
 62
     7
100
AcDbCircle
 10
396.3451355333
 20
454.3658705482
 30
0.0
 40
1.000000000000002
100
AcDbArc
 50
295.0
 51
25.0
  0
ARC
  5
1AF
330
176
100
AcDbEntity
  8
$DDT_AUDIT_GENERATED_(B1)
  6
Continuous
 62
     7
100
AcDbCircle
 10
377.1767258375
 20
445.4274943124
 30
0.0
 40
1.000000000000002
100
AcDbArc
 50
205.0
 51
295.0
  0
LINE
  5
1B0
330
176
100
AcDbEntity
  8
$DDT_AUDIT_GENERATED_(B7)
  6
Continuous
 62
     7
100
AcDbLine
 10
379.1324334292
 20
444.9602333408
 30
0.0
 11
395.4459735959
 21
452.5673620522
 31
0.0
  0
LINE
  5
1B1
330
176
100
AcDbEntity
  8
$DDT_AUDIT_GENERATED_(B7)
  6
Continuous
 62
     7
100
AcDbLine
 10
379.0267788638
 20
445.1868102876
 30
0.0
 11
379.1324334292
 21
444.9602333408
 31
0.0
  0
LINE
  5
1B2
330
176
100
AcDbEntity
  8
$DDT_AUDIT_GENERATED_(B7)
  6
Continuous
 62
     7
100
AcDbLine
 10
395.4459735959
 20
452.5673620522
 30
0.0
 11
395.3403190304
 21
452.7939389989
 31
0.0
  0
LINE
  5
1B4
330
176
100
AcDbEntity
  8
$DDT_AUDIT_GENERATED_(1B3)
  6
Continuous
 62
     7
100
AcDbLine
 10
238.0609763947
 20
439.415986096
 30
0.0
 11
238.0609763947
 21
435.415986096
 31
0.0
  0
LINE
  5
1B5
330
176
100
AcDbEntity
  8
$DDT_AUDIT_GENERATED_(1B3)
  6
Continuous
 62
     7
100
AcDbLine
 10
251.5282637546
 20
439.415986096
 30
0.0
 11
238.0609763947
 21
439.415986096
 31
0.0
  0
LINE
  5
1B6
330
176
100
AcDbEntity
  8
$DDT_AUDIT_GENERATED_(1B3)
  6
Continuous
 62
     7
100
AcDbLine
 10
238.0609763947
 20
435.415986096
 30
0.0
 11
251.5282637546
 21
435.415986096
 31
0.0
  0
ARC
  5
1B7
330
176
100
AcDbEntity
  8
$DDT_AUDIT_GENERATED_(1B3)
  6
Continuous
 62
     7
100
AcDbCircle
 10
251.5282637546
 20
434.415986096
 30
0.0
 40
0.9999999999999454
100
AcDbArc
 50
18.0
 51
90.0
  0
ARC
  5
1B8
330
176
100
AcDbEntity
  8
$DDT_AUDIT_GENERATED_(1B3)
  6
Continuous
 62
     7
100
AcDbCircle
 10
251.5282637546
 20
434.415986096
 30
0.0
 40
4.999999999999967
100
AcDbArc
 50
18.0
 51
90.0
  0
LINE
  5
1B9
330
176
100
AcDbEntity
  8
$DDT_AUDIT_GENERATED_(1B3)
  6
Continuous
 62
     7
100
AcDbLine
 10
256.4684906638
 20
435.3918709553
 30
0.0
 11
256.2835463361
 21
435.9610710679
 31
0.0
  0
LINE
  5
1BA
330
176
100
AcDbEntity
  8
$DDT_AUDIT_GENERATED_(1B3)
  6
Continuous
 62
     7
100
AcDbLine
 10
252.4793202709
 20
434.7250030904
 30
0.0
 11
256.4688885164
 21
422.4463745808
 31
0.0
  0
LINE
  5
1BB
330
176
100
AcDbEntity
  8
$DDT_AUDIT_GENERATED_(1B3)
  6
Continuous
 62
     7
100
AcDbLine
 10
273.9690483542
 20
368.5864207501
 30
0.0
 11
274.0914409181
 21
368.2097351711
 31
0.0
  0
ENDBLK
  5
1BD
330
176
100
AcDbEntity
  8
0
100
AcDbBlockEnd
  0
BLOCK
  5
1E8
330
1BE
100
AcDbEntity
  8
0
100
AcDbBlockBegin
  2
SE2
 70
     0
 10
0.0
 20
0.0
 30
0.0
  3
SE2
  1

  0
ARC
  5
1C0
330
1BE
100
AcDbEntity
  8
$DDT_AUDIT_GENERATED_(77)
  6
Continuous
 62
     7
100
AcDbCircle
 10
99.3562722255
 20
226.35
 30
0.0
 40
23.0
100
AcDbArc
 50
359.7531850147
 51
0.0
  0
ARC
  5
1C1
330
1BE
100
AcDbEntity
  8
$DDT_AUDIT_GENERATED_(77)
  6
Continuous
 62
     7
100
AcDbCircle
 10
99.3562722255
 20
226.35
 30
0.0
 40
23.0
100
AcDbArc
 50
0.0
 51
180.2468149853
  0
ARC
  5
1C2
330
1BE
100
AcDbEntity
  8
$DDT_AUDIT_GENERATED_(77)
  6
Continuous
 62
     7
100
AcDbCircle
 10
139.8562722255
 20
200.586653944
 30
0.0
 40
25.0
100
AcDbArc
 50
164.1490999206
 51
180.0
  0
ARC
  5
1C3
330
1BE
100
AcDbEntity
  8
$DDT_AUDIT_GENERATED_(77)
  6
Continuous
 62
     7
100
AcDbCircle
 10
139.8562722255
 20
200.586653944
 30
0.0
 40
25.00000000000009
100
AcDbArc
 50
156.2103018717
 51
164.1490999206
  0
LINE
  5
1C4
330
1BE
100
AcDbEntity
  8
$DDT_AUDIT_GENERATED_(77)
  6
Continuous
 62
     7
100
AcDbLine
 10
114.8562722255
 20
200.586653944
 30
0.0
 11
114.8562722255
 21
114.35
 31
0.0
  0
ARC
  5
1C5
330
1BE
100
AcDbEntity
  8
$DDT_AUDIT_GENERATED_(77)
  6
Continuous
 62
     7
100
AcDbCircle
 10
106.8562722255
 20
114.35
 30
0.0
 40
8.0
100
AcDbArc
 50
270.0
 51
0.0
  0
LINE
  5
1C6
330
1BE
100
AcDbEntity
  8
$DDT_AUDIT_GENERATED_(77)
  6
Continuous
 62
     7
100
AcDbLine
 10
106.8562722255
 20
106.35
 30
0.0
 11
91.8562722255
 21
106.35
 31
0.0
  0
ARC
  5
1C7
330
1BE
100
AcDbEntity
  8
$DDT_AUDIT_GENERATED_(77)
  6
Continuous
 62
     7
100
AcDbCircle
 10
58.8562722255
 20
200.586653944
 30
0.0
 40
24.99999999999999
100
AcDbArc
 50
0.0
 51
15.8509000794
  0
ARC
  5
1C8
330
1BE
100
AcDbEntity
  8
$DDT_AUDIT_GENERATED_(77)
  6
Continuous
 62
     7
100
AcDbCircle
 10
58.8562722255
 20
200.586653944
 30
0.0
 40
24.99999999999962
100
AcDbArc
 50
15.8509000794
 51
23.7894277187
  0
ARC
  5
1C9
330
1BE
100
AcDbEntity
  8
$DDT_AUDIT_GENERATED_(77)
  6
Continuous
 62
     7
100
AcDbCircle
 10
91.8562722255
 20
114.35
 30
0.0
 40
8.000000000000007
100
AcDbArc
 50
180.0
 51
270.0
  0
LINE
  5
1CA
330
1BE
100
AcDbEntity
  8
$DDT_AUDIT_GENERATED_(77)
  6
Continuous
 62
     7
100
AcDbLine
 10
83.8562722255
 20
114.35
 30
0.0
 11
83.8562722255
 21
200.586653944
 31
0.0
  0
SPLINE
  5
1CB
330
1BE
100
AcDbEntity
  8
$DDT_AUDIT_GENERATED_(8E)
  6
Continuous
 62
     7
100
AcDbSpline
210
0.0
220
0.0
230
1.0
 70
     8
 71
     3
 72
    18
 73
    14
 74
     0
 42
0.0000000007641574
 43
0.0000000001
 40
0.2496091070495205
 40
0.2496091070495205
 40
0.2496091070495205
 40
0.2496091070495205
 40
0.25
 40
0.25
 40
0.375
 40
0.375
 40
0.5
 40
0.5
 40
0.625
 40
0.625
 40
0.75
 40
0.75
 40
0.7503454342161098
 40
0.7503454342161098
 40
0.7503454342161098
 40
0.7503454342161098
 10
102.6062715626836
 20
248.293251255396
 30
0.0
 10
102.6062723062644
 20
248.2931816809619
 30
0.0
 10
102.606269610295
 20
248.2931126485737
 30
0.0
 10
102.6043004498029
 20
248.2711428327011
 30
0.0
 10
102.2566566599834
 20
248.3038496307401
 30
0.0
 10
101.0532957319454
 20
248.3929123145946
 30
0.0
 10
100.2100512993385
 20
248.4382943947116
 30
0.0
 10
98.50521880359952
 20
248.4383764667281
 30
0.0
 10
97.65842725518038
 20
248.3928081240094
 30
0.0
 10
96.4635224366876
 20
248.3044578293738
 30
0.0
 10
96.10803290505358
 20
248.2710893173543
 30
0.0
 10
96.10627433764517
 20
248.2931260839805
 30
0.0
 10
96.10627217403601
 20
248.2931872377237
 30
0.0
 10
96.1062726910879
 20
248.2932488138139
 30
0.0
  0
ELLIPSE
  5
1CC
330
1BE
100
AcDbEntity
  8
$DDT_AUDIT_GENERATED_(8E)
  6
Continuous
 62
     7
100
AcDbEllipse
 10
99.3562722255
 20
226.1534782932
 30
0.0
 11
22.99999999999988
 21
2.731918424120350E-13
 31
0.0
210
0.0
220
0.0
230
1.0
 40
0.9835135067
 41
-0.0000000000000171
 42
3.141592653589777
  0
ARC
  5
1CD
330
1BE
100
AcDbEntity
  8
$DDT_AUDIT_GENERATED_(8E)
  6
Continuous
 62
     7
100
AcDbCircle
 10
99.3562722255
 20
20327.8191661499
 30
0.0
 40
20190.3761686392
100
AcDbArc
 50
269.9846760055
 51
270.0153239945
  0
ARC
  5
1CE
330
1BE
100
AcDbEntity
  8
$DDT_AUDIT_GENERATED_(8E)
  6
Continuous
 62
     7
100
AcDbCircle
 10
104.7559320031
 20
140.4440599045
 30
0.0
 40
3.000340286884867
100
AcDbArc
 50
270.006497032
 51
359.9881196361
  0
ARC
  5
1CF
330
1BE
100
AcDbEntity
  8
$DDT_AUDIT_GENERATED_(8E)
  6
Continuous
 62
     7
100
AcDbCircle
 10
93.9566128877
 20
140.4440603443
 30
0.0
 40
3.000340726725627
100
AcDbArc
 50
180.0118887606
 51
269.9934945713
  0
LINE
  5
1D0
330
1BE
100
AcDbEntity
  8
$DDT_AUDIT_GENERATED_(8E)
  6
Continuous
 62
     7
100
AcDbLine
 10
107.7562722255
 20
199.1166718846
 30
0.0
 11
107.7562722255
 21
140.4434377795
 31
0.0
  0
LINE
  5
1D1
330
1BE
100
AcDbEntity
  8
$DDT_AUDIT_GENERATED_(8E)
  6
Continuous
 62
     7
100
AcDbLine
 10
90.9562722255
 20
140.4434377795
 30
0.0
 11
90.9562722255
 21
199.1166718846
 31
0.0
  0
ARC
  5
1D2
330
1BE
100
AcDbEntity
  8
$DDT_AUDIT_GENERATED_(8E)
  6
Continuous
 62
     7
100
AcDbCircle
 10
115.7580834877
 20
199.1153188739
 30
0.0
 40
8.00181137656754
100
AcDbArc
 50
121.9472893203
 51
179.9903119684
  0
ARC
  5
1D3
330
1BE
100
AcDbEntity
  8
$DDT_AUDIT_GENERATED_(8E)
  6
Continuous
 62
     7
100
AcDbCircle
 10
82.9544608602
 20
199.1153188167
 30
0.0
 40
8.001811479690035
100
AcDbArc
 50
0.0096884412
 51
58.0527102701
  0
ELLIPSE
  5
1D4
330
1BE
100
AcDbEntity
  8
$DDT_AUDIT_GENERATED_(8E)
  6
Continuous
 62
     7
100
AcDbEllipse
 10
99.3562722255
 20
225.4251619957
 30
0.0
 11
-23.00000000000538
 21
-3.220112978347123E-11
 31
0.0
210
0.0
220
0.0
230
1.0
 40
0.999657325
 41
3.141592653589793
 42
6.283185307178187
  0
ARC
  5
1D5
330
1BE
100
AcDbEntity
  8
$DDT_AUDIT_GENERATED_(8E)
  6
Continuous
 62
     7
100
AcDbCircle
 10
99.3664038603
 20
225.4285997985
 30
0.0
 40
23.01013189156367
100
AcDbArc
 50
180.0085602115
 51
238.0459062719
  0
ARC
  5
1D6
330
1BE
100
AcDbEntity
  8
$DDT_AUDIT_GENERATED_(8E)
  6
Continuous
 62
     7
100
AcDbCircle
 10
99.3461406272
 20
225.4285997783
 30
0.0
 40
23.0101318551629
100
AcDbArc
 50
301.9540936778
 51
359.9914398388
  0
LINE
  5
1D7
330
1BE
100
AcDbEntity
  8
$DDT_AUDIT_GENERATED_(8E)
  6
Continuous
 62
     7
100
AcDbLine
 10
76.3562722255
 20
226.1534782932
 30
0.0
 11
76.3562722255
 21
225.4251619957
 31
0.0
  0
LINE
  5
1D8
330
1BE
100
AcDbEntity
  8
$DDT_AUDIT_GENERATED_(8E)
  6
Continuous
 62
     7
100
AcDbLine
 10
122.3562722255
 20
225.4251619957
 30
0.0
 11
122.3562722255
 21
226.1534782932
 31
0.0
  0
ELLIPSE
  5
1D9
330
1BE
100
AcDbEntity
  8
$DDT_AUDIT_GENERATED_(1A8)
  6
Continuous
 62
     7
100
AcDbEllipse
 10
99.3562722255
 20
248.325547421
 30
0.0
 11
3.350000000000001
 21
3.469446951953614E-15
 31
0.0
210
0.0
220
0.0
230
1.0
 40
0.0871557427
 41
0.0
 42
3.141592653589782
  0
ARC
  5
1DB
330
1BE
100
AcDbEntity
  8
$DDT_AUDIT_GENERATED_(1DA)
  6
Continuous
 62
     7
100
AcDbCircle
 10
99.3562722255
 20
226.35
 30
0.0
 40
25.0
100
AcDbArc
 50
311.3153627304
 51
0.0
  0
ARC
  5
1DC
330
1BE
100
AcDbEntity
  8
$DDT_AUDIT_GENERATED_(1DA)
  6
Continuous
 62
     7
100
AcDbCircle
 10
99.3562722255
 20
226.35
 30
0.0
 40
25.0
100
AcDbArc
 50
94.5885657358
 51
228.6913576801
  0
ARC
  5
1DD
330
1BE
100
AcDbEntity
  8
$DDT_AUDIT_GENERATED_(1DA)
  6
Continuous
 62
     7
100
AcDbCircle
 10
99.3562722255
 20
226.35
 30
0.0
 40
25.0
100
AcDbArc
 50
0.0
 51
85.4114342642
  0
ARC
  5
1DF
330
1BE
100
AcDbEntity
  8
$DDT_AUDIT_GENERATED_(1DE)
  6
Continuous
 62
     7
100
AcDbCircle
 10
119.8562722255
 20
234.35
 30
0.0
 40
2.999999999999996
100
AcDbArc
 50
17.5586917594
 51
25.0771327915
  0
ARC
  5
1E0
330
1BE
100
AcDbEntity
  8
$DDT_AUDIT_GENERATED_(1DE)
  6
Continuous
 62
     7
100
AcDbCircle
 10
78.8562722255
 20
234.35
 30
0.0
 40
2.999999999999999
100
AcDbArc
 50
154.9228672085
 51
162.4413082406
  0
LINE
  5
1E1
330
1BE
100
AcDbEntity
  8
$DDT_AUDIT_GENERATED_(1B3)
  6
Continuous
 62
     7
100
AcDbLine
 10
97.3562722255
 20
267.6980040022
 30
0.0
 11
101.3562722255
 21
267.6980040022
 31
0.0
  0
LINE
  5
1E2
330
1BE
100
AcDbEntity
  8
$DDT_AUDIT_GENERATED_(1B3)
  6
Continuous
 62
     7
100
AcDbLine
 10
101.3562722255
 20
254.2307166422
 30
0.0
 11
101.3562722255
 21
267.6980040022
 31
0.0
  0
LINE
  5
1E3
330
1BE
100
AcDbEntity
  8
$DDT_AUDIT_GENERATED_(1B3)
  6
Continuous
 62
     7
100
AcDbLine
 10
97.3562722255
 20
267.6980040022
 30
0.0
 11
97.3562722255
 21
254.2307166422
 31
0.0
  0
LINE
  5
1E4
330
1BE
100
AcDbEntity
  8
$DDT_AUDIT_GENERATED_(1B3)
  6
Continuous
 62
     7
100
AcDbLine
 10
97.3562722255
 20
254.2307166422
 30
0.0
 11
97.3562722255
 21
251.3775470933
 31
0.0
  0
LINE
  5
1E5
330
1BE
100
AcDbEntity
  8
$DDT_AUDIT_GENERATED_(1B3)
  6
Continuous
 62
     7
100
AcDbLine
 10
101.3562722255
 20
251.3775470933
 30
0.0
 11
101.3562722255
 21
254.2307166422
 31
0.0
  0
LINE
  5
1E6
330
1BE
100
AcDbEntity
  8
$DDT_AUDIT_GENERATED_(1B3)
  6
Continuous
 62
     7
100
AcDbLine
 10
101.3562722255
 20
249.2628784748
 30
0.0
 11
101.3562722255
 21
251.3775470933
 31
0.0
  0
LINE
  5
1E7
330
1BE
100
AcDbEntity
  8
$DDT_AUDIT_GENERATED_(1B3)
  6
Continuous
 62
     7
100
AcDbLine
 10
97.3562722255
 20
251.3775470933
 30
0.0
 11
97.3562722255
 21
249.2628784748
 31
0.0
  0
ENDBLK
  5
1E9
330
1BE
100
AcDbEntity
  8
0
100
AcDbBlockEnd
  0
ENDSEC
  0
SECTION
  2
ENTITIES
  0
INSERT
  5
5F
330
1F
100
AcDbEntity
  8
Default
100
AcDbBlockReference
  2
SEANNOT_GROUP
 10
0.0
 20
0.0
 30
0.0
  0
INSERT
  5
66
330
1F
100
AcDbEntity
  8
Default
100
AcDbBlockReference
  2
SEANNOT_GROUP1
 10
0.0
 20
0.0
 30
0.0
  0
INSERT
  5
6C
330
1F
100
AcDbEntity
  8
Default
100
AcDbBlockReference
  2
SEANNOT_GROUP2
 10
0.0
 20
0.0
 30
0.0
  0
INSERT
  5
76
330
1F
100
AcDbEntity
  8
Default
100
AcDbBlockReference
  2
SE
 10
0.0
 20
0.0
 30
0.0
  0
INSERT
  5
177
330
1F
100
AcDbEntity
  8
Default
100
AcDbBlockReference
  2
SE1
 10
0.0
 20
0.0
 30
0.0
  0
INSERT
  5
1BF
330
1F
100
AcDbEntity
  8
Default
100
AcDbBlockReference
  2
SE2
 10
0.0
 20
0.0
 30
0.0
  0
TEXT
  5
1EB
330
1F
100
AcDbEntity
  8
Default
  6
Continuous
 62
     7
100
AcDbText
 10
5.9362635081
 20
53.4225120485
 30
0.0
 40
10.0
  1
Grohe AG^J
  7
SEACAD_seiso_ttf
 11
5.9362635081
 21
63.4225120485
 31
0.0
100
AcDbText
 73
     3
  0
TEXT
  5
1EC
330
1F
100
AcDbEntity
  8
Default
  6
Continuous
 62
     7
100
AcDbText
 10
5.9362635081
 20
37.0588756849
 30
0.0
 40
10.0
  1
 
  7
SEACAD_seiso_ttf
 11
5.9362635081
 21
47.0588756849
 31
0.0
100
AcDbText
 73
     3
  0
TEXT
  5
1ED
330
1F
100
AcDbEntity
  8
Default
  6
Continuous
 62
     7
100
AcDbText
 10
5.9362635081
 20
20.6952393213
 30
0.0
 40
10.0
  1
ecn: 
  7
SEACAD_seiso_ttf
 11
5.9362635081
 21
30.6952393213
 31
0.0
100
AcDbText
 73
     3
  0
TEXT
  5
1EE
330
1F
100
AcDbEntity
  8
Default
  6
Continuous
 62
     7
100
AcDbText
 10
5.9362635081
 20
4.3316029576
 30
0.0
 40
10.0
  1
unit: mm
  7
SEACAD_seiso_ttf
 11
5.9362635081
 21
14.3316029576
 31
0.0
100
AcDbText
 73
     3
  0
LINE
  5
1EF
330
1F
100
AcDbEntity
  8
Default
  6
Continuous
 62
     7
100
AcDbLine
 10
0.0
 20
0.0
 30
0.0
 11
100.0
 21
0.0
 31
0.0
  0
LINE
  5
1F0
330
1F
100
AcDbEntity
  8
Default
  6
Continuous
 62
     7
100
AcDbLine
 10
0.0
 20
0.0
 30
0.0
 11
0.0
 21
100.0
 31
0.0
  0
TEXT
  5
1F1
330
1F
100
AcDbEntity
  8
Default
  6
Continuous
 62
     7
100
AcDbText
 10
24.3923665681
 20
-18.2375342018
 30
0.0
 40
10.0
  1
100 mm
  7
SEACAD_seiso_ttf
 11
24.3923665681
 21
-8.2375342018
 31
0.0
100
AcDbText
 73
     3
  0
TEXT
  5
1F2
330
1F
100
AcDbEntity
  8
Default
  6
Continuous
 62
     7
100
AcDbText
 10
-7.6150308803
 20
24.6231930421
 30
0.0
 40
10.0
  1
100 mm
 50
90.0
  7
SEACAD_seiso_ttf
 11
-17.6150308803
 21
24.6231930421
 31
0.0
100
AcDbText
 73
     3
  0
TEXT
  5
1F3
330
1F
100
AcDbEntity
  8
Default
  6
Continuous
 62
     7
100
AcDbText
 10
28.4878128572
 20
20.0907663715
 30
0.0
 40
10.0
  1
211758
  7
SEACAD_seiso_ttf
 11
28.4878128572
 21
30.0907663715
 31
0.0
100
AcDbText
 73
     3
  0
TEXT
  5
1F4
330
1F
100
AcDbEntity
  8
Default
  6
Continuous
 62
     7
100
AcDbText
 10
5.9012241913
 20
36.7242780188
 30
0.0
 40
10.0
  1
32115000
  7
SEACAD_seiso_ttf
 11
5.9012241913
 21
46.7242780188
 31
0.0
100
AcDbText
 73
     3
  0
ENDSEC
  0
SECTION
  2
OBJECTS
  0
DICTIONARY
  5
C
330
0
100
AcDbDictionary
281
     1
  3
ACAD_GROUP
350
D
  3
ACAD_LAYOUT
350
1A
  3
ACAD_MLEADERSTYLE
350
1F8
  3
ACAD_MLINESTYLE
350
17
  3
ACAD_PLOTSETTINGS
350
19
  3
ACAD_PLOTSTYLENAME
350
E
  3
ACAD_SCALELIST
350
3B
  3
ACAD_TABLESTYLE
350
1F7
  3
ACAD_VISUALSTYLE
350
2A
  3
AcDbVariableDictionary
350
1F5
  0
DICTIONARY
  5
D
102
{ACAD_REACTORS
330
C
102
}
330
C
100
AcDbDictionary
281
     1
  0
DICTIONARY
  5
1A
102
{ACAD_REACTORS
330
C
102
}
330
C
100
AcDbDictionary
281
     1
  3
Layout1
350
1E
  3
Model
350
22
  0
DICTIONARY
  5
1F8
102
{ACAD_REACTORS
330
C
102
}
330
C
100
AcDbDictionary
281
     1
  0
DICTIONARY
  5
17
102
{ACAD_REACTORS
330
C
102
}
330
C
100
AcDbDictionary
281
     1
  3
Standard
350
18
  0
DICTIONARY
  5
19
102
{ACAD_REACTORS
330
C
102
}
330
C
100
AcDbDictionary
281
     1
  0
ACDBDICTIONARYWDFLT
  5
E
102
{ACAD_REACTORS
330
C
102
}
330
C
100
AcDbDictionary
281
     1
  3
Normal
350
F
100
AcDbDictionaryWithDefault
340
F
  0
DICTIONARY
  5
3B
102
{ACAD_REACTORS
330
C
102
}
330
C
100
AcDbDictionary
281
     1
  3
A0
350
3C
  3
A1
350
3D
  3
A2
350
3E
  3
A3
350
3F
  3
A4
350
40
  3
A5
350
41
  3
A6
350
42
  3
A7
350
43
  3
A8
350
44
  3
A9
350
45
  3
B0
350
46
  3
B1
350
47
  3
B2
350
48
  3
B3
350
49
  3
B4
350
4A
  3
B5
350
4B
  3
B6
350
4C
  3
B7
350
4D
  3
B8
350
4E
  3
B9
350
4F
  3
C0
350
50
  3
C1
350
51
  3
C2
350
52
  3
C3
350
53
  3
C4
350
54
  3
C5
350
55
  3
C6
350
56
  3
C7
350
57
  3
C8
350
58
  3
C9
350
59
  3
D0
350
5A
  3
D1
350
5B
  3
D2
350
5C
  0
DICTIONARY
  5
1F7
102
{ACAD_REACTORS
330
C
102
}
330
C
100
AcDbDictionary
281
     1
  0
DICTIONARY
  5
2A
102
{ACAD_REACTORS
330
C
102
}
330
C
100
AcDbDictionary
281
     1
  3
2dWireframe
350
2F
  3
3D Hidden
350
31
  3
3dWireframe
350
30
  3
Basic
350
32
  3
Brighten
350
36
  3
ColorChange
350
3A
  3
Conceptual
350
34
  3
Dim
350
35
  3
Facepattern
350
39
  3
Flat
350
2B
  3
FlatWithEdges
350
2C
  3
Gouraud
350
2D
  3
GouraudWithEdges
350
2E
  3
Linepattern
350
38
  3
Realistic
350
33
  3
Thicken
350
37
  0
DICTIONARY
  5
1F5
102
{ACAD_REACTORS
330
C
102
}
330
C
100
AcDbDictionary
281
     1
  3
CANNOSCALE
350
1F6
  3
PSOLHEIGHT
350
1FA
  3
PSOLWIDTH
350
1F9
  0
LAYOUT
  5
1E
102
{ACAD_REACTORS
330
1A
102
}
330
1A
100
AcDbPlotSettings
  1

  2
none_device
  4

  6

 40
0.0
 41
0.0
 42
0.0
 43
0.0
 44
0.0
 45
0.0
 46
0.0
 47
0.0
 48
0.0
 49
0.0
140
0.0
141
0.0
142
1.0
143
1.0
 70
   688
 72
     0
 73
     0
 74
     5
  7

 75
    16
147
1.0
148
0.0
149
0.0
100
AcDbLayout
  1
Layout1
 70
     1
 71
     1
 10
0.0
 20
0.0
 11
1682.0
 21
2378.0
 12
0.0
 22
0.0
 32
0.0
 14
0.0
 24
0.0
 34
0.0
 15
1682.0
 25
2378.0
 35
0.0
146
0.0
 13
0.0
 23
0.0
 33
0.0
 16
1.0
 26
0.0
 36
0.0
 17
0.0
 27
1.0
 37
0.0
 76
     0
330
1B
  0
LAYOUT
  5
22
102
{ACAD_REACTORS
330
1A
102
}
330
1A
100
AcDbPlotSettings
  1

  2
none_device
  4

  6

 40
0.0
 41
0.0
 42
0.0
 43
0.0
 44
0.0
 45
0.0
 46
0.0
 47
0.0
 48
0.0
 49
0.0
140
0.0
141
0.0
142
1.0
143
1.0
 70
  1712
 72
     0
 73
     0
 74
     0
  7

 75
     0
147
1.0
148
0.0
149
0.0
100
AcDbLayout
  1
Model
 70
     1
 71
     0
 10
0.0
 20
0.0
 11
1682.0
 21
2378.0
 12
0.0
 22
0.0
 32
0.0
 14
0.0
 24
0.0
 34
0.0
 15
1682.0
 25
2378.0
 35
0.0
146
0.0
 13
0.0
 23
0.0
 33
0.0
 16
1.0
 26
0.0
 36
0.0
 17
0.0
 27
1.0
 37
0.0
 76
     0
330
1F
331
29
  0
MLINESTYLE
  5
18
102
{ACAD_REACTORS
330
17
102
}
330
17
100
AcDbMlineStyle
  2
Standard
 70
     0
  3

 62
   256
 51
90.0
 52
90.0
 71
     2
 49
0.5
 62
   256
  6
BYLAYER
 49
-0.5
 62
   256
  6
BYLAYER
  0
ACDBPLACEHOLDER
  5
F
102
{ACAD_REACTORS
330
E
102
}
330
E
  0
SCALE
  5
3C
102
{ACAD_REACTORS
330
3B
102
}
330
3B
100
AcDbScale
 70
     0
300
1:1
140
1.0
141
1.0
290
     1
  0
SCALE
  5
3D
102
{ACAD_REACTORS
330
3B
102
}
330
3B
100
AcDbScale
 70
     0
300
1:2
140
1.0
141
2.0
290
     0
  0
SCALE
  5
3E
102
{ACAD_REACTORS
330
3B
102
}
330
3B
100
AcDbScale
 70
     0
300
1:4
140
1.0
141
4.0
290
     0
  0
SCALE
  5
3F
102
{ACAD_REACTORS
330
3B
102
}
330
3B
100
AcDbScale
 70
     0
300
1:5
140
1.0
141
5.0
290
     0
  0
SCALE
  5
40
102
{ACAD_REACTORS
330
3B
102
}
330
3B
100
AcDbScale
 70
     0
300
1:8
140
1.0
141
8.0
290
     0
  0
SCALE
  5
41
102
{ACAD_REACTORS
330
3B
102
}
330
3B
100
AcDbScale
 70
     0
300
1:10
140
1.0
141
10.0
290
     0
  0
SCALE
  5
42
102
{ACAD_REACTORS
330
3B
102
}
330
3B
100
AcDbScale
 70
     0
300
1:16
140
1.0
141
16.0
290
     0
  0
SCALE
  5
43
102
{ACAD_REACTORS
330
3B
102
}
330
3B
100
AcDbScale
 70
     0
300
1:20
140
1.0
141
20.0
290
     0
  0
SCALE
  5
44
102
{ACAD_REACTORS
330
3B
102
}
330
3B
100
AcDbScale
 70
     0
300
1:30
140
1.0
141
30.0
290
     0
  0
SCALE
  5
45
102
{ACAD_REACTORS
330
3B
102
}
330
3B
100
AcDbScale
 70
     0
300
1:40
140
1.0
141
40.0
290
     0
  0
SCALE
  5
46
102
{ACAD_REACTORS
330
3B
102
}
330
3B
100
AcDbScale
 70
     0
300
1:50
140
1.0
141
50.0
290
     0
  0
SCALE
  5
47
102
{ACAD_REACTORS
330
3B
102
}
330
3B
100
AcDbScale
 70
     0
300
1:100
140
1.0
141
100.0
290
     0
  0
SCALE
  5
48
102
{ACAD_REACTORS
330
3B
102
}
330
3B
100
AcDbScale
 70
     0
300
2:1
140
2.0
141
1.0
290
     0
  0
SCALE
  5
49
102
{ACAD_REACTORS
330
3B
102
}
330
3B
100
AcDbScale
 70
     0
300
4:1
140
4.0
141
1.0
290
     0
  0
SCALE
  5
4A
102
{ACAD_REACTORS
330
3B
102
}
330
3B
100
AcDbScale
 70
     0
300
8:1
140
8.0
141
1.0
290
     0
  0
SCALE
  5
4B
102
{ACAD_REACTORS
330
3B
102
}
330
3B
100
AcDbScale
 70
     0
300
10:1
140
10.0
141
1.0
290
     0
  0
SCALE
  5
4C
102
{ACAD_REACTORS
330
3B
102
}
330
3B
100
AcDbScale
 70
     0
300
100:1
140
100.0
141
1.0
290
     0
  0
SCALE
  5
4D
102
{ACAD_REACTORS
330
3B
102
}
330
3B
100
AcDbScale
 70
     0
300
1/128" = 1'-0"
140
0.0078125
141
12.0
290
     0
  0
SCALE
  5
4E
102
{ACAD_REACTORS
330
3B
102
}
330
3B
100
AcDbScale
 70
     0
300
1/64" = 1'-0"
140
0.015625
141
12.0
290
     0
  0
SCALE
  5
4F
102
{ACAD_REACTORS
330
3B
102
}
330
3B
100
AcDbScale
 70
     0
300
1/32" = 1'-0"
140
0.03125
141
12.0
290
     0
  0
SCALE
  5
50
102
{ACAD_REACTORS
330
3B
102
}
330
3B
100
AcDbScale
 70
     0
300
1/16" = 1'-0"
140
0.0625
141
12.0
290
     0
  0
SCALE
  5
51
102
{ACAD_REACTORS
330
3B
102
}
330
3B
100
AcDbScale
 70
     0
300
3/32" = 1'-0"
140
0.09375
141
12.0
290
     0
  0
SCALE
  5
52
102
{ACAD_REACTORS
330
3B
102
}
330
3B
100
AcDbScale
 70
     0
300
1/8" = 1'-0"
140
0.125
141
12.0
290
     0
  0
SCALE
  5
53
102
{ACAD_REACTORS
330
3B
102
}
330
3B
100
AcDbScale
 70
     0
300
3/16" = 1'-0"
140
0.1875
141
12.0
290
     0
  0
SCALE
  5
54
102
{ACAD_REACTORS
330
3B
102
}
330
3B
100
AcDbScale
 70
     0
300
1/4" = 1'-0"
140
0.25
141
12.0
290
     0
  0
SCALE
  5
55
102
{ACAD_REACTORS
330
3B
102
}
330
3B
100
AcDbScale
 70
     0
300
3/8" = 1'-0"
140
0.375
141
12.0
290
     0
  0
SCALE
  5
56
102
{ACAD_REACTORS
330
3B
102
}
330
3B
100
AcDbScale
 70
     0
300
1/2" = 1'-0"
140
0.5
141
12.0
290
     0
  0
SCALE
  5
57
102
{ACAD_REACTORS
330
3B
102
}
330
3B
100
AcDbScale
 70
     0
300
3/4" = 1'-0"
140
0.75
141
12.0
290
     0
  0
SCALE
  5
58
102
{ACAD_REACTORS
330
3B
102
}
330
3B
100
AcDbScale
 70
     0
300
1" = 1'-0"
140
1.0
141
12.0
290
     0
  0
SCALE
  5
59
102
{ACAD_REACTORS
330
3B
102
}
330
3B
100
AcDbScale
 70
     0
300
1-1/2" = 1'-0"
140
1.5
141
12.0
290
     0
  0
SCALE
  5
5A
102
{ACAD_REACTORS
330
3B
102
}
330
3B
100
AcDbScale
 70
     0
300
3" = 1'-0"
140
3.0
141
12.0
290
     0
  0
SCALE
  5
5B
102
{ACAD_REACTORS
330
3B
102
}
330
3B
100
AcDbScale
 70
     0
300
6" = 1'-0"
140
6.0
141
12.0
290
     0
  0
SCALE
  5
5C
102
{ACAD_REACTORS
330
3B
102
}
330
3B
100
AcDbScale
 70
     0
300
1'-0" = 1'-0"
140
12.0
141
12.0
290
     0
  0
VISUALSTYLE
  5
2F
102
{ACAD_REACTORS
330
2A
102
}
330
2A
100
AcDbVisualStyle
  2
2dWireframe
 70
     4
 71
     0
 72
     2
 73
     0
 90
        0
 40
-0.6
 41
-30.0
 62
     5
 63
     7
 74
     1
 91
        4
 64
     7
 65
   257
 75
     1
175
     1
 42
1.0
 92
        0
 66
   257
 43
1.0
 76
     1
 77
     6
 78
     2
 67
     7
 79
     5
170
     0
171
     0
290
     0
174
     0
 93
        1
 44
0.0
173
     0
291
     0
 45
0.0
1001
ACAD
1000
AcDbSavedByObjectVersion
1070
     0
  0
VISUALSTYLE
  5
31
102
{ACAD_REACTORS
330
2A
102
}
330
2A
100
AcDbVisualStyle
  2
3D Hidden
 70
     6
 71
     1
 72
     2
 73
     2
 90
        0
 40
-0.6
 41
-30.0
 62
     5
 63
     7
 74
     2
 91
        2
 64
     7
 65
   257
 75
     2
175
     1
 42
40.0
 92
        0
 66
   257
 43
1.0
 76
     1
 77
     6
 78
     2
 67
     7
 79
     3
170
     0
171
     0
290
     0
174
     0
 93
        1
 44
0.0
173
     0
291
     0
 45
0.0
1001
ACAD
1000
AcDbSavedByObjectVersion
1070
     0
  0
VISUALSTYLE
  5
30
102
{ACAD_REACTORS
330
2A
102
}
330
2A
100
AcDbVisualStyle
  2
3dWireframe
 70
     5
 71
     0
 72
     2
 73
     0
 90
        0
 40
-0.6
 41
-30.0
 62
     5
 63
     7
 74
     1
 91
        4
 64
     7
 65
   257
 75
     1
175
     1
 42
1.0
 92
        0
 66
   257
 43
1.0
 76
     1
 77
     6
 78
     2
 67
     7
 79
     5
170
     0
171
     0
290
     0
174
     0
 93
        1
 44
0.0
173
     0
291
     0
 45
0.0
1001
ACAD
1000
AcDbSavedByObjectVersion
1070
     0
  0
VISUALSTYLE
  5
32
102
{ACAD_REACTORS
330
2A
102
}
330
2A
100
AcDbVisualStyle
  2
Basic
 70
     7
 71
     1
 72
     0
 73
     1
 90
        0
 40
-0.6
 41
-30.0
 62
     5
 63
     7
 74
     0
 91
        4
 64
     7
 65
   257
 75
     1
175
     1
 42
1.0
 92
        8
 66
     7
 43
1.0
 76
     1
 77
     6
 78
     2
 67
     7
 79
     5
170
     0
171
     0
290
     0
174
     0
 93
        1
 44
0.0
173
     0
291
     1
 45
0.0
1001
ACAD
1000
AcDbSavedByObjectVersion
1070
     0
  0
VISUALSTYLE
  5
36
102
{ACAD_REACTORS
330
2A
102
}
330
2A
100
AcDbVisualStyle
  2
Brighten
 70
    12
 71
     2
 72
     2
 73
     0
 90
        0
 40
-0.6
 41
-30.0
 62
     5
 63
     7
 74
     1
 91
        4
 64
     7
 65
   257
 75
     1
175
     1
 42
1.0
 92
        8
 66
     7
 43
1.0
 76
     1
 77
     6
 78
     2
 67
     7
 79
     5
170
     0
171
     0
290
     0
174
     0
 93
        1
 44
50.0
173
     0
291
     1
 45
0.0
1001
ACAD
1000
AcDbSavedByObjectVersion
1070
     0
  0
VISUALSTYLE
  5
3A
102
{ACAD_REACTORS
330
2A
102
}
330
2A
100
AcDbVisualStyle
  2
ColorChange
 70
    16
 71
     2
 72
     2
 73
     3
 90
        0
 40
-0.6
 41
-30.0
 62
     5
 63
     8
 74
     1
 91
        4
 64
     7
 65
   257
 75
     1
175
     1
 42
1.0
 92
        8
 66
     8
 43
1.0
 76
     1
 77
     6
 78
     2
 67
     7
 79
     5
170
     0
171
     0
290
     0
174
     0
 93
        1
 44
0.0
173
     0
291
     1
 45
0.0
1001
ACAD
1000
AcDbSavedByObjectVersion
1070
     0
  0
VISUALSTYLE
  5
34
102
{ACAD_REACTORS
330
2A
102
}
330
2A
100
AcDbVisualStyle
  2
Conceptual
 70
     9
 71
     3
 72
     2
 73
     0
 90
        0
 40
-0.6
 41
-30.0
 62
     5
 63
     7
 74
     2
 91
        2
 64
     7
 65
   257
 75
     1
175
     1
 42
40.0
 92
        8
 66
     7
 43
1.0
 76
     1
 77
     6
 78
     2
 67
     7
 79
     3
170
     0
171
     0
290
     0
174
     0
 93
        1
 44
0.0
173
     0
291
     0
 45
0.0
1001
ACAD
1000
AcDbSavedByObjectVersion
1070
     0
  0
VISUALSTYLE
  5
35
102
{ACAD_REACTORS
330
2A
102
}
330
2A
100
AcDbVisualStyle
  2
Dim
 70
    11
 71
     2
 72
     2
 73
     0
 90
        0
 40
-0.6
 41
-30.0
 62
     5
 63
     7
 74
     1
 91
        4
 64
     7
 65
   257
 75
     1
175
     1
 42
1.0
 92
        8
 66
     7
 43
1.0
 76
     1
 77
     6
 78
     2
 67
     7
 79
     5
170
     0
171
     0
290
     0
174
     0
 93
        1
 44
-50.0
173
     0
291
     1
 45
0.0
1001
ACAD
1000
AcDbSavedByObjectVersion
1070
     0
  0
VISUALSTYLE
  5
39
102
{ACAD_REACTORS
330
2A
102
}
330
2A
100
AcDbVisualStyle
  2
Facepattern
 70
    15
 71
     2
 72
     2
 73
     0
 90
        0
 40
-0.6
 41
-30.0
 62
     5
 63
     7
 74
     1
 91
        4
 64
     7
 65
   257
 75
     1
175
     1
 42
1.0
 92
        8
 66
     7
 43
1.0
 76
     1
 77
     6
 78
     2
 67
     7
 79
     5
170
     0
171
     0
290
     0
174
     0
 93
        1
 44
0.0
173
     0
291
     1
 45
0.0
1001
ACAD
1000
AcDbSavedByObjectVersion
1070
     0
  0
VISUALSTYLE
  5
2B
102
{ACAD_REACTORS
330
2A
102
}
330
2A
100
AcDbVisualStyle
  2
Flat
 70
     0
 71
     2
 72
     1
 73
     1
 90
        2
 40
-0.6
 41
30.0
 62
     5
 63
     7
 74
     0
 91
        4
 64
     7
 65
   257
 75
     1
175
     1
 42
1.0
 92
        8
 66
     7
 43
1.0
 76
     1
 77
     6
 78
     2
 67
     7
 79
     5
170
     0
171
     0
290
     0
174
     0
 93
       13
 44
0.0
173
     0
291
     1
 45
0.0
1001
ACAD
1000
AcDbSavedByObjectVersion
1070
     0
  0
VISUALSTYLE
  5
2C
102
{ACAD_REACTORS
330
2A
102
}
330
2A
100
AcDbVisualStyle
  2
FlatWithEdges
 70
     1
 71
     2
 72
     1
 73
     1
 90
        2
 40
-0.6
 41
30.0
 62
     5
 63
     7
 74
     1
 91
        4
 64
     7
 65
   257
 75
     1
175
     1
 42
1.0
 92
        0
 66
   257
 43
1.0
 76
     1
 77
     6
 78
     2
 67
     7
 79
     5
170
     0
171
     0
290
     0
174
     0
 93
       13
 44
0.0
173
     0
291
     1
 45
0.0
1001
ACAD
1000
AcDbSavedByObjectVersion
1070
     0
  0
VISUALSTYLE
  5
2D
102
{ACAD_REACTORS
330
2A
102
}
330
2A
100
AcDbVisualStyle
  2
Gouraud
 70
     2
 71
     2
 72
     2
 73
     1
 90
        2
 40
-0.6
 41
30.0
 62
     5
 63
     7
 74
     0
 91
        4
 64
     7
 65
   257
 75
     1
175
     1
 42
1.0
 92
        0
 66
     7
 43
1.0
 76
     1
 77
     6
 78
     2
 67
     7
 79
     5
170
     0
171
     0
290
     0
174
     0
 93
       13
 44
0.0
173
     0
291
     1
 45
0.0
1001
ACAD
1000
AcDbSavedByObjectVersion
1070
     0
  0
VISUALSTYLE
  5
2E
102
{ACAD_REACTORS
330
2A
102
}
330
2A
100
AcDbVisualStyle
  2
GouraudWithEdges
 70
     3
 71
     2
 72
     2
 73
     1
 90
        2
 40
-0.6
 41
30.0
 62
     5
 63
     7
 74
     1
 91
        4
 64
     7
 65
   257
 75
     1
175
     1
 42
1.0
 92
        0
 66
   257
 43
1.0
 76
     1
 77
     6
 78
     2
 67
     7
 79
     5
170
     0
171
     0
290
     0
174
     0
 93
       13
 44
0.0
173
     0
291
     1
 45
0.0
1001
ACAD
1000
AcDbSavedByObjectVersion
1070
     0
  0
VISUALSTYLE
  5
38
102
{ACAD_REACTORS
330
2A
102
}
330
2A
100
AcDbVisualStyle
  2
Linepattern
 70
    14
 71
     2
 72
     2
 73
     0
 90
        0
 40
-0.6
 41
-30.0
 62
     5
 63
     7
 74
     1
 91
        4
 64
     7
 65
   257
 75
     7
175
     7
 42
1.0
 92
        8
 66
     7
 43
1.0
 76
     1
 77
     6
 78
     2
 67
     7
 79
     5
170
     0
171
     0
290
     0
174
     0
 93
        1
 44
0.0
173
     0
291
     1
 45
0.0
1001
ACAD
1000
AcDbSavedByObjectVersion
1070
     0
  0
VISUALSTYLE
  5
33
102
{ACAD_REACTORS
330
2A
102
}
330
2A
100
AcDbVisualStyle
  2
Realistic
 70
     8
 71
     2
 72
     2
 73
     0
 90
        0
 40
-0.6
 41
-30.0
 62
     5
 63
     7
 74
     1
 91
        0
 64
     7
 65
   257
 75
     1
175
     1
 42
1.0
 92
        8
 66
     8
 43
1.0
 76
     1
 77
     6
 78
     2
 67
     7
 79
     5
170
     0
171
     0
290
     0
174
     0
 93
       13
 44
0.0
173
     0
291
     0
 45
0.0
1001
ACAD
1000
AcDbSavedByObjectVersion
1070
     0
  0
VISUALSTYLE
  5
37
102
{ACAD_REACTORS
330
2A
102
}
330
2A
100
AcDbVisualStyle
  2
Thicken
 70
    13
 71
     2
 72
     2
 73
     0
 90
        0
 40
-0.6
 41
-30.0
 62
     5
 63
     7
 74
     1
 91
        4
 64
     7
 65
   257
 75
     1
175
     1
 42
1.0
 92
       12
 66
     7
 43
1.0
 76
     1
 77
     6
 78
     2
 67
     7
 79
     5
170
     0
171
     0
290
     0
174
     0
 93
        1
 44
0.0
173
     0
291
     1
 45
0.0
1001
ACAD
1000
AcDbSavedByObjectVersion
1070
     0
  0
DICTIONARYVAR
  5
1F6
102
{ACAD_REACTORS
330
1F5
102
}
330
1F5
100
DictionaryVariables
280
     0
  1
1:1
  0
DICTIONARYVAR
  5
1FA
102
{ACAD_REACTORS
330
1F5
102
}
330
1F5
100
DictionaryVariables
280
     0
  1
80.000000
  0
DICTIONARYVAR
  5
1F9
102
{ACAD_REACTORS
330
1F5
102
}
330
1F5
100
DictionaryVariables
280
     0
  1
5.000000
  0
ENDSEC
  0
EOF
