  0
SECTION
  2
HEADER
  9
$ACADVER
  1
AC1015
  9
$ACADMAINTVER
 70
     6
  9
$DWGCODEPAGE
  3
ANSI_1252
  9
$INSBASE
 10
0.0
 20
0.0
 30
0.0
  9
$EXTMIN
 10
0.0
 20
0.0
 30
0.0
  9
$EXTMAX
 10
1682.0
 20
2378.0
 30
0.0
  9
$LIMMIN
 10
0.0
 20
0.0
  9
$LIMMAX
 10
1682.0
 20
2378.0
  9
$ORTHOMODE
 70
     0
  9
$REGENMODE
 70
     1
  9
$FILLMODE
 70
     1
  9
$QTEXTMODE
 70
     0
  9
$MIRRTEXT
 70
     1
  9
$LTSCALE
 40
1.0
  9
$ATTMODE
 70
     1
  9
$TEXTSIZE
 40
2.5
  9
$TRACEWID
 40
1.0
  9
$TEXTSTYLE
  7
Standard
  9
$CLAYER
  8
0
  9
$CELTYPE
  6
ByLayer
  9
$CECOLOR
 62
   256
  9
$CELTSCALE
 40
1.0
  9
$DISPSILH
 70
     0
  9
$DIMSCALE
 40
1.0
  9
$DIMASZ
 40
2.5
  9
$DIMEXO
 40
0.625
  9
$DIMDLI
 40
3.75
  9
$DIMRND
 40
0.0
  9
$DIMDLE
 40
0.0
  9
$DIMEXE
 40
1.25
  9
$DIMTP
 40
0.0
  9
$DIMTM
 40
0.0
  9
$DIMTXT
 40
2.5
  9
$DIMCEN
 40
2.5
  9
$DIMTSZ
 40
0.0
  9
$DIMTOL
 70
     0
  9
$DIMLIM
 70
     0
  9
$DIMTIH
 70
     0
  9
$DIMTOH
 70
     0
  9
$DIMSE1
 70
     0
  9
$DIMSE2
 70
     0
  9
$DIMTAD
 70
     1
  9
$DIMZIN
 70
     8
  9
$DIMBLK
  1

  9
$DIMASO
 70
     1
  9
$DIMSHO
 70
     1
  9
$DIMPOST
  1

  9
$DIMAPOST
  1

  9
$DIMALT
 70
     0
  9
$DIMALTD
 70
     3
  9
$DIMALTF
 40
0.0393700787
  9
$DIMLFAC
 40
1.0
  9
$DIMTOFL
 70
     1
  9
$DIMTVP
 40
0.0
  9
$DIMTIX
 70
     0
  9
$DIMSOXD
 70
     0
  9
$DIMSAH
 70
     0
  9
$DIMBLK1
  1

  9
$DIMBLK2
  1

  9
$DIMSTYLE
  2
ISO-25
  9
$DIMCLRD
 70
     0
  9
$DIMCLRE
 70
     0
  9
$DIMCLRT
 70
     0
  9
$DIMTFAC
 40
1.0
  9
$DIMGAP
 40
0.625
  9
$DIMJUST
 70
     0
  9
$DIMSD1
 70
     0
  9
$DIMSD2
 70
     0
  9
$DIMTOLJ
 70
     0
  9
$DIMTZIN
 70
     8
  9
$DIMALTZ
 70
     0
  9
$DIMALTTZ
 70
     0
  9
$DIMUPT
 70
     0
  9
$DIMDEC
 70
     2
  9
$DIMTDEC
 70
     2
  9
$DIMALTU
 70
     2
  9
$DIMALTTD
 70
     3
  9
$DIMTXSTY
  7
Standard
  9
$DIMAUNIT
 70
     0
  9
$DIMADEC
 70
     0
  9
$DIMALTRND
 40
0.0
  9
$DIMAZIN
 70
     0
  9
$DIMDSEP
 70
    44
  9
$DIMATFIT
 70
     3
  9
$DIMFRAC
 70
     0
  9
$DIMLDRBLK
  1

  9
$DIMLUNIT
 70
     2
  9
$DIMLWD
 70
    -2
  9
$DIMLWE
 70
    -2
  9
$DIMTMOVE
 70
     0
  9
$LUNITS
 70
     2
  9
$LUPREC
 70
     4
  9
$SKETCHINC
 40
1.0
  9
$FILLETRAD
 40
10.0
  9
$AUNITS
 70
     0
  9
$AUPREC
 70
     0
  9
$MENU
  1
.
  9
$ELEVATION
 40
0.0
  9
$PELEVATION
 40
0.0
  9
$THICKNESS
 40
0.0
  9
$LIMCHECK
 70
     0
  9
$CHAMFERA
 40
10.0
  9
$CHAMFERB
 40
10.0
  9
$CHAMFERC
 40
20.0
  9
$CHAMFERD
 40
0.0
  9
$SKPOLY
 70
     0
  9
$TDCREATE
 40
2455498.375663391
  9
$TDUCREATE
 40
2455498.292330058
  9
$TDUPDATE
 40
2455498.375663403
  9
$TDUUPDATE
 40
2455498.292330069
  9
$TDINDWG
 40
0.0000000116
  9
$TDUSRTIMER
 40
0.0000000116
  9
$USRTIMER
 70
     1
  9
$ANGBASE
 50
0.0
  9
$ANGDIR
 70
     0
  9
$PDMODE
 70
     0
  9
$PDSIZE
 40
0.0
  9
$PLINEWID
 40
0.0
  9
$SPLFRAME
 70
     0
  9
$SPLINETYPE
 70
     6
  9
$SPLINESEGS
 70
     8
  9
$HANDSEED
  5
2D8
  9
$SURFTAB1
 70
     6
  9
$SURFTAB2
 70
     6
  9
$SURFTYPE
 70
     6
  9
$SURFU
 70
     6
  9
$SURFV
 70
     6
  9
$UCSBASE
  2

  9
$UCSNAME
  2

  9
$UCSORG
 10
0.0
 20
0.0
 30
0.0
  9
$UCSXDIR
 10
1.0
 20
0.0
 30
0.0
  9
$UCSYDIR
 10
0.0
 20
1.0
 30
0.0
  9
$UCSORTHOREF
  2

  9
$UCSORTHOVIEW
 70
     0
  9
$UCSORGTOP
 10
0.0
 20
0.0
 30
0.0
  9
$UCSORGBOTTOM
 10
0.0
 20
0.0
 30
0.0
  9
$UCSORGLEFT
 10
0.0
 20
0.0
 30
0.0
  9
$UCSORGRIGHT
 10
0.0
 20
0.0
 30
0.0
  9
$UCSORGFRONT
 10
0.0
 20
0.0
 30
0.0
  9
$UCSORGBACK
 10
0.0
 20
0.0
 30
0.0
  9
$PUCSBASE
  2

  9
$PUCSNAME
  2

  9
$PUCSORG
 10
0.0
 20
0.0
 30
0.0
  9
$PUCSXDIR
 10
1.0
 20
0.0
 30
0.0
  9
$PUCSYDIR
 10
0.0
 20
1.0
 30
0.0
  9
$PUCSORTHOREF
  2

  9
$PUCSORTHOVIEW
 70
     0
  9
$PUCSORGTOP
 10
0.0
 20
0.0
 30
0.0
  9
$PUCSORGBOTTOM
 10
0.0
 20
0.0
 30
0.0
  9
$PUCSORGLEFT
 10
0.0
 20
0.0
 30
0.0
  9
$PUCSORGRIGHT
 10
0.0
 20
0.0
 30
0.0
  9
$PUCSORGFRONT
 10
0.0
 20
0.0
 30
0.0
  9
$PUCSORGBACK
 10
0.0
 20
0.0
 30
0.0
  9
$USERI1
 70
     0
  9
$USERI2
 70
     0
  9
$USERI3
 70
     0
  9
$USERI4
 70
     0
  9
$USERI5
 70
     0
  9
$USERR1
 40
0.0
  9
$USERR2
 40
0.0
  9
$USERR3
 40
0.0
  9
$USERR4
 40
0.0
  9
$USERR5
 40
0.0
  9
$WORLDVIEW
 70
     1
  9
$SHADEDGE
 70
     3
  9
$SHADEDIF
 70
    70
  9
$TILEMODE
 70
     1
  9
$MAXACTVP
 70
    64
  9
$PINSBASE
 10
0.0
 20
0.0
 30
0.0
  9
$PLIMCHECK
 70
     0
  9
$PEXTMIN
 10
0.0
 20
0.0
 30
0.0
  9
$PEXTMAX
 10
1682.0
 20
2378.0
 30
0.0
  9
$PLIMMIN
 10
0.0
 20
0.0
  9
$PLIMMAX
 10
1682.0
 20
2378.0
  9
$UNITMODE
 70
     0
  9
$VISRETAIN
 70
     1
  9
$PLINEGEN
 70
     0
  9
$PSLTSCALE
 70
     1
  9
$TREEDEPTH
 70
  3020
  9
$CMLSTYLE
  2
Standard
  9
$CMLJUST
 70
     0
  9
$CMLSCALE
 40
20.0
  9
$PROXYGRAPHICS
 70
     1
  9
$MEASUREMENT
 70
     1
  9
$CELWEIGHT
370
    -1
  9
$ENDCAPS
280
     0
  9
$JOINSTYLE
280
     0
  9
$LWDISPLAY
290
     0
  9
$INSUNITS
 70
     4
  9
$HYPERLINKBASE
  1

  9
$STYLESHEET
  1

  9
$XEDIT
290
     1
  9
$CEPSNTYPE
380
     0
  9
$PSTYLEMODE
290
     1
  9
$FINGERPRINTGUID
  2
{0F5F394A-57FA-4C9B-88CA-34354D1CB768}
  9
$VERSIONGUID
  2
{FAEB1C32-E019-11D5-929B-00C0DF256EC4}
  9
$EXTNAMES
290
     1
  9
$PSVPSCALE
 40
0.0
  9
$OLESTARTUP
290
     0
  0
ENDSEC
  0
SECTION
  2
CLASSES
  0
CLASS
  1
ACDBDICTIONARYWDFLT
  2
AcDbDictionaryWithDefault
  3
ObjectDBX Classes
 90
        0
280
     0
281
     0
  0
CLASS
  1
VISUALSTYLE
  2
AcDbVisualStyle
  3
ObjectDBX Classes
 90
     4095
280
     0
281
     0
  0
CLASS
  1
SCALE
  2
AcDbScale
  3
ObjectDBX Classes
 90
     1153
280
     0
281
     0
  0
CLASS
  1
DICTIONARYVAR
  2
AcDbDictionaryVar
  3
ObjectDBX Classes
 90
        0
280
     0
281
     0
  0
CLASS
  1
ACDBPLACEHOLDER
  2
AcDbPlaceHolder
  3
ObjectDBX Classes
 90
        0
280
     0
281
     0
  0
CLASS
  1
LAYOUT
  2
AcDbLayout
  3
ObjectDBX Classes
 90
        0
280
     0
281
     0
  0
ENDSEC
  0
SECTION
  2
TABLES
  0
TABLE
  2
VPORT
  5
8
330
0
100
AcDbSymbolTable
 70
     1
  0
VPORT
  5
29
330
8
100
AcDbSymbolTableRecord
100
AcDbViewportTableRecord
  2
*Active
 70
     0
 10
0.0
 20
0.0
 11
1.0
 21
1.0
 12
344.1869158879
 22
148.5
 13
0.0
 23
0.0
 14
10.0
 24
10.0
 15
10.0
 25
10.0
 16
0.0
 26
0.0
 36
1.0
 17
0.0
 27
0.0
 37
0.0
 40
297.0
 41
1.9729729729
 42
50.0
 43
0.0
 44
0.0
 50
0.0
 51
0.0
 71
     0
 72
   100
 73
     1
 74
     3
 75
     0
 76
     0
 77
     0
 78
     0
281
     0
 65
     1
110
0.0
120
0.0
130
0.0
111
1.0
121
0.0
131
0.0
112
0.0
122
1.0
132
0.0
 79
     0
146
0.0
  0
ENDTAB
  0
TABLE
  2
LTYPE
  5
5
330
0
100
AcDbSymbolTable
 70
     2
  0
LTYPE
  5
14
330
5
100
AcDbSymbolTableRecord
100
AcDbLinetypeTableRecord
  2
ByBlock
 70
     0
  3

 72
    65
 73
     0
 40
0.0
  0
LTYPE
  5
15
330
5
100
AcDbSymbolTableRecord
100
AcDbLinetypeTableRecord
  2
ByLayer
 70
     0
  3

 72
    65
 73
     0
 40
0.0
  0
LTYPE
  5
16
330
5
100
AcDbSymbolTableRecord
100
AcDbLinetypeTableRecord
  2
Continuous
 70
     0
  3
Solid line
 72
    65
 73
     0
 40
0.0
  0
LTYPE
  5
60
330
5
100
AcDbSymbolTableRecord
100
AcDbLinetypeTableRecord
  2
CENTER2
 70
     0
  3
Center (.5x) ___ _ ___ _ ___ _ ___ _ ___ _ ___
 72
    65
 73
     4
 40
28.575
 49
19.05
 74
     4
 75
     0
340
0
 46
0.0
 50
0.0
 44
0.0
 45
0.0
 49
-3.175
 74
     4
 75
     0
340
0
 46
0.0
 50
0.0
 44
0.0
 45
0.0
 49
3.175
 74
     4
 75
     0
340
0
 46
0.0
 50
0.0
 44
0.0
 45
0.0
 49
-3.175
 74
     4
 75
     0
340
0
 46
0.0
 50
0.0
 44
0.0
 45
0.0
  0
ENDTAB
  0
TABLE
  2
LAYER
  5
2
330
0
100
AcDbSymbolTable
 70
    16
  0
LAYER
  5
10
330
2
100
AcDbSymbolTableRecord
100
AcDbLayerTableRecord
  2
0
 70
     0
 62
     7
  6
Continuous
370
    -3
390
F
  0
LAYER
  5
5D
330
2
100
AcDbSymbolTableRecord
100
AcDbLayerTableRecord
  2
Default
 70
     0
 62
     7
  6
Continuous
370
    -3
390
F
  0
LAYER
  5
77
330
2
100
AcDbSymbolTableRecord
100
AcDbLayerTableRecord
  2
$DDT_AUDIT_GENERATED_(77)
 70
     0
 62
     7
  6
Continuous
370
    -3
390
F
  0
LAYER
  5
80
330
2
100
AcDbSymbolTableRecord
100
AcDbLayerTableRecord
  2
$DDT_AUDIT_GENERATED_(80)
 70
     0
 62
     7
  6
Continuous
370
    -3
390
F
  0
LAYER
  5
89
330
2
100
AcDbSymbolTableRecord
100
AcDbLayerTableRecord
  2
$DDT_AUDIT_GENERATED_(89)
 70
     0
 62
     7
  6
Continuous
370
    -3
390
F
  0
LAYER
  5
91
330
2
100
AcDbSymbolTableRecord
100
AcDbLayerTableRecord
  2
$DDT_AUDIT_GENERATED_(91)
 70
     0
 62
     7
  6
Continuous
370
    -3
390
F
  0
LAYER
  5
CB
330
2
100
AcDbSymbolTableRecord
100
AcDbLayerTableRecord
  2
$DDT_AUDIT_GENERATED_(CB)
 70
     0
 62
     7
  6
Continuous
370
    -3
390
F
  0
LAYER
  5
D3
330
2
100
AcDbSymbolTableRecord
100
AcDbLayerTableRecord
  2
$DDT_AUDIT_GENERATED_(D3)
 70
     0
 62
     7
  6
Continuous
370
    -3
390
F
  0
LAYER
  5
1C3
330
2
100
AcDbSymbolTableRecord
100
AcDbLayerTableRecord
  2
$DDT_AUDIT_GENERATED_(1C3)
 70
     0
 62
     7
  6
Continuous
370
    -3
390
F
  0
LAYER
  5
1CA
330
2
100
AcDbSymbolTableRecord
100
AcDbLayerTableRecord
  2
$DDT_AUDIT_GENERATED_(1CA)
 70
     0
 62
     7
  6
Continuous
370
    -3
390
F
  0
LAYER
  5
1D0
330
2
100
AcDbSymbolTableRecord
100
AcDbLayerTableRecord
  2
$DDT_AUDIT_GENERATED_(1D0)
 70
     0
 62
     7
  6
Continuous
370
    -3
390
F
  0
LAYER
  5
1DB
330
2
100
AcDbSymbolTableRecord
100
AcDbLayerTableRecord
  2
$DDT_AUDIT_GENERATED_(1DB)
 70
     0
 62
     7
  6
Continuous
370
    -3
390
F
  0
LAYER
  5
1FE
330
2
100
AcDbSymbolTableRecord
100
AcDbLayerTableRecord
  2
$DDT_AUDIT_GENERATED_(1FE)
 70
     0
 62
     7
  6
Continuous
370
    -3
390
F
  0
LAYER
  5
218
330
2
100
AcDbSymbolTableRecord
100
AcDbLayerTableRecord
  2
$DDT_AUDIT_GENERATED_(218)
 70
     0
 62
     7
  6
Continuous
370
    -3
390
F
  0
LAYER
  5
225
330
2
100
AcDbSymbolTableRecord
100
AcDbLayerTableRecord
  2
$DDT_AUDIT_GENERATED_(225)
 70
     0
 62
     7
  6
Continuous
370
    -3
390
F
  0
LAYER
  5
228
330
2
100
AcDbSymbolTableRecord
100
AcDbLayerTableRecord
  2
$DDT_AUDIT_GENERATED_(228)
 70
     0
 62
     7
  6
Continuous
370
    -3
390
F
  0
ENDTAB
  0
TABLE
  2
STYLE
  5
3
330
0
100
AcDbSymbolTable
 70
     2
  0
STYLE
  5
11
330
3
100
AcDbSymbolTableRecord
100
AcDbTextStyleTableRecord
  2
Standard
 70
     0
 40
0.0
 41
1.0
 50
0.0
 71
     0
 42
2.5
  3
txt
  4

  0
STYLE
  5
2C7
330
3
100
AcDbSymbolTableRecord
100
AcDbTextStyleTableRecord
  2
SEACAD_seiso_ttf
 70
     0
 40
0.0
 41
1.0
 50
0.0
 71
     0
 42
0.2
  3
seiso.ttf
  4

  0
ENDTAB
  0
TABLE
  2
VIEW
  5
6
330
0
100
AcDbSymbolTable
 70
     0
  0
ENDTAB
  0
TABLE
  2
UCS
  5
7
330
0
100
AcDbSymbolTable
 70
     0
  0
ENDTAB
  0
TABLE
  2
APPID
  5
9
330
0
100
AcDbSymbolTable
 70
     1
  0
APPID
  5
12
330
9
100
AcDbSymbolTableRecord
100
AcDbRegAppTableRecord
  2
ACAD
 70
     0
  0
ENDTAB
  0
TABLE
  2
DIMSTYLE
  5
A
330
0
100
AcDbSymbolTable
 70
     1
100
AcDbDimStyleTable
  0
DIMSTYLE
105
27
330
A
100
AcDbSymbolTableRecord
100
AcDbDimStyleTableRecord
  2
ISO-25
 70
     0
 41
2.5
 42
0.625
 43
3.75
 44
1.25
 73
     0
 74
     0
 77
     1
 78
     8
140
2.5
141
2.5
143
0.0393700787
147
0.625
171
     3
172
     1
271
     2
272
     2
274
     3
278
    44
283
     0
284
     8
340
11
  0
ENDTAB
  0
TABLE
  2
BLOCK_RECORD
  5
1
330
0
100
AcDbSymbolTable
 70
     7
  0
BLOCK_RECORD
  5
1F
330
1
100
AcDbSymbolTableRecord
100
AcDbBlockTableRecord
  2
*Model_Space
340
22
  0
BLOCK_RECORD
  5
1B
330
1
100
AcDbSymbolTableRecord
100
AcDbBlockTableRecord
  2
*Paper_Space
340
1E
  0
BLOCK_RECORD
  5
5E
330
1
100
AcDbSymbolTableRecord
100
AcDbBlockTableRecord
  2
SEANNOT_GROUP
340
0
102
{BLKREFS
331
5F
102
}
  0
BLOCK_RECORD
  5
65
330
1
100
AcDbSymbolTableRecord
100
AcDbBlockTableRecord
  2
SEANNOT_GROUP1
340
0
102
{BLKREFS
331
66
102
}
  0
BLOCK_RECORD
  5
6B
330
1
100
AcDbSymbolTableRecord
100
AcDbBlockTableRecord
  2
SEANNOT_GROUP2
340
0
102
{BLKREFS
331
6C
102
}
  0
BLOCK_RECORD
  5
75
330
1
100
AcDbSymbolTableRecord
100
AcDbBlockTableRecord
  2
SE
340
0
102
{BLKREFS
331
76
102
}
  0
BLOCK_RECORD
  5
1EB
330
1
100
AcDbSymbolTableRecord
100
AcDbBlockTableRecord
  2
SE1
340
0
102
{BLKREFS
331
1EC
102
}
  0
BLOCK_RECORD
  5
25C
330
1
100
AcDbSymbolTableRecord
100
AcDbBlockTableRecord
  2
SE2
340
0
102
{BLKREFS
331
25D
102
}
  0
ENDTAB
  0
ENDSEC
  0
SECTION
  2
BLOCKS
  0
BLOCK
  5
20
330
1F
100
AcDbEntity
  8
0
100
AcDbBlockBegin
  2
*Model_Space
 70
     0
 10
0.0
 20
0.0
 30
0.0
  3
*Model_Space
  1

  0
ENDBLK
  5
21
330
1F
100
AcDbEntity
  8
0
100
AcDbBlockEnd
  0
BLOCK
  5
1C
330
1B
100
AcDbEntity
 67
     1
  8
0
100
AcDbBlockBegin
  2
*Paper_Space
 70
     0
 10
0.0
 20
0.0
 30
0.0
  3
*Paper_Space
  1

  0
ENDBLK
  5
1D
330
1B
100
AcDbEntity
 67
     1
  8
0
100
AcDbBlockEnd
  0
BLOCK
  5
63
330
5E
100
AcDbEntity
  8
0
100
AcDbBlockBegin
  2
SEANNOT_GROUP
 70
     0
 10
0.0
 20
0.0
 30
0.0
  3
SEANNOT_GROUP
  1

  0
LINE
  5
61
330
5E
100
AcDbEntity
  8
Default
  6
CENTER2
 62
     7
100
AcDbLine
 10
166.6935040618
 20
384.1539426485
 30
0.0
 11
126.6935049559
 21
384.1539426485
 31
0.0
  0
LINE
  5
62
330
5E
100
AcDbEntity
  8
Default
  6
CENTER2
 62
     7
100
AcDbLine
 10
146.6935045088
 20
404.1539422014
 30
0.0
 11
146.6935045088
 21
364.1539430955
 31
0.0
  0
ENDBLK
  5
64
330
5E
100
AcDbEntity
  8
0
100
AcDbBlockEnd
  0
BLOCK
  5
69
330
65
100
AcDbEntity
  8
0
100
AcDbBlockBegin
  2
SEANNOT_GROUP1
 70
     0
 10
0.0
 20
0.0
 30
0.0
  3
SEANNOT_GROUP1
  1

  0
LINE
  5
67
330
65
100
AcDbEntity
  8
Default
  6
CENTER2
 62
     7
100
AcDbLine
 10
372.6985523435
 20
384.1539426485
 30
0.0
 11
332.6985532376
 21
384.1539426485
 31
0.0
  0
LINE
  5
68
330
65
100
AcDbEntity
  8
Default
  6
CENTER2
 62
     7
100
AcDbLine
 10
352.6985527906
 20
404.1539422014
 30
0.0
 11
352.6985527906
 21
364.1539430955
 31
0.0
  0
ENDBLK
  5
6A
330
65
100
AcDbEntity
  8
0
100
AcDbBlockEnd
  0
BLOCK
  5
73
330
6B
100
AcDbEntity
  8
0
100
AcDbBlockBegin
  2
SEANNOT_GROUP2
 70
     0
 10
0.0
 20
0.0
 30
0.0
  3
SEANNOT_GROUP2
  1

  0
LINE
  5
6D
330
6B
100
AcDbEntity
  8
Default
  6
CENTER2
 62
     7
100
AcDbLine
 10
166.6935040618
 20
226.6201952974
 30
0.0
 11
126.6935049559
 21
226.6201952974
 31
0.0
  0
LINE
  5
6E
330
6B
100
AcDbEntity
  8
Default
  6
CENTER2
 62
     7
100
AcDbLine
 10
146.6935045088
 20
246.6201948504
 30
0.0
 11
146.6935045088
 21
206.6201957445
 31
0.0
  0
LINE
  5
6F
330
6B
100
AcDbEntity
  8
Default
  6
CENTER2
 62
     7
100
AcDbLine
 10
171.6935039501
 20
226.6201952974
 30
0.0
 11
177.6935045088
 21
226.6201952974
 31
0.0
  0
LINE
  5
70
330
6B
100
AcDbEntity
  8
Default
  6
CENTER2
 62
     7
100
AcDbLine
 10
146.6935045088
 20
251.6201947386
 30
0.0
 11
146.6935045088
 21
257.6201952974
 31
0.0
  0
LINE
  5
71
330
6B
100
AcDbEntity
  8
Default
  6
CENTER2
 62
     7
100
AcDbLine
 10
121.6935050676
 20
226.6201952974
 30
0.0
 11
115.6935045088
 21
226.6201952974
 31
0.0
  0
LINE
  5
72
330
6B
100
AcDbEntity
  8
Default
  6
CENTER2
 62
     7
100
AcDbLine
 10
146.6935045088
 20
201.6201958562
 30
0.0
 11
146.6935045088
 21
195.6201952974
 31
0.0
  0
ENDBLK
  5
74
330
6B
100
AcDbEntity
  8
0
100
AcDbBlockEnd
  0
BLOCK
  5
1E9
330
75
100
AcDbEntity
  8
0
100
AcDbBlockBegin
  2
SE
 70
     0
 10
0.0
 20
0.0
 30
0.0
  3
SE
  1

  0
LINE
  5
78
330
75
100
AcDbEntity
  8
$DDT_AUDIT_GENERATED_(77)
  6
Continuous
 62
     7
100
AcDbLine
 10
129.1935045088
 20
482.1539426485
 30
0.0
 11
140.1873331036
 21
482.1539426485
 31
0.0
  0
LINE
  5
79
330
75
100
AcDbEntity
  8
$DDT_AUDIT_GENERATED_(77)
  6
Continuous
 62
     7
100
AcDbLine
 10
153.2102799449
 20
482.1539426485
 30
0.0
 11
164.1935045088
 21
482.1539426485
 31
0.0
  0
LINE
  5
7A
330
75
100
AcDbEntity
  8
$DDT_AUDIT_GENERATED_(77)
  6
Continuous
 62
     7
100
AcDbLine
 10
164.6935045088
 20
472.1539426485
 30
0.0
 11
164.6935045088
 21
481.6539426485
 31
0.0
  0
LINE
  5
7B
330
75
100
AcDbEntity
  8
$DDT_AUDIT_GENERATED_(77)
  6
Continuous
 62
     7
100
AcDbLine
 10
164.6935045088
 20
394.1539426485
 30
0.0
 11
164.6935045088
 21
436.1539426485
 31
0.0
  0
LINE
  5
7C
330
75
100
AcDbEntity
  8
$DDT_AUDIT_GENERATED_(77)
  6
Continuous
 62
     7
100
AcDbLine
 10
128.6935045088
 20
436.1539426485
 30
0.0
 11
128.6935045088
 21
394.1539426485
 31
0.0
  0
LINE
  5
7D
330
75
100
AcDbEntity
  8
$DDT_AUDIT_GENERATED_(77)
  6
Continuous
 62
     7
100
AcDbLine
 10
128.6935045088
 20
481.6539426485
 30
0.0
 11
128.6935045088
 21
472.1539426485
 31
0.0
  0
ARC
  5
7E
330
75
100
AcDbEntity
  8
$DDT_AUDIT_GENERATED_(77)
  6
Continuous
 62
     7
100
AcDbCircle
 10
164.1935045088
 20
481.6539426485
 30
0.0
 40
0.5000000000000004
100
AcDbArc
 50
0.0
 51
90.0
  0
ARC
  5
7F
330
75
100
AcDbEntity
  8
$DDT_AUDIT_GENERATED_(77)
  6
Continuous
 62
     7
100
AcDbCircle
 10
129.1935045088
 20
481.6539426485
 30
0.0
 40
0.5000000000000004
100
AcDbArc
 50
90.0
 51
180.0
  0
LINE
  5
81
330
75
100
AcDbEntity
  8
$DDT_AUDIT_GENERATED_(80)
  6
Continuous
 62
     7
100
AcDbLine
 10
91.6935045088
 20
436.6539426485
 30
0.0
 11
91.6935045088
 21
471.6539426485
 31
0.0
  0
LINE
  5
82
330
75
100
AcDbEntity
  8
$DDT_AUDIT_GENERATED_(80)
  6
Continuous
 62
     7
100
AcDbLine
 10
201.6935045088
 20
471.6539426485
 30
0.0
 11
201.6935045088
 21
436.6539426485
 31
0.0
  0
ARC
  5
83
330
75
100
AcDbEntity
  8
$DDT_AUDIT_GENERATED_(80)
  6
Continuous
 62
     7
100
AcDbCircle
 10
92.1935045088
 20
471.6539426485
 30
0.0
 40
0.5000000000000004
100
AcDbArc
 50
90.0
 51
180.0
  0
ARC
  5
84
330
75
100
AcDbEntity
  8
$DDT_AUDIT_GENERATED_(80)
  6
Continuous
 62
     7
100
AcDbCircle
 10
92.1935045088
 20
436.6539426485
 30
0.0
 40
0.5000000000000004
100
AcDbArc
 50
180.0
 51
270.0
  0
ARC
  5
85
330
75
100
AcDbEntity
  8
$DDT_AUDIT_GENERATED_(80)
  6
Continuous
 62
     7
100
AcDbCircle
 10
201.1935045088
 20
471.6539426485
 30
0.0
 40
0.5000000000000004
100
AcDbArc
 50
0.0
 51
90.0
  0
ARC
  5
86
330
75
100
AcDbEntity
  8
$DDT_AUDIT_GENERATED_(80)
  6
Continuous
 62
     7
100
AcDbCircle
 10
201.1935045088
 20
436.6539426485
 30
0.0
 40
0.5000000000000004
100
AcDbArc
 50
270.0
 51
0.0
  0
LINE
  5
87
330
75
100
AcDbEntity
  8
$DDT_AUDIT_GENERATED_(80)
  6
Continuous
 62
     7
100
AcDbLine
 10
201.1935045088
 20
472.1539426485
 30
0.0
 11
92.1935045088
 21
472.1539426485
 31
0.0
  0
LINE
  5
88
330
75
100
AcDbEntity
  8
$DDT_AUDIT_GENERATED_(80)
  6
Continuous
 62
     7
100
AcDbLine
 10
92.1935045088
 20
436.1539426485
 30
0.0
 11
201.1935045088
 21
436.1539426485
 31
0.0
  0
LINE
  5
8A
330
75
100
AcDbEntity
  8
$DDT_AUDIT_GENERATED_(89)
  6
Continuous
 62
     7
100
AcDbLine
 10
87.7935045088
 20
439.8039426485
 30
0.0
 11
87.7935045088
 21
468.5039426485
 31
0.0
  0
LINE
  5
8B
330
75
100
AcDbEntity
  8
$DDT_AUDIT_GENERATED_(89)
  6
Continuous
 62
     7
100
AcDbLine
 10
91.6935045088
 20
469.0039426485
 30
0.0
 11
88.2935045088
 21
469.0039426485
 31
0.0
  0
LINE
  5
8C
330
75
100
AcDbEntity
  8
$DDT_AUDIT_GENERATED_(89)
  6
Continuous
 62
     7
100
AcDbLine
 10
88.2935045088
 20
439.3039426485
 30
0.0
 11
91.6935045088
 21
439.3039426485
 31
0.0
  0
LINE
  5
8D
330
75
100
AcDbEntity
  8
$DDT_AUDIT_GENERATED_(89)
  6
Continuous
 62
     7
100
AcDbLine
 10
87.5935045088
 20
446.6539426485
 30
0.0
 11
87.7935045088
 21
446.6539426485
 31
0.0
  0
LINE
  5
8E
330
75
100
AcDbEntity
  8
$DDT_AUDIT_GENERATED_(89)
  6
Continuous
 62
     7
100
AcDbLine
 10
87.7935045088
 20
461.6539426485
 30
0.0
 11
87.5935045088
 21
461.6539426485
 31
0.0
  0
ARC
  5
8F
330
75
100
AcDbEntity
  8
$DDT_AUDIT_GENERATED_(89)
  6
Continuous
 62
     7
100
AcDbCircle
 10
88.2935045088
 20
468.5039426485
 30
0.0
 40
0.5000000000000004
100
AcDbArc
 50
90.0
 51
180.0
  0
ARC
  5
90
330
75
100
AcDbEntity
  8
$DDT_AUDIT_GENERATED_(89)
  6
Continuous
 62
     7
100
AcDbCircle
 10
88.2935045088
 20
439.8039426485
 30
0.0
 40
0.5000000000000004
100
AcDbArc
 50
180.0
 51
270.0
  0
LINE
  5
92
330
75
100
AcDbEntity
  8
$DDT_AUDIT_GENERATED_(91)
  6
Continuous
 62
     7
100
AcDbLine
 10
87.5935045088
 20
444.4039426485
 30
0.0
 11
87.5935045088
 21
463.9039426485
 31
0.0
  0
ARC
  5
93
330
75
100
AcDbEntity
  8
$DDT_AUDIT_GENERATED_(91)
  6
Continuous
 62
     7
100
AcDbCircle
 10
72.0935044961
 20
471.4529567233
 30
0.0
 40
9.643008853318314
100
AcDbArc
 50
231.5221308857
 51
308.4778726016
  0
SPLINE
  5
94
330
75
100
AcDbEntity
  8
$DDT_AUDIT_GENERATED_(91)
  6
Continuous
 62
     7
100
AcDbSpline
210
0.0
220
0.0
230
1.0
 70
     8
 71
     3
 72
    14
 73
    10
 74
     0
 42
0.0000000002598618
 43
0.0000000001
 40
0.0
 40
0.0
 40
0.0
 40
0.0
 40
0.1250000000000001
 40
0.1250000000000001
 40
0.1875000000000001
 40
0.1875000000000001
 40
0.2500000000000001
 40
0.2500000000000001
 40
0.2506472005983306
 40
0.2506472005983306
 40
0.2506472005983306
 40
0.2506472005983306
 10
72.09350450884985
 20
455.507488533923
 30
0.0
 10
73.72537201597521
 20
455.507488533923
 30
0.0
 10
75.24252380604432
 20
454.6437290843616
 30
0.0
 10
76.86283309805683
 20
452.8587363246789
 30
0.0
 10
77.30570092825556
 20
452.174247783941
 30
0.0
 10
77.91970873387963
 20
450.7481062878263
 30
0.0
 10
78.09015750744422
 20
450.002505059097
 30
0.0
 10
78.09348892680002
 20
449.2928394922366
 30
0.0
 10
78.09350502656623
 20
449.2855720201263
 30
0.0
 10
78.09350311384378
 20
449.2783105504157
 30
0.0
  0
SPLINE
  5
95
330
75
100
AcDbEntity
  8
$DDT_AUDIT_GENERATED_(91)
  6
Continuous
 62
     7
100
AcDbSpline
210
0.0
220
0.0
230
1.0
 70
     8
 71
     3
 72
    14
 73
    10
 74
     0
 42
0.000000000261539
 43
0.0000000001
 40
0.7505640454311329
 40
0.7505640454311329
 40
0.7505640454311329
 40
0.7505640454311329
 40
0.8125000000000002
 40
0.8125000000000002
 40
0.8750000000000001
 40
0.8750000000000001
 40
0.9375000000000001
 40
0.9375000000000001
 40
1.0
 40
1.0
 40
1.0
 40
1.0
 10
66.09350531816193
 20
449.2785440148279
 30
0.0
 10
66.0935008524694
 20
449.9766258468271
 30
0.0
 10
66.25900084663357
 20
450.7187282692303
 30
0.0
 10
66.86591425495465
 20
452.1482541595441
 30
0.0
 10
67.30894963578096
 20
452.8386089413052
 30
0.0
 10
68.39243929149977
 20
454.038845450757
 30
0.0
 10
69.0303950273487
 20
454.5511486871582
 30
0.0
 10
70.47475696282821
 20
455.2916126388068
 30
0.0
 10
71.27757075528717
 20
455.507488533923
 30
0.0
 10
72.09350450884985
 20
455.507488533923
 30
0.0
  0
LINE
  5
96
330
75
100
AcDbEntity
  8
$DDT_AUDIT_GENERATED_(91)
  6
Continuous
 62
     7
100
AcDbLine
 10
64.5935045088
 20
444.9039426485
 30
0.0
 11
64.5935045088
 21
463.4039426485
 31
0.0
  0
ELLIPSE
  5
97
330
75
100
AcDbEntity
  8
$DDT_AUDIT_GENERATED_(91)
  6
Continuous
 62
     7
100
AcDbEllipse
 10
72.0935045088
 20
435.6539426485
 30
0.0
 11
6.000000000000005
 21
-2.471980953266950E-14
 31
0.0
210
0.0
220
0.0
230
1.0
 40
0.8660254038
 41
5.816221621778396
 42
6.28318530717958
  0
ELLIPSE
  5
98
330
75
100
AcDbEntity
  8
$DDT_AUDIT_GENERATED_(91)
  6
Continuous
 62
     7
100
AcDbEllipse
 10
72.0935045088
 20
435.6539426485
 30
0.0
 11
6.000000000000005
 21
-2.471980953266950E-14
 31
0.0
210
0.0
220
0.0
230
1.0
 40
0.8660254038
 41
2.65453583220998
 42
3.621816649501655
  0
ELLIPSE
  5
99
330
75
100
AcDbEntity
  8
$DDT_AUDIT_GENERATED_(91)
  6
Continuous
 62
     7
100
AcDbEllipse
 10
72.0935045088
 20
435.6539426485
 30
0.0
 11
6.000000000000005
 21
-2.471980953266950E-14
 31
0.0
210
0.0
220
0.0
230
1.0
 40
0.8660254038
 41
0.4666724319046219
 42
2.65453583220998
  0
ELLIPSE
  5
9A
330
75
100
AcDbEntity
  8
$DDT_AUDIT_GENERATED_(91)
  6
Continuous
 62
     7
100
AcDbEllipse
 10
72.0935045088
 20
435.6539426485
 30
0.0
 11
6.000000000000005
 21
-2.471980953266950E-14
 31
0.0
210
0.0
220
0.0
230
1.0
 40
0.8660254038
 41
0.0000000000000048
 42
0.4666724319046219
  0
LINE
  5
9B
330
75
100
AcDbEntity
  8
$DDT_AUDIT_GENERATED_(91)
  6
Continuous
 62
     7
100
AcDbLine
 10
66.5935045088
 20
491.6539426485
 30
0.0
 11
77.5935045088
 21
491.6539426485
 31
0.0
  0
LINE
  5
9C
330
75
100
AcDbEntity
  8
$DDT_AUDIT_GENERATED_(91)
  6
Continuous
 62
     7
100
AcDbLine
 10
66.0935045088
 20
491.1539426485
 30
0.0
 11
66.0935045088
 21
463.8956900288
 31
0.0
  0
LINE
  5
9D
330
75
100
AcDbEntity
  8
$DDT_AUDIT_GENERATED_(91)
  6
Continuous
 62
     7
100
AcDbLine
 10
78.0935045088
 20
463.8973090064
 30
0.0
 11
78.0935045088
 21
491.1539426485
 31
0.0
  0
LINE
  5
9E
330
75
100
AcDbEntity
  8
$DDT_AUDIT_GENERATED_(91)
  6
Continuous
 62
     7
100
AcDbLine
 10
78.0935045088
 20
435.6539426485
 30
0.0
 11
78.0935045088
 21
449.2830689583
 31
0.0
  0
LINE
  5
9F
330
75
100
AcDbEntity
  8
$DDT_AUDIT_GENERATED_(91)
  6
Continuous
 62
     7
100
AcDbLine
 10
66.0935045088
 20
449.2822594695
 30
0.0
 11
66.0935045088
 21
435.6539426485
 31
0.0
  0
LINE
  5
A0
330
75
100
AcDbEntity
  8
$DDT_AUDIT_GENERATED_(91)
  6
Continuous
 62
     7
100
AcDbLine
 10
65.0935045088
 20
444.4039426485
 30
0.0
 11
66.0935045088
 21
444.4039426485
 31
0.0
  0
LINE
  5
A1
330
75
100
AcDbEntity
  8
$DDT_AUDIT_GENERATED_(91)
  6
Continuous
 62
     7
100
AcDbLine
 10
78.0935045088
 20
444.4039426485
 30
0.0
 11
87.5935045088
 21
444.4039426485
 31
0.0
  0
LINE
  5
A2
330
75
100
AcDbEntity
  8
$DDT_AUDIT_GENERATED_(91)
  6
Continuous
 62
     7
100
AcDbLine
 10
66.106973187
 20
463.9039426485
 30
0.0
 11
65.0935045088
 21
463.9039426485
 31
0.0
  0
LINE
  5
A3
330
75
100
AcDbEntity
  8
$DDT_AUDIT_GENERATED_(91)
  6
Continuous
 62
     7
100
AcDbLine
 10
87.5935045088
 20
463.9039426485
 30
0.0
 11
78.0826942968
 21
463.9039426485
 31
0.0
  0
ARC
  5
A4
330
75
100
AcDbEntity
  8
$DDT_AUDIT_GENERATED_(91)
  6
Continuous
 62
     7
100
AcDbCircle
 10
65.0935045088
 20
463.4039426485
 30
0.0
 40
0.5000000000000004
100
AcDbArc
 50
90.0
 51
180.0
  0
ARC
  5
A5
330
75
100
AcDbEntity
  8
$DDT_AUDIT_GENERATED_(91)
  6
Continuous
 62
     7
100
AcDbCircle
 10
65.0935045088
 20
444.9039426485
 30
0.0
 40
0.4999999999975024
100
AcDbArc
 50
180.0
 51
270.0
  0
ARC
  5
A6
330
75
100
AcDbEntity
  8
$DDT_AUDIT_GENERATED_(91)
  6
Continuous
 62
     7
100
AcDbCircle
 10
72.0876816018
 20
436.8166525236
 30
0.0
 40
6.417276531998553
100
AcDbArc
 50
214.8077766019
 51
216.626112971
  0
ARC
  5
A7
330
75
100
AcDbEntity
  8
$DDT_AUDIT_GENERATED_(91)
  6
Continuous
 62
     7
100
AcDbCircle
 10
72.0876816018
 20
436.8166525236
 30
0.0
 40
6.417276531998553
100
AcDbArc
 50
267.3383706748
 51
271.4960951815
  0
ARC
  5
A8
330
75
100
AcDbEntity
  8
$DDT_AUDIT_GENERATED_(91)
  6
Continuous
 62
     7
100
AcDbCircle
 10
72.0876816018
 20
436.8166525236
 30
0.0
 40
6.417276531998553
100
AcDbArc
 50
323.8607506632
 51
325.4101087089
  0
ARC
  5
A9
330
75
100
AcDbEntity
  8
$DDT_AUDIT_GENERATED_(91)
  6
Continuous
 62
     7
100
AcDbCircle
 10
71.9453323157
 20
436.5058617449
 30
0.0
 40
6.116853712293483
100
AcDbArc
 50
212.6990893624
 51
271.3880455849
  0
ARC
  5
AA
330
75
100
AcDbEntity
  8
$DDT_AUDIT_GENERATED_(91)
  6
Continuous
 62
     7
100
AcDbCircle
 10
72.2438865629
 20
436.5010747106
 30
0.0
 40
6.112122055672777
100
AcDbArc
 50
268.590157971
 51
328.002964476
  0
ARC
  5
AB
330
75
100
AcDbEntity
  8
$DDT_AUDIT_GENERATED_(91)
  6
Continuous
 62
     7
100
AcDbCircle
 10
66.5935045088
 20
491.1539426485
 30
0.0
 40
0.5000000000000004
100
AcDbArc
 50
90.0
 51
180.0
  0
ARC
  5
AC
330
75
100
AcDbEntity
  8
$DDT_AUDIT_GENERATED_(91)
  6
Continuous
 62
     7
100
AcDbCircle
 10
77.5935045088
 20
491.1539426485
 30
0.0
 40
0.5000000000000004
100
AcDbArc
 50
0.0
 51
90.0
  0
LINE
  5
AD
330
75
100
AcDbEntity
  8
$DDT_AUDIT_GENERATED_(89)
  6
Continuous
 62
     7
100
AcDbLine
 10
205.5935045088
 20
439.8039426485
 30
0.0
 11
205.5935045088
 21
468.5039426485
 31
0.0
  0
LINE
  5
AE
330
75
100
AcDbEntity
  8
$DDT_AUDIT_GENERATED_(89)
  6
Continuous
 62
     7
100
AcDbLine
 10
201.6935045088
 20
439.3039426485
 30
0.0
 11
205.0935045088
 21
439.3039426485
 31
0.0
  0
LINE
  5
AF
330
75
100
AcDbEntity
  8
$DDT_AUDIT_GENERATED_(89)
  6
Continuous
 62
     7
100
AcDbLine
 10
205.0935045088
 20
469.0039426485
 30
0.0
 11
201.6935045088
 21
469.0039426485
 31
0.0
  0
LINE
  5
B0
330
75
100
AcDbEntity
  8
$DDT_AUDIT_GENERATED_(89)
  6
Continuous
 62
     7
100
AcDbLine
 10
205.7935045089
 20
461.6539426485
 30
0.0
 11
205.5935045088
 21
461.6539426485
 31
0.0
  0
LINE
  5
B1
330
75
100
AcDbEntity
  8
$DDT_AUDIT_GENERATED_(89)
  6
Continuous
 62
     7
100
AcDbLine
 10
205.5935045088
 20
446.6539426485
 30
0.0
 11
205.7935045089
 21
446.6539426485
 31
0.0
  0
ARC
  5
B2
330
75
100
AcDbEntity
  8
$DDT_AUDIT_GENERATED_(89)
  6
Continuous
 62
     7
100
AcDbCircle
 10
205.0935045088
 20
439.8039426485
 30
0.0
 40
0.5000000000000004
100
AcDbArc
 50
270.0
 51
0.0
  0
ARC
  5
B3
330
75
100
AcDbEntity
  8
$DDT_AUDIT_GENERATED_(89)
  6
Continuous
 62
     7
100
AcDbCircle
 10
205.0935045088
 20
468.5039426485
 30
0.0
 40
0.5000000000000004
100
AcDbArc
 50
0.0
 51
90.0
  0
LINE
  5
B4
330
75
100
AcDbEntity
  8
$DDT_AUDIT_GENERATED_(91)
  6
Continuous
 62
     7
100
AcDbLine
 10
205.7935045089
 20
444.4039426485
 30
0.0
 11
205.7935045089
 21
463.9039426485
 31
0.0
  0
SPLINE
  5
B5
330
75
100
AcDbEntity
  8
$DDT_AUDIT_GENERATED_(91)
  6
Continuous
 62
     7
100
AcDbSpline
210
0.0
220
0.0
230
1.0
 70
     8
 71
     3
 72
    22
 73
    18
 74
     0
 42
0.0000000002606264
 43
0.0000000001
 40
0.2506472005983318
 40
0.2506472005983318
 40
0.2506472005983318
 40
0.2506472005983318
 40
0.3124999999999999
 40
0.3124999999999999
 40
0.3749999999999999
 40
0.3749999999999999
 40
0.4374999999999999
 40
0.4374999999999999
 40
0.5
 40
0.5
 40
0.625
 40
0.625
 40
0.6875
 40
0.6875
 40
0.75
 40
0.75
 40
0.7505640454311323
 40
0.7505640454311323
 40
0.7505640454311323
 40
0.7505640454311323
 10
227.2935031138435
 20
449.2795763377171
 30
0.0
 10
227.2933203154369
 20
449.9737118562408
 30
0.0
 10
227.1286190626184
 20
450.7164008487846
 30
0.0
 10
226.5224056214233
 20
452.1460609441243
 30
0.0
 10
226.0800216163445
 20
452.835071909985
 30
0.0
 10
225.0037418024775
 20
454.0300344171413
 30
0.0
 10
224.3613359101232
 20
454.5463752711885
 30
0.0
 10
222.9345175858056
 20
455.2825066496366
 30
0.0
 10
222.1336751883653
 20
455.5032001021571
 30
0.0
 10
219.6873830728949
 20
455.5158731492416
 30
0.0
 10
218.1612584362728
 20
454.658472421775
 30
0.0
 10
216.5272508522751
 20
452.8639715247398
 30
0.0
 10
216.0874013302916
 20
452.1869903772661
 30
0.0
 10
215.4649397927252
 20
450.7440252265712
 30
0.0
 10
215.296595490162
 20
450.0039283962606
 30
0.0
 10
215.2935191257585
 20
449.2920613690806
 30
0.0
 10
215.2935053588304
 20
449.2856993655225
 30
0.0
 10
215.2935053181617
 20
449.2793423364837
 30
0.0
  0
ARC
  5
B6
330
75
100
AcDbEntity
  8
$DDT_AUDIT_GENERATED_(91)
  6
Continuous
 62
     7
100
AcDbCircle
 10
221.2935044961
 20
471.4529567233
 30
0.0
 40
9.643008853318458
100
AcDbArc
 50
231.5221308857
 51
308.4778726016
  0
LINE
  5
B7
330
75
100
AcDbEntity
  8
$DDT_AUDIT_GENERATED_(91)
  6
Continuous
 62
     7
100
AcDbLine
 10
228.7935045088
 20
444.9039426485
 30
0.0
 11
228.7935045088
 21
463.4039426485
 31
0.0
  0
LINE
  5
B8
330
75
100
AcDbEntity
  8
$DDT_AUDIT_GENERATED_(91)
  6
Continuous
 62
     7
100
AcDbLine
 10
215.7935045088
 20
491.6539426485
 30
0.0
 11
226.7935045088
 21
491.6539426485
 31
0.0
  0
ELLIPSE
  5
B9
330
75
100
AcDbEntity
  8
$DDT_AUDIT_GENERATED_(91)
  6
Continuous
 62
     7
100
AcDbEllipse
 10
221.2935045088
 20
435.4039426485
 30
0.0
 11
5.500000000000005
 21
2.753873518113182E-14
 31
0.0
210
0.0
220
0.0
230
1.0
 40
0.8660254038
 41
0.0
 42
6.283185307179586
  0
ELLIPSE
  5
BA
330
75
100
AcDbEntity
  8
$DDT_AUDIT_GENERATED_(91)
  6
Continuous
 62
     7
100
AcDbEllipse
 10
221.2935045088
 20
435.6539426485
 30
0.0
 11
6.000000000000005
 21
-1.084202172485504E-15
 31
0.0
210
0.0
220
0.0
230
1.0
 40
0.8660254038
 41
5.816221621778403
 42
6.283185307179586
  0
ELLIPSE
  5
BB
330
75
100
AcDbEntity
  8
$DDT_AUDIT_GENERATED_(91)
  6
Continuous
 62
     7
100
AcDbEllipse
 10
221.2935045088
 20
435.6539426485
 30
0.0
 11
6.000000000000005
 21
-1.084202172485504E-15
 31
0.0
210
0.0
220
0.0
230
1.0
 40
0.8660254038
 41
2.654535832209987
 42
3.621816649501683
  0
ELLIPSE
  5
BC
330
75
100
AcDbEntity
  8
$DDT_AUDIT_GENERATED_(91)
  6
Continuous
 62
     7
100
AcDbEllipse
 10
221.2935045088
 20
435.6539426485
 30
0.0
 11
6.000000000000005
 21
-1.084202172485504E-15
 31
0.0
210
0.0
220
0.0
230
1.0
 40
0.8660254038
 41
0.0
 42
0.4666724319046079
  0
LINE
  5
BD
330
75
100
AcDbEntity
  8
$DDT_AUDIT_GENERATED_(91)
  6
Continuous
 62
     7
100
AcDbLine
 10
227.2935045088
 20
435.6539426485
 30
0.0
 11
227.2935045088
 21
449.2830689583
 31
0.0
  0
LINE
  5
BE
330
75
100
AcDbEntity
  8
$DDT_AUDIT_GENERATED_(91)
  6
Continuous
 62
     7
100
AcDbLine
 10
215.2935045088
 20
449.2822594695
 30
0.0
 11
215.2935045088
 21
435.6539426485
 31
0.0
  0
LINE
  5
BF
330
75
100
AcDbEntity
  8
$DDT_AUDIT_GENERATED_(91)
  6
Continuous
 62
     7
100
AcDbLine
 10
215.2935045088
 20
491.1539426485
 30
0.0
 11
215.2935045088
 21
463.8956900288
 31
0.0
  0
LINE
  5
C0
330
75
100
AcDbEntity
  8
$DDT_AUDIT_GENERATED_(91)
  6
Continuous
 62
     7
100
AcDbLine
 10
227.2935045088
 20
463.8973090064
 30
0.0
 11
227.2935045088
 21
491.1539426485
 31
0.0
  0
LINE
  5
C1
330
75
100
AcDbEntity
  8
$DDT_AUDIT_GENERATED_(91)
  6
Continuous
 62
     7
100
AcDbLine
 10
215.306973187
 20
463.9039426485
 30
0.0
 11
205.7935045089
 21
463.9039426485
 31
0.0
  0
LINE
  5
C2
330
75
100
AcDbEntity
  8
$DDT_AUDIT_GENERATED_(91)
  6
Continuous
 62
     7
100
AcDbLine
 10
228.2935045089
 20
463.9039426485
 30
0.0
 11
227.2826942968
 21
463.9039426485
 31
0.0
  0
LINE
  5
C3
330
75
100
AcDbEntity
  8
$DDT_AUDIT_GENERATED_(91)
  6
Continuous
 62
     7
100
AcDbLine
 10
205.7935045089
 20
444.4039426485
 30
0.0
 11
215.2935045088
 21
444.4039426485
 31
0.0
  0
LINE
  5
C4
330
75
100
AcDbEntity
  8
$DDT_AUDIT_GENERATED_(91)
  6
Continuous
 62
     7
100
AcDbLine
 10
227.2935045088
 20
444.4039426485
 30
0.0
 11
228.2935045089
 21
444.4039426485
 31
0.0
  0
ARC
  5
C5
330
75
100
AcDbEntity
  8
$DDT_AUDIT_GENERATED_(91)
  6
Continuous
 62
     7
100
AcDbCircle
 10
228.2935045089
 20
444.9039426485
 30
0.0
 40
0.5000000000000004
100
AcDbArc
 50
270.0
 51
0.0
  0
ARC
  5
C6
330
75
100
AcDbEntity
  8
$DDT_AUDIT_GENERATED_(91)
  6
Continuous
 62
     7
100
AcDbCircle
 10
228.2935045089
 20
463.4039426485
 30
0.0
 40
0.4999999999974886
100
AcDbArc
 50
0.0
 51
90.0
  0
ARC
  5
C7
330
75
100
AcDbEntity
  8
$DDT_AUDIT_GENERATED_(91)
  6
Continuous
 62
     7
100
AcDbCircle
 10
226.7935045088
 20
491.1539426485
 30
0.0
 40
0.5000000000000004
100
AcDbArc
 50
0.0
 51
90.0
  0
ARC
  5
C8
330
75
100
AcDbEntity
  8
$DDT_AUDIT_GENERATED_(91)
  6
Continuous
 62
     7
100
AcDbCircle
 10
215.7935045088
 20
491.1539426485
 30
0.0
 40
0.5000000000000143
100
AcDbArc
 50
90.0
 51
180.0
  0
ARC
  5
C9
330
75
100
AcDbEntity
  8
$DDT_AUDIT_GENERATED_(91)
  6
Continuous
 62
     7
100
AcDbCircle
 10
221.1453323157
 20
436.5058617449
 30
0.0
 40
6.116853712293574
100
AcDbArc
 50
212.6990893624
 51
271.3880455849
  0
ARC
  5
CA
330
75
100
AcDbEntity
  8
$DDT_AUDIT_GENERATED_(91)
  6
Continuous
 62
     7
100
AcDbCircle
 10
221.4438865629
 20
436.5010747106
 30
0.0
 40
6.112122055672822
100
AcDbArc
 50
268.590157971
 51
328.002964476
  0
ELLIPSE
  5
CC
330
75
100
AcDbEntity
  8
$DDT_AUDIT_GENERATED_(CB)
  6
Continuous
 62
     7
100
AcDbEllipse
 10
146.6935045088
 20
488.4611973593
 30
0.0
 11
10.075
 21
6.938893903907228E-15
 31
0.0
210
0.0
220
0.0
230
1.0
 40
0.7071067812
 41
0.0
 42
6.283185307179586
  0
ELLIPSE
  5
CD
330
75
100
AcDbEntity
  8
$DDT_AUDIT_GENERATED_(CB)
  6
Continuous
 62
     7
100
AcDbEllipse
 10
146.6935045088
 20
489.1683041405
 30
0.0
 11
11.575
 21
0.0
 31
0.0
210
0.0
220
0.0
230
1.0
 40
0.7071067812
 41
0.0
 42
0.0070842497667743
  0
ELLIPSE
  5
CE
330
75
100
AcDbEntity
  8
$DDT_AUDIT_GENERATED_(CB)
  6
Continuous
 62
     7
100
AcDbEllipse
 10
146.6935045088
 20
500.3759466223
 30
0.0
 11
11.575
 21
0.0
 31
0.0
210
0.0
220
0.0
230
1.0
 40
0.7071067812
 41
0.0
 42
3.141592653589793
  0
LINE
  5
CF
330
75
100
AcDbEntity
  8
$DDT_AUDIT_GENERATED_(CB)
  6
Continuous
 62
     7
100
AcDbLine
 10
158.2685045088
 20
489.1683041405
 30
0.0
 11
158.2685045088
 21
500.3759466223
 31
0.0
  0
LINE
  5
D0
330
75
100
AcDbEntity
  8
$DDT_AUDIT_GENERATED_(CB)
  6
Continuous
 62
     7
100
AcDbLine
 10
135.1185045088
 20
500.3759466223
 30
0.0
 11
135.1185045088
 21
489.1683041405
 31
0.0
  0
SPLINE
  5
D1
330
75
100
AcDbEntity
  8
$DDT_AUDIT_GENERATED_(CB)
  6
Continuous
 62
     7
100
AcDbSpline
210
0.0
220
0.0
230
1.0
 70
     8
 71
     3
 72
    24
 73
    20
 74
     0
 42
0.0000000006319426
 43
0.0000000001
 40
0.0
 40
0.0
 40
0.0
 40
0.0
 40
0.0174546345382105
 40
0.0805540841245342
 40
0.1436442328855523
 40
0.2069362990096834
 40
0.270603175431529
 40
0.3347374377121273
 40
0.3993463803870236
 40
0.4643695872732495
 40
0.5297094752053251
 40
0.5952618138694798
 40
0.6609368457705607
 40
0.7266686879399568
 40
0.7924072594440865
 40
0.8581369437761078
 40
0.9238559327622314
 40
0.9861368939238359
 40
1.0
 40
1.0
 40
1.0
 40
1.0
 10
135.1306089061151
 20
489.1184063556085
 30
0.0
 10
135.127298320711
 20
489.0308966588234
 30
0.0
 10
135.1152519713526
 20
488.685448538872
 30
0.0
 10
135.2097044082615
 20
488.0126407400707
 30
0.0
 10
135.4188629466851
 20
487.1722805006804
 30
0.0
 10
135.7510200274635
 20
486.3455139824616
 30
0.0
 10
136.1922078891898
 20
485.5505704251642
 30
0.0
 10
136.7417943829426
 20
484.7917502508281
 30
0.0
 10
137.3942740577843
 20
484.0773664756212
 30
0.0
 10
138.1437347484334
 20
483.4147449473923
 30
0.0
 10
138.9824823446481
 20
482.8111755361872
 30
0.0
 10
139.9016034829863
 20
482.2732190914895
 30
0.0
 10
140.8910448796236
 20
481.8065867678584
 30
0.0
 10
141.9403966363012
 20
481.4160265006767
 30
0.0
 10
143.0373455376982
 20
481.1053789589678
 30
0.0
 10
144.1747405229547
 20
480.8773479913574
 30
0.0
 10
145.3049820542205
 20
480.7371463380212
 30
0.0
 10
146.1753368083029
 20
480.6933985629584
 30
0.0
 10
146.6026511790411
 20
480.6910026329874
 30
0.0
 10
146.6935045088498
 20
480.6906499294183
 30
0.0
  0
SPLINE
  5
D2
330
75
100
AcDbEntity
  8
$DDT_AUDIT_GENERATED_(CB)
  6
Continuous
 62
     7
100
AcDbSpline
210
0.0
220
0.0
230
1.0
 70
     8
 71
     3
 72
    23
 73
    19
 74
     0
 42
0.0000000006274826
 43
0.0000000001
 40
0.0
 40
0.0
 40
0.0
 40
0.0
 40
0.0348303845813791
 40
0.1000129577376107
 40
0.1652449288020018
 40
0.2305209021690608
 40
0.2958522604726926
 40
0.361243868042572
 40
0.4266896783665234
 40
0.492161222566485
 40
0.5575982542870854
 40
0.6229168042418081
 40
0.6880047610264246
 40
0.7527350924954823
 40
0.816993757259639
 40
0.8807172738113287
 40
0.9439254192998164
 40
1.0
 40
1.0
 40
1.0
 40
1.0
 10
146.6935045088498
 20
480.6906499294183
 30
0.0
 10
146.9236290998819
 20
480.6929130451107
 30
0.0
 10
147.4849605514638
 20
480.7004514226066
 30
0.0
 10
148.4987769052827
 20
480.7787399997533
 30
0.0
 10
149.6436219463916
 20
480.9531934249153
 30
0.0
 10
150.7693032278569
 20
481.2131594796036
 30
0.0
 10
151.8516810764523
 20
481.5551319072969
 30
0.0
 10
152.8831481738455
 20
481.9766717643432
 30
0.0
 10
153.8520476887319
 20
482.4741511924507
 30
0.0
 10
154.7481707004414
 20
483.043249774427
 30
0.0
 10
155.5614016747556
 20
483.6787033448126
 30
0.0
 10
156.2822528033224
 20
484.3741530131769
 30
0.0
 10
156.9021458992506
 20
485.1222942264855
 30
0.0
 10
157.4133644063544
 20
485.9139167304378
 30
0.0
 10
157.8110258971678
 20
486.7415159733166
 30
0.0
 10
158.087661230313
 20
487.5870274079149
 30
0.0
 10
158.2485619586831
 20
488.4378596432712
 30
0.0
 10
158.2591526611374
 20
488.9476482321206
 30
0.0
 10
158.262478965226
 20
489.2312614773884
 30
0.0
  0
ELLIPSE
  5
D4
330
75
100
AcDbEntity
  8
$DDT_AUDIT_GENERATED_(D3)
  6
Continuous
 62
     7
100
AcDbEllipse
 10
146.6935045088
 20
490.3400555826
 30
0.0
 11
-8.5
 21
-6.938893903907228E-15
 31
0.0
210
0.0
220
0.0
230
1.0
 40
0.7071067812
 41
-3.974067026733561
 42
-3.95688973709042
  0
ELLIPSE
  5
D5
330
75
100
AcDbEntity
  8
$DDT_AUDIT_GENERATED_(D3)
  6
Continuous
 62
     7
100
AcDbEllipse
 10
146.6935045088
 20
490.3400555826
 30
0.0
 11
-8.5
 21
-6.938893903907228E-15
 31
0.0
210
0.0
220
0.0
230
1.0
 40
0.7071067812
 41
0.8152970835006216
 42
0.8324743731437668
  0
ELLIPSE
  5
D6
330
75
100
AcDbEntity
  8
$DDT_AUDIT_GENERATED_(D3)
  6
Continuous
 62
     7
100
AcDbEllipse
 10
146.6935045088
 20
488.284420664
 30
0.0
 11
-9.0
 21
-1.387778780781446E-14
 31
0.0
210
0.0
220
0.0
230
1.0
 40
0.7071067812
 41
0.0
 42
6.283185307179586
  0
ELLIPSE
  5
D7
330
75
100
AcDbEntity
  8
$DDT_AUDIT_GENERATED_(D3)
  6
Continuous
 62
     7
100
AcDbEllipse
 10
146.6935045088
 20
490.1936089732
 30
0.0
 11
-9.000000000000005
 21
-1.387778780781446E-14
 31
0.0
210
0.0
220
0.0
230
1.0
 40
0.7071067812
 41
5.948079548503499
 42
6.283185307179586
  0
ELLIPSE
  5
D8
330
75
100
AcDbEntity
  8
$DDT_AUDIT_GENERATED_(D3)
  6
Continuous
 62
     7
100
AcDbEllipse
 10
146.6935045088
 20
490.1936089732
 30
0.0
 11
-9.000000000000005
 21
-1.387778780781446E-14
 31
0.0
210
0.0
220
0.0
230
1.0
 40
0.7071067812
 41
3.141592653589793
 42
3.476698412265888
  0
ARC
  5
D9
330
75
100
AcDbEntity
  8
$DDT_AUDIT_GENERATED_(D3)
  6
Continuous
 62
     7
100
AcDbCircle
 10
142.0019323816
 20
490.4668874327
 30
0.0
 40
4.694901386110892
100
AcDbArc
 50
177.8421371331
 51
182.1578628669
  0
ELLIPSE
  5
DA
330
75
100
AcDbEntity
  8
$DDT_AUDIT_GENERATED_(D3)
  6
Continuous
 62
     7
100
AcDbEllipse
 10
146.6935045088
 20
490.4668874327
 30
0.0
 11
-9.386474103794429
 21
-1.665334536937735E-13
 31
0.0
210
0.0
220
0.0
230
1.0
 40
0.7071067812
 41
6.182465883668701
 42
6.256548088143891
  0
LINE
  5
DB
330
75
100
AcDbEntity
  8
$DDT_AUDIT_GENERATED_(D3)
  6
Continuous
 62
     7
100
AcDbLine
 10
137.1029204491
 20
490.643664128
 30
0.0
 11
137.3103602543
 21
490.643664128
 31
0.0
  0
LINE
  5
DC
330
75
100
AcDbEntity
  8
$DDT_AUDIT_GENERATED_(D3)
  6
Continuous
 62
     7
100
AcDbLine
 10
137.3103602543
 20
490.643664128
 30
0.0
 11
137.3103602543
 21
491.0556364989
 31
0.0
  0
LINE
  5
DD
330
75
100
AcDbEntity
  8
$DDT_AUDIT_GENERATED_(D3)
  6
Continuous
 62
     7
100
AcDbLine
 10
137.0142676547
 20
490.4383163393
 30
0.0
 11
137.0704282975
 21
490.2901107374
 31
0.0
  0
LINE
  5
DE
330
75
100
AcDbEntity
  8
$DDT_AUDIT_GENERATED_(D3)
  6
Continuous
 62
     7
100
AcDbLine
 10
137.0704282975
 20
490.2901107374
 30
0.0
 11
137.0704282975
 21
490.5709401434
 31
0.0
  0
LINE
  5
DF
330
75
100
AcDbEntity
  8
$DDT_AUDIT_GENERATED_(D3)
  6
Continuous
 62
     7
100
AcDbLine
 10
137.0704282975
 20
490.2901107374
 30
0.0
 11
137.3103602543
 21
490.2901107374
 31
0.0
  0
ELLIPSE
  5
E0
330
75
100
AcDbEntity
  8
$DDT_AUDIT_GENERATED_(D3)
  6
Continuous
 62
     7
100
AcDbEllipse
 10
146.6935045088
 20
490.4668874327
 30
0.0
 11
9.386474103797182
 21
8.743006318923108E-13
 31
0.0
210
0.0
220
0.0
230
1.0
 40
0.7071067812
 41
0.0266372190354832
 42
0.1007194235107861
  0
ARC
  5
E1
330
75
100
AcDbEntity
  8
$DDT_AUDIT_GENERATED_(D3)
  6
Continuous
 62
     7
100
AcDbCircle
 10
151.3850766361
 20
490.4668874327
 30
0.0
 40
4.694901386110648
100
AcDbArc
 50
357.8421371331
 51
2.1578628669
  0
ELLIPSE
  5
E2
330
75
100
AcDbEntity
  8
$DDT_AUDIT_GENERATED_(D3)
  6
Continuous
 62
     7
100
AcDbEllipse
 10
146.6935045088
 20
490.4668874327
 30
0.0
 11
9.38647410379602
 21
-4.718447854656915E-13
 31
0.0
210
0.0
220
0.0
230
1.0
 40
0.7071067812
 41
5.995229759036713
 42
6.256548088144057
  0
LINE
  5
E3
330
75
100
AcDbEntity
  8
$DDT_AUDIT_GENERATED_(D3)
  6
Continuous
 62
     7
100
AcDbLine
 10
156.0766487634
 20
490.643664128
 30
0.0
 11
156.0766487634
 21
491.0556364989
 31
0.0
  0
LINE
  5
E4
330
75
100
AcDbEntity
  8
$DDT_AUDIT_GENERATED_(D3)
  6
Continuous
 62
     7
100
AcDbLine
 10
156.3165807202
 20
490.5709401434
 30
0.0
 11
156.3165807202
 21
490.2901107374
 31
0.0
  0
LINE
  5
E5
330
75
100
AcDbEntity
  8
$DDT_AUDIT_GENERATED_(D3)
  6
Continuous
 62
     7
100
AcDbLine
 10
156.2840885686
 20
490.643664128
 30
0.0
 11
156.0766487634
 21
490.643664128
 31
0.0
  0
LINE
  5
E6
330
75
100
AcDbEntity
  8
$DDT_AUDIT_GENERATED_(D3)
  6
Continuous
 62
     7
100
AcDbLine
 10
156.3165807202
 20
490.2901107374
 30
0.0
 11
156.0766487634
 21
490.2901107374
 31
0.0
  0
LINE
  5
E7
330
75
100
AcDbEntity
  8
$DDT_AUDIT_GENERATED_(D3)
  6
Continuous
 62
     7
100
AcDbLine
 10
156.372741363
 20
490.4383163393
 30
0.0
 11
156.3165807202
 21
490.2901107374
 31
0.0
  0
ELLIPSE
  5
E8
330
75
100
AcDbEntity
  8
$DDT_AUDIT_GENERATED_(D3)
  6
Continuous
 62
     7
100
AcDbEllipse
 10
146.6935045089
 20
490.4668874327
 30
0.0
 11
-9.386474103795754
 21
-3.608224830031759E-13
 31
0.0
210
0.0
220
0.0
230
1.0
 40
0.7071067812
 41
0.0266372190354915
 42
0.2879555481429032
  0
ELLIPSE
  5
E9
330
75
100
AcDbEntity
  8
$DDT_AUDIT_GENERATED_(D3)
  6
Continuous
 62
     7
100
AcDbEllipse
 10
146.6935045088
 20
488.284420664
 30
0.0
 11
5.250000000000001
 21
0.0
 31
0.0
210
0.0
220
0.0
230
1.0
 40
0.7071067812
 41
0.0
 42
6.283185307179586
  0
ELLIPSE
  5
EA
330
75
100
AcDbEntity
  8
$DDT_AUDIT_GENERATED_(D3)
  6
Continuous
 62
     7
100
AcDbEllipse
 10
146.6935045088
 20
488.284420664
 30
0.0
 11
-6.25
 21
0.0
 31
0.0
210
0.0
220
0.0
230
1.0
 40
0.7071067812
 41
0.0
 42
6.283185307179586
  0
ELLIPSE
  5
EB
330
75
100
AcDbEntity
  8
$DDT_AUDIT_GENERATED_(D3)
  6
Continuous
 62
     7
100
AcDbEllipse
 10
146.6935045088
 20
488.284420664
 30
0.0
 11
2.750000000000003
 21
0.0
 31
0.0
210
0.0
220
0.0
230
1.0
 40
0.7071067812
 41
0.0
 42
6.283185307179586
  0
ELLIPSE
  5
EC
330
75
100
AcDbEntity
  8
$DDT_AUDIT_GENERATED_(D3)
  6
Continuous
 62
     7
100
AcDbEllipse
 10
146.6935045088
 20
488.284420664
 30
0.0
 11
-2.150000000000001
 21
-6.938893903907228E-15
 31
0.0
210
0.0
220
0.0
230
1.0
 40
0.7071067812
 41
0.0
 42
6.283185307179586
  0
ELLIPSE
  5
ED
330
75
100
AcDbEntity
  8
$DDT_AUDIT_GENERATED_(D3)
  6
Continuous
 62
     7
100
AcDbEllipse
 10
146.6935045088
 20
488.4258420202
 30
0.0
 11
0.5196299438963563
 21
0.0
 31
0.0
210
0.0
220
0.0
230
1.0
 40
0.7071067812
 41
0.0
 42
6.283185307179586
  0
ELLIPSE
  5
EE
330
75
100
AcDbEntity
  8
$DDT_AUDIT_GENERATED_(D3)
  6
Continuous
 62
     7
100
AcDbEllipse
 10
146.6935045088
 20
488.284420664
 30
0.0
 11
-8.699999999999998
 21
0.0
 31
0.0
210
0.0
220
0.0
230
1.0
 40
0.7071067812
 41
0.0
 42
6.283185307179586
  0
ARC
  5
EF
330
75
100
AcDbEntity
  8
$DDT_AUDIT_GENERATED_(D3)
  6
Continuous
 62
     7
100
AcDbCircle
 10
146.6935045088
 20
494.4358337007
 30
0.0
 40
12.0203993277869
100
AcDbArc
 50
269.5233399584
 51
270.4766600416
  0
ELLIPSE
  5
F0
330
75
100
AcDbEntity
  8
$DDT_AUDIT_GENERATED_(D3)
  6
Continuous
 62
     7
100
AcDbEllipse
 10
146.6935045088
 20
488.4258420203
 30
0.0
 11
8.500000000023809
 21
-9.291178937331779E-12
 31
0.0
210
0.0
220
0.0
230
1.0
 40
0.7071067812
 41
4.724153957674234
 42
4.962423390896546
  0
LINE
  5
F1
330
75
100
AcDbEntity
  8
$DDT_AUDIT_GENERATED_(D3)
  6
Continuous
 62
     7
100
AcDbLine
 10
146.5935045088
 20
483.8655690032
 30
0.0
 11
146.5935045088
 21
482.4158503397
 31
0.0
  0
LINE
  5
F2
330
75
100
AcDbEntity
  8
$DDT_AUDIT_GENERATED_(D3)
  6
Continuous
 62
     7
100
AcDbLine
 10
146.7935045088
 20
483.8655690032
 30
0.0
 11
146.7935045088
 21
482.4158503397
 31
0.0
  0
LINE
  5
F3
330
75
100
AcDbEntity
  8
$DDT_AUDIT_GENERATED_(D3)
  6
Continuous
 62
     7
100
AcDbLine
 10
146.9435045088
 20
487.0907412494
 30
0.0
 11
146.9435045088
 21
488.1037276938
 31
0.0
  0
LINE
  5
F4
330
75
100
AcDbEntity
  8
$DDT_AUDIT_GENERATED_(D3)
  6
Continuous
 62
     7
100
AcDbLine
 10
146.4435045088
 20
487.0907412494
 30
0.0
 11
146.4435045088
 21
488.1037276938
 31
0.0
  0
ELLIPSE
  5
F5
330
75
100
AcDbEntity
  8
$DDT_AUDIT_GENERATED_(D3)
  6
Continuous
 62
     7
100
AcDbEllipse
 10
146.6935045088
 20
488.6007081365
 30
0.0
 11
-2.149999999995675
 21
4.649058915617843E-13
 31
0.0
210
0.0
220
0.0
230
1.0
 40
0.7071067812
 41
1.454253618345502
 42
1.687339035244651
  0
LINE
  5
F6
330
75
100
AcDbEntity
  8
$DDT_AUDIT_GENERATED_(D3)
  6
Continuous
 62
     7
100
AcDbLine
 10
146.4239966395
 20
488.9148584086
 30
0.0
 11
146.4239966395
 21
489.7927086849
 31
0.0
  0
ELLIPSE
  5
F7
330
75
100
AcDbEntity
  8
$DDT_AUDIT_GENERATED_(D3)
  6
Continuous
 62
     7
100
AcDbEllipse
 10
146.6935045088
 20
488.6007081365
 30
0.0
 11
-0.5196299438963539
 21
-2.775557561562891E-14
 31
0.0
210
0.0
220
0.0
230
1.0
 40
0.7071067812
 41
5.257664250556931
 42
6.261508812604677
  0
LINE
  5
F8
330
75
100
AcDbEntity
  8
$DDT_AUDIT_GENERATED_(D3)
  6
Continuous
 62
     7
100
AcDbLine
 10
144.9040401341
 20
489.1271297631
 30
0.0
 11
146.1739966395
 21
488.6086721908
 31
0.0
  0
LINE
  5
F9
330
75
100
AcDbEntity
  8
$DDT_AUDIT_GENERATED_(D3)
  6
Continuous
 62
     7
100
AcDbLine
 10
145.2339345719
 20
489.4006992133
 30
0.0
 11
146.4239966395
 21
488.9148584086
 31
0.0
  0
ELLIPSE
  5
FA
330
75
100
AcDbEntity
  8
$DDT_AUDIT_GENERATED_(D3)
  6
Continuous
 62
     7
100
AcDbEllipse
 10
146.6935045088
 20
488.6007081365
 30
0.0
 11
0.519629943896357
 21
-6.938893903907228E-15
 31
0.0
210
0.0
220
0.0
230
1.0
 40
0.7071067812
 41
0.0216764945751553
 42
1.025521056622631
  0
LINE
  5
FB
330
75
100
AcDbEntity
  8
$DDT_AUDIT_GENERATED_(D3)
  6
Continuous
 62
     7
100
AcDbLine
 10
148.1530744458
 20
489.4006992133
 30
0.0
 11
146.9630123782
 21
488.9148584086
 31
0.0
  0
LINE
  5
FC
330
75
100
AcDbEntity
  8
$DDT_AUDIT_GENERATED_(D3)
  6
Continuous
 62
     7
100
AcDbLine
 10
146.9630123782
 20
488.9148584086
 30
0.0
 11
146.9630123782
 21
489.7927086849
 31
0.0
  0
LINE
  5
FD
330
75
100
AcDbEntity
  8
$DDT_AUDIT_GENERATED_(D3)
  6
Continuous
 62
     7
100
AcDbLine
 10
148.4829688836
 20
489.1271297631
 30
0.0
 11
147.2130123782
 21
488.6086721908
 31
0.0
  0
ELLIPSE
  5
FE
330
75
100
AcDbEntity
  8
$DDT_AUDIT_GENERATED_(D3)
  6
Continuous
 62
     7
100
AcDbEllipse
 10
146.6935043867
 20
488.4258416979
 30
0.0
 11
-8.499999748219352
 21
1.669375679358431E-7
 31
0.0
210
0.0
220
0.0
230
0.9999999999999998
 40
0.7071067642
 41
1.297231982210528
 42
1.320761937439909
  0
ELLIPSE
  5
FF
330
75
100
AcDbEntity
  8
$DDT_AUDIT_GENERATED_(D3)
  6
Continuous
 62
     7
100
AcDbEllipse
 10
146.6935045089
 20
488.4258420202
 30
0.0
 11
-8.500000000006994
 21
-3.531896997088779E-12
 31
0.0
210
0.0
220
0.0
230
1.0
 40
0.7071067812
 41
1.320761916283517
 42
1.559031349506296
  0
LINE
  5
100
330
75
100
AcDbEntity
  8
$DDT_AUDIT_GENERATED_(D3)
  6
Continuous
 62
     7
100
AcDbLine
 10
144.3971022946
 20
484.0531506728
 30
0.0
 11
144.4385977786
 21
484.1626555301
 31
0.0
  0
LINE
  5
101
330
75
100
AcDbEntity
  8
$DDT_AUDIT_GENERATED_(D3)
  6
Continuous
 62
     7
100
AcDbLine
 10
144.3971022946
 20
482.6389371104
 30
0.0
 11
144.3971022946
 21
484.0531506728
 31
0.0
  0
LINE
  5
102
330
75
100
AcDbEntity
  8
$DDT_AUDIT_GENERATED_(D3)
  6
Continuous
 62
     7
100
AcDbLine
 10
144.9297698595
 20
484.0446246732
 30
0.0
 11
144.3971022946
 21
482.6389371104
 31
0.0
  0
LINE
  5
103
330
75
100
AcDbEntity
  8
$DDT_AUDIT_GENERATED_(D3)
  6
Continuous
 62
     7
100
AcDbLine
 10
145.1225262365
 20
484.0068905783
 30
0.0
 11
144.5902874599
 21
482.60233457
 31
0.0
  0
ELLIPSE
  5
104
330
75
100
AcDbEntity
  8
$DDT_AUDIT_GENERATED_(D3)
  6
Continuous
 62
     7
100
AcDbEllipse
 10
146.6935042813
 20
488.4258417415
 30
0.0
 11
-8.49999971556247
 21
2.786978356428271E-7
 31
0.0
210
0.0
220
0.0
230
1.0
 40
0.7071067717
 41
1.035432608368078
 42
1.058962563574239
  0
ELLIPSE
  5
105
330
75
100
AcDbEntity
  8
$DDT_AUDIT_GENERATED_(D3)
  6
Continuous
 62
     7
100
AcDbEllipse
 10
146.6935045088
 20
488.4258420202
 30
0.0
 11
-8.499999999988145
 21
1.073446886934448E-11
 31
0.0
210
0.0
220
0.0
230
1.0
 40
0.7071067812
 41
1.058962528485862
 42
1.297231961709118
  0
LINE
  5
106
330
75
100
AcDbEntity
  8
$DDT_AUDIT_GENERATED_(D3)
  6
Continuous
 62
     7
100
AcDbLine
 10
142.3571960963
 20
484.6706054498
 30
0.0
 11
142.5874148818
 21
484.9525647266
 31
0.0
  0
LINE
  5
107
330
75
100
AcDbEntity
  8
$DDT_AUDIT_GENERATED_(D3)
  6
Continuous
 62
     7
100
AcDbLine
 10
142.3571960963
 20
483.2563918874
 30
0.0
 11
142.3571960963
 21
484.6706054498
 31
0.0
  0
LINE
  5
108
330
75
100
AcDbEntity
  8
$DDT_AUDIT_GENERATED_(D3)
  6
Continuous
 62
     7
100
AcDbLine
 10
143.3968998379
 20
484.5297637127
 30
0.0
 11
142.3571960963
 21
483.2563918874
 31
0.0
  0
LINE
  5
109
330
75
100
AcDbEntity
  8
$DDT_AUDIT_GENERATED_(D3)
  6
Continuous
 62
     7
100
AcDbLine
 10
143.5685045088
 20
484.4570929409
 30
0.0
 11
142.5304011771
 21
483.1856812093
 31
0.0
  0
ELLIPSE
  5
10A
330
75
100
AcDbEntity
  8
$DDT_AUDIT_GENERATED_(D3)
  6
Continuous
 62
     7
100
AcDbEllipse
 10
146.6935041749
 20
488.4258417841
 30
0.0
 11
-8.499999645817516
 21
3.339602067109482E-7
 31
0.0
210
0.0
220
0.0
230
1.0
 40
0.7071067812
 41
0.7736332274555735
 42
0.7971631826853978
  0
ELLIPSE
  5
10B
330
75
100
AcDbEntity
  8
$DDT_AUDIT_GENERATED_(D3)
  6
Continuous
 62
     7
100
AcDbEllipse
 10
146.6935045089
 20
488.4258420202
 30
0.0
 11
-8.500000000005896
 21
-6.314393452555578E-12
 31
0.0
210
0.0
220
0.0
230
1.0
 40
0.7071067812
 41
0.7971631406848319
 42
1.03543257390768
  0
LINE
  5
10C
330
75
100
AcDbEntity
  8
$DDT_AUDIT_GENERATED_(D3)
  6
Continuous
 62
     7
100
AcDbLine
 10
140.6128021502
 20
485.6403497104
 30
0.0
 11
141.0366502594
 21
485.9400555826
 31
0.0
  0
LINE
  5
10D
330
75
100
AcDbEntity
  8
$DDT_AUDIT_GENERATED_(D3)
  6
Continuous
 62
     7
100
AcDbLine
 10
140.6128021502
 20
484.226136148
 30
0.0
 11
140.6128021502
 21
485.6403497104
 31
0.0
  0
LINE
  5
10E
330
75
100
AcDbEntity
  8
$DDT_AUDIT_GENERATED_(D3)
  6
Continuous
 62
     7
100
AcDbLine
 10
142.1066747354
 20
485.2824635832
 30
0.0
 11
140.6128021502
 21
484.226136148
 31
0.0
  0
LINE
  5
10F
330
75
100
AcDbEntity
  8
$DDT_AUDIT_GENERATED_(D3)
  6
Continuous
 62
     7
100
AcDbLine
 10
141.0366502594
 20
485.9400555826
 30
0.0
 11
141.0366502594
 21
486.0347912854
 31
0.0
  0
LINE
  5
110
330
75
100
AcDbEntity
  8
$DDT_AUDIT_GENERATED_(D3)
  6
Continuous
 62
     7
100
AcDbLine
 10
142.2448948619
 20
485.180199972
 30
0.0
 11
140.7542235064
 21
484.126136148
 31
0.0
  0
ELLIPSE
  5
111
330
75
100
AcDbEntity
  8
$DDT_AUDIT_GENERATED_(D3)
  6
Continuous
 62
     7
100
AcDbEllipse
 10
146.6935041596
 20
488.4258418775
 30
0.0
 11
-8.499999647087474
 21
2.471590501706977E-7
 31
0.0
210
0.0
220
0.0
230
1.0
 40
0.7071067896
 41
0.5118338288627391
 42
0.5353637839972926
  0
ELLIPSE
  5
112
330
75
100
AcDbEntity
  8
$DDT_AUDIT_GENERATED_(D3)
  6
Continuous
 62
     7
100
AcDbEllipse
 10
146.6935045089
 20
488.4258420202
 30
0.0
 11
-8.500000000026271
 21
-2.191996584244293E-11
 31
0.0
210
0.0
220
0.0
230
1.0
 40
0.7071067812
 41
0.5353637528838594
 42
0.7736331861063834
  0
LINE
  5
113
330
75
100
AcDbEntity
  8
$DDT_AUDIT_GENERATED_(D3)
  6
Continuous
 62
     7
100
AcDbLine
 10
139.282798021
 20
486.8962969859
 30
0.0
 11
139.5215912915
 21
486.9937839303
 31
0.0
  0
LINE
  5
114
330
75
100
AcDbEntity
  8
$DDT_AUDIT_GENERATED_(D3)
  6
Continuous
 62
     7
100
AcDbLine
 10
139.282798021
 20
485.4820834235
 30
0.0
 11
139.282798021
 21
486.8962969859
 31
0.0
  0
LINE
  5
115
330
75
100
AcDbEntity
  8
$DDT_AUDIT_GENERATED_(D3)
  6
Continuous
 62
     7
100
AcDbLine
 10
141.1494169488
 20
486.2441274097
 30
0.0
 11
139.282798021
 21
485.4820834235
 31
0.0
  0
LINE
  5
116
330
75
100
AcDbEntity
  8
$DDT_AUDIT_GENERATED_(D3)
  6
Continuous
 62
     7
100
AcDbLine
 10
141.2446144888
 20
486.1196923265
 30
0.0
 11
139.382798021
 21
485.3596089364
 31
0.0
  0
ELLIPSE
  5
117
330
75
100
AcDbEntity
  8
$DDT_AUDIT_GENERATED_(D3)
  6
Continuous
 62
     7
100
AcDbEllipse
 10
146.693504086
 20
488.42584194
 30
0.0
 11
-8.499999576930952
 21
1.549017858426538E-7
 31
0.0
210
0.0
220
0.0
230
1.0
 40
0.707106797
 41
0.2500344295316868
 42
0.2735643847137599
  0
ELLIPSE
  5
118
330
75
100
AcDbEntity
  8
$DDT_AUDIT_GENERATED_(D3)
  6
Continuous
 62
     7
100
AcDbEllipse
 10
146.6935045088
 20
488.4258420202
 30
0.0
 11
-8.499999999995797
 21
2.185751579730777E-12
 31
0.0
210
0.0
220
0.0
230
1.0
 40
0.7071067812
 41
0.2735643650874997
 42
0.5118337983105179
  0
LINE
  5
119
330
75
100
AcDbEntity
  8
$DDT_AUDIT_GENERATED_(D3)
  6
Continuous
 62
     7
100
AcDbLine
 10
138.4578212922
 20
488.352856545
 30
0.0
 11
138.4698274824
 21
488.3551313421
 31
0.0
  0
LINE
  5
11A
330
75
100
AcDbEntity
  8
$DDT_AUDIT_GENERATED_(D3)
  6
Continuous
 62
     7
100
AcDbLine
 10
138.4578212922
 20
486.9386429826
 30
0.0
 11
138.4578212922
 21
488.352856545
 31
0.0
  0
LINE
  5
11B
330
75
100
AcDbEntity
  8
$DDT_AUDIT_GENERATED_(D3)
  6
Continuous
 62
     7
100
AcDbLine
 10
140.5872321369
 20
487.3420996679
 30
0.0
 11
138.4578212922
 21
486.9386429826
 31
0.0
  0
LINE
  5
11C
330
75
100
AcDbEntity
  8
$DDT_AUDIT_GENERATED_(D3)
  6
Continuous
 62
     7
100
AcDbLine
 10
140.6330210438
 20
487.2043650706
 30
0.0
 11
138.5095851012
 21
486.8020404422
 31
0.0
  0
ARC
  5
11D
330
75
100
AcDbEntity
  8
$DDT_AUDIT_GENERATED_(D3)
  6
Continuous
 62
     7
100
AcDbCircle
 10
142.4437986367
 20
488.4258420202
 30
0.0
 40
4.250294107471902
100
AcDbArc
 50
179.0467458876
 51
180.9532541124
  0
ELLIPSE
  5
11E
330
75
100
AcDbEntity
  8
$DDT_AUDIT_GENERATED_(D3)
  6
Continuous
 62
     7
100
AcDbEllipse
 10
146.6935045089
 20
488.4258420202
 30
0.0
 11
-8.500000000025628
 21
-4.683753385137379E-12
 31
0.0
210
0.0
220
0.0
230
1.0
 40
0.7071067812
 41
0.0117649772878666
 42
0.2500344105103057
  0
LINE
  5
11F
330
75
100
AcDbEntity
  8
$DDT_AUDIT_GENERATED_(D3)
  6
Continuous
 62
     7
100
AcDbLine
 10
138.4570003961
 20
489.9107662607
 30
0.0
 11
138.4698274824
 21
489.9107662607
 31
0.0
  0
ARC
  5
120
330
75
100
AcDbEntity
  8
$DDT_AUDIT_GENERATED_(D3)
  6
Continuous
 62
     7
100
AcDbCircle
 10
143.5689045345
 20
488.4258420202
 30
0.0
 40
3.125399974402576
100
AcDbArc
 50
178.7035998053
 51
180.0
  0
LINE
  5
121
330
75
100
AcDbEntity
  8
$DDT_AUDIT_GENERATED_(D3)
  6
Continuous
 62
     7
100
AcDbLine
 10
140.4443045601
 20
488.4965526983
 30
0.0
 11
140.4443045601
 21
489.5366646734
 31
0.0
  0
LINE
  5
122
330
75
100
AcDbEntity
  8
$DDT_AUDIT_GENERATED_(D3)
  6
Continuous
 62
     7
100
AcDbLine
 10
140.4443045601
 20
488.4965526983
 30
0.0
 11
138.1940927645
 21
488.4965526983
 31
0.0
  0
LINE
  5
123
330
75
100
AcDbEntity
  8
$DDT_AUDIT_GENERATED_(D3)
  6
Continuous
 62
     7
100
AcDbLine
 10
140.4435045088
 20
488.3551313421
 30
0.0
 11
138.1940927645
 21
488.3551313421
 31
0.0
  0
ELLIPSE
  5
124
330
75
100
AcDbEntity
  8
$DDT_AUDIT_GENERATED_(D3)
  6
Continuous
 62
     7
100
AcDbEllipse
 10
146.6935041188
 20
488.425842094
 30
0.0
 11
-8.499999609670486
 21
-1.425867479643017E-7
 31
0.0
210
0.0
220
0.0
230
1.0
 40
0.7071067957
 41
-0.2735643831685577
 42
-0.2500344280334783
  0
ELLIPSE
  5
125
330
75
100
AcDbEntity
  8
$DDT_AUDIT_GENERATED_(D3)
  6
Continuous
 62
     7
100
AcDbEllipse
 10
146.6935045089
 20
488.4258420202
 30
0.0
 11
-8.500000000026576
 21
4.864164626638967E-12
 31
0.0
210
0.0
220
0.0
230
1.0
 40
0.7071067812
 41
6.033150896669318
 42
6.271420329891899
  0
ELLIPSE
  5
126
330
75
100
AcDbEntity
  8
$DDT_AUDIT_GENERATED_(D3)
  6
Continuous
 62
     7
100
AcDbEllipse
 10
146.6935044493
 20
488.4258420315
 30
0.0
 11
-6.249999940446066
 21
-2.170650464927704E-8
 31
0.0
210
0.0
220
0.0
230
1.0
 40
0.7071067842
 41
-0.2778000743118776
 42
-0.2457987086635303
  0
LINE
  5
127
330
75
100
AcDbEntity
  8
$DDT_AUDIT_GENERATED_(D3)
  6
Continuous
 62
     7
100
AcDbLine
 10
140.6831227892
 20
489.6378262577
 30
0.0
 11
140.6831227892
 21
490.7979204242
 31
0.0
  0
LINE
  5
128
330
75
100
AcDbEntity
  8
$DDT_AUDIT_GENERATED_(D3)
  6
Continuous
 62
     7
100
AcDbLine
 10
140.6831227892
 20
489.6378262577
 30
0.0
 11
138.5095851012
 21
490.0496435982
 31
0.0
  0
LINE
  5
129
330
75
100
AcDbEntity
  8
$DDT_AUDIT_GENERATED_(D3)
  6
Continuous
 62
     7
100
AcDbLine
 10
140.6313589802
 20
489.5012237173
 30
0.0
 11
138.4578212922
 21
489.9130410579
 31
0.0
  0
ELLIPSE
  5
12A
330
75
100
AcDbEntity
  8
$DDT_AUDIT_GENERATED_(D3)
  6
Continuous
 62
     7
100
AcDbEllipse
 10
146.6935041591
 20
488.4258421629
 30
0.0
 11
-8.499999646611736
 21
-2.471653923197259E-7
 31
0.0
210
0.0
220
0.0
230
1.0
 40
0.7071067896
 41
-0.5353637840183714
 42
-0.5118338288833284
  0
ELLIPSE
  5
12B
330
75
100
AcDbEntity
  8
$DDT_AUDIT_GENERATED_(D3)
  6
Continuous
 62
     7
100
AcDbEllipse
 10
146.6935045089
 20
488.4258420202
 30
0.0
 11
-8.500000000005079
 21
2.428612866367530E-12
 31
0.0
210
0.0
220
0.0
230
1.0
 40
0.7071067812
 41
5.771351508869741
 42
6.009620942092639
  0
ELLIPSE
  5
12C
330
75
100
AcDbEntity
  8
$DDT_AUDIT_GENERATED_(D3)
  6
Continuous
 62
     7
100
AcDbEllipse
 10
146.6935045588
 20
488.4258419998
 30
0.0
 11
-6.250000050477083
 21
3.530562647791058E-8
 31
0.0
210
0.0
220
0.0
230
1.0
 40
0.7071067796
 41
-0.5395994522766898
 42
-0.5075980869337204
  0
LINE
  5
12D
330
75
100
AcDbEntity
  8
$DDT_AUDIT_GENERATED_(D3)
  6
Continuous
 62
     7
100
AcDbLine
 10
141.3315385999
 20
490.6965050942
 30
0.0
 11
141.3315385999
 21
492.117324475
 31
0.0
  0
LINE
  5
12E
330
75
100
AcDbEntity
  8
$DDT_AUDIT_GENERATED_(D3)
  6
Continuous
 62
     7
100
AcDbLine
 10
141.3315385999
 20
490.6965050942
 30
0.0
 11
139.382798021
 21
491.4920751041
 31
0.0
  0
LINE
  5
12F
330
75
100
AcDbEntity
  8
$DDT_AUDIT_GENERATED_(D3)
  6
Continuous
 62
     7
100
AcDbLine
 10
141.2315385999
 20
490.574030607
 30
0.0
 11
139.282798021
 21
491.3696006169
 31
0.0
  0
ELLIPSE
  5
130
330
75
100
AcDbEntity
  8
$DDT_AUDIT_GENERATED_(D3)
  6
Continuous
 62
     7
100
AcDbEllipse
 10
146.6935041752
 20
488.4258422561
 30
0.0
 11
-8.499999646174473
 21
-3.336461454339634E-7
 31
0.0
210
0.0
220
0.0
230
1.0
 40
0.7071067812
 41
-0.7971631826445931
 42
-0.7736332274153614
  0
ELLIPSE
  5
131
330
75
100
AcDbEntity
  8
$DDT_AUDIT_GENERATED_(D3)
  6
Continuous
 62
     7
100
AcDbEllipse
 10
146.6935045089
 20
488.4258420202
 30
0.0
 11
-8.50000000002202
 21
1.830480211850727E-11
 31
0.0
210
0.0
220
0.0
230
1.0
 40
0.7071067812
 41
5.50955212107272
 42
5.747821554295312
  0
ELLIPSE
  5
132
330
75
100
AcDbEntity
  8
$DDT_AUDIT_GENERATED_(D3)
  6
Continuous
 62
     7
100
AcDbEllipse
 10
146.6935045596
 20
488.4258419844
 30
0.0
 11
-6.250000053760444
 21
5.065681207838679E-8
 31
0.0
210
0.0
220
0.0
230
1.0
 40
0.7071067812
 41
-0.801398837448926
 42
-0.7693974721416668
  0
LINE
  5
133
330
75
100
AcDbEntity
  8
$DDT_AUDIT_GENERATED_(D3)
  6
Continuous
 62
     7
100
AcDbLine
 10
142.3453635262
 20
491.6004419946
 30
0.0
 11
142.3453635262
 21
493.5903202124
 31
0.0
  0
LINE
  5
134
330
75
100
AcDbEntity
  8
$DDT_AUDIT_GENERATED_(D3)
  6
Continuous
 62
     7
100
AcDbLine
 10
142.3453635262
 20
491.6004419946
 30
0.0
 11
140.7542235064
 21
492.7255478924
 31
0.0
  0
LINE
  5
135
330
75
100
AcDbEntity
  8
$DDT_AUDIT_GENERATED_(D3)
  6
Continuous
 62
     7
100
AcDbLine
 10
142.2039421699
 20
491.5004419946
 30
0.0
 11
140.6128021502
 21
492.6255478924
 31
0.0
  0
ELLIPSE
  5
136
330
75
100
AcDbEntity
  8
$DDT_AUDIT_GENERATED_(D3)
  6
Continuous
 62
     7
100
AcDbEllipse
 10
146.6935042818
 20
488.4258422982
 30
0.0
 11
-8.49999971626985
 21
-2.780429289583886E-7
 31
0.0
210
0.0
220
0.0
230
1.0
 40
0.7071067717
 41
-1.058962563496316
 42
-1.035432608291772
  0
ELLIPSE
  5
137
330
75
100
AcDbEntity
  8
$DDT_AUDIT_GENERATED_(D3)
  6
Continuous
 62
     7
100
AcDbEllipse
 10
146.6935045088
 20
488.4258420202
 30
0.0
 11
-8.499999999993033
 21
-7.369105325949477E-12
 31
0.0
210
0.0
220
0.0
230
1.0
 40
0.7071067812
 41
5.247752733270106
 42
5.486022166493219
  0
ELLIPSE
  5
138
330
75
100
AcDbEntity
  8
$DDT_AUDIT_GENERATED_(D3)
  6
Continuous
 62
     7
100
AcDbEllipse
 10
146.6935045377
 20
488.4258419849
 30
0.0
 11
-6.250000036066057
 21
3.534313119946120E-8
 31
0.0
210
0.0
220
0.0
230
1.0
 40
0.7071067828
 41
-1.063198227869441
 42
-1.031196862526538
  0
LINE
  5
139
330
75
100
AcDbEntity
  8
$DDT_AUDIT_GENERATED_(D3)
  6
Continuous
 62
     7
100
AcDbLine
 10
143.6555070748
 20
492.2880351531
 30
0.0
 11
143.6555070748
 21
494.0392443571
 31
0.0
  0
LINE
  5
13A
330
75
100
AcDbEntity
  8
$DDT_AUDIT_GENERATED_(D3)
  6
Continuous
 62
     7
100
AcDbLine
 10
143.6555070748
 20
492.2880351531
 30
0.0
 11
142.5304011771
 21
493.6660028311
 31
0.0
  0
LINE
  5
13B
330
75
100
AcDbEntity
  8
$DDT_AUDIT_GENERATED_(D3)
  6
Continuous
 62
     7
100
AcDbLine
 10
143.4823019941
 20
492.217324475
 30
0.0
 11
142.3571960963
 21
493.595292153
 31
0.0
  0
ELLIPSE
  5
13C
330
75
100
AcDbEntity
  8
$DDT_AUDIT_GENERATED_(D3)
  6
Continuous
 62
     7
100
AcDbEllipse
 10
146.6935043889
 20
488.4258423367
 30
0.0
 11
-8.49999975280295
 21
-1.638882016208321E-7
 31
0.0
210
0.0
220
0.0
230
0.9999999999999998
 40
0.7071067645
 41
-1.320761937054807
 42
-1.297231981837307
  0
ELLIPSE
  5
13D
330
75
100
AcDbEntity
  8
$DDT_AUDIT_GENERATED_(D3)
  6
Continuous
 62
     7
100
AcDbEllipse
 10
146.6935045089
 20
488.4258420202
 30
0.0
 11
-8.50000000001137
 21
1.036670749243740E-11
 31
0.0
210
0.0
220
0.0
230
1.0
 40
0.7071067812
 41
4.98595334547336
 42
5.22422277869605
  0
ELLIPSE
  5
13E
330
75
100
AcDbEntity
  8
$DDT_AUDIT_GENERATED_(D3)
  6
Continuous
 62
     7
100
AcDbEllipse
 10
146.6935045238
 20
488.4258419809
 30
0.0
 11
-6.250000030731509
 21
2.038882951360677E-8
 31
0.0
210
0.0
220
0.0
230
1.0
 40
0.707106784
 41
-1.32499761820748
 42
-1.292996252864281
  0
LINE
  5
13F
330
75
100
AcDbEntity
  8
$DDT_AUDIT_GENERATED_(D3)
  6
Continuous
 62
     7
100
AcDbLine
 10
145.1726851281
 20
492.7124262321
 30
0.0
 11
145.1726851281
 21
494.3392635514
 31
0.0
  0
LINE
  5
140
330
75
100
AcDbEntity
  8
$DDT_AUDIT_GENERATED_(D3)
  6
Continuous
 62
     7
100
AcDbLine
 10
145.1726851281
 20
492.7124262321
 30
0.0
 11
144.5902874599
 21
494.2493494704
 31
0.0
  0
LINE
  5
141
330
75
100
AcDbEntity
  8
$DDT_AUDIT_GENERATED_(D3)
  6
Continuous
 62
     7
100
AcDbLine
 10
144.9794999628
 20
492.6758236917
 30
0.0
 11
144.3971022946
 21
494.21274693
 31
0.0
  0
ARC
  5
142
330
75
100
AcDbEntity
  8
$DDT_AUDIT_GENERATED_(D3)
  6
Continuous
 62
     7
100
AcDbCircle
 10
146.6935045088
 20
482.4158503397
 30
0.0
 40
12.02039932778681
100
AcDbArc
 50
89.5233399584
 51
90.4766600416
  0
ELLIPSE
  5
143
330
75
100
AcDbEntity
  8
$DDT_AUDIT_GENERATED_(D3)
  6
Continuous
 62
     7
100
AcDbEllipse
 10
146.6935045088
 20
488.4258420202
 30
0.0
 11
-8.499999999993229
 21
-3.060052211623088E-12
 31
0.0
210
0.0
220
0.0
230
1.0
 40
0.7071067812
 41
4.724153957672353
 42
4.962423390895506
  0
ARC
  5
144
330
75
100
AcDbEntity
  8
$DDT_AUDIT_GENERATED_(D3)
  6
Continuous
 62
     7
100
AcDbCircle
 10
146.6935045088
 20
484.0069903594
 30
0.0
 40
8.838269061309015
100
AcDbArc
 50
89.3517169295
 51
90.6482830705
  0
LINE
  5
145
330
75
100
AcDbEntity
  8
$DDT_AUDIT_GENERATED_(D3)
  6
Continuous
 62
     7
100
AcDbLine
 10
146.7935045088
 20
492.844693681
 30
0.0
 11
146.7935045088
 21
494.4358337007
 31
0.0
  0
LINE
  5
146
330
75
100
AcDbEntity
  8
$DDT_AUDIT_GENERATED_(D3)
  6
Continuous
 62
     7
100
AcDbLine
 10
146.5935045088
 20
492.844693681
 30
0.0
 11
146.5935045088
 21
494.4358337007
 31
0.0
  0
ELLIPSE
  5
147
330
75
100
AcDbEntity
  8
$DDT_AUDIT_GENERATED_(D3)
  6
Continuous
 62
     7
100
AcDbEllipse
 10
146.6935046263
 20
488.4258423303
 30
0.0
 11
8.499999757798712
 21
-1.604351235195978E-7
 31
0.0
210
0.0
220
0.0
230
0.9999999999999998
 40
0.7071067648
 41
1.297231981412823
 42
1.320761936617459
  0
ELLIPSE
  5
148
330
75
100
AcDbEntity
  8
$DDT_AUDIT_GENERATED_(D3)
  6
Continuous
 62
     7
100
AcDbEllipse
 10
146.6935045088
 20
488.4258420202
 30
0.0
 11
8.500000000016827
 21
6.022959908591474E-12
 31
0.0
210
0.0
220
0.0
230
1.0
 40
0.7071067812
 41
1.320761916283295
 42
1.559031349505795
  0
ELLIPSE
  5
149
330
75
100
AcDbEntity
  8
$DDT_AUDIT_GENERATED_(D3)
  6
Continuous
 62
     7
100
AcDbEllipse
 10
146.6935044932
 20
488.4258419788
 30
0.0
 11
6.250000032350543
 21
2.141890831364179E-8
 31
0.0
210
0.0
220
0.0
230
1.0
 40
0.7071067842
 41
1.292996252694141
 42
1.324997618029494
  0
LINE
  5
14A
330
75
100
AcDbEntity
  8
$DDT_AUDIT_GENERATED_(D3)
  6
Continuous
 62
     7
100
AcDbLine
 10
148.4075090549
 20
492.6758236917
 30
0.0
 11
148.9899067231
 21
494.21274693
 31
0.0
  0
LINE
  5
14B
330
75
100
AcDbEntity
  8
$DDT_AUDIT_GENERATED_(D3)
  6
Continuous
 62
     7
100
AcDbLine
 10
148.2143238896
 20
492.7124262321
 30
0.0
 11
148.7967215578
 21
494.2493494704
 31
0.0
  0
LINE
  5
14C
330
75
100
AcDbEntity
  8
$DDT_AUDIT_GENERATED_(D3)
  6
Continuous
 62
     7
100
AcDbLine
 10
148.2143238896
 20
492.7124262321
 30
0.0
 11
148.2143238896
 21
494.3392635514
 31
0.0
  0
ELLIPSE
  5
14D
330
75
100
AcDbEntity
  8
$DDT_AUDIT_GENERATED_(D3)
  6
Continuous
 62
     7
100
AcDbEllipse
 10
146.693504737
 20
488.4258422997
 30
0.0
 11
8.499999714782929
 21
-2.794578249365465E-7
 31
0.0
210
0.0
220
0.0
230
1.0
 40
0.7071067717
 41
1.035432608463089
 42
1.058962563671026
  0
ELLIPSE
  5
14E
330
75
100
AcDbEntity
  8
$DDT_AUDIT_GENERATED_(D3)
  6
Continuous
 62
     7
100
AcDbEllipse
 10
146.6935045088
 20
488.4258420202
 30
0.0
 11
8.500000000008667
 21
7.750744490664374E-12
 31
0.0
210
0.0
220
0.0
230
1.0
 40
0.7071067812
 41
1.058962528483817
 42
1.297231961706573
  0
ELLIPSE
  5
14F
330
75
100
AcDbEntity
  8
$DDT_AUDIT_GENERATED_(D3)
  6
Continuous
 62
     7
100
AcDbEllipse
 10
146.69350448
 20
488.4258419848
 30
0.0
 11
6.250000036105144
 21
3.537323212121635E-8
 31
0.0
210
0.0
220
0.0
230
1.0
 40
0.7071067828
 41
1.031196862522165
 42
1.063198227864878
  0
LINE
  5
150
330
75
100
AcDbEntity
  8
$DDT_AUDIT_GENERATED_(D3)
  6
Continuous
 62
     7
100
AcDbLine
 10
149.9047070236
 20
492.217324475
 30
0.0
 11
151.0298129214
 21
493.595292153
 31
0.0
  0
LINE
  5
151
330
75
100
AcDbEntity
  8
$DDT_AUDIT_GENERATED_(D3)
  6
Continuous
 62
     7
100
AcDbLine
 10
149.7315019429
 20
492.2880351531
 30
0.0
 11
150.8566078406
 21
493.6660028311
 31
0.0
  0
LINE
  5
152
330
75
100
AcDbEntity
  8
$DDT_AUDIT_GENERATED_(D3)
  6
Continuous
 62
     7
100
AcDbLine
 10
149.7315019429
 20
492.2880351531
 30
0.0
 11
149.7315019429
 21
494.0392443571
 31
0.0
  0
ELLIPSE
  5
153
330
75
100
AcDbEntity
  8
$DDT_AUDIT_GENERATED_(D3)
  6
Continuous
 62
     7
100
AcDbEllipse
 10
146.6935048427
 20
488.4258422562
 30
0.0
 11
8.499999645948453
 21
-3.338072041003670E-7
 31
0.0
210
0.0
220
0.0
230
1.0
 40
0.7071067812
 41
0.7736332274379677
 42
0.7971631826675422
  0
ELLIPSE
  5
154
330
75
100
AcDbEntity
  8
$DDT_AUDIT_GENERATED_(D3)
  6
Continuous
 62
     7
100
AcDbEllipse
 10
146.6935045088
 20
488.4258420202
 30
0.0
 11
8.500000000022599
 21
2.284977762556650E-11
 31
0.0
210
0.0
220
0.0
230
1.0
 40
0.7071067812
 41
0.797163140682917
 42
1.035432573905429
  0
ELLIPSE
  5
155
330
75
100
AcDbEntity
  8
$DDT_AUDIT_GENERATED_(D3)
  6
Continuous
 62
     7
100
AcDbEllipse
 10
146.6935045523
 20
488.425842051
 30
0.0
 11
6.249999953878195
 21
-4.351965315896322E-8
 31
0.0
210
0.0
220
0.0
230
1.0
 40
0.7071067812
 41
0.7693974879544597
 42
0.8013988536026064
  0
LINE
  5
156
330
75
100
AcDbEntity
  8
$DDT_AUDIT_GENERATED_(D3)
  6
Continuous
 62
     7
100
AcDbLine
 10
151.1830668478
 20
491.5004419946
 30
0.0
 11
152.7742068675
 21
492.6255478924
 31
0.0
  0
LINE
  5
157
330
75
100
AcDbEntity
  8
$DDT_AUDIT_GENERATED_(D3)
  6
Continuous
 62
     7
100
AcDbLine
 10
151.0416454915
 20
491.6004419946
 30
0.0
 11
152.6327855113
 21
492.7255478924
 31
0.0
  0
LINE
  5
158
330
75
100
AcDbEntity
  8
$DDT_AUDIT_GENERATED_(D3)
  6
Continuous
 62
     7
100
AcDbLine
 10
151.0416454915
 20
491.6004419946
 30
0.0
 11
151.0416454915
 21
493.5903202124
 31
0.0
  0
ELLIPSE
  5
159
330
75
100
AcDbEntity
  8
$DDT_AUDIT_GENERATED_(D3)
  6
Continuous
 62
     7
100
AcDbEllipse
 10
146.6935049176
 20
488.4258421871
 30
0.0
 11
8.499999586991436
 21
-2.890622186058067E-7
 31
0.0
210
0.0
220
0.0
230
1.0
 40
0.707106791
 41
0.5118338340542313
 42
0.5353637892836831
  0
ELLIPSE
  5
15A
330
75
100
AcDbEntity
  8
$DDT_AUDIT_GENERATED_(D3)
  6
Continuous
 62
     7
100
AcDbEllipse
 10
146.6935045088
 20
488.4258420202
 30
0.0
 11
8.50000000002354
 21
1.963013085415355E-11
 31
0.0
210
0.0
220
0.0
230
1.0
 40
0.7071067812
 41
0.5353637528841246
 42
0.7736331861066948
  0
ELLIPSE
  5
15B
330
75
100
AcDbEntity
  8
$DDT_AUDIT_GENERATED_(D3)
  6
Continuous
 62
     7
100
AcDbEllipse
 10
146.6935044472
 20
488.425841995
 30
0.0
 11
6.250000062325651
 21
4.371569772843031E-8
 31
0.0
210
0.0
220
0.0
230
1.0
 40
0.7071067792
 41
0.5075980855319103
 42
0.5395994508401415
  0
LINE
  5
15C
330
75
100
AcDbEntity
  8
$DDT_AUDIT_GENERATED_(D3)
  6
Continuous
 62
     7
100
AcDbLine
 10
152.1554704178
 20
490.574030607
 30
0.0
 11
154.1042109967
 21
491.3696006169
 31
0.0
  0
LINE
  5
15D
330
75
100
AcDbEntity
  8
$DDT_AUDIT_GENERATED_(D3)
  6
Continuous
 62
     7
100
AcDbLine
 10
152.0554704178
 20
490.6965050942
 30
0.0
 11
154.0042109967
 21
491.4920751041
 31
0.0
  0
LINE
  5
15E
330
75
100
AcDbEntity
  8
$DDT_AUDIT_GENERATED_(D3)
  6
Continuous
 62
     7
100
AcDbLine
 10
152.0554704178
 20
490.6965050942
 30
0.0
 11
152.0554704178
 21
492.117324475
 31
0.0
  0
ELLIPSE
  5
15F
330
75
100
AcDbEntity
  8
$DDT_AUDIT_GENERATED_(D3)
  6
Continuous
 62
     7
100
AcDbEllipse
 10
146.6935049646
 20
488.4258421066
 30
0.0
 11
8.499999543950491
 21
-1.668730223447490E-7
 31
0.0
210
0.0
220
0.0
230
0.9999999999999998
 40
0.7071067982
 41
0.2500344310060191
 42
0.2735643862352667
  0
ELLIPSE
  5
160
330
75
100
AcDbEntity
  8
$DDT_AUDIT_GENERATED_(D3)
  6
Continuous
 62
     7
100
AcDbEllipse
 10
146.6935045088
 20
488.4258420202
 30
0.0
 11
8.500000000021902
 21
1.161570839514070E-11
 31
0.0
210
0.0
220
0.0
230
1.0
 40
0.7071067812
 41
0.2735643650859479
 42
0.5118337983085763
  0
ELLIPSE
  5
161
330
75
100
AcDbEntity
  8
$DDT_AUDIT_GENERATED_(D3)
  6
Continuous
 62
     7
100
AcDbEllipse
 10
146.693504453
 20
488.4258420096
 30
0.0
 11
6.250000055910326
 21
2.045892621982404E-8
 31
0.0
210
0.0
220
0.0
230
1.0
 40
0.7071067784
 41
0.2457987016561274
 42
0.2778000669986659
  0
LINE
  5
162
330
75
100
AcDbEntity
  8
$DDT_AUDIT_GENERATED_(D3)
  6
Continuous
 62
     7
100
AcDbLine
 10
152.7556500375
 20
489.5012237173
 30
0.0
 11
154.9291877255
 21
489.9130410579
 31
0.0
  0
LINE
  5
163
330
75
100
AcDbEntity
  8
$DDT_AUDIT_GENERATED_(D3)
  6
Continuous
 62
     7
100
AcDbLine
 10
152.7038862285
 20
489.6378262577
 30
0.0
 11
154.8774239165
 21
490.0496435982
 31
0.0
  0
LINE
  5
164
330
75
100
AcDbEntity
  8
$DDT_AUDIT_GENERATED_(D3)
  6
Continuous
 62
     7
100
AcDbLine
 10
152.7038862285
 20
489.6378262577
 30
0.0
 11
152.7038862285
 21
490.7979204242
 31
0.0
  0
ARC
  5
165
330
75
100
AcDbEntity
  8
$DDT_AUDIT_GENERATED_(D3)
  6
Continuous
 62
     7
100
AcDbCircle
 10
150.943210381
 20
488.4258420202
 30
0.0
 40
4.250294107471902
100
AcDbArc
 50
359.0467458876
 51
0.9532541124
  0
ELLIPSE
  5
166
330
75
100
AcDbEntity
  8
$DDT_AUDIT_GENERATED_(D3)
  6
Continuous
 62
     7
100
AcDbEllipse
 10
146.6935045089
 20
488.4258420202
 30
0.0
 11
8.499999999998668
 21
1.249000902703301E-13
 31
0.0
210
0.0
220
0.0
230
1.0
 40
0.7071067812
 41
0.0117649772881025
 42
0.2500344105110757
  0
ARC
  5
167
330
75
100
AcDbEntity
  8
$DDT_AUDIT_GENERATED_(D3)
  6
Continuous
 62
     7
100
AcDbCircle
 10
149.8181044832
 20
488.4258420202
 30
0.0
 40
3.125399974402808
100
AcDbArc
 50
0.0
 51
1.2964001947
  0
LINE
  5
168
330
75
100
AcDbEntity
  8
$DDT_AUDIT_GENERATED_(D3)
  6
Continuous
 62
     7
100
AcDbLine
 10
154.9300086216
 20
489.9107662607
 30
0.0
 11
154.9171815353
 21
489.9107662607
 31
0.0
  0
LINE
  5
169
330
75
100
AcDbEntity
  8
$DDT_AUDIT_GENERATED_(D3)
  6
Continuous
 62
     7
100
AcDbLine
 10
152.9435045088
 20
488.3551313421
 30
0.0
 11
155.1929162532
 21
488.3551313421
 31
0.0
  0
LINE
  5
16A
330
75
100
AcDbEntity
  8
$DDT_AUDIT_GENERATED_(D3)
  6
Continuous
 62
     7
100
AcDbLine
 10
152.9427044576
 20
488.4965526983
 30
0.0
 11
155.1929162532
 21
488.4965526983
 31
0.0
  0
LINE
  5
16B
330
75
100
AcDbEntity
  8
$DDT_AUDIT_GENERATED_(D3)
  6
Continuous
 62
     7
100
AcDbLine
 10
152.9427044576
 20
488.4965526983
 30
0.0
 11
152.9427044576
 21
489.5366646734
 31
0.0
  0
ELLIPSE
  5
16C
330
75
100
AcDbEntity
  8
$DDT_AUDIT_GENERATED_(D3)
  6
Continuous
 62
     7
100
AcDbEllipse
 10
146.6935049646
 20
488.4258419339
 30
0.0
 11
8.499999544027581
 21
1.668431920398561E-7
 31
0.0
210
0.0
220
0.0
230
0.9999999999999998
 40
0.7071067982
 41
-0.2735643862317394
 42
-0.2500344310025788
  0
ELLIPSE
  5
16D
330
75
100
AcDbEntity
  8
$DDT_AUDIT_GENERATED_(D3)
  6
Continuous
 62
     7
100
AcDbEllipse
 10
146.6935045088
 20
488.4258420202
 30
0.0
 11
8.50000000002894
 21
-5.731526364627371E-12
 31
0.0
210
0.0
220
0.0
230
1.0
 40
0.7071067812
 41
6.033150896669422
 42
6.271420329891927
  0
LINE
  5
16E
330
75
100
AcDbEntity
  8
$DDT_AUDIT_GENERATED_(D3)
  6
Continuous
 62
     7
100
AcDbLine
 10
154.9291877255
 20
486.9386429826
 30
0.0
 11
154.9291877255
 21
488.352856545
 31
0.0
  0
LINE
  5
16F
330
75
100
AcDbEntity
  8
$DDT_AUDIT_GENERATED_(D3)
  6
Continuous
 62
     7
100
AcDbLine
 10
154.9291877255
 20
488.352856545
 30
0.0
 11
154.9171815353
 21
488.3551313421
 31
0.0
  0
LINE
  5
170
330
75
100
AcDbEntity
  8
$DDT_AUDIT_GENERATED_(D3)
  6
Continuous
 62
     7
100
AcDbLine
 10
152.7539879739
 20
487.2043650706
 30
0.0
 11
154.8774239165
 21
486.8020404422
 31
0.0
  0
LINE
  5
171
330
75
100
AcDbEntity
  8
$DDT_AUDIT_GENERATED_(D3)
  6
Continuous
 62
     7
100
AcDbLine
 10
152.7997768808
 20
487.3420996679
 30
0.0
 11
154.9291877255
 21
486.9386429826
 31
0.0
  0
ELLIPSE
  5
172
330
75
100
AcDbEntity
  8
$DDT_AUDIT_GENERATED_(D3)
  6
Continuous
 62
     7
100
AcDbEllipse
 10
146.6935042015
 20
488.425842146
 30
0.0
 11
8.500000310602399
 21
-2.176955421484550E-7
 31
0.0
210
0.0
220
0.0
230
1.0
 40
0.7071067738
 41
-0.5353637254934691
 42
-0.5118337714088108
  0
ELLIPSE
  5
173
330
75
100
AcDbEntity
  8
$DDT_AUDIT_GENERATED_(D3)
  6
Continuous
 62
     7
100
AcDbEllipse
 10
146.6935045089
 20
488.4258420202
 30
0.0
 11
8.499999999996634
 21
1.727784582072900E-12
 31
0.0
210
0.0
220
0.0
230
1.0
 40
0.7071067812
 41
5.771351508869136
 42
6.009620942092157
  0
LINE
  5
174
330
75
100
AcDbEntity
  8
$DDT_AUDIT_GENERATED_(D3)
  6
Continuous
 62
     7
100
AcDbLine
 10
154.1042109967
 20
485.4820834235
 30
0.0
 11
154.1042109967
 21
486.8962969859
 31
0.0
  0
LINE
  5
175
330
75
100
AcDbEntity
  8
$DDT_AUDIT_GENERATED_(D3)
  6
Continuous
 62
     7
100
AcDbLine
 10
154.1042109967
 20
486.8962969859
 30
0.0
 11
153.8654177262
 21
486.9937839303
 31
0.0
  0
LINE
  5
176
330
75
100
AcDbEntity
  8
$DDT_AUDIT_GENERATED_(D3)
  6
Continuous
 62
     7
100
AcDbLine
 10
152.1423945289
 20
486.1196923265
 30
0.0
 11
154.0042109967
 21
485.3596089364
 31
0.0
  0
LINE
  5
177
330
75
100
AcDbEntity
  8
$DDT_AUDIT_GENERATED_(D3)
  6
Continuous
 62
     7
100
AcDbLine
 10
152.2375920689
 20
486.2441274097
 30
0.0
 11
154.1042109967
 21
485.4820834235
 31
0.0
  0
ELLIPSE
  5
178
330
75
100
AcDbEntity
  8
$DDT_AUDIT_GENERATED_(D3)
  6
Continuous
 62
     7
100
AcDbEllipse
 10
146.6935048422
 20
488.4258417846
 30
0.0
 11
8.499999646485144
 21
3.332897013930136E-7
 31
0.0
210
0.0
220
0.0
230
1.0
 40
0.7071067812
 41
-0.797163182601647
 42
-0.7736332273730309
  0
ELLIPSE
  5
179
330
75
100
AcDbEntity
  8
$DDT_AUDIT_GENERATED_(D3)
  6
Continuous
 62
     7
100
AcDbEllipse
 10
146.6935045089
 20
488.4258420202
 30
0.0
 11
8.499999999996374
 21
2.879640970121500E-12
 31
0.0
210
0.0
220
0.0
230
1.0
 40
0.7071067812
 41
5.509552121069826
 42
5.747821554292855
  0
LINE
  5
17A
330
75
100
AcDbEntity
  8
$DDT_AUDIT_GENERATED_(D3)
  6
Continuous
 62
     7
100
AcDbLine
 10
152.7742068675
 20
484.226136148
 30
0.0
 11
152.7742068675
 21
485.6403497104
 31
0.0
  0
LINE
  5
17B
330
75
100
AcDbEntity
  8
$DDT_AUDIT_GENERATED_(D3)
  6
Continuous
 62
     7
100
AcDbLine
 10
152.3503587583
 20
485.9400555826
 30
0.0
 11
152.3503587583
 21
486.0347912854
 31
0.0
  0
LINE
  5
17C
330
75
100
AcDbEntity
  8
$DDT_AUDIT_GENERATED_(D3)
  6
Continuous
 62
     7
100
AcDbLine
 10
152.7742068675
 20
485.6403497104
 30
0.0
 11
152.3503587583
 21
485.9400555826
 31
0.0
  0
LINE
  5
17D
330
75
100
AcDbEntity
  8
$DDT_AUDIT_GENERATED_(D3)
  6
Continuous
 62
     7
100
AcDbLine
 10
151.1421141558
 20
485.180199972
 30
0.0
 11
152.6327855113
 21
484.126136148
 31
0.0
  0
LINE
  5
17E
330
75
100
AcDbEntity
  8
$DDT_AUDIT_GENERATED_(D3)
  6
Continuous
 62
     7
100
AcDbLine
 10
151.2803342823
 20
485.2824635832
 30
0.0
 11
152.7742068675
 21
484.226136148
 31
0.0
  0
ELLIPSE
  5
17F
330
75
100
AcDbEntity
  8
$DDT_AUDIT_GENERATED_(D3)
  6
Continuous
 62
     7
100
AcDbEllipse
 10
146.6935047283
 20
488.4258417516
 30
0.0
 11
8.499999725781917
 21
2.687207470430941E-7
 31
0.0
210
0.0
220
0.0
230
1.0
 40
0.7071067721
 41
-1.05896256232575
 42
-1.035432607142361
  0
ELLIPSE
  5
180
330
75
100
AcDbEntity
  8
$DDT_AUDIT_GENERATED_(D3)
  6
Continuous
 62
     7
100
AcDbEllipse
 10
146.6935045088
 20
488.4258420202
 30
0.0
 11
8.500000000031667
 21
-3.212707877509047E-11
 31
0.0
210
0.0
220
0.0
230
1.0
 40
0.7071067812
 41
5.247752733275401
 42
5.486022166497713
  0
LINE
  5
181
330
75
100
AcDbEntity
  8
$DDT_AUDIT_GENERATED_(D3)
  6
Continuous
 62
     7
100
AcDbLine
 10
151.0298129214
 20
483.2563918874
 30
0.0
 11
151.0298129214
 21
484.6706054498
 31
0.0
  0
LINE
  5
182
330
75
100
AcDbEntity
  8
$DDT_AUDIT_GENERATED_(D3)
  6
Continuous
 62
     7
100
AcDbLine
 10
151.0298129214
 20
484.6706054498
 30
0.0
 11
150.7995941359
 21
484.9525647266
 31
0.0
  0
LINE
  5
183
330
75
100
AcDbEntity
  8
$DDT_AUDIT_GENERATED_(D3)
  6
Continuous
 62
     7
100
AcDbLine
 10
149.8185045088
 20
484.4570929409
 30
0.0
 11
150.8566078406
 21
483.1856812093
 31
0.0
  0
LINE
  5
184
330
75
100
AcDbEntity
  8
$DDT_AUDIT_GENERATED_(D3)
  6
Continuous
 62
     7
100
AcDbLine
 10
149.9901091798
 20
484.5297637127
 30
0.0
 11
151.0298129214
 21
483.2563918874
 31
0.0
  0
ELLIPSE
  5
185
330
75
100
AcDbEntity
  8
$DDT_AUDIT_GENERATED_(D3)
  6
Continuous
 62
     7
100
AcDbEllipse
 10
146.6935046287
 20
488.4258417041
 30
0.0
 11
8.499999753100926
 21
1.636865781806662E-7
 31
0.0
210
0.0
220
0.0
230
0.9999999999999998
 40
0.7071067645
 41
-1.320761937029714
 42
-1.297231981812978
  0
ELLIPSE
  5
186
330
75
100
AcDbEntity
  8
$DDT_AUDIT_GENERATED_(D3)
  6
Continuous
 62
     7
100
AcDbEllipse
 10
146.6935045089
 20
488.4258420202
 30
0.0
 11
8.499999999987164
 21
1.154631945610163E-11
 31
0.0
210
0.0
220
0.0
230
1.0
 40
0.7071067812
 41
4.98595334547034
 42
5.22422277869361
  0
LINE
  5
187
330
75
100
AcDbEntity
  8
$DDT_AUDIT_GENERATED_(D3)
  6
Continuous
 62
     7
100
AcDbLine
 10
148.9899067231
 20
482.6389371104
 30
0.0
 11
148.9899067231
 21
484.0531506728
 31
0.0
  0
LINE
  5
188
330
75
100
AcDbEntity
  8
$DDT_AUDIT_GENERATED_(D3)
  6
Continuous
 62
     7
100
AcDbLine
 10
148.9899067231
 20
484.0531506728
 30
0.0
 11
148.9484112391
 21
484.1626555301
 31
0.0
  0
LINE
  5
189
330
75
100
AcDbEntity
  8
$DDT_AUDIT_GENERATED_(D3)
  6
Continuous
 62
     7
100
AcDbLine
 10
148.2644827812
 20
484.0068905783
 30
0.0
 11
148.7967215578
 21
482.60233457
 31
0.0
  0
LINE
  5
18A
330
75
100
AcDbEntity
  8
$DDT_AUDIT_GENERATED_(D3)
  6
Continuous
 62
     7
100
AcDbLine
 10
148.4572391582
 20
484.0446246732
 30
0.0
 11
148.9899067231
 21
482.6389371104
 31
0.0
  0
ARC
  5
18B
330
75
100
AcDbEntity
  8
$DDT_AUDIT_GENERATED_(D3)
  6
Continuous
 62
     7
100
AcDbCircle
 10
146.6935045088
 20
492.1360896535
 30
0.0
 40
7.422558521154992
100
AcDbArc
 50
268.6490250581
 51
271.3509749419
  0
LINE
  5
18C
330
75
100
AcDbEntity
  8
$DDT_AUDIT_GENERATED_(D3)
  6
Continuous
 62
     7
100
AcDbLine
 10
146.5185045088
 20
486.343818309
 30
0.0
 11
146.5185045088
 21
484.715594387
 31
0.0
  0
LINE
  5
18D
330
75
100
AcDbEntity
  8
$DDT_AUDIT_GENERATED_(D3)
  6
Continuous
 62
     7
100
AcDbLine
 10
146.8685045088
 20
486.343818309
 30
0.0
 11
146.8685045088
 21
484.715594387
 31
0.0
  0
ELLIPSE
  5
18E
330
75
100
AcDbEntity
  8
$DDT_AUDIT_GENERATED_(D3)
  6
Continuous
 62
     7
100
AcDbEllipse
 10
146.6935045078
 20
488.4258420189
 30
0.0
 11
-5.249999998636175
 21
1.341697586365598E-9
 31
0.0
210
0.0
220
0.0
230
1.0
 40
0.7071067811
 41
1.013858042199382
 42
1.080537060735816
  0
LINE
  5
18F
330
75
100
AcDbEntity
  8
$DDT_AUDIT_GENERATED_(D3)
  6
Continuous
 62
     7
100
AcDbLine
 10
145.0872397968
 20
486.7060649254
 30
0.0
 11
143.9184088018
 21
485.2745451589
 31
0.0
  0
LINE
  5
190
330
75
100
AcDbEntity
  8
$DDT_AUDIT_GENERATED_(D3)
  6
Continuous
 62
     7
100
AcDbLine
 10
145.3839678729
 20
486.574506368
 30
0.0
 11
144.2215176932
 21
485.1508014721
 31
0.0
  0
LINE
  5
191
330
75
100
AcDbEntity
  8
$DDT_AUDIT_GENERATED_(D3)
  6
Continuous
 62
     7
100
AcDbLine
 10
143.9184088018
 20
487.1500270403
 30
0.0
 11
143.9184088018
 21
485.2745451589
 31
0.0
  0
ELLIPSE
  5
192
330
75
100
AcDbEntity
  8
$DDT_AUDIT_GENERATED_(D3)
  6
Continuous
 62
     7
100
AcDbEllipse
 10
146.6935045069
 20
488.4258420194
 30
0.0
 11
-5.24999999800527
 21
1.396348314752771E-9
 31
0.0
210
0.0
220
0.0
230
1.0
 40
0.7071067813
 41
0.4902592666119738
 42
0.5569382851490289
  0
LINE
  5
193
330
75
100
AcDbEntity
  8
$DDT_AUDIT_GENERATED_(D3)
  6
Continuous
 62
     7
100
AcDbLine
 10
144.1570006655
 20
487.5332055641
 30
0.0
 11
142.0618977484
 21
486.6778833798
 31
0.0
  0
LINE
  5
194
330
75
100
AcDbEntity
  8
$DDT_AUDIT_GENERATED_(D3)
  6
Continuous
 62
     7
100
AcDbLine
 10
144.3128326154
 20
487.3110498879
 30
0.0
 11
142.2368977484
 21
486.4635530274
 31
0.0
  0
LINE
  5
195
330
75
100
AcDbEntity
  8
$DDT_AUDIT_GENERATED_(D3)
  6
Continuous
 62
     7
100
AcDbLine
 10
142.0618977484
 20
488.3020983335
 30
0.0
 11
142.0618977484
 21
486.6778833798
 31
0.0
  0
LINE
  5
196
330
75
100
AcDbEntity
  8
$DDT_AUDIT_GENERATED_(D3)
  6
Continuous
 62
     7
100
AcDbLine
 10
143.9490783393
 20
489.4033624106
 30
0.0
 11
143.9490783393
 21
488.5495857069
 31
0.0
  0
ARC
  5
197
330
75
100
AcDbEntity
  8
$DDT_AUDIT_GENERATED_(D3)
  6
Continuous
 62
     7
100
AcDbCircle
 10
145.3212914241
 20
488.4258420202
 30
0.0
 40
1.377781277997349
100
AcDbArc
 50
174.8471083319
 51
180.0
  0
ARC
  5
198
330
75
100
AcDbEntity
  8
$DDT_AUDIT_GENERATED_(D3)
  6
Continuous
 62
     7
100
AcDbCircle
 10
144.0699632475
 20
488.4258420202
 30
0.0
 40
2.626457928465754
100
AcDbArc
 50
181.5427288577
 51
182.700449356
  0
LINE
  5
199
330
75
100
AcDbEntity
  8
$DDT_AUDIT_GENERATED_(D3)
  6
Continuous
 62
     7
100
AcDbLine
 10
143.9490783393
 20
488.5495857069
 30
0.0
 11
141.4569144924
 21
488.5495857069
 31
0.0
  0
LINE
  5
19A
330
75
100
AcDbEntity
  8
$DDT_AUDIT_GENERATED_(D3)
  6
Continuous
 62
     7
100
AcDbLine
 10
143.9435045088
 20
488.3020983335
 30
0.0
 11
141.4464219862
 21
488.3020983335
 31
0.0
  0
LINE
  5
19B
330
75
100
AcDbEntity
  8
$DDT_AUDIT_GENERATED_(D3)
  6
Continuous
 62
     7
100
AcDbLine
 10
144.4042617272
 20
490.982093003
 30
0.0
 11
144.4042617272
 21
489.5033083739
 31
0.0
  0
ELLIPSE
  5
19C
330
75
100
AcDbEntity
  8
$DDT_AUDIT_GENERATED_(D3)
  6
Continuous
 62
     7
100
AcDbEllipse
 10
146.6935045088
 20
488.4258420202
 30
0.0
 11
-2.749999999996976
 21
-2.893518757929314E-12
 31
0.0
210
0.0
220
0.0
230
1.0
 40
0.7071067812
 41
-0.5872781678563568
 42
-0.459919383342247
  0
LINE
  5
19D
330
75
100
AcDbEntity
  8
$DDT_AUDIT_GENERATED_(D3)
  6
Continuous
 62
     7
100
AcDbLine
 10
144.4042617272
 20
489.5033083739
 30
0.0
 11
142.3309849671
 21
490.3497200669
 31
0.0
  0
LINE
  5
19E
330
75
100
AcDbEntity
  8
$DDT_AUDIT_GENERATED_(D3)
  6
Continuous
 62
     7
100
AcDbLine
 10
144.2292617272
 20
489.2889780214
 30
0.0
 11
142.1459739451
 21
490.139476697
 31
0.0
  0
LINE
  5
19F
330
75
100
AcDbEntity
  8
$DDT_AUDIT_GENERATED_(D3)
  6
Continuous
 62
     7
100
AcDbLine
 10
145.4728458697
 20
491.8949948903
 30
0.0
 11
145.4728458697
 21
490.1683248016
 31
0.0
  0
ELLIPSE
  5
1A0
330
75
100
AcDbEntity
  8
$DDT_AUDIT_GENERATED_(D3)
  6
Continuous
 62
     7
100
AcDbEllipse
 10
146.6935045089
 20
488.4258420202
 30
0.0
 11
-2.750000000045845
 21
4.535261055593764E-11
 31
0.0
210
0.0
220
0.0
230
1.0
 40
0.7071067812
 41
-1.110876943435369
 42
-0.9835181589230402
  0
LINE
  5
1A1
330
75
100
AcDbEntity
  8
$DDT_AUDIT_GENERATED_(D3)
  6
Continuous
 62
     7
100
AcDbLine
 10
145.4728458697
 20
490.1683248016
 30
0.0
 11
144.310265159
 21
491.5921895647
 31
0.0
  0
LINE
  5
1A2
330
75
100
AcDbEntity
  8
$DDT_AUDIT_GENERATED_(D3)
  6
Continuous
 62
     7
100
AcDbLine
 10
145.1697369784
 20
490.0445811149
 30
0.0
 11
144.0038204744
 21
491.4725313737
 31
0.0
  0
ARC
  5
1A3
330
75
100
AcDbEntity
  8
$DDT_AUDIT_GENERATED_(D3)
  6
Continuous
 62
     7
100
AcDbCircle
 10
146.6935045088
 20
486.4852396653
 30
0.0
 40
3.885148002327314
100
AcDbArc
 50
87.418333855
 51
92.581666145
  0
LINE
  5
1A4
330
75
100
AcDbEntity
  8
$DDT_AUDIT_GENERATED_(D3)
  6
Continuous
 62
     7
100
AcDbLine
 10
146.8685045088
 20
490.3664443752
 30
0.0
 11
146.8685045088
 21
491.9946682972
 31
0.0
  0
LINE
  5
1A5
330
75
100
AcDbEntity
  8
$DDT_AUDIT_GENERATED_(D3)
  6
Continuous
 62
     7
100
AcDbLine
 10
146.5185045088
 20
490.3664443752
 30
0.0
 11
146.5185045088
 21
491.9946682972
 31
0.0
  0
ELLIPSE
  5
1A6
330
75
100
AcDbEntity
  8
$DDT_AUDIT_GENERATED_(D3)
  6
Continuous
 62
     7
100
AcDbEllipse
 10
146.6935045089
 20
488.4258420202
 30
0.0
 11
2.749999999996545
 21
-3.066991105526995E-12
 31
0.0
210
0.0
220
0.0
230
1.0
 40
0.7071067812
 41
0.9835181589407895
 42
1.110876943454948
  0
LINE
  5
1A7
330
75
100
AcDbEntity
  8
$DDT_AUDIT_GENERATED_(D3)
  6
Continuous
 62
     7
100
AcDbLine
 10
147.914163148
 20
491.8949948903
 30
0.0
 11
147.914163148
 21
490.1683248016
 31
0.0
  0
LINE
  5
1A8
330
75
100
AcDbEntity
  8
$DDT_AUDIT_GENERATED_(D3)
  6
Continuous
 62
     7
100
AcDbLine
 10
148.2172720393
 20
490.0445811149
 30
0.0
 11
149.3831885433
 21
491.4725313737
 31
0.0
  0
LINE
  5
1A9
330
75
100
AcDbEntity
  8
$DDT_AUDIT_GENERATED_(D3)
  6
Continuous
 62
     7
100
AcDbLine
 10
147.914163148
 20
490.1683248016
 30
0.0
 11
149.0767438587
 21
491.5921895647
 31
0.0
  0
ELLIPSE
  5
1AA
330
75
100
AcDbEntity
  8
$DDT_AUDIT_GENERATED_(D3)
  6
Continuous
 62
     7
100
AcDbEllipse
 10
146.6935045089
 20
488.4258420202
 30
0.0
 11
2.749999999995439
 21
-3.982925100842749E-12
 31
0.0
210
0.0
220
0.0
230
1.0
 40
0.7071067812
 41
0.459919383342657
 42
0.5872781678568231
  0
LINE
  5
1AB
330
75
100
AcDbEntity
  8
$DDT_AUDIT_GENERATED_(D3)
  6
Continuous
 62
     7
100
AcDbLine
 10
148.9827472905
 20
490.982093003
 30
0.0
 11
148.9827472905
 21
489.5033083739
 31
0.0
  0
LINE
  5
1AC
330
75
100
AcDbEntity
  8
$DDT_AUDIT_GENERATED_(D3)
  6
Continuous
 62
     7
100
AcDbLine
 10
149.1577472905
 20
489.2889780214
 30
0.0
 11
151.2410350726
 21
490.139476697
 31
0.0
  0
LINE
  5
1AD
330
75
100
AcDbEntity
  8
$DDT_AUDIT_GENERATED_(D3)
  6
Continuous
 62
     7
100
AcDbLine
 10
148.9827472905
 20
489.5033083739
 30
0.0
 11
151.0560240506
 21
490.3497200669
 31
0.0
  0
ARC
  5
1AE
330
75
100
AcDbEntity
  8
$DDT_AUDIT_GENERATED_(D3)
  6
Continuous
 62
     7
100
AcDbCircle
 10
148.0657175936
 20
488.4258420202
 30
0.0
 40
1.377781277997367
100
AcDbArc
 50
0.0
 51
5.1528916681
  0
LINE
  5
1AF
330
75
100
AcDbEntity
  8
$DDT_AUDIT_GENERATED_(D3)
  6
Continuous
 62
     7
100
AcDbLine
 10
149.4379306784
 20
489.4033624106
 30
0.0
 11
149.4379306784
 21
488.5495857069
 31
0.0
  0
ARC
  5
1B0
330
75
100
AcDbEntity
  8
$DDT_AUDIT_GENERATED_(D3)
  6
Continuous
 62
     7
100
AcDbCircle
 10
149.3170457702
 20
488.4258420202
 30
0.0
 40
2.626457928466049
100
AcDbArc
 50
357.299550644
 51
358.4572711423
  0
LINE
  5
1B1
330
75
100
AcDbEntity
  8
$DDT_AUDIT_GENERATED_(D3)
  6
Continuous
 62
     7
100
AcDbLine
 10
149.4435045088
 20
488.3020983335
 30
0.0
 11
151.9405870315
 21
488.3020983335
 31
0.0
  0
LINE
  5
1B2
330
75
100
AcDbEntity
  8
$DDT_AUDIT_GENERATED_(D3)
  6
Continuous
 62
     7
100
AcDbLine
 10
149.4379306784
 20
488.5495857069
 30
0.0
 11
151.9300945253
 21
488.5495857069
 31
0.0
  0
ELLIPSE
  5
1B3
330
75
100
AcDbEntity
  8
$DDT_AUDIT_GENERATED_(D3)
  6
Continuous
 62
     7
100
AcDbEllipse
 10
146.6935045107
 20
488.4258420194
 30
0.0
 11
5.249999998085455
 21
1.344993560969953E-9
 31
0.0
210
0.0
220
0.0
230
1.0
 40
0.7071067813
 41
-0.556938285137953
 42
-0.4902592666014352
  0
LINE
  5
1B4
330
75
100
AcDbEntity
  8
$DDT_AUDIT_GENERATED_(D3)
  6
Continuous
 62
     7
100
AcDbLine
 10
149.0741764023
 20
487.3110498879
 30
0.0
 11
151.1501112693
 21
486.4635530274
 31
0.0
  0
LINE
  5
1B5
330
75
100
AcDbEntity
  8
$DDT_AUDIT_GENERATED_(D3)
  6
Continuous
 62
     7
100
AcDbLine
 10
149.2300083522
 20
487.5332055641
 30
0.0
 11
151.3251112693
 21
486.6778833798
 31
0.0
  0
LINE
  5
1B6
330
75
100
AcDbEntity
  8
$DDT_AUDIT_GENERATED_(D3)
  6
Continuous
 62
     7
100
AcDbLine
 10
151.3251112693
 20
488.3020983335
 30
0.0
 11
151.3251112693
 21
486.6778833798
 31
0.0
  0
ELLIPSE
  5
1B7
330
75
100
AcDbEntity
  8
$DDT_AUDIT_GENERATED_(D3)
  6
Continuous
 62
     7
100
AcDbEllipse
 10
146.6935045096
 20
488.4258420193
 30
0.0
 11
5.249999999081377
 21
9.047138038731362E-10
 31
0.0
210
0.0
220
0.0
230
1.0
 40
0.7071067811
 41
-1.080537060645508
 42
-1.013858042113593
  0
LINE
  5
1B8
330
75
100
AcDbEntity
  8
$DDT_AUDIT_GENERATED_(D3)
  6
Continuous
 62
     7
100
AcDbLine
 10
148.0030411448
 20
486.574506368
 30
0.0
 11
149.1654913245
 21
485.1508014721
 31
0.0
  0
LINE
  5
1B9
330
75
100
AcDbEntity
  8
$DDT_AUDIT_GENERATED_(D3)
  6
Continuous
 62
     7
100
AcDbLine
 10
148.2997692209
 20
486.7060649254
 30
0.0
 11
149.4686002159
 21
485.2745451589
 31
0.0
  0
LINE
  5
1BA
330
75
100
AcDbEntity
  8
$DDT_AUDIT_GENERATED_(D3)
  6
Continuous
 62
     7
100
AcDbLine
 10
149.4686002159
 20
487.1500270403
 30
0.0
 11
149.4686002159
 21
485.2745451589
 31
0.0
  0
LINE
  5
1BB
330
75
100
AcDbEntity
  8
$DDT_AUDIT_GENERATED_(D3)
  6
Continuous
 62
     7
100
AcDbLine
 10
137.6935045088
 20
490.1936089732
 30
0.0
 11
137.6935045088
 21
488.284420664
 31
0.0
  0
LINE
  5
1BC
330
75
100
AcDbEntity
  8
$DDT_AUDIT_GENERATED_(D3)
  6
Continuous
 62
     7
100
AcDbLine
 10
155.6935045088
 20
488.284420664
 30
0.0
 11
155.6935045088
 21
490.1936089732
 31
0.0
  0
LINE
  5
1BD
330
75
100
AcDbEntity
  8
$DDT_AUDIT_GENERATED_(D3)
  6
Continuous
 62
     7
100
AcDbLine
 10
140.4435045088
 20
488.4258420202
 30
0.0
 11
140.4435045088
 21
488.284420664
 31
0.0
  0
LINE
  5
1BE
330
75
100
AcDbEntity
  8
$DDT_AUDIT_GENERATED_(D3)
  6
Continuous
 62
     7
100
AcDbLine
 10
152.9435045088
 20
488.284420664
 30
0.0
 11
152.9435045088
 21
488.4258420202
 31
0.0
  0
LINE
  5
1BF
330
75
100
AcDbEntity
  8
$DDT_AUDIT_GENERATED_(D3)
  6
Continuous
 62
     7
100
AcDbLine
 10
143.9435045088
 20
488.4258420202
 30
0.0
 11
143.9435045088
 21
488.284420664
 31
0.0
  0
LINE
  5
1C0
330
75
100
AcDbEntity
  8
$DDT_AUDIT_GENERATED_(D3)
  6
Continuous
 62
     7
100
AcDbLine
 10
149.4435045088
 20
488.284420664
 30
0.0
 11
149.4435045088
 21
488.4258420202
 31
0.0
  0
LINE
  5
1C1
330
75
100
AcDbEntity
  8
$DDT_AUDIT_GENERATED_(D3)
  6
Continuous
 62
     7
100
AcDbLine
 10
146.173874565
 20
488.6087220275
 30
0.0
 11
146.173874565
 21
488.4258420202
 31
0.0
  0
LINE
  5
1C2
330
75
100
AcDbEntity
  8
$DDT_AUDIT_GENERATED_(D3)
  6
Continuous
 62
     7
100
AcDbLine
 10
147.2131344527
 20
488.4258420202
 30
0.0
 11
147.2131344527
 21
488.6087220275
 31
0.0
  0
LINE
  5
1C4
330
75
100
AcDbEntity
  8
$DDT_AUDIT_GENERATED_(1C3)
  6
Continuous
 62
     7
100
AcDbLine
 10
131.1935045088
 20
493.6539426485
 30
0.0
 11
135.1185045088
 21
493.6539426485
 31
0.0
  0
LINE
  5
1C5
330
75
100
AcDbEntity
  8
$DDT_AUDIT_GENERATED_(1C3)
  6
Continuous
 62
     7
100
AcDbLine
 10
158.2685045088
 20
493.6539426485
 30
0.0
 11
162.1935045088
 21
493.6539426485
 31
0.0
  0
ARC
  5
1C6
330
75
100
AcDbEntity
  8
$DDT_AUDIT_GENERATED_(1C3)
  6
Continuous
 62
     7
100
AcDbCircle
 10
162.1935045088
 20
493.1539426485
 30
0.0
 40
0.5000000000000022
100
AcDbArc
 50
0.0
 51
90.0
  0
ARC
  5
1C7
330
75
100
AcDbEntity
  8
$DDT_AUDIT_GENERATED_(1C3)
  6
Continuous
 62
     7
100
AcDbCircle
 10
131.1935045088
 20
493.1539426485
 30
0.0
 40
0.5000000000000004
100
AcDbArc
 50
90.0
 51
180.0
  0
LINE
  5
1C8
330
75
100
AcDbEntity
  8
$DDT_AUDIT_GENERATED_(1C3)
  6
Continuous
 62
     7
100
AcDbLine
 10
130.6935045088
 20
493.1539426485
 30
0.0
 11
130.6935045088
 21
482.1539426485
 31
0.0
  0
LINE
  5
1C9
330
75
100
AcDbEntity
  8
$DDT_AUDIT_GENERATED_(1C3)
  6
Continuous
 62
     7
100
AcDbLine
 10
162.6935045088
 20
482.1539426485
 30
0.0
 11
162.6935045088
 21
493.1539426485
 31
0.0
  0
ARC
  5
1CB
330
75
100
AcDbEntity
  8
$DDT_AUDIT_GENERATED_(1CA)
  6
Continuous
 62
     7
100
AcDbCircle
 10
146.6935045088
 20
544.6539426485
 30
0.0
 40
11.5
100
AcDbArc
 50
0.0
 51
180.0
  0
LINE
  5
1CC
330
75
100
AcDbEntity
  8
$DDT_AUDIT_GENERATED_(1CA)
  6
Continuous
 62
     7
100
AcDbLine
 10
158.1935045088
 20
532.9382138959
 30
0.0
 11
158.1935045088
 21
544.6539426485
 31
0.0
  0
LINE
  5
1CD
330
75
100
AcDbEntity
  8
$DDT_AUDIT_GENERATED_(1CA)
  6
Continuous
 62
     7
100
AcDbLine
 10
135.1935045088
 20
544.6539426485
 30
0.0
 11
135.1935045088
 21
532.9382138959
 31
0.0
  0
LINE
  5
1CE
330
75
100
AcDbEntity
  8
$DDT_AUDIT_GENERATED_(1CA)
  6
Continuous
 62
     7
100
AcDbLine
 10
135.1935045088
 20
532.9382138959
 30
0.0
 11
135.1935045088
 21
516.1167889409
 31
0.0
  0
LINE
  5
1CF
330
75
100
AcDbEntity
  8
$DDT_AUDIT_GENERATED_(1CA)
  6
Continuous
 62
     7
100
AcDbLine
 10
158.1935045088
 20
516.1167889409
 30
0.0
 11
158.1935045088
 21
532.9382138959
 31
0.0
  0
ELLIPSE
  5
1D1
330
75
100
AcDbEntity
  8
$DDT_AUDIT_GENERATED_(1D0)
  6
Continuous
 62
     7
100
AcDbEllipse
 10
146.6935045088
 20
509.4622687605
 30
0.0
 11
-11.75
 21
-1.387778780781446E-14
 31
0.0
210
0.0
220
0.0
230
1.0
 40
0.7071067812
 41
2.948913288585165
 42
6.283185307179584
  0
ELLIPSE
  5
1D2
330
75
100
AcDbEntity
  8
$DDT_AUDIT_GENERATED_(1D0)
  6
Continuous
 62
     7
100
AcDbEllipse
 10
146.6935045088
 20
509.4622687605
 30
0.0
 11
-11.75
 21
-1.387778780781446E-14
 31
0.0
210
0.0
220
0.0
230
1.0
 40
0.7071067812
 41
0.0
 42
0.1926793650046255
  0
ELLIPSE
  5
1D3
330
75
100
AcDbEntity
  8
$DDT_AUDIT_GENERATED_(1D0)
  6
Continuous
 62
     7
100
AcDbEllipse
 10
146.6935045088
 20
514.4120162288
 30
0.0
 11
-11.75
 21
-1.387778780781446E-14
 31
0.0
210
0.0
220
0.0
230
1.0
 40
0.7071067812
 41
3.141592653589792
 42
6.283185307179584
  0
ELLIPSE
  5
1D4
330
75
100
AcDbEntity
  8
$DDT_AUDIT_GENERATED_(1D0)
  6
Continuous
 62
     7
100
AcDbEllipse
 10
146.6935045088
 20
500.6234339957
 30
0.0
 11
11.75
 21
0.0
 31
0.0
210
0.0
220
0.0
230
1.0
 40
0.7071067812
 41
6.110380593526531
 42
6.283185307179586
  0
ELLIPSE
  5
1D5
330
75
100
AcDbEntity
  8
$DDT_AUDIT_GENERATED_(1D0)
  6
Continuous
 62
     7
100
AcDbEllipse
 10
146.6935045088
 20
500.6234339957
 30
0.0
 11
11.75
 21
0.0
 31
0.0
210
0.0
220
0.0
230
1.0
 40
0.7071067812
 41
0.0
 42
3.314397367242861
  0
ELLIPSE
  5
1D6
330
75
100
AcDbEntity
  8
$DDT_AUDIT_GENERATED_(1D0)
  6
Continuous
 62
     7
100
AcDbEllipse
 10
146.6935045088
 20
506.2802882452
 30
0.0
 11
11.75
 21
0.0
 31
0.0
210
0.0
220
0.0
230
1.0
 40
0.7071067812
 41
0.0
 42
3.141592653589793
  0
LINE
  5
1D7
330
75
100
AcDbEntity
  8
$DDT_AUDIT_GENERATED_(1D0)
  6
Continuous
 62
     7
100
AcDbLine
 10
134.9435045088
 20
514.4120162288
 30
0.0
 11
134.9435045088
 21
509.4622687605
 31
0.0
  0
LINE
  5
1D8
330
75
100
AcDbEntity
  8
$DDT_AUDIT_GENERATED_(1D0)
  6
Continuous
 62
     7
100
AcDbLine
 10
158.4435045088
 20
509.4622687605
 30
0.0
 11
158.4435045088
 21
514.4120162288
 31
0.0
  0
LINE
  5
1D9
330
75
100
AcDbEntity
  8
$DDT_AUDIT_GENERATED_(1D0)
  6
Continuous
 62
     7
100
AcDbLine
 10
134.9435045088
 20
506.2802882452
 30
0.0
 11
134.9435045088
 21
500.6234339957
 31
0.0
  0
LINE
  5
1DA
330
75
100
AcDbEntity
  8
$DDT_AUDIT_GENERATED_(1D0)
  6
Continuous
 62
     7
100
AcDbLine
 10
158.4435045088
 20
500.6234339957
 30
0.0
 11
158.4435045088
 21
506.2802882452
 31
0.0
  0
LINE
  5
1DC
330
75
100
AcDbEntity
  8
$DDT_AUDIT_GENERATED_(1DB)
  6
Continuous
 62
     7
100
AcDbLine
 10
168.6935045088
 20
394.1539426485
 30
0.0
 11
124.6935045088
 21
394.1539426485
 31
0.0
  0
LINE
  5
1DD
330
75
100
AcDbEntity
  8
$DDT_AUDIT_GENERATED_(1DB)
  6
Continuous
 62
     7
100
AcDbLine
 10
174.1935045088
 20
384.1539426485
 30
0.0
 11
119.1935045088
 21
384.1539426485
 31
0.0
  0
LINE
  5
1DE
330
75
100
AcDbEntity
  8
$DDT_AUDIT_GENERATED_(1DB)
  6
Continuous
 62
     7
100
AcDbLine
 10
173.6935045088
 20
390.1539426485
 30
0.0
 11
119.6935045088
 21
390.1539426485
 31
0.0
  0
LINE
  5
1DF
330
75
100
AcDbEntity
  8
$DDT_AUDIT_GENERATED_(1DB)
  6
Continuous
 62
     7
100
AcDbLine
 10
174.1935045088
 20
384.1539426485
 30
0.0
 11
174.1935045088
 21
389.6539426485
 31
0.0
  0
LINE
  5
1E0
330
75
100
AcDbEntity
  8
$DDT_AUDIT_GENERATED_(1DB)
  6
Continuous
 62
     7
100
AcDbLine
 10
119.1935045088
 20
389.6539426485
 30
0.0
 11
119.1935045088
 21
384.1539426485
 31
0.0
  0
ARC
  5
1E1
330
75
100
AcDbEntity
  8
$DDT_AUDIT_GENERATED_(1DB)
  6
Continuous
 62
     7
100
AcDbCircle
 10
173.6935045088
 20
389.6539426485
 30
0.0
 40
0.5000000000000004
100
AcDbArc
 50
0.0
 51
90.0
  0
ARC
  5
1E2
330
75
100
AcDbEntity
  8
$DDT_AUDIT_GENERATED_(1DB)
  6
Continuous
 62
     7
100
AcDbCircle
 10
119.6935045088
 20
389.6539426485
 30
0.0
 40
0.5000000000000004
100
AcDbArc
 50
90.0
 51
180.0
  0
ARC
  5
1E3
330
75
100
AcDbEntity
  8
$DDT_AUDIT_GENERATED_(1DB)
  6
Continuous
 62
     7
100
AcDbCircle
 10
169.6935045088
 20
390.6539426485
 30
0.0
 40
0.5000000000000004
100
AcDbArc
 50
180.0
 51
270.0
  0
ARC
  5
1E4
330
75
100
AcDbEntity
  8
$DDT_AUDIT_GENERATED_(1DB)
  6
Continuous
 62
     7
100
AcDbCircle
 10
123.6935045088
 20
390.6539426485
 30
0.0
 40
0.5000000000000004
100
AcDbArc
 50
270.0
 51
0.0
  0
LINE
  5
1E5
330
75
100
AcDbEntity
  8
$DDT_AUDIT_GENERATED_(1DB)
  6
Continuous
 62
     7
100
AcDbLine
 10
169.1935045088
 20
390.6539426485
 30
0.0
 11
169.1935045088
 21
393.6539426485
 31
0.0
  0
LINE
  5
1E6
330
75
100
AcDbEntity
  8
$DDT_AUDIT_GENERATED_(1DB)
  6
Continuous
 62
     7
100
AcDbLine
 10
124.1935045088
 20
393.6539426485
 30
0.0
 11
124.1935045088
 21
390.6539426485
 31
0.0
  0
ARC
  5
1E7
330
75
100
AcDbEntity
  8
$DDT_AUDIT_GENERATED_(1DB)
  6
Continuous
 62
     7
100
AcDbCircle
 10
168.6935045088
 20
393.6539426485
 30
0.0
 40
0.5000000000000004
100
AcDbArc
 50
0.0
 51
90.0
  0
ARC
  5
1E8
330
75
100
AcDbEntity
  8
$DDT_AUDIT_GENERATED_(1DB)
  6
Continuous
 62
     7
100
AcDbCircle
 10
124.6935045088
 20
393.6539426485
 30
0.0
 40
0.5000000000000004
100
AcDbArc
 50
90.0
 51
180.0
  0
ENDBLK
  5
1EA
330
75
100
AcDbEntity
  8
0
100
AcDbBlockEnd
  0
BLOCK
  5
25A
330
1EB
100
AcDbEntity
  8
0
100
AcDbBlockBegin
  2
SE1
 70
     0
 10
0.0
 20
0.0
 30
0.0
  3
SE1
  1

  0
ARC
  5
1ED
330
1EB
100
AcDbEntity
  8
$DDT_AUDIT_GENERATED_(77)
  6
Continuous
 62
     7
100
AcDbCircle
 10
370.6985539573
 20
454.1539439675
 30
0.0
 40
18.00000000000001
100
AcDbArc
 50
263.1832358249
 51
269.9999962862
  0
ARC
  5
1EE
330
1EB
100
AcDbEntity
  8
$DDT_AUDIT_GENERATED_(77)
  6
Continuous
 62
     7
100
AcDbCircle
 10
317.6141672159
 20
454.153942636
 30
0.0
 40
18.02605698210134
100
AcDbArc
 50
341.3985870846
 51
18.6014113526
  0
ARC
  5
1EF
330
1EB
100
AcDbEntity
  8
$DDT_AUDIT_GENERATED_(77)
  6
Continuous
 62
     7
100
AcDbCircle
 10
145.8460370159
 20
410.153921565
 30
0.0
 40
189.0471201864187
100
AcDbArc
 50
357.4000986112
 51
2.5999572085
  0
LINE
  5
1F0
330
1EB
100
AcDbEntity
  8
$DDT_AUDIT_GENERATED_(77)
  6
Continuous
 62
     7
100
AcDbLine
 10
364.6985527906
 20
482.1539426485
 30
0.0
 11
335.1985527906
 21
482.1539426485
 31
0.0
  0
LINE
  5
1F1
330
1EB
100
AcDbEntity
  8
$DDT_AUDIT_GENERATED_(77)
  6
Continuous
 62
     7
100
AcDbLine
 10
370.6985527906
 20
394.1539426485
 30
0.0
 11
370.6985527906
 21
436.1539426485
 31
0.0
  0
LINE
  5
1F2
330
1EB
100
AcDbEntity
  8
$DDT_AUDIT_GENERATED_(77)
  6
Continuous
 62
     7
100
AcDbLine
 10
334.6985527906
 20
401.5804956323
 30
0.0
 11
334.6985527906
 21
394.1539426485
 31
0.0
  0
LINE
  5
1F3
330
1EB
100
AcDbEntity
  8
$DDT_AUDIT_GENERATED_(77)
  6
Continuous
 62
     7
100
AcDbLine
 10
334.6985527906
 20
448.4039426485
 30
0.0
 11
334.6985527906
 21
418.7295227888
 31
0.0
  0
LINE
  5
1F4
330
1EB
100
AcDbEntity
  8
$DDT_AUDIT_GENERATED_(77)
  6
Continuous
 62
     7
100
AcDbLine
 10
334.6985527906
 20
481.6539426485
 30
0.0
 11
334.6985527906
 21
459.9004499097
 31
0.0
  0
ARC
  5
1F5
330
1EB
100
AcDbEntity
  8
$DDT_AUDIT_GENERATED_(77)
  6
Continuous
 62
     7
100
AcDbCircle
 10
335.1985527906
 20
481.6539426485
 30
0.0
 40
0.5000000000000004
100
AcDbArc
 50
90.0
 51
180.0
  0
ARC
  5
1F6
330
1EB
100
AcDbEntity
  8
$DDT_AUDIT_GENERATED_(80)
  6
Continuous
 62
     7
100
AcDbCircle
 10
370.6985527906
 20
454.1539426485
 30
0.0
 40
15.0
100
AcDbArc
 50
353.5781784782
 51
0.0
  0
ARC
  5
1F7
330
1EB
100
AcDbEntity
  8
$DDT_AUDIT_GENERATED_(80)
  6
Continuous
 62
     7
100
AcDbCircle
 10
370.6985527906
 20
454.1539426485
 30
0.0
 40
15.0
100
AcDbArc
 50
233.5781784782
 51
306.4218215218
  0
ARC
  5
1F8
330
1EB
100
AcDbEntity
  8
$DDT_AUDIT_GENERATED_(80)
  6
Continuous
 62
     7
100
AcDbCircle
 10
370.6985527906
 20
454.1539426485
 30
0.0
 40
15.0
100
AcDbArc
 50
113.5781784782
 51
186.4218215218
  0
ARC
  5
1F9
330
1EB
100
AcDbEntity
  8
$DDT_AUDIT_GENERATED_(80)
  6
Continuous
 62
     7
100
AcDbCircle
 10
370.6985527906
 20
454.1539426485
 30
0.0
 40
15.0
100
AcDbArc
 50
0.0
 51
66.4218215218
  0
ARC
  5
1FA
330
1EB
100
AcDbEntity
  8
$DDT_AUDIT_GENERATED_(80)
  6
Continuous
 62
     7
100
AcDbCircle
 10
370.6985527906
 20
454.1539426485
 30
0.0
 40
18.0
100
AcDbArc
 50
349.4712206345
 51
0.0
  0
ARC
  5
1FB
330
1EB
100
AcDbEntity
  8
$DDT_AUDIT_GENERATED_(80)
  6
Continuous
 62
     7
100
AcDbCircle
 10
370.6985527906
 20
454.1539426485
 30
0.0
 40
18.0
100
AcDbArc
 50
229.4712206345
 51
310.5287793655
  0
ARC
  5
1FC
330
1EB
100
AcDbEntity
  8
$DDT_AUDIT_GENERATED_(80)
  6
Continuous
 62
     7
100
AcDbCircle
 10
370.6985527906
 20
454.1539426485
 30
0.0
 40
18.0
100
AcDbArc
 50
109.4712206345
 51
190.5287793655
  0
ARC
  5
1FD
330
1EB
100
AcDbEntity
  8
$DDT_AUDIT_GENERATED_(80)
  6
Continuous
 62
     7
100
AcDbCircle
 10
370.6985527906
 20
454.1539426485
 30
0.0
 40
18.0
100
AcDbArc
 50
0.0
 51
70.5287793655
  0
ARC
  5
1FF
330
1EB
100
AcDbEntity
  8
$DDT_AUDIT_GENERATED_(1FE)
  6
Continuous
 62
     7
100
AcDbCircle
 10
317.4298432498
 20
454.1540549413
 30
0.0
 40
18.00513847714659
100
AcDbArc
 50
343.5763680496
 51
353.0479596717
  0
ARC
  5
200
330
1EB
100
AcDbEntity
  8
$DDT_AUDIT_GENERATED_(1FE)
  6
Continuous
 62
     7
100
AcDbCircle
 10
317.4298432498
 20
454.1540549413
 30
0.0
 40
18.00513847714659
100
AcDbArc
 50
357.6082170472
 51
16.4249939535
  0
LINE
  5
201
330
1EB
100
AcDbEntity
  8
$DDT_AUDIT_GENERATED_(1FE)
  6
Continuous
 62
     7
100
AcDbLine
 10
334.6985527906
 20
459.2294451157
 30
0.0
 11
334.6985527906
 21
449.0789047421
 31
0.0
  0
ARC
  5
202
330
1EB
100
AcDbEntity
  8
$DDT_AUDIT_GENERATED_(1FE)
  6
Continuous
 62
     7
100
AcDbCircle
 10
335.0815868233
 20
449.044611989
 30
0.0
 40
0.3765413194754345
100
AcDbArc
 50
193.0637295419
 51
224.083639194
  0
ARC
  5
203
330
1EB
100
AcDbEntity
  8
$DDT_AUDIT_GENERATED_(1FE)
  6
Continuous
 62
     7
100
AcDbCircle
 10
335.0833099855
 20
459.2610317308
 30
0.0
 40
0.3798655264025574
100
AcDbArc
 50
135.5125875465
 51
166.6105336703
  0
ARC
  5
204
330
1EB
100
AcDbEntity
  8
$DDT_AUDIT_GENERATED_(89)
  6
Continuous
 62
     7
100
AcDbCircle
 10
370.6985527906
 20
454.1539426485
 30
0.0
 40
14.85
100
AcDbArc
 50
353.8310078895
 51
0.0
  0
ARC
  5
205
330
1EB
100
AcDbEntity
  8
$DDT_AUDIT_GENERATED_(89)
  6
Continuous
 62
     7
100
AcDbCircle
 10
370.6985527906
 20
454.1539426485
 30
0.0
 40
14.85
100
AcDbArc
 50
233.8310078895
 51
306.1689921105
  0
ARC
  5
206
330
1EB
100
AcDbEntity
  8
$DDT_AUDIT_GENERATED_(89)
  6
Continuous
 62
     7
100
AcDbCircle
 10
370.6985527906
 20
454.1539426485
 30
0.0
 40
14.85
100
AcDbArc
 50
113.8310078895
 51
186.1689921105
  0
ARC
  5
207
330
1EB
100
AcDbEntity
  8
$DDT_AUDIT_GENERATED_(89)
  6
Continuous
 62
     7
100
AcDbCircle
 10
370.6985527906
 20
454.1539426485
 30
0.0
 40
14.85
100
AcDbArc
 50
0.0
 51
66.1689921105
  0
CIRCLE
  5
208
330
1EB
100
AcDbEntity
  8
$DDT_AUDIT_GENERATED_(91)
  6
Continuous
 62
     7
100
AcDbCircle
 10
370.6985527906
 20
454.1539426485
 30
0.0
 40
9.75
  0
LINE
  5
209
330
1EB
100
AcDbEntity
  8
$DDT_AUDIT_GENERATED_(91)
  6
Continuous
 62
     7
100
AcDbLine
 10
335.4726001487
 20
440.1670823693
 30
0.0
 11
340.9726001487
 21
430.6408029276
 31
0.0
  0
LINE
  5
20A
330
1EB
100
AcDbEntity
  8
$DDT_AUDIT_GENERATED_(91)
  6
Continuous
 62
     7
100
AcDbLine
 10
400.4245054325
 20
430.6408029276
 30
0.0
 11
405.9245054325
 21
440.1670823693
 31
0.0
  0
LINE
  5
20B
330
1EB
100
AcDbEntity
  8
$DDT_AUDIT_GENERATED_(91)
  6
Continuous
 62
     7
100
AcDbLine
 10
376.1985527906
 20
491.6539426485
 30
0.0
 11
365.1985527906
 21
491.6539426485
 31
0.0
  0
LINE
  5
20C
330
1EB
100
AcDbEntity
  8
$DDT_AUDIT_GENERATED_(91)
  6
Continuous
 62
     7
100
AcDbLine
 10
364.6985527906
 20
491.1539426485
 30
0.0
 11
364.6985527906
 21
461.8391557229
 31
0.0
  0
LINE
  5
20D
330
1EB
100
AcDbEntity
  8
$DDT_AUDIT_GENERATED_(91)
  6
Continuous
 62
     7
100
AcDbLine
 10
376.6985527906
 20
461.8434743341
 30
0.0
 11
376.6985527906
 21
491.1539426485
 31
0.0
  0
LINE
  5
20E
330
1EB
100
AcDbEntity
  8
$DDT_AUDIT_GENERATED_(91)
  6
Continuous
 62
     7
100
AcDbLine
 10
405.7414927306
 20
440.8500950712
 30
0.0
 11
380.3541425466
 21
455.5074885339
 31
0.0
  0
LINE
  5
20F
330
1EB
100
AcDbEntity
  8
$DDT_AUDIT_GENERATED_(91)
  6
Continuous
 62
     7
100
AcDbLine
 10
374.3578825736
 20
445.1130243829
 30
0.0
 11
399.7414927306
 21
430.4577902257
 31
0.0
  0
LINE
  5
210
330
1EB
100
AcDbEntity
  8
$DDT_AUDIT_GENERATED_(91)
  6
Continuous
 62
     7
100
AcDbLine
 10
341.6556128505
 20
430.4577902257
 30
0.0
 11
367.0429630346
 21
445.1151836885
 31
0.0
  0
LINE
  5
211
330
1EB
100
AcDbEntity
  8
$DDT_AUDIT_GENERATED_(91)
  6
Continuous
 62
     7
100
AcDbLine
 10
361.0392230076
 20
455.5053292283
 30
0.0
 11
335.6556128505
 21
440.8500950712
 31
0.0
  0
ARC
  5
212
330
1EB
100
AcDbEntity
  8
$DDT_AUDIT_GENERATED_(91)
  6
Continuous
 62
     7
100
AcDbCircle
 10
335.9056128505
 20
440.4170823693
 30
0.0
 40
0.4999999999999985
100
AcDbArc
 50
120.0
 51
210.0
  0
ARC
  5
213
330
1EB
100
AcDbEntity
  8
$DDT_AUDIT_GENERATED_(91)
  6
Continuous
 62
     7
100
AcDbCircle
 10
341.4056128505
 20
430.8908029276
 30
0.0
 40
0.4999999999999989
100
AcDbArc
 50
210.0
 51
300.0
  0
ARC
  5
214
330
1EB
100
AcDbEntity
  8
$DDT_AUDIT_GENERATED_(91)
  6
Continuous
 62
     7
100
AcDbCircle
 10
399.9914927306
 20
430.8908029276
 30
0.0
 40
0.4999999999999989
100
AcDbArc
 50
240.0
 51
330.0
  0
ARC
  5
215
330
1EB
100
AcDbEntity
  8
$DDT_AUDIT_GENERATED_(91)
  6
Continuous
 62
     7
100
AcDbCircle
 10
405.4914927306
 20
440.4170823693
 30
0.0
 40
0.500000000000002
100
AcDbArc
 50
330.0
 51
60.0
  0
ARC
  5
216
330
1EB
100
AcDbEntity
  8
$DDT_AUDIT_GENERATED_(91)
  6
Continuous
 62
     7
100
AcDbCircle
 10
365.1985527906
 20
491.1539426485
 30
0.0
 40
0.5000000000000004
100
AcDbArc
 50
90.0
 51
180.0
  0
ARC
  5
217
330
1EB
100
AcDbEntity
  8
$DDT_AUDIT_GENERATED_(91)
  6
Continuous
 62
     7
100
AcDbCircle
 10
376.1985527906
 20
491.1539426485
 30
0.0
 40
0.5000000000000004
100
AcDbArc
 50
0.0
 51
90.0
  0
ARC
  5
219
330
1EB
100
AcDbEntity
  8
$DDT_AUDIT_GENERATED_(218)
  6
Continuous
 62
     7
100
AcDbCircle
 10
370.6985527906
 20
454.1539426485
 30
0.0
 40
14.95
100
AcDbArc
 50
233.6618370306
 51
306.3381629694
  0
LINE
  5
21A
330
1EB
100
AcDbEntity
  8
$DDT_AUDIT_GENERATED_(CB)
  6
Continuous
 62
     7
100
AcDbLine
 10
472.9374947857
 20
495.9388515703
 30
0.0
 11
457.9821863636
 21
480.9835431482
 31
0.0
  0
LINE
  5
21B
330
1EB
100
AcDbEntity
  8
$DDT_AUDIT_GENERATED_(CB)
  6
Continuous
 62
     7
100
AcDbLine
 10
445.3603303194
 20
492.4033176644
 30
0.0
 11
461.5177202695
 21
508.5607076145
 31
0.0
  0
LINE
  5
21C
330
1EB
100
AcDbEntity
  8
$DDT_AUDIT_GENERATED_(CB)
  6
Continuous
 62
     7
100
AcDbLine
 10
472.9374947857
 20
497.3530651327
 30
0.0
 11
461.7298523039
 21
508.5607076145
 31
0.0
  0
LINE
  5
21D
330
1EB
100
AcDbEntity
  8
$DDT_AUDIT_GENERATED_(CB)
  6
Continuous
 62
     7
100
AcDbLine
 10
445.3603303194
 20
492.19118563
 30
0.0
 11
456.5679728012
 21
480.9835431482
 31
0.0
  0
ARC
  5
21E
330
1EB
100
AcDbEntity
  8
$DDT_AUDIT_GENERATED_(CB)
  6
Continuous
 62
     7
100
AcDbCircle
 10
472.2303880045
 20
496.6459583515
 30
0.0
 40
0.9999999999999966
100
AcDbArc
 50
315.0
 51
45.0
  0
ARC
  5
21F
330
1EB
100
AcDbEntity
  8
$DDT_AUDIT_GENERATED_(CB)
  6
Continuous
 62
     7
100
AcDbCircle
 10
457.2750795824
 20
481.6906499294
 30
0.0
 40
1.000000000000001
100
AcDbArc
 50
225.0
 51
315.0
  0
ARC
  5
220
330
1EB
100
AcDbEntity
  8
$DDT_AUDIT_GENERATED_(CB)
  6
Continuous
 62
     7
100
AcDbCircle
 10
461.6237862867
 20
508.4546415973
 30
0.0
 40
0.1500000000000112
100
AcDbArc
 50
45.0
 51
135.0
  0
ARC
  5
221
330
1EB
100
AcDbEntity
  8
$DDT_AUDIT_GENERATED_(CB)
  6
Continuous
 62
     7
100
AcDbCircle
 10
445.4663963366
 20
492.2972516472
 30
0.0
 40
0.1500000000000014
100
AcDbArc
 50
135.0
 51
225.0
  0
LINE
  5
222
330
1EB
100
AcDbEntity
  8
$DDT_AUDIT_GENERATED_(D3)
  6
Continuous
 62
     7
100
AcDbLine
 10
459.2726562393
 20
481.9204596333
 30
0.0
 11
472.0005783006
 21
494.6483816947
 31
0.0
  0
LINE
  5
223
330
1EB
100
AcDbEntity
  8
$DDT_AUDIT_GENERATED_(D3)
  6
Continuous
 62
     7
100
AcDbLine
 10
459.095879544
 20
482.0972363286
 30
0.0
 11
459.2726562393
 21
481.9204596333
 31
0.0
  0
LINE
  5
224
330
1EB
100
AcDbEntity
  8
$DDT_AUDIT_GENERATED_(D3)
  6
Continuous
 62
     7
100
AcDbLine
 10
472.0005783006
 20
494.6483816947
 30
0.0
 11
471.8238016053
 21
494.82515839
 31
0.0
  0
LINE
  5
226
330
1EB
100
AcDbEntity
  8
$DDT_AUDIT_GENERATED_(225)
  6
Continuous
 62
     7
100
AcDbLine
 10
329.2125335257
 20
420.5660378695
 30
0.0
 11
334.7822634286
 21
403.4241718409
 31
0.0
  0
LINE
  5
227
330
1EB
100
AcDbEntity
  8
$DDT_AUDIT_GENERATED_(225)
  6
Continuous
 62
     7
100
AcDbLine
 10
334.782304072
 20
416.3683186634
 30
0.0
 11
333.0167595909
 21
421.802105847
 31
0.0
  0
CIRCLE
  5
229
330
1EB
100
AcDbEntity
  8
$DDT_AUDIT_GENERATED_(228)
  6
Continuous
 62
     7
100
AcDbCircle
 10
329.6985527906
 20
425.5423603343
 30
0.0
 40
5.0
  0
LINE
  5
22A
330
1EB
100
AcDbEntity
  8
$DDT_AUDIT_GENERATED_(1C3)
  6
Continuous
 62
     7
100
AcDbLine
 10
368.1985527906
 20
493.6539426485
 30
0.0
 11
337.1985527906
 21
493.6539426485
 31
0.0
  0
LINE
  5
22B
330
1EB
100
AcDbEntity
  8
$DDT_AUDIT_GENERATED_(1C3)
  6
Continuous
 62
     7
100
AcDbLine
 10
364.1985527906
 20
494.0039426485
 30
0.0
 11
341.1985527906
 21
494.0039426485
 31
0.0
  0
ARC
  5
22C
330
1EB
100
AcDbEntity
  8
$DDT_AUDIT_GENERATED_(1C3)
  6
Continuous
 62
     7
100
AcDbCircle
 10
318.2117348616
 20
489.1539410228
 30
0.0
 40
18.69766336228592
100
AcDbArc
 50
351.3875549641
 51
8.6124475167
  0
LINE
  5
22D
330
1EB
100
AcDbEntity
  8
$DDT_AUDIT_GENERATED_(1C3)
  6
Continuous
 62
     7
100
AcDbLine
 10
341.1985527906
 20
494.0039426485
 30
0.0
 11
341.1985527906
 21
493.6539426485
 31
0.0
  0
LINE
  5
22E
330
1EB
100
AcDbEntity
  8
$DDT_AUDIT_GENERATED_(1C3)
  6
Continuous
 62
     7
100
AcDbLine
 10
364.1985527906
 20
493.6539426485
 30
0.0
 11
364.1985527906
 21
494.0039426485
 31
0.0
  0
ARC
  5
22F
330
1EB
100
AcDbEntity
  8
$DDT_AUDIT_GENERATED_(1C3)
  6
Continuous
 62
     7
100
AcDbCircle
 10
368.1985527906
 20
493.1539426485
 30
0.0
 40
0.5000000000000022
100
AcDbArc
 50
0.0
 51
90.0
  0
ARC
  5
230
330
1EB
100
AcDbEntity
  8
$DDT_AUDIT_GENERATED_(1C3)
  6
Continuous
 62
     7
100
AcDbCircle
 10
337.1985527906
 20
493.1539426485
 30
0.0
 40
0.5000000000000004
100
AcDbArc
 50
90.0
 51
180.0
  0
LINE
  5
231
330
1EB
100
AcDbEntity
  8
$DDT_AUDIT_GENERATED_(1C3)
  6
Continuous
 62
     7
100
AcDbLine
 10
364.1985527906
 20
494.0039426485
 30
0.0
 11
363.5485527906
 21
494.6539426485
 31
0.0
  0
LINE
  5
232
330
1EB
100
AcDbEntity
  8
$DDT_AUDIT_GENERATED_(1C3)
  6
Continuous
 62
     7
100
AcDbLine
 10
341.8485527906
 20
494.6539426485
 30
0.0
 11
341.1985527906
 21
494.0039426485
 31
0.0
  0
LINE
  5
233
330
1EB
100
AcDbEntity
  8
$DDT_AUDIT_GENERATED_(1C3)
  6
Continuous
 62
     7
100
AcDbLine
 10
336.6985527906
 20
486.3671824435
 30
0.0
 11
336.6985527906
 21
482.1539426485
 31
0.0
  0
LINE
  5
234
330
1EB
100
AcDbEntity
  8
$DDT_AUDIT_GENERATED_(1C3)
  6
Continuous
 62
     7
100
AcDbLine
 10
336.6985527906
 20
493.1539426485
 30
0.0
 11
336.6985527906
 21
491.927776785
 31
0.0
  0
LINE
  5
235
330
1EB
100
AcDbEntity
  8
$DDT_AUDIT_GENERATED_(1C3)
  6
Continuous
 62
     7
100
AcDbLine
 10
368.6985527906
 20
491.6539426485
 30
0.0
 11
368.6985527906
 21
493.1539426485
 31
0.0
  0
LINE
  5
236
330
1EB
100
AcDbEntity
  8
$DDT_AUDIT_GENERATED_(1CA)
  6
Continuous
 62
     7
100
AcDbLine
 10
364.1985527906
 20
494.6539426485
 30
0.0
 11
341.1985527906
 21
494.6539426485
 31
0.0
  0
ARC
  5
237
330
1EB
100
AcDbEntity
  8
$DDT_AUDIT_GENERATED_(1CA)
  6
Continuous
 62
     7
100
AcDbCircle
 10
392.6985527906
 20
504.6539426485
 30
0.0
 40
28.5
100
AcDbArc
 50
45.0
 51
180.0
  0
ARC
  5
238
330
1EB
100
AcDbEntity
  8
$DDT_AUDIT_GENERATED_(1CA)
  6
Continuous
 62
     7
100
AcDbCircle
 10
392.6985527906
 20
504.6539426485
 30
0.0
 40
51.49999999999999
100
AcDbArc
 50
45.0
 51
180.0
  0
LINE
  5
239
330
1EB
100
AcDbEntity
  8
$DDT_AUDIT_GENERATED_(1CA)
  6
Continuous
 62
     7
100
AcDbLine
 10
364.1985527906
 20
494.6539426485
 30
0.0
 11
364.1985527906
 21
504.6539426485
 31
0.0
  0
LINE
  5
23A
330
1EB
100
AcDbEntity
  8
$DDT_AUDIT_GENERATED_(1CA)
  6
Continuous
 62
     7
100
AcDbLine
 10
341.1985527906
 20
504.6539426485
 30
0.0
 11
341.1985527906
 21
494.6539426485
 31
0.0
  0
LINE
  5
23B
330
1EB
100
AcDbEntity
  8
$DDT_AUDIT_GENERATED_(1CA)
  6
Continuous
 62
     7
100
AcDbLine
 10
412.8510960544
 20
524.8064859123
 30
0.0
 11
431.3772937215
 21
506.2802882452
 31
0.0
  0
LINE
  5
23C
330
1EB
100
AcDbEntity
  8
$DDT_AUDIT_GENERATED_(1CA)
  6
Continuous
 62
     7
100
AcDbLine
 10
447.6407496888
 20
522.5437442125
 30
0.0
 11
429.1145520217
 21
541.0699418796
 31
0.0
  0
LINE
  5
23D
330
1EB
100
AcDbEntity
  8
$DDT_AUDIT_GENERATED_(1D0)
  6
Continuous
 62
     7
100
AcDbLine
 10
436.1502644945
 20
501.1537640816
 30
0.0
 11
452.7672738524
 21
517.7707734395
 31
0.0
  0
LINE
  5
23E
330
1EB
100
AcDbEntity
  8
$DDT_AUDIT_GENERATED_(1D0)
  6
Continuous
 62
     7
100
AcDbLine
 10
431.2005170262
 20
506.1035115499
 30
0.0
 11
447.8175263841
 21
522.7205209078
 31
0.0
  0
LINE
  5
23F
330
1EB
100
AcDbEntity
  8
$DDT_AUDIT_GENERATED_(1D0)
  6
Continuous
 62
     7
100
AcDbLine
 10
448.7014098605
 20
512.2906958853
 30
0.0
 11
441.6303420487
 21
505.2196280734
 31
0.0
  0
LINE
  5
240
330
1EB
100
AcDbEntity
  8
$DDT_AUDIT_GENERATED_(1D0)
  6
Continuous
 62
     7
100
AcDbLine
 10
442.6910022205
 20
504.1589679016
 30
0.0
 11
449.7620700323
 21
511.2300357135
 31
0.0
  0
LINE
  5
241
330
1EB
100
AcDbEntity
  8
$DDT_AUDIT_GENERATED_(1D0)
  6
Continuous
 62
     7
100
AcDbLine
 10
444.9890992593
 20
492.3149293167
 30
0.0
 11
461.6061086172
 21
508.9319386746
 31
0.0
  0
LINE
  5
242
330
1EB
100
AcDbEntity
  8
$DDT_AUDIT_GENERATED_(1D0)
  6
Continuous
 62
     7
100
AcDbLine
 10
439.3322450098
 20
497.9717835662
 30
0.0
 11
455.9492543677
 21
514.5887929241
 31
0.0
  0
LINE
  5
243
330
1EB
100
AcDbEntity
  8
$DDT_AUDIT_GENERATED_(1D0)
  6
Continuous
 62
     7
100
AcDbLine
 10
431.2005170262
 20
506.1035115499
 30
0.0
 11
436.1502644945
 21
501.1537640816
 31
0.0
  0
LINE
  5
244
330
1EB
100
AcDbEntity
  8
$DDT_AUDIT_GENERATED_(1D0)
  6
Continuous
 62
     7
100
AcDbLine
 10
452.7672738524
 20
517.7707734395
 30
0.0
 11
447.8175263841
 21
522.7205209078
 31
0.0
  0
LINE
  5
245
330
1EB
100
AcDbEntity
  8
$DDT_AUDIT_GENERATED_(1D0)
  6
Continuous
 62
     7
100
AcDbLine
 10
440.2161284863
 20
505.2196280734
 30
0.0
 11
441.6303420487
 21
505.2196280734
 31
0.0
  0
LINE
  5
246
330
1EB
100
AcDbEntity
  8
$DDT_AUDIT_GENERATED_(1D0)
  6
Continuous
 62
     7
100
AcDbLine
 10
448.7014098605
 20
512.2906958853
 30
0.0
 11
448.7014098605
 21
513.7049094476
 31
0.0
  0
LINE
  5
247
330
1EB
100
AcDbEntity
  8
$DDT_AUDIT_GENERATED_(1D0)
  6
Continuous
 62
     7
100
AcDbLine
 10
441.6303420487
 20
505.2196280734
 30
0.0
 11
442.6910022205
 21
504.1589679016
 31
0.0
  0
LINE
  5
248
330
1EB
100
AcDbEntity
  8
$DDT_AUDIT_GENERATED_(1D0)
  6
Continuous
 62
     7
100
AcDbLine
 10
449.7620700323
 20
511.2300357135
 30
0.0
 11
448.7014098605
 21
512.2906958853
 31
0.0
  0
ARC
  5
249
330
1EB
100
AcDbEntity
  8
$DDT_AUDIT_GENERATED_(1D0)
  6
Continuous
 62
     7
100
AcDbCircle
 10
450.6424165596
 20
503.2786213744
 30
0.0
 40
8.000000000000002
100
AcDbArc
 50
77.047676378
 51
96.3178125465
  0
ARC
  5
24A
330
1EB
100
AcDbEntity
  8
$DDT_AUDIT_GENERATED_(1D0)
  6
Continuous
 62
     7
100
AcDbCircle
 10
450.6424165596
 20
503.2786213744
 30
0.0
 40
7.999999999999996
100
AcDbArc
 50
173.6821874535
 51
192.952323622
  0
LINE
  5
24B
330
1EB
100
AcDbEntity
  8
$DDT_AUDIT_GENERATED_(1D0)
  6
Continuous
 62
     7
100
AcDbLine
 10
439.3322450098
 20
497.9717835662
 30
0.0
 11
444.9890992593
 21
492.3149293167
 31
0.0
  0
LINE
  5
24C
330
1EB
100
AcDbEntity
  8
$DDT_AUDIT_GENERATED_(1D0)
  6
Continuous
 62
     7
100
AcDbLine
 10
461.6061086172
 20
508.9319386746
 30
0.0
 11
455.9492543677
 21
514.5887929241
 31
0.0
  0
LINE
  5
24D
330
1EB
100
AcDbEntity
  8
$DDT_AUDIT_GENERATED_(1DB)
  6
Continuous
 62
     7
100
AcDbLine
 10
374.6985527906
 20
394.1539426485
 30
0.0
 11
330.6985527906
 21
394.1539426485
 31
0.0
  0
LINE
  5
24E
330
1EB
100
AcDbEntity
  8
$DDT_AUDIT_GENERATED_(1DB)
  6
Continuous
 62
     7
100
AcDbLine
 10
380.1985527906
 20
384.1539426485
 30
0.0
 11
325.1985527906
 21
384.1539426485
 31
0.0
  0
LINE
  5
24F
330
1EB
100
AcDbEntity
  8
$DDT_AUDIT_GENERATED_(1DB)
  6
Continuous
 62
     7
100
AcDbLine
 10
379.6985527906
 20
390.1539426485
 30
0.0
 11
325.6985527906
 21
390.1539426485
 31
0.0
  0
LINE
  5
250
330
1EB
100
AcDbEntity
  8
$DDT_AUDIT_GENERATED_(1DB)
  6
Continuous
 62
     7
100
AcDbLine
 10
380.1985527906
 20
384.1539426485
 30
0.0
 11
380.1985527906
 21
389.6539426485
 31
0.0
  0
LINE
  5
251
330
1EB
100
AcDbEntity
  8
$DDT_AUDIT_GENERATED_(1DB)
  6
Continuous
 62
     7
100
AcDbLine
 10
325.1985527906
 20
389.6539426485
 30
0.0
 11
325.1985527906
 21
384.1539426485
 31
0.0
  0
ARC
  5
252
330
1EB
100
AcDbEntity
  8
$DDT_AUDIT_GENERATED_(1DB)
  6
Continuous
 62
     7
100
AcDbCircle
 10
379.6985527906
 20
389.6539426485
 30
0.0
 40
0.5000000000000004
100
AcDbArc
 50
0.0
 51
90.0
  0
ARC
  5
253
330
1EB
100
AcDbEntity
  8
$DDT_AUDIT_GENERATED_(1DB)
  6
Continuous
 62
     7
100
AcDbCircle
 10
325.6985527906
 20
389.6539426485
 30
0.0
 40
0.5000000000000004
100
AcDbArc
 50
90.0
 51
180.0
  0
ARC
  5
254
330
1EB
100
AcDbEntity
  8
$DDT_AUDIT_GENERATED_(1DB)
  6
Continuous
 62
     7
100
AcDbCircle
 10
375.6985527906
 20
390.6539426485
 30
0.0
 40
0.5000000000000004
100
AcDbArc
 50
180.0
 51
270.0
  0
ARC
  5
255
330
1EB
100
AcDbEntity
  8
$DDT_AUDIT_GENERATED_(1DB)
  6
Continuous
 62
     7
100
AcDbCircle
 10
329.6985527906
 20
390.6539426485
 30
0.0
 40
0.5000000000000004
100
AcDbArc
 50
270.0
 51
0.0
  0
LINE
  5
256
330
1EB
100
AcDbEntity
  8
$DDT_AUDIT_GENERATED_(1DB)
  6
Continuous
 62
     7
100
AcDbLine
 10
375.1985527906
 20
390.6539426485
 30
0.0
 11
375.1985527906
 21
393.6539426485
 31
0.0
  0
LINE
  5
257
330
1EB
100
AcDbEntity
  8
$DDT_AUDIT_GENERATED_(1DB)
  6
Continuous
 62
     7
100
AcDbLine
 10
330.1985527906
 20
393.6539426485
 30
0.0
 11
330.1985527906
 21
390.6539426485
 31
0.0
  0
ARC
  5
258
330
1EB
100
AcDbEntity
  8
$DDT_AUDIT_GENERATED_(1DB)
  6
Continuous
 62
     7
100
AcDbCircle
 10
374.6985527906
 20
393.6539426485
 30
0.0
 40
0.5000000000000004
100
AcDbArc
 50
0.0
 51
90.0
  0
ARC
  5
259
330
1EB
100
AcDbEntity
  8
$DDT_AUDIT_GENERATED_(1DB)
  6
Continuous
 62
     7
100
AcDbCircle
 10
330.6985527906
 20
393.6539426485
 30
0.0
 40
0.5000000000000004
100
AcDbArc
 50
90.0
 51
180.0
  0
ENDBLK
  5
25B
330
1EB
100
AcDbEntity
  8
0
100
AcDbBlockEnd
  0
BLOCK
  5
2C5
330
25C
100
AcDbEntity
  8
0
100
AcDbBlockBegin
  2
SE2
 70
     0
 10
0.0
 20
0.0
 30
0.0
  3
SE2
  1

  0
ARC
  5
25E
330
25C
100
AcDbEntity
  8
$DDT_AUDIT_GENERATED_(77)
  6
Continuous
 62
     7
100
AcDbCircle
 10
146.6935045088
 20
226.6201952974
 30
0.0
 40
18.0
100
AcDbArc
 50
309.7090165531
 51
0.0
  0
ARC
  5
25F
330
25C
100
AcDbEntity
  8
$DDT_AUDIT_GENERATED_(77)
  6
Continuous
 62
     7
100
AcDbCircle
 10
146.6935045088
 20
226.6201952974
 30
0.0
 40
18.0
100
AcDbArc
 50
0.0
 51
230.2909834469
  0
LINE
  5
260
330
25C
100
AcDbEntity
  8
$DDT_AUDIT_GENERATED_(80)
  6
Continuous
 62
     7
100
AcDbLine
 10
91.6935045088
 20
226.1201952974
 30
0.0
 11
91.6935045088
 21
191.1201952974
 31
0.0
  0
LINE
  5
261
330
25C
100
AcDbEntity
  8
$DDT_AUDIT_GENERATED_(80)
  6
Continuous
 62
     7
100
AcDbLine
 10
201.6935045088
 20
191.1201952974
 30
0.0
 11
201.6935045088
 21
226.1201952974
 31
0.0
  0
ARC
  5
262
330
25C
100
AcDbEntity
  8
$DDT_AUDIT_GENERATED_(80)
  6
Continuous
 62
     7
100
AcDbCircle
 10
92.1935045088
 20
226.1201952974
 30
0.0
 40
0.5000000000000004
100
AcDbArc
 50
90.0
 51
180.0
  0
ARC
  5
263
330
25C
100
AcDbEntity
  8
$DDT_AUDIT_GENERATED_(80)
  6
Continuous
 62
     7
100
AcDbCircle
 10
92.1935045088
 20
191.1201952974
 30
0.0
 40
0.5000000000000004
100
AcDbArc
 50
180.0
 51
270.0
  0
ARC
  5
264
330
25C
100
AcDbEntity
  8
$DDT_AUDIT_GENERATED_(80)
  6
Continuous
 62
     7
100
AcDbCircle
 10
201.1935045088
 20
226.1201952974
 30
0.0
 40
0.5000000000000004
100
AcDbArc
 50
0.0
 51
90.0
  0
ARC
  5
265
330
25C
100
AcDbEntity
  8
$DDT_AUDIT_GENERATED_(80)
  6
Continuous
 62
     7
100
AcDbCircle
 10
201.1935045088
 20
191.1201952974
 30
0.0
 40
0.5000000000000004
100
AcDbArc
 50
270.0
 51
0.0
  0
LINE
  5
266
330
25C
100
AcDbEntity
  8
$DDT_AUDIT_GENERATED_(80)
  6
Continuous
 62
     7
100
AcDbLine
 10
128.6935045088
 20
226.6201952974
 30
0.0
 11
92.1935045088
 21
226.6201952974
 31
0.0
  0
LINE
  5
267
330
25C
100
AcDbEntity
  8
$DDT_AUDIT_GENERATED_(80)
  6
Continuous
 62
     7
100
AcDbLine
 10
201.1935045088
 20
226.6201952974
 30
0.0
 11
164.6935045088
 21
226.6201952974
 31
0.0
  0
LINE
  5
268
330
25C
100
AcDbEntity
  8
$DDT_AUDIT_GENERATED_(80)
  6
Continuous
 62
     7
100
AcDbLine
 10
92.1935045088
 20
190.6201952974
 30
0.0
 11
135.1935045088
 21
190.6201952974
 31
0.0
  0
LINE
  5
269
330
25C
100
AcDbEntity
  8
$DDT_AUDIT_GENERATED_(80)
  6
Continuous
 62
     7
100
AcDbLine
 10
158.1935045088
 20
190.6201952974
 30
0.0
 11
201.1935045088
 21
190.6201952974
 31
0.0
  0
ARC
  5
26A
330
25C
100
AcDbEntity
  8
$DDT_AUDIT_GENERATED_(1FE)
  6
Continuous
 62
     7
100
AcDbCircle
 10
141.5634997273
 20
243.520441496
 30
0.0
 40
0.3565417717039073
100
AcDbArc
 50
120.6136807223
 51
143.6329400106
  0
LINE
  5
26B
330
25C
100
AcDbEntity
  8
$DDT_AUDIT_GENERATED_(89)
  6
Continuous
 62
     7
100
AcDbLine
 10
87.7935045088
 20
222.9701952974
 30
0.0
 11
87.7935045088
 21
194.2701952974
 31
0.0
  0
LINE
  5
26C
330
25C
100
AcDbEntity
  8
$DDT_AUDIT_GENERATED_(89)
  6
Continuous
 62
     7
100
AcDbLine
 10
91.6935045088
 20
223.4701952974
 30
0.0
 11
88.2935045088
 21
223.4701952974
 31
0.0
  0
LINE
  5
26D
330
25C
100
AcDbEntity
  8
$DDT_AUDIT_GENERATED_(89)
  6
Continuous
 62
     7
100
AcDbLine
 10
88.2935045088
 20
193.7701952974
 30
0.0
 11
91.6935045088
 21
193.7701952974
 31
0.0
  0
LINE
  5
26E
330
25C
100
AcDbEntity
  8
$DDT_AUDIT_GENERATED_(89)
  6
Continuous
 62
     7
100
AcDbLine
 10
87.5935045088
 20
201.1201952974
 30
0.0
 11
87.7935045088
 21
201.1201952974
 31
0.0
  0
LINE
  5
26F
330
25C
100
AcDbEntity
  8
$DDT_AUDIT_GENERATED_(89)
  6
Continuous
 62
     7
100
AcDbLine
 10
87.7935045088
 20
216.1201952974
 30
0.0
 11
87.5935045088
 21
216.1201952974
 31
0.0
  0
ARC
  5
270
330
25C
100
AcDbEntity
  8
$DDT_AUDIT_GENERATED_(89)
  6
Continuous
 62
     7
100
AcDbCircle
 10
88.2935045088
 20
222.9701952974
 30
0.0
 40
0.4999999999999987
100
AcDbArc
 50
90.0
 51
180.0
  0
ARC
  5
271
330
25C
100
AcDbEntity
  8
$DDT_AUDIT_GENERATED_(89)
  6
Continuous
 62
     7
100
AcDbCircle
 10
88.2935045088
 20
194.2701952974
 30
0.0
 40
0.5000000000000004
100
AcDbArc
 50
180.0
 51
270.0
  0
LINE
  5
272
330
25C
100
AcDbEntity
  8
$DDT_AUDIT_GENERATED_(91)
  6
Continuous
 62
     7
100
AcDbLine
 10
87.5935045088
 20
218.3701952974
 30
0.0
 11
87.5935045088
 21
198.8701952974
 31
0.0
  0
SPLINE
  5
273
330
25C
100
AcDbEntity
  8
$DDT_AUDIT_GENERATED_(91)
  6
Continuous
 62
     7
100
AcDbSpline
210
0.0
220
0.0
230
1.0
 70
     8
 71
     3
 72
     8
 73
     4
 74
     0
 42
0.0000000002821995
 43
0.0000000001
 40
0.0
 40
0.0
 40
0.0
 40
0.0
 40
0.0984500272196257
 40
0.0984500272196257
 40
0.0984500272196257
 40
0.0984500272196257
 10
72.09350450884985
 20
198.964605541439
 30
0.0
 10
73.37876371281236
 20
198.964605541439
 30
0.0
 10
74.59286313964789
 20
198.8685084553149
 30
0.0
 10
75.57837431382526
 20
198.8695473436986
 30
0.0
  0
SPLINE
  5
274
330
25C
100
AcDbEntity
  8
$DDT_AUDIT_GENERATED_(91)
  6
Continuous
 62
     7
100
AcDbSpline
210
0.0
220
0.0
230
1.0
 70
     8
 71
     3
 72
    10
 73
     6
 74
     0
 42
0.0000000002806668
 43
0.0000000001
 40
0.9023432343625463
 40
0.9023432343625463
 40
0.9023432343625463
 40
0.9023432343625463
 40
0.9375000000000001
 40
0.9375000000000001
 40
1.0
 40
1.0
 40
1.0
 40
1.0
 10
68.61596153887592
 20
198.8703099308966
 30
0.0
 10
68.96676066162547
 20
198.8708307891611
 30
0.0
 10
69.34634324259795
 20
198.8840019796665
 30
0.0
 10
70.47475696282821
 20
198.9296776005741
 30
0.0
 10
71.27757075528717
 20
198.964605541439
 30
0.0
 10
72.09350450884985
 20
198.964605541439
 30
0.0
  0
SPLINE
  5
275
330
25C
100
AcDbEntity
  8
$DDT_AUDIT_GENERATED_(91)
  6
Continuous
 62
     7
100
AcDbSpline
210
0.0
220
0.0
230
1.0
 70
     8
 71
     3
 72
    12
 73
     8
 74
     0
 42
0.0000000002817549
 43
0.0000000001
 40
0.4022822089976061
 40
0.4022822089976061
 40
0.4022822089976061
 40
0.4022822089976061
 40
0.4375
 40
0.4375
 40
0.5
 40
0.5
 40
0.5987838826946922
 40
0.5987838826946922
 40
0.5987838826946922
 40
0.5987838826946922
 10
75.58032710408958
 20
218.3699707703794
 30
0.0
 10
75.22937238047113
 20
218.3696782756032
 30
0.0
 10
74.84992186431829
 20
218.3567172307162
 30
0.0
 10
73.73451758580579
 20
218.3116938865044
 30
0.0
 10
72.9336751883655
 20
218.2763861882167
 30
0.0
 10
70.82942190522697
 20
218.2748581157233
 30
0.0
 10
69.60601041178013
 20
218.3721574817934
 30
0.0
 10
68.61189191905788
 20
218.3710110633107
 30
0.0
  0
LINE
  5
276
330
25C
100
AcDbEntity
  8
$DDT_AUDIT_GENERATED_(91)
  6
Continuous
 62
     7
100
AcDbLine
 10
64.5935045088
 20
217.8701952974
 30
0.0
 11
64.5935045088
 21
199.3701952974
 31
0.0
  0
ELLIPSE
  5
277
330
25C
100
AcDbEntity
  8
$DDT_AUDIT_GENERATED_(91)
  6
Continuous
 62
     7
100
AcDbEllipse
 10
72.0935045088
 20
176.5772553574
 30
0.0
 11
6.000000000000005
 21
6.938893903907228E-15
 31
0.0
210
0.0
220
0.0
230
1.0
 40
0.5
 41
3.141592653589793
 42
3.160692701526029
  0
CIRCLE
  5
278
330
25C
100
AcDbEntity
  8
$DDT_AUDIT_GENERATED_(91)
  6
Continuous
 62
     7
100
AcDbCircle
 10
72.0935045088
 20
208.6201952974
 30
0.0
 40
6.0
  0
LINE
  5
279
330
25C
100
AcDbEntity
  8
$DDT_AUDIT_GENERATED_(91)
  6
Continuous
 62
     7
100
AcDbLine
 10
78.0935045088
 20
176.5772553574
 30
0.0
 11
78.0935045088
 21
198.8701952974
 31
0.0
  0
LINE
  5
27A
330
25C
100
AcDbEntity
  8
$DDT_AUDIT_GENERATED_(91)
  6
Continuous
 62
     7
100
AcDbLine
 10
66.0935045088
 20
198.8701952974
 30
0.0
 11
66.0935045088
 21
176.5772553574
 31
0.0
  0
LINE
  5
27B
330
25C
100
AcDbEntity
  8
$DDT_AUDIT_GENERATED_(91)
  6
Continuous
 62
     7
100
AcDbLine
 10
75.571249961
 20
198.8701952974
 30
0.0
 11
87.5935045088
 21
198.8701952974
 31
0.0
  0
LINE
  5
27C
330
25C
100
AcDbEntity
  8
$DDT_AUDIT_GENERATED_(91)
  6
Continuous
 62
     7
100
AcDbLine
 10
65.0935045088
 20
198.8701952974
 30
0.0
 11
68.6302936167
 21
198.8701952974
 31
0.0
  0
LINE
  5
27D
330
25C
100
AcDbEntity
  8
$DDT_AUDIT_GENERATED_(91)
  6
Continuous
 62
     7
100
AcDbLine
 10
68.6212065299
 20
218.3701952974
 30
0.0
 11
65.0935045088
 21
218.3701952974
 31
0.0
  0
LINE
  5
27E
330
25C
100
AcDbEntity
  8
$DDT_AUDIT_GENERATED_(91)
  6
Continuous
 62
     7
100
AcDbLine
 10
87.5935045088
 20
218.3701952974
 30
0.0
 11
75.572790048
 21
218.3701952974
 31
0.0
  0
LINE
  5
27F
330
25C
100
AcDbEntity
  8
$DDT_AUDIT_GENERATED_(91)
  6
Continuous
 62
     7
100
AcDbLine
 10
66.0935045088
 20
240.6631352375
 30
0.0
 11
66.0935045088
 21
218.3701952974
 31
0.0
  0
LINE
  5
280
330
25C
100
AcDbEntity
  8
$DDT_AUDIT_GENERATED_(91)
  6
Continuous
 62
     7
100
AcDbLine
 10
78.0935045088
 20
218.3701952974
 30
0.0
 11
78.0935045088
 21
240.6631352375
 31
0.0
  0
ARC
  5
281
330
25C
100
AcDbEntity
  8
$DDT_AUDIT_GENERATED_(91)
  6
Continuous
 62
     7
100
AcDbCircle
 10
65.0935045088
 20
217.8701952974
 30
0.0
 40
0.5000000000000004
100
AcDbArc
 50
90.0
 51
180.0
  0
ARC
  5
282
330
25C
100
AcDbEntity
  8
$DDT_AUDIT_GENERATED_(91)
  6
Continuous
 62
     7
100
AcDbCircle
 10
65.0935045088
 20
199.3701952974
 30
0.0
 40
0.4999999999975024
100
AcDbArc
 50
180.0
 51
270.0
  0
SPLINE
  5
283
330
25C
100
AcDbEntity
  8
$DDT_AUDIT_GENERATED_(91)
  6
Continuous
 62
     7
100
AcDbSpline
210
0.0
220
0.0
230
1.0
 70
     8
 71
     3
 72
    20
 73
    16
 74
     0
 42
0.0000000013353905
 43
0.0000000001
 40
0.0
 40
0.0
 40
0.0
 40
0.0
 40
0.0707962871537373
 40
0.1470771413665171
 40
0.2245080827400708
 40
0.3045752143313919
 40
0.3874551933168506
 40
0.4722081518560484
 40
0.557661596947916
 40
0.6429550663617312
 40
0.7279172807583784
 40
0.8125647383291196
 40
0.8969769252008284
 40
0.976812344044379
 40
1.0
 40
1.0
 40
1.0
 40
1.0
 10
78.08956894238106
 20
240.6356103847681
 30
0.0
 10
78.08524753334018
 20
240.7842083469134
 30
0.0
 10
78.07390606286158
 20
241.0448075541674
 30
0.0
 10
77.93371596073561
 20
241.4678100112728
 30
0.0
 10
77.70444987744463
 20
241.8694841003461
 30
0.0
 10
77.38069810536513
 20
242.2518826428208
 30
0.0
 10
76.96573680309143
 20
242.6078263007179
 30
0.0
 10
76.46318137981228
 20
242.9320038076563
 30
0.0
 10
75.88339256549872
 20
243.2169174271453
 30
0.0
 10
75.23893681376356
 20
243.4572535440153
 30
0.0
 10
74.5435380202291
 20
243.6495454989041
 30
0.0
 10
73.80649858541067
 20
243.7918550370214
 30
0.0
 10
73.06334142580279
 20
243.8806180667793
 30
0.0
 10
72.47037247589915
 20
243.9107910253014
 30
0.0
 10
72.172070290413
 20
243.9127693231815
 30
0.0
 10
72.09350450884985
 20
243.9131352374504
 30
0.0
  0
SPLINE
  5
284
330
25C
100
AcDbEntity
  8
$DDT_AUDIT_GENERATED_(91)
  6
Continuous
 62
     7
100
AcDbSpline
210
0.0
220
0.0
230
1.0
 70
     8
 71
     3
 72
    20
 73
    16
 74
     0
 42
0.0000000013270615
 43
0.0000000001
 40
0.0
 40
0.0
 40
0.0
 40
0.0
 40
0.0441188836916874
 40
0.1276802397007864
 40
0.2113743672370569
 40
0.2952568481885022
 40
0.3794359053529315
 40
0.4640255174322188
 40
0.5491253633426963
 40
0.6347536322451203
 40
0.7205941703659046
 40
0.8055287176811531
 40
0.8880050467842459
 40
0.9670960909349201
 40
1.0
 40
1.0
 40
1.0
 40
1.0
 10
72.09350450884985
 20
243.9131352374504
 30
0.0
 10
71.94288169721916
 20
243.9117901101192
 30
0.0
 10
71.57247032798652
 20
243.907269073382
 30
0.0
 10
70.90383226995345
 20
243.8599938713464
 30
0.0
 10
70.15471961182479
 20
243.7542745572824
 30
0.0
 10
69.43023851153843
 20
243.5970063055126
 30
0.0
 10
68.75042056334063
 20
243.3906087230549
 30
0.0
 10
68.12366769159978
 20
243.136593538091
 30
0.0
 10
67.56076613023399
 20
242.8367522794934
 30
0.0
 10
67.07158926999935
 20
242.4926657825122
 30
0.0
 10
66.66822685808127
 20
242.107590530082
 30
0.0
 10
66.36080606708761
 20
241.6856762850826
 30
0.0
 10
66.16800605169921
 20
241.2438347057105
 30
0.0
 10
66.08487365543603
 20
240.8624738065579
 30
0.0
 10
66.10133525248982
 20
240.6612611198261
 30
0.0
 10
66.10753571997535
 20
240.5919079417828
 30
0.0
  0
SPLINE
  5
285
330
25C
100
AcDbEntity
  8
$DDT_AUDIT_GENERATED_(91)
  6
Continuous
 62
     7
100
AcDbSpline
210
0.0
220
0.0
230
1.0
 70
     8
 71
     3
 72
    32
 73
    28
 74
     0
 42
0.0000000006744826
 43
0.0000000001
 40
0.0
 40
0.0
 40
0.0
 40
0.0
 40
0.0222553019185372
 40
0.0609203316977993
 40
0.1000391945222877
 40
0.1404333790197085
 40
0.1822795137765744
 40
0.2251512904606036
 40
0.2684437999039372
 40
0.3116914288063805
 40
0.3547748806818564
 40
0.3976951985600391
 40
0.4404905494376621
 40
0.4832083462397022
 40
0.5258966736505178
 40
0.5686008668596367
 40
0.6113563161957124
 40
0.654214628523654
 40
0.6972316380931209
 40
0.7404655012901832
 40
0.7839645492623012
 40
0.8277281610493646
 40
0.8715491625946995
 40
0.9148163284768848
 40
0.9567345124946929
 40
0.9969226753571309
 40
1.0
 40
1.0
 40
1.0
 40
1.0
 10
66.10753571997535
 20
176.5060280617343
 30
0.0
 10
66.10870377582084
 20
176.4138973183765
 30
0.0
 10
66.11344937328111
 20
176.1997471135987
 30
0.0
 10
66.23236566585913
 20
175.8244008409768
 30
0.0
 10
66.44821789109301
 20
175.4203152885694
 30
0.0
 10
66.76094410400013
 20
175.0349294130611
 30
0.0
 10
67.16439935683974
 20
174.6755072506931
 30
0.0
 10
67.6564978145106
 20
174.346918483408
 30
0.0
 10
68.22729185629598
 20
174.056771728026
 30
0.0
 10
68.86425246929178
 20
173.8106468419803
 30
0.0
 10
69.55432093747172
 20
173.6121928310734
 30
0.0
 10
70.2853768834483
 20
173.4636080985591
 30
0.0
 10
71.04534078269046
 20
173.3664266447056
 30
0.0
 10
71.82191812326522
 20
173.3216441415367
 30
0.0
 10
72.60260489057762
 20
173.3297031043722
 30
0.0
 10
73.3747804111933
 20
173.3904562782628
 30
0.0
 10
74.12601197781562
 20
173.5031622208241
 30
0.0
 10
74.84431126200184
 20
173.6665645060872
 30
0.0
 10
75.51836886822488
 20
173.8790578918544
 30
0.0
 10
76.13758815580499
 20
174.138904143235
 30
0.0
 10
76.69180940631593
 20
174.4443783559209
 30
0.0
 10
77.17101726697936
 20
174.7938564386204
 30
0.0
 10
77.56248453073967
 20
175.1837009938263
 30
0.0
 10
77.85802004698894
 20
175.6097187484596
 30
0.0
 10
78.03249504765589
 20
176.0524890315982
 30
0.0
 10
78.10473482561231
 20
176.3835629820582
 30
0.0
 10
78.09074136561046
 20
176.5370503228862
 30
0.0
 10
78.08956894238106
 20
176.5497305047196
 30
0.0
  0
LINE
  5
286
330
25C
100
AcDbEntity
  8
$DDT_AUDIT_GENERATED_(89)
  6
Continuous
 62
     7
100
AcDbLine
 10
205.5935045088
 20
194.2701952974
 30
0.0
 11
205.5935045088
 21
222.9701952974
 31
0.0
  0
LINE
  5
287
330
25C
100
AcDbEntity
  8
$DDT_AUDIT_GENERATED_(89)
  6
Continuous
 62
     7
100
AcDbLine
 10
201.6935045088
 20
193.7701952974
 30
0.0
 11
205.0935045088
 21
193.7701952974
 31
0.0
  0
LINE
  5
288
330
25C
100
AcDbEntity
  8
$DDT_AUDIT_GENERATED_(89)
  6
Continuous
 62
     7
100
AcDbLine
 10
205.0935045088
 20
223.4701952974
 30
0.0
 11
201.6935045088
 21
223.4701952974
 31
0.0
  0
LINE
  5
289
330
25C
100
AcDbEntity
  8
$DDT_AUDIT_GENERATED_(89)
  6
Continuous
 62
     7
100
AcDbLine
 10
205.7935045089
 20
216.1201952974
 30
0.0
 11
205.5935045088
 21
216.1201952974
 31
0.0
  0
LINE
  5
28A
330
25C
100
AcDbEntity
  8
$DDT_AUDIT_GENERATED_(89)
  6
Continuous
 62
     7
100
AcDbLine
 10
205.5935045088
 20
201.1201952974
 30
0.0
 11
205.7935045089
 21
201.1201952974
 31
0.0
  0
ARC
  5
28B
330
25C
100
AcDbEntity
  8
$DDT_AUDIT_GENERATED_(89)
  6
Continuous
 62
     7
100
AcDbCircle
 10
205.0935045088
 20
194.2701952974
 30
0.0
 40
0.5000000000000004
100
AcDbArc
 50
270.0
 51
0.0
  0
ARC
  5
28C
330
25C
100
AcDbEntity
  8
$DDT_AUDIT_GENERATED_(89)
  6
Continuous
 62
     7
100
AcDbCircle
 10
205.0935045088
 20
222.9701952974
 30
0.0
 40
0.5000000000000004
100
AcDbArc
 50
0.0
 51
90.0
  0
LINE
  5
28D
330
25C
100
AcDbEntity
  8
$DDT_AUDIT_GENERATED_(91)
  6
Continuous
 62
     7
100
AcDbLine
 10
205.7935045089
 20
198.8701952974
 30
0.0
 11
205.7935045089
 21
218.3701952974
 31
0.0
  0
SPLINE
  5
28E
330
25C
100
AcDbEntity
  8
$DDT_AUDIT_GENERATED_(91)
  6
Continuous
 62
     7
100
AcDbSpline
210
0.0
220
0.0
230
1.0
 70
     8
 71
     3
 72
    12
 73
     8
 74
     0
 42
0.0000000002817549
 43
0.0000000001
 40
0.4022822089976149
 40
0.4022822089976149
 40
0.4022822089976149
 40
0.4022822089976149
 40
0.4374999999999999
 40
0.4374999999999999
 40
0.5
 40
0.5
 40
0.5987838826946843
 40
0.5987838826946843
 40
0.5987838826946843
 40
0.5987838826946843
 10
224.7803271040891
 20
198.8704198244727
 30
0.0
 10
224.4293723804707
 20
198.870712319249
 30
0.0
 10
224.049921864318
 20
198.883673364136
 30
0.0
 10
222.9345175858056
 20
198.9286967083477
 30
0.0
 10
222.1336751883653
 20
198.9640044066355
 30
0.0
 10
220.0294219052269
 20
198.9655324791288
 30
0.0
 10
218.8060104117801
 20
198.8682331130587
 30
0.0
 10
217.8118919190579
 20
198.8693795315415
 30
0.0
  0
SPLINE
  5
28F
330
25C
100
AcDbEntity
  8
$DDT_AUDIT_GENERATED_(91)
  6
Continuous
 62
     7
100
AcDbSpline
210
0.0
220
0.0
230
1.0
 70
     8
 71
     3
 72
     8
 73
     4
 74
     0
 42
0.0000000002822023
 43
0.0000000001
 40
0.0
 40
0.0
 40
0.0
 40
0.0
 40
0.0984565339952385
 40
0.0984565339952385
 40
0.0984565339952385
 40
0.0984565339952385
 10
221.2935045088496
 20
218.2757850534132
 30
0.0
 10
220.0081603593215
 20
218.2757850534132
 30
0.0
 10
218.793985393439
 20
218.3718948424863
 30
0.0
 10
217.8084393031633
 20
218.3708430438934
 30
0.0
  0
SPLINE
  5
290
330
25C
100
AcDbEntity
  8
$DDT_AUDIT_GENERATED_(91)
  6
Continuous
 62
     7
100
AcDbSpline
210
0.0
220
0.0
230
1.0
 70
     8
 71
     3
 72
    10
 73
     6
 74
     0
 42
0.0000000002806797
 43
0.0000000001
 40
0.902315169016318
 40
0.902315169016318
 40
0.902315169016318
 40
0.902315169016318
 40
0.9375000000000001
 40
0.9375000000000001
 40
1.0
 40
1.0
 40
1.0
 40
1.0
 10
224.7718875436394
 20
218.3700818871559
 30
0.0
 10
224.4208543741661
 20
218.3695808325039
 30
0.0
 10
224.0409900672439
 20
218.3564017417941
 30
0.0
 10
222.9122520548713
 20
218.310712994278
 30
0.0
 10
222.1094382624123
 20
218.2757850534132
 30
0.0
 10
221.2935045088496
 20
218.2757850534132
 30
0.0
  0
LINE
  5
291
330
25C
100
AcDbEntity
  8
$DDT_AUDIT_GENERATED_(91)
  6
Continuous
 62
     7
100
AcDbLine
 10
228.7935045088
 20
199.3701952974
 30
0.0
 11
228.7935045088
 21
217.8701952974
 31
0.0
  0
ELLIPSE
  5
292
330
25C
100
AcDbEntity
  8
$DDT_AUDIT_GENERATED_(91)
  6
Continuous
 62
     7
100
AcDbEllipse
 10
221.2935045088
 20
240.6631352375
 30
0.0
 11
6.000000000000005
 21
5.204170427930421E-15
 31
0.0
210
0.0
220
0.0
230
1.0
 40
0.5
 41
0.0
 42
0.0191000479362359
  0
CIRCLE
  5
293
330
25C
100
AcDbEntity
  8
$DDT_AUDIT_GENERATED_(91)
  6
Continuous
 62
     7
100
AcDbCircle
 10
221.2935045088
 20
208.6201952974
 30
0.0
 40
6.0
  0
ELLIPSE
  5
294
330
25C
100
AcDbEntity
  8
$DDT_AUDIT_GENERATED_(91)
  6
Continuous
 62
     7
100
AcDbEllipse
 10
221.2935045088
 20
176.5772553574
 30
0.0
 11
6.000000000000005
 21
6.938893903907228E-15
 31
0.0
210
0.0
220
0.0
230
1.0
 40
0.5
 41
3.141592653589793
 42
3.160692701526029
  0
LINE
  5
295
330
25C
100
AcDbEntity
  8
$DDT_AUDIT_GENERATED_(91)
  6
Continuous
 62
     7
100
AcDbLine
 10
227.2935045088
 20
176.5772553574
 30
0.0
 11
227.2935045088
 21
198.8701952974
 31
0.0
  0
LINE
  5
296
330
25C
100
AcDbEntity
  8
$DDT_AUDIT_GENERATED_(91)
  6
Continuous
 62
     7
100
AcDbLine
 10
215.2935045088
 20
198.8701952974
 30
0.0
 11
215.2935045088
 21
176.5772553574
 31
0.0
  0
LINE
  5
297
330
25C
100
AcDbEntity
  8
$DDT_AUDIT_GENERATED_(91)
  6
Continuous
 62
     7
100
AcDbLine
 10
217.8154366247
 20
218.3701952974
 30
0.0
 11
205.7935045089
 21
218.3701952974
 31
0.0
  0
LINE
  5
298
330
25C
100
AcDbEntity
  8
$DDT_AUDIT_GENERATED_(91)
  6
Continuous
 62
     7
100
AcDbLine
 10
228.2935045089
 20
218.3701952974
 30
0.0
 11
224.7581214831
 21
218.3701952974
 31
0.0
  0
LINE
  5
299
330
25C
100
AcDbEntity
  8
$DDT_AUDIT_GENERATED_(91)
  6
Continuous
 62
     7
100
AcDbLine
 10
224.772790048
 20
198.8701952974
 30
0.0
 11
228.2935045089
 21
198.8701952974
 31
0.0
  0
LINE
  5
29A
330
25C
100
AcDbEntity
  8
$DDT_AUDIT_GENERATED_(91)
  6
Continuous
 62
     7
100
AcDbLine
 10
205.7935045089
 20
198.8701952974
 30
0.0
 11
217.8212065299
 21
198.8701952974
 31
0.0
  0
LINE
  5
29B
330
25C
100
AcDbEntity
  8
$DDT_AUDIT_GENERATED_(91)
  6
Continuous
 62
     7
100
AcDbLine
 10
215.2935045088
 20
240.6631352375
 30
0.0
 11
215.2935045088
 21
218.3701952974
 31
0.0
  0
LINE
  5
29C
330
25C
100
AcDbEntity
  8
$DDT_AUDIT_GENERATED_(91)
  6
Continuous
 62
     7
100
AcDbLine
 10
227.2935045088
 20
218.3701952974
 30
0.0
 11
227.2935045088
 21
240.6631352375
 31
0.0
  0
ARC
  5
29D
330
25C
100
AcDbEntity
  8
$DDT_AUDIT_GENERATED_(91)
  6
Continuous
 62
     7
100
AcDbCircle
 10
228.2935045089
 20
199.3701952974
 30
0.0
 40
0.499999999999997
100
AcDbArc
 50
270.0
 51
0.0
  0
ARC
  5
29E
330
25C
100
AcDbEntity
  8
$DDT_AUDIT_GENERATED_(91)
  6
Continuous
 62
     7
100
AcDbCircle
 10
228.2935045089
 20
217.8701952974
 30
0.0
 40
0.4999999999975024
100
AcDbArc
 50
0.0
 51
90.0
  0
SPLINE
  5
29F
330
25C
100
AcDbEntity
  8
$DDT_AUDIT_GENERATED_(91)
  6
Continuous
 62
     7
100
AcDbSpline
210
0.0
220
0.0
230
1.0
 70
     8
 71
     3
 72
    32
 73
    28
 74
     0
 42
0.0000000006744826
 43
0.0000000001
 40
0.0
 40
0.0
 40
0.0
 40
0.0
 40
0.0222553019185329
 40
0.0609203316977953
 40
0.100039194522284
 40
0.1404333790197042
 40
0.1822795137765685
 40
0.2251512904605988
 40
0.2684437999039329
 40
0.3116914288063776
 40
0.354774880681853
 40
0.3976951985600368
 40
0.4404905494376606
 40
0.4832083462396987
 40
0.525896673650516
 40
0.5686008668596363
 40
0.611356316195712
 40
0.6542146285236542
 40
0.6972316380931222
 40
0.7404655012901825
 40
0.7839645492623014
 40
0.8277281610493635
 40
0.8715491625946996
 40
0.9148163284768848
 40
0.9567345124946929
 40
0.9969226753571309
 40
1.0
 40
1.0
 40
1.0
 40
1.0
 10
227.2794732977241
 20
240.7343625331179
 30
0.0
 10
227.2783052418786
 20
240.8264932764757
 30
0.0
 10
227.2735596444183
 20
241.0406434812534
 30
0.0
 10
227.1546433518403
 20
241.4159897538753
 30
0.0
 10
226.9387911266065
 20
241.8200753062827
 30
0.0
 10
226.6260649136994
 20
242.205461181791
 30
0.0
 10
226.2226096608596
 20
242.564883344159
 30
0.0
 10
225.7305112031891
 20
242.8934721114441
 30
0.0
 10
225.1597171614034
 20
243.1836188668262
 30
0.0
 10
224.5227565484077
 20
243.4297437528718
 30
0.0
 10
223.8326880802278
 20
243.6281977637788
 30
0.0
 10
223.1016321342512
 20
243.776782496293
 30
0.0
 10
222.341668235009
 20
243.8739639501465
 30
0.0
 10
221.5650908944344
 20
243.9187464533155
 30
0.0
 10
220.7844041271218
 20
243.9106874904799
 30
0.0
 10
220.0122286065064
 20
243.8499343165895
 30
0.0
 10
219.2609970398837
 20
243.737228374028
 30
0.0
 10
218.5426977556976
 20
243.5738260887649
 30
0.0
 10
217.8686401494745
 20
243.3613327029977
 30
0.0
 10
217.2494208618944
 20
243.1014864516171
 30
0.0
 10
216.6951996113837
 20
242.7960122389313
 30
0.0
 10
216.2159917507201
 20
242.4465341562317
 30
0.0
 10
215.8245244869599
 20
242.0566896010259
 30
0.0
 10
215.5289889707105
 20
241.6306718463925
 30
0.0
 10
215.3545139700436
 20
241.187901563254
 30
0.0
 10
215.2822741920872
 20
240.856827612794
 30
0.0
 10
215.296267652089
 20
240.703340271966
 30
0.0
 10
215.2974400753184
 20
240.6906600901326
 30
0.0
  0
SPLINE
  5
2A0
330
25C
100
AcDbEntity
  8
$DDT_AUDIT_GENERATED_(91)
  6
Continuous
 62
     7
100
AcDbSpline
210
0.0
220
0.0
230
1.0
 70
     8
 71
     3
 72
    32
 73
    28
 74
     0
 42
0.0000000006744826
 43
0.0000000001
 40
0.0
 40
0.0
 40
0.0
 40
0.0
 40
0.0222553019185311
 40
0.0609203316977932
 40
0.1000391945222816
 40
0.140433379019702
 40
0.1822795137765665
 40
0.225151290460598
 40
0.2684437999039315
 40
0.3116914288063759
 40
0.354774880681852
 40
0.3976951985600352
 40
0.440490549437659
 40
0.4832083462396985
 40
0.525896673650515
 40
0.5686008668596336
 40
0.6113563161957102
 40
0.6542146285236513
 40
0.6972316380931192
 40
0.7404655012901801
 40
0.7839645492622979
 40
0.8277281610493622
 40
0.871549162594698
 40
0.9148163284768832
 40
0.9567345124946921
 40
0.9969226753571293
 40
1.0
 40
1.0
 40
1.0
 40
1.0
 10
215.3075357199752
 20
176.5060280617343
 30
0.0
 10
215.3087037758207
 20
176.4138973183765
 30
0.0
 10
215.3134493732808
 20
176.1997471135987
 30
0.0
 10
215.432365665859
 20
175.8244008409768
 30
0.0
 10
215.6482178910928
 20
175.4203152885694
 30
0.0
 10
215.9609441039998
 20
175.0349294130611
 30
0.0
 10
216.3643993568396
 20
174.6755072506932
 30
0.0
 10
216.8564978145103
 20
174.346918483408
 30
0.0
 10
217.4272918562957
 20
174.056771728026
 30
0.0
 10
218.0642524692916
 20
173.8106468419803
 30
0.0
 10
218.7543209374715
 20
173.6121928310734
 30
0.0
 10
219.4853768834481
 20
173.4636080985591
 30
0.0
 10
220.2453407826903
 20
173.3664266447056
 30
0.0
 10
221.0219181232649
 20
173.3216441415366
 30
0.0
 10
221.8026048905774
 20
173.3297031043722
 30
0.0
 10
222.574780411193
 20
173.3904562782627
 30
0.0
 10
223.3260119778154
 20
173.5031622208241
 30
0.0
 10
224.0443112620016
 20
173.6665645060872
 30
0.0
 10
224.7183688682247
 20
173.8790578918544
 30
0.0
 10
225.3375881558048
 20
174.138904143235
 30
0.0
 10
225.8918094063157
 20
174.4443783559208
 30
0.0
 10
226.3710172669792
 20
174.7938564386203
 30
0.0
 10
226.7624845307395
 20
175.1837009938262
 30
0.0
 10
227.0580200469888
 20
175.6097187484596
 30
0.0
 10
227.2324950476556
 20
176.0524890315982
 30
0.0
 10
227.3047348256122
 20
176.3835629820581
 30
0.0
 10
227.2907413656102
 20
176.5370503228861
 30
0.0
 10
227.2895689423809
 20
176.5497305047195
 30
0.0
  0
ELLIPSE
  5
2A1
330
25C
100
AcDbEntity
  8
$DDT_AUDIT_GENERATED_(CB)
  6
Continuous
 62
     7
100
AcDbEllipse
 10
146.6935045088
 20
125.7736567763
 30
0.0
 11
-11.575
 21
-1.387778780781446E-14
 31
0.0
210
0.0
220
0.0
230
1.0
 40
0.7071067812
 41
0.5105542691299494
 42
2.631038384459862
  0
LINE
  5
2A2
330
25C
100
AcDbEntity
  8
$DDT_AUDIT_GENERATED_(CB)
  6
Continuous
 62
     7
100
AcDbLine
 10
158.2685045088
 20
114.5660142945
 30
0.0
 11
158.2685045088
 21
124.5925303111
 31
0.0
  0
LINE
  5
2A3
330
25C
100
AcDbEntity
  8
$DDT_AUDIT_GENERATED_(CB)
  6
Continuous
 62
     7
100
AcDbLine
 10
135.1185045088
 20
124.5925303111
 30
0.0
 11
135.1185045088
 21
114.5660142945
 31
0.0
  0
SPLINE
  5
2A4
330
25C
100
AcDbEntity
  8
$DDT_AUDIT_GENERATED_(CB)
  6
Continuous
 62
     7
100
AcDbSpline
210
0.0
220
0.0
230
1.0
 70
     8
 71
     3
 72
    41
 73
    37
 74
     0
 42
0.0000000003145759
 43
0.0000000001
 40
0.0
 40
0.0
 40
0.0
 40
0.0
 40
0.0267998523538833
 40
0.055886980132054
 40
0.0850231995845282
 40
0.1142882084101452
 40
0.1437362943636922
 40
0.173390108177586
 40
0.2032422662601092
 40
0.2332633689260485
 40
0.2634129886062204
 40
0.2936497836580517
 40
0.3239382878413057
 40
0.3542519426192204
 40
0.3845701413895575
 40
0.4148846894460703
 40
0.4451936155963802
 40
0.475498702585035
 40
0.5058041626517804
 40
0.5361155948477684
 40
0.5664375696361625
 40
0.5967756570589628
 40
0.6271350556503255
 40
0.6575191043456872
 40
0.6879279771977768
 40
0.7183569827880664
 40
0.748790230026685
 40
0.7792022268950332
 40
0.8095577248344309
 40
0.8398113707236343
 40
0.8699126215786408
 40
0.8998153798894613
 40
0.9294908579421832
 40
0.9589394681622728
 40
0.9881966165591771
 40
1.0
 40
1.0
 40
1.0
 40
1.0
 10
135.1223557827332
 20
114.5269420866867
 30
0.0
 10
135.130289538145
 20
114.2566882388775
 30
0.0
 10
135.1483266825696
 20
113.7808443885361
 30
0.0
 10
135.3002745779609
 20
112.9935135357396
 30
0.0
 10
135.5473657050285
 20
112.2208671212753
 30
0.0
 10
135.8941565565956
 20
111.4642805314283
 30
0.0
 10
136.3352767028576
 20
110.7365381550312
 30
0.0
 10
136.8683949748633
 20
110.0417247599874
 30
0.0
 10
137.4892417926498
 20
109.3864585295352
 30
0.0
 10
138.1927094306068
 20
108.7766577372736
 30
0.0
 10
138.9725175090332
 20
108.218110830663
 30
0.0
 10
139.8214582165154
 20
107.7160313029356
 30
0.0
 10
140.7315898783058
 20
107.2749807858023
 30
0.0
 10
141.6944211938965
 20
106.8988172163284
 30
0.0
 10
142.7011162028984
 20
106.5906819768901
 30
0.0
 10
143.7426186109636
 20
106.3530406638007
 30
0.0
 10
144.8097652666226
 20
106.1877302138645
 30
0.0
 10
145.893285655201
 20
106.0960108065608
 30
0.0
 10
146.9838415242365
 20
106.0785866418165
 30
0.0
 10
148.0720579041902
 20
106.1356169717967
 30
0.0
 10
149.1485898069394
 20
106.2667200366941
 30
0.0
 10
150.2041835885946
 20
106.4709814236092
 30
0.0
 10
151.2297448079244
 20
106.7469699372537
 30
0.0
 10
152.216364854683
 20
107.0927440836627
 30
0.0
 10
153.1553465255237
 20
107.5058468245986
 30
0.0
 10
154.0381877455085
 20
107.9832610666915
 30
0.0
 10
154.8566221779047
 20
108.5213455817648
 30
0.0
 10
155.602693780729
 20
109.1157444251497
 30
0.0
 10
156.2689186974188
 20
109.7613384125181
 30
0.0
 10
156.8483987159003
 20
110.4520908354115
 30
0.0
 10
157.3353099638298
 20
111.1813432005493
 30
0.0
 10
157.7243031778609
 20
111.9408035639544
 30
0.0
 10
158.0140260947612
 20
112.7250218066249
 30
0.0
 10
158.1950433817269
 20
113.5162665787624
 30
0.0
 10
158.2749342803408
 20
114.1792289986337
 30
0.0
 10
158.2608518904946
 20
114.5320567186331
 30
0.0
 10
158.2556180138545
 20
114.6510291094406
 30
0.0
  0
LINE
  5
2A5
330
25C
100
AcDbEntity
  8
$DDT_AUDIT_GENERATED_(225)
  6
Continuous
 62
     7
100
AcDbLine
 10
148.6935045088
 20
244.5115137885
 30
0.0
 11
148.6935045088
 21
244.6201952974
 31
0.0
  0
LINE
  5
2A6
330
25C
100
AcDbEntity
  8
$DDT_AUDIT_GENERATED_(228)
  6
Continuous
 62
     7
100
AcDbLine
 10
137.6935045088
 20
254.1201952974
 30
0.0
 11
137.6935045088
 21
245.1201952974
 31
0.0
  0
LINE
  5
2A7
330
25C
100
AcDbEntity
  8
$DDT_AUDIT_GENERATED_(228)
  6
Continuous
 62
     7
100
AcDbLine
 10
155.6935045088
 20
245.1201952974
 30
0.0
 11
155.6935045088
 21
254.1201952974
 31
0.0
  0
LINE
  5
2A8
330
25C
100
AcDbEntity
  8
$DDT_AUDIT_GENERATED_(228)
  6
Continuous
 62
     7
100
AcDbLine
 10
138.1935045088
 20
244.6201952974
 30
0.0
 11
146.6932496368
 21
244.6201952974
 31
0.0
  0
LINE
  5
2A9
330
25C
100
AcDbEntity
  8
$DDT_AUDIT_GENERATED_(228)
  6
Continuous
 62
     7
100
AcDbLine
 10
146.6935045088
 20
244.6201952974
 30
0.0
 11
155.1935045088
 21
244.6201952974
 31
0.0
  0
LINE
  5
2AA
330
25C
100
AcDbEntity
  8
$DDT_AUDIT_GENERATED_(228)
  6
Continuous
 62
     7
100
AcDbLine
 10
155.1935045088
 20
254.6201952974
 30
0.0
 11
138.1935045088
 21
254.6201952974
 31
0.0
  0
ARC
  5
2AB
330
25C
100
AcDbEntity
  8
$DDT_AUDIT_GENERATED_(228)
  6
Continuous
 62
     7
100
AcDbCircle
 10
138.1935045088
 20
245.1201952974
 30
0.0
 40
0.5000000000000004
100
AcDbArc
 50
180.0
 51
270.0
  0
ARC
  5
2AC
330
25C
100
AcDbEntity
  8
$DDT_AUDIT_GENERATED_(228)
  6
Continuous
 62
     7
100
AcDbCircle
 10
138.1935045088
 20
254.1201952974
 30
0.0
 40
0.5000000000000004
100
AcDbArc
 50
90.0
 51
180.0
  0
ARC
  5
2AD
330
25C
100
AcDbEntity
  8
$DDT_AUDIT_GENERATED_(228)
  6
Continuous
 62
     7
100
AcDbCircle
 10
155.1935045088
 20
245.1201952974
 30
0.0
 40
0.5000000000000004
100
AcDbArc
 50
270.0
 51
0.0
  0
ARC
  5
2AE
330
25C
100
AcDbEntity
  8
$DDT_AUDIT_GENERATED_(228)
  6
Continuous
 62
     7
100
AcDbCircle
 10
155.1935045088
 20
254.1201952974
 30
0.0
 40
0.5000000000000004
100
AcDbArc
 50
0.0
 51
90.0
  0
ARC
  5
2AF
330
25C
100
AcDbEntity
  8
$DDT_AUDIT_GENERATED_(1C3)
  6
Continuous
 62
     7
100
AcDbCircle
 10
146.6935045088
 20
226.6201952974
 30
0.0
 40
16.0
100
AcDbArc
 50
315.9513743259
 51
360.0
  0
ARC
  5
2B0
330
25C
100
AcDbEntity
  8
$DDT_AUDIT_GENERATED_(1C3)
  6
Continuous
 62
     7
100
AcDbCircle
 10
146.6935045088
 20
226.6201952974
 30
0.0
 40
16.0
100
AcDbArc
 50
0.0
 51
224.0486256741
  0
ARC
  5
2B1
330
25C
100
AcDbEntity
  8
$DDT_AUDIT_GENERATED_(1CA)
  6
Continuous
 62
     7
100
AcDbCircle
 10
146.6935045088
 20
226.6201952974
 30
0.0
 40
11.5
100
AcDbArc
 50
0.0
 51
180.0
  0
ELLIPSE
  5
2B2
330
25C
100
AcDbEntity
  8
$DDT_AUDIT_GENERATED_(1CA)
  6
Continuous
 62
     7
100
AcDbEllipse
 10
146.6935045088
 20
139.8097263829
 30
0.0
 11
-11.49999999999999
 21
-1.387778780781446E-14
 31
0.0
210
0.0
220
0.0
230
1.0
 40
0.7071067812
 41
0.0
 42
3.141592653589793
  0
LINE
  5
2B3
330
25C
100
AcDbEntity
  8
$DDT_AUDIT_GENERATED_(1CA)
  6
Continuous
 62
     7
100
AcDbLine
 10
158.1935045088
 20
158.33592405
 30
0.0
 11
158.1935045088
 21
226.6201952974
 31
0.0
  0
LINE
  5
2B4
330
25C
100
AcDbEntity
  8
$DDT_AUDIT_GENERATED_(1CA)
  6
Continuous
 62
     7
100
AcDbLine
 10
135.1935045088
 20
226.6201952974
 30
0.0
 11
135.1935045088
 21
158.33592405
 31
0.0
  0
LINE
  5
2B5
330
25C
100
AcDbEntity
  8
$DDT_AUDIT_GENERATED_(1CA)
  6
Continuous
 62
     7
100
AcDbLine
 10
135.1935045088
 20
158.33592405
 30
0.0
 11
135.1935045088
 21
139.8097263829
 31
0.0
  0
LINE
  5
2B6
330
25C
100
AcDbEntity
  8
$DDT_AUDIT_GENERATED_(1CA)
  6
Continuous
 62
     7
100
AcDbLine
 10
158.1935045088
 20
139.8097263829
 30
0.0
 11
158.1935045088
 21
158.33592405
 31
0.0
  0
ELLIPSE
  5
2B7
330
25C
100
AcDbEntity
  8
$DDT_AUDIT_GENERATED_(1D0)
  6
Continuous
 62
     7
100
AcDbEllipse
 10
146.6935045088
 20
134.8599789146
 30
0.0
 11
11.75
 21
0.0
 31
0.0
210
0.0
220
0.0
230
1.0
 40
0.7071067812
 41
3.141592653589793
 42
6.283185307179586
  0
ELLIPSE
  5
2B8
330
25C
100
AcDbEntity
  8
$DDT_AUDIT_GENERATED_(1D0)
  6
Continuous
 62
     7
100
AcDbEllipse
 10
146.6935045088
 20
139.8097263829
 30
0.0
 11
-11.75
 21
0.0
 31
0.0
210
0.0
220
0.0
230
1.0
 40
0.7071067812
 41
0.0
 42
3.348244417166421
  0
ELLIPSE
  5
2B9
330
25C
100
AcDbEntity
  8
$DDT_AUDIT_GENERATED_(1D0)
  6
Continuous
 62
     7
100
AcDbEllipse
 10
146.6935045088
 20
139.8097263829
 30
0.0
 11
-11.75
 21
0.0
 31
0.0
210
0.0
220
0.0
230
1.0
 40
0.7071067812
 41
6.076533543602959
 42
6.283185307179586
  0
ELLIPSE
  5
2BA
330
25C
100
AcDbEntity
  8
$DDT_AUDIT_GENERATED_(1D0)
  6
Continuous
 62
     7
100
AcDbEllipse
 10
146.6935045088
 20
126.0211441497
 30
0.0
 11
11.75
 21
1.387778780781446E-14
 31
0.0
210
0.0
220
0.0
230
1.0
 40
0.7071067812
 41
3.141592653589793
 42
6.283185307179586
  0
ELLIPSE
  5
2BB
330
25C
100
AcDbEntity
  8
$DDT_AUDIT_GENERATED_(1D0)
  6
Continuous
 62
     7
100
AcDbEllipse
 10
146.6935045088
 20
131.6779983992
 30
0.0
 11
11.75
 21
1.387778780781446E-14
 31
0.0
210
0.0
220
0.0
230
1.0
 40
0.7071067812
 41
0.0
 42
0.1926793650045374
  0
ELLIPSE
  5
2BC
330
25C
100
AcDbEntity
  8
$DDT_AUDIT_GENERATED_(1D0)
  6
Continuous
 62
     7
100
AcDbEllipse
 10
146.6935045088
 20
131.6779983992
 30
0.0
 11
11.75
 21
1.387778780781446E-14
 31
0.0
210
0.0
220
0.0
230
1.0
 40
0.7071067812
 41
2.948913288585242
 42
6.283185307179584
  0
LINE
  5
2BD
330
25C
100
AcDbEntity
  8
$DDT_AUDIT_GENERATED_(1D0)
  6
Continuous
 62
     7
100
AcDbLine
 10
134.9435045088
 20
139.8097263829
 30
0.0
 11
134.9435045088
 21
134.8599789146
 31
0.0
  0
LINE
  5
2BE
330
25C
100
AcDbEntity
  8
$DDT_AUDIT_GENERATED_(1D0)
  6
Continuous
 62
     7
100
AcDbLine
 10
158.4435045088
 20
134.8599789146
 30
0.0
 11
158.4435045088
 21
139.8097263829
 31
0.0
  0
LINE
  5
2BF
330
25C
100
AcDbEntity
  8
$DDT_AUDIT_GENERATED_(1D0)
  6
Continuous
 62
     7
100
AcDbLine
 10
134.9435045088
 20
131.6779983992
 30
0.0
 11
134.9435045088
 21
126.0211441497
 31
0.0
  0
LINE
  5
2C0
330
25C
100
AcDbEntity
  8
$DDT_AUDIT_GENERATED_(1D0)
  6
Continuous
 62
     7
100
AcDbLine
 10
158.4435045088
 20
126.0211441497
 30
0.0
 11
158.4435045088
 21
131.6779983992
 31
0.0
  0
ARC
  5
2C1
330
25C
100
AcDbEntity
  8
$DDT_AUDIT_GENERATED_(1DB)
  6
Continuous
 62
     7
100
AcDbCircle
 10
146.6935045088
 20
226.6201952974
 30
0.0
 40
27.5
100
AcDbArc
 50
109.1033244775
 51
180.0
  0
ARC
  5
2C2
330
25C
100
AcDbEntity
  8
$DDT_AUDIT_GENERATED_(1DB)
  6
Continuous
 62
     7
100
AcDbCircle
 10
146.6935045088
 20
226.6201952974
 30
0.0
 40
27.5
100
AcDbArc
 50
0.0
 51
70.8966755225
  0
ARC
  5
2C3
330
25C
100
AcDbEntity
  8
$DDT_AUDIT_GENERATED_(1DB)
  6
Continuous
 62
     7
100
AcDbCircle
 10
146.6935045088
 20
226.6201952974
 30
0.0
 40
22.5
100
AcDbArc
 50
113.5781784782
 51
180.0
  0
ARC
  5
2C4
330
25C
100
AcDbEntity
  8
$DDT_AUDIT_GENERATED_(1DB)
  6
Continuous
 62
     7
100
AcDbCircle
 10
146.6935045088
 20
226.6201952974
 30
0.0
 40
22.5
100
AcDbArc
 50
0.0
 51
66.4218215218
  0
ENDBLK
  5
2C6
330
25C
100
AcDbEntity
  8
0
100
AcDbBlockEnd
  0
ENDSEC
  0
SECTION
  2
ENTITIES
  0
INSERT
  5
5F
330
1F
100
AcDbEntity
  8
Default
100
AcDbBlockReference
  2
SEANNOT_GROUP
 10
0.0
 20
0.0
 30
0.0
  0
INSERT
  5
66
330
1F
100
AcDbEntity
  8
Default
100
AcDbBlockReference
  2
SEANNOT_GROUP1
 10
0.0
 20
0.0
 30
0.0
  0
INSERT
  5
6C
330
1F
100
AcDbEntity
  8
Default
100
AcDbBlockReference
  2
SEANNOT_GROUP2
 10
0.0
 20
0.0
 30
0.0
  0
INSERT
  5
76
330
1F
100
AcDbEntity
  8
Default
100
AcDbBlockReference
  2
SE
 10
0.0
 20
0.0
 30
0.0
  0
INSERT
  5
1EC
330
1F
100
AcDbEntity
  8
Default
100
AcDbBlockReference
  2
SE1
 10
0.0
 20
0.0
 30
0.0
  0
INSERT
  5
25D
330
1F
100
AcDbEntity
  8
Default
100
AcDbBlockReference
  2
SE2
 10
0.0
 20
0.0
 30
0.0
  0
TEXT
  5
2C8
330
1F
100
AcDbEntity
  8
Default
  6
Continuous
 62
     7
100
AcDbText
 10
5.9362635081
 20
53.4225120485
 30
0.0
 40
10.0
  1
Grohe AG^J
  7
SEACAD_seiso_ttf
 11
5.9362635081
 21
63.4225120485
 31
0.0
100
AcDbText
 73
     3
  0
TEXT
  5
2C9
330
1F
100
AcDbEntity
  8
Default
  6
Continuous
 62
     7
100
AcDbText
 10
5.9362635081
 20
37.0588756849
 30
0.0
 40
10.0
  1
 
  7
SEACAD_seiso_ttf
 11
5.9362635081
 21
47.0588756849
 31
0.0
100
AcDbText
 73
     3
  0
TEXT
  5
2CA
330
1F
100
AcDbEntity
  8
Default
  6
Continuous
 62
     7
100
AcDbText
 10
5.9362635081
 20
20.6952393213
 30
0.0
 40
10.0
  1
ecn: 
  7
SEACAD_seiso_ttf
 11
5.9362635081
 21
30.6952393213
 31
0.0
100
AcDbText
 73
     3
  0
TEXT
  5
2CB
330
1F
100
AcDbEntity
  8
Default
  6
Continuous
 62
     7
100
AcDbText
 10
5.9362635081
 20
4.3316029576
 30
0.0
 40
10.0
  1
unit: mm
  7
SEACAD_seiso_ttf
 11
5.9362635081
 21
14.3316029576
 31
0.0
100
AcDbText
 73
     3
  0
LINE
  5
2CC
330
1F
100
AcDbEntity
  8
Default
  6
Continuous
 62
     7
100
AcDbLine
 10
0.0
 20
0.0
 30
0.0
 11
100.0
 21
0.0
 31
0.0
  0
LINE
  5
2CD
330
1F
100
AcDbEntity
  8
Default
  6
Continuous
 62
     7
100
AcDbLine
 10
0.0
 20
0.0
 30
0.0
 11
0.0
 21
100.0
 31
0.0
  0
TEXT
  5
2CE
330
1F
100
AcDbEntity
  8
Default
  6
Continuous
 62
     7
100
AcDbText
 10
24.3923665681
 20
-18.2375342018
 30
0.0
 40
10.0
  1
100 mm
  7
SEACAD_seiso_ttf
 11
24.3923665681
 21
-8.2375342018
 31
0.0
100
AcDbText
 73
     3
  0
TEXT
  5
2CF
330
1F
100
AcDbEntity
  8
Default
  6
Continuous
 62
     7
100
AcDbText
 10
-7.6150308803
 20
24.6231930421
 30
0.0
 40
10.0
  1
100 mm
 50
90.0
  7
SEACAD_seiso_ttf
 11
-17.6150308803
 21
24.6231930421
 31
0.0
100
AcDbText
 73
     3
  0
TEXT
  5
2D0
330
1F
100
AcDbEntity
  8
Default
  6
Continuous
 62
     7
100
AcDbText
 10
28.4878128572
 20
20.0907663715
 30
0.0
 40
10.0
  1
204681
  7
SEACAD_seiso_ttf
 11
28.4878128572
 21
30.0907663715
 31
0.0
100
AcDbText
 73
     3
  0
TEXT
  5
2D1
330
1F
100
AcDbEntity
  8
Default
  6
Continuous
 62
     7
100
AcDbText
 10
5.9012241913
 20
36.7242780188
 30
0.0
 40
10.0
  1
24027000
  7
SEACAD_seiso_ttf
 11
5.9012241913
 21
46.7242780188
 31
0.0
100
AcDbText
 73
     3
  0
ENDSEC
  0
SECTION
  2
OBJECTS
  0
DICTIONARY
  5
C
330
0
100
AcDbDictionary
281
     1
  3
ACAD_GROUP
350
D
  3
ACAD_LAYOUT
350
1A
  3
ACAD_MLEADERSTYLE
350
2D5
  3
ACAD_MLINESTYLE
350
17
  3
ACAD_PLOTSETTINGS
350
19
  3
ACAD_PLOTSTYLENAME
350
E
  3
ACAD_SCALELIST
350
3B
  3
ACAD_TABLESTYLE
350
2D4
  3
ACAD_VISUALSTYLE
350
2A
  3
AcDbVariableDictionary
350
2D2
  0
DICTIONARY
  5
D
102
{ACAD_REACTORS
330
C
102
}
330
C
100
AcDbDictionary
281
     1
  0
DICTIONARY
  5
1A
102
{ACAD_REACTORS
330
C
102
}
330
C
100
AcDbDictionary
281
     1
  3
Layout1
350
1E
  3
Model
350
22
  0
DICTIONARY
  5
2D5
102
{ACAD_REACTORS
330
C
102
}
330
C
100
AcDbDictionary
281
     1
  0
DICTIONARY
  5
17
102
{ACAD_REACTORS
330
C
102
}
330
C
100
AcDbDictionary
281
     1
  3
Standard
350
18
  0
DICTIONARY
  5
19
102
{ACAD_REACTORS
330
C
102
}
330
C
100
AcDbDictionary
281
     1
  0
ACDBDICTIONARYWDFLT
  5
E
102
{ACAD_REACTORS
330
C
102
}
330
C
100
AcDbDictionary
281
     1
  3
Normal
350
F
100
AcDbDictionaryWithDefault
340
F
  0
DICTIONARY
  5
3B
102
{ACAD_REACTORS
330
C
102
}
330
C
100
AcDbDictionary
281
     1
  3
A0
350
3C
  3
A1
350
3D
  3
A2
350
3E
  3
A3
350
3F
  3
A4
350
40
  3
A5
350
41
  3
A6
350
42
  3
A7
350
43
  3
A8
350
44
  3
A9
350
45
  3
B0
350
46
  3
B1
350
47
  3
B2
350
48
  3
B3
350
49
  3
B4
350
4A
  3
B5
350
4B
  3
B6
350
4C
  3
B7
350
4D
  3
B8
350
4E
  3
B9
350
4F
  3
C0
350
50
  3
C1
350
51
  3
C2
350
52
  3
C3
350
53
  3
C4
350
54
  3
C5
350
55
  3
C6
350
56
  3
C7
350
57
  3
C8
350
58
  3
C9
350
59
  3
D0
350
5A
  3
D1
350
5B
  3
D2
350
5C
  0
DICTIONARY
  5
2D4
102
{ACAD_REACTORS
330
C
102
}
330
C
100
AcDbDictionary
281
     1
  0
DICTIONARY
  5
2A
102
{ACAD_REACTORS
330
C
102
}
330
C
100
AcDbDictionary
281
     1
  3
2dWireframe
350
2F
  3
3D Hidden
350
31
  3
3dWireframe
350
30
  3
Basic
350
32
  3
Brighten
350
36
  3
ColorChange
350
3A
  3
Conceptual
350
34
  3
Dim
350
35
  3
Facepattern
350
39
  3
Flat
350
2B
  3
FlatWithEdges
350
2C
  3
Gouraud
350
2D
  3
GouraudWithEdges
350
2E
  3
Linepattern
350
38
  3
Realistic
350
33
  3
Thicken
350
37
  0
DICTIONARY
  5
2D2
102
{ACAD_REACTORS
330
C
102
}
330
C
100
AcDbDictionary
281
     1
  3
CANNOSCALE
350
2D3
  3
PSOLHEIGHT
350
2D7
  3
PSOLWIDTH
350
2D6
  0
LAYOUT
  5
1E
102
{ACAD_REACTORS
330
1A
102
}
330
1A
100
AcDbPlotSettings
  1

  2
none_device
  4

  6

 40
0.0
 41
0.0
 42
0.0
 43
0.0
 44
0.0
 45
0.0
 46
0.0
 47
0.0
 48
0.0
 49
0.0
140
0.0
141
0.0
142
1.0
143
1.0
 70
   688
 72
     0
 73
     0
 74
     5
  7

 75
    16
147
1.0
148
0.0
149
0.0
100
AcDbLayout
  1
Layout1
 70
     1
 71
     1
 10
0.0
 20
0.0
 11
1682.0
 21
2378.0
 12
0.0
 22
0.0
 32
0.0
 14
0.0
 24
0.0
 34
0.0
 15
1682.0
 25
2378.0
 35
0.0
146
0.0
 13
0.0
 23
0.0
 33
0.0
 16
1.0
 26
0.0
 36
0.0
 17
0.0
 27
1.0
 37
0.0
 76
     0
330
1B
  0
LAYOUT
  5
22
102
{ACAD_REACTORS
330
1A
102
}
330
1A
100
AcDbPlotSettings
  1

  2
none_device
  4

  6

 40
0.0
 41
0.0
 42
0.0
 43
0.0
 44
0.0
 45
0.0
 46
0.0
 47
0.0
 48
0.0
 49
0.0
140
0.0
141
0.0
142
1.0
143
1.0
 70
  1712
 72
     0
 73
     0
 74
     0
  7

 75
     0
147
1.0
148
0.0
149
0.0
100
AcDbLayout
  1
Model
 70
     1
 71
     0
 10
0.0
 20
0.0
 11
1682.0
 21
2378.0
 12
0.0
 22
0.0
 32
0.0
 14
0.0
 24
0.0
 34
0.0
 15
1682.0
 25
2378.0
 35
0.0
146
0.0
 13
0.0
 23
0.0
 33
0.0
 16
1.0
 26
0.0
 36
0.0
 17
0.0
 27
1.0
 37
0.0
 76
     0
330
1F
331
29
  0
MLINESTYLE
  5
18
102
{ACAD_REACTORS
330
17
102
}
330
17
100
AcDbMlineStyle
  2
Standard
 70
     0
  3

 62
   256
 51
90.0
 52
90.0
 71
     2
 49
0.5
 62
   256
  6
BYLAYER
 49
-0.5
 62
   256
  6
BYLAYER
  0
ACDBPLACEHOLDER
  5
F
102
{ACAD_REACTORS
330
E
102
}
330
E
  0
SCALE
  5
3C
102
{ACAD_REACTORS
330
3B
102
}
330
3B
100
AcDbScale
 70
     0
300
1:1
140
1.0
141
1.0
290
     1
  0
SCALE
  5
3D
102
{ACAD_REACTORS
330
3B
102
}
330
3B
100
AcDbScale
 70
     0
300
1:2
140
1.0
141
2.0
290
     0
  0
SCALE
  5
3E
102
{ACAD_REACTORS
330
3B
102
}
330
3B
100
AcDbScale
 70
     0
300
1:4
140
1.0
141
4.0
290
     0
  0
SCALE
  5
3F
102
{ACAD_REACTORS
330
3B
102
}
330
3B
100
AcDbScale
 70
     0
300
1:5
140
1.0
141
5.0
290
     0
  0
SCALE
  5
40
102
{ACAD_REACTORS
330
3B
102
}
330
3B
100
AcDbScale
 70
     0
300
1:8
140
1.0
141
8.0
290
     0
  0
SCALE
  5
41
102
{ACAD_REACTORS
330
3B
102
}
330
3B
100
AcDbScale
 70
     0
300
1:10
140
1.0
141
10.0
290
     0
  0
SCALE
  5
42
102
{ACAD_REACTORS
330
3B
102
}
330
3B
100
AcDbScale
 70
     0
300
1:16
140
1.0
141
16.0
290
     0
  0
SCALE
  5
43
102
{ACAD_REACTORS
330
3B
102
}
330
3B
100
AcDbScale
 70
     0
300
1:20
140
1.0
141
20.0
290
     0
  0
SCALE
  5
44
102
{ACAD_REACTORS
330
3B
102
}
330
3B
100
AcDbScale
 70
     0
300
1:30
140
1.0
141
30.0
290
     0
  0
SCALE
  5
45
102
{ACAD_REACTORS
330
3B
102
}
330
3B
100
AcDbScale
 70
     0
300
1:40
140
1.0
141
40.0
290
     0
  0
SCALE
  5
46
102
{ACAD_REACTORS
330
3B
102
}
330
3B
100
AcDbScale
 70
     0
300
1:50
140
1.0
141
50.0
290
     0
  0
SCALE
  5
47
102
{ACAD_REACTORS
330
3B
102
}
330
3B
100
AcDbScale
 70
     0
300
1:100
140
1.0
141
100.0
290
     0
  0
SCALE
  5
48
102
{ACAD_REACTORS
330
3B
102
}
330
3B
100
AcDbScale
 70
     0
300
2:1
140
2.0
141
1.0
290
     0
  0
SCALE
  5
49
102
{ACAD_REACTORS
330
3B
102
}
330
3B
100
AcDbScale
 70
     0
300
4:1
140
4.0
141
1.0
290
     0
  0
SCALE
  5
4A
102
{ACAD_REACTORS
330
3B
102
}
330
3B
100
AcDbScale
 70
     0
300
8:1
140
8.0
141
1.0
290
     0
  0
SCALE
  5
4B
102
{ACAD_REACTORS
330
3B
102
}
330
3B
100
AcDbScale
 70
     0
300
10:1
140
10.0
141
1.0
290
     0
  0
SCALE
  5
4C
102
{ACAD_REACTORS
330
3B
102
}
330
3B
100
AcDbScale
 70
     0
300
100:1
140
100.0
141
1.0
290
     0
  0
SCALE
  5
4D
102
{ACAD_REACTORS
330
3B
102
}
330
3B
100
AcDbScale
 70
     0
300
1/128" = 1'-0"
140
0.0078125
141
12.0
290
     0
  0
SCALE
  5
4E
102
{ACAD_REACTORS
330
3B
102
}
330
3B
100
AcDbScale
 70
     0
300
1/64" = 1'-0"
140
0.015625
141
12.0
290
     0
  0
SCALE
  5
4F
102
{ACAD_REACTORS
330
3B
102
}
330
3B
100
AcDbScale
 70
     0
300
1/32" = 1'-0"
140
0.03125
141
12.0
290
     0
  0
SCALE
  5
50
102
{ACAD_REACTORS
330
3B
102
}
330
3B
100
AcDbScale
 70
     0
300
1/16" = 1'-0"
140
0.0625
141
12.0
290
     0
  0
SCALE
  5
51
102
{ACAD_REACTORS
330
3B
102
}
330
3B
100
AcDbScale
 70
     0
300
3/32" = 1'-0"
140
0.09375
141
12.0
290
     0
  0
SCALE
  5
52
102
{ACAD_REACTORS
330
3B
102
}
330
3B
100
AcDbScale
 70
     0
300
1/8" = 1'-0"
140
0.125
141
12.0
290
     0
  0
SCALE
  5
53
102
{ACAD_REACTORS
330
3B
102
}
330
3B
100
AcDbScale
 70
     0
300
3/16" = 1'-0"
140
0.1875
141
12.0
290
     0
  0
SCALE
  5
54
102
{ACAD_REACTORS
330
3B
102
}
330
3B
100
AcDbScale
 70
     0
300
1/4" = 1'-0"
140
0.25
141
12.0
290
     0
  0
SCALE
  5
55
102
{ACAD_REACTORS
330
3B
102
}
330
3B
100
AcDbScale
 70
     0
300
3/8" = 1'-0"
140
0.375
141
12.0
290
     0
  0
SCALE
  5
56
102
{ACAD_REACTORS
330
3B
102
}
330
3B
100
AcDbScale
 70
     0
300
1/2" = 1'-0"
140
0.5
141
12.0
290
     0
  0
SCALE
  5
57
102
{ACAD_REACTORS
330
3B
102
}
330
3B
100
AcDbScale
 70
     0
300
3/4" = 1'-0"
140
0.75
141
12.0
290
     0
  0
SCALE
  5
58
102
{ACAD_REACTORS
330
3B
102
}
330
3B
100
AcDbScale
 70
     0
300
1" = 1'-0"
140
1.0
141
12.0
290
     0
  0
SCALE
  5
59
102
{ACAD_REACTORS
330
3B
102
}
330
3B
100
AcDbScale
 70
     0
300
1-1/2" = 1'-0"
140
1.5
141
12.0
290
     0
  0
SCALE
  5
5A
102
{ACAD_REACTORS
330
3B
102
}
330
3B
100
AcDbScale
 70
     0
300
3" = 1'-0"
140
3.0
141
12.0
290
     0
  0
SCALE
  5
5B
102
{ACAD_REACTORS
330
3B
102
}
330
3B
100
AcDbScale
 70
     0
300
6" = 1'-0"
140
6.0
141
12.0
290
     0
  0
SCALE
  5
5C
102
{ACAD_REACTORS
330
3B
102
}
330
3B
100
AcDbScale
 70
     0
300
1'-0" = 1'-0"
140
12.0
141
12.0
290
     0
  0
VISUALSTYLE
  5
2F
102
{ACAD_REACTORS
330
2A
102
}
330
2A
100
AcDbVisualStyle
  2
2dWireframe
 70
     4
 71
     0
 72
     2
 73
     0
 90
        0
 40
-0.6
 41
-30.0
 62
     5
 63
     7
 74
     1
 91
        4
 64
     7
 65
   257
 75
     1
175
     1
 42
1.0
 92
        0
 66
   257
 43
1.0
 76
     1
 77
     6
 78
     2
 67
     7
 79
     5
170
     0
171
     0
290
     0
174
     0
 93
        1
 44
0.0
173
     0
291
     0
 45
0.0
1001
ACAD
1000
AcDbSavedByObjectVersion
1070
     0
  0
VISUALSTYLE
  5
31
102
{ACAD_REACTORS
330
2A
102
}
330
2A
100
AcDbVisualStyle
  2
3D Hidden
 70
     6
 71
     1
 72
     2
 73
     2
 90
        0
 40
-0.6
 41
-30.0
 62
     5
 63
     7
 74
     2
 91
        2
 64
     7
 65
   257
 75
     2
175
     1
 42
40.0
 92
        0
 66
   257
 43
1.0
 76
     1
 77
     6
 78
     2
 67
     7
 79
     3
170
     0
171
     0
290
     0
174
     0
 93
        1
 44
0.0
173
     0
291
     0
 45
0.0
1001
ACAD
1000
AcDbSavedByObjectVersion
1070
     0
  0
VISUALSTYLE
  5
30
102
{ACAD_REACTORS
330
2A
102
}
330
2A
100
AcDbVisualStyle
  2
3dWireframe
 70
     5
 71
     0
 72
     2
 73
     0
 90
        0
 40
-0.6
 41
-30.0
 62
     5
 63
     7
 74
     1
 91
        4
 64
     7
 65
   257
 75
     1
175
     1
 42
1.0
 92
        0
 66
   257
 43
1.0
 76
     1
 77
     6
 78
     2
 67
     7
 79
     5
170
     0
171
     0
290
     0
174
     0
 93
        1
 44
0.0
173
     0
291
     0
 45
0.0
1001
ACAD
1000
AcDbSavedByObjectVersion
1070
     0
  0
VISUALSTYLE
  5
32
102
{ACAD_REACTORS
330
2A
102
}
330
2A
100
AcDbVisualStyle
  2
Basic
 70
     7
 71
     1
 72
     0
 73
     1
 90
        0
 40
-0.6
 41
-30.0
 62
     5
 63
     7
 74
     0
 91
        4
 64
     7
 65
   257
 75
     1
175
     1
 42
1.0
 92
        8
 66
     7
 43
1.0
 76
     1
 77
     6
 78
     2
 67
     7
 79
     5
170
     0
171
     0
290
     0
174
     0
 93
        1
 44
0.0
173
     0
291
     1
 45
0.0
1001
ACAD
1000
AcDbSavedByObjectVersion
1070
     0
  0
VISUALSTYLE
  5
36
102
{ACAD_REACTORS
330
2A
102
}
330
2A
100
AcDbVisualStyle
  2
Brighten
 70
    12
 71
     2
 72
     2
 73
     0
 90
        0
 40
-0.6
 41
-30.0
 62
     5
 63
     7
 74
     1
 91
        4
 64
     7
 65
   257
 75
     1
175
     1
 42
1.0
 92
        8
 66
     7
 43
1.0
 76
     1
 77
     6
 78
     2
 67
     7
 79
     5
170
     0
171
     0
290
     0
174
     0
 93
        1
 44
50.0
173
     0
291
     1
 45
0.0
1001
ACAD
1000
AcDbSavedByObjectVersion
1070
     0
  0
VISUALSTYLE
  5
3A
102
{ACAD_REACTORS
330
2A
102
}
330
2A
100
AcDbVisualStyle
  2
ColorChange
 70
    16
 71
     2
 72
     2
 73
     3
 90
        0
 40
-0.6
 41
-30.0
 62
     5
 63
     8
 74
     1
 91
        4
 64
     7
 65
   257
 75
     1
175
     1
 42
1.0
 92
        8
 66
     8
 43
1.0
 76
     1
 77
     6
 78
     2
 67
     7
 79
     5
170
     0
171
     0
290
     0
174
     0
 93
        1
 44
0.0
173
     0
291
     1
 45
0.0
1001
ACAD
1000
AcDbSavedByObjectVersion
1070
     0
  0
VISUALSTYLE
  5
34
102
{ACAD_REACTORS
330
2A
102
}
330
2A
100
AcDbVisualStyle
  2
Conceptual
 70
     9
 71
     3
 72
     2
 73
     0
 90
        0
 40
-0.6
 41
-30.0
 62
     5
 63
     7
 74
     2
 91
        2
 64
     7
 65
   257
 75
     1
175
     1
 42
40.0
 92
        8
 66
     7
 43
1.0
 76
     1
 77
     6
 78
     2
 67
     7
 79
     3
170
     0
171
     0
290
     0
174
     0
 93
        1
 44
0.0
173
     0
291
     0
 45
0.0
1001
ACAD
1000
AcDbSavedByObjectVersion
1070
     0
  0
VISUALSTYLE
  5
35
102
{ACAD_REACTORS
330
2A
102
}
330
2A
100
AcDbVisualStyle
  2
Dim
 70
    11
 71
     2
 72
     2
 73
     0
 90
        0
 40
-0.6
 41
-30.0
 62
     5
 63
     7
 74
     1
 91
        4
 64
     7
 65
   257
 75
     1
175
     1
 42
1.0
 92
        8
 66
     7
 43
1.0
 76
     1
 77
     6
 78
     2
 67
     7
 79
     5
170
     0
171
     0
290
     0
174
     0
 93
        1
 44
-50.0
173
     0
291
     1
 45
0.0
1001
ACAD
1000
AcDbSavedByObjectVersion
1070
     0
  0
VISUALSTYLE
  5
39
102
{ACAD_REACTORS
330
2A
102
}
330
2A
100
AcDbVisualStyle
  2
Facepattern
 70
    15
 71
     2
 72
     2
 73
     0
 90
        0
 40
-0.6
 41
-30.0
 62
     5
 63
     7
 74
     1
 91
        4
 64
     7
 65
   257
 75
     1
175
     1
 42
1.0
 92
        8
 66
     7
 43
1.0
 76
     1
 77
     6
 78
     2
 67
     7
 79
     5
170
     0
171
     0
290
     0
174
     0
 93
        1
 44
0.0
173
     0
291
     1
 45
0.0
1001
ACAD
1000
AcDbSavedByObjectVersion
1070
     0
  0
VISUALSTYLE
  5
2B
102
{ACAD_REACTORS
330
2A
102
}
330
2A
100
AcDbVisualStyle
  2
Flat
 70
     0
 71
     2
 72
     1
 73
     1
 90
        2
 40
-0.6
 41
30.0
 62
     5
 63
     7
 74
     0
 91
        4
 64
     7
 65
   257
 75
     1
175
     1
 42
1.0
 92
        8
 66
     7
 43
1.0
 76
     1
 77
     6
 78
     2
 67
     7
 79
     5
170
     0
171
     0
290
     0
174
     0
 93
       13
 44
0.0
173
     0
291
     1
 45
0.0
1001
ACAD
1000
AcDbSavedByObjectVersion
1070
     0
  0
VISUALSTYLE
  5
2C
102
{ACAD_REACTORS
330
2A
102
}
330
2A
100
AcDbVisualStyle
  2
FlatWithEdges
 70
     1
 71
     2
 72
     1
 73
     1
 90
        2
 40
-0.6
 41
30.0
 62
     5
 63
     7
 74
     1
 91
        4
 64
     7
 65
   257
 75
     1
175
     1
 42
1.0
 92
        0
 66
   257
 43
1.0
 76
     1
 77
     6
 78
     2
 67
     7
 79
     5
170
     0
171
     0
290
     0
174
     0
 93
       13
 44
0.0
173
     0
291
     1
 45
0.0
1001
ACAD
1000
AcDbSavedByObjectVersion
1070
     0
  0
VISUALSTYLE
  5
2D
102
{ACAD_REACTORS
330
2A
102
}
330
2A
100
AcDbVisualStyle
  2
Gouraud
 70
     2
 71
     2
 72
     2
 73
     1
 90
        2
 40
-0.6
 41
30.0
 62
     5
 63
     7
 74
     0
 91
        4
 64
     7
 65
   257
 75
     1
175
     1
 42
1.0
 92
        0
 66
     7
 43
1.0
 76
     1
 77
     6
 78
     2
 67
     7
 79
     5
170
     0
171
     0
290
     0
174
     0
 93
       13
 44
0.0
173
     0
291
     1
 45
0.0
1001
ACAD
1000
AcDbSavedByObjectVersion
1070
     0
  0
VISUALSTYLE
  5
2E
102
{ACAD_REACTORS
330
2A
102
}
330
2A
100
AcDbVisualStyle
  2
GouraudWithEdges
 70
     3
 71
     2
 72
     2
 73
     1
 90
        2
 40
-0.6
 41
30.0
 62
     5
 63
     7
 74
     1
 91
        4
 64
     7
 65
   257
 75
     1
175
     1
 42
1.0
 92
        0
 66
   257
 43
1.0
 76
     1
 77
     6
 78
     2
 67
     7
 79
     5
170
     0
171
     0
290
     0
174
     0
 93
       13
 44
0.0
173
     0
291
     1
 45
0.0
1001
ACAD
1000
AcDbSavedByObjectVersion
1070
     0
  0
VISUALSTYLE
  5
38
102
{ACAD_REACTORS
330
2A
102
}
330
2A
100
AcDbVisualStyle
  2
Linepattern
 70
    14
 71
     2
 72
     2
 73
     0
 90
        0
 40
-0.6
 41
-30.0
 62
     5
 63
     7
 74
     1
 91
        4
 64
     7
 65
   257
 75
     7
175
     7
 42
1.0
 92
        8
 66
     7
 43
1.0
 76
     1
 77
     6
 78
     2
 67
     7
 79
     5
170
     0
171
     0
290
     0
174
     0
 93
        1
 44
0.0
173
     0
291
     1
 45
0.0
1001
ACAD
1000
AcDbSavedByObjectVersion
1070
     0
  0
VISUALSTYLE
  5
33
102
{ACAD_REACTORS
330
2A
102
}
330
2A
100
AcDbVisualStyle
  2
Realistic
 70
     8
 71
     2
 72
     2
 73
     0
 90
        0
 40
-0.6
 41
-30.0
 62
     5
 63
     7
 74
     1
 91
        0
 64
     7
 65
   257
 75
     1
175
     1
 42
1.0
 92
        8
 66
     8
 43
1.0
 76
     1
 77
     6
 78
     2
 67
     7
 79
     5
170
     0
171
     0
290
     0
174
     0
 93
       13
 44
0.0
173
     0
291
     0
 45
0.0
1001
ACAD
1000
AcDbSavedByObjectVersion
1070
     0
  0
VISUALSTYLE
  5
37
102
{ACAD_REACTORS
330
2A
102
}
330
2A
100
AcDbVisualStyle
  2
Thicken
 70
    13
 71
     2
 72
     2
 73
     0
 90
        0
 40
-0.6
 41
-30.0
 62
     5
 63
     7
 74
     1
 91
        4
 64
     7
 65
   257
 75
     1
175
     1
 42
1.0
 92
       12
 66
     7
 43
1.0
 76
     1
 77
     6
 78
     2
 67
     7
 79
     5
170
     0
171
     0
290
     0
174
     0
 93
        1
 44
0.0
173
     0
291
     1
 45
0.0
1001
ACAD
1000
AcDbSavedByObjectVersion
1070
     0
  0
DICTIONARYVAR
  5
2D3
102
{ACAD_REACTORS
330
2D2
102
}
330
2D2
100
DictionaryVariables
280
     0
  1
1:1
  0
DICTIONARYVAR
  5
2D7
102
{ACAD_REACTORS
330
2D2
102
}
330
2D2
100
DictionaryVariables
280
     0
  1
80.000000
  0
DICTIONARYVAR
  5
2D6
102
{ACAD_REACTORS
330
2D2
102
}
330
2D2
100
DictionaryVariables
280
     0
  1
5.000000
  0
ENDSEC
  0
EOF
