  0
SECTION
  2
HEADER
  9
$ACADVER
  1
AC1015
  9
$ACADMAINTVER
 70
     6
  9
$DWGCODEPAGE
  3
ANSI_1252
  9
$INSBASE
 10
0.0
 20
0.0
 30
0.0
  9
$EXTMIN
 10
0.0
 20
0.0
 30
0.0
  9
$EXTMAX
 10
1682.0
 20
2378.0
 30
0.0
  9
$LIMMIN
 10
0.0
 20
0.0
  9
$LIMMAX
 10
1682.0
 20
2378.0
  9
$ORTHOMODE
 70
     0
  9
$REGENMODE
 70
     1
  9
$FILLMODE
 70
     1
  9
$QTEXTMODE
 70
     0
  9
$MIRRTEXT
 70
     1
  9
$LTSCALE
 40
1.0
  9
$ATTMODE
 70
     1
  9
$TEXTSIZE
 40
2.5
  9
$TRACEWID
 40
1.0
  9
$TEXTSTYLE
  7
Standard
  9
$CLAYER
  8
0
  9
$CELTYPE
  6
ByLayer
  9
$CECOLOR
 62
   256
  9
$CELTSCALE
 40
1.0
  9
$DISPSILH
 70
     0
  9
$DIMSCALE
 40
1.0
  9
$DIMASZ
 40
2.5
  9
$DIMEXO
 40
0.625
  9
$DIMDLI
 40
3.75
  9
$DIMRND
 40
0.0
  9
$DIMDLE
 40
0.0
  9
$DIMEXE
 40
1.25
  9
$DIMTP
 40
0.0
  9
$DIMTM
 40
0.0
  9
$DIMTXT
 40
2.5
  9
$DIMCEN
 40
2.5
  9
$DIMTSZ
 40
0.0
  9
$DIMTOL
 70
     0
  9
$DIMLIM
 70
     0
  9
$DIMTIH
 70
     0
  9
$DIMTOH
 70
     0
  9
$DIMSE1
 70
     0
  9
$DIMSE2
 70
     0
  9
$DIMTAD
 70
     1
  9
$DIMZIN
 70
     8
  9
$DIMBLK
  1

  9
$DIMASO
 70
     1
  9
$DIMSHO
 70
     1
  9
$DIMPOST
  1

  9
$DIMAPOST
  1

  9
$DIMALT
 70
     0
  9
$DIMALTD
 70
     3
  9
$DIMALTF
 40
0.0393700787
  9
$DIMLFAC
 40
1.0
  9
$DIMTOFL
 70
     1
  9
$DIMTVP
 40
0.0
  9
$DIMTIX
 70
     0
  9
$DIMSOXD
 70
     0
  9
$DIMSAH
 70
     0
  9
$DIMBLK1
  1

  9
$DIMBLK2
  1

  9
$DIMSTYLE
  2
ISO-25
  9
$DIMCLRD
 70
     0
  9
$DIMCLRE
 70
     0
  9
$DIMCLRT
 70
     0
  9
$DIMTFAC
 40
1.0
  9
$DIMGAP
 40
0.625
  9
$DIMJUST
 70
     0
  9
$DIMSD1
 70
     0
  9
$DIMSD2
 70
     0
  9
$DIMTOLJ
 70
     0
  9
$DIMTZIN
 70
     8
  9
$DIMALTZ
 70
     0
  9
$DIMALTTZ
 70
     0
  9
$DIMUPT
 70
     0
  9
$DIMDEC
 70
     2
  9
$DIMTDEC
 70
     2
  9
$DIMALTU
 70
     2
  9
$DIMALTTD
 70
     3
  9
$DIMTXSTY
  7
Standard
  9
$DIMAUNIT
 70
     0
  9
$DIMADEC
 70
     0
  9
$DIMALTRND
 40
0.0
  9
$DIMAZIN
 70
     0
  9
$DIMDSEP
 70
    44
  9
$DIMATFIT
 70
     3
  9
$DIMFRAC
 70
     0
  9
$DIMLDRBLK
  1

  9
$DIMLUNIT
 70
     2
  9
$DIMLWD
 70
    -2
  9
$DIMLWE
 70
    -2
  9
$DIMTMOVE
 70
     0
  9
$LUNITS
 70
     2
  9
$LUPREC
 70
     4
  9
$SKETCHINC
 40
1.0
  9
$FILLETRAD
 40
10.0
  9
$AUNITS
 70
     0
  9
$AUPREC
 70
     0
  9
$MENU
  1
.
  9
$ELEVATION
 40
0.0
  9
$PELEVATION
 40
0.0
  9
$THICKNESS
 40
0.0
  9
$LIMCHECK
 70
     0
  9
$CHAMFERA
 40
10.0
  9
$CHAMFERB
 40
10.0
  9
$CHAMFERC
 40
20.0
  9
$CHAMFERD
 40
0.0
  9
$SKPOLY
 70
     0
  9
$TDCREATE
 40
2455497.607300104
  9
$TDUCREATE
 40
2455497.523966771
  9
$TDUPDATE
 40
2455497.607300116
  9
$TDUUPDATE
 40
2455497.523966782
  9
$TDINDWG
 40
0.0000000116
  9
$TDUSRTIMER
 40
0.0000000116
  9
$USRTIMER
 70
     1
  9
$ANGBASE
 50
0.0
  9
$ANGDIR
 70
     0
  9
$PDMODE
 70
     0
  9
$PDSIZE
 40
0.0
  9
$PLINEWID
 40
0.0
  9
$SPLFRAME
 70
     0
  9
$SPLINETYPE
 70
     6
  9
$SPLINESEGS
 70
     8
  9
$HANDSEED
  5
2D7
  9
$SURFTAB1
 70
     6
  9
$SURFTAB2
 70
     6
  9
$SURFTYPE
 70
     6
  9
$SURFU
 70
     6
  9
$SURFV
 70
     6
  9
$UCSBASE
  2

  9
$UCSNAME
  2

  9
$UCSORG
 10
0.0
 20
0.0
 30
0.0
  9
$UCSXDIR
 10
1.0
 20
0.0
 30
0.0
  9
$UCSYDIR
 10
0.0
 20
1.0
 30
0.0
  9
$UCSORTHOREF
  2

  9
$UCSORTHOVIEW
 70
     0
  9
$UCSORGTOP
 10
0.0
 20
0.0
 30
0.0
  9
$UCSORGBOTTOM
 10
0.0
 20
0.0
 30
0.0
  9
$UCSORGLEFT
 10
0.0
 20
0.0
 30
0.0
  9
$UCSORGRIGHT
 10
0.0
 20
0.0
 30
0.0
  9
$UCSORGFRONT
 10
0.0
 20
0.0
 30
0.0
  9
$UCSORGBACK
 10
0.0
 20
0.0
 30
0.0
  9
$PUCSBASE
  2

  9
$PUCSNAME
  2

  9
$PUCSORG
 10
0.0
 20
0.0
 30
0.0
  9
$PUCSXDIR
 10
1.0
 20
0.0
 30
0.0
  9
$PUCSYDIR
 10
0.0
 20
1.0
 30
0.0
  9
$PUCSORTHOREF
  2

  9
$PUCSORTHOVIEW
 70
     0
  9
$PUCSORGTOP
 10
0.0
 20
0.0
 30
0.0
  9
$PUCSORGBOTTOM
 10
0.0
 20
0.0
 30
0.0
  9
$PUCSORGLEFT
 10
0.0
 20
0.0
 30
0.0
  9
$PUCSORGRIGHT
 10
0.0
 20
0.0
 30
0.0
  9
$PUCSORGFRONT
 10
0.0
 20
0.0
 30
0.0
  9
$PUCSORGBACK
 10
0.0
 20
0.0
 30
0.0
  9
$USERI1
 70
     0
  9
$USERI2
 70
     0
  9
$USERI3
 70
     0
  9
$USERI4
 70
     0
  9
$USERI5
 70
     0
  9
$USERR1
 40
0.0
  9
$USERR2
 40
0.0
  9
$USERR3
 40
0.0
  9
$USERR4
 40
0.0
  9
$USERR5
 40
0.0
  9
$WORLDVIEW
 70
     1
  9
$SHADEDGE
 70
     3
  9
$SHADEDIF
 70
    70
  9
$TILEMODE
 70
     1
  9
$MAXACTVP
 70
    64
  9
$PINSBASE
 10
0.0
 20
0.0
 30
0.0
  9
$PLIMCHECK
 70
     0
  9
$PEXTMIN
 10
0.0
 20
0.0
 30
0.0
  9
$PEXTMAX
 10
1682.0
 20
2378.0
 30
0.0
  9
$PLIMMIN
 10
0.0
 20
0.0
  9
$PLIMMAX
 10
1682.0
 20
2378.0
  9
$UNITMODE
 70
     0
  9
$VISRETAIN
 70
     1
  9
$PLINEGEN
 70
     0
  9
$PSLTSCALE
 70
     1
  9
$TREEDEPTH
 70
  3020
  9
$CMLSTYLE
  2
Standard
  9
$CMLJUST
 70
     0
  9
$CMLSCALE
 40
20.0
  9
$PROXYGRAPHICS
 70
     1
  9
$MEASUREMENT
 70
     1
  9
$CELWEIGHT
370
    -1
  9
$ENDCAPS
280
     0
  9
$JOINSTYLE
280
     0
  9
$LWDISPLAY
290
     0
  9
$INSUNITS
 70
     4
  9
$HYPERLINKBASE
  1

  9
$STYLESHEET
  1

  9
$XEDIT
290
     1
  9
$CEPSNTYPE
380
     0
  9
$PSTYLEMODE
290
     1
  9
$FINGERPRINTGUID
  2
{C022519E-7266-417C-8B5E-807738DCEC21}
  9
$VERSIONGUID
  2
{FAEB1C32-E019-11D5-929B-00C0DF256EC4}
  9
$EXTNAMES
290
     1
  9
$PSVPSCALE
 40
0.0
  9
$OLESTARTUP
290
     0
  0
ENDSEC
  0
SECTION
  2
CLASSES
  0
CLASS
  1
ACDBDICTIONARYWDFLT
  2
AcDbDictionaryWithDefault
  3
ObjectDBX Classes
 90
        0
280
     0
281
     0
  0
CLASS
  1
VISUALSTYLE
  2
AcDbVisualStyle
  3
ObjectDBX Classes
 90
     4095
280
     0
281
     0
  0
CLASS
  1
SCALE
  2
AcDbScale
  3
ObjectDBX Classes
 90
     1153
280
     0
281
     0
  0
CLASS
  1
DICTIONARYVAR
  2
AcDbDictionaryVar
  3
ObjectDBX Classes
 90
        0
280
     0
281
     0
  0
CLASS
  1
ACDBPLACEHOLDER
  2
AcDbPlaceHolder
  3
ObjectDBX Classes
 90
        0
280
     0
281
     0
  0
CLASS
  1
LAYOUT
  2
AcDbLayout
  3
ObjectDBX Classes
 90
        0
280
     0
281
     0
  0
ENDSEC
  0
SECTION
  2
TABLES
  0
TABLE
  2
VPORT
  5
8
330
0
100
AcDbSymbolTable
 70
     1
  0
VPORT
  5
29
330
8
100
AcDbSymbolTableRecord
100
AcDbViewportTableRecord
  2
*Active
 70
     0
 10
0.0
 20
0.0
 11
1.0
 21
1.0
 12
344.1869158879
 22
148.5
 13
0.0
 23
0.0
 14
10.0
 24
10.0
 15
10.0
 25
10.0
 16
0.0
 26
0.0
 36
1.0
 17
0.0
 27
0.0
 37
0.0
 40
297.0
 41
1.9729729729
 42
50.0
 43
0.0
 44
0.0
 50
0.0
 51
0.0
 71
     0
 72
   100
 73
     1
 74
     3
 75
     0
 76
     0
 77
     0
 78
     0
281
     0
 65
     1
110
0.0
120
0.0
130
0.0
111
1.0
121
0.0
131
0.0
112
0.0
122
1.0
132
0.0
 79
     0
146
0.0
  0
ENDTAB
  0
TABLE
  2
LTYPE
  5
5
330
0
100
AcDbSymbolTable
 70
     2
  0
LTYPE
  5
14
330
5
100
AcDbSymbolTableRecord
100
AcDbLinetypeTableRecord
  2
ByBlock
 70
     0
  3

 72
    65
 73
     0
 40
0.0
  0
LTYPE
  5
15
330
5
100
AcDbSymbolTableRecord
100
AcDbLinetypeTableRecord
  2
ByLayer
 70
     0
  3

 72
    65
 73
     0
 40
0.0
  0
LTYPE
  5
16
330
5
100
AcDbSymbolTableRecord
100
AcDbLinetypeTableRecord
  2
Continuous
 70
     0
  3
Solid line
 72
    65
 73
     0
 40
0.0
  0
LTYPE
  5
60
330
5
100
AcDbSymbolTableRecord
100
AcDbLinetypeTableRecord
  2
CENTER2
 70
     0
  3
Center (.5x) ___ _ ___ _ ___ _ ___ _ ___ _ ___
 72
    65
 73
     4
 40
28.575
 49
19.05
 74
     4
 75
     0
340
0
 46
0.0
 50
0.0
 44
0.0
 45
0.0
 49
-3.175
 74
     4
 75
     0
340
0
 46
0.0
 50
0.0
 44
0.0
 45
0.0
 49
3.175
 74
     4
 75
     0
340
0
 46
0.0
 50
0.0
 44
0.0
 45
0.0
 49
-3.175
 74
     4
 75
     0
340
0
 46
0.0
 50
0.0
 44
0.0
 45
0.0
  0
ENDTAB
  0
TABLE
  2
LAYER
  5
2
330
0
100
AcDbSymbolTable
 70
    10
  0
LAYER
  5
10
330
2
100
AcDbSymbolTableRecord
100
AcDbLayerTableRecord
  2
0
 70
     0
 62
     7
  6
Continuous
370
    -3
390
F
  0
LAYER
  5
5D
330
2
100
AcDbSymbolTableRecord
100
AcDbLayerTableRecord
  2
Default
 70
     0
 62
     7
  6
Continuous
370
    -3
390
F
  0
LAYER
  5
9B
330
2
100
AcDbSymbolTableRecord
100
AcDbLayerTableRecord
  2
$DDT_AUDIT_GENERATED_(9B)
 70
     0
 62
     7
  6
Continuous
370
    -3
390
F
  0
LAYER
  5
A0
330
2
100
AcDbSymbolTableRecord
100
AcDbLayerTableRecord
  2
$DDT_AUDIT_GENERATED_(A0)
 70
     0
 62
     7
  6
Continuous
370
    -3
390
F
  0
LAYER
  5
C5
330
2
100
AcDbSymbolTableRecord
100
AcDbLayerTableRecord
  2
08137138_HUELSE_
 70
     0
 62
     7
  6
Continuous
370
    -3
390
F
  0
LAYER
  5
D6
330
2
100
AcDbSymbolTableRecord
100
AcDbLayerTableRecord
  2
08480038_ROSETTE
 70
     0
 62
     7
  6
Continuous
370
    -3
390
F
  0
LAYER
  5
E7
330
2
100
AcDbSymbolTableRecord
100
AcDbLayerTableRecord
  2
11877038_AUSL_WD
 70
     0
 62
     7
  6
Continuous
370
    -3
390
F
  0
LAYER
  5
106
330
2
100
AcDbSymbolTableRecord
100
AcDbLayerTableRecord
  2
$DDT_AUDIT_GENERATED_(106)
 70
     0
 62
     7
  6
Continuous
370
    -3
390
F
  0
LAYER
  5
111
330
2
100
AcDbSymbolTableRecord
100
AcDbLayerTableRecord
  2
$DDT_AUDIT_GENERATED_(111)
 70
     0
 62
     7
  6
Continuous
370
    -3
390
F
  0
LAYER
  5
1ED
330
2
100
AcDbSymbolTableRecord
100
AcDbLayerTableRecord
  2
$DDT_AUDIT_GENERATED_(1ED)
 70
     0
 62
     7
  6
Continuous
370
    -3
390
F
  0
ENDTAB
  0
TABLE
  2
STYLE
  5
3
330
0
100
AcDbSymbolTable
 70
     2
  0
STYLE
  5
11
330
3
100
AcDbSymbolTableRecord
100
AcDbTextStyleTableRecord
  2
Standard
 70
     0
 40
0.0
 41
1.0
 50
0.0
 71
     0
 42
2.5
  3
txt
  4

  0
STYLE
  5
2C6
330
3
100
AcDbSymbolTableRecord
100
AcDbTextStyleTableRecord
  2
SEACAD_seiso_ttf
 70
     0
 40
0.0
 41
1.0
 50
0.0
 71
     0
 42
0.2
  3
seiso.ttf
  4

  0
ENDTAB
  0
TABLE
  2
VIEW
  5
6
330
0
100
AcDbSymbolTable
 70
     0
  0
ENDTAB
  0
TABLE
  2
UCS
  5
7
330
0
100
AcDbSymbolTable
 70
     0
  0
ENDTAB
  0
TABLE
  2
APPID
  5
9
330
0
100
AcDbSymbolTable
 70
     1
  0
APPID
  5
12
330
9
100
AcDbSymbolTableRecord
100
AcDbRegAppTableRecord
  2
ACAD
 70
     0
  0
ENDTAB
  0
TABLE
  2
DIMSTYLE
  5
A
330
0
100
AcDbSymbolTable
 70
     1
100
AcDbDimStyleTable
  0
DIMSTYLE
105
27
330
A
100
AcDbSymbolTableRecord
100
AcDbDimStyleTableRecord
  2
ISO-25
 70
     0
 41
2.5
 42
0.625
 43
3.75
 44
1.25
 73
     0
 74
     0
 77
     1
 78
     8
140
2.5
141
2.5
143
0.0393700787
147
0.625
171
     3
172
     1
271
     2
272
     2
274
     3
278
    44
283
     0
284
     8
340
11
  0
ENDTAB
  0
TABLE
  2
BLOCK_RECORD
  5
1
330
0
100
AcDbSymbolTable
 70
    11
  0
BLOCK_RECORD
  5
1F
330
1
100
AcDbSymbolTableRecord
100
AcDbBlockTableRecord
  2
*Model_Space
340
22
  0
BLOCK_RECORD
  5
1B
330
1
100
AcDbSymbolTableRecord
100
AcDbBlockTableRecord
  2
*Paper_Space
340
1E
  0
BLOCK_RECORD
  5
5E
330
1
100
AcDbSymbolTableRecord
100
AcDbBlockTableRecord
  2
SEANNOT_GROUP
340
0
102
{BLKREFS
331
5F
102
}
  0
BLOCK_RECORD
  5
69
330
1
100
AcDbSymbolTableRecord
100
AcDbBlockTableRecord
  2
SEANNOT_GROUP1
340
0
102
{BLKREFS
331
6A
102
}
  0
BLOCK_RECORD
  5
73
330
1
100
AcDbSymbolTableRecord
100
AcDbBlockTableRecord
  2
SEANNOT_GROUP2
340
0
102
{BLKREFS
331
74
102
}
  0
BLOCK_RECORD
  5
7D
330
1
100
AcDbSymbolTableRecord
100
AcDbBlockTableRecord
  2
SEANNOT_GROUP3
340
0
102
{BLKREFS
331
7E
102
}
  0
BLOCK_RECORD
  5
83
330
1
100
AcDbSymbolTableRecord
100
AcDbBlockTableRecord
  2
SEANNOT_GROUP4
340
0
102
{BLKREFS
331
84
102
}
  0
BLOCK_RECORD
  5
89
330
1
100
AcDbSymbolTableRecord
100
AcDbBlockTableRecord
  2
SEANNOT_GROUP5
340
0
102
{BLKREFS
331
8A
102
}
  0
BLOCK_RECORD
  5
93
330
1
100
AcDbSymbolTableRecord
100
AcDbBlockTableRecord
  2
SEANNOT_GROUP6
340
0
102
{BLKREFS
331
94
102
}
  0
BLOCK_RECORD
  5
99
330
1
100
AcDbSymbolTableRecord
100
AcDbBlockTableRecord
  2
SE
340
0
102
{BLKREFS
331
9A
102
}
  0
BLOCK_RECORD
  5
1D0
330
1
100
AcDbSymbolTableRecord
100
AcDbBlockTableRecord
  2
SE1
340
0
102
{BLKREFS
331
1D1
102
}
  0
BLOCK_RECORD
  5
231
330
1
100
AcDbSymbolTableRecord
100
AcDbBlockTableRecord
  2
SE2
340
0
102
{BLKREFS
331
232
102
}
  0
ENDTAB
  0
ENDSEC
  0
SECTION
  2
BLOCKS
  0
BLOCK
  5
20
330
1F
100
AcDbEntity
  8
0
100
AcDbBlockBegin
  2
*Model_Space
 70
     0
 10
0.0
 20
0.0
 30
0.0
  3
*Model_Space
  1

  0
ENDBLK
  5
21
330
1F
100
AcDbEntity
  8
0
100
AcDbBlockEnd
  0
BLOCK
  5
1C
330
1B
100
AcDbEntity
 67
     1
  8
0
100
AcDbBlockBegin
  2
*Paper_Space
 70
     0
 10
0.0
 20
0.0
 30
0.0
  3
*Paper_Space
  1

  0
ENDBLK
  5
1D
330
1B
100
AcDbEntity
 67
     1
  8
0
100
AcDbBlockEnd
  0
BLOCK
  5
67
330
5E
100
AcDbEntity
  8
0
100
AcDbBlockBegin
  2
SEANNOT_GROUP
 70
     0
 10
0.0
 20
0.0
 30
0.0
  3
SEANNOT_GROUP
  1

  0
LINE
  5
61
330
5E
100
AcDbEntity
  8
Default
  6
CENTER2
 62
     7
100
AcDbLine
 10
127.5656374278
 20
474.1064510602
 30
0.0
 11
87.5656383219
 21
474.1064510602
 31
0.0
  0
LINE
  5
62
330
5E
100
AcDbEntity
  8
Default
  6
CENTER2
 62
     7
100
AcDbLine
 10
107.5656378748
 20
494.1064506132
 30
0.0
 11
107.5656378748
 21
454.1064515073
 31
0.0
  0
LINE
  5
63
330
5E
100
AcDbEntity
  8
Default
  6
CENTER2
 62
     7
100
AcDbLine
 10
132.565637316
 20
474.1064510602
 30
0.0
 11
138.5656378748
 21
474.1064510602
 31
0.0
  0
LINE
  5
64
330
5E
100
AcDbEntity
  8
Default
  6
CENTER2
 62
     7
100
AcDbLine
 10
107.5656378748
 20
499.1064505015
 30
0.0
 11
107.5656378748
 21
505.1064510602
 31
0.0
  0
LINE
  5
65
330
5E
100
AcDbEntity
  8
Default
  6
CENTER2
 62
     7
100
AcDbLine
 10
82.5656384336
 20
474.1064510602
 30
0.0
 11
76.5656378748
 21
474.1064510602
 31
0.0
  0
LINE
  5
66
330
5E
100
AcDbEntity
  8
Default
  6
CENTER2
 62
     7
100
AcDbLine
 10
107.5656378748
 20
449.106451619
 30
0.0
 11
107.5656378748
 21
443.1064510602
 31
0.0
  0
ENDBLK
  5
68
330
5E
100
AcDbEntity
  8
0
100
AcDbBlockEnd
  0
BLOCK
  5
71
330
69
100
AcDbEntity
  8
0
100
AcDbBlockBegin
  2
SEANNOT_GROUP1
 70
     0
 10
0.0
 20
0.0
 30
0.0
  3
SEANNOT_GROUP1
  1

  0
LINE
  5
6B
330
69
100
AcDbEntity
  8
Default
  6
CENTER2
 62
     7
100
AcDbLine
 10
227.5656374278
 20
474.1034339759
 30
0.0
 11
187.5656383219
 21
474.1034339759
 31
0.0
  0
LINE
  5
6C
330
69
100
AcDbEntity
  8
Default
  6
CENTER2
 62
     7
100
AcDbLine
 10
207.5656378748
 20
494.1034335288
 30
0.0
 11
207.5656378748
 21
454.1034344229
 31
0.0
  0
LINE
  5
6D
330
69
100
AcDbEntity
  8
Default
  6
CENTER2
 62
     7
100
AcDbLine
 10
232.565637316
 20
474.1034339759
 30
0.0
 11
238.5656378429
 21
474.1034339759
 31
0.0
  0
LINE
  5
6E
330
69
100
AcDbEntity
  8
Default
  6
CENTER2
 62
     7
100
AcDbLine
 10
207.5656378748
 20
499.1034334171
 30
0.0
 11
207.5656378748
 21
505.1034339439
 31
0.0
  0
LINE
  5
6F
330
69
100
AcDbEntity
  8
Default
  6
CENTER2
 62
     7
100
AcDbLine
 10
182.5656384336
 20
474.1034339759
 30
0.0
 11
176.5656379068
 21
474.1034339759
 31
0.0
  0
LINE
  5
70
330
69
100
AcDbEntity
  8
Default
  6
CENTER2
 62
     7
100
AcDbLine
 10
207.5656378748
 20
449.1034345347
 30
0.0
 11
207.5656378748
 21
443.1034340078
 31
0.0
  0
ENDBLK
  5
72
330
69
100
AcDbEntity
  8
0
100
AcDbBlockEnd
  0
BLOCK
  5
7B
330
73
100
AcDbEntity
  8
0
100
AcDbBlockBegin
  2
SEANNOT_GROUP2
 70
     0
 10
0.0
 20
0.0
 30
0.0
  3
SEANNOT_GROUP2
  1

  0
LINE
  5
75
330
73
100
AcDbEntity
  8
Default
  6
CENTER2
 62
     7
100
AcDbLine
 10
327.5656374278
 20
474.1064510602
 30
0.0
 11
287.5656383219
 21
474.1064510602
 31
0.0
  0
LINE
  5
76
330
73
100
AcDbEntity
  8
Default
  6
CENTER2
 62
     7
100
AcDbLine
 10
307.5656378748
 20
494.1064506132
 30
0.0
 11
307.5656378748
 21
454.1064515073
 31
0.0
  0
LINE
  5
77
330
73
100
AcDbEntity
  8
Default
  6
CENTER2
 62
     7
100
AcDbLine
 10
332.565637316
 20
474.1064510602
 30
0.0
 11
338.5656378748
 21
474.1064510602
 31
0.0
  0
LINE
  5
78
330
73
100
AcDbEntity
  8
Default
  6
CENTER2
 62
     7
100
AcDbLine
 10
307.5656378748
 20
499.1064505015
 30
0.0
 11
307.5656378748
 21
505.1064510602
 31
0.0
  0
LINE
  5
79
330
73
100
AcDbEntity
  8
Default
  6
CENTER2
 62
     7
100
AcDbLine
 10
282.5656384336
 20
474.1064510602
 30
0.0
 11
276.5656378748
 21
474.1064510602
 31
0.0
  0
LINE
  5
7A
330
73
100
AcDbEntity
  8
Default
  6
CENTER2
 62
     7
100
AcDbLine
 10
307.5656378748
 20
449.106451619
 30
0.0
 11
307.5656378748
 21
443.1064510602
 31
0.0
  0
ENDBLK
  5
7C
330
73
100
AcDbEntity
  8
0
100
AcDbBlockEnd
  0
BLOCK
  5
81
330
7D
100
AcDbEntity
  8
0
100
AcDbBlockBegin
  2
SEANNOT_GROUP3
 70
     0
 10
0.0
 20
0.0
 30
0.0
  3
SEANNOT_GROUP3
  1

  0
LINE
  5
7F
330
7D
100
AcDbEntity
  8
Default
  6
CENTER2
 62
     7
100
AcDbLine
 10
542.0580498577
 20
474.1064510602
 30
0.0
 11
502.0580507518
 21
474.1064510602
 31
0.0
  0
LINE
  5
80
330
7D
100
AcDbEntity
  8
Default
  6
CENTER2
 62
     7
100
AcDbLine
 10
522.0580503048
 20
494.1064506132
 30
0.0
 11
522.0580503048
 21
454.1064515073
 31
0.0
  0
ENDBLK
  5
82
330
7D
100
AcDbEntity
  8
0
100
AcDbBlockEnd
  0
BLOCK
  5
87
330
83
100
AcDbEntity
  8
0
100
AcDbBlockBegin
  2
SEANNOT_GROUP4
 70
     0
 10
0.0
 20
0.0
 30
0.0
  3
SEANNOT_GROUP4
  1

  0
LINE
  5
85
330
83
100
AcDbEntity
  8
Default
  6
CENTER2
 62
     7
100
AcDbLine
 10
127.5656374278
 20
257.1047542412
 30
0.0
 11
87.5656383219
 21
257.1047542412
 31
0.0
  0
LINE
  5
86
330
83
100
AcDbEntity
  8
Default
  6
CENTER2
 62
     7
100
AcDbLine
 10
107.5656378748
 20
277.1047537942
 30
0.0
 11
107.5656378748
 21
237.1047546882
 31
0.0
  0
ENDBLK
  5
88
330
83
100
AcDbEntity
  8
0
100
AcDbBlockEnd
  0
BLOCK
  5
91
330
89
100
AcDbEntity
  8
0
100
AcDbBlockBegin
  2
SEANNOT_GROUP5
 70
     0
 10
0.0
 20
0.0
 30
0.0
  3
SEANNOT_GROUP5
  1

  0
LINE
  5
8B
330
89
100
AcDbEntity
  8
Default
  6
CENTER2
 62
     7
100
AcDbLine
 10
227.5656374278
 20
257.1076495338
 30
0.0
 11
187.5656383219
 21
257.1076495338
 31
0.0
  0
LINE
  5
8C
330
89
100
AcDbEntity
  8
Default
  6
CENTER2
 62
     7
100
AcDbLine
 10
207.5656378748
 20
277.1076490868
 30
0.0
 11
207.5656378748
 21
237.1076499808
 31
0.0
  0
LINE
  5
8D
330
89
100
AcDbEntity
  8
Default
  6
CENTER2
 62
     7
100
AcDbLine
 10
232.565637316
 20
257.1076495338
 30
0.0
 11
238.5656378748
 21
257.1076495338
 31
0.0
  0
LINE
  5
8E
330
89
100
AcDbEntity
  8
Default
  6
CENTER2
 62
     7
100
AcDbLine
 10
207.5656378748
 20
282.107648975
 30
0.0
 11
207.5656378748
 21
260.6085870428
 31
0.0
  0
LINE
  5
8F
330
89
100
AcDbEntity
  8
Default
  6
CENTER2
 62
     7
100
AcDbLine
 10
182.5656384336
 20
257.1076495338
 30
0.0
 11
176.5656378748
 21
257.1076495338
 31
0.0
  0
LINE
  5
90
330
89
100
AcDbEntity
  8
Default
  6
CENTER2
 62
     7
100
AcDbLine
 10
207.5656378748
 20
232.1076500926
 30
0.0
 11
207.5656378748
 21
253.6067120248
 31
0.0
  0
ENDBLK
  5
92
330
89
100
AcDbEntity
  8
0
100
AcDbBlockEnd
  0
BLOCK
  5
97
330
93
100
AcDbEntity
  8
0
100
AcDbBlockBegin
  2
SEANNOT_GROUP6
 70
     0
 10
0.0
 20
0.0
 30
0.0
  3
SEANNOT_GROUP6
  1

  0
LINE
  5
95
330
93
100
AcDbEntity
  8
Default
  6
CENTER2
 62
     7
100
AcDbLine
 10
327.5656374278
 20
257.1047542412
 30
0.0
 11
287.5656383219
 21
257.1047542412
 31
0.0
  0
LINE
  5
96
330
93
100
AcDbEntity
  8
Default
  6
CENTER2
 62
     7
100
AcDbLine
 10
307.5656378748
 20
277.1047537942
 30
0.0
 11
307.5656378748
 21
237.1047546882
 31
0.0
  0
ENDBLK
  5
98
330
93
100
AcDbEntity
  8
0
100
AcDbBlockEnd
  0
BLOCK
  5
1CE
330
99
100
AcDbEntity
  8
0
100
AcDbBlockBegin
  2
SE
 70
     0
 10
0.0
 20
0.0
 30
0.0
  3
SE
  1

  0
ARC
  5
9C
330
99
100
AcDbEntity
  8
$DDT_AUDIT_GENERATED_(9B)
  6
Continuous
 62
     7
100
AcDbCircle
 10
307.5656378748
 20
474.1064510602
 30
0.0
 40
14.85
100
AcDbArc
 50
353.8310078895
 51
0.0
  0
ARC
  5
9D
330
99
100
AcDbEntity
  8
$DDT_AUDIT_GENERATED_(9B)
  6
Continuous
 62
     7
100
AcDbCircle
 10
307.5656378748
 20
474.1064510602
 30
0.0
 40
14.85
100
AcDbArc
 50
233.8310078895
 51
306.1689921105
  0
ARC
  5
9E
330
99
100
AcDbEntity
  8
$DDT_AUDIT_GENERATED_(9B)
  6
Continuous
 62
     7
100
AcDbCircle
 10
307.5656378748
 20
474.1064510602
 30
0.0
 40
14.85
100
AcDbArc
 50
113.8310078895
 51
186.1689921105
  0
ARC
  5
9F
330
99
100
AcDbEntity
  8
$DDT_AUDIT_GENERATED_(9B)
  6
Continuous
 62
     7
100
AcDbCircle
 10
307.5656378748
 20
474.1064510602
 30
0.0
 40
14.85
100
AcDbArc
 50
0.0
 51
66.1689921105
  0
CIRCLE
  5
A1
330
99
100
AcDbEntity
  8
$DDT_AUDIT_GENERATED_(A0)
  6
Continuous
 62
     7
100
AcDbCircle
 10
307.5656378748
 20
474.1064510602
 30
0.0
 40
9.75
  0
LINE
  5
A2
330
99
100
AcDbEntity
  8
$DDT_AUDIT_GENERATED_(A0)
  6
Continuous
 62
     7
100
AcDbLine
 10
313.0656378748
 20
511.6064510602
 30
0.0
 11
302.0656378748
 21
511.6064510602
 31
0.0
  0
LINE
  5
A3
330
99
100
AcDbEntity
  8
$DDT_AUDIT_GENERATED_(A0)
  6
Continuous
 62
     7
100
AcDbLine
 10
272.3396852329
 20
460.1195907811
 30
0.0
 11
277.8396852329
 21
450.5933113394
 31
0.0
  0
LINE
  5
A4
330
99
100
AcDbEntity
  8
$DDT_AUDIT_GENERATED_(A0)
  6
Continuous
 62
     7
100
AcDbLine
 10
337.2915905168
 20
450.5933113394
 30
0.0
 11
342.7915905168
 21
460.1195907811
 31
0.0
  0
LINE
  5
A5
330
99
100
AcDbEntity
  8
$DDT_AUDIT_GENERATED_(A0)
  6
Continuous
 62
     7
100
AcDbLine
 10
342.6085778149
 20
460.802603483
 30
0.0
 11
317.2212276308
 21
475.4599969457
 31
0.0
  0
LINE
  5
A6
330
99
100
AcDbEntity
  8
$DDT_AUDIT_GENERATED_(A0)
  6
Continuous
 62
     7
100
AcDbLine
 10
311.2249676579
 20
465.0655327947
 30
0.0
 11
336.6085778149
 21
450.4102986375
 31
0.0
  0
LINE
  5
A7
330
99
100
AcDbEntity
  8
$DDT_AUDIT_GENERATED_(A0)
  6
Continuous
 62
     7
100
AcDbLine
 10
278.5226979348
 20
450.4102986375
 30
0.0
 11
303.9100481188
 21
465.0676921003
 31
0.0
  0
LINE
  5
A8
330
99
100
AcDbEntity
  8
$DDT_AUDIT_GENERATED_(A0)
  6
Continuous
 62
     7
100
AcDbLine
 10
297.9063080918
 20
475.4578376401
 30
0.0
 11
272.5226979348
 21
460.802603483
 31
0.0
  0
LINE
  5
A9
330
99
100
AcDbEntity
  8
$DDT_AUDIT_GENERATED_(A0)
  6
Continuous
 62
     7
100
AcDbLine
 10
301.5656378748
 20
511.1064510602
 30
0.0
 11
301.5656378748
 21
481.7916641347
 31
0.0
  0
LINE
  5
AA
330
99
100
AcDbEntity
  8
$DDT_AUDIT_GENERATED_(A0)
  6
Continuous
 62
     7
100
AcDbLine
 10
313.5656378748
 20
481.7959827459
 30
0.0
 11
313.5656378748
 21
511.1064510602
 31
0.0
  0
ARC
  5
AB
330
99
100
AcDbEntity
  8
$DDT_AUDIT_GENERATED_(A0)
  6
Continuous
 62
     7
100
AcDbCircle
 10
313.0656378748
 20
511.1064510602
 30
0.0
 40
0.5000000000000004
100
AcDbArc
 50
0.0
 51
90.0
  0
ARC
  5
AC
330
99
100
AcDbEntity
  8
$DDT_AUDIT_GENERATED_(A0)
  6
Continuous
 62
     7
100
AcDbCircle
 10
302.0656378748
 20
511.1064510602
 30
0.0
 40
0.4999999999999935
100
AcDbArc
 50
90.0
 51
180.0
  0
ARC
  5
AD
330
99
100
AcDbEntity
  8
$DDT_AUDIT_GENERATED_(A0)
  6
Continuous
 62
     7
100
AcDbCircle
 10
272.7726979348
 20
460.3695907811
 30
0.0
 40
0.4999999999999966
100
AcDbArc
 50
120.0
 51
210.0
  0
ARC
  5
AE
330
99
100
AcDbEntity
  8
$DDT_AUDIT_GENERATED_(A0)
  6
Continuous
 62
     7
100
AcDbCircle
 10
278.2726979348
 20
450.8433113394
 30
0.0
 40
0.5000000000000036
100
AcDbArc
 50
210.0
 51
300.0
  0
ARC
  5
AF
330
99
100
AcDbEntity
  8
$DDT_AUDIT_GENERATED_(A0)
  6
Continuous
 62
     7
100
AcDbCircle
 10
342.3585778149
 20
460.3695907811
 30
0.0
 40
0.500000000000002
100
AcDbArc
 50
330.0
 51
60.0
  0
ARC
  5
B0
330
99
100
AcDbEntity
  8
$DDT_AUDIT_GENERATED_(A0)
  6
Continuous
 62
     7
100
AcDbCircle
 10
336.8585778149
 20
450.8433113394
 30
0.0
 40
0.4999999999999989
100
AcDbArc
 50
240.0
 51
330.0
  0
ARC
  5
B1
330
99
100
AcDbEntity
  8
$DDT_AUDIT_GENERATED_(9B)
  6
Continuous
 62
     7
100
AcDbCircle
 10
107.5656378748
 20
474.1064510602
 30
0.0
 40
14.85
100
AcDbArc
 50
353.8310078895
 51
0.0
  0
ARC
  5
B2
330
99
100
AcDbEntity
  8
$DDT_AUDIT_GENERATED_(9B)
  6
Continuous
 62
     7
100
AcDbCircle
 10
107.5656378748
 20
474.1064510602
 30
0.0
 40
14.85
100
AcDbArc
 50
233.8310078895
 51
306.1689921105
  0
ARC
  5
B3
330
99
100
AcDbEntity
  8
$DDT_AUDIT_GENERATED_(9B)
  6
Continuous
 62
     7
100
AcDbCircle
 10
107.5656378748
 20
474.1064510602
 30
0.0
 40
14.85
100
AcDbArc
 50
113.8310078895
 51
186.1689921105
  0
ARC
  5
B4
330
99
100
AcDbEntity
  8
$DDT_AUDIT_GENERATED_(9B)
  6
Continuous
 62
     7
100
AcDbCircle
 10
107.5656378748
 20
474.1064510602
 30
0.0
 40
14.85
100
AcDbArc
 50
0.0
 51
66.1689921105
  0
CIRCLE
  5
B5
330
99
100
AcDbEntity
  8
$DDT_AUDIT_GENERATED_(A0)
  6
Continuous
 62
     7
100
AcDbCircle
 10
107.5656378748
 20
474.1064510602
 30
0.0
 40
9.75
  0
LINE
  5
B6
330
99
100
AcDbEntity
  8
$DDT_AUDIT_GENERATED_(A0)
  6
Continuous
 62
     7
100
AcDbLine
 10
113.0656378748
 20
511.6064510602
 30
0.0
 11
102.0656378748
 21
511.6064510602
 31
0.0
  0
LINE
  5
B7
330
99
100
AcDbEntity
  8
$DDT_AUDIT_GENERATED_(A0)
  6
Continuous
 62
     7
100
AcDbLine
 10
72.3396852329
 20
460.1195907811
 30
0.0
 11
77.8396852329
 21
450.5933113394
 31
0.0
  0
LINE
  5
B8
330
99
100
AcDbEntity
  8
$DDT_AUDIT_GENERATED_(A0)
  6
Continuous
 62
     7
100
AcDbLine
 10
137.2915905168
 20
450.5933113394
 30
0.0
 11
142.7915905168
 21
460.1195907811
 31
0.0
  0
LINE
  5
B9
330
99
100
AcDbEntity
  8
$DDT_AUDIT_GENERATED_(A0)
  6
Continuous
 62
     7
100
AcDbLine
 10
142.6085778149
 20
460.802603483
 30
0.0
 11
117.2212276308
 21
475.4599969457
 31
0.0
  0
LINE
  5
BA
330
99
100
AcDbEntity
  8
$DDT_AUDIT_GENERATED_(A0)
  6
Continuous
 62
     7
100
AcDbLine
 10
111.2249676579
 20
465.0655327947
 30
0.0
 11
136.6085778149
 21
450.4102986375
 31
0.0
  0
LINE
  5
BB
330
99
100
AcDbEntity
  8
$DDT_AUDIT_GENERATED_(A0)
  6
Continuous
 62
     7
100
AcDbLine
 10
78.5226979348
 20
450.4102986375
 30
0.0
 11
103.9100481188
 21
465.0676921003
 31
0.0
  0
LINE
  5
BC
330
99
100
AcDbEntity
  8
$DDT_AUDIT_GENERATED_(A0)
  6
Continuous
 62
     7
100
AcDbLine
 10
97.9063080918
 20
475.4578376401
 30
0.0
 11
72.5226979348
 21
460.802603483
 31
0.0
  0
LINE
  5
BD
330
99
100
AcDbEntity
  8
$DDT_AUDIT_GENERATED_(A0)
  6
Continuous
 62
     7
100
AcDbLine
 10
101.5656378748
 20
511.1064510602
 30
0.0
 11
101.5656378748
 21
481.7916641347
 31
0.0
  0
LINE
  5
BE
330
99
100
AcDbEntity
  8
$DDT_AUDIT_GENERATED_(A0)
  6
Continuous
 62
     7
100
AcDbLine
 10
113.5656378748
 20
481.7959827459
 30
0.0
 11
113.5656378748
 21
511.1064510602
 31
0.0
  0
ARC
  5
BF
330
99
100
AcDbEntity
  8
$DDT_AUDIT_GENERATED_(A0)
  6
Continuous
 62
     7
100
AcDbCircle
 10
113.0656378748
 20
511.1064510602
 30
0.0
 40
0.5000000000000004
100
AcDbArc
 50
0.0
 51
90.0
  0
ARC
  5
C0
330
99
100
AcDbEntity
  8
$DDT_AUDIT_GENERATED_(A0)
  6
Continuous
 62
     7
100
AcDbCircle
 10
102.0656378748
 20
511.1064510602
 30
0.0
 40
0.5000000000000004
100
AcDbArc
 50
90.0
 51
180.0
  0
ARC
  5
C1
330
99
100
AcDbEntity
  8
$DDT_AUDIT_GENERATED_(A0)
  6
Continuous
 62
     7
100
AcDbCircle
 10
72.7726979348
 20
460.3695907811
 30
0.0
 40
0.5000000000000034
100
AcDbArc
 50
120.0
 51
210.0
  0
ARC
  5
C2
330
99
100
AcDbEntity
  8
$DDT_AUDIT_GENERATED_(A0)
  6
Continuous
 62
     7
100
AcDbCircle
 10
78.2726979348
 20
450.8433113394
 30
0.0
 40
0.500000000000002
100
AcDbArc
 50
210.0
 51
300.0
  0
ARC
  5
C3
330
99
100
AcDbEntity
  8
$DDT_AUDIT_GENERATED_(A0)
  6
Continuous
 62
     7
100
AcDbCircle
 10
142.3585778149
 20
460.3695907811
 30
0.0
 40
0.500000000000002
100
AcDbArc
 50
330.0
 51
60.0
  0
ARC
  5
C4
330
99
100
AcDbEntity
  8
$DDT_AUDIT_GENERATED_(A0)
  6
Continuous
 62
     7
100
AcDbCircle
 10
136.8585778149
 20
450.8433113394
 30
0.0
 40
0.4999999999999989
100
AcDbArc
 50
240.0
 51
330.0
  0
ARC
  5
C6
330
99
100
AcDbEntity
  8
08137138_HUELSE_
  6
Continuous
 62
     7
100
AcDbCircle
 10
307.5656378748
 20
474.1064510602
 30
0.0
 40
15.0
100
AcDbArc
 50
353.5781784782
 51
0.0
  0
ARC
  5
C7
330
99
100
AcDbEntity
  8
08137138_HUELSE_
  6
Continuous
 62
     7
100
AcDbCircle
 10
307.5656378748
 20
474.1064510602
 30
0.0
 40
15.0
100
AcDbArc
 50
233.5781784782
 51
306.4218215218
  0
ARC
  5
C8
330
99
100
AcDbEntity
  8
08137138_HUELSE_
  6
Continuous
 62
     7
100
AcDbCircle
 10
307.5656378748
 20
474.1064510602
 30
0.0
 40
15.0
100
AcDbArc
 50
113.5781784782
 51
186.4218215218
  0
ARC
  5
C9
330
99
100
AcDbEntity
  8
08137138_HUELSE_
  6
Continuous
 62
     7
100
AcDbCircle
 10
307.5656378748
 20
474.1064510602
 30
0.0
 40
15.0
100
AcDbArc
 50
0.0
 51
66.4218215218
  0
ARC
  5
CA
330
99
100
AcDbEntity
  8
08137138_HUELSE_
  6
Continuous
 62
     7
100
AcDbCircle
 10
307.5656378748
 20
474.1064510602
 30
0.0
 40
18.0
100
AcDbArc
 50
349.4712206345
 51
0.0
  0
ARC
  5
CB
330
99
100
AcDbEntity
  8
08137138_HUELSE_
  6
Continuous
 62
     7
100
AcDbCircle
 10
307.5656378748
 20
474.1064510602
 30
0.0
 40
18.0
100
AcDbArc
 50
229.4712206345
 51
310.5287793655
  0
ARC
  5
CC
330
99
100
AcDbEntity
  8
08137138_HUELSE_
  6
Continuous
 62
     7
100
AcDbCircle
 10
307.5656378748
 20
474.1064510602
 30
0.0
 40
18.0
100
AcDbArc
 50
109.4712206345
 51
190.5287793655
  0
ARC
  5
CD
330
99
100
AcDbEntity
  8
08137138_HUELSE_
  6
Continuous
 62
     7
100
AcDbCircle
 10
307.5656378748
 20
474.1064510602
 30
0.0
 40
18.0
100
AcDbArc
 50
0.0
 51
70.5287793655
  0
ARC
  5
CE
330
99
100
AcDbEntity
  8
08137138_HUELSE_
  6
Continuous
 62
     7
100
AcDbCircle
 10
107.5656378748
 20
474.1064510602
 30
0.0
 40
15.0
100
AcDbArc
 50
353.5781784782
 51
0.0
  0
ARC
  5
CF
330
99
100
AcDbEntity
  8
08137138_HUELSE_
  6
Continuous
 62
     7
100
AcDbCircle
 10
107.5656378748
 20
474.1064510602
 30
0.0
 40
15.0
100
AcDbArc
 50
233.5781784782
 51
306.4218215218
  0
ARC
  5
D0
330
99
100
AcDbEntity
  8
08137138_HUELSE_
  6
Continuous
 62
     7
100
AcDbCircle
 10
107.5656378748
 20
474.1064510602
 30
0.0
 40
15.0
100
AcDbArc
 50
113.5781784782
 51
186.4218215218
  0
ARC
  5
D1
330
99
100
AcDbEntity
  8
08137138_HUELSE_
  6
Continuous
 62
     7
100
AcDbCircle
 10
107.5656378748
 20
474.1064510602
 30
0.0
 40
15.0
100
AcDbArc
 50
0.0
 51
66.4218215218
  0
ARC
  5
D2
330
99
100
AcDbEntity
  8
08137138_HUELSE_
  6
Continuous
 62
     7
100
AcDbCircle
 10
107.5656378748
 20
474.1064510602
 30
0.0
 40
18.0
100
AcDbArc
 50
349.4712206345
 51
0.0
  0
ARC
  5
D3
330
99
100
AcDbEntity
  8
08137138_HUELSE_
  6
Continuous
 62
     7
100
AcDbCircle
 10
107.5656378748
 20
474.1064510602
 30
0.0
 40
18.0
100
AcDbArc
 50
229.4712206345
 51
310.5287793655
  0
ARC
  5
D4
330
99
100
AcDbEntity
  8
08137138_HUELSE_
  6
Continuous
 62
     7
100
AcDbCircle
 10
107.5656378748
 20
474.1064510602
 30
0.0
 40
18.0
100
AcDbArc
 50
109.4712206345
 51
190.5287793655
  0
ARC
  5
D5
330
99
100
AcDbEntity
  8
08137138_HUELSE_
  6
Continuous
 62
     7
100
AcDbCircle
 10
107.5656378748
 20
474.1064510602
 30
0.0
 40
18.0
100
AcDbArc
 50
0.0
 51
70.5287793655
  0
ARC
  5
D7
330
99
100
AcDbEntity
  8
08480038_ROSETTE
  6
Continuous
 62
     7
100
AcDbCircle
 10
307.5656378748
 20
474.1064510602
 30
0.0
 40
27.5
100
AcDbArc
 50
342.6022648415
 51
0.0
  0
ARC
  5
D8
330
99
100
AcDbEntity
  8
08480038_ROSETTE
  6
Continuous
 62
     7
100
AcDbCircle
 10
307.5656378748
 20
474.1064510602
 30
0.0
 40
27.5
100
AcDbArc
 50
222.6022648415
 51
317.3977351585
  0
ARC
  5
D9
330
99
100
AcDbEntity
  8
08480038_ROSETTE
  6
Continuous
 62
     7
100
AcDbCircle
 10
307.5656378748
 20
474.1064510602
 30
0.0
 40
27.5
100
AcDbArc
 50
102.6022648415
 51
197.3977351585
  0
ARC
  5
DA
330
99
100
AcDbEntity
  8
08480038_ROSETTE
  6
Continuous
 62
     7
100
AcDbCircle
 10
307.5656378748
 20
474.1064510602
 30
0.0
 40
27.5
100
AcDbArc
 50
0.0
 51
77.3977351585
  0
ARC
  5
DB
330
99
100
AcDbEntity
  8
08480038_ROSETTE
  6
Continuous
 62
     7
100
AcDbCircle
 10
307.5656378748
 20
474.1064510602
 30
0.0
 40
22.49999999999996
100
AcDbArc
 50
345.4660099534
 51
0.0
  0
ARC
  5
DC
330
99
100
AcDbEntity
  8
08480038_ROSETTE
  6
Continuous
 62
     7
100
AcDbCircle
 10
307.5656378748
 20
474.1064510602
 30
0.0
 40
22.49999999999996
100
AcDbArc
 50
225.4660099534
 51
314.5339900466
  0
ARC
  5
DD
330
99
100
AcDbEntity
  8
08480038_ROSETTE
  6
Continuous
 62
     7
100
AcDbCircle
 10
307.5656378748
 20
474.1064510602
 30
0.0
 40
22.49999999999996
100
AcDbArc
 50
105.4660099534
 51
194.5339900466
  0
ARC
  5
DE
330
99
100
AcDbEntity
  8
08480038_ROSETTE
  6
Continuous
 62
     7
100
AcDbCircle
 10
307.5656378748
 20
474.1064510602
 30
0.0
 40
22.49999999999996
100
AcDbArc
 50
0.0
 51
74.5339900466
  0
ARC
  5
DF
330
99
100
AcDbEntity
  8
08480038_ROSETTE
  6
Continuous
 62
     7
100
AcDbCircle
 10
107.5656378748
 20
474.1064510602
 30
0.0
 40
27.5
100
AcDbArc
 50
342.6022648415
 51
0.0
  0
ARC
  5
E0
330
99
100
AcDbEntity
  8
08480038_ROSETTE
  6
Continuous
 62
     7
100
AcDbCircle
 10
107.5656378748
 20
474.1064510602
 30
0.0
 40
27.5
100
AcDbArc
 50
222.6022648415
 51
317.3977351585
  0
ARC
  5
E1
330
99
100
AcDbEntity
  8
08480038_ROSETTE
  6
Continuous
 62
     7
100
AcDbCircle
 10
107.5656378748
 20
474.1064510602
 30
0.0
 40
27.5
100
AcDbArc
 50
102.6022648415
 51
197.3977351585
  0
ARC
  5
E2
330
99
100
AcDbEntity
  8
08480038_ROSETTE
  6
Continuous
 62
     7
100
AcDbCircle
 10
107.5656378748
 20
474.1064510602
 30
0.0
 40
27.5
100
AcDbArc
 50
0.0
 51
77.3977351585
  0
ARC
  5
E3
330
99
100
AcDbEntity
  8
08480038_ROSETTE
  6
Continuous
 62
     7
100
AcDbCircle
 10
107.5656378748
 20
474.1064510602
 30
0.0
 40
22.49999999999996
100
AcDbArc
 50
345.4660099534
 51
0.0
  0
ARC
  5
E4
330
99
100
AcDbEntity
  8
08480038_ROSETTE
  6
Continuous
 62
     7
100
AcDbCircle
 10
107.5656378748
 20
474.1064510602
 30
0.0
 40
22.49999999999996
100
AcDbArc
 50
225.4660099534
 51
314.5339900466
  0
ARC
  5
E5
330
99
100
AcDbEntity
  8
08480038_ROSETTE
  6
Continuous
 62
     7
100
AcDbCircle
 10
107.5656378748
 20
474.1064510602
 30
0.0
 40
22.49999999999996
100
AcDbArc
 50
105.4660099534
 51
194.5339900466
  0
ARC
  5
E6
330
99
100
AcDbEntity
  8
08480038_ROSETTE
  6
Continuous
 62
     7
100
AcDbCircle
 10
107.5656378748
 20
474.1064510602
 30
0.0
 40
22.49999999999996
100
AcDbArc
 50
0.0
 51
74.5339900466
  0
ARC
  5
E8
330
99
100
AcDbEntity
  8
11877038_AUSL_WD
  6
Continuous
 62
     7
100
AcDbCircle
 10
207.5656378748
 20
474.1036214777
 30
0.0
 40
27.49999996803917
100
AcDbArc
 50
0.0
 51
179.9999999666
  0
ARC
  5
E9
330
99
100
AcDbEntity
  8
11877038_AUSL_WD
  6
Continuous
 62
     7
100
AcDbCircle
 10
207.5656378748
 20
474.1033828681
 30
0.0
 40
22.4999999738502
100
AcDbArc
 50
0.0
 51
180.0000000332
  0
ARC
  5
EA
330
99
100
AcDbEntity
  8
11877038_AUSL_WD
  6
Continuous
 62
     7
100
AcDbCircle
 10
207.5656378748
 20
474.1017464823
 30
0.0
 40
11.49999998663459
100
AcDbArc
 50
0.0
 51
180.0000000332
  0
ARC
  5
EB
330
99
100
AcDbEntity
  8
11877038_AUSL_WD
  6
Continuous
 62
     7
100
AcDbCircle
 10
207.5656378748
 20
474.1018828493
 30
0.0
 40
14.99999998256685
100
AcDbArc
 50
0.0
 51
180.0000000332
  0
ARC
  5
EC
330
99
100
AcDbEntity
  8
11877038_AUSL_WD
  6
Continuous
 62
     7
100
AcDbCircle
 10
207.5656378748
 20
474.1032465005
 30
0.0
 40
17.99999997908025
100
AcDbArc
 50
0.0
 51
180.0000000332
  0
ARC
  5
ED
330
99
100
AcDbEntity
  8
11877038_AUSL_WD
  6
Continuous
 62
     7
100
AcDbCircle
 10
207.5656378748
 20
474.1034339759
 30
0.0
 40
27.49999996803916
100
AcDbArc
 50
294.7198512095
 51
0.0
  0
ARC
  5
EE
330
99
100
AcDbEntity
  8
11877038_AUSL_WD
  6
Continuous
 62
     7
100
AcDbCircle
 10
207.5656378748
 20
474.1034339759
 30
0.0
 40
27.49999996803916
100
AcDbArc
 50
0.0
 51
245.2801487905
  0
ARC
  5
EF
330
99
100
AcDbEntity
  8
11877038_AUSL_WD
  6
Continuous
 62
     7
100
AcDbCircle
 10
207.5656378748
 20
474.1017976038
 30
0.0
 40
14.99999998256685
100
AcDbArc
 50
320.0960509738
 51
0.0
  0
ARC
  5
F0
330
99
100
AcDbEntity
  8
11877038_AUSL_WD
  6
Continuous
 62
     7
100
AcDbCircle
 10
207.5656378748
 20
474.1017976038
 30
0.0
 40
14.99999998256685
100
AcDbArc
 50
0.0
 51
219.9039490262
  0
ARC
  5
F1
330
99
100
AcDbEntity
  8
11877038_AUSL_WD
  6
Continuous
 62
     7
100
AcDbCircle
 10
207.5656378748
 20
474.101933967
 30
0.0
 40
17.99999997908025
100
AcDbArc
 50
309.7090165907
 51
0.0
  0
ARC
  5
F2
330
99
100
AcDbEntity
  8
11877038_AUSL_WD
  6
Continuous
 62
     7
100
AcDbCircle
 10
207.5656378748
 20
474.101933967
 30
0.0
 40
17.99999997908025
100
AcDbArc
 50
0.0
 51
230.2909834093
  0
ARC
  5
F3
330
99
100
AcDbEntity
  8
11877038_AUSL_WD
  6
Continuous
 62
     7
100
AcDbCircle
 10
207.5656378748
 20
474.1032976138
 30
0.0
 40
22.4999999738502
100
AcDbArc
 50
300.7378687038
 51
360.0
  0
ARC
  5
F4
330
99
100
AcDbEntity
  8
11877038_AUSL_WD
  6
Continuous
 62
     7
100
AcDbCircle
 10
207.5656378748
 20
474.1032976138
 30
0.0
 40
22.4999999738502
100
AcDbArc
 50
0.0
 51
239.2621312962
  0
ELLIPSE
  5
F5
330
99
100
AcDbEntity
  8
11877038_AUSL_WD
  6
Continuous
 62
     7
100
AcDbEllipse
 10
207.5656378748
 20
451.0025306486
 30
0.0
 11
11.50000000000003
 21
-3.469446951953614E-15
 31
0.0
210
0.0
220
0.0
230
1.0
 40
0.4225873643
 41
-0.0001592075634884
 42
3.141751861153283
  0
ELLIPSE
  5
F6
330
99
100
AcDbEntity
  8
11877038_AUSL_WD
  6
Continuous
 62
     7
100
AcDbEllipse
 10
207.5656378748
 20
451.0009832293
 30
0.0
 11
-11.49999999999999
 21
3.469446951953614E-15
 31
0.0
210
0.0
220
0.0
230
1.0
 40
0.4225873643
 41
3.141751861137304
 42
6.283026099632075
  0
ELLIPSE
  5
F7
330
99
100
AcDbEntity
  8
11877038_AUSL_WD
  6
Continuous
 62
     7
100
AcDbEllipse
 10
207.5656378748
 20
446.4693722589
 30
0.0
 11
11.5
 21
-3.469446951953614E-15
 31
0.0
210
0.0
220
0.0
230
1.0
 40
0.4225873643
 41
0.3826730942236604
 42
2.797736537261182
  0
LINE
  5
F8
330
99
100
AcDbEntity
  8
11877038_AUSL_WD
  6
Continuous
 62
     7
100
AcDbLine
 10
180.0656378748
 20
474.1036214937
 30
0.0
 11
180.0656378748
 21
474.1034339919
 31
0.0
  0
LINE
  5
F9
330
99
100
AcDbEntity
  8
11877038_AUSL_WD
  6
Continuous
 62
     7
100
AcDbLine
 10
235.0656378748
 20
474.1034339918
 30
0.0
 11
235.0656378748
 21
474.1036214936
 31
0.0
  0
LINE
  5
FA
330
99
100
AcDbEntity
  8
11877038_AUSL_WD
  6
Continuous
 62
     7
100
AcDbLine
 10
185.0656378748
 20
474.103382855
 30
0.0
 11
185.0656378748
 21
474.1032976269
 31
0.0
  0
LINE
  5
FB
330
99
100
AcDbEntity
  8
11877038_AUSL_WD
  6
Continuous
 62
     7
100
AcDbLine
 10
230.0656378748
 20
474.1032976269
 30
0.0
 11
230.0656378748
 21
474.103382855
 31
0.0
  0
LINE
  5
FC
330
99
100
AcDbEntity
  8
11877038_AUSL_WD
  6
Continuous
 62
     7
100
AcDbLine
 10
189.5656378748
 20
474.1032464901
 30
0.0
 11
189.5656378748
 21
474.1019339775
 31
0.0
  0
LINE
  5
FD
330
99
100
AcDbEntity
  8
11877038_AUSL_WD
  6
Continuous
 62
     7
100
AcDbLine
 10
225.5656378748
 20
474.1019339774
 30
0.0
 11
225.5656378748
 21
474.10324649
 31
0.0
  0
LINE
  5
FE
330
99
100
AcDbEntity
  8
11877038_AUSL_WD
  6
Continuous
 62
     7
100
AcDbLine
 10
192.5656378748
 20
474.1018828406
 30
0.0
 11
192.5656378748
 21
474.1017976125
 31
0.0
  0
LINE
  5
FF
330
99
100
AcDbEntity
  8
11877038_AUSL_WD
  6
Continuous
 62
     7
100
AcDbLine
 10
222.5656378748
 20
474.1017976124
 30
0.0
 11
222.5656378748
 21
474.1018828405
 31
0.0
  0
LINE
  5
100
330
99
100
AcDbEntity
  8
11877038_AUSL_WD
  6
Continuous
 62
     7
100
AcDbLine
 10
196.0656378748
 20
474.1017464756
 30
0.0
 11
196.0656378748
 21
474.0990360517
 31
0.0
  0
LINE
  5
101
330
99
100
AcDbEntity
  8
11877038_AUSL_WD
  6
Continuous
 62
     7
100
AcDbLine
 10
219.0656378748
 20
474.0990360517
 30
0.0
 11
219.0656378748
 21
474.1017464756
 31
0.0
  0
LINE
  5
102
330
99
100
AcDbEntity
  8
11877038_AUSL_WD
  6
Continuous
 62
     7
100
AcDbLine
 10
196.0656378748
 20
474.0990360517
 30
0.0
 11
196.0656378748
 21
451.0025306486
 31
0.0
  0
LINE
  5
103
330
99
100
AcDbEntity
  8
11877038_AUSL_WD
  6
Continuous
 62
     7
100
AcDbLine
 10
219.0656378748
 20
451.0025306486
 30
0.0
 11
219.0656378748
 21
474.0990360517
 31
0.0
  0
LINE
  5
104
330
99
100
AcDbEntity
  8
11877038_AUSL_WD
  6
Continuous
 62
     7
100
AcDbLine
 10
196.0656378748
 20
451.0009832293
 30
0.0
 11
196.0656378748
 21
446.8893512198
 31
0.0
  0
LINE
  5
105
330
99
100
AcDbEntity
  8
11877038_AUSL_WD
  6
Continuous
 62
     7
100
AcDbLine
 10
219.0656378748
 20
446.8893512198
 30
0.0
 11
219.0656378748
 21
451.0009832293
 31
0.0
  0
ELLIPSE
  5
107
330
99
100
AcDbEntity
  8
$DDT_AUDIT_GENERATED_(106)
  6
Continuous
 62
     7
100
AcDbEllipse
 10
207.5656378748
 20
431.0618949594
 30
0.0
 11
10.075
 21
0.0
 31
0.0
210
0.0
220
0.0
230
1.0
 40
0.4225873643
 41
0.0
 42
6.283185307179586
  0
ELLIPSE
  5
108
330
99
100
AcDbEntity
  8
$DDT_AUDIT_GENERATED_(106)
  6
Continuous
 62
     7
100
AcDbEllipse
 10
207.5656378748
 20
446.3334239298
 30
0.0
 11
-11.575
 21
0.0
 31
0.0
210
0.0
220
0.0
230
1.0
 40
0.4225873643
 41
3.141592653589805
 42
3.403961418570785
  0
ELLIPSE
  5
109
330
99
100
AcDbEntity
  8
$DDT_AUDIT_GENERATED_(106)
  6
Continuous
 62
     7
100
AcDbEllipse
 10
207.5656378748
 20
446.3334239298
 30
0.0
 11
-11.575
 21
0.0
 31
0.0
210
0.0
220
0.0
230
1.0
 40
0.4225873643
 41
6.033305958834036
 42
6.283185307179586
  0
ELLIPSE
  5
10A
330
99
100
AcDbEntity
  8
$DDT_AUDIT_GENERATED_(106)
  6
Continuous
 62
     7
100
AcDbEllipse
 10
207.5656378748
 20
446.4693722589
 30
0.0
 11
11.425
 21
-3.469446951953615E-15
 31
0.0
210
0.0
220
0.0
230
1.0
 40
0.4225873643
 41
0.8637874067323693
 42
2.30701299685199
  0
LINE
  5
10B
330
99
100
AcDbEntity
  8
$DDT_AUDIT_GENERATED_(106)
  6
Continuous
 62
     7
100
AcDbLine
 10
219.1406378748
 20
431.9682171534
 30
0.0
 11
219.1406378748
 21
446.3334239298
 31
0.0
  0
LINE
  5
10C
330
99
100
AcDbEntity
  8
$DDT_AUDIT_GENERATED_(106)
  6
Continuous
 62
     7
100
AcDbLine
 10
195.9906378748
 20
446.3334239298
 30
0.0
 11
195.9906378748
 21
431.9682171534
 31
0.0
  0
SPLINE
  5
10D
330
99
100
AcDbEntity
  8
$DDT_AUDIT_GENERATED_(106)
  6
Continuous
 62
     7
100
AcDbSpline
210
0.0
220
0.0
230
1.0
 70
     8
 71
     3
 72
    29
 73
    25
 74
     0
 42
0.0000000007189908
 43
0.0000000001
 40
0.0
 40
0.0
 40
0.0
 40
0.0
 40
0.0056779392094985
 40
0.0483216648420219
 40
0.0908855553359251
 40
0.1339633202551066
 40
0.1781555839773464
 40
0.2238860385947012
 40
0.2713026547339459
 40
0.3202192031378128
 40
0.3701860729888276
 40
0.4206851718017632
 40
0.4712772812002562
 40
0.521710803598122
 40
0.5719141235354728
 40
0.6218788710582591
 40
0.6716254961927575
 40
0.721184950342719
 40
0.7705901237990985
 40
0.8198723400642287
 40
0.8690602706993427
 40
0.9181799422603404
 40
0.9672552039094643
 40
1.0
 40
1.0
 40
1.0
 40
1.0
 10
195.9945924429714
 20
431.9879070670077
 30
0.0
 10
195.9930455303552
 20
431.9665847625461
 30
0.0
 10
195.9819644897295
 20
431.8107189932355
 30
0.0
 10
196.0227835643259
 20
431.4891807167902
 30
0.0
 10
196.1219890800467
 20
431.0641231895267
 30
0.0
 10
196.2899764764842
 20
430.6453796946619
 30
0.0
 10
196.5183317680649
 20
430.2392950003128
 30
0.0
 10
196.8103140558519
 20
429.8438024152515
 30
0.0
 10
197.16668032957
 20
429.4602734533448
 30
0.0
 10
197.5876971161264
 20
429.0909031772158
 30
0.0
 10
198.0710910174223
 20
428.7390624399204
 30
0.0
 10
198.6123519976659
 20
428.4081749022142
 30
0.0
 10
199.2057634872079
 20
428.1009246697072
 30
0.0
 10
199.8457224560605
 20
427.8189316172151
 30
0.0
 10
200.5273891589622
 20
427.5630108360803
 30
0.0
 10
201.246572912781
 20
427.333600587248
 30
0.0
 10
201.9992696755834
 20
427.1310744441665
 30
0.0
 10
202.7814173536457
 20
426.9558126686706
 30
0.0
 10
203.5890733849528
 20
426.8081904205332
 30
0.0
 10
204.4173651431254
 20
426.6886196808327
 30
0.0
 10
205.264246766942
 20
426.597293637185
 30
0.0
 10
206.1165177276667
 20
426.53501896758
 30
0.0
 10
206.9039177790316
 20
426.503887073884
 30
0.0
 10
207.3533443605959
 20
426.5005366267494
 30
0.0
 10
207.565637874836
 20
426.4993557755353
 30
0.0
  0
SPLINE
  5
10E
330
99
100
AcDbEntity
  8
$DDT_AUDIT_GENERATED_(106)
  6
Continuous
 62
     7
100
AcDbSpline
210
0.0
220
0.0
230
1.0
 70
     8
 71
     3
 72
    28
 73
    24
 74
     0
 42
0.0000000007211232
 43
0.0000000001
 40
0.0
 40
0.0
 40
0.0
 40
0.0
 40
0.0259890110050681
 40
0.0752327887828329
 40
0.1245034757999867
 40
0.1738141091187212
 40
0.2231879677069109
 40
0.2726503572325526
 40
0.3222293562489959
 40
0.371956457141604
 40
0.4218668611890841
 40
0.4719988876746617
 40
0.5223913364663344
 40
0.5730764275758067
 40
0.624063788384233
 40
0.6753080759081737
 40
0.7266049801549491
 40
0.7774989889996603
 40
0.8273858796505388
 40
0.8756641392389264
 40
0.9220380136016413
 40
0.9666614539190933
 40
1.0
 40
1.0
 40
1.0
 40
1.0
 10
207.565637874836
 20
426.4993557755353
 30
0.0
 10
207.7334593821992
 20
426.5000936622373
 30
0.0
 10
208.146157144401
 20
426.5025743481538
 30
0.0
 10
208.8939338437144
 20
426.5285000743112
 30
0.0
 10
209.7463574396713
 20
426.5867235475589
 30
0.0
 10
210.5942462961464
 20
426.6738756189688
 30
0.0
 10
211.4236132848662
 20
426.789185239729
 30
0.0
 10
212.2325997306213
 20
426.9323926026402
 30
0.0
 10
213.0163031092904
 20
427.1030395701397
 30
0.0
 10
213.7708716558473
 20
427.3007006347274
 30
0.0
 10
214.4924280194213
 20
427.5249757279958
 30
0.0
 10
215.177359635111
 20
427.7755610370294
 30
0.0
 10
215.8222005753801
 20
428.0523083657648
 30
0.0
 10
216.4235528640154
 20
428.3552813436997
 30
0.0
 10
216.9778803357216
 20
428.6847550812257
 30
0.0
 10
217.4810370354212
 20
429.0409791373281
 30
0.0
 10
217.9277387429393
 20
429.4234992381503
 30
0.0
 10
218.3118803137106
 20
429.8305707808879
 30
0.0
 10
218.6270758568476
 20
430.2579097371884
 30
0.0
 10
218.8696060057723
 20
430.7009666049999
 30
0.0
 10
219.0346910912845
 20
431.1480364037063
 30
0.0
 10
219.1265362075597
 20
431.5745369745835
 30
0.0
 10
219.132537038597
 20
431.8219259475668
 30
0.0
 10
219.1345142441285
 20
431.9470568466555
 30
0.0
  0
ARC
  5
10F
330
99
100
AcDbEntity
  8
$DDT_AUDIT_GENERATED_(106)
  6
Continuous
 62
     7
100
AcDbCircle
 10
201.7586392577
 20
443.6319012945
 30
0.0
 40
6.692047950940144
100
AcDbArc
 50
107.0637639578
 51
143.5825794496
  0
ARC
  5
110
330
99
100
AcDbEntity
  8
$DDT_AUDIT_GENERATED_(106)
  6
Continuous
 62
     7
100
AcDbCircle
 10
213.1447234857
 20
443.3387934692
 30
0.0
 40
7.056798954160587
100
AcDbArc
 50
37.811656152
 51
74.047178265
  0
ELLIPSE
  5
112
330
99
100
AcDbEntity
  8
$DDT_AUDIT_GENERATED_(111)
  6
Continuous
 62
     7
100
AcDbEllipse
 10
207.5656378748
 20
430.8353144108
 30
0.0
 11
-9.0
 21
0.0
 31
0.0
210
0.0
220
0.0
230
1.0
 40
0.4225873643
 41
0.0
 42
6.283185307179586
  0
ELLIPSE
  5
113
330
99
100
AcDbEntity
  8
$DDT_AUDIT_GENERATED_(111)
  6
Continuous
 62
     7
100
AcDbEllipse
 10
207.5656378748
 20
433.6326543926
 30
0.0
 11
9.386474103795395
 21
-4.163336342344337E-14
 31
0.0
210
0.0
220
0.0
230
1.0
 40
0.4225873643
 41
-0.287955548142917
 42
-0.2082190453742969
  0
ELLIPSE
  5
114
330
99
100
AcDbEntity
  8
$DDT_AUDIT_GENERATED_(111)
  6
Continuous
 62
     7
100
AcDbEllipse
 10
207.5656378748
 20
433.6326543926
 30
0.0
 11
-9.386474103795479
 21
-8.326672684688674E-14
 31
0.0
210
0.0
220
0.0
230
1.0
 40
0.4225873643
 41
0.2082190453742926
 42
0.2879555481429134
  0
ELLIPSE
  5
115
330
99
100
AcDbEntity
  8
$DDT_AUDIT_GENERATED_(111)
  6
Continuous
 62
     7
100
AcDbEllipse
 10
207.5656378748
 20
430.8353144108
 30
0.0
 11
-5.249999999999998
 21
0.0
 31
0.0
210
0.0
220
0.0
230
1.0
 40
0.4225873643
 41
0.0
 42
6.283185307179586
  0
ELLIPSE
  5
116
330
99
100
AcDbEntity
  8
$DDT_AUDIT_GENERATED_(111)
  6
Continuous
 62
     7
100
AcDbEllipse
 10
207.5656378748
 20
430.8353144108
 30
0.0
 11
-6.250000000000003
 21
-6.938893903907229E-15
 31
0.0
210
0.0
220
0.0
230
1.0
 40
0.4225873643
 41
0.0
 42
6.283185307179586
  0
ELLIPSE
  5
117
330
99
100
AcDbEntity
  8
$DDT_AUDIT_GENERATED_(111)
  6
Continuous
 62
     7
100
AcDbEllipse
 10
207.5656378748
 20
430.8353144108
 30
0.0
 11
2.750000000000003
 21
0.0
 31
0.0
210
0.0
220
0.0
230
1.0
 40
0.4225873643
 41
0.0
 42
6.283185307179586
  0
ELLIPSE
  5
118
330
99
100
AcDbEntity
  8
$DDT_AUDIT_GENERATED_(111)
  6
Continuous
 62
     7
100
AcDbEllipse
 10
207.5656378748
 20
430.8353144108
 30
0.0
 11
2.150000000000001
 21
0.0
 31
0.0
210
0.0
220
0.0
230
1.0
 40
0.4225873643
 41
0.0
 42
6.283185307179586
  0
ELLIPSE
  5
119
330
99
100
AcDbEntity
  8
$DDT_AUDIT_GENERATED_(111)
  6
Continuous
 62
     7
100
AcDbEllipse
 10
207.5656378748
 20
431.0165788497
 30
0.0
 11
0.5196299438963558
 21
0.0
 31
0.0
210
0.0
220
0.0
230
1.0
 40
0.4225873643
 41
0.0
 42
6.283185307179586
  0
ELLIPSE
  5
11A
330
99
100
AcDbEntity
  8
$DDT_AUDIT_GENERATED_(111)
  6
Continuous
 62
     7
100
AcDbEllipse
 10
207.5656378748
 20
430.8353144108
 30
0.0
 11
-8.699999999999998
 21
0.0
 31
0.0
210
0.0
220
0.0
230
1.0
 40
0.4225873643
 41
0.0
 42
6.283185307179586
  0
ARC
  5
11B
330
99
100
AcDbEntity
  8
$DDT_AUDIT_GENERATED_(111)
  6
Continuous
 62
     7
100
AcDbCircle
 10
207.5656378748
 20
447.5376268032
 30
0.0
 40
20.11304055756062
100
AcDbArc
 50
269.7151300152
 51
270.2848699848
  0
ELLIPSE
  5
11C
330
99
100
AcDbEntity
  8
$DDT_AUDIT_GENERATED_(111)
  6
Continuous
 62
     7
100
AcDbEllipse
 10
207.5656378748
 20
431.0165788496
 30
0.0
 11
8.499999999995792
 21
4.649058915617843E-13
 31
0.0
210
0.0
220
0.0
230
1.0
 40
0.4225873643
 41
4.724153957672645
 42
4.962423390895733
  0
LINE
  5
11D
330
99
100
AcDbEntity
  8
$DDT_AUDIT_GENERATED_(111)
  6
Continuous
 62
     7
100
AcDbLine
 10
207.4656378748
 20
428.1944814752
 30
0.0
 11
207.4656378748
 21
427.4248348422
 31
0.0
  0
LINE
  5
11E
330
99
100
AcDbEntity
  8
$DDT_AUDIT_GENERATED_(111)
  6
Continuous
 62
     7
100
AcDbLine
 10
207.6656378748
 20
428.1944814752
 30
0.0
 11
207.6656378748
 21
427.4248348422
 31
0.0
  0
LINE
  5
11F
330
99
100
AcDbEntity
  8
$DDT_AUDIT_GENERATED_(111)
  6
Continuous
 62
     7
100
AcDbLine
 10
207.8156378748
 20
430.3383108742
 30
0.0
 11
207.8156378748
 21
430.8240740571
 31
0.0
  0
LINE
  5
120
330
99
100
AcDbEntity
  8
$DDT_AUDIT_GENERATED_(111)
  6
Continuous
 62
     7
100
AcDbLine
 10
207.3156378748
 20
430.3383108742
 30
0.0
 11
207.3156378748
 21
430.8240740571
 31
0.0
  0
ELLIPSE
  5
121
330
99
100
AcDbEntity
  8
$DDT_AUDIT_GENERATED_(111)
  6
Continuous
 62
     7
100
AcDbEllipse
 10
207.5656378748
 20
431.2407105457
 30
0.0
 11
-2.150000000002438
 21
-1.249000902703301E-13
 31
0.0
210
0.0
220
0.0
230
1.0
 40
0.4225873643
 41
1.454253618345626
 42
1.687339035244052
  0
LINE
  5
122
330
99
100
AcDbEntity
  8
$DDT_AUDIT_GENERATED_(111)
  6
Continuous
 62
     7
100
AcDbLine
 10
207.2961300055
 20
431.4284557902
 30
0.0
 11
207.2961300055
 21
431.7367107436
 31
0.0
  0
ELLIPSE
  5
123
330
99
100
AcDbEntity
  8
$DDT_AUDIT_GENERATED_(111)
  6
Continuous
 62
     7
100
AcDbEllipse
 10
207.5656378748
 20
431.2407105457
 30
0.0
 11
-0.5196299438963581
 21
2.081668171172169E-14
 31
0.0
210
0.0
220
0.0
230
1.0
 40
0.4225873643
 41
5.257664250557045
 42
6.261508812604354
  0
LINE
  5
124
330
99
100
AcDbEntity
  8
$DDT_AUDIT_GENERATED_(111)
  6
Continuous
 62
     7
100
AcDbLine
 10
206.0633046032
 20
431.485260748
 30
0.0
 11
207.0461300055
 21
431.2454700938
 31
0.0
  0
LINE
  5
125
330
99
100
AcDbEntity
  8
$DDT_AUDIT_GENERATED_(111)
  6
Continuous
 62
     7
100
AcDbLine
 10
206.4964430265
 20
431.6235641619
 30
0.0
 11
207.2961300055
 21
431.4284557902
 31
0.0
  0
ELLIPSE
  5
126
330
99
100
AcDbEntity
  8
$DDT_AUDIT_GENERATED_(111)
  6
Continuous
 62
     7
100
AcDbEllipse
 10
207.5656378748
 20
431.2407105457
 30
0.0
 11
0.5196299438963425
 21
-1.387778780781446E-14
 31
0.0
210
0.0
220
0.0
230
1.0
 40
0.4225873643
 41
0.0216764945713547
 42
1.025521056622616
  0
LINE
  5
127
330
99
100
AcDbEntity
  8
$DDT_AUDIT_GENERATED_(111)
  6
Continuous
 62
     7
100
AcDbLine
 10
208.6348327232
 20
431.6235641619
 30
0.0
 11
207.8351457441
 21
431.4284557902
 31
0.0
  0
LINE
  5
128
330
99
100
AcDbEntity
  8
$DDT_AUDIT_GENERATED_(111)
  6
Continuous
 62
     7
100
AcDbLine
 10
207.8351457441
 20
431.4284557902
 30
0.0
 11
207.8351457441
 21
431.7367107436
 31
0.0
  0
LINE
  5
129
330
99
100
AcDbEntity
  8
$DDT_AUDIT_GENERATED_(111)
  6
Continuous
 62
     7
100
AcDbLine
 10
209.0679711465
 20
431.485260748
 30
0.0
 11
208.0851457441
 21
431.2454700938
 31
0.0
  0
ELLIPSE
  5
12A
330
99
100
AcDbEntity
  8
$DDT_AUDIT_GENERATED_(111)
  6
Continuous
 62
     7
100
AcDbEllipse
 10
207.565637762
 20
431.0165786715
 30
0.0
 11
-8.499999767232424
 21
5.609192277322705E-8
 31
0.0
210
0.0
220
0.0
230
1.0
 40
0.4225873549
 41
1.297231970601928
 42
1.320761925782082
  0
ELLIPSE
  5
12B
330
99
100
AcDbEntity
  8
$DDT_AUDIT_GENERATED_(111)
  6
Continuous
 62
     7
100
AcDbEllipse
 10
207.5656378748
 20
431.0165788497
 30
0.0
 11
-8.500000000008177
 21
-1.151856388048600E-12
 31
0.0
210
0.0
220
0.0
230
1.0
 40
0.4225873643
 41
1.320761916283745
 42
1.559031349506487
  0
LINE
  5
12C
330
99
100
AcDbEntity
  8
$DDT_AUDIT_GENERATED_(111)
  6
Continuous
 62
     7
100
AcDbLine
 10
205.2692356606
 20
427.5581579172
 30
0.0
 11
205.2692356606
 21
428.3788842929
 31
0.0
  0
LINE
  5
12D
330
99
100
AcDbEntity
  8
$DDT_AUDIT_GENERATED_(111)
  6
Continuous
 62
     7
100
AcDbLine
 10
205.7451136183
 20
428.308673379
 30
0.0
 11
205.2692356606
 21
427.5581579172
 31
0.0
  0
LINE
  5
12E
330
99
100
AcDbEntity
  8
$DDT_AUDIT_GENERATED_(111)
  6
Continuous
 62
     7
100
AcDbLine
 10
205.9373790486
 20
428.2853481173
 30
0.0
 11
205.4624208259
 21
427.5362831856
 31
0.0
  0
ELLIPSE
  5
12F
330
99
100
AcDbEntity
  8
$DDT_AUDIT_GENERATED_(111)
  6
Continuous
 62
     7
100
AcDbEllipse
 10
207.5656376382
 20
431.0165786764
 30
0.0
 11
-8.499999704190612
 21
1.054408504952420E-7
 31
0.0
210
0.0
220
0.0
230
1.0
 40
0.4225873585
 41
1.035432590880935
 42
1.058962546112232
  0
ELLIPSE
  5
130
330
99
100
AcDbEntity
  8
$DDT_AUDIT_GENERATED_(111)
  6
Continuous
 62
     7
100
AcDbEllipse
 10
207.5656378749
 20
431.0165788497
 30
0.0
 11
-8.500000000027756
 21
-8.805456364058273E-12
 31
0.0
210
0.0
220
0.0
230
1.0
 40
0.4225873643
 41
1.058962528483563
 42
1.297231961705847
  0
LINE
  5
131
330
99
100
AcDbEntity
  8
$DDT_AUDIT_GENERATED_(111)
  6
Continuous
 62
     7
100
AcDbLine
 10
203.2293294623
 20
427.9271666635
 30
0.0
 11
203.2293294623
 21
428.9332520474
 31
0.0
  0
LINE
  5
132
330
99
100
AcDbEntity
  8
$DDT_AUDIT_GENERATED_(111)
  6
Continuous
 62
     7
100
AcDbLine
 10
204.1722572124
 20
428.6173358276
 30
0.0
 11
203.2293294623
 21
427.9271666635
 31
0.0
  0
LINE
  5
133
330
99
100
AcDbEntity
  8
$DDT_AUDIT_GENERATED_(111)
  6
Continuous
 62
     7
100
AcDbLine
 10
204.3420283139
 20
428.5725636148
 30
0.0
 11
203.402534543
 21
427.8849079271
 31
0.0
  0
ELLIPSE
  5
134
330
99
100
AcDbEntity
  8
$DDT_AUDIT_GENERATED_(111)
  6
Continuous
 62
     7
100
AcDbEllipse
 10
207.5656375412
 20
431.0165787087
 30
0.0
 11
-8.499999646128495
 21
1.213773040409372E-7
 31
0.0
210
0.0
220
0.0
230
1.0
 40
0.4225873643
 41
0.773633205695838
 42
0.7971631609250884
  0
ELLIPSE
  5
135
330
99
100
AcDbEntity
  8
$DDT_AUDIT_GENERATED_(111)
  6
Continuous
 62
     7
100
AcDbEllipse
 10
207.5656378749
 20
431.0165788497
 30
0.0
 11
-8.500000000022775
 21
-8.326672684688674E-12
 31
0.0
210
0.0
220
0.0
230
1.0
 40
0.4225873643
 41
0.7971631406843915
 42
1.035432573906897
  0
LINE
  5
136
330
99
100
AcDbEntity
  8
$DDT_AUDIT_GENERATED_(111)
  6
Continuous
 62
     7
100
AcDbLine
 10
201.4849355162
 20
428.5067137448
 30
0.0
 11
201.4849355162
 21
429.4842072562
 31
0.0
  0
LINE
  5
137
330
99
100
AcDbEntity
  8
$DDT_AUDIT_GENERATED_(111)
  6
Continuous
 62
     7
100
AcDbLine
 10
202.8702508328
 20
429.0921304932
 30
0.0
 11
201.4849355162
 21
428.5067137448
 31
0.0
  0
LINE
  5
138
330
99
100
AcDbEntity
  8
$DDT_AUDIT_GENERATED_(111)
  6
Continuous
 62
     7
100
AcDbLine
 10
203.0048001765
 20
429.0294635893
 30
0.0
 11
201.6263568724
 21
428.4469508666
 31
0.0
  0
ELLIPSE
  5
139
330
99
100
AcDbEntity
  8
$DDT_AUDIT_GENERATED_(111)
  6
Continuous
 62
     7
100
AcDbEllipse
 10
207.5656374656
 20
431.0165787498
 30
0.0
 11
-8.499999586479023
 21
1.052693696101947E-7
 31
0.0
210
0.0
220
0.0
230
1.0
 40
0.4225873702
 41
0.5118338152557413
 42
0.5353637704860209
  0
ELLIPSE
  5
13A
330
99
100
AcDbEntity
  8
$DDT_AUDIT_GENERATED_(111)
  6
Continuous
 62
     7
100
AcDbEllipse
 10
207.5656378749
 20
431.0165788497
 30
0.0
 11
-8.500000000042199
 21
-1.283001482832447E-11
 31
0.0
210
0.0
220
0.0
230
1.0
 40
0.4225873643
 41
0.5353637528846193
 42
0.7736331861068702
  0
LINE
  5
13B
330
99
100
AcDbEntity
  8
$DDT_AUDIT_GENERATED_(111)
  6
Continuous
 62
     7
100
AcDbLine
 10
200.154931387
 20
429.2573039852
 30
0.0
 11
200.154931387
 21
430.1337006917
 31
0.0
  0
LINE
  5
13C
330
99
100
AcDbEntity
  8
$DDT_AUDIT_GENERATED_(111)
  6
Continuous
 62
     7
100
AcDbLine
 10
201.932665246
 20
429.6910371428
 30
0.0
 11
200.154931387
 21
429.2573039852
 31
0.0
  0
LINE
  5
13D
330
99
100
AcDbEntity
  8
$DDT_AUDIT_GENERATED_(111)
  6
Continuous
 62
     7
100
AcDbLine
 10
202.0223511353
 20
429.615326418
 30
0.0
 11
200.254931387
 21
429.1841097066
 31
0.0
  0
ELLIPSE
  5
13E
330
99
100
AcDbEntity
  8
$DDT_AUDIT_GENERATED_(111)
  6
Continuous
 62
     7
100
AcDbEllipse
 10
207.5656379005
 20
431.0165788526
 30
0.0
 11
-8.500000025727552
 21
-3.474984189288932E-9
 31
0.0
210
0.0
220
0.0
230
1.0
 40
0.4225873638
 41
0.2500344099657543
 42
0.2735643645050386
  0
ELLIPSE
  5
13F
330
99
100
AcDbEntity
  8
$DDT_AUDIT_GENERATED_(111)
  6
Continuous
 62
     7
100
AcDbEllipse
 10
207.5656378749
 20
431.0165788497
 30
0.0
 11
-8.50000000002194
 21
-4.225786387479503E-12
 31
0.0
210
0.0
220
0.0
230
1.0
 40
0.4225873643
 41
0.2735643650866822
 42
0.511833798309334
  0
LINE
  5
140
330
99
100
AcDbEntity
  8
$DDT_AUDIT_GENERATED_(111)
  6
Continuous
 62
     7
100
AcDbLine
 10
199.3299546582
 20
430.1277859003
 30
0.0
 11
199.3299546582
 21
430.9743201132
 31
0.0
  0
LINE
  5
141
330
99
100
AcDbEntity
  8
$DDT_AUDIT_GENERATED_(111)
  6
Continuous
 62
     7
100
AcDbLine
 10
201.4159606192
 20
430.3639884084
 30
0.0
 11
199.3299546582
 21
430.1277859003
 31
0.0
  0
LINE
  5
142
330
99
100
AcDbEntity
  8
$DDT_AUDIT_GENERATED_(111)
  6
Continuous
 62
     7
100
AcDbLine
 10
201.4548879436
 20
430.2808972985
 30
0.0
 11
199.3817184672
 21
430.0461482905
 31
0.0
  0
ARC
  5
143
330
99
100
AcDbEntity
  8
$DDT_AUDIT_GENERATED_(111)
  6
Continuous
 62
     7
100
AcDbCircle
 10
200.584051764
 20
431.0165788497
 30
0.0
 40
1.518413795568615
100
AcDbArc
 50
178.4052042161
 51
181.5947957839
  0
ELLIPSE
  5
144
330
99
100
AcDbEntity
  8
$DDT_AUDIT_GENERATED_(111)
  6
Continuous
 62
     7
100
AcDbEllipse
 10
207.5656378749
 20
431.0165788497
 30
0.0
 11
-8.50000000003347
 21
-2.498001805406602E-12
 31
0.0
210
0.0
220
0.0
230
1.0
 40
0.4225873643
 41
0.0117649772878383
 42
0.2500344105104412
  0
ARC
  5
145
330
99
100
AcDbEntity
  8
$DDT_AUDIT_GENERATED_(111)
  6
Continuous
 62
     7
100
AcDbCircle
 10
202.432420556
 20
431.0165788497
 30
0.0
 40
1.116782445731763
100
AcDbArc
 50
177.8314259547
 51
180.0
  0
LINE
  5
146
330
99
100
AcDbEntity
  8
$DDT_AUDIT_GENERATED_(111)
  6
Continuous
 62
     7
100
AcDbLine
 10
201.316437926
 20
431.0588375861
 30
0.0
 11
201.316437926
 21
431.6804384388
 31
0.0
  0
LINE
  5
147
330
99
100
AcDbEntity
  8
$DDT_AUDIT_GENERATED_(111)
  6
Continuous
 62
     7
100
AcDbLine
 10
201.316437926
 20
431.0588375861
 30
0.0
 11
199.0662261305
 21
431.0588375861
 31
0.0
  0
LINE
  5
148
330
99
100
AcDbEntity
  8
$DDT_AUDIT_GENERATED_(111)
  6
Continuous
 62
     7
100
AcDbLine
 10
201.3156378748
 20
430.9743201132
 30
0.0
 11
199.0662261305
 21
430.9743201132
 31
0.0
  0
ELLIPSE
  5
149
330
99
100
AcDbEntity
  8
$DDT_AUDIT_GENERATED_(111)
  6
Continuous
 62
     7
100
AcDbEllipse
 10
207.5656374851
 20
431.0165788937
 30
0.0
 11
-8.499999610052605
 21
-5.181450407620858E-8
 31
0.0
210
0.0
220
0.0
230
1.0
 40
0.422587373
 41
-0.273564373876841
 42
-0.2500344187423096
  0
ELLIPSE
  5
14A
330
99
100
AcDbEntity
  8
$DDT_AUDIT_GENERATED_(111)
  6
Continuous
 62
     7
100
AcDbEllipse
 10
207.5656378749
 20
431.0165788497
 30
0.0
 11
-8.500000000026411
 21
1.748601263784622E-12
 31
0.0
210
0.0
220
0.0
230
1.0
 40
0.4225873643
 41
6.033150896669008
 42
6.271420329891521
  0
ELLIPSE
  5
14B
330
99
100
AcDbEntity
  8
$DDT_AUDIT_GENERATED_(111)
  6
Continuous
 62
     7
100
AcDbEllipse
 10
207.5656379305
 20
431.0165788433
 30
0.0
 11
-6.25000005571257
 21
7.419953540477309E-9
 31
0.0
210
0.0
220
0.0
230
1.0
 40
0.4225873627
 41
-0.277800068815961
 42
-0.2457987034728761
  0
LINE
  5
14C
330
99
100
AcDbEntity
  8
$DDT_AUDIT_GENERATED_(111)
  6
Continuous
 62
     7
100
AcDbLine
 10
201.5552561552
 20
431.7408955132
 30
0.0
 11
201.5552561552
 21
432.4342011769
 31
0.0
  0
LINE
  5
14D
330
99
100
AcDbEntity
  8
$DDT_AUDIT_GENERATED_(111)
  6
Continuous
 62
     7
100
AcDbLine
 10
201.5552561552
 20
431.7408955132
 30
0.0
 11
199.3817184672
 21
431.9870094088
 31
0.0
  0
LINE
  5
14E
330
99
100
AcDbEntity
  8
$DDT_AUDIT_GENERATED_(111)
  6
Continuous
 62
     7
100
AcDbLine
 10
201.5034923461
 20
431.6592579034
 30
0.0
 11
199.3299546582
 21
431.905371799
 31
0.0
  0
ELLIPSE
  5
14F
330
99
100
AcDbEntity
  8
$DDT_AUDIT_GENERATED_(111)
  6
Continuous
 62
     7
100
AcDbEllipse
 10
207.5656378749
 20
431.0165788496
 30
0.0
 11
-8.500000000028779
 21
5.703770789011742E-12
 31
0.0
210
0.0
220
0.0
230
1.0
 40
0.4225873643
 41
-0.4628721839977041
 42
-0.2735643650865187
  0
ELLIPSE
  5
150
330
99
100
AcDbEntity
  8
$DDT_AUDIT_GENERATED_(111)
  6
Continuous
 62
     7
100
AcDbEllipse
 10
207.5656379248
 20
431.0165788375
 30
0.0
 11
-6.250000050453279
 21
1.285176132181931E-8
 31
0.0
210
0.0
220
0.0
230
1.0
 40
0.4225873634
 41
-0.5395994554030663
 42
-0.507598090060017
  0
LINE
  5
151
330
99
100
AcDbEntity
  8
$DDT_AUDIT_GENERATED_(111)
  6
Continuous
 62
     7
100
AcDbLine
 10
202.2036719659
 20
432.3735924567
 30
0.0
 11
202.2036719659
 21
433.2227150126
 31
0.0
  0
LINE
  5
152
330
99
100
AcDbEntity
  8
$DDT_AUDIT_GENERATED_(111)
  6
Continuous
 62
     7
100
AcDbLine
 10
202.2036719659
 20
432.3735924567
 30
0.0
 11
200.2780248181
 21
432.8434136359
 31
0.0
  0
LINE
  5
153
330
99
100
AcDbEntity
  8
$DDT_AUDIT_GENERATED_(111)
  6
Continuous
 62
     7
100
AcDbLine
 10
202.1036719659
 20
432.3003981782
 30
0.0
 11
200.1706220669
 21
432.7720254875
 31
0.0
  0
ELLIPSE
  5
154
330
99
100
AcDbEntity
  8
$DDT_AUDIT_GENERATED_(111)
  6
Continuous
 62
     7
100
AcDbEllipse
 10
207.5656378972
 20
431.0165788402
 30
0.0
 11
-6.250000023726078
 21
8.132557127726869E-9
 31
0.0
210
0.0
220
0.0
230
1.0
 40
0.4225873643
 41
-0.8013988442864637
 42
-0.7693974788767832
  0
LINE
  5
155
330
99
100
AcDbEntity
  8
$DDT_AUDIT_GENERATED_(111)
  6
Continuous
 62
     7
100
AcDbLine
 10
203.2174968922
 20
432.9138111655
 30
0.0
 11
203.2174968922
 21
434.0197189641
 31
0.0
  0
LINE
  5
156
330
99
100
AcDbEntity
  8
$DDT_AUDIT_GENERATED_(111)
  6
Continuous
 62
     7
100
AcDbLine
 10
203.2174968922
 20
432.9138111655
 30
0.0
 11
201.7056029506
 21
433.5527184414
 31
0.0
  0
LINE
  5
157
330
99
100
AcDbEntity
  8
$DDT_AUDIT_GENERATED_(111)
  6
Continuous
 62
     7
100
AcDbLine
 10
203.0760755359
 20
432.8540482873
 30
0.0
 11
201.5592479289
 21
433.4950404679
 31
0.0
  0
ELLIPSE
  5
158
330
99
100
AcDbEntity
  8
$DDT_AUDIT_GENERATED_(111)
  6
Continuous
 62
     7
100
AcDbEllipse
 10
207.565637904
 20
431.0165788283
 30
0.0
 11
-6.250000036433915
 21
1.299821361655518E-8
 31
0.0
210
0.0
220
0.0
230
1.0
 40
0.4225873653
 41
-1.063198230967892
 42
-1.031196865626465
  0
LINE
  5
159
330
99
100
AcDbEntity
  8
$DDT_AUDIT_GENERATED_(111)
  6
Continuous
 62
     7
100
AcDbLine
 10
204.5276404408
 20
433.3247366273
 30
0.0
 11
204.5276404408
 21
434.2803883179
 31
0.0
  0
LINE
  5
15A
330
99
100
AcDbEntity
  8
$DDT_AUDIT_GENERATED_(111)
  6
Continuous
 62
     7
100
AcDbLine
 10
204.5276404408
 20
433.3247366273
 30
0.0
 11
203.4908193249
 21
434.0836303631
 31
0.0
  0
LINE
  5
15B
330
99
100
AcDbEntity
  8
$DDT_AUDIT_GENERATED_(111)
  6
Continuous
 62
     7
100
AcDbLine
 10
204.3544353601
 20
433.2824778908
 30
0.0
 11
203.3151481618
 21
434.0431766578
 31
0.0
  0
ELLIPSE
  5
15C
330
99
100
AcDbEntity
  8
$DDT_AUDIT_GENERATED_(111)
  6
Continuous
 62
     7
100
AcDbEllipse
 10
207.5656378882
 20
431.0165788286
 30
0.0
 11
-6.250000027558537
 21
6.626421633626478E-9
 31
0.0
210
0.0
220
0.0
230
1.0
 40
0.4225873659
 41
-1.324997620195928
 42
-1.292996254837596
  0
LINE
  5
15D
330
99
100
AcDbEntity
  8
$DDT_AUDIT_GENERATED_(111)
  6
Continuous
 62
     7
100
AcDbLine
 10
206.0448184941
 20
433.5783649509
 30
0.0
 11
206.0448184941
 21
434.4552163331
 31
0.0
  0
LINE
  5
15E
330
99
100
AcDbEntity
  8
$DDT_AUDIT_GENERATED_(111)
  6
Continuous
 62
     7
100
AcDbLine
 10
206.0448184941
 20
433.5783649509
 30
0.0
 11
205.5184020988
 21
434.4085854676
 31
0.0
  0
LINE
  5
15F
330
99
100
AcDbEntity
  8
$DDT_AUDIT_GENERATED_(111)
  6
Continuous
 62
     7
100
AcDbLine
 10
205.8516333288
 20
433.5564902193
 30
0.0
 11
205.3245562959
 21
434.3877526393
 31
0.0
  0
ARC
  5
160
330
99
100
AcDbEntity
  8
$DDT_AUDIT_GENERATED_(111)
  6
Continuous
 62
     7
100
AcDbCircle
 10
207.5656378748
 20
418.8694638339
 30
0.0
 40
14.78828606063854
100
AcDbArc
 50
89.6125567497
 51
90.3874432503
  0
LINE
  5
161
330
99
100
AcDbEntity
  8
$DDT_AUDIT_GENERATED_(111)
  6
Continuous
 62
     7
100
AcDbLine
 10
207.6656378748
 20
433.6574117853
 30
0.0
 11
207.6656378748
 21
434.5115816063
 31
0.0
  0
LINE
  5
162
330
99
100
AcDbEntity
  8
$DDT_AUDIT_GENERATED_(111)
  6
Continuous
 62
     7
100
AcDbLine
 10
207.4656378748
 20
433.6574117853
 30
0.0
 11
207.4656378748
 21
434.5115816063
 31
0.0
  0
ELLIPSE
  5
163
330
99
100
AcDbEntity
  8
$DDT_AUDIT_GENERATED_(111)
  6
Continuous
 62
     7
100
AcDbEllipse
 10
207.5656378893
 20
431.0165788725
 30
0.0
 11
6.249999970175283
 21
-7.183947881017616E-9
 31
0.0
210
0.0
220
0.0
230
1.0
 40
0.4225873627
 41
1.292996257779497
 42
1.324997623413291
  0
LINE
  5
164
330
99
100
AcDbEntity
  8
$DDT_AUDIT_GENERATED_(111)
  6
Continuous
 62
     7
100
AcDbLine
 10
209.2796424209
 20
433.5564902193
 30
0.0
 11
209.8067194538
 21
434.3877526393
 31
0.0
  0
LINE
  5
165
330
99
100
AcDbEntity
  8
$DDT_AUDIT_GENERATED_(111)
  6
Continuous
 62
     7
100
AcDbLine
 10
209.0864572556
 20
433.5783649509
 30
0.0
 11
209.6128736508
 21
434.4085854676
 31
0.0
  0
LINE
  5
166
330
99
100
AcDbEntity
  8
$DDT_AUDIT_GENERATED_(111)
  6
Continuous
 62
     7
100
AcDbLine
 10
209.0864572556
 20
433.5783649509
 30
0.0
 11
209.0864572556
 21
434.4552163331
 31
0.0
  0
ELLIPSE
  5
167
330
99
100
AcDbEntity
  8
$DDT_AUDIT_GENERATED_(111)
  6
Continuous
 62
     7
100
AcDbEllipse
 10
207.5656378985
 20
431.016578867
 30
0.0
 11
6.24999997045466
 21
-1.054581422188505E-8
 31
0.0
210
0.0
220
0.0
230
1.0
 40
0.4225873635
 41
1.031196870742566
 42
1.063198236354218
  0
LINE
  5
168
330
99
100
AcDbEntity
  8
$DDT_AUDIT_GENERATED_(111)
  6
Continuous
 62
     7
100
AcDbLine
 10
210.7768403896
 20
433.2824778908
 30
0.0
 11
211.8161275879
 21
434.0431766578
 31
0.0
  0
LINE
  5
169
330
99
100
AcDbEntity
  8
$DDT_AUDIT_GENERATED_(111)
  6
Continuous
 62
     7
100
AcDbLine
 10
210.6036353089
 20
433.3247366273
 30
0.0
 11
211.6404564247
 21
434.0836303631
 31
0.0
  0
LINE
  5
16A
330
99
100
AcDbEntity
  8
$DDT_AUDIT_GENERATED_(111)
  6
Continuous
 62
     7
100
AcDbLine
 10
210.6036353089
 20
433.3247366273
 30
0.0
 11
210.6036353089
 21
434.2803883179
 31
0.0
  0
ELLIPSE
  5
16B
330
99
100
AcDbEntity
  8
$DDT_AUDIT_GENERATED_(111)
  6
Continuous
 62
     7
100
AcDbEllipse
 10
207.5656378912
 20
431.0165788566
 30
0.0
 11
6.249999982609098
 21
-5.972840277923553E-9
 31
0.0
210
0.0
220
0.0
230
1.0
 40
0.4225873643
 41
0.7693974819540043
 42
0.8013988475040371
  0
LINE
  5
16C
330
99
100
AcDbEntity
  8
$DDT_AUDIT_GENERATED_(111)
  6
Continuous
 62
     7
100
AcDbLine
 10
212.0552002137
 20
432.8540482873
 30
0.0
 11
213.5720278208
 21
433.4950404679
 31
0.0
  0
LINE
  5
16D
330
99
100
AcDbEntity
  8
$DDT_AUDIT_GENERATED_(111)
  6
Continuous
 62
     7
100
AcDbLine
 10
211.9137788575
 20
432.9138111655
 30
0.0
 11
213.4256727991
 21
433.5527184414
 31
0.0
  0
LINE
  5
16E
330
99
100
AcDbEntity
  8
$DDT_AUDIT_GENERATED_(111)
  6
Continuous
 62
     7
100
AcDbLine
 10
211.9137788575
 20
432.9138111655
 30
0.0
 11
211.9137788575
 21
434.0197189641
 31
0.0
  0
ELLIPSE
  5
16F
330
99
100
AcDbEntity
  8
$DDT_AUDIT_GENERATED_(111)
  6
Continuous
 62
     7
100
AcDbEllipse
 10
207.5656378242
 20
431.0165788373
 30
0.0
 11
6.25000005111874
 21
1.302065399944041E-8
 31
0.0
210
0.0
220
0.0
230
1.0
 40
0.4225873634
 41
0.5075980900235787
 42
0.5395994553646438
  0
LINE
  5
170
330
99
100
AcDbEntity
  8
$DDT_AUDIT_GENERATED_(111)
  6
Continuous
 62
     7
100
AcDbLine
 10
213.0276037838
 20
432.3003981782
 30
0.0
 11
214.9606536828
 21
432.7720254875
 31
0.0
  0
LINE
  5
171
330
99
100
AcDbEntity
  8
$DDT_AUDIT_GENERATED_(111)
  6
Continuous
 62
     7
100
AcDbLine
 10
212.9276037838
 20
432.3735924567
 30
0.0
 11
214.8532509316
 21
432.8434136359
 31
0.0
  0
LINE
  5
172
330
99
100
AcDbEntity
  8
$DDT_AUDIT_GENERATED_(111)
  6
Continuous
 62
     7
100
AcDbLine
 10
212.9276037838
 20
432.3735924567
 30
0.0
 11
212.9276037838
 21
433.2227150126
 31
0.0
  0
ELLIPSE
  5
173
330
99
100
AcDbEntity
  8
$DDT_AUDIT_GENERATED_(111)
  6
Continuous
 62
     7
100
AcDbEllipse
 10
207.5656383969
 20
431.0165789087
 30
0.0
 11
8.499999477625682
 21
-6.940870794780452E-8
 31
0.0
210
0.0
220
0.0
230
1.0
 40
0.422587376
 41
0.2500344215372956
 42
0.2735643768614808
  0
ELLIPSE
  5
174
330
99
100
AcDbEntity
  8
$DDT_AUDIT_GENERATED_(111)
  6
Continuous
 62
     7
100
AcDbEllipse
 10
207.5656378748
 20
431.0165788496
 30
0.0
 11
8.500000000026581
 21
5.405398351143731E-12
 31
0.0
210
0.0
220
0.0
230
1.0
 40
0.4225873643
 41
0.2735643650865775
 42
0.4628721839977776
  0
ELLIPSE
  5
175
330
99
100
AcDbEntity
  8
$DDT_AUDIT_GENERATED_(111)
  6
Continuous
 62
     7
100
AcDbEllipse
 10
207.5656378192
 20
431.0165788433
 30
0.0
 11
6.250000055674615
 21
7.414936720184784E-9
 31
0.0
210
0.0
220
0.0
230
1.0
 40
0.4225873627
 41
0.2457987034740146
 42
0.277800068817193
  0
LINE
  5
176
330
99
100
AcDbEntity
  8
$DDT_AUDIT_GENERATED_(111)
  6
Continuous
 62
     7
100
AcDbLine
 10
213.6277834035
 20
431.6592579034
 30
0.0
 11
215.8013210915
 21
431.905371799
 31
0.0
  0
LINE
  5
177
330
99
100
AcDbEntity
  8
$DDT_AUDIT_GENERATED_(111)
  6
Continuous
 62
     7
100
AcDbLine
 10
213.5760195945
 20
431.7408955132
 30
0.0
 11
215.7495572825
 21
431.9870094088
 31
0.0
  0
LINE
  5
178
330
99
100
AcDbEntity
  8
$DDT_AUDIT_GENERATED_(111)
  6
Continuous
 62
     7
100
AcDbLine
 10
213.5760195945
 20
431.7408955132
 30
0.0
 11
213.5760195945
 21
432.4342011769
 31
0.0
  0
ARC
  5
179
330
99
100
AcDbEntity
  8
$DDT_AUDIT_GENERATED_(111)
  6
Continuous
 62
     7
100
AcDbCircle
 10
214.5472239857
 20
431.0165788497
 30
0.0
 40
1.518413795568615
100
AcDbArc
 50
358.4052042161
 51
1.5947957839
  0
ELLIPSE
  5
17A
330
99
100
AcDbEntity
  8
$DDT_AUDIT_GENERATED_(111)
  6
Continuous
 62
     7
100
AcDbEllipse
 10
207.5656378748
 20
431.0165788497
 30
0.0
 11
8.5000000000312
 21
2.046973701652632E-12
 31
0.0
210
0.0
220
0.0
230
1.0
 40
0.4225873643
 41
0.0117649772881969
 42
0.2500344105105131
  0
ARC
  5
17B
330
99
100
AcDbEntity
  8
$DDT_AUDIT_GENERATED_(111)
  6
Continuous
 62
     7
100
AcDbCircle
 10
212.6988551937
 20
431.0165788497
 30
0.0
 40
1.116782445731881
100
AcDbArc
 50
0.0
 51
2.1685740453
  0
LINE
  5
17C
330
99
100
AcDbEntity
  8
$DDT_AUDIT_GENERATED_(111)
  6
Continuous
 62
     7
100
AcDbLine
 10
213.8156378748
 20
430.9743201132
 30
0.0
 11
216.0650496192
 21
430.9743201132
 31
0.0
  0
LINE
  5
17D
330
99
100
AcDbEntity
  8
$DDT_AUDIT_GENERATED_(111)
  6
Continuous
 62
     7
100
AcDbLine
 10
213.8148378236
 20
431.0588375861
 30
0.0
 11
216.0650496192
 21
431.0588375861
 31
0.0
  0
LINE
  5
17E
330
99
100
AcDbEntity
  8
$DDT_AUDIT_GENERATED_(111)
  6
Continuous
 62
     7
100
AcDbLine
 10
213.8148378236
 20
431.0588375861
 30
0.0
 11
213.8148378236
 21
431.6804384388
 31
0.0
  0
ELLIPSE
  5
17F
330
99
100
AcDbEntity
  8
$DDT_AUDIT_GENERATED_(111)
  6
Continuous
 62
     7
100
AcDbEllipse
 10
207.5656383965
 20
431.0165787905
 30
0.0
 11
8.499999478037491
 21
6.958908449483658E-8
 31
0.0
210
0.0
220
0.0
230
1.0
 40
0.422587376
 41
-0.2735643768621872
 42
-0.2500344215384356
  0
ELLIPSE
  5
180
330
99
100
AcDbEntity
  8
$DDT_AUDIT_GENERATED_(111)
  6
Continuous
 62
     7
100
AcDbEllipse
 10
207.5656378748
 20
431.0165788497
 30
0.0
 11
8.500000000033348
 21
-2.810252031082427E-12
 31
0.0
210
0.0
220
0.0
230
1.0
 40
0.4225873643
 41
6.033150896669176
 42
6.271420329891843
  0
LINE
  5
181
330
99
100
AcDbEntity
  8
$DDT_AUDIT_GENERATED_(111)
  6
Continuous
 62
     7
100
AcDbLine
 10
215.8013210915
 20
430.1277859003
 30
0.0
 11
215.8013210915
 21
430.9743201132
 31
0.0
  0
LINE
  5
182
330
99
100
AcDbEntity
  8
$DDT_AUDIT_GENERATED_(111)
  6
Continuous
 62
     7
100
AcDbLine
 10
213.6763878061
 20
430.2808972985
 30
0.0
 11
215.7495572825
 21
430.0461482905
 31
0.0
  0
LINE
  5
183
330
99
100
AcDbEntity
  8
$DDT_AUDIT_GENERATED_(111)
  6
Continuous
 62
     7
100
AcDbLine
 10
213.7153151304
 20
430.3639884084
 30
0.0
 11
215.8013210915
 21
430.1277859003
 31
0.0
  0
ELLIPSE
  5
184
330
99
100
AcDbEntity
  8
$DDT_AUDIT_GENERATED_(111)
  6
Continuous
 62
     7
100
AcDbEllipse
 10
207.5656382246
 20
431.0165787644
 30
0.0
 11
8.499999646632672
 21
8.990354988247518E-8
 31
0.0
210
0.0
220
0.0
230
1.0
 40
0.4225873694
 41
-0.5353637679262624
 42
-0.5118338127912585
  0
ELLIPSE
  5
185
330
99
100
AcDbEntity
  8
$DDT_AUDIT_GENERATED_(111)
  6
Continuous
 62
     7
100
AcDbEllipse
 10
207.5656378748
 20
431.0165788497
 30
0.0
 11
8.500000000030406
 21
-6.078471059822732E-12
 31
0.0
210
0.0
220
0.0
230
1.0
 40
0.4225873643
 41
-0.5118337983089942
 42
-0.2735643650864885
  0
LINE
  5
186
330
99
100
AcDbEntity
  8
$DDT_AUDIT_GENERATED_(111)
  6
Continuous
 62
     7
100
AcDbLine
 10
214.9763443627
 20
429.2573039852
 30
0.0
 11
214.9763443627
 21
430.1337006917
 31
0.0
  0
LINE
  5
187
330
99
100
AcDbEntity
  8
$DDT_AUDIT_GENERATED_(111)
  6
Continuous
 62
     7
100
AcDbLine
 10
213.1089246144
 20
429.615326418
 30
0.0
 11
214.8763443627
 21
429.1841097066
 31
0.0
  0
LINE
  5
188
330
99
100
AcDbEntity
  8
$DDT_AUDIT_GENERATED_(111)
  6
Continuous
 62
     7
100
AcDbLine
 10
213.1986105037
 20
429.6910371428
 30
0.0
 11
214.9763443627
 21
429.2573039852
 31
0.0
  0
ELLIPSE
  5
189
330
99
100
AcDbEntity
  8
$DDT_AUDIT_GENERATED_(111)
  6
Continuous
 62
     7
100
AcDbEllipse
 10
207.5656378558
 20
431.0165788576
 30
0.0
 11
8.500000020179492
 21
-6.891966164435104E-9
 31
0.0
210
0.0
220
0.0
230
1.0
 40
0.4225873643
 41
-0.7971631395270622
 42
-0.7736331849880136
  0
ELLIPSE
  5
18A
330
99
100
AcDbEntity
  8
$DDT_AUDIT_GENERATED_(111)
  6
Continuous
 62
     7
100
AcDbEllipse
 10
207.5656378748
 20
431.0165788497
 30
0.0
 11
8.500000000025501
 21
-8.069933610244107E-12
 31
0.0
210
0.0
220
0.0
230
1.0
 40
0.4225873643
 41
-0.7736331861078423
 42
-0.5353637528853126
  0
LINE
  5
18B
330
99
100
AcDbEntity
  8
$DDT_AUDIT_GENERATED_(111)
  6
Continuous
 62
     7
100
AcDbLine
 10
213.6463402335
 20
428.5067137448
 30
0.0
 11
213.6463402335
 21
429.4842072562
 31
0.0
  0
LINE
  5
18C
330
99
100
AcDbEntity
  8
$DDT_AUDIT_GENERATED_(111)
  6
Continuous
 62
     7
100
AcDbLine
 10
212.1264755732
 20
429.0294635893
 30
0.0
 11
213.5049188772
 21
428.4469508666
 31
0.0
  0
LINE
  5
18D
330
99
100
AcDbEntity
  8
$DDT_AUDIT_GENERATED_(111)
  6
Continuous
 62
     7
100
AcDbLine
 10
212.2610249169
 20
429.0921304932
 30
0.0
 11
213.6463402335
 21
428.5067137448
 31
0.0
  0
ELLIPSE
  5
18E
330
99
100
AcDbEntity
  8
$DDT_AUDIT_GENERATED_(111)
  6
Continuous
 62
     7
100
AcDbEllipse
 10
207.5656381108
 20
431.0165786769
 30
0.0
 11
8.499999705006978
 21
1.051493059289754E-7
 31
0.0
210
0.0
220
0.0
230
1.0
 40
0.4225873585
 41
-1.058962546061879
 42
-1.035432590832402
  0
ELLIPSE
  5
18F
330
99
100
AcDbEntity
  8
$DDT_AUDIT_GENERATED_(111)
  6
Continuous
 62
     7
100
AcDbEllipse
 10
207.5656378748
 20
431.0165788497
 30
0.0
 11
8.500000000021288
 21
-7.618905506490137E-12
 31
0.0
210
0.0
220
0.0
230
1.0
 40
0.4225873643
 41
-1.035432573907022
 42
-0.7971631406844946
  0
LINE
  5
190
330
99
100
AcDbEntity
  8
$DDT_AUDIT_GENERATED_(111)
  6
Continuous
 62
     7
100
AcDbLine
 10
211.9019462874
 20
427.9271666635
 30
0.0
 11
211.9019462874
 21
428.9332520474
 31
0.0
  0
LINE
  5
191
330
99
100
AcDbEntity
  8
$DDT_AUDIT_GENERATED_(111)
  6
Continuous
 62
     7
100
AcDbLine
 10
210.7892474358
 20
428.5725636148
 30
0.0
 11
211.7287412066
 21
427.8849079271
 31
0.0
  0
LINE
  5
192
330
99
100
AcDbEntity
  8
$DDT_AUDIT_GENERATED_(111)
  6
Continuous
 62
     7
100
AcDbLine
 10
210.9590185373
 20
428.6173358276
 30
0.0
 11
211.9019462874
 21
427.9271666635
 31
0.0
  0
ELLIPSE
  5
193
330
99
100
AcDbEntity
  8
$DDT_AUDIT_GENERATED_(111)
  6
Continuous
 62
     7
100
AcDbEllipse
 10
207.5656379795
 20
431.0165786849
 30
0.0
 11
8.499999784595888
 21
5.200908453906194E-8
 31
0.0
210
0.0
220
0.0
230
1.0
 40
0.4225873557
 41
-1.320761925107231
 42
-1.297231969972295
  0
ELLIPSE
  5
194
330
99
100
AcDbEntity
  8
$DDT_AUDIT_GENERATED_(111)
  6
Continuous
 62
     7
100
AcDbEllipse
 10
207.5656378748
 20
431.0165788497
 30
0.0
 11
8.499999999996492
 21
1.061650767297806E-12
 31
0.0
210
0.0
220
0.0
230
1.0
 40
0.4225873643
 41
-1.297231961707883
 42
-1.058962528484826
  0
LINE
  5
195
330
99
100
AcDbEntity
  8
$DDT_AUDIT_GENERATED_(111)
  6
Continuous
 62
     7
100
AcDbLine
 10
209.8620400891
 20
427.5581579172
 30
0.0
 11
209.8620400891
 21
428.3788842929
 31
0.0
  0
LINE
  5
196
330
99
100
AcDbEntity
  8
$DDT_AUDIT_GENERATED_(111)
  6
Continuous
 62
     7
100
AcDbLine
 10
209.1938967011
 20
428.2853481173
 30
0.0
 11
209.6688549238
 21
427.5362831856
 31
0.0
  0
LINE
  5
197
330
99
100
AcDbEntity
  8
$DDT_AUDIT_GENERATED_(111)
  6
Continuous
 62
     7
100
AcDbLine
 10
209.3861621313
 20
428.308673379
 30
0.0
 11
209.8620400891
 21
427.5581579172
 31
0.0
  0
ARC
  5
198
330
99
100
AcDbEntity
  8
$DDT_AUDIT_GENERATED_(111)
  6
Continuous
 62
     7
100
AcDbCircle
 10
207.5656378748
 20
441.2157908164
 30
0.0
 40
12.41779591109358
100
AcDbArc
 50
269.1925222956
 51
270.8074777044
  0
LINE
  5
199
330
99
100
AcDbEntity
  8
$DDT_AUDIT_GENERATED_(111)
  6
Continuous
 62
     7
100
AcDbLine
 10
207.3906378748
 20
429.6755545892
 30
0.0
 11
207.3906378748
 21
428.7992280759
 31
0.0
  0
LINE
  5
19A
330
99
100
AcDbEntity
  8
$DDT_AUDIT_GENERATED_(111)
  6
Continuous
 62
     7
100
AcDbLine
 10
207.7406378748
 20
429.6755545892
 30
0.0
 11
207.7406378748
 21
428.7992280759
 31
0.0
  0
ELLIPSE
  5
19B
330
99
100
AcDbEntity
  8
$DDT_AUDIT_GENERATED_(111)
  6
Continuous
 62
     7
100
AcDbEllipse
 10
207.5656378751
 20
431.0165788499
 30
0.0
 11
-5.250000000393589
 21
-1.412342465201277E-10
 31
0.0
210
0.0
220
0.0
230
1.0
 40
0.4225873644
 41
1.013858041900218
 42
1.080537060418803
  0
LINE
  5
19C
330
99
100
AcDbEntity
  8
$DDT_AUDIT_GENERATED_(111)
  6
Continuous
 62
     7
100
AcDbLine
 10
205.8672067014
 20
429.9213299828
 30
0.0
 11
204.7905421678
 21
429.1332731449
 31
0.0
  0
LINE
  5
19D
330
99
100
AcDbEntity
  8
$DDT_AUDIT_GENERATED_(111)
  6
Continuous
 62
     7
100
AcDbLine
 10
206.1565976732
 20
429.8373364618
 30
0.0
 11
205.0936510591
 21
429.0593203561
 31
0.0
  0
LINE
  5
19E
330
99
100
AcDbEntity
  8
$DDT_AUDIT_GENERATED_(111)
  6
Continuous
 62
     7
100
AcDbLine
 10
204.7905421678
 20
430.2541150972
 30
0.0
 11
204.7905421678
 21
429.1332731449
 31
0.0
  0
ELLIPSE
  5
19F
330
99
100
AcDbEntity
  8
$DDT_AUDIT_GENERATED_(111)
  6
Continuous
 62
     7
100
AcDbEllipse
 10
207.5656378716
 20
431.0165788489
 30
0.0
 11
-5.249999996773434
 21
8.229597558973012E-10
 31
0.0
210
0.0
220
0.0
230
1.0
 40
0.4225873644
 41
0.4902592665437679
 42
0.556938285089783
  0
LINE
  5
1A0
330
99
100
AcDbEntity
  8
$DDT_AUDIT_GENERATED_(111)
  6
Continuous
 62
     7
100
AcDbLine
 10
204.9583277311
 20
430.4658382247
 30
0.0
 11
202.9340311144
 21
429.9719484565
 31
0.0
  0
LINE
  5
1A1
330
99
100
AcDbEntity
  8
$DDT_AUDIT_GENERATED_(111)
  6
Continuous
 62
     7
100
AcDbLine
 10
205.0919176665
 20
430.3276449712
 30
0.0
 11
203.1090311144
 21
429.843858469
 31
0.0
  0
LINE
  5
1A2
330
99
100
AcDbEntity
  8
$DDT_AUDIT_GENERATED_(111)
  6
Continuous
 62
     7
100
AcDbLine
 10
202.9340311144
 20
430.9426260609
 30
0.0
 11
202.9340311144
 21
429.9719484565
 31
0.0
  0
LINE
  5
1A3
330
99
100
AcDbEntity
  8
$DDT_AUDIT_GENERATED_(111)
  6
Continuous
 62
     7
100
AcDbLine
 10
204.8212117053
 20
431.6007731699
 30
0.0
 11
204.8212117053
 21
431.0905316384
 31
0.0
  0
ELLIPSE
  5
1A4
330
99
100
AcDbEntity
  8
$DDT_AUDIT_GENERATED_(111)
  6
Continuous
 62
     7
100
AcDbEllipse
 10
207.5656378748
 20
431.0165788497
 30
0.0
 11
2.749999999991323
 21
-1.054711873393899E-12
 31
0.0
210
0.0
220
0.0
230
1.0
 40
0.4225873643
 41
3.07791326133299
 42
3.141592653589771
  0
LINE
  5
1A5
330
99
100
AcDbEntity
  8
$DDT_AUDIT_GENERATED_(111)
  6
Continuous
 62
     7
100
AcDbLine
 10
204.8212117053
 20
431.0905316384
 30
0.0
 11
202.3504909924
 21
431.0905316384
 31
0.0
  0
LINE
  5
1A6
330
99
100
AcDbEntity
  8
$DDT_AUDIT_GENERATED_(111)
  6
Continuous
 62
     7
100
AcDbLine
 10
204.8156378748
 20
430.9426260609
 30
0.0
 11
202.3217829284
 21
430.9426260609
 31
0.0
  0
LINE
  5
1A7
330
99
100
AcDbEntity
  8
$DDT_AUDIT_GENERATED_(111)
  6
Continuous
 62
     7
100
AcDbLine
 10
205.2763950932
 20
432.5442680108
 30
0.0
 11
205.2763950932
 21
431.6605037542
 31
0.0
  0
ELLIPSE
  5
1A8
330
99
100
AcDbEntity
  8
$DDT_AUDIT_GENERATED_(111)
  6
Continuous
 62
     7
100
AcDbEllipse
 10
207.5656378748
 20
431.0165788497
 30
0.0
 11
-2.750000000004893
 21
1.214306433183765E-12
 31
0.0
210
0.0
220
0.0
230
1.0
 40
0.4225873643
 41
-0.5872781678546222
 42
-0.4599193833407025
  0
LINE
  5
1A9
330
99
100
AcDbEntity
  8
$DDT_AUDIT_GENERATED_(111)
  6
Continuous
 62
     7
100
AcDbLine
 10
205.2763950932
 20
431.6605037542
 30
0.0
 11
203.3169386377
 21
432.1385737597
 31
0.0
  0
LINE
  5
1AA
330
99
100
AcDbEntity
  8
$DDT_AUDIT_GENERATED_(111)
  6
Continuous
 62
     7
100
AcDbLine
 10
205.1013950932
 20
431.5324137667
 30
0.0
 11
203.1204256942
 21
432.0157325201
 31
0.0
  0
LINE
  5
1AB
330
99
100
AcDbEntity
  8
$DDT_AUDIT_GENERATED_(111)
  6
Continuous
 62
     7
100
AcDbLine
 10
206.3449792357
 20
432.9930974878
 30
0.0
 11
206.3449792357
 21
432.0579367118
 31
0.0
  0
ELLIPSE
  5
1AC
330
99
100
AcDbEntity
  8
$DDT_AUDIT_GENERATED_(111)
  6
Continuous
 62
     7
100
AcDbEllipse
 10
207.5656378748
 20
431.0165788497
 30
0.0
 11
-2.749999999993389
 21
-2.067790383364354E-12
 31
0.0
210
0.0
220
0.0
230
1.0
 40
0.4225873643
 41
-1.110876943454819
 42
-0.983518158940548
  0
LINE
  5
1AD
330
99
100
AcDbEntity
  8
$DDT_AUDIT_GENERATED_(111)
  6
Continuous
 62
     7
100
AcDbLine
 10
206.3449792357
 20
432.0579367118
 30
0.0
 11
205.2851617411
 21
432.8336624812
 31
0.0
  0
LINE
  5
1AE
330
99
100
AcDbEntity
  8
$DDT_AUDIT_GENERATED_(111)
  6
Continuous
 62
     7
100
AcDbLine
 10
206.0418703444
 20
431.9839839231
 30
0.0
 11
204.9748938927
 21
432.7649496394
 31
0.0
  0
ARC
  5
1AF
330
99
100
AcDbEntity
  8
$DDT_AUDIT_GENERATED_(111)
  6
Continuous
 62
     7
100
AcDbCircle
 10
207.5656378748
 20
425.6819983263
 30
0.0
 40
6.496697739366624
100
AcDbArc
 50
88.4564505285
 51
91.5435494715
  0
LINE
  5
1B0
330
99
100
AcDbEntity
  8
$DDT_AUDIT_GENERATED_(111)
  6
Continuous
 62
     7
100
AcDbLine
 10
207.7406378748
 20
432.1763386713
 30
0.0
 11
207.7406378748
 21
433.0526651846
 31
0.0
  0
LINE
  5
1B1
330
99
100
AcDbEntity
  8
$DDT_AUDIT_GENERATED_(111)
  6
Continuous
 62
     7
100
AcDbLine
 10
207.3906378748
 20
432.1763386713
 30
0.0
 11
207.3906378748
 21
433.0526651846
 31
0.0
  0
ELLIPSE
  5
1B2
330
99
100
AcDbEntity
  8
$DDT_AUDIT_GENERATED_(111)
  6
Continuous
 62
     7
100
AcDbEllipse
 10
207.5656378749
 20
431.0165788497
 30
0.0
 11
2.749999999965491
 21
-1.204591981718295E-11
 31
0.0
210
0.0
220
0.0
230
1.0
 40
0.4225873643
 41
0.9835181589451991
 42
1.110876943460509
  0
LINE
  5
1B3
330
99
100
AcDbEntity
  8
$DDT_AUDIT_GENERATED_(111)
  6
Continuous
 62
     7
100
AcDbLine
 10
208.7862965139
 20
432.9930974878
 30
0.0
 11
208.7862965139
 21
432.0579367118
 31
0.0
  0
LINE
  5
1B4
330
99
100
AcDbEntity
  8
$DDT_AUDIT_GENERATED_(111)
  6
Continuous
 62
     7
100
AcDbLine
 10
209.0894054053
 20
431.9839839231
 30
0.0
 11
210.1563818569
 21
432.7649496394
 31
0.0
  0
LINE
  5
1B5
330
99
100
AcDbEntity
  8
$DDT_AUDIT_GENERATED_(111)
  6
Continuous
 62
     7
100
AcDbLine
 10
208.7862965139
 20
432.0579367118
 30
0.0
 11
209.8461140086
 21
432.8336624812
 31
0.0
  0
ELLIPSE
  5
1B6
330
99
100
AcDbEntity
  8
$DDT_AUDIT_GENERATED_(111)
  6
Continuous
 62
     7
100
AcDbEllipse
 10
207.5656378748
 20
431.0165788497
 30
0.0
 11
2.750000000009719
 21
1.332267629550188E-12
 31
0.0
210
0.0
220
0.0
230
1.0
 40
0.4225873643
 41
0.4599193833402924
 42
0.5872781678541067
  0
LINE
  5
1B7
330
99
100
AcDbEntity
  8
$DDT_AUDIT_GENERATED_(111)
  6
Continuous
 62
     7
100
AcDbLine
 10
209.8548806565
 20
432.5442680108
 30
0.0
 11
209.8548806565
 21
431.6605037542
 31
0.0
  0
LINE
  5
1B8
330
99
100
AcDbEntity
  8
$DDT_AUDIT_GENERATED_(111)
  6
Continuous
 62
     7
100
AcDbLine
 10
210.0298806565
 20
431.5324137667
 30
0.0
 11
212.0108500554
 21
432.0157325201
 31
0.0
  0
LINE
  5
1B9
330
99
100
AcDbEntity
  8
$DDT_AUDIT_GENERATED_(111)
  6
Continuous
 62
     7
100
AcDbLine
 10
209.8548806565
 20
431.6605037542
 30
0.0
 11
211.814337112
 21
432.1385737597
 31
0.0
  0
ELLIPSE
  5
1BA
330
99
100
AcDbEntity
  8
$DDT_AUDIT_GENERATED_(111)
  6
Continuous
 62
     7
100
AcDbEllipse
 10
207.5656378748
 20
431.0165788497
 30
0.0
 11
-2.749999999989964
 21
-1.013078509970455E-12
 31
0.0
210
0.0
220
0.0
230
1.0
 40
0.4225873643
 41
3.141592653589793
 42
3.205272045846813
  0
LINE
  5
1BB
330
99
100
AcDbEntity
  8
$DDT_AUDIT_GENERATED_(111)
  6
Continuous
 62
     7
100
AcDbLine
 10
210.3100640444
 20
431.6007731699
 30
0.0
 11
210.3100640444
 21
431.0905316384
 31
0.0
  0
LINE
  5
1BC
330
99
100
AcDbEntity
  8
$DDT_AUDIT_GENERATED_(111)
  6
Continuous
 62
     7
100
AcDbLine
 10
210.3156378748
 20
430.9426260609
 30
0.0
 11
212.8094928213
 21
430.9426260609
 31
0.0
  0
LINE
  5
1BD
330
99
100
AcDbEntity
  8
$DDT_AUDIT_GENERATED_(111)
  6
Continuous
 62
     7
100
AcDbLine
 10
210.3100640444
 20
431.0905316384
 30
0.0
 11
212.7807847573
 21
431.0905316384
 31
0.0
  0
ELLIPSE
  5
1BE
330
99
100
AcDbEntity
  8
$DDT_AUDIT_GENERATED_(111)
  6
Continuous
 62
     7
100
AcDbEllipse
 10
207.5656378752
 20
431.0165788496
 30
0.0
 11
5.249999999610194
 21
1.000588500943422E-10
 31
0.0
210
0.0
220
0.0
230
1.0
 40
0.4225873644
 41
-0.5569382848875053
 42
-0.4902592663620746
  0
LINE
  5
1BF
330
99
100
AcDbEntity
  8
$DDT_AUDIT_GENERATED_(111)
  6
Continuous
 62
     7
100
AcDbLine
 10
210.0393580832
 20
430.3276449712
 30
0.0
 11
212.0222446352
 21
429.843858469
 31
0.0
  0
LINE
  5
1C0
330
99
100
AcDbEntity
  8
$DDT_AUDIT_GENERATED_(111)
  6
Continuous
 62
     7
100
AcDbLine
 10
210.1729480186
 20
430.4658382247
 30
0.0
 11
212.1972446352
 21
429.9719484565
 31
0.0
  0
LINE
  5
1C1
330
99
100
AcDbEntity
  8
$DDT_AUDIT_GENERATED_(111)
  6
Continuous
 62
     7
100
AcDbLine
 10
212.1972446352
 20
430.9426260609
 30
0.0
 11
212.1972446352
 21
429.9719484565
 31
0.0
  0
ELLIPSE
  5
1C2
330
99
100
AcDbEntity
  8
$DDT_AUDIT_GENERATED_(111)
  6
Continuous
 62
     7
100
AcDbEllipse
 10
207.5656378753
 20
431.0165788493
 30
0.0
 11
5.249999999477446
 21
1.879052469178078E-10
 31
0.0
210
0.0
220
0.0
230
1.0
 40
0.4225873643
 41
-1.080537060509972
 42
-1.013858041982052
  0
LINE
  5
1C3
330
99
100
AcDbEntity
  8
$DDT_AUDIT_GENERATED_(111)
  6
Continuous
 62
     7
100
AcDbLine
 10
208.9746780765
 20
429.8373364618
 30
0.0
 11
210.0376246905
 21
429.0593203561
 31
0.0
  0
LINE
  5
1C4
330
99
100
AcDbEntity
  8
$DDT_AUDIT_GENERATED_(111)
  6
Continuous
 62
     7
100
AcDbLine
 10
209.2640690482
 20
429.9213299828
 30
0.0
 11
210.3407335818
 21
429.1332731449
 31
0.0
  0
LINE
  5
1C5
330
99
100
AcDbEntity
  8
$DDT_AUDIT_GENERATED_(111)
  6
Continuous
 62
     7
100
AcDbLine
 10
210.3407335818
 20
430.2541150972
 30
0.0
 11
210.3407335818
 21
429.1332731449
 31
0.0
  0
LINE
  5
1C6
330
99
100
AcDbEntity
  8
$DDT_AUDIT_GENERATED_(111)
  6
Continuous
 62
     7
100
AcDbLine
 10
198.5656378748
 20
432.9755031124
 30
0.0
 11
198.5656378748
 21
430.8353144108
 31
0.0
  0
LINE
  5
1C7
330
99
100
AcDbEntity
  8
$DDT_AUDIT_GENERATED_(111)
  6
Continuous
 62
     7
100
AcDbLine
 10
216.5656378748
 20
430.8353144108
 30
0.0
 11
216.5656378748
 21
432.9755031124
 31
0.0
  0
LINE
  5
1C8
330
99
100
AcDbEntity
  8
$DDT_AUDIT_GENERATED_(111)
  6
Continuous
 62
     7
100
AcDbLine
 10
201.3156378748
 20
431.0165788497
 30
0.0
 11
201.3156378748
 21
430.8353144108
 31
0.0
  0
LINE
  5
1C9
330
99
100
AcDbEntity
  8
$DDT_AUDIT_GENERATED_(111)
  6
Continuous
 62
     7
100
AcDbLine
 10
213.8156378748
 20
430.8353144108
 30
0.0
 11
213.8156378748
 21
431.0165788497
 31
0.0
  0
LINE
  5
1CA
330
99
100
AcDbEntity
  8
$DDT_AUDIT_GENERATED_(111)
  6
Continuous
 62
     7
100
AcDbLine
 10
204.8156378748
 20
431.0165788497
 30
0.0
 11
204.8156378748
 21
430.8353144108
 31
0.0
  0
LINE
  5
1CB
330
99
100
AcDbEntity
  8
$DDT_AUDIT_GENERATED_(111)
  6
Continuous
 62
     7
100
AcDbLine
 10
210.3156378748
 20
430.8353144108
 30
0.0
 11
210.3156378748
 21
431.0165788497
 31
0.0
  0
LINE
  5
1CC
330
99
100
AcDbEntity
  8
$DDT_AUDIT_GENERATED_(111)
  6
Continuous
 62
     7
100
AcDbLine
 10
207.0460079309
 20
431.2454998776
 30
0.0
 11
207.0460079309
 21
431.0165788497
 31
0.0
  0
LINE
  5
1CD
330
99
100
AcDbEntity
  8
$DDT_AUDIT_GENERATED_(111)
  6
Continuous
 62
     7
100
AcDbLine
 10
208.0852678187
 20
431.0165788497
 30
0.0
 11
208.0852678187
 21
431.2454998776
 31
0.0
  0
ENDBLK
  5
1CF
330
99
100
AcDbEntity
  8
0
100
AcDbBlockEnd
  0
BLOCK
  5
22F
330
1D0
100
AcDbEntity
  8
0
100
AcDbBlockBegin
  2
SE1
 70
     0
 10
0.0
 20
0.0
 30
0.0
  3
SE1
  1

  0
LINE
  5
1D2
330
1D0
100
AcDbEntity
  8
$DDT_AUDIT_GENERATED_(9B)
  6
Continuous
 62
     7
100
AcDbLine
 10
576.2580503048
 20
459.7564510602
 30
0.0
 11
576.2580503048
 21
488.4564510602
 31
0.0
  0
LINE
  5
1D3
330
1D0
100
AcDbEntity
  8
$DDT_AUDIT_GENERATED_(9B)
  6
Continuous
 62
     7
100
AcDbLine
 10
572.0580503048
 20
459.2564510602
 30
0.0
 11
575.7580503048
 21
459.2564510602
 31
0.0
  0
LINE
  5
1D4
330
1D0
100
AcDbEntity
  8
$DDT_AUDIT_GENERATED_(9B)
  6
Continuous
 62
     7
100
AcDbLine
 10
575.7580503048
 20
488.9564510602
 30
0.0
 11
572.0580503048
 21
488.9564510602
 31
0.0
  0
ARC
  5
1D5
330
1D0
100
AcDbEntity
  8
$DDT_AUDIT_GENERATED_(9B)
  6
Continuous
 62
     7
100
AcDbCircle
 10
575.7580503048
 20
459.7564510602
 30
0.0
 40
0.4999999999999987
100
AcDbArc
 50
270.0
 51
0.0
  0
ARC
  5
1D6
330
1D0
100
AcDbEntity
  8
$DDT_AUDIT_GENERATED_(9B)
  6
Continuous
 62
     7
100
AcDbCircle
 10
575.7580503048
 20
488.4564510602
 30
0.0
 40
0.5000000000000004
100
AcDbArc
 50
0.0
 51
90.0
  0
LINE
  5
1D7
330
1D0
100
AcDbEntity
  8
$DDT_AUDIT_GENERATED_(A0)
  6
Continuous
 62
     7
100
AcDbLine
 10
576.4580503048
 20
464.3564510602
 30
0.0
 11
576.4580503048
 21
483.8564510602
 31
0.0
  0
SPLINE
  5
1D8
330
1D0
100
AcDbEntity
  8
$DDT_AUDIT_GENERATED_(A0)
  6
Continuous
 62
     7
100
AcDbSpline
210
0.0
220
0.0
230
1.0
 70
     8
 71
     3
 72
    22
 73
    18
 74
     0
 42
0.0000000002606264
 43
0.0000000001
 40
0.2506472005983312
 40
0.2506472005983312
 40
0.2506472005983312
 40
0.2506472005983312
 40
0.3125000000000001
 40
0.3125000000000001
 40
0.3750000000000002
 40
0.3750000000000002
 40
0.4375000000000002
 40
0.4375000000000002
 40
0.5000000000000002
 40
0.5000000000000002
 40
0.6250000000000002
 40
0.6250000000000002
 40
0.6875000000000003
 40
0.6875000000000003
 40
0.7500000000000003
 40
0.7500000000000003
 40
0.7505640454311335
 40
0.7505640454311335
 40
0.7505640454311335
 40
0.7505640454311335
 10
585.9580516997596
 20
469.2320847495112
 30
0.0
 10
585.9582344981662
 20
469.9262202680348
 30
0.0
 10
586.1229357509848
 20
470.6689092605787
 30
0.0
 10
586.7291491921798
 20
472.0985693559184
 30
0.0
 10
587.1715331972586
 20
472.7875803217792
 30
0.0
 10
588.2478130111256
 20
473.9825428289355
 30
0.0
 10
588.8902189034798
 20
474.4988836829826
 30
0.0
 10
590.3170372277975
 20
475.2350150614307
 30
0.0
 10
591.1178796252378
 20
475.4557085139512
 30
0.0
 10
593.5641717407083
 20
475.4683815610356
 30
0.0
 10
595.0902963773302
 20
474.610980833569
 30
0.0
 10
596.724303961328
 20
472.8164799365339
 30
0.0
 10
597.1641534833115
 20
472.1394987890602
 30
0.0
 10
597.7866150208779
 20
470.6965336383653
 30
0.0
 10
597.9549593234411
 20
469.9564368080547
 30
0.0
 10
597.9580356878447
 20
469.2445697808747
 30
0.0
 10
597.9580494547727
 20
469.2382077773166
 30
0.0
 10
597.9580494954414
 20
469.2318507482777
 30
0.0
  0
ARC
  5
1D9
330
1D0
100
AcDbEntity
  8
$DDT_AUDIT_GENERATED_(A0)
  6
Continuous
 62
     7
100
AcDbCircle
 10
591.958050292
 20
491.4054651351
 30
0.0
 40
9.643008853318456
100
AcDbArc
 50
231.5221308857
 51
308.4778726016
  0
LINE
  5
1DA
330
1D0
100
AcDbEntity
  8
$DDT_AUDIT_GENERATED_(A0)
  6
Continuous
 62
     7
100
AcDbLine
 10
599.4580503048
 20
464.8564510602
 30
0.0
 11
599.4580503048
 21
483.3564510602
 31
0.0
  0
LINE
  5
1DB
330
1D0
100
AcDbEntity
  8
$DDT_AUDIT_GENERATED_(A0)
  6
Continuous
 62
     7
100
AcDbLine
 10
597.4580503048
 20
511.6064510602
 30
0.0
 11
586.4580503048
 21
511.6064510602
 31
0.0
  0
ELLIPSE
  5
1DC
330
1D0
100
AcDbEntity
  8
$DDT_AUDIT_GENERATED_(A0)
  6
Continuous
 62
     7
100
AcDbEllipse
 10
591.9580503048
 20
455.6064510602
 30
0.0
 11
-6.00000000000002
 21
1.040834085586084E-14
 31
0.0
210
0.0
220
0.0
230
1.0
 40
0.8660254038
 41
6.04424316688561
 42
6.283185307179586
  0
ELLIPSE
  5
1DD
330
1D0
100
AcDbEntity
  8
$DDT_AUDIT_GENERATED_(A0)
  6
Continuous
 62
     7
100
AcDbEllipse
 10
591.9580503048
 20
455.6064510602
 30
0.0
 11
-6.00000000000002
 21
1.040834085586084E-14
 31
0.0
210
0.0
220
0.0
230
1.0
 40
0.8660254038
 41
3.402266491624278
 42
6.04424316688561
  0
ELLIPSE
  5
1DE
330
1D0
100
AcDbEntity
  8
$DDT_AUDIT_GENERATED_(A0)
  6
Continuous
 62
     7
100
AcDbEllipse
 10
591.9580503048
 20
455.6064510602
 30
0.0
 11
-6.00000000000002
 21
1.040834085586084E-14
 31
0.0
210
0.0
220
0.0
230
1.0
 40
0.8660254038
 41
2.886760850845487
 42
3.402266491624278
  0
ELLIPSE
  5
1DF
330
1D0
100
AcDbEntity
  8
$DDT_AUDIT_GENERATED_(A0)
  6
Continuous
 62
     7
100
AcDbEllipse
 10
591.9580503048
 20
455.6064510602
 30
0.0
 11
-6.00000000000002
 21
1.040834085586084E-14
 31
0.0
210
0.0
220
0.0
230
1.0
 40
0.8660254038
 41
0.0
 42
0.259583065136743
  0
LINE
  5
1E0
330
1D0
100
AcDbEntity
  8
$DDT_AUDIT_GENERATED_(A0)
  6
Continuous
 62
     7
100
AcDbLine
 10
597.9580503048
 20
455.6064510602
 30
0.0
 11
597.9580503048
 21
469.2347678813
 31
0.0
  0
LINE
  5
1E1
330
1D0
100
AcDbEntity
  8
$DDT_AUDIT_GENERATED_(A0)
  6
Continuous
 62
     7
100
AcDbLine
 10
585.9580503048
 20
469.2355773701
 30
0.0
 11
585.9580503048
 21
455.6064510602
 31
0.0
  0
LINE
  5
1E2
330
1D0
100
AcDbEntity
  8
$DDT_AUDIT_GENERATED_(A0)
  6
Continuous
 62
     7
100
AcDbLine
 10
585.9715189829
 20
483.8564510602
 30
0.0
 11
576.4580503048
 21
483.8564510602
 31
0.0
  0
LINE
  5
1E3
330
1D0
100
AcDbEntity
  8
$DDT_AUDIT_GENERATED_(A0)
  6
Continuous
 62
     7
100
AcDbLine
 10
598.9580503048
 20
483.8564510602
 30
0.0
 11
597.9472400927
 21
483.8564510602
 31
0.0
  0
LINE
  5
1E4
330
1D0
100
AcDbEntity
  8
$DDT_AUDIT_GENERATED_(A0)
  6
Continuous
 62
     7
100
AcDbLine
 10
576.4580503048
 20
464.3564510602
 30
0.0
 11
585.9580503048
 21
464.3564510602
 31
0.0
  0
LINE
  5
1E5
330
1D0
100
AcDbEntity
  8
$DDT_AUDIT_GENERATED_(A0)
  6
Continuous
 62
     7
100
AcDbLine
 10
597.9580503048
 20
464.3564510602
 30
0.0
 11
598.9580503048
 21
464.3564510602
 31
0.0
  0
LINE
  5
1E6
330
1D0
100
AcDbEntity
  8
$DDT_AUDIT_GENERATED_(A0)
  6
Continuous
 62
     7
100
AcDbLine
 10
585.9580503048
 20
511.1064510602
 30
0.0
 11
585.9580503048
 21
483.8481984406
 31
0.0
  0
LINE
  5
1E7
330
1D0
100
AcDbEntity
  8
$DDT_AUDIT_GENERATED_(A0)
  6
Continuous
 62
     7
100
AcDbLine
 10
597.9580503048
 20
483.8498174182
 30
0.0
 11
597.9580503048
 21
511.1064510602
 31
0.0
  0
ARC
  5
1E8
330
1D0
100
AcDbEntity
  8
$DDT_AUDIT_GENERATED_(A0)
  6
Continuous
 62
     7
100
AcDbCircle
 10
598.9580503048
 20
464.8564510602
 30
0.0
 40
0.4999999999999987
100
AcDbArc
 50
270.0
 51
0.0
  0
ARC
  5
1E9
330
1D0
100
AcDbEntity
  8
$DDT_AUDIT_GENERATED_(A0)
  6
Continuous
 62
     7
100
AcDbCircle
 10
598.9580503048
 20
483.3564510602
 30
0.0
 40
0.4999999999975024
100
AcDbArc
 50
0.0
 51
90.0
  0
ARC
  5
1EA
330
1D0
100
AcDbEntity
  8
$DDT_AUDIT_GENERATED_(A0)
  6
Continuous
 62
     7
100
AcDbCircle
 10
597.4580503048
 20
511.1064510602
 30
0.0
 40
0.5000000000000004
100
AcDbArc
 50
0.0
 51
90.0
  0
ARC
  5
1EB
330
1D0
100
AcDbEntity
  8
$DDT_AUDIT_GENERATED_(A0)
  6
Continuous
 62
     7
100
AcDbCircle
 10
586.4580503048
 20
511.1064510602
 30
0.0
 40
0.5000000000000073
100
AcDbArc
 50
90.0
 51
180.0
  0
SPLINE
  5
1EC
330
1D0
100
AcDbEntity
  8
$DDT_AUDIT_GENERATED_(A0)
  6
Continuous
 62
     7
100
AcDbSpline
210
0.0
220
0.0
230
1.0
 70
     8
 71
     3
 72
    33
 73
    29
 74
     0
 42
0.0000000006676537
 43
0.0000000001
 40
0.0
 40
0.0
 40
0.0
 40
0.0
 40
0.006417068266203
 40
0.0462230658690443
 40
0.0860847850023079
 40
0.1260185786145402
 40
0.1660321553936606
 40
0.2061253348065258
 40
0.2462919349300508
 40
0.2865221343902088
 40
0.3268047104925285
 40
0.367128765857207
 40
0.4074847971280885
 40
0.4478651430170227
 40
0.4882639436082811
 40
0.5286767624969857
 40
0.5690997464882368
 40
0.6095285185066158
 40
0.6499587047616288
 40
0.690384371941399
 40
0.7307974360099541
 40
0.7711873139560537
 40
0.8115409852084016
 40
0.8518436515752513
 40
0.8920801435180972
 40
0.9322370787258122
 40
0.9723055307486069
 40
1.0
 40
1.0
 40
1.0
 40
1.0
 10
586.1687100164316
 20
454.2379605932106
 30
0.0
 10
586.1768464257804
 20
454.2060450411707
 30
0.0
 10
586.227443245594
 20
454.008769109903
 30
0.0
 10
586.391649959291
 20
453.6219121205415
 30
0.0
 10
586.6530553280156
 20
453.1240152220463
 30
0.0
 10
586.9804531325087
 20
452.6488876104921
 30
0.0
 10
587.3609108507727
 20
452.2074720639042
 30
0.0
 10
587.7928865553176
 20
451.8030944553028
 30
0.0
 10
588.2710087018695
 20
451.4406828197145
 30
0.0
 10
588.7902169706584
 20
451.124196340223
 30
0.0
 10
589.3447270223703
 20
450.8572306445936
 30
0.0
 10
589.9284041961138
 20
450.6427861236089
 30
0.0
 10
590.5347672177015
 20
450.483280474859
 30
0.0
 10
591.157092231119
 20
450.3805134992451
 30
0.0
 10
591.7884863252377
 20
450.3356588628736
 30
0.0
 10
592.4219625719967
 20
450.3492586299275
 30
0.0
 10
593.0505070736223
 20
450.4212226698662
 30
0.0
 10
593.6671503427914
 20
450.5508296670023
 30
0.0
 10
594.2650350664929
 20
450.7367321906135
 30
0.0
 10
594.8374821212836
 20
450.9769607884011
 30
0.0
 10
595.378065080953
 20
451.2689401485478
 30
0.0
 10
595.8806460291905
 20
451.6094606939859
 30
0.0
 10
596.3395925379061
 20
451.9948374884244
 30
0.0
 10
596.7493449277366
 20
452.4204060302808
 30
0.0
 10
597.1064262009027
 20
452.8825451152056
 30
0.0
 10
597.4023644024928
 20
453.3713730095227
 30
0.0
 10
597.6250583728947
 20
453.8444079338209
 30
0.0
 10
597.7115800631905
 20
454.1270369102467
 30
0.0
 10
597.7524243504521
 20
454.263500200059
 30
0.0
  0
LINE
  5
1EE
330
1D0
100
AcDbEntity
  8
$DDT_AUDIT_GENERATED_(1ED)
  6
Continuous
 62
     7
100
AcDbLine
 10
576.4580503048
 20
482.9920917063
 30
0.0
 11
576.2580503048
 21
482.9920917063
 31
0.0
  0
LINE
  5
1EF
330
1D0
100
AcDbEntity
  8
$DDT_AUDIT_GENERATED_(1ED)
  6
Continuous
 62
     7
100
AcDbLine
 10
576.2580503048
 20
465.2208104142
 30
0.0
 11
576.4580503048
 21
465.2208104142
 31
0.0
  0
LINE
  5
1F0
330
1D0
100
AcDbEntity
  8
08137138_HUELSE_
  6
Continuous
 62
     7
100
AcDbLine
 10
572.0580503048
 20
491.6064510602
 30
0.0
 11
572.0580503048
 21
456.6064510602
 31
0.0
  0
ARC
  5
1F1
330
1D0
100
AcDbEntity
  8
08137138_HUELSE_
  6
Continuous
 62
     7
100
AcDbCircle
 10
571.5580503048
 20
456.6064510602
 30
0.0
 40
0.5000000000000004
100
AcDbArc
 50
270.0
 51
0.0
  0
ARC
  5
1F2
330
1D0
100
AcDbEntity
  8
08137138_HUELSE_
  6
Continuous
 62
     7
100
AcDbCircle
 10
571.5580503048
 20
491.6064510602
 30
0.0
 40
0.5000000000000004
100
AcDbArc
 50
0.0
 51
90.0
  0
LINE
  5
1F3
330
1D0
100
AcDbEntity
  8
08137138_HUELSE_
  6
Continuous
 62
     7
100
AcDbLine
 10
532.0580503048
 20
456.1064510602
 30
0.0
 11
571.5580503048
 21
456.1064510602
 31
0.0
  0
LINE
  5
1F4
330
1D0
100
AcDbEntity
  8
08137138_HUELSE_
  6
Continuous
 62
     7
100
AcDbLine
 10
571.5580503048
 20
492.1064510602
 30
0.0
 11
532.0580503048
 21
492.1064510602
 31
0.0
  0
LINE
  5
1F5
330
1D0
100
AcDbEntity
  8
08480038_ROSETTE
  6
Continuous
 62
     7
100
AcDbLine
 10
522.0580503048
 20
446.6064510602
 30
0.0
 11
522.0580503048
 21
501.6064510602
 31
0.0
  0
LINE
  5
1F6
330
1D0
100
AcDbEntity
  8
08480038_ROSETTE
  6
Continuous
 62
     7
100
AcDbLine
 10
528.0580503048
 20
447.1064510602
 30
0.0
 11
528.0580503048
 21
501.1064510602
 31
0.0
  0
LINE
  5
1F7
330
1D0
100
AcDbEntity
  8
08480038_ROSETTE
  6
Continuous
 62
     7
100
AcDbLine
 10
527.5580503048
 20
501.6064510602
 30
0.0
 11
527.5580503048
 21
446.6064510602
 31
0.0
  0
LINE
  5
1F8
330
1D0
100
AcDbEntity
  8
08480038_ROSETTE
  6
Continuous
 62
     7
100
AcDbLine
 10
532.0580503048
 20
452.1064510602
 30
0.0
 11
532.0580503048
 21
496.1064510602
 31
0.0
  0
LINE
  5
1F9
330
1D0
100
AcDbEntity
  8
08480038_ROSETTE
  6
Continuous
 62
     7
100
AcDbLine
 10
531.5580503048
 20
496.6064510602
 30
0.0
 11
528.5580503048
 21
496.6064510602
 31
0.0
  0
LINE
  5
1FA
330
1D0
100
AcDbEntity
  8
08480038_ROSETTE
  6
Continuous
 62
     7
100
AcDbLine
 10
528.5580503048
 20
451.6064510602
 30
0.0
 11
531.5580503048
 21
451.6064510602
 31
0.0
  0
LINE
  5
1FB
330
1D0
100
AcDbEntity
  8
08480038_ROSETTE
  6
Continuous
 62
     7
100
AcDbLine
 10
527.5580503048
 20
501.6064510602
 30
0.0
 11
522.0580503048
 21
501.6064510602
 31
0.0
  0
LINE
  5
1FC
330
1D0
100
AcDbEntity
  8
08480038_ROSETTE
  6
Continuous
 62
     7
100
AcDbLine
 10
522.0580503048
 20
446.6064510602
 30
0.0
 11
527.5580503048
 21
446.6064510602
 31
0.0
  0
ARC
  5
1FD
330
1D0
100
AcDbEntity
  8
08480038_ROSETTE
  6
Continuous
 62
     7
100
AcDbCircle
 10
527.5580503048
 20
501.1064510602
 30
0.0
 40
0.5000000000000004
100
AcDbArc
 50
0.0
 51
90.0
  0
ARC
  5
1FE
330
1D0
100
AcDbEntity
  8
08480038_ROSETTE
  6
Continuous
 62
     7
100
AcDbCircle
 10
527.5580503048
 20
447.1064510602
 30
0.0
 40
0.5000000000000004
100
AcDbArc
 50
270.0
 51
0.0
  0
ARC
  5
1FF
330
1D0
100
AcDbEntity
  8
08480038_ROSETTE
  6
Continuous
 62
     7
100
AcDbCircle
 10
531.5580503048
 20
496.1064510602
 30
0.0
 40
0.5000000000000004
100
AcDbArc
 50
0.0
 51
90.0
  0
ARC
  5
200
330
1D0
100
AcDbEntity
  8
08480038_ROSETTE
  6
Continuous
 62
     7
100
AcDbCircle
 10
531.5580503048
 20
452.1064510602
 30
0.0
 40
0.5000000000000004
100
AcDbArc
 50
270.0
 51
0.0
  0
ARC
  5
201
330
1D0
100
AcDbEntity
  8
08480038_ROSETTE
  6
Continuous
 62
     7
100
AcDbCircle
 10
528.5580503048
 20
497.1064510602
 30
0.0
 40
0.4999999999999935
100
AcDbArc
 50
180.0
 51
270.0
  0
ARC
  5
202
330
1D0
100
AcDbEntity
  8
08480038_ROSETTE
  6
Continuous
 62
     7
100
AcDbCircle
 10
528.5580503048
 20
451.1064510602
 30
0.0
 40
0.5000000000000004
100
AcDbArc
 50
90.0
 51
180.0
  0
LINE
  5
203
330
1D0
100
AcDbEntity
  8
11877038_AUSL_WD
  6
Continuous
 62
     7
100
AcDbLine
 10
522.0560925212
 20
501.6036214777
 30
0.0
 11
522.0559886076
 21
498.5555190569
 31
0.0
  0
LINE
  5
204
330
1D0
100
AcDbEntity
  8
11877038_AUSL_WD
  6
Continuous
 62
     7
100
AcDbLine
 10
522.0543216213
 20
449.6577253889
 30
0.0
 11
522.0542175031
 21
446.6036215096
 31
0.0
  0
LINE
  5
205
330
1D0
100
AcDbEntity
  8
11877038_AUSL_WD
  6
Continuous
 62
     7
100
AcDbLine
 10
527.5542176028
 20
446.6064510602
 30
0.0
 11
527.5542174999
 21
446.6034340078
 31
0.0
  0
LINE
  5
206
330
1D0
100
AcDbEntity
  8
11877038_AUSL_WD
  6
Continuous
 62
     7
100
AcDbLine
 10
703.2343870502
 20
455.8622853385
 30
0.0
 11
692.8100224447
 21
451.0017569389
 31
0.0
  0
LINE
  5
207
330
1D0
100
AcDbEntity
  8
11877038_AUSL_WD
  6
Continuous
 62
     7
100
AcDbLine
 10
692.8100224447
 20
451.0017569389
 30
0.0
 11
682.3856578394
 21
446.1412285394
 31
0.0
  0
LINE
  5
208
330
1D0
100
AcDbEntity
  8
11877038_AUSL_WD
  6
Continuous
 62
     7
100
AcDbLine
 10
705.3440051252
 20
451.3291269488
 30
0.0
 11
684.4985946611
 21
441.6096175689
 31
0.0
  0
LINE
  5
209
330
1D0
100
AcDbEntity
  8
11877038_AUSL_WD
  6
Continuous
 62
     7
100
AcDbLine
 10
522.0542175031
 20
446.6036215096
 30
0.0
 11
527.5542174999
 21
446.6034340078
 31
0.0
  0
LINE
  5
20A
330
1D0
100
AcDbEntity
  8
11877038_AUSL_WD
  6
Continuous
 62
     7
100
AcDbLine
 10
522.0580503048
 20
501.6036214109
 30
0.0
 11
522.0560925212
 21
501.6036214777
 31
0.0
  0
LINE
  5
20B
330
1D0
100
AcDbEntity
  8
11877038_AUSL_WD
  6
Continuous
 62
     7
100
AcDbLine
 10
529.0543879552
 20
451.6033828681
 30
0.0
 11
531.5543879538
 21
451.60329764
 31
0.0
  0
LINE
  5
20C
330
1D0
100
AcDbEntity
  8
11877038_AUSL_WD
  6
Continuous
 62
     7
100
AcDbLine
 10
544.9835489866
 20
456.1028398259
 30
0.0
 11
571.5545413411
 21
456.1019339879
 31
0.0
  0
LINE
  5
20D
330
1D0
100
AcDbEntity
  8
11877038_AUSL_WD
  6
Continuous
 62
     7
100
AcDbLine
 10
533.0545413635
 20
456.1032465005
 30
0.0
 11
539.1255413472
 21
456.1030395326
 31
0.0
  0
LINE
  5
20E
330
1D0
100
AcDbEntity
  8
11877038_AUSL_WD
  6
Continuous
 62
     7
100
AcDbLine
 10
573.0546436139
 20
459.1018828493
 30
0.0
 11
575.5546436125
 21
459.1017976212
 31
0.0
  0
LINE
  5
20F
330
1D0
100
AcDbEntity
  8
11877038_AUSL_WD
  6
Continuous
 62
     7
100
AcDbLine
 10
575.5556663496
 20
489.1017976038
 30
0.0
 11
573.0556663511
 21
489.1018828318
 31
0.0
  0
LINE
  5
210
330
1D0
100
AcDbEntity
  8
11877038_AUSL_WD
  6
Continuous
 62
     7
100
AcDbLine
 10
577.0547629309
 20
462.6017464823
 30
0.0
 11
585.9580503048
 21
462.6014429582
 31
0.0
  0
LINE
  5
211
330
1D0
100
AcDbEntity
  8
11877038_AUSL_WD
  6
Continuous
 62
     7
100
AcDbLine
 10
597.9580503048
 20
462.6010338634
 30
0.0
 11
656.5597656549
 21
462.5990360584
 31
0.0
  0
LINE
  5
212
330
1D0
100
AcDbEntity
  8
11877038_AUSL_WD
  6
Continuous
 62
     7
100
AcDbLine
 10
656.5605497533
 20
485.599036045
 30
0.0
 11
597.9580503048
 21
485.6010338767
 31
0.0
  0
LINE
  5
213
330
1D0
100
AcDbEntity
  8
11877038_AUSL_WD
  6
Continuous
 62
     7
100
AcDbLine
 10
585.9580503048
 20
485.6014429716
 30
0.0
 11
577.0555470294
 21
485.6017464689
 31
0.0
  0
ARC
  5
214
330
1D0
100
AcDbEntity
  8
11877038_AUSL_WD
  6
Continuous
 62
     7
100
AcDbCircle
 10
529.054353864
 20
450.6033828687
 30
0.0
 40
1.000000000000003
100
AcDbArc
 50
89.998046716
 51
175.0720831114
  0
ARC
  5
215
330
1D0
100
AcDbEntity
  8
11877038_AUSL_WD
  6
Continuous
 62
     7
100
AcDbCircle
 10
529.0559561521
 20
497.6033828413
 30
0.0
 40
1.000000000000003
100
AcDbArc
 50
183.7086650645
 51
265.5105627468
  0
ARC
  5
216
330
1D0
100
AcDbEntity
  8
11877038_AUSL_WD
  6
Continuous
 62
     7
100
AcDbCircle
 10
577.0555811206
 20
486.6017464684
 30
0.0
 40
1.000000000000001
100
AcDbArc
 50
217.105044645
 51
269.998046716
  0
ARC
  5
217
330
1D0
100
AcDbEntity
  8
11877038_AUSL_WD
  6
Continuous
 62
     7
100
AcDbCircle
 10
577.0547288397
 20
461.6017464829
 30
0.0
 40
1.000000000000003
100
AcDbArc
 50
89.998046716
 51
142.8140861973
  0
ARC
  5
218
330
1D0
100
AcDbEntity
  8
11877038_AUSL_WD
  6
Continuous
 62
     7
100
AcDbCircle
 10
573.0557004423
 20
490.1018828313
 30
0.0
 40
0.9999999999999974
100
AcDbArc
 50
183.9286553666
 51
269.998046716
  0
ARC
  5
219
330
1D0
100
AcDbEntity
  8
11877038_AUSL_WD
  6
Continuous
 62
     7
100
AcDbCircle
 10
573.0546095227
 20
458.1018828499
 30
0.0
 40
1.000000000000003
100
AcDbArc
 50
89.998046716
 51
175.2456536485
  0
ARC
  5
21A
330
1D0
100
AcDbEntity
  8
11877038_AUSL_WD
  6
Continuous
 62
     7
100
AcDbCircle
 10
533.0558027392
 20
493.103246479
 30
0.0
 40
1.000000000000003
100
AcDbArc
 50
183.8421576865
 51
265.411831923
  0
ARC
  5
21B
330
1D0
100
AcDbEntity
  8
11877038_AUSL_WD
  6
Continuous
 62
     7
100
AcDbCircle
 10
533.0545072722
 20
455.1032465011
 30
0.0
 40
0.9999999999999888
100
AcDbArc
 50
89.998046716
 51
175.1754866874
  0
ARC
  5
21C
330
1D0
100
AcDbEntity
  8
11877038_AUSL_WD
  6
Continuous
 62
     7
100
AcDbCircle
 10
527.5542345455
 20
447.1034340075
 30
0.0
 40
0.5000000000000013
100
AcDbArc
 50
269.998046716
 51
308.6685291348
  0
ARC
  5
21D
330
1D0
100
AcDbEntity
  8
11877038_AUSL_WD
  6
Continuous
 62
     7
100
AcDbCircle
 10
575.555649304
 20
488.601797604
 30
0.0
 40
0.4999999999999944
100
AcDbArc
 50
39.8883010952
 51
89.998046716
  0
ARC
  5
21E
330
1D0
100
AcDbEntity
  8
11877038_AUSL_WD
  6
Continuous
 62
     7
100
AcDbCircle
 10
575.5546606581
 20
459.6017976209
 30
0.0
 40
0.5000000000000013
100
AcDbArc
 50
269.998046716
 51
322.0524053548
  0
ARC
  5
21F
330
1D0
100
AcDbEntity
  8
11877038_AUSL_WD
  6
Continuous
 62
     7
100
AcDbCircle
 10
571.5545583867
 20
456.6019339876
 30
0.0
 40
0.4999999999999977
100
AcDbArc
 50
269.998046716
 51
322.8811527009
  0
ARC
  5
220
330
1D0
100
AcDbEntity
  8
11877038_AUSL_WD
  6
Continuous
 62
     7
100
AcDbCircle
 10
531.5544049994
 20
452.1032976397
 30
0.0
 40
0.5000000000000013
100
AcDbArc
 50
269.998046716
 51
311.1380190193
  0
ARC
  5
221
330
1D0
100
AcDbEntity
  8
11877038_AUSL_WD
  6
Continuous
 62
     7
100
AcDbCircle
 10
656.5587940546
 20
434.099036075
 30
0.0
 40
28.49999999999982
100
AcDbArc
 50
24.998046716
 51
89.998046716
  0
ARC
  5
222
330
1D0
100
AcDbEntity
  8
11877038_AUSL_WD
  6
Continuous
 62
     7
100
AcDbCircle
 10
656.5587940546
 20
434.099036075
 30
0.0
 40
51.49999999999989
100
AcDbArc
 50
24.998046716
 51
89.998046716
  0
LINE
  5
223
330
1D0
100
AcDbEntity
  8
11877038_AUSL_WD
  6
Continuous
 62
     7
100
AcDbLine
 10
682.3856578394
 20
446.1412285394
 30
0.0
 11
684.4985946611
 21
441.6096175689
 31
0.0
  0
LINE
  5
224
330
1D0
100
AcDbEntity
  8
11877038_AUSL_WD
  6
Continuous
 62
     7
100
AcDbLine
 10
705.3440051252
 20
451.3291269488
 30
0.0
 11
703.2310683034
 21
455.8607379192
 31
0.0
  0
LINE
  5
225
330
1D0
100
AcDbEntity
  8
$DDT_AUDIT_GENERATED_(106)
  6
Continuous
 62
     7
100
AcDbLine
 10
692.5209278844
 20
426.5930335814
 30
0.0
 11
711.6896422894
 21
435.5307563373
 31
0.0
  0
LINE
  5
226
330
1D0
100
AcDbEntity
  8
$DDT_AUDIT_GENERATED_(106)
  6
Continuous
 62
     7
100
AcDbLine
 10
712.1733771192
 20
436.8596658957
 30
0.0
 11
705.4753673944
 21
451.224872672
 31
0.0
  0
LINE
  5
227
330
1D0
100
AcDbEntity
  8
$DDT_AUDIT_GENERATED_(106)
  6
Continuous
 62
     7
100
AcDbLine
 10
684.4940086012
 20
441.4419751875
 30
0.0
 11
691.192018326
 21
427.0767684112
 31
0.0
  0
ARC
  5
228
330
1D0
100
AcDbEntity
  8
$DDT_AUDIT_GENERATED_(106)
  6
Continuous
 62
     7
100
AcDbCircle
 10
711.2670549251
 20
436.4370785314
 30
0.0
 40
1.00000000000001
100
AcDbArc
 50
294.998046716
 51
24.998046716
  0
ARC
  5
229
330
1D0
100
AcDbEntity
  8
$DDT_AUDIT_GENERATED_(106)
  6
Continuous
 62
     7
100
AcDbCircle
 10
692.0983405201
 20
427.4993557755
 30
0.0
 40
1.000000000000004
100
AcDbArc
 50
204.998046716
 51
294.998046716
  0
ARC
  5
22A
330
1D0
100
AcDbEntity
  8
$DDT_AUDIT_GENERATED_(106)
  6
Continuous
 62
     7
100
AcDbCircle
 10
705.3394190653
 20
451.1614845674
 30
0.0
 40
0.149999999999999
100
AcDbArc
 50
24.998046716
 51
114.998046716
  0
ARC
  5
22B
330
1D0
100
AcDbEntity
  8
$DDT_AUDIT_GENERATED_(106)
  6
Continuous
 62
     7
100
AcDbCircle
 10
684.6299569303
 20
441.5053632922
 30
0.0
 40
0.1499999999999902
100
AcDbArc
 50
114.998046716
 51
204.998046716
  0
LINE
  5
22C
330
1D0
100
AcDbEntity
  8
$DDT_AUDIT_GENERATED_(111)
  6
Continuous
 62
     7
100
AcDbLine
 10
710.3678316748
 20
434.6386006899
 30
0.0
 11
694.0540321812
 21
427.0320281318
 31
0.0
  0
LINE
  5
22D
330
1D0
100
AcDbEntity
  8
$DDT_AUDIT_GENERATED_(111)
  6
Continuous
 62
     7
100
AcDbLine
 10
693.9483853401
 20
427.2586086803
 30
0.0
 11
694.0540321812
 21
427.0320281318
 31
0.0
  0
LINE
  5
22E
330
1D0
100
AcDbEntity
  8
$DDT_AUDIT_GENERATED_(111)
  6
Continuous
 62
     7
100
AcDbLine
 10
710.3678316748
 20
434.6386006899
 30
0.0
 11
710.2621848337
 21
434.8651812384
 31
0.0
  0
ENDBLK
  5
230
330
1D0
100
AcDbEntity
  8
0
100
AcDbBlockEnd
  0
BLOCK
  5
2C4
330
231
100
AcDbEntity
  8
0
100
AcDbBlockBegin
  2
SE2
 70
     0
 10
0.0
 20
0.0
 30
0.0
  3
SE2
  1

  0
LINE
  5
233
330
231
100
AcDbEntity
  8
$DDT_AUDIT_GENERATED_(9B)
  6
Continuous
 62
     7
100
AcDbLine
 10
293.2156378748
 20
202.9047542412
 30
0.0
 11
321.9156378748
 21
202.9047542412
 31
0.0
  0
LINE
  5
234
330
231
100
AcDbEntity
  8
$DDT_AUDIT_GENERATED_(9B)
  6
Continuous
 62
     7
100
AcDbLine
 10
292.7156378748
 20
207.1047542412
 30
0.0
 11
292.7156378748
 21
203.4047542412
 31
0.0
  0
LINE
  5
235
330
231
100
AcDbEntity
  8
$DDT_AUDIT_GENERATED_(9B)
  6
Continuous
 62
     7
100
AcDbLine
 10
322.4156378748
 20
203.4047542412
 30
0.0
 11
322.4156378748
 21
207.1047542412
 31
0.0
  0
ARC
  5
236
330
231
100
AcDbEntity
  8
$DDT_AUDIT_GENERATED_(9B)
  6
Continuous
 62
     7
100
AcDbCircle
 10
293.2156378748
 20
203.4047542412
 30
0.0
 40
0.5000000000000004
100
AcDbArc
 50
180.0
 51
270.0
  0
ARC
  5
237
330
231
100
AcDbEntity
  8
$DDT_AUDIT_GENERATED_(9B)
  6
Continuous
 62
     7
100
AcDbCircle
 10
321.9156378748
 20
203.4047542412
 30
0.0
 40
0.5000000000000004
100
AcDbArc
 50
270.0
 51
0.0
  0
LINE
  5
238
330
231
100
AcDbEntity
  8
$DDT_AUDIT_GENERATED_(A0)
  6
Continuous
 62
     7
100
AcDbLine
 10
297.8156378748
 20
202.7047542412
 30
0.0
 11
317.3156378748
 21
202.7047542412
 31
0.0
  0
SPLINE
  5
239
330
231
100
AcDbEntity
  8
$DDT_AUDIT_GENERATED_(A0)
  6
Continuous
 62
     7
100
AcDbSpline
210
0.0
220
0.0
230
1.0
 70
     8
 71
     3
 72
     8
 73
     4
 74
     0
 42
0.0000000002820056
 43
0.0000000001
 40
0.0
 40
0.0
 40
0.0
 40
0.0
 40
0.09799567453033
 40
0.09799567453033
 40
0.09799567453033
 40
0.09799567453033
 10
317.2212276308233
 20
187.2047542411886
 30
0.0
 10
317.2212276308233
 20
185.9254265843496
 30
0.0
 10
317.3164397762428
 20
184.7166034071061
 30
0.0
 10
317.3162940245209
 20
183.7335436034805
 30
0.0
  0
SPLINE
  5
23A
330
231
100
AcDbEntity
  8
$DDT_AUDIT_GENERATED_(A0)
  6
Continuous
 62
     7
100
AcDbSpline
210
0.0
220
0.0
230
1.0
 70
     8
 71
     3
 72
    10
 73
     6
 74
     0
 42
0.0000000002798605
 43
0.0000000001
 40
0.9041134078120215
 40
0.9041134078120215
 40
0.9041134078120215
 40
0.9041134078120215
 40
0.9374999999999999
 40
0.9374999999999999
 40
1.0
 40
1.0
 40
1.0
 40
1.0
 10
317.3153495477786
 20
190.6290894527114
 30
0.0
 10
317.3136677258345
 20
190.2932059044651
 30
0.0
 10
317.3010032543481
 20
189.9314613382435
 30
0.0
 10
317.2561555716881
 20
188.8235017872102
 30
0.0
 10
317.2212276308233
 20
188.0206879947513
 30
0.0
 10
317.2212276308233
 20
187.2047542411886
 30
0.0
  0
SPLINE
  5
23B
330
231
100
AcDbEntity
  8
$DDT_AUDIT_GENERATED_(A0)
  6
Continuous
 62
     7
100
AcDbSpline
210
0.0
220
0.0
230
1.0
 70
     8
 71
     3
 72
    12
 73
     8
 74
     0
 42
0.0000000002814981
 43
0.0000000001
 40
0.4022822089976062
 40
0.4022822089976062
 40
0.4022822089976062
 40
0.4022822089976062
 40
0.4375000000000002
 40
0.4375000000000002
 40
0.5000000000000002
 40
0.5000000000000002
 40
0.5975436280588686
 40
0.5975436280588686
 40
0.5975436280588686
 40
0.5975436280588686
 10
297.8158624018828
 20
190.6915768364282
 30
0.0
 10
297.8161548966591
 20
190.3406221128098
 30
0.0
 10
297.8291159415461
 20
189.9611715966569
 30
0.0
 10
297.8741392857579
 20
188.8457673181444
 30
0.0
 10
297.9094469840456
 20
188.0449249207041
 30
0.0
 10
297.910963305836
 20
185.9568531049618
 30
0.0
 10
297.8161034376288
 20
184.7479908871364
 30
0.0
 10
297.8148250942113
 20
183.7606939271514
 30
0.0
  0
LINE
  5
23C
330
231
100
AcDbEntity
  8
$DDT_AUDIT_GENERATED_(A0)
  6
Continuous
 62
     7
100
AcDbLine
 10
298.3156378748
 20
179.7047542412
 30
0.0
 11
316.8156378748
 21
179.7047542412
 31
0.0
  0
CIRCLE
  5
23D
330
231
100
AcDbEntity
  8
$DDT_AUDIT_GENERATED_(A0)
  6
Continuous
 62
     7
100
AcDbCircle
 10
307.5656378748
 20
187.2047542412
 30
0.0
 40
6.0
  0
LINE
  5
23E
330
231
100
AcDbEntity
  8
$DDT_AUDIT_GENERATED_(A0)
  6
Continuous
 62
     7
100
AcDbLine
 10
339.6085778149
 20
193.2047542412
 30
0.0
 11
317.3156378748
 21
193.2047542412
 31
0.0
  0
LINE
  5
23F
330
231
100
AcDbEntity
  8
$DDT_AUDIT_GENERATED_(A0)
  6
Continuous
 62
     7
100
AcDbLine
 10
317.3156378748
 20
181.2047542412
 30
0.0
 11
339.6085778149
 21
181.2047542412
 31
0.0
  0
LINE
  5
240
330
231
100
AcDbEntity
  8
$DDT_AUDIT_GENERATED_(A0)
  6
Continuous
 62
     7
100
AcDbLine
 10
275.5226979348
 20
181.2047542412
 30
0.0
 11
297.8156378748
 21
181.2047542412
 31
0.0
  0
LINE
  5
241
330
231
100
AcDbEntity
  8
$DDT_AUDIT_GENERATED_(A0)
  6
Continuous
 62
     7
100
AcDbLine
 10
297.8156378748
 20
193.2047542412
 30
0.0
 11
275.5226979348
 21
193.2047542412
 31
0.0
  0
LINE
  5
242
330
231
100
AcDbEntity
  8
$DDT_AUDIT_GENERATED_(A0)
  6
Continuous
 62
     7
100
AcDbLine
 10
317.3156378748
 20
190.5798748211
 30
0.0
 11
317.3156378748
 21
202.7047542412
 31
0.0
  0
LINE
  5
243
330
231
100
AcDbEntity
  8
$DDT_AUDIT_GENERATED_(A0)
  6
Continuous
 62
     7
100
AcDbLine
 10
317.3156378748
 20
180.2047542412
 30
0.0
 11
317.3156378748
 21
183.7493463272
 31
0.0
  0
LINE
  5
244
330
231
100
AcDbEntity
  8
$DDT_AUDIT_GENERATED_(A0)
  6
Continuous
 62
     7
100
AcDbLine
 10
297.8156378748
 20
183.7940709884
 30
0.0
 11
297.8156378748
 21
180.2047542412
 31
0.0
  0
LINE
  5
245
330
231
100
AcDbEntity
  8
$DDT_AUDIT_GENERATED_(A0)
  6
Continuous
 62
     7
100
AcDbLine
 10
297.8156378748
 20
202.7047542412
 30
0.0
 11
297.8156378748
 21
190.6840397803
 31
0.0
  0
ARC
  5
246
330
231
100
AcDbEntity
  8
$DDT_AUDIT_GENERATED_(A0)
  6
Continuous
 62
     7
100
AcDbCircle
 10
298.3156378748
 20
180.2047542412
 30
0.0
 40
0.5000000000000004
100
AcDbArc
 50
180.0
 51
270.0
  0
ARC
  5
247
330
231
100
AcDbEntity
  8
$DDT_AUDIT_GENERATED_(A0)
  6
Continuous
 62
     7
100
AcDbCircle
 10
316.8156378748
 20
180.2047542412
 30
0.0
 40
0.4999999999975024
100
AcDbArc
 50
270.0
 51
0.0
  0
LINE
  5
248
330
231
100
AcDbEntity
  8
$DDT_AUDIT_GENERATED_(A0)
  6
Continuous
 62
     7
100
AcDbLine
 10
272.2810645971
 20
187.37032391
 30
0.0
 11
272.2726979348
 21
187.2047542412
 31
0.0
  0
SPLINE
  5
249
330
231
100
AcDbEntity
  8
$DDT_AUDIT_GENERATED_(A0)
  6
Continuous
 62
     7
100
AcDbSpline
210
0.0
220
0.0
230
1.0
 70
     8
 71
     3
 72
    16
 73
    12
 74
     0
 42
0.0000000013689853
 43
0.0000000001
 40
0.0
 40
0.0
 40
0.0
 40
0.0
 40
0.0456038936978785
 40
0.1581590770951052
 40
0.271630556349841
 40
0.3906200576591515
 40
0.5146130969516755
 40
0.6402949743799603
 40
0.7655099953109538
 40
0.8901285816556974
 40
1.0
 40
1.0
 40
1.0
 40
1.0
 10
275.5144085004008
 20
193.1781120144906
 30
0.0
 10
275.4213079773381
 20
193.185623950589
 30
0.0
 10
275.145687724724
 20
193.2053602364049
 30
0.0
 10
274.6396481500151
 20
193.0205993898266
 30
0.0
 10
274.0797497263204
 20
192.6487662083993
 30
0.0
 10
273.5675111299038
 20
192.0843905049843
 30
0.0
 10
273.1194008496681
 20
191.3474699024335
 30
0.0
 10
272.7508639575187
 20
190.4534082442372
 30
0.0
 10
272.48169536822
 20
189.4515568714698
 30
0.0
 10
272.3129253587046
 20
188.3888098156544
 30
0.0
 10
272.2908861937397
 20
187.7328251134273
 30
0.0
 10
272.2810645971045
 20
187.3703239099725
 30
0.0
  0
SPLINE
  5
24A
330
231
100
AcDbEntity
  8
$DDT_AUDIT_GENERATED_(A0)
  6
Continuous
 62
     7
100
AcDbSpline
210
0.0
220
0.0
230
1.0
 70
     8
 71
     3
 72
    16
 73
    12
 74
     0
 42
0.0000000013688835
 43
0.0000000001
 40
0.0
 40
0.0
 40
0.0
 40
0.0
 40
0.0488469257186623
 40
0.173033635422785
 40
0.2976361290461872
 40
0.4228484148549113
 40
0.5490368459840387
 40
0.6764688254407024
 40
0.8043166760499882
 40
0.9143370299203835
 40
1.0
 40
1.0
 40
1.0
 40
1.0
 10
272.2765107337366
 20
187.0560040805333
 30
0.0
 10
272.278949494397
 20
186.8948000312458
 30
0.0
 10
272.2880764885875
 20
186.4078880242101
 30
0.0
 10
272.3829550263885
 20
185.5016128759477
 30
0.0
 10
272.5991095788905
 20
184.4617398363722
 30
0.0
 10
272.9194455343193
 20
183.5024564236516
 30
0.0
 10
273.335027512483
 20
182.6692016658063
 30
0.0
 10
273.8431614044891
 20
181.9854092601953
 30
0.0
 10
274.4069606574674
 20
181.5143219510412
 30
0.0
 10
274.9860258869448
 20
181.2436161936782
 30
0.0
 10
275.3257407075802
 20
181.2309430155488
 30
0.0
 10
275.5010846360875
 20
181.2272839179633
 30
0.0
  0
LINE
  5
24B
330
231
100
AcDbEntity
  8
$DDT_AUDIT_GENERATED_(A0)
  6
Continuous
 62
     7
100
AcDbLine
 10
272.2726979348
 20
187.2047542412
 30
0.0
 11
272.2765107337
 21
187.0560040805
 31
0.0
  0
LINE
  5
24C
330
231
100
AcDbEntity
  8
$DDT_AUDIT_GENERATED_(A0)
  6
Continuous
 62
     7
100
AcDbLine
 10
342.8502111526
 20
187.0391845724
 30
0.0
 11
342.8585778149
 21
187.2047542412
 31
0.0
  0
SPLINE
  5
24D
330
231
100
AcDbEntity
  8
$DDT_AUDIT_GENERATED_(A0)
  6
Continuous
 62
     7
100
AcDbSpline
210
0.0
220
0.0
230
1.0
 70
     8
 71
     3
 72
    16
 73
    12
 74
     0
 42
0.0000000013689853
 43
0.0000000001
 40
0.0
 40
0.0
 40
0.0
 40
0.0
 40
0.0456038936978603
 40
0.158159077095087
 40
0.2716305563498228
 40
0.3906200576591313
 40
0.5146130969516575
 40
0.6402949743799454
 40
0.7655099953109386
 40
0.8901285816556802
 40
1.0
 40
1.0
 40
1.0
 40
1.0
 10
339.6168672492715
 20
181.2313964678866
 30
0.0
 10
339.7099677723342
 20
181.2238845317881
 30
0.0
 10
339.9855880249483
 20
181.204148245972
 30
0.0
 10
340.4916275996572
 20
181.3889090925505
 30
0.0
 10
341.051526023352
 20
181.7607422739778
 30
0.0
 10
341.5637646197683
 20
182.3251179773928
 30
0.0
 10
342.0118749000043
 20
183.0620385799436
 30
0.0
 10
342.3804117921534
 20
183.9561002381398
 30
0.0
 10
342.6495803814525
 20
184.9579516109074
 30
0.0
 10
342.8183503909677
 20
186.0206986667227
 30
0.0
 10
342.8403895559327
 20
186.6766833689499
 30
0.0
 10
342.8502111525679
 20
187.0391845724047
 30
0.0
  0
SPLINE
  5
24E
330
231
100
AcDbEntity
  8
$DDT_AUDIT_GENERATED_(A0)
  6
Continuous
 62
     7
100
AcDbSpline
210
0.0
220
0.0
230
1.0
 70
     8
 71
     3
 72
    16
 73
    12
 74
     0
 42
0.0000000013688835
 43
0.0000000001
 40
0.0
 40
0.0
 40
0.0
 40
0.0
 40
0.0488469257186622
 40
0.1730336354227799
 40
0.2976361290461815
 40
0.4228484148549046
 40
0.5490368459840311
 40
0.6764688254406943
 40
0.8043166760499801
 40
0.914337029920374
 40
1.0
 40
1.0
 40
1.0
 40
1.0
 10
342.8547650159358
 20
187.3535044018438
 30
0.0
 10
342.8523262552754
 20
187.5147084511314
 30
0.0
 10
342.8431992610847
 20
188.0016204581671
 30
0.0
 10
342.7483207232841
 20
188.9078956064294
 30
0.0
 10
342.5321661707816
 20
189.9477686460048
 30
0.0
 10
342.2118302153532
 20
190.9070520587256
 30
0.0
 10
341.7962482371893
 20
191.7403068165708
 30
0.0
 10
341.2881143451833
 20
192.424099222182
 30
0.0
 10
340.7243150922049
 20
192.895186531336
 30
0.0
 10
340.1452498627277
 20
193.165892288699
 30
0.0
 10
339.8055350420922
 20
193.1785654668284
 30
0.0
 10
339.6301911135848
 20
193.1822245644139
 30
0.0
  0
LINE
  5
24F
330
231
100
AcDbEntity
  8
$DDT_AUDIT_GENERATED_(A0)
  6
Continuous
 62
     7
100
AcDbLine
 10
342.8585778149
 20
187.2047542412
 30
0.0
 11
342.8547650159
 21
187.3535044018
 31
0.0
  0
LINE
  5
250
330
231
100
AcDbEntity
  8
$DDT_AUDIT_GENERATED_(1ED)
  6
Continuous
 62
     7
100
AcDbLine
 10
316.4512785208
 20
202.7047542412
 30
0.0
 11
316.4512785208
 21
202.9047542412
 31
0.0
  0
LINE
  5
251
330
231
100
AcDbEntity
  8
$DDT_AUDIT_GENERATED_(1ED)
  6
Continuous
 62
     7
100
AcDbLine
 10
298.6799972288
 20
202.9047542412
 30
0.0
 11
298.6799972288
 21
202.7047542412
 31
0.0
  0
LINE
  5
252
330
231
100
AcDbEntity
  8
$DDT_AUDIT_GENERATED_(9B)
  6
Continuous
 62
     7
100
AcDbLine
 10
93.2156378748
 20
202.9047542412
 30
0.0
 11
121.9156378748
 21
202.9047542412
 31
0.0
  0
LINE
  5
253
330
231
100
AcDbEntity
  8
$DDT_AUDIT_GENERATED_(9B)
  6
Continuous
 62
     7
100
AcDbLine
 10
92.7156378748
 20
207.1047542412
 30
0.0
 11
92.7156378748
 21
203.4047542412
 31
0.0
  0
LINE
  5
254
330
231
100
AcDbEntity
  8
$DDT_AUDIT_GENERATED_(9B)
  6
Continuous
 62
     7
100
AcDbLine
 10
122.4156378748
 20
203.4047542412
 30
0.0
 11
122.4156378748
 21
207.1047542412
 31
0.0
  0
ARC
  5
255
330
231
100
AcDbEntity
  8
$DDT_AUDIT_GENERATED_(9B)
  6
Continuous
 62
     7
100
AcDbCircle
 10
93.2156378748
 20
203.4047542412
 30
0.0
 40
0.5000000000000004
100
AcDbArc
 50
180.0
 51
270.0
  0
ARC
  5
256
330
231
100
AcDbEntity
  8
$DDT_AUDIT_GENERATED_(9B)
  6
Continuous
 62
     7
100
AcDbCircle
 10
121.9156378748
 20
203.4047542412
 30
0.0
 40
0.5000000000000004
100
AcDbArc
 50
270.0
 51
360.0
  0
LINE
  5
257
330
231
100
AcDbEntity
  8
$DDT_AUDIT_GENERATED_(A0)
  6
Continuous
 62
     7
100
AcDbLine
 10
97.8156378748
 20
202.7047542412
 30
0.0
 11
117.3156378748
 21
202.7047542412
 31
0.0
  0
SPLINE
  5
258
330
231
100
AcDbEntity
  8
$DDT_AUDIT_GENERATED_(A0)
  6
Continuous
 62
     7
100
AcDbSpline
210
0.0
220
0.0
230
1.0
 70
     8
 71
     3
 72
     8
 73
     4
 74
     0
 42
0.0000000002820056
 43
0.0000000001
 40
0.0
 40
0.0
 40
0.0
 40
0.0
 40
0.0979956745303302
 40
0.0979956745303302
 40
0.0979956745303302
 40
0.0979956745303302
 10
117.2212276308229
 20
187.2047542411885
 30
0.0
 10
117.2212276308229
 20
185.9254265843495
 30
0.0
 10
117.3164397762423
 20
184.716603407106
 30
0.0
 10
117.3162940245204
 20
183.7335436034804
 30
0.0
  0
SPLINE
  5
259
330
231
100
AcDbEntity
  8
$DDT_AUDIT_GENERATED_(A0)
  6
Continuous
 62
     7
100
AcDbSpline
210
0.0
220
0.0
230
1.0
 70
     8
 71
     3
 72
    10
 73
     6
 74
     0
 42
0.0000000002798605
 43
0.0000000001
 40
0.9041134078120217
 40
0.9041134078120217
 40
0.9041134078120217
 40
0.9041134078120217
 40
0.9374999999999999
 40
0.9374999999999999
 40
1.0
 40
1.0
 40
1.0
 40
1.0
 10
117.3153495477782
 20
190.6290894527114
 30
0.0
 10
117.313667725834
 20
190.293205904465
 30
0.0
 10
117.3010032543476
 20
189.9314613382434
 30
0.0
 10
117.2561555716877
 20
188.8235017872101
 30
0.0
 10
117.2212276308229
 20
188.0206879947512
 30
0.0
 10
117.2212276308229
 20
187.2047542411885
 30
0.0
  0
SPLINE
  5
25A
330
231
100
AcDbEntity
  8
$DDT_AUDIT_GENERATED_(A0)
  6
Continuous
 62
     7
100
AcDbSpline
210
0.0
220
0.0
230
1.0
 70
     8
 71
     3
 72
    12
 73
     8
 74
     0
 42
0.0000000002814981
 43
0.0000000001
 40
0.4022822089976062
 40
0.4022822089976062
 40
0.4022822089976062
 40
0.4022822089976062
 40
0.4375000000000002
 40
0.4375000000000002
 40
0.5000000000000002
 40
0.5000000000000002
 40
0.5975436280588681
 40
0.5975436280588681
 40
0.5975436280588681
 40
0.5975436280588681
 10
97.81586240188243
 20
190.6915768364282
 30
0.0
 10
97.81615489665866
 20
190.3406221128098
 30
0.0
 10
97.82911594154568
 20
189.9611715966569
 30
0.0
 10
97.87413928575745
 20
188.8457673181445
 30
0.0
 10
97.90944698404518
 20
188.0449249207041
 30
0.0
 10
97.9109633058356
 20
185.9568531049618
 30
0.0
 10
97.81610343762837
 20
184.7479908871364
 30
0.0
 10
97.81482509421083
 20
183.7606939271514
 30
0.0
  0
LINE
  5
25B
330
231
100
AcDbEntity
  8
$DDT_AUDIT_GENERATED_(A0)
  6
Continuous
 62
     7
100
AcDbLine
 10
98.3156378748
 20
179.7047542412
 30
0.0
 11
116.8156378748
 21
179.7047542412
 31
0.0
  0
CIRCLE
  5
25C
330
231
100
AcDbEntity
  8
$DDT_AUDIT_GENERATED_(A0)
  6
Continuous
 62
     7
100
AcDbCircle
 10
107.5656378748
 20
187.2047542412
 30
0.0
 40
6.0
  0
LINE
  5
25D
330
231
100
AcDbEntity
  8
$DDT_AUDIT_GENERATED_(A0)
  6
Continuous
 62
     7
100
AcDbLine
 10
139.6085778149
 20
193.2047542412
 30
0.0
 11
117.3156378748
 21
193.2047542412
 31
0.0
  0
LINE
  5
25E
330
231
100
AcDbEntity
  8
$DDT_AUDIT_GENERATED_(A0)
  6
Continuous
 62
     7
100
AcDbLine
 10
117.3156378748
 20
181.2047542412
 30
0.0
 11
139.6085778149
 21
181.2047542412
 31
0.0
  0
LINE
  5
25F
330
231
100
AcDbEntity
  8
$DDT_AUDIT_GENERATED_(A0)
  6
Continuous
 62
     7
100
AcDbLine
 10
75.5226979348
 20
181.2047542412
 30
0.0
 11
97.8156378748
 21
181.2047542412
 31
0.0
  0
LINE
  5
260
330
231
100
AcDbEntity
  8
$DDT_AUDIT_GENERATED_(A0)
  6
Continuous
 62
     7
100
AcDbLine
 10
97.8156378748
 20
193.2047542412
 30
0.0
 11
75.5226979348
 21
193.2047542412
 31
0.0
  0
LINE
  5
261
330
231
100
AcDbEntity
  8
$DDT_AUDIT_GENERATED_(A0)
  6
Continuous
 62
     7
100
AcDbLine
 10
117.3156378748
 20
190.5798748211
 30
0.0
 11
117.3156378748
 21
202.7047542412
 31
0.0
  0
LINE
  5
262
330
231
100
AcDbEntity
  8
$DDT_AUDIT_GENERATED_(A0)
  6
Continuous
 62
     7
100
AcDbLine
 10
117.3156378748
 20
180.2047542412
 30
0.0
 11
117.3156378748
 21
183.7493463272
 31
0.0
  0
LINE
  5
263
330
231
100
AcDbEntity
  8
$DDT_AUDIT_GENERATED_(A0)
  6
Continuous
 62
     7
100
AcDbLine
 10
97.8156378748
 20
183.7940709884
 30
0.0
 11
97.8156378748
 21
180.2047542412
 31
0.0
  0
LINE
  5
264
330
231
100
AcDbEntity
  8
$DDT_AUDIT_GENERATED_(A0)
  6
Continuous
 62
     7
100
AcDbLine
 10
97.8156378748
 20
202.7047542412
 30
0.0
 11
97.8156378748
 21
190.6840397803
 31
0.0
  0
ARC
  5
265
330
231
100
AcDbEntity
  8
$DDT_AUDIT_GENERATED_(A0)
  6
Continuous
 62
     7
100
AcDbCircle
 10
98.3156378748
 20
180.2047542412
 30
0.0
 40
0.4999999999999866
100
AcDbArc
 50
180.0
 51
270.0
  0
ARC
  5
266
330
231
100
AcDbEntity
  8
$DDT_AUDIT_GENERATED_(A0)
  6
Continuous
 62
     7
100
AcDbCircle
 10
116.8156378748
 20
180.2047542412
 30
0.0
 40
0.4999999999975024
100
AcDbArc
 50
270.0
 51
0.0
  0
LINE
  5
267
330
231
100
AcDbEntity
  8
$DDT_AUDIT_GENERATED_(A0)
  6
Continuous
 62
     7
100
AcDbLine
 10
72.2810645971
 20
187.37032391
 30
0.0
 11
72.2726979348
 21
187.2047542412
 31
0.0
  0
SPLINE
  5
268
330
231
100
AcDbEntity
  8
$DDT_AUDIT_GENERATED_(A0)
  6
Continuous
 62
     7
100
AcDbSpline
210
0.0
220
0.0
230
1.0
 70
     8
 71
     3
 72
    16
 73
    12
 74
     0
 42
0.0000000013689853
 43
0.0000000001
 40
0.0
 40
0.0
 40
0.0
 40
0.0
 40
0.0456038936978774
 40
0.158159077095106
 40
0.2716305563498405
 40
0.3906200576591507
 40
0.5146130969516741
 40
0.6402949743799599
 40
0.7655099953109531
 40
0.8901285816556957
 40
1.0
 40
1.0
 40
1.0
 40
1.0
 10
75.51440850040042
 20
193.1781120144907
 30
0.0
 10
75.42130797733773
 20
193.1856239505892
 30
0.0
 10
75.14568772472363
 20
193.2053602364052
 30
0.0
 10
74.63964815001472
 20
193.0205993898267
 30
0.0
 10
74.07974972631995
 20
192.6487662083994
 30
0.0
 10
73.56751112990354
 20
192.0843905049846
 30
0.0
 10
73.11940084966767
 20
191.3474699024337
 30
0.0
 10
72.75086395751826
 20
190.4534082442373
 30
0.0
 10
72.48169536821966
 20
189.45155687147
 30
0.0
 10
72.31292535870412
 20
188.3888098156545
 30
0.0
 10
72.29088619373921
 20
187.7328251134274
 30
0.0
 10
72.28106459710409
 20
187.3703239099727
 30
0.0
  0
SPLINE
  5
269
330
231
100
AcDbEntity
  8
$DDT_AUDIT_GENERATED_(A0)
  6
Continuous
 62
     7
100
AcDbSpline
210
0.0
220
0.0
230
1.0
 70
     8
 71
     3
 72
    16
 73
    12
 74
     0
 42
0.0000000013688835
 43
0.0000000001
 40
0.0
 40
0.0
 40
0.0
 40
0.0
 40
0.0488469257186623
 40
0.1730336354227847
 40
0.2976361290461867
 40
0.4228484148549116
 40
0.5490368459840366
 40
0.6764688254407034
 40
0.8043166760499885
 40
0.9143370299203828
 40
1.0
 40
1.0
 40
1.0
 40
1.0
 10
72.27651073373617
 20
187.0560040805335
 30
0.0
 10
72.27894949439656
 20
186.8948000312459
 30
0.0
 10
72.2880764885871
 20
186.4078880242103
 30
0.0
 10
72.38295502638806
 20
185.5016128759479
 30
0.0
 10
72.59910957889007
 20
184.4617398363723
 30
0.0
 10
72.91944553431895
 20
183.5024564236518
 30
0.0
 10
73.33502751248244
 20
182.6692016658064
 30
0.0
 10
73.84316140448871
 20
181.9854092601951
 30
0.0
 10
74.406960657467
 20
181.5143219510414
 30
0.0
 10
74.98602588694422
 20
181.2436161936783
 30
0.0
 10
75.32574070757974
 20
181.2309430155489
 30
0.0
 10
75.50108463608707
 20
181.2272839179634
 30
0.0
  0
LINE
  5
26A
330
231
100
AcDbEntity
  8
$DDT_AUDIT_GENERATED_(A0)
  6
Continuous
 62
     7
100
AcDbLine
 10
72.2726979348
 20
187.2047542412
 30
0.0
 11
72.2765107337
 21
187.0560040805
 31
0.0
  0
LINE
  5
26B
330
231
100
AcDbEntity
  8
$DDT_AUDIT_GENERATED_(A0)
  6
Continuous
 62
     7
100
AcDbLine
 10
142.8502111526
 20
187.0391845724
 30
0.0
 11
142.8585778149
 21
187.2047542412
 31
0.0
  0
SPLINE
  5
26C
330
231
100
AcDbEntity
  8
$DDT_AUDIT_GENERATED_(A0)
  6
Continuous
 62
     7
100
AcDbSpline
210
0.0
220
0.0
230
1.0
 70
     8
 71
     3
 72
    16
 73
    12
 74
     0
 42
0.0000000013689853
 43
0.0000000001
 40
0.0
 40
0.0
 40
0.0
 40
0.0
 40
0.0456038936978588
 40
0.1581590770950876
 40
0.2716305563498215
 40
0.3906200576591324
 40
0.5146130969516575
 40
0.6402949743799451
 40
0.7655099953109386
 40
0.8901285816556831
 40
1.0
 40
1.0
 40
1.0
 40
1.0
 10
139.6168672492711
 20
181.2313964678863
 30
0.0
 10
139.7099677723338
 20
181.2238845317878
 30
0.0
 10
139.9855880249479
 20
181.2041482459718
 30
0.0
 10
140.4916275996566
 20
181.3889090925503
 30
0.0
 10
141.0515260233515
 20
181.7607422739775
 30
0.0
 10
141.5637646197679
 20
182.3251179773925
 30
0.0
 10
142.0118749000038
 20
183.0620385799434
 30
0.0
 10
142.380411792153
 20
183.9561002381395
 30
0.0
 10
142.649580381452
 20
184.957951610907
 30
0.0
 10
142.8183503909673
 20
186.0206986667224
 30
0.0
 10
142.8403895559323
 20
186.6766833689496
 30
0.0
 10
142.8502111525674
 20
187.0391845724044
 30
0.0
  0
SPLINE
  5
26D
330
231
100
AcDbEntity
  8
$DDT_AUDIT_GENERATED_(A0)
  6
Continuous
 62
     7
100
AcDbSpline
210
0.0
220
0.0
230
1.0
 70
     8
 71
     3
 72
    16
 73
    12
 74
     0
 42
0.0000000013688835
 43
0.0000000001
 40
0.0
 40
0.0
 40
0.0
 40
0.0
 40
0.0488469257186622
 40
0.1730336354227795
 40
0.2976361290461828
 40
0.4228484148549053
 40
0.5490368459840304
 40
0.6764688254406935
 40
0.8043166760499804
 40
0.9143370299203741
 40
1.0
 40
1.0
 40
1.0
 40
1.0
 10
142.8547650159353
 20
187.3535044018435
 30
0.0
 10
142.8523262552749
 20
187.5147084511311
 30
0.0
 10
142.8431992610845
 20
188.0016204581669
 30
0.0
 10
142.7483207232835
 20
188.9078956064291
 30
0.0
 10
142.5321661707814
 20
189.9477686460047
 30
0.0
 10
142.2118302153526
 20
190.9070520587252
 30
0.0
 10
141.796248237189
 20
191.7403068165706
 30
0.0
 10
141.2881143451828
 20
192.4240992221818
 30
0.0
 10
140.7243150922046
 20
192.8951865313356
 30
0.0
 10
140.1452498627272
 20
193.1658922886987
 30
0.0
 10
139.8055350420917
 20
193.1785654668282
 30
0.0
 10
139.6301911135844
 20
193.1822245644136
 30
0.0
  0
LINE
  5
26E
330
231
100
AcDbEntity
  8
$DDT_AUDIT_GENERATED_(A0)
  6
Continuous
 62
     7
100
AcDbLine
 10
142.8585778149
 20
187.2047542412
 30
0.0
 11
142.8547650159
 21
187.3535044018
 31
0.0
  0
LINE
  5
26F
330
231
100
AcDbEntity
  8
$DDT_AUDIT_GENERATED_(1ED)
  6
Continuous
 62
     7
100
AcDbLine
 10
116.4512785208
 20
202.7047542412
 30
0.0
 11
116.4512785208
 21
202.9047542412
 31
0.0
  0
LINE
  5
270
330
231
100
AcDbEntity
  8
$DDT_AUDIT_GENERATED_(1ED)
  6
Continuous
 62
     7
100
AcDbLine
 10
98.6799972288
 20
202.9047542412
 30
0.0
 11
98.6799972288
 21
202.7047542412
 31
0.0
  0
LINE
  5
271
330
231
100
AcDbEntity
  8
08137138_HUELSE_
  6
Continuous
 62
     7
100
AcDbLine
 10
325.0656378748
 20
207.1047542412
 30
0.0
 11
290.0656378748
 21
207.1047542412
 31
0.0
  0
ARC
  5
272
330
231
100
AcDbEntity
  8
08137138_HUELSE_
  6
Continuous
 62
     7
100
AcDbCircle
 10
290.0656378748
 20
207.6047542412
 30
0.0
 40
0.5000000000000004
100
AcDbArc
 50
180.0
 51
270.0
  0
ARC
  5
273
330
231
100
AcDbEntity
  8
08137138_HUELSE_
  6
Continuous
 62
     7
100
AcDbCircle
 10
325.0656378748
 20
207.6047542412
 30
0.0
 40
0.5000000000000004
100
AcDbArc
 50
270.0
 51
0.0
  0
LINE
  5
274
330
231
100
AcDbEntity
  8
08137138_HUELSE_
  6
Continuous
 62
     7
100
AcDbLine
 10
289.5656378748
 20
247.1047542412
 30
0.0
 11
289.5656378748
 21
207.6047542412
 31
0.0
  0
LINE
  5
275
330
231
100
AcDbEntity
  8
08137138_HUELSE_
  6
Continuous
 62
     7
100
AcDbLine
 10
325.5656378748
 20
207.6047542412
 30
0.0
 11
325.5656378748
 21
247.1047542412
 31
0.0
  0
LINE
  5
276
330
231
100
AcDbEntity
  8
08137138_HUELSE_
  6
Continuous
 62
     7
100
AcDbLine
 10
125.0656378748
 20
207.1047542412
 30
0.0
 11
90.0656378748
 21
207.1047542412
 31
0.0
  0
ARC
  5
277
330
231
100
AcDbEntity
  8
08137138_HUELSE_
  6
Continuous
 62
     7
100
AcDbCircle
 10
90.0656378748
 20
207.6047542412
 30
0.0
 40
0.5000000000000004
100
AcDbArc
 50
180.0
 51
270.0
  0
ARC
  5
278
330
231
100
AcDbEntity
  8
08137138_HUELSE_
  6
Continuous
 62
     7
100
AcDbCircle
 10
125.0656378748
 20
207.6047542412
 30
0.0
 40
0.5000000000000004
100
AcDbArc
 50
270.0
 51
0.0
  0
LINE
  5
279
330
231
100
AcDbEntity
  8
08137138_HUELSE_
  6
Continuous
 62
     7
100
AcDbLine
 10
89.5656378748
 20
247.1047542412
 30
0.0
 11
89.5656378748
 21
207.6047542412
 31
0.0
  0
LINE
  5
27A
330
231
100
AcDbEntity
  8
08137138_HUELSE_
  6
Continuous
 62
     7
100
AcDbLine
 10
125.5656378748
 20
207.6047542412
 30
0.0
 11
125.5656378748
 21
247.1047542412
 31
0.0
  0
LINE
  5
27B
330
231
100
AcDbEntity
  8
08480038_ROSETTE
  6
Continuous
 62
     7
100
AcDbLine
 10
280.0656378748
 20
257.1047542412
 30
0.0
 11
335.0656378748
 21
257.1047542412
 31
0.0
  0
LINE
  5
27C
330
231
100
AcDbEntity
  8
08480038_ROSETTE
  6
Continuous
 62
     7
100
AcDbLine
 10
280.5656378748
 20
251.1047542412
 30
0.0
 11
334.5656378748
 21
251.1047542412
 31
0.0
  0
LINE
  5
27D
330
231
100
AcDbEntity
  8
08480038_ROSETTE
  6
Continuous
 62
     7
100
AcDbLine
 10
285.5656378748
 20
247.1047542412
 30
0.0
 11
329.5656378748
 21
247.1047542412
 31
0.0
  0
LINE
  5
27E
330
231
100
AcDbEntity
  8
08480038_ROSETTE
  6
Continuous
 62
     7
100
AcDbLine
 10
330.0656378748
 20
247.6047542412
 30
0.0
 11
330.0656378748
 21
250.6047542412
 31
0.0
  0
LINE
  5
27F
330
231
100
AcDbEntity
  8
08480038_ROSETTE
  6
Continuous
 62
     7
100
AcDbLine
 10
285.0656378748
 20
250.6047542412
 30
0.0
 11
285.0656378748
 21
247.6047542412
 31
0.0
  0
LINE
  5
280
330
231
100
AcDbEntity
  8
08480038_ROSETTE
  6
Continuous
 62
     7
100
AcDbLine
 10
335.0656378748
 20
251.6047542412
 30
0.0
 11
335.0656378748
 21
257.1047542412
 31
0.0
  0
LINE
  5
281
330
231
100
AcDbEntity
  8
08480038_ROSETTE
  6
Continuous
 62
     7
100
AcDbLine
 10
280.0656378748
 20
257.1047542412
 30
0.0
 11
280.0656378748
 21
251.6047542412
 31
0.0
  0
ARC
  5
282
330
231
100
AcDbEntity
  8
08480038_ROSETTE
  6
Continuous
 62
     7
100
AcDbCircle
 10
334.5656378748
 20
251.6047542412
 30
0.0
 40
0.5000000000000004
100
AcDbArc
 50
270.0
 51
0.0
  0
ARC
  5
283
330
231
100
AcDbEntity
  8
08480038_ROSETTE
  6
Continuous
 62
     7
100
AcDbCircle
 10
280.5656378748
 20
251.6047542412
 30
0.0
 40
0.5000000000000004
100
AcDbArc
 50
180.0
 51
270.0
  0
ARC
  5
284
330
231
100
AcDbEntity
  8
08480038_ROSETTE
  6
Continuous
 62
     7
100
AcDbCircle
 10
329.5656378748
 20
247.6047542412
 30
0.0
 40
0.5000000000000004
100
AcDbArc
 50
270.0
 51
0.0
  0
ARC
  5
285
330
231
100
AcDbEntity
  8
08480038_ROSETTE
  6
Continuous
 62
     7
100
AcDbCircle
 10
285.5656378748
 20
247.6047542412
 30
0.0
 40
0.5000000000000004
100
AcDbArc
 50
180.0
 51
270.0
  0
ARC
  5
286
330
231
100
AcDbEntity
  8
08480038_ROSETTE
  6
Continuous
 62
     7
100
AcDbCircle
 10
330.5656378748
 20
250.6047542412
 30
0.0
 40
0.5000000000000004
100
AcDbArc
 50
90.0
 51
180.0
  0
ARC
  5
287
330
231
100
AcDbEntity
  8
08480038_ROSETTE
  6
Continuous
 62
     7
100
AcDbCircle
 10
284.5656378748
 20
250.6047542412
 30
0.0
 40
0.5000000000000004
100
AcDbArc
 50
0.0
 51
90.0
  0
LINE
  5
288
330
231
100
AcDbEntity
  8
08480038_ROSETTE
  6
Continuous
 62
     7
100
AcDbLine
 10
80.0656378748
 20
257.1047542412
 30
0.0
 11
135.0656378748
 21
257.1047542412
 31
0.0
  0
LINE
  5
289
330
231
100
AcDbEntity
  8
08480038_ROSETTE
  6
Continuous
 62
     7
100
AcDbLine
 10
80.5656378748
 20
251.1047542412
 30
0.0
 11
134.5656378748
 21
251.1047542412
 31
0.0
  0
LINE
  5
28A
330
231
100
AcDbEntity
  8
08480038_ROSETTE
  6
Continuous
 62
     7
100
AcDbLine
 10
85.5656378748
 20
247.1047542412
 30
0.0
 11
129.5656378748
 21
247.1047542412
 31
0.0
  0
LINE
  5
28B
330
231
100
AcDbEntity
  8
08480038_ROSETTE
  6
Continuous
 62
     7
100
AcDbLine
 10
130.0656378748
 20
247.6047542412
 30
0.0
 11
130.0656378748
 21
250.6047542412
 31
0.0
  0
LINE
  5
28C
330
231
100
AcDbEntity
  8
08480038_ROSETTE
  6
Continuous
 62
     7
100
AcDbLine
 10
85.0656378748
 20
250.6047542412
 30
0.0
 11
85.0656378748
 21
247.6047542412
 31
0.0
  0
LINE
  5
28D
330
231
100
AcDbEntity
  8
08480038_ROSETTE
  6
Continuous
 62
     7
100
AcDbLine
 10
135.0656378748
 20
251.6047542412
 30
0.0
 11
135.0656378748
 21
257.1047542412
 31
0.0
  0
LINE
  5
28E
330
231
100
AcDbEntity
  8
08480038_ROSETTE
  6
Continuous
 62
     7
100
AcDbLine
 10
80.0656378748
 20
257.1047542412
 30
0.0
 11
80.0656378748
 21
251.6047542412
 31
0.0
  0
ARC
  5
28F
330
231
100
AcDbEntity
  8
08480038_ROSETTE
  6
Continuous
 62
     7
100
AcDbCircle
 10
134.5656378748
 20
251.6047542412
 30
0.0
 40
0.5000000000000004
100
AcDbArc
 50
270.0
 51
0.0
  0
ARC
  5
290
330
231
100
AcDbEntity
  8
08480038_ROSETTE
  6
Continuous
 62
     7
100
AcDbCircle
 10
80.5656378748
 20
251.6047542412
 30
0.0
 40
0.4999999999999727
100
AcDbArc
 50
180.0
 51
270.0
  0
ARC
  5
291
330
231
100
AcDbEntity
  8
08480038_ROSETTE
  6
Continuous
 62
     7
100
AcDbCircle
 10
129.5656378748
 20
247.6047542412
 30
0.0
 40
0.5000000000000004
100
AcDbArc
 50
270.0
 51
0.0
  0
ARC
  5
292
330
231
100
AcDbEntity
  8
08480038_ROSETTE
  6
Continuous
 62
     7
100
AcDbCircle
 10
85.5656378748
 20
247.6047542412
 30
0.0
 40
0.4999999999999866
100
AcDbArc
 50
180.0
 51
270.0
  0
ARC
  5
293
330
231
100
AcDbEntity
  8
08480038_ROSETTE
  6
Continuous
 62
     7
100
AcDbCircle
 10
130.5656378748
 20
250.6047542412
 30
0.0
 40
0.5000000000000004
100
AcDbArc
 50
90.0
 51
180.0
  0
ARC
  5
294
330
231
100
AcDbEntity
  8
08480038_ROSETTE
  6
Continuous
 62
     7
100
AcDbCircle
 10
84.5656378748
 20
250.6047542412
 30
0.0
 40
0.5000000000000004
100
AcDbArc
 50
0.0
 51
90.0
  0
ELLIPSE
  5
295
330
231
100
AcDbEntity
  8
11877038_AUSL_WD
  6
Continuous
 62
     7
100
AcDbEllipse
 10
207.5656378748
 20
257.1076495338
 30
0.0
 11
27.50000000000001
 21
-6.938893903907228E-15
 31
0.0
210
0.0
220
0.0
230
1.0
 40
0.0000340912
 41
0.0
 42
0.4685212907942165
  0
ELLIPSE
  5
296
330
231
100
AcDbEntity
  8
11877038_AUSL_WD
  6
Continuous
 62
     7
100
AcDbEllipse
 10
207.5656378748
 20
257.1076495338
 30
0.0
 11
27.50000000000001
 21
-6.938893903907228E-15
 31
0.0
210
0.0
220
0.0
230
1.0
 40
0.0000340912
 41
2.672565970686314
 42
6.283185307179586
  0
ELLIPSE
  5
297
330
231
100
AcDbEntity
  8
11877038_AUSL_WD
  6
Continuous
 62
     7
100
AcDbEllipse
 10
207.5656378748
 20
257.1076495338
 30
0.0
 11
-25.74701625119205
 21
0.0
 31
0.0
210
0.0
220
0.0
230
1.0
 40
0.0000340912
 41
0.0001790712570028
 42
3.14142644286146
  0
ELLIPSE
  5
298
330
231
100
AcDbEntity
  8
11877038_AUSL_WD
  6
Continuous
 62
     7
100
AcDbEllipse
 10
207.5656378748
 20
251.1076495373
 30
0.0
 11
27.0
 21
0.0
 31
0.0
210
0.0
220
0.0
230
1.0
 40
0.0000340912
 41
3.141455548501924
 42
6.28292490822389
  0
ELLIPSE
  5
299
330
231
100
AcDbEntity
  8
11877038_AUSL_WD
  6
Continuous
 62
     7
100
AcDbEllipse
 10
207.5656378748
 20
203.1076495652
 30
0.0
 11
14.50000000000005
 21
0.0
 31
0.0
210
0.0
220
0.0
230
1.0
 40
0.0000340912
 41
3.141571964128354
 42
6.283185307179586
  0
ELLIPSE
  5
29A
330
231
100
AcDbEntity
  8
11877038_AUSL_WD
  6
Continuous
 62
     7
100
AcDbEllipse
 10
207.5656378748
 20
207.1076495629
 30
0.0
 11
17.50000000000007
 21
0.0
 31
0.0
210
0.0
220
0.0
230
1.0
 40
0.0000340912
 41
3.141959321212022
 42
6.282548194156946
  0
ELLIPSE
  5
29B
330
231
100
AcDbEntity
  8
11877038_AUSL_WD
  6
Continuous
 62
     7
100
AcDbEllipse
 10
207.5656378748
 20
247.1076495396
 30
0.0
 11
21.99999999999999
 21
0.0
 31
0.0
210
0.0
220
0.0
230
1.0
 40
0.0000340912
 41
3.1410035246454
 42
6.282858052833466
  0
ELLIPSE
  5
29C
330
231
100
AcDbEntity
  8
11877038_AUSL_WD
  6
Continuous
 62
     7
100
AcDbEllipse
 10
207.5656378748
 20
86.3511227277
 30
0.0
 11
0.0
 21
11.49999997397278
 31
0.0
210
0.0
220
0.0
230
1.0
 40
1.0
 41
1.570652033446418
 42
4.712533273733168
  0
ELLIPSE
  5
29D
330
231
100
AcDbEntity
  8
11877038_AUSL_WD
  6
Continuous
 62
     7
100
AcDbEllipse
 10
207.5656378748
 20
84.2415046528
 30
0.0
 11
-11.5
 21
8.326672684688673E-14
 31
0.0
210
0.0
220
0.0
230
1.0
 40
0.9063221941
 41
0.0
 42
3.141592653589793
  0
LINE
  5
29E
330
231
100
AcDbEntity
  8
11877038_AUSL_WD
  6
Continuous
 62
     7
100
AcDbLine
 10
180.0656378748
 20
257.1076495338
 30
0.0
 11
180.0656378748
 21
251.607649537
 31
0.0
  0
LINE
  5
29F
330
231
100
AcDbEntity
  8
11877038_AUSL_WD
  6
Continuous
 62
     7
100
AcDbLine
 10
235.0656378748
 20
251.607649537
 30
0.0
 11
235.0656378748
 21
257.1076495338
 31
0.0
  0
LINE
  5
2A0
330
231
100
AcDbEntity
  8
11877038_AUSL_WD
  6
Continuous
 62
     7
100
AcDbLine
 10
185.0656378748
 20
250.1076495379
 30
0.0
 11
185.0656378748
 21
247.6076495393
 31
0.0
  0
LINE
  5
2A1
330
231
100
AcDbEntity
  8
11877038_AUSL_WD
  6
Continuous
 62
     7
100
AcDbLine
 10
230.0656378748
 20
247.6076495393
 30
0.0
 11
230.0656378748
 21
250.1076495379
 31
0.0
  0
LINE
  5
2A2
330
231
100
AcDbEntity
  8
11877038_AUSL_WD
  6
Continuous
 62
     7
100
AcDbLine
 10
189.5656378748
 20
246.1076495402
 30
0.0
 11
189.5656378748
 21
207.6076495626
 31
0.0
  0
LINE
  5
2A3
330
231
100
AcDbEntity
  8
11877038_AUSL_WD
  6
Continuous
 62
     7
100
AcDbLine
 10
225.5656378748
 20
207.6076495626
 30
0.0
 11
225.5656378748
 21
246.1076495402
 31
0.0
  0
LINE
  5
2A4
330
231
100
AcDbEntity
  8
11877038_AUSL_WD
  6
Continuous
 62
     7
100
AcDbLine
 10
192.5656378748
 20
206.1076495634
 30
0.0
 11
192.5656378748
 21
203.6076495649
 31
0.0
  0
LINE
  5
2A5
330
231
100
AcDbEntity
  8
11877038_AUSL_WD
  6
Continuous
 62
     7
100
AcDbLine
 10
222.5656378748
 20
203.6076495649
 30
0.0
 11
222.5656378748
 21
206.1076495634
 31
0.0
  0
LINE
  5
2A6
330
231
100
AcDbEntity
  8
11877038_AUSL_WD
  6
Continuous
 62
     7
100
AcDbLine
 10
196.0656378748
 20
202.1076495658
 30
0.0
 11
196.0656378748
 21
122.6026468418
 31
0.0
  0
LINE
  5
2A7
330
231
100
AcDbEntity
  8
11877038_AUSL_WD
  6
Continuous
 62
     7
100
AcDbLine
 10
219.0656378748
 20
122.6026468418
 30
0.0
 11
219.0656378748
 21
202.1076495658
 31
0.0
  0
SPLINE
  5
2A8
330
231
100
AcDbEntity
  8
11877038_AUSL_WD
  6
Continuous
 62
     7
100
AcDbSpline
210
0.0
220
0.0
230
1.0
 70
     8
 71
     3
 72
    13
 73
     9
 74
     0
 42
0.0000000077247702
 43
0.0000000001
 40
0.0
 40
0.0
 40
0.0
 40
0.0
 40
0.0565537192923053
 40
0.3348199358119399
 40
0.5559003882686834
 40
0.7415817414061078
 40
0.8976690972560192
 40
1.0
 40
1.0
 40
1.0
 40
1.0
 10
230.0761444905801
 20
250.1141448868555
 30
0.0
 10
230.0726278227389
 20
250.1403762042157
 30
0.0
 10
230.0553362169433
 20
250.2742340888029
 30
0.0
 10
230.1384134498731
 20
250.5165670288891
 30
0.0
 10
230.293731828641
 20
250.7619287967917
 30
0.0
 10
230.4733682231343
 20
250.9228710855281
 30
0.0
 10
230.6419281539042
 20
251.0201425877839
 30
0.0
 10
230.7398874552386
 20
251.0514655975534
 30
0.0
 10
230.7856547858285
 20
251.065555091078
 30
0.0
  0
ARC
  5
2A9
330
231
100
AcDbEntity
  8
11877038_AUSL_WD
  6
Continuous
 62
     7
100
AcDbCircle
 10
184.0880873205
 20
250.1324659807
 30
0.0
 40
0.9680770221355959
100
AcDbArc
 50
357.8845182195
 51
71.2466943808
  0
ARC
  5
2AA
330
231
100
AcDbEntity
  8
11877038_AUSL_WD
  6
Continuous
 62
     7
100
AcDbCircle
 10
195.0834948118
 20
202.1192456733
 30
0.0
 40
0.9792716026322177
100
AcDbArc
 50
359.4517374041
 51
72.2789242697
  0
ARC
  5
2AB
330
231
100
AcDbEntity
  8
11877038_AUSL_WD
  6
Continuous
 62
     7
100
AcDbCircle
 10
220.058067162
 20
202.1119487292
 30
0.0
 40
0.991048567682438
100
AcDbArc
 50
107.8611524329
 51
180.4425359548
  0
ARC
  5
2AC
330
231
100
AcDbEntity
  8
11877038_AUSL_WD
  6
Continuous
 62
     7
100
AcDbCircle
 10
191.5877738196
 20
206.1283688392
 30
0.0
 40
0.9701217814796529
100
AcDbArc
 50
358.3630418945
 51
70.7954769488
  0
ARC
  5
2AD
330
231
100
AcDbEntity
  8
11877038_AUSL_WD
  6
Continuous
 62
     7
100
AcDbCircle
 10
223.5361617144
 20
206.1407585255
 30
0.0
 40
0.9579369994736266
100
AcDbArc
 50
109.0261695186
 51
182.4426524667
  0
SPLINE
  5
2AE
330
231
100
AcDbEntity
  8
11877038_AUSL_WD
  6
Continuous
 62
     7
100
AcDbSpline
210
0.0
220
0.0
230
1.0
 70
     8
 71
     3
 72
    12
 73
     8
 74
     0
 42
0.0000000076689236
 43
0.0000000001
 40
0.0
 40
0.0
 40
0.0
 40
0.0
 40
0.1884782682335187
 40
0.4051665394801502
 40
0.6766621144991551
 40
0.9560598921737239
 40
1.0
 40
1.0
 40
1.0
 40
1.0
 10
188.8327785573521
 20
247.0675788267686
 30
0.0
 10
188.9169165180342
 20
247.0402718176761
 30
0.0
 10
189.0699427674392
 20
246.9874191288041
 30
0.0
 10
189.3079965927516
 20
246.8026430560793
 30
0.0
 10
189.4873500301379
 20
246.533262562681
 30
0.0
 10
189.578676383527
 20
246.2715789747437
 30
0.0
 10
189.5591618811165
 20
246.1421934247103
 30
0.0
 10
189.5560157083791
 20
246.1218120667091
 30
0.0
  0
SPLINE
  5
2AF
330
231
100
AcDbEntity
  8
11877038_AUSL_WD
  6
Continuous
 62
     7
100
AcDbSpline
210
0.0
220
0.0
230
1.0
 70
     8
 71
     3
 72
    13
 73
     9
 74
     0
 42
0.0000000079499632
 43
0.0000000001
 40
0.0
 40
0.0
 40
0.0
 40
0.0
 40
0.0566138659395109
 40
0.3436302231447174
 40
0.571543762289441
 40
0.7629231665476617
 40
0.9238233520425315
 40
1.0
 40
1.0
 40
1.0
 40
1.0
 10
225.5759177440755
 20
246.1133789444344
 30
0.0
 10
225.5724462832422
 20
246.1388776562297
 30
0.0
 10
225.5549143909793
 20
246.2722879935318
 30
0.0
 10
225.6375275770361
 20
246.5145050098454
 30
0.0
 10
225.7925319583755
 20
246.7607236257431
 30
0.0
 10
225.9721864843248
 20
246.9215877649293
 30
0.0
 10
226.1299238125045
 20
247.0144062863274
 30
0.0
 10
226.217330300045
 20
247.0428452396883
 30
0.0
 10
226.2503426029282
 20
247.0532906794761
 30
0.0
  0
ARC
  5
2B0
330
231
100
AcDbEntity
  8
11877038_AUSL_WD
  6
Continuous
 62
     7
100
AcDbCircle
 10
180.5552813589
 20
251.5947298643
 30
0.0
 40
0.4840180334521221
100
AcDbArc
 50
180.5641349909
 51
257.2022735474
  0
SPLINE
  5
2B1
330
231
100
AcDbEntity
  8
11877038_AUSL_WD
  6
Continuous
 62
     7
100
AcDbSpline
210
0.0
220
0.0
230
1.0
 70
     8
 71
     3
 72
    12
 73
     8
 74
     0
 42
0.0000000146248889
 43
0.0000000001
 40
0.0
 40
0.0
 40
0.0
 40
0.0
 40
0.1684901169598386
 40
0.4027611259099751
 40
0.6796439320823437
 40
0.9478681728023588
 40
1.0
 40
1.0
 40
1.0
 40
1.0
 10
234.6936126273154
 20
251.1269946160857
 30
0.0
 10
234.73329356628
 20
251.1388073674084
 30
0.0
 10
234.8137516101465
 20
251.1643604415858
 30
0.0
 10
234.9403242290817
 20
251.2615580597344
 30
0.0
 10
235.0330197210347
 20
251.4071788028378
 30
0.0
 10
235.0746855579408
 20
251.5461326004494
 30
0.0
 10
235.0622240180331
 20
251.6128377306739
 30
0.0
 10
235.0598119789454
 20
251.6254213975471
 30
0.0
  0
ARC
  5
2B2
330
231
100
AcDbEntity
  8
11877038_AUSL_WD
  6
Continuous
 62
     7
100
AcDbCircle
 10
222.0808444895
 20
203.5902559721
 30
0.0
 40
0.4780030835934632
100
AcDbArc
 50
287.7566307262
 51
1.6957377024
  0
ARC
  5
2B3
330
231
100
AcDbEntity
  8
11877038_AUSL_WD
  6
Continuous
 62
     7
100
AcDbCircle
 10
193.0525551451
 20
203.5912913668
 30
0.0
 40
0.4799396604432842
100
AcDbArc
 50
178.9602756284
 51
257.37406653
  0
SPLINE
  5
2B4
330
231
100
AcDbEntity
  8
11877038_AUSL_WD
  6
Continuous
 62
     7
100
AcDbSpline
210
0.0
220
0.0
230
1.0
 70
     8
 71
     3
 72
    12
 73
     8
 74
     0
 42
0.0000000153762146
 43
0.0000000001
 40
0.0
 40
0.0
 40
0.0
 40
0.0
 40
0.0828374551379892
 40
0.3893379820380377
 40
0.6594149686805023
 40
0.9412741788204989
 40
1.0
 40
1.0
 40
1.0
 40
1.0
 10
225.2225712463362
 20
207.1369602785103
 30
0.0
 10
225.241195182685
 20
207.1420700614445
 30
0.0
 10
225.3160563024286
 20
207.1633216539657
 30
0.0
 10
225.4357940721482
 20
207.2554354551554
 30
0.0
 10
225.532070568537
 20
207.4063955586808
 30
0.0
 10
225.5740194702064
 20
207.5409976327399
 30
0.0
 10
225.5620413239017
 20
207.6083668675904
 30
0.0
 10
225.5595786790306
 20
207.6218366559717
 30
0.0
  0
SPLINE
  5
2B5
330
231
100
AcDbEntity
  8
11877038_AUSL_WD
  6
Continuous
 62
     7
100
AcDbSpline
210
0.0
220
0.0
230
1.0
 70
     8
 71
     3
 72
    14
 73
    10
 74
     0
 42
0.0000000147524055
 43
0.0000000001
 40
0.0
 40
0.0
 40
0.0
 40
0.0
 40
0.0203927995463421
 40
0.2983294919346046
 40
0.5163700084485822
 40
0.6984052342290922
 40
0.851874741171407
 40
0.9772096130731893
 40
1.0
 40
1.0
 40
1.0
 40
1.0
 10
189.5679576884114
 20
207.6146605972764
 30
0.0
 10
189.5670615079102
 20
207.6097490803503
 30
0.0
 10
189.5558457337128
 20
207.5477535536141
 30
0.0
 10
189.5923087953275
 20
207.426721870796
 30
0.0
 10
189.6659384917073
 20
207.2967796752303
 30
0.0
 10
189.7562643753527
 20
207.2093914876448
 30
0.0
 10
189.843668857161
 20
207.1569286169764
 30
0.0
 10
189.9083784664775
 20
207.1307548580973
 30
0.0
 10
189.9388395050791
 20
207.1244683814403
 30
0.0
 10
189.9443043813207
 20
207.1233561633552
 30
0.0
  0
SPLINE
  5
2B6
330
231
100
AcDbEntity
  8
11877038_AUSL_WD
  6
Continuous
 62
     7
100
AcDbSpline
210
0.0
220
0.0
230
1.0
 70
     8
 71
     3
 72
    12
 73
     8
 74
     0
 42
0.0000000146835456
 43
0.0000000001
 40
0.0
 40
0.0
 40
0.0
 40
0.0
 40
0.1587589874869403
 40
0.4157185958807336
 40
0.7117718525342853
 40
0.982796589352218
 40
1.0
 40
1.0
 40
1.0
 40
1.0
 10
229.6888234456239
 20
247.1259470524298
 30
0.0
 10
229.7261699782379
 20
247.1363737509793
 30
0.0
 10
229.809195021778
 20
247.1611295236079
 30
0.0
 10
229.9428701255893
 20
247.2617744330939
 30
0.0
 10
230.0366933475291
 20
247.4163915927529
 30
0.0
 10
230.0760944675174
 20
247.5533205687368
 30
0.0
 10
230.0643426320512
 20
247.6129236873679
 30
0.0
 10
230.0635241043715
 20
247.6170456686604
 30
0.0
  0
ARC
  5
2B7
330
231
100
AcDbEntity
  8
11877038_AUSL_WD
  6
Continuous
 62
     7
100
AcDbCircle
 10
185.5468664366
 20
247.5880773276
 30
0.0
 40
0.4740033797130521
100
AcDbArc
 50
178.3975350413
 51
250.2981193248
  0
LINE
  5
2B8
330
231
100
AcDbEntity
  8
11877038_AUSL_WD
  6
Continuous
 62
     7
100
AcDbLine
 10
196.0656378748
 20
122.6026468418
 30
0.0
 11
196.0656378748
 21
86.3511227277
 31
0.0
  0
LINE
  5
2B9
330
231
100
AcDbEntity
  8
11877038_AUSL_WD
  6
Continuous
 62
     7
100
AcDbLine
 10
219.0656378748
 20
86.3511227277
 30
0.0
 11
219.0656378748
 21
122.6026468418
 31
0.0
  0
LINE
  5
2BA
330
231
100
AcDbEntity
  8
11877038_AUSL_WD
  6
Continuous
 62
     7
100
AcDbLine
 10
196.0656378748
 20
86.3511227277
 30
0.0
 11
196.0656378748
 21
84.2415046528
 31
0.0
  0
LINE
  5
2BB
330
231
100
AcDbEntity
  8
11877038_AUSL_WD
  6
Continuous
 62
     7
100
AcDbLine
 10
219.0656378748
 20
84.2415046528
 30
0.0
 11
219.0656378748
 21
86.3511227277
 31
0.0
  0
ELLIPSE
  5
2BC
330
231
100
AcDbEntity
  8
$DDT_AUDIT_GENERATED_(106)
  6
Continuous
 62
     7
100
AcDbEllipse
 10
207.5656378748
 20
77.4801068233
 30
0.0
 11
-11.575
 21
0.0
 31
0.0
210
0.0
220
0.0
230
1.0
 40
0.9063221941
 41
0.0
 42
0.5135503712637856
  0
ELLIPSE
  5
2BD
330
231
100
AcDbEntity
  8
$DDT_AUDIT_GENERATED_(106)
  6
Continuous
 62
     7
100
AcDbEllipse
 10
207.5656378748
 20
77.4801068233
 30
0.0
 11
-11.575
 21
0.0
 31
0.0
210
0.0
220
0.0
230
1.0
 40
0.9063221941
 41
2.610901395778676
 42
3.141592653589793
  0
ELLIPSE
  5
2BE
330
231
100
AcDbEntity
  8
$DDT_AUDIT_GENERATED_(106)
  6
Continuous
 62
     7
100
AcDbEllipse
 10
207.5656378748
 20
84.1781165482
 30
0.0
 11
-11.575
 21
0.0
 31
0.0
210
0.0
220
0.0
230
1.0
 40
0.9063221941
 41
0.0
 42
3.141592653589793
  0
ELLIPSE
  5
2BF
330
231
100
AcDbEntity
  8
$DDT_AUDIT_GENERATED_(106)
  6
Continuous
 62
     7
100
AcDbEllipse
 10
207.5656378748
 20
84.2415046528
 30
0.0
 11
11.425
 21
0.0
 31
0.0
210
0.0
220
0.0
230
1.0
 40
0.9063221941
 41
0.0
 42
0.0695966883484561
  0
ELLIPSE
  5
2C0
330
231
100
AcDbEntity
  8
$DDT_AUDIT_GENERATED_(106)
  6
Continuous
 62
     7
100
AcDbEllipse
 10
207.5656378748
 20
84.2415046528
 30
0.0
 11
11.425
 21
0.0
 31
0.0
210
0.0
220
0.0
230
1.0
 40
0.9063221941
 41
3.212009996572141
 42
6.283185307179586
  0
LINE
  5
2C1
330
231
100
AcDbEntity
  8
$DDT_AUDIT_GENERATED_(106)
  6
Continuous
 62
     7
100
AcDbLine
 10
219.1406378748
 20
77.4801068233
 30
0.0
 11
219.1406378748
 21
84.1781165482
 31
0.0
  0
LINE
  5
2C2
330
231
100
AcDbEntity
  8
$DDT_AUDIT_GENERATED_(106)
  6
Continuous
 62
     7
100
AcDbLine
 10
195.9906378748
 20
84.1781165482
 30
0.0
 11
195.9906378748
 21
77.4801068233
 31
0.0
  0
ARC
  5
2C3
330
231
100
AcDbEntity
  8
$DDT_AUDIT_GENERATED_(106)
  6
Continuous
 62
     7
100
AcDbCircle
 10
207.5614973231
 20
79.0193358926
 30
0.0
 40
12.11587217485971
100
AcDbArc
 50
213.9793044881
 51
325.1602162139
  0
ENDBLK
  5
2C5
330
231
100
AcDbEntity
  8
0
100
AcDbBlockEnd
  0
ENDSEC
  0
SECTION
  2
ENTITIES
  0
INSERT
  5
5F
330
1F
100
AcDbEntity
  8
Default
100
AcDbBlockReference
  2
SEANNOT_GROUP
 10
0.0
 20
0.0
 30
0.0
  0
INSERT
  5
6A
330
1F
100
AcDbEntity
  8
Default
100
AcDbBlockReference
  2
SEANNOT_GROUP1
 10
0.0
 20
0.0
 30
0.0
  0
INSERT
  5
74
330
1F
100
AcDbEntity
  8
Default
100
AcDbBlockReference
  2
SEANNOT_GROUP2
 10
0.0
 20
0.0
 30
0.0
  0
INSERT
  5
7E
330
1F
100
AcDbEntity
  8
Default
100
AcDbBlockReference
  2
SEANNOT_GROUP3
 10
0.0
 20
0.0
 30
0.0
  0
INSERT
  5
84
330
1F
100
AcDbEntity
  8
Default
100
AcDbBlockReference
  2
SEANNOT_GROUP4
 10
0.0
 20
0.0
 30
0.0
  0
INSERT
  5
8A
330
1F
100
AcDbEntity
  8
Default
100
AcDbBlockReference
  2
SEANNOT_GROUP5
 10
0.0
 20
0.0
 30
0.0
  0
INSERT
  5
94
330
1F
100
AcDbEntity
  8
Default
100
AcDbBlockReference
  2
SEANNOT_GROUP6
 10
0.0
 20
0.0
 30
0.0
  0
INSERT
  5
9A
330
1F
100
AcDbEntity
  8
Default
100
AcDbBlockReference
  2
SE
 10
0.0
 20
0.0
 30
0.0
  0
INSERT
  5
1D1
330
1F
100
AcDbEntity
  8
Default
100
AcDbBlockReference
  2
SE1
 10
0.0
 20
0.0
 30
0.0
  0
INSERT
  5
232
330
1F
100
AcDbEntity
  8
Default
100
AcDbBlockReference
  2
SE2
 10
0.0
 20
0.0
 30
0.0
  0
TEXT
  5
2C7
330
1F
100
AcDbEntity
  8
Default
  6
Continuous
 62
     7
100
AcDbText
 10
5.9362635081
 20
53.4225120485
 30
0.0
 40
10.0
  1
Grohe AG^J
  7
SEACAD_seiso_ttf
 11
5.9362635081
 21
63.4225120485
 31
0.0
100
AcDbText
 73
     3
  0
TEXT
  5
2C8
330
1F
100
AcDbEntity
  8
Default
  6
Continuous
 62
     7
100
AcDbText
 10
5.9362635081
 20
37.0588756849
 30
0.0
 40
10.0
  1
 
  7
SEACAD_seiso_ttf
 11
5.9362635081
 21
47.0588756849
 31
0.0
100
AcDbText
 73
     3
  0
TEXT
  5
2C9
330
1F
100
AcDbEntity
  8
Default
  6
Continuous
 62
     7
100
AcDbText
 10
5.9362635081
 20
20.6952393213
 30
0.0
 40
10.0
  1
ecn: 
  7
SEACAD_seiso_ttf
 11
5.9362635081
 21
30.6952393213
 31
0.0
100
AcDbText
 73
     3
  0
TEXT
  5
2CA
330
1F
100
AcDbEntity
  8
Default
  6
Continuous
 62
     7
100
AcDbText
 10
5.9362635081
 20
4.3316029576
 30
0.0
 40
10.0
  1
unit: mm
  7
SEACAD_seiso_ttf
 11
5.9362635081
 21
14.3316029576
 31
0.0
100
AcDbText
 73
     3
  0
LINE
  5
2CB
330
1F
100
AcDbEntity
  8
Default
  6
Continuous
 62
     7
100
AcDbLine
 10
0.0
 20
0.0
 30
0.0
 11
100.0
 21
0.0
 31
0.0
  0
LINE
  5
2CC
330
1F
100
AcDbEntity
  8
Default
  6
Continuous
 62
     7
100
AcDbLine
 10
0.0
 20
0.0
 30
0.0
 11
0.0
 21
100.0
 31
0.0
  0
TEXT
  5
2CD
330
1F
100
AcDbEntity
  8
Default
  6
Continuous
 62
     7
100
AcDbText
 10
24.3923665681
 20
-18.2375342018
 30
0.0
 40
10.0
  1
100 mm
  7
SEACAD_seiso_ttf
 11
24.3923665681
 21
-8.2375342018
 31
0.0
100
AcDbText
 73
     3
  0
TEXT
  5
2CE
330
1F
100
AcDbEntity
  8
Default
  6
Continuous
 62
     7
100
AcDbText
 10
-7.6150308803
 20
24.6231930421
 30
0.0
 40
10.0
  1
100 mm
 50
90.0
  7
SEACAD_seiso_ttf
 11
-17.6150308803
 21
24.6231930421
 31
0.0
100
AcDbText
 73
     3
  0
TEXT
  5
2CF
330
1F
100
AcDbEntity
  8
Default
  6
Continuous
 62
     7
100
AcDbText
 10
28.4878128572
 20
20.0907663715
 30
0.0
 40
10.0
  1
212579
  7
SEACAD_seiso_ttf
 11
28.4878128572
 21
30.0907663715
 31
0.0
100
AcDbText
 73
     3
  0
TEXT
  5
2D0
330
1F
100
AcDbEntity
  8
Default
  6
Continuous
 62
     7
100
AcDbText
 10
5.9012241913
 20
36.7242780188
 30
0.0
 40
10.0
  1
20164000
  7
SEACAD_seiso_ttf
 11
5.9012241913
 21
46.7242780188
 31
0.0
100
AcDbText
 73
     3
  0
ENDSEC
  0
SECTION
  2
OBJECTS
  0
DICTIONARY
  5
C
330
0
100
AcDbDictionary
281
     1
  3
ACAD_GROUP
350
D
  3
ACAD_LAYOUT
350
1A
  3
ACAD_MLEADERSTYLE
350
2D4
  3
ACAD_MLINESTYLE
350
17
  3
ACAD_PLOTSETTINGS
350
19
  3
ACAD_PLOTSTYLENAME
350
E
  3
ACAD_SCALELIST
350
3B
  3
ACAD_TABLESTYLE
350
2D3
  3
ACAD_VISUALSTYLE
350
2A
  3
AcDbVariableDictionary
350
2D1
  0
DICTIONARY
  5
D
102
{ACAD_REACTORS
330
C
102
}
330
C
100
AcDbDictionary
281
     1
  0
DICTIONARY
  5
1A
102
{ACAD_REACTORS
330
C
102
}
330
C
100
AcDbDictionary
281
     1
  3
Layout1
350
1E
  3
Model
350
22
  0
DICTIONARY
  5
2D4
102
{ACAD_REACTORS
330
C
102
}
330
C
100
AcDbDictionary
281
     1
  0
DICTIONARY
  5
17
102
{ACAD_REACTORS
330
C
102
}
330
C
100
AcDbDictionary
281
     1
  3
Standard
350
18
  0
DICTIONARY
  5
19
102
{ACAD_REACTORS
330
C
102
}
330
C
100
AcDbDictionary
281
     1
  0
ACDBDICTIONARYWDFLT
  5
E
102
{ACAD_REACTORS
330
C
102
}
330
C
100
AcDbDictionary
281
     1
  3
Normal
350
F
100
AcDbDictionaryWithDefault
340
F
  0
DICTIONARY
  5
3B
102
{ACAD_REACTORS
330
C
102
}
330
C
100
AcDbDictionary
281
     1
  3
A0
350
3C
  3
A1
350
3D
  3
A2
350
3E
  3
A3
350
3F
  3
A4
350
40
  3
A5
350
41
  3
A6
350
42
  3
A7
350
43
  3
A8
350
44
  3
A9
350
45
  3
B0
350
46
  3
B1
350
47
  3
B2
350
48
  3
B3
350
49
  3
B4
350
4A
  3
B5
350
4B
  3
B6
350
4C
  3
B7
350
4D
  3
B8
350
4E
  3
B9
350
4F
  3
C0
350
50
  3
C1
350
51
  3
C2
350
52
  3
C3
350
53
  3
C4
350
54
  3
C5
350
55
  3
C6
350
56
  3
C7
350
57
  3
C8
350
58
  3
C9
350
59
  3
D0
350
5A
  3
D1
350
5B
  3
D2
350
5C
  0
DICTIONARY
  5
2D3
102
{ACAD_REACTORS
330
C
102
}
330
C
100
AcDbDictionary
281
     1
  0
DICTIONARY
  5
2A
102
{ACAD_REACTORS
330
C
102
}
330
C
100
AcDbDictionary
281
     1
  3
2dWireframe
350
2F
  3
3D Hidden
350
31
  3
3dWireframe
350
30
  3
Basic
350
32
  3
Brighten
350
36
  3
ColorChange
350
3A
  3
Conceptual
350
34
  3
Dim
350
35
  3
Facepattern
350
39
  3
Flat
350
2B
  3
FlatWithEdges
350
2C
  3
Gouraud
350
2D
  3
GouraudWithEdges
350
2E
  3
Linepattern
350
38
  3
Realistic
350
33
  3
Thicken
350
37
  0
DICTIONARY
  5
2D1
102
{ACAD_REACTORS
330
C
102
}
330
C
100
AcDbDictionary
281
     1
  3
CANNOSCALE
350
2D2
  3
PSOLHEIGHT
350
2D6
  3
PSOLWIDTH
350
2D5
  0
LAYOUT
  5
1E
102
{ACAD_REACTORS
330
1A
102
}
330
1A
100
AcDbPlotSettings
  1

  2
none_device
  4

  6

 40
0.0
 41
0.0
 42
0.0
 43
0.0
 44
0.0
 45
0.0
 46
0.0
 47
0.0
 48
0.0
 49
0.0
140
0.0
141
0.0
142
1.0
143
1.0
 70
   688
 72
     0
 73
     0
 74
     5
  7

 75
    16
147
1.0
148
0.0
149
0.0
100
AcDbLayout
  1
Layout1
 70
     1
 71
     1
 10
0.0
 20
0.0
 11
1682.0
 21
2378.0
 12
0.0
 22
0.0
 32
0.0
 14
0.0
 24
0.0
 34
0.0
 15
1682.0
 25
2378.0
 35
0.0
146
0.0
 13
0.0
 23
0.0
 33
0.0
 16
1.0
 26
0.0
 36
0.0
 17
0.0
 27
1.0
 37
0.0
 76
     0
330
1B
  0
LAYOUT
  5
22
102
{ACAD_REACTORS
330
1A
102
}
330
1A
100
AcDbPlotSettings
  1

  2
none_device
  4

  6

 40
0.0
 41
0.0
 42
0.0
 43
0.0
 44
0.0
 45
0.0
 46
0.0
 47
0.0
 48
0.0
 49
0.0
140
0.0
141
0.0
142
1.0
143
1.0
 70
  1712
 72
     0
 73
     0
 74
     0
  7

 75
     0
147
1.0
148
0.0
149
0.0
100
AcDbLayout
  1
Model
 70
     1
 71
     0
 10
0.0
 20
0.0
 11
1682.0
 21
2378.0
 12
0.0
 22
0.0
 32
0.0
 14
0.0
 24
0.0
 34
0.0
 15
1682.0
 25
2378.0
 35
0.0
146
0.0
 13
0.0
 23
0.0
 33
0.0
 16
1.0
 26
0.0
 36
0.0
 17
0.0
 27
1.0
 37
0.0
 76
     0
330
1F
331
29
  0
MLINESTYLE
  5
18
102
{ACAD_REACTORS
330
17
102
}
330
17
100
AcDbMlineStyle
  2
Standard
 70
     0
  3

 62
   256
 51
90.0
 52
90.0
 71
     2
 49
0.5
 62
   256
  6
BYLAYER
 49
-0.5
 62
   256
  6
BYLAYER
  0
ACDBPLACEHOLDER
  5
F
102
{ACAD_REACTORS
330
E
102
}
330
E
  0
SCALE
  5
3C
102
{ACAD_REACTORS
330
3B
102
}
330
3B
100
AcDbScale
 70
     0
300
1:1
140
1.0
141
1.0
290
     1
  0
SCALE
  5
3D
102
{ACAD_REACTORS
330
3B
102
}
330
3B
100
AcDbScale
 70
     0
300
1:2
140
1.0
141
2.0
290
     0
  0
SCALE
  5
3E
102
{ACAD_REACTORS
330
3B
102
}
330
3B
100
AcDbScale
 70
     0
300
1:4
140
1.0
141
4.0
290
     0
  0
SCALE
  5
3F
102
{ACAD_REACTORS
330
3B
102
}
330
3B
100
AcDbScale
 70
     0
300
1:5
140
1.0
141
5.0
290
     0
  0
SCALE
  5
40
102
{ACAD_REACTORS
330
3B
102
}
330
3B
100
AcDbScale
 70
     0
300
1:8
140
1.0
141
8.0
290
     0
  0
SCALE
  5
41
102
{ACAD_REACTORS
330
3B
102
}
330
3B
100
AcDbScale
 70
     0
300
1:10
140
1.0
141
10.0
290
     0
  0
SCALE
  5
42
102
{ACAD_REACTORS
330
3B
102
}
330
3B
100
AcDbScale
 70
     0
300
1:16
140
1.0
141
16.0
290
     0
  0
SCALE
  5
43
102
{ACAD_REACTORS
330
3B
102
}
330
3B
100
AcDbScale
 70
     0
300
1:20
140
1.0
141
20.0
290
     0
  0
SCALE
  5
44
102
{ACAD_REACTORS
330
3B
102
}
330
3B
100
AcDbScale
 70
     0
300
1:30
140
1.0
141
30.0
290
     0
  0
SCALE
  5
45
102
{ACAD_REACTORS
330
3B
102
}
330
3B
100
AcDbScale
 70
     0
300
1:40
140
1.0
141
40.0
290
     0
  0
SCALE
  5
46
102
{ACAD_REACTORS
330
3B
102
}
330
3B
100
AcDbScale
 70
     0
300
1:50
140
1.0
141
50.0
290
     0
  0
SCALE
  5
47
102
{ACAD_REACTORS
330
3B
102
}
330
3B
100
AcDbScale
 70
     0
300
1:100
140
1.0
141
100.0
290
     0
  0
SCALE
  5
48
102
{ACAD_REACTORS
330
3B
102
}
330
3B
100
AcDbScale
 70
     0
300
2:1
140
2.0
141
1.0
290
     0
  0
SCALE
  5
49
102
{ACAD_REACTORS
330
3B
102
}
330
3B
100
AcDbScale
 70
     0
300
4:1
140
4.0
141
1.0
290
     0
  0
SCALE
  5
4A
102
{ACAD_REACTORS
330
3B
102
}
330
3B
100
AcDbScale
 70
     0
300
8:1
140
8.0
141
1.0
290
     0
  0
SCALE
  5
4B
102
{ACAD_REACTORS
330
3B
102
}
330
3B
100
AcDbScale
 70
     0
300
10:1
140
10.0
141
1.0
290
     0
  0
SCALE
  5
4C
102
{ACAD_REACTORS
330
3B
102
}
330
3B
100
AcDbScale
 70
     0
300
100:1
140
100.0
141
1.0
290
     0
  0
SCALE
  5
4D
102
{ACAD_REACTORS
330
3B
102
}
330
3B
100
AcDbScale
 70
     0
300
1/128" = 1'-0"
140
0.0078125
141
12.0
290
     0
  0
SCALE
  5
4E
102
{ACAD_REACTORS
330
3B
102
}
330
3B
100
AcDbScale
 70
     0
300
1/64" = 1'-0"
140
0.015625
141
12.0
290
     0
  0
SCALE
  5
4F
102
{ACAD_REACTORS
330
3B
102
}
330
3B
100
AcDbScale
 70
     0
300
1/32" = 1'-0"
140
0.03125
141
12.0
290
     0
  0
SCALE
  5
50
102
{ACAD_REACTORS
330
3B
102
}
330
3B
100
AcDbScale
 70
     0
300
1/16" = 1'-0"
140
0.0625
141
12.0
290
     0
  0
SCALE
  5
51
102
{ACAD_REACTORS
330
3B
102
}
330
3B
100
AcDbScale
 70
     0
300
3/32" = 1'-0"
140
0.09375
141
12.0
290
     0
  0
SCALE
  5
52
102
{ACAD_REACTORS
330
3B
102
}
330
3B
100
AcDbScale
 70
     0
300
1/8" = 1'-0"
140
0.125
141
12.0
290
     0
  0
SCALE
  5
53
102
{ACAD_REACTORS
330
3B
102
}
330
3B
100
AcDbScale
 70
     0
300
3/16" = 1'-0"
140
0.1875
141
12.0
290
     0
  0
SCALE
  5
54
102
{ACAD_REACTORS
330
3B
102
}
330
3B
100
AcDbScale
 70
     0
300
1/4" = 1'-0"
140
0.25
141
12.0
290
     0
  0
SCALE
  5
55
102
{ACAD_REACTORS
330
3B
102
}
330
3B
100
AcDbScale
 70
     0
300
3/8" = 1'-0"
140
0.375
141
12.0
290
     0
  0
SCALE
  5
56
102
{ACAD_REACTORS
330
3B
102
}
330
3B
100
AcDbScale
 70
     0
300
1/2" = 1'-0"
140
0.5
141
12.0
290
     0
  0
SCALE
  5
57
102
{ACAD_REACTORS
330
3B
102
}
330
3B
100
AcDbScale
 70
     0
300
3/4" = 1'-0"
140
0.75
141
12.0
290
     0
  0
SCALE
  5
58
102
{ACAD_REACTORS
330
3B
102
}
330
3B
100
AcDbScale
 70
     0
300
1" = 1'-0"
140
1.0
141
12.0
290
     0
  0
SCALE
  5
59
102
{ACAD_REACTORS
330
3B
102
}
330
3B
100
AcDbScale
 70
     0
300
1-1/2" = 1'-0"
140
1.5
141
12.0
290
     0
  0
SCALE
  5
5A
102
{ACAD_REACTORS
330
3B
102
}
330
3B
100
AcDbScale
 70
     0
300
3" = 1'-0"
140
3.0
141
12.0
290
     0
  0
SCALE
  5
5B
102
{ACAD_REACTORS
330
3B
102
}
330
3B
100
AcDbScale
 70
     0
300
6" = 1'-0"
140
6.0
141
12.0
290
     0
  0
SCALE
  5
5C
102
{ACAD_REACTORS
330
3B
102
}
330
3B
100
AcDbScale
 70
     0
300
1'-0" = 1'-0"
140
12.0
141
12.0
290
     0
  0
VISUALSTYLE
  5
2F
102
{ACAD_REACTORS
330
2A
102
}
330
2A
100
AcDbVisualStyle
  2
2dWireframe
 70
     4
 71
     0
 72
     2
 73
     0
 90
        0
 40
-0.6
 41
-30.0
 62
     5
 63
     7
 74
     1
 91
        4
 64
     7
 65
   257
 75
     1
175
     1
 42
1.0
 92
        0
 66
   257
 43
1.0
 76
     1
 77
     6
 78
     2
 67
     7
 79
     5
170
     0
171
     0
290
     0
174
     0
 93
        1
 44
0.0
173
     0
291
     0
 45
0.0
1001
ACAD
1000
AcDbSavedByObjectVersion
1070
     0
  0
VISUALSTYLE
  5
31
102
{ACAD_REACTORS
330
2A
102
}
330
2A
100
AcDbVisualStyle
  2
3D Hidden
 70
     6
 71
     1
 72
     2
 73
     2
 90
        0
 40
-0.6
 41
-30.0
 62
     5
 63
     7
 74
     2
 91
        2
 64
     7
 65
   257
 75
     2
175
     1
 42
40.0
 92
        0
 66
   257
 43
1.0
 76
     1
 77
     6
 78
     2
 67
     7
 79
     3
170
     0
171
     0
290
     0
174
     0
 93
        1
 44
0.0
173
     0
291
     0
 45
0.0
1001
ACAD
1000
AcDbSavedByObjectVersion
1070
     0
  0
VISUALSTYLE
  5
30
102
{ACAD_REACTORS
330
2A
102
}
330
2A
100
AcDbVisualStyle
  2
3dWireframe
 70
     5
 71
     0
 72
     2
 73
     0
 90
        0
 40
-0.6
 41
-30.0
 62
     5
 63
     7
 74
     1
 91
        4
 64
     7
 65
   257
 75
     1
175
     1
 42
1.0
 92
        0
 66
   257
 43
1.0
 76
     1
 77
     6
 78
     2
 67
     7
 79
     5
170
     0
171
     0
290
     0
174
     0
 93
        1
 44
0.0
173
     0
291
     0
 45
0.0
1001
ACAD
1000
AcDbSavedByObjectVersion
1070
     0
  0
VISUALSTYLE
  5
32
102
{ACAD_REACTORS
330
2A
102
}
330
2A
100
AcDbVisualStyle
  2
Basic
 70
     7
 71
     1
 72
     0
 73
     1
 90
        0
 40
-0.6
 41
-30.0
 62
     5
 63
     7
 74
     0
 91
        4
 64
     7
 65
   257
 75
     1
175
     1
 42
1.0
 92
        8
 66
     7
 43
1.0
 76
     1
 77
     6
 78
     2
 67
     7
 79
     5
170
     0
171
     0
290
     0
174
     0
 93
        1
 44
0.0
173
     0
291
     1
 45
0.0
1001
ACAD
1000
AcDbSavedByObjectVersion
1070
     0
  0
VISUALSTYLE
  5
36
102
{ACAD_REACTORS
330
2A
102
}
330
2A
100
AcDbVisualStyle
  2
Brighten
 70
    12
 71
     2
 72
     2
 73
     0
 90
        0
 40
-0.6
 41
-30.0
 62
     5
 63
     7
 74
     1
 91
        4
 64
     7
 65
   257
 75
     1
175
     1
 42
1.0
 92
        8
 66
     7
 43
1.0
 76
     1
 77
     6
 78
     2
 67
     7
 79
     5
170
     0
171
     0
290
     0
174
     0
 93
        1
 44
50.0
173
     0
291
     1
 45
0.0
1001
ACAD
1000
AcDbSavedByObjectVersion
1070
     0
  0
VISUALSTYLE
  5
3A
102
{ACAD_REACTORS
330
2A
102
}
330
2A
100
AcDbVisualStyle
  2
ColorChange
 70
    16
 71
     2
 72
     2
 73
     3
 90
        0
 40
-0.6
 41
-30.0
 62
     5
 63
     8
 74
     1
 91
        4
 64
     7
 65
   257
 75
     1
175
     1
 42
1.0
 92
        8
 66
     8
 43
1.0
 76
     1
 77
     6
 78
     2
 67
     7
 79
     5
170
     0
171
     0
290
     0
174
     0
 93
        1
 44
0.0
173
     0
291
     1
 45
0.0
1001
ACAD
1000
AcDbSavedByObjectVersion
1070
     0
  0
VISUALSTYLE
  5
34
102
{ACAD_REACTORS
330
2A
102
}
330
2A
100
AcDbVisualStyle
  2
Conceptual
 70
     9
 71
     3
 72
     2
 73
     0
 90
        0
 40
-0.6
 41
-30.0
 62
     5
 63
     7
 74
     2
 91
        2
 64
     7
 65
   257
 75
     1
175
     1
 42
40.0
 92
        8
 66
     7
 43
1.0
 76
     1
 77
     6
 78
     2
 67
     7
 79
     3
170
     0
171
     0
290
     0
174
     0
 93
        1
 44
0.0
173
     0
291
     0
 45
0.0
1001
ACAD
1000
AcDbSavedByObjectVersion
1070
     0
  0
VISUALSTYLE
  5
35
102
{ACAD_REACTORS
330
2A
102
}
330
2A
100
AcDbVisualStyle
  2
Dim
 70
    11
 71
     2
 72
     2
 73
     0
 90
        0
 40
-0.6
 41
-30.0
 62
     5
 63
     7
 74
     1
 91
        4
 64
     7
 65
   257
 75
     1
175
     1
 42
1.0
 92
        8
 66
     7
 43
1.0
 76
     1
 77
     6
 78
     2
 67
     7
 79
     5
170
     0
171
     0
290
     0
174
     0
 93
        1
 44
-50.0
173
     0
291
     1
 45
0.0
1001
ACAD
1000
AcDbSavedByObjectVersion
1070
     0
  0
VISUALSTYLE
  5
39
102
{ACAD_REACTORS
330
2A
102
}
330
2A
100
AcDbVisualStyle
  2
Facepattern
 70
    15
 71
     2
 72
     2
 73
     0
 90
        0
 40
-0.6
 41
-30.0
 62
     5
 63
     7
 74
     1
 91
        4
 64
     7
 65
   257
 75
     1
175
     1
 42
1.0
 92
        8
 66
     7
 43
1.0
 76
     1
 77
     6
 78
     2
 67
     7
 79
     5
170
     0
171
     0
290
     0
174
     0
 93
        1
 44
0.0
173
     0
291
     1
 45
0.0
1001
ACAD
1000
AcDbSavedByObjectVersion
1070
     0
  0
VISUALSTYLE
  5
2B
102
{ACAD_REACTORS
330
2A
102
}
330
2A
100
AcDbVisualStyle
  2
Flat
 70
     0
 71
     2
 72
     1
 73
     1
 90
        2
 40
-0.6
 41
30.0
 62
     5
 63
     7
 74
     0
 91
        4
 64
     7
 65
   257
 75
     1
175
     1
 42
1.0
 92
        8
 66
     7
 43
1.0
 76
     1
 77
     6
 78
     2
 67
     7
 79
     5
170
     0
171
     0
290
     0
174
     0
 93
       13
 44
0.0
173
     0
291
     1
 45
0.0
1001
ACAD
1000
AcDbSavedByObjectVersion
1070
     0
  0
VISUALSTYLE
  5
2C
102
{ACAD_REACTORS
330
2A
102
}
330
2A
100
AcDbVisualStyle
  2
FlatWithEdges
 70
     1
 71
     2
 72
     1
 73
     1
 90
        2
 40
-0.6
 41
30.0
 62
     5
 63
     7
 74
     1
 91
        4
 64
     7
 65
   257
 75
     1
175
     1
 42
1.0
 92
        0
 66
   257
 43
1.0
 76
     1
 77
     6
 78
     2
 67
     7
 79
     5
170
     0
171
     0
290
     0
174
     0
 93
       13
 44
0.0
173
     0
291
     1
 45
0.0
1001
ACAD
1000
AcDbSavedByObjectVersion
1070
     0
  0
VISUALSTYLE
  5
2D
102
{ACAD_REACTORS
330
2A
102
}
330
2A
100
AcDbVisualStyle
  2
Gouraud
 70
     2
 71
     2
 72
     2
 73
     1
 90
        2
 40
-0.6
 41
30.0
 62
     5
 63
     7
 74
     0
 91
        4
 64
     7
 65
   257
 75
     1
175
     1
 42
1.0
 92
        0
 66
     7
 43
1.0
 76
     1
 77
     6
 78
     2
 67
     7
 79
     5
170
     0
171
     0
290
     0
174
     0
 93
       13
 44
0.0
173
     0
291
     1
 45
0.0
1001
ACAD
1000
AcDbSavedByObjectVersion
1070
     0
  0
VISUALSTYLE
  5
2E
102
{ACAD_REACTORS
330
2A
102
}
330
2A
100
AcDbVisualStyle
  2
GouraudWithEdges
 70
     3
 71
     2
 72
     2
 73
     1
 90
        2
 40
-0.6
 41
30.0
 62
     5
 63
     7
 74
     1
 91
        4
 64
     7
 65
   257
 75
     1
175
     1
 42
1.0
 92
        0
 66
   257
 43
1.0
 76
     1
 77
     6
 78
     2
 67
     7
 79
     5
170
     0
171
     0
290
     0
174
     0
 93
       13
 44
0.0
173
     0
291
     1
 45
0.0
1001
ACAD
1000
AcDbSavedByObjectVersion
1070
     0
  0
VISUALSTYLE
  5
38
102
{ACAD_REACTORS
330
2A
102
}
330
2A
100
AcDbVisualStyle
  2
Linepattern
 70
    14
 71
     2
 72
     2
 73
     0
 90
        0
 40
-0.6
 41
-30.0
 62
     5
 63
     7
 74
     1
 91
        4
 64
     7
 65
   257
 75
     7
175
     7
 42
1.0
 92
        8
 66
     7
 43
1.0
 76
     1
 77
     6
 78
     2
 67
     7
 79
     5
170
     0
171
     0
290
     0
174
     0
 93
        1
 44
0.0
173
     0
291
     1
 45
0.0
1001
ACAD
1000
AcDbSavedByObjectVersion
1070
     0
  0
VISUALSTYLE
  5
33
102
{ACAD_REACTORS
330
2A
102
}
330
2A
100
AcDbVisualStyle
  2
Realistic
 70
     8
 71
     2
 72
     2
 73
     0
 90
        0
 40
-0.6
 41
-30.0
 62
     5
 63
     7
 74
     1
 91
        0
 64
     7
 65
   257
 75
     1
175
     1
 42
1.0
 92
        8
 66
     8
 43
1.0
 76
     1
 77
     6
 78
     2
 67
     7
 79
     5
170
     0
171
     0
290
     0
174
     0
 93
       13
 44
0.0
173
     0
291
     0
 45
0.0
1001
ACAD
1000
AcDbSavedByObjectVersion
1070
     0
  0
VISUALSTYLE
  5
37
102
{ACAD_REACTORS
330
2A
102
}
330
2A
100
AcDbVisualStyle
  2
Thicken
 70
    13
 71
     2
 72
     2
 73
     0
 90
        0
 40
-0.6
 41
-30.0
 62
     5
 63
     7
 74
     1
 91
        4
 64
     7
 65
   257
 75
     1
175
     1
 42
1.0
 92
       12
 66
     7
 43
1.0
 76
     1
 77
     6
 78
     2
 67
     7
 79
     5
170
     0
171
     0
290
     0
174
     0
 93
        1
 44
0.0
173
     0
291
     1
 45
0.0
1001
ACAD
1000
AcDbSavedByObjectVersion
1070
     0
  0
DICTIONARYVAR
  5
2D2
102
{ACAD_REACTORS
330
2D1
102
}
330
2D1
100
DictionaryVariables
280
     0
  1
1:1
  0
DICTIONARYVAR
  5
2D6
102
{ACAD_REACTORS
330
2D1
102
}
330
2D1
100
DictionaryVariables
280
     0
  1
80.000000
  0
DICTIONARYVAR
  5
2D5
102
{ACAD_REACTORS
330
2D1
102
}
330
2D1
100
DictionaryVariables
280
     0
  1
5.000000
  0
ENDSEC
  0
EOF
