  0
SECTION
  2
HEADER
  9
$ACADVER
  1
AC1015
  9
$ACADMAINTVER
 70
     6
  9
$DWGCODEPAGE
  3
ANSI_1252
  9
$INSBASE
 10
0.0
 20
0.0
 30
0.0
  9
$EXTMIN
 10
0.0
 20
0.0
 30
0.0
  9
$EXTMAX
 10
1682.0
 20
2378.0
 30
0.0
  9
$LIMMIN
 10
0.0
 20
0.0
  9
$LIMMAX
 10
1682.0
 20
2378.0
  9
$ORTHOMODE
 70
     0
  9
$REGENMODE
 70
     1
  9
$FILLMODE
 70
     1
  9
$QTEXTMODE
 70
     0
  9
$MIRRTEXT
 70
     1
  9
$LTSCALE
 40
1.0
  9
$ATTMODE
 70
     1
  9
$TEXTSIZE
 40
2.5
  9
$TRACEWID
 40
1.0
  9
$TEXTSTYLE
  7
Standard
  9
$CLAYER
  8
0
  9
$CELTYPE
  6
ByLayer
  9
$CECOLOR
 62
   256
  9
$CELTSCALE
 40
1.0
  9
$DISPSILH
 70
     0
  9
$DIMSCALE
 40
1.0
  9
$DIMASZ
 40
2.5
  9
$DIMEXO
 40
0.625
  9
$DIMDLI
 40
3.75
  9
$DIMRND
 40
0.0
  9
$DIMDLE
 40
0.0
  9
$DIMEXE
 40
1.25
  9
$DIMTP
 40
0.0
  9
$DIMTM
 40
0.0
  9
$DIMTXT
 40
2.5
  9
$DIMCEN
 40
2.5
  9
$DIMTSZ
 40
0.0
  9
$DIMTOL
 70
     0
  9
$DIMLIM
 70
     0
  9
$DIMTIH
 70
     0
  9
$DIMTOH
 70
     0
  9
$DIMSE1
 70
     0
  9
$DIMSE2
 70
     0
  9
$DIMTAD
 70
     1
  9
$DIMZIN
 70
     8
  9
$DIMBLK
  1

  9
$DIMASO
 70
     1
  9
$DIMSHO
 70
     1
  9
$DIMPOST
  1

  9
$DIMAPOST
  1

  9
$DIMALT
 70
     0
  9
$DIMALTD
 70
     3
  9
$DIMALTF
 40
0.0393700787
  9
$DIMLFAC
 40
1.0
  9
$DIMTOFL
 70
     1
  9
$DIMTVP
 40
0.0
  9
$DIMTIX
 70
     0
  9
$DIMSOXD
 70
     0
  9
$DIMSAH
 70
     0
  9
$DIMBLK1
  1

  9
$DIMBLK2
  1

  9
$DIMSTYLE
  2
ISO-25
  9
$DIMCLRD
 70
     0
  9
$DIMCLRE
 70
     0
  9
$DIMCLRT
 70
     0
  9
$DIMTFAC
 40
1.0
  9
$DIMGAP
 40
0.625
  9
$DIMJUST
 70
     0
  9
$DIMSD1
 70
     0
  9
$DIMSD2
 70
     0
  9
$DIMTOLJ
 70
     0
  9
$DIMTZIN
 70
     8
  9
$DIMALTZ
 70
     0
  9
$DIMALTTZ
 70
     0
  9
$DIMUPT
 70
     0
  9
$DIMDEC
 70
     2
  9
$DIMTDEC
 70
     2
  9
$DIMALTU
 70
     2
  9
$DIMALTTD
 70
     3
  9
$DIMTXSTY
  7
Standard
  9
$DIMAUNIT
 70
     0
  9
$DIMADEC
 70
     0
  9
$DIMALTRND
 40
0.0
  9
$DIMAZIN
 70
     0
  9
$DIMDSEP
 70
    44
  9
$DIMATFIT
 70
     3
  9
$DIMFRAC
 70
     0
  9
$DIMLDRBLK
  1

  9
$DIMLUNIT
 70
     2
  9
$DIMLWD
 70
    -2
  9
$DIMLWE
 70
    -2
  9
$DIMTMOVE
 70
     0
  9
$LUNITS
 70
     2
  9
$LUPREC
 70
     4
  9
$SKETCHINC
 40
1.0
  9
$FILLETRAD
 40
10.0
  9
$AUNITS
 70
     0
  9
$AUPREC
 70
     0
  9
$MENU
  1
.
  9
$ELEVATION
 40
0.0
  9
$PELEVATION
 40
0.0
  9
$THICKNESS
 40
0.0
  9
$LIMCHECK
 70
     0
  9
$CHAMFERA
 40
10.0
  9
$CHAMFERB
 40
10.0
  9
$CHAMFERC
 40
20.0
  9
$CHAMFERD
 40
0.0
  9
$SKPOLY
 70
     0
  9
$TDCREATE
 40
2455496.583554155
  9
$TDUCREATE
 40
2455496.500220822
  9
$TDUPDATE
 40
2455496.583554167
  9
$TDUUPDATE
 40
2455496.500220833
  9
$TDINDWG
 40
0.0000000116
  9
$TDUSRTIMER
 40
0.0000000116
  9
$USRTIMER
 70
     1
  9
$ANGBASE
 50
0.0
  9
$ANGDIR
 70
     0
  9
$PDMODE
 70
     0
  9
$PDSIZE
 40
0.0
  9
$PLINEWID
 40
0.0
  9
$SPLFRAME
 70
     0
  9
$SPLINETYPE
 70
     6
  9
$SPLINESEGS
 70
     8
  9
$HANDSEED
  5
190
  9
$SURFTAB1
 70
     6
  9
$SURFTAB2
 70
     6
  9
$SURFTYPE
 70
     6
  9
$SURFU
 70
     6
  9
$SURFV
 70
     6
  9
$UCSBASE
  2

  9
$UCSNAME
  2

  9
$UCSORG
 10
0.0
 20
0.0
 30
0.0
  9
$UCSXDIR
 10
1.0
 20
0.0
 30
0.0
  9
$UCSYDIR
 10
0.0
 20
1.0
 30
0.0
  9
$UCSORTHOREF
  2

  9
$UCSORTHOVIEW
 70
     0
  9
$UCSORGTOP
 10
0.0
 20
0.0
 30
0.0
  9
$UCSORGBOTTOM
 10
0.0
 20
0.0
 30
0.0
  9
$UCSORGLEFT
 10
0.0
 20
0.0
 30
0.0
  9
$UCSORGRIGHT
 10
0.0
 20
0.0
 30
0.0
  9
$UCSORGFRONT
 10
0.0
 20
0.0
 30
0.0
  9
$UCSORGBACK
 10
0.0
 20
0.0
 30
0.0
  9
$PUCSBASE
  2

  9
$PUCSNAME
  2

  9
$PUCSORG
 10
0.0
 20
0.0
 30
0.0
  9
$PUCSXDIR
 10
1.0
 20
0.0
 30
0.0
  9
$PUCSYDIR
 10
0.0
 20
1.0
 30
0.0
  9
$PUCSORTHOREF
  2

  9
$PUCSORTHOVIEW
 70
     0
  9
$PUCSORGTOP
 10
0.0
 20
0.0
 30
0.0
  9
$PUCSORGBOTTOM
 10
0.0
 20
0.0
 30
0.0
  9
$PUCSORGLEFT
 10
0.0
 20
0.0
 30
0.0
  9
$PUCSORGRIGHT
 10
0.0
 20
0.0
 30
0.0
  9
$PUCSORGFRONT
 10
0.0
 20
0.0
 30
0.0
  9
$PUCSORGBACK
 10
0.0
 20
0.0
 30
0.0
  9
$USERI1
 70
     0
  9
$USERI2
 70
     0
  9
$USERI3
 70
     0
  9
$USERI4
 70
     0
  9
$USERI5
 70
     0
  9
$USERR1
 40
0.0
  9
$USERR2
 40
0.0
  9
$USERR3
 40
0.0
  9
$USERR4
 40
0.0
  9
$USERR5
 40
0.0
  9
$WORLDVIEW
 70
     1
  9
$SHADEDGE
 70
     3
  9
$SHADEDIF
 70
    70
  9
$TILEMODE
 70
     1
  9
$MAXACTVP
 70
    64
  9
$PINSBASE
 10
0.0
 20
0.0
 30
0.0
  9
$PLIMCHECK
 70
     0
  9
$PEXTMIN
 10
0.0
 20
0.0
 30
0.0
  9
$PEXTMAX
 10
1682.0
 20
2378.0
 30
0.0
  9
$PLIMMIN
 10
0.0
 20
0.0
  9
$PLIMMAX
 10
1682.0
 20
2378.0
  9
$UNITMODE
 70
     0
  9
$VISRETAIN
 70
     1
  9
$PLINEGEN
 70
     0
  9
$PSLTSCALE
 70
     1
  9
$TREEDEPTH
 70
  3020
  9
$CMLSTYLE
  2
Standard
  9
$CMLJUST
 70
     0
  9
$CMLSCALE
 40
20.0
  9
$PROXYGRAPHICS
 70
     1
  9
$MEASUREMENT
 70
     1
  9
$CELWEIGHT
370
    -1
  9
$ENDCAPS
280
     0
  9
$JOINSTYLE
280
     0
  9
$LWDISPLAY
290
     0
  9
$INSUNITS
 70
     4
  9
$HYPERLINKBASE
  1

  9
$STYLESHEET
  1

  9
$XEDIT
290
     1
  9
$CEPSNTYPE
380
     0
  9
$PSTYLEMODE
290
     1
  9
$FINGERPRINTGUID
  2
{7E160FB6-D93B-42EF-B6D6-7E9051B6CDDA}
  9
$VERSIONGUID
  2
{FAEB1C32-E019-11D5-929B-00C0DF256EC4}
  9
$EXTNAMES
290
     1
  9
$PSVPSCALE
 40
0.0
  9
$OLESTARTUP
290
     0
  0
ENDSEC
  0
SECTION
  2
CLASSES
  0
CLASS
  1
ACDBDICTIONARYWDFLT
  2
AcDbDictionaryWithDefault
  3
ObjectDBX Classes
 90
        0
280
     0
281
     0
  0
CLASS
  1
VISUALSTYLE
  2
AcDbVisualStyle
  3
ObjectDBX Classes
 90
     4095
280
     0
281
     0
  0
CLASS
  1
SCALE
  2
AcDbScale
  3
ObjectDBX Classes
 90
     1153
280
     0
281
     0
  0
CLASS
  1
DICTIONARYVAR
  2
AcDbDictionaryVar
  3
ObjectDBX Classes
 90
        0
280
     0
281
     0
  0
CLASS
  1
ACDBPLACEHOLDER
  2
AcDbPlaceHolder
  3
ObjectDBX Classes
 90
        0
280
     0
281
     0
  0
CLASS
  1
LAYOUT
  2
AcDbLayout
  3
ObjectDBX Classes
 90
        0
280
     0
281
     0
  0
ENDSEC
  0
SECTION
  2
TABLES
  0
TABLE
  2
VPORT
  5
8
330
0
100
AcDbSymbolTable
 70
     1
  0
VPORT
  5
29
330
8
100
AcDbSymbolTableRecord
100
AcDbViewportTableRecord
  2
*Active
 70
     0
 10
0.0
 20
0.0
 11
1.0
 21
1.0
 12
344.1869158879
 22
148.5
 13
0.0
 23
0.0
 14
10.0
 24
10.0
 15
10.0
 25
10.0
 16
0.0
 26
0.0
 36
1.0
 17
0.0
 27
0.0
 37
0.0
 40
297.0
 41
1.9729729729
 42
50.0
 43
0.0
 44
0.0
 50
0.0
 51
0.0
 71
     0
 72
   100
 73
     1
 74
     3
 75
     0
 76
     0
 77
     0
 78
     0
281
     0
 65
     1
110
0.0
120
0.0
130
0.0
111
1.0
121
0.0
131
0.0
112
0.0
122
1.0
132
0.0
 79
     0
146
0.0
  0
ENDTAB
  0
TABLE
  2
LTYPE
  5
5
330
0
100
AcDbSymbolTable
 70
     3
  0
LTYPE
  5
14
330
5
100
AcDbSymbolTableRecord
100
AcDbLinetypeTableRecord
  2
ByBlock
 70
     0
  3

 72
    65
 73
     0
 40
0.0
  0
LTYPE
  5
15
330
5
100
AcDbSymbolTableRecord
100
AcDbLinetypeTableRecord
  2
ByLayer
 70
     0
  3

 72
    65
 73
     0
 40
0.0
  0
LTYPE
  5
16
330
5
100
AcDbSymbolTableRecord
100
AcDbLinetypeTableRecord
  2
Continuous
 70
     0
  3
Solid line
 72
    65
 73
     0
 40
0.0
  0
LTYPE
  5
60
330
5
100
AcDbSymbolTableRecord
100
AcDbLinetypeTableRecord
  2
CENTER2
 70
     0
  3
Center (.5x) ___ _ ___ _ ___ _ ___ _ ___ _ ___
 72
    65
 73
     4
 40
28.575
 49
19.05
 74
     4
 75
     0
340
0
 46
0.0
 50
0.0
 44
0.0
 45
0.0
 49
-3.175
 74
     4
 75
     0
340
0
 46
0.0
 50
0.0
 44
0.0
 45
0.0
 49
3.175
 74
     4
 75
     0
340
0
 46
0.0
 50
0.0
 44
0.0
 45
0.0
 49
-3.175
 74
     4
 75
     0
340
0
 46
0.0
 50
0.0
 44
0.0
 45
0.0
  0
LTYPE
  5
B2
330
5
100
AcDbSymbolTableRecord
100
AcDbLinetypeTableRecord
  2
PHANTOM2
 70
     0
  3
Phantom (.5x) ___ _ _ ___ _ _ ___ _ _ ___ _ _
 72
    65
 73
     6
 40
31.75
 49
15.875
 74
     4
 75
     0
340
0
 46
0.0
 50
0.0
 44
0.0
 45
0.0
 49
-3.175
 74
     4
 75
     0
340
0
 46
0.0
 50
0.0
 44
0.0
 45
0.0
 49
3.175
 74
     4
 75
     0
340
0
 46
0.0
 50
0.0
 44
0.0
 45
0.0
 49
-3.175
 74
     4
 75
     0
340
0
 46
0.0
 50
0.0
 44
0.0
 45
0.0
 49
3.175
 74
     4
 75
     0
340
0
 46
0.0
 50
0.0
 44
0.0
 45
0.0
 49
-3.175
 74
     4
 75
     0
340
0
 46
0.0
 50
0.0
 44
0.0
 45
0.0
  0
ENDTAB
  0
TABLE
  2
LAYER
  5
2
330
0
100
AcDbSymbolTable
 70
    11
  0
LAYER
  5
10
330
2
100
AcDbSymbolTableRecord
100
AcDbLayerTableRecord
  2
0
 70
     0
 62
     7
  6
Continuous
370
    -3
390
F
  0
LAYER
  5
5D
330
2
100
AcDbSymbolTableRecord
100
AcDbLayerTableRecord
  2
Default
 70
     0
 62
     7
  6
Continuous
370
    -3
390
F
  0
LAYER
  5
87
330
2
100
AcDbSymbolTableRecord
100
AcDbLayerTableRecord
  2
$DDT_AUDIT_GENERATED_(87)
 70
     0
 62
     7
  6
Continuous
370
    -3
390
F
  0
LAYER
  5
8C
330
2
100
AcDbSymbolTableRecord
100
AcDbLayerTableRecord
  2
$DDT_AUDIT_GENERATED_(8C)
 70
     0
 62
     7
  6
Continuous
370
    -3
390
F
  0
LAYER
  5
8F
330
2
100
AcDbSymbolTableRecord
100
AcDbLayerTableRecord
  2
$DDT_AUDIT_GENERATED_(8F)
 70
     0
 62
     7
  6
Continuous
370
    -3
390
F
  0
LAYER
  5
92
330
2
100
AcDbSymbolTableRecord
100
AcDbLayerTableRecord
  2
$DDT_AUDIT_GENERATED_(92)
 70
     0
 62
     7
  6
Continuous
370
    -3
390
F
  0
LAYER
  5
9D
330
2
100
AcDbSymbolTableRecord
100
AcDbLayerTableRecord
  2
$DDT_AUDIT_GENERATED_(9D)
 70
     0
 62
     7
  6
Continuous
370
    -3
390
F
  0
LAYER
  5
B1
330
2
100
AcDbSymbolTableRecord
100
AcDbLayerTableRecord
  2
$DDT_AUDIT_GENERATED_(B1)
 70
     0
 62
     7
  6
Continuous
370
    -3
390
F
  0
LAYER
  5
DF
330
2
100
AcDbSymbolTableRecord
100
AcDbLayerTableRecord
  2
$DDT_AUDIT_GENERATED_(DF)
 70
     0
 62
     7
  6
Continuous
370
    -3
390
F
  0
LAYER
  5
FF
330
2
100
AcDbSymbolTableRecord
100
AcDbLayerTableRecord
  2
$DDT_AUDIT_GENERATED_(FF)
 70
     0
 62
     7
  6
Continuous
370
    -3
390
F
  0
LAYER
  5
12B
330
2
100
AcDbSymbolTableRecord
100
AcDbLayerTableRecord
  2
DV2_Default
 70
     0
 62
     7
  6
Continuous
370
    -3
390
F
  0
ENDTAB
  0
TABLE
  2
STYLE
  5
3
330
0
100
AcDbSymbolTable
 70
     2
  0
STYLE
  5
11
330
3
100
AcDbSymbolTableRecord
100
AcDbTextStyleTableRecord
  2
Standard
 70
     0
 40
0.0
 41
1.0
 50
0.0
 71
     0
 42
2.5
  3
txt
  4

  0
STYLE
  5
17F
330
3
100
AcDbSymbolTableRecord
100
AcDbTextStyleTableRecord
  2
SEACAD_seiso_ttf
 70
     0
 40
0.0
 41
1.0
 50
0.0
 71
     0
 42
0.2
  3
seiso.ttf
  4

  0
ENDTAB
  0
TABLE
  2
VIEW
  5
6
330
0
100
AcDbSymbolTable
 70
     0
  0
ENDTAB
  0
TABLE
  2
UCS
  5
7
330
0
100
AcDbSymbolTable
 70
     0
  0
ENDTAB
  0
TABLE
  2
APPID
  5
9
330
0
100
AcDbSymbolTable
 70
     1
  0
APPID
  5
12
330
9
100
AcDbSymbolTableRecord
100
AcDbRegAppTableRecord
  2
ACAD
 70
     0
  0
ENDTAB
  0
TABLE
  2
DIMSTYLE
  5
A
330
0
100
AcDbSymbolTable
 70
     1
100
AcDbDimStyleTable
  0
DIMSTYLE
105
27
330
A
100
AcDbSymbolTableRecord
100
AcDbDimStyleTableRecord
  2
ISO-25
 70
     0
 41
2.5
 42
0.625
 43
3.75
 44
1.25
 73
     0
 74
     0
 77
     1
 78
     8
140
2.5
141
2.5
143
0.0393700787
147
0.625
171
     3
172
     1
271
     2
272
     2
274
     3
278
    44
283
     0
284
     8
340
11
  0
ENDTAB
  0
TABLE
  2
BLOCK_RECORD
  5
1
330
0
100
AcDbSymbolTable
 70
     9
  0
BLOCK_RECORD
  5
1F
330
1
100
AcDbSymbolTableRecord
100
AcDbBlockTableRecord
  2
*Model_Space
340
22
  0
BLOCK_RECORD
  5
1B
330
1
100
AcDbSymbolTableRecord
100
AcDbBlockTableRecord
  2
*Paper_Space
340
1E
  0
BLOCK_RECORD
  5
5E
330
1
100
AcDbSymbolTableRecord
100
AcDbBlockTableRecord
  2
SEANNOT_GROUP
340
0
102
{BLKREFS
331
5F
102
}
  0
BLOCK_RECORD
  5
69
330
1
100
AcDbSymbolTableRecord
100
AcDbBlockTableRecord
  2
SEANNOT_GROUP1
340
0
102
{BLKREFS
331
6A
102
}
  0
BLOCK_RECORD
  5
73
330
1
100
AcDbSymbolTableRecord
100
AcDbBlockTableRecord
  2
SEANNOT_GROUP2
340
0
102
{BLKREFS
331
74
102
}
  0
BLOCK_RECORD
  5
79
330
1
100
AcDbSymbolTableRecord
100
AcDbBlockTableRecord
  2
SEANNOT_GROUP3
340
0
102
{BLKREFS
331
7A
102
}
  0
BLOCK_RECORD
  5
7F
330
1
100
AcDbSymbolTableRecord
100
AcDbBlockTableRecord
  2
SEANNOT_GROUP4
340
0
102
{BLKREFS
331
80
102
}
  0
BLOCK_RECORD
  5
85
330
1
100
AcDbSymbolTableRecord
100
AcDbBlockTableRecord
  2
SE
340
0
102
{BLKREFS
331
86
102
}
  0
BLOCK_RECORD
  5
AF
330
1
100
AcDbSymbolTableRecord
100
AcDbBlockTableRecord
  2
SE1
340
0
102
{BLKREFS
331
B0
102
}
  0
BLOCK_RECORD
  5
131
330
1
100
AcDbSymbolTableRecord
100
AcDbBlockTableRecord
  2
SE2
340
0
102
{BLKREFS
331
132
102
}
  0
ENDTAB
  0
ENDSEC
  0
SECTION
  2
BLOCKS
  0
BLOCK
  5
20
330
1F
100
AcDbEntity
  8
0
100
AcDbBlockBegin
  2
*Model_Space
 70
     0
 10
0.0
 20
0.0
 30
0.0
  3
*Model_Space
  1

  0
ENDBLK
  5
21
330
1F
100
AcDbEntity
  8
0
100
AcDbBlockEnd
  0
BLOCK
  5
1C
330
1B
100
AcDbEntity
 67
     1
  8
0
100
AcDbBlockBegin
  2
*Paper_Space
 70
     0
 10
0.0
 20
0.0
 30
0.0
  3
*Paper_Space
  1

  0
ENDBLK
  5
1D
330
1B
100
AcDbEntity
 67
     1
  8
0
100
AcDbBlockEnd
  0
BLOCK
  5
67
330
5E
100
AcDbEntity
  8
0
100
AcDbBlockBegin
  2
SEANNOT_GROUP
 70
     0
 10
0.0
 20
0.0
 30
0.0
  3
SEANNOT_GROUP
  1

  0
LINE
  5
61
330
5E
100
AcDbEntity
  8
Default
  6
CENTER2
 62
     7
100
AcDbLine
 10
158.9343797773
 20
394.166769233
 30
0.0
 11
118.9343806713
 21
394.166769233
 31
0.0
  0
LINE
  5
62
330
5E
100
AcDbEntity
  8
Default
  6
CENTER2
 62
     7
100
AcDbLine
 10
138.9343802243
 20
414.1667687859
 30
0.0
 11
138.9343802243
 21
374.16676968
 31
0.0
  0
LINE
  5
63
330
5E
100
AcDbEntity
  8
Default
  6
CENTER2
 62
     7
100
AcDbLine
 10
163.9343796655
 20
394.166769233
 30
0.0
 11
168.6843802243
 21
394.166769233
 31
0.0
  0
LINE
  5
64
330
5E
100
AcDbEntity
  8
Default
  6
CENTER2
 62
     7
100
AcDbLine
 10
138.9343802243
 20
419.1667686742
 30
0.0
 11
138.9343802243
 21
423.916769233
 31
0.0
  0
LINE
  5
65
330
5E
100
AcDbEntity
  8
Default
  6
CENTER2
 62
     7
100
AcDbLine
 10
113.9343807831
 20
394.166769233
 30
0.0
 11
109.1843802243
 21
394.166769233
 31
0.0
  0
LINE
  5
66
330
5E
100
AcDbEntity
  8
Default
  6
CENTER2
 62
     7
100
AcDbLine
 10
138.9343802243
 20
369.1667697918
 30
0.0
 11
138.9343802243
 21
364.416769233
 31
0.0
  0
ENDBLK
  5
68
330
5E
100
AcDbEntity
  8
0
100
AcDbBlockEnd
  0
BLOCK
  5
71
330
69
100
AcDbEntity
  8
0
100
AcDbBlockBegin
  2
SEANNOT_GROUP1
 70
     0
 10
0.0
 20
0.0
 30
0.0
  3
SEANNOT_GROUP1
  1

  0
LINE
  5
6B
330
69
100
AcDbEntity
  8
Default
  6
CENTER2
 62
     7
100
AcDbLine
 10
158.9343797773
 20
309.166769233
 30
0.0
 11
118.9343806713
 21
309.166769233
 31
0.0
  0
LINE
  5
6C
330
69
100
AcDbEntity
  8
Default
  6
CENTER2
 62
     7
100
AcDbLine
 10
138.9343802243
 20
329.1667687859
 30
0.0
 11
138.9343802243
 21
289.16676968
 31
0.0
  0
LINE
  5
6D
330
69
100
AcDbEntity
  8
Default
  6
CENTER2
 62
     7
100
AcDbLine
 10
163.9343796655
 20
309.166769233
 30
0.0
 11
168.6843802243
 21
309.166769233
 31
0.0
  0
LINE
  5
6E
330
69
100
AcDbEntity
  8
Default
  6
CENTER2
 62
     7
100
AcDbLine
 10
138.9343802243
 20
334.1667686742
 30
0.0
 11
138.9343802243
 21
338.916769233
 31
0.0
  0
LINE
  5
6F
330
69
100
AcDbEntity
  8
Default
  6
CENTER2
 62
     7
100
AcDbLine
 10
113.9343807831
 20
309.166769233
 30
0.0
 11
109.1843802243
 21
309.166769233
 31
0.0
  0
LINE
  5
70
330
69
100
AcDbEntity
  8
Default
  6
CENTER2
 62
     7
100
AcDbLine
 10
138.9343802243
 20
284.1667697918
 30
0.0
 11
138.9343802243
 21
279.416769233
 31
0.0
  0
ENDBLK
  5
72
330
69
100
AcDbEntity
  8
0
100
AcDbBlockEnd
  0
BLOCK
  5
77
330
73
100
AcDbEntity
  8
0
100
AcDbBlockBegin
  2
SEANNOT_GROUP2
 70
     0
 10
0.0
 20
0.0
 30
0.0
  3
SEANNOT_GROUP2
  1

  0
LINE
  5
75
330
73
100
AcDbEntity
  8
Default
  6
CENTER2
 62
     7
100
AcDbLine
 10
345.3066930509
 20
308.872276025
 30
0.0
 11
305.306693945
 21
308.872276025
 31
0.0
  0
LINE
  5
76
330
73
100
AcDbEntity
  8
Default
  6
CENTER2
 62
     7
100
AcDbLine
 10
325.306693498
 20
328.872275578
 30
0.0
 11
325.306693498
 21
288.8722764721
 31
0.0
  0
ENDBLK
  5
78
330
73
100
AcDbEntity
  8
0
100
AcDbBlockEnd
  0
BLOCK
  5
7D
330
79
100
AcDbEntity
  8
0
100
AcDbBlockBegin
  2
SEANNOT_GROUP3
 70
     0
 10
0.0
 20
0.0
 30
0.0
  3
SEANNOT_GROUP3
  1

  0
LINE
  5
7B
330
79
100
AcDbEntity
  8
Default
  6
CENTER2
 62
     7
100
AcDbLine
 10
345.3066930509
 20
393.8732171968
 30
0.0
 11
305.306693945
 21
393.8732171968
 31
0.0
  0
LINE
  5
7C
330
79
100
AcDbEntity
  8
Default
  6
CENTER2
 62
     7
100
AcDbLine
 10
325.306693498
 20
413.8732167497
 30
0.0
 11
325.306693498
 21
373.8732176438
 31
0.0
  0
ENDBLK
  5
7E
330
79
100
AcDbEntity
  8
0
100
AcDbBlockEnd
  0
BLOCK
  5
83
330
7F
100
AcDbEntity
  8
0
100
AcDbBlockBegin
  2
SEANNOT_GROUP4
 70
     0
 10
0.0
 20
0.0
 30
0.0
  3
SEANNOT_GROUP4
  1

  0
LINE
  5
81
330
7F
100
AcDbEntity
  8
Default
  6
CENTER2
 62
     7
100
AcDbLine
 10
158.9343797773
 20
178.05
 30
0.0
 11
118.9343806713
 21
178.05
 31
0.0
  0
LINE
  5
82
330
7F
100
AcDbEntity
  8
Default
  6
CENTER2
 62
     7
100
AcDbLine
 10
138.9343802243
 20
198.049999553
 30
0.0
 11
138.9343802243
 21
158.050000447
 31
0.0
  0
ENDBLK
  5
84
330
7F
100
AcDbEntity
  8
0
100
AcDbBlockEnd
  0
BLOCK
  5
AD
330
85
100
AcDbEntity
  8
0
100
AcDbBlockBegin
  2
SE
 70
     0
 10
0.0
 20
0.0
 30
0.0
  3
SE
  1

  0
ARC
  5
88
330
85
100
AcDbEntity
  8
$DDT_AUDIT_GENERATED_(87)
  6
Continuous
 62
     7
100
AcDbCircle
 10
138.9351699611
 20
331.2658280612
 30
0.0
 40
5.999999999999998
100
AcDbArc
 50
207.1923065604
 51
332.8076934396
  0
ARC
  5
89
330
85
100
AcDbEntity
  8
$DDT_AUDIT_GENERATED_(87)
  6
Continuous
 62
     7
100
AcDbCircle
 10
138.9351699611
 20
331.2658280612
 30
0.0
 40
5.999999999953664
100
AcDbArc
 50
198.3316788429
 51
207.1923065605
  0
ARC
  5
8A
330
85
100
AcDbEntity
  8
$DDT_AUDIT_GENERATED_(87)
  6
Continuous
 62
     7
100
AcDbCircle
 10
138.9351699612
 20
331.2658280612
 30
0.0
 40
5.99999999997805
100
AcDbArc
 50
332.8076934396
 51
341.6683211571
  0
ARC
  5
8B
330
85
100
AcDbEntity
  8
$DDT_AUDIT_GENERATED_(87)
  6
Continuous
 62
     7
100
AcDbCircle
 10
138.9351699611
 20
309.1658280612
 30
0.0
 40
21.00000000000005
100
AcDbArc
 50
105.736566058
 51
74.263433942
  0
ARC
  5
8D
330
85
100
AcDbEntity
  8
$DDT_AUDIT_GENERATED_(8C)
  6
Continuous
 62
     7
100
AcDbCircle
 10
138.9351699611
 20
331.4658280612
 30
0.0
 40
6.000000000000036
100
AcDbArc
 50
339.789202971
 51
0.0
  0
ARC
  5
8E
330
85
100
AcDbEntity
  8
$DDT_AUDIT_GENERATED_(8C)
  6
Continuous
 62
     7
100
AcDbCircle
 10
138.9351699611
 20
331.4658280612
 30
0.0
 40
6.000000000000036
100
AcDbArc
 50
0.0
 51
316.3031069185
  0
ARC
  5
90
330
85
100
AcDbEntity
  8
$DDT_AUDIT_GENERATED_(8F)
  6
Continuous
 62
     7
100
AcDbCircle
 10
138.9343802243
 20
309.166769233
 30
0.0
 40
26.25
100
AcDbArc
 50
100.7071545653
 51
0.0
  0
ARC
  5
91
330
85
100
AcDbEntity
  8
$DDT_AUDIT_GENERATED_(8F)
  6
Continuous
 62
     7
100
AcDbCircle
 10
138.9343802243
 20
309.166769233
 30
0.0
 40
26.25
100
AcDbArc
 50
0.0
 51
79.288787094
  0
ARC
  5
93
330
85
100
AcDbEntity
  8
$DDT_AUDIT_GENERATED_(92)
  6
Continuous
 62
     7
100
AcDbCircle
 10
138.9343802243
 20
309.166769233
 30
0.0
 40
26.55
100
AcDbArc
 50
0.0
 51
80.0145190818
  0
ARC
  5
94
330
85
100
AcDbEntity
  8
$DDT_AUDIT_GENERATED_(92)
  6
Continuous
 62
     7
100
AcDbCircle
 10
138.9343802243
 20
309.166769233
 30
0.0
 40
26.55
100
AcDbArc
 50
99.9814225775
 51
0.0
  0
ARC
  5
95
330
85
100
AcDbEntity
  8
$DDT_AUDIT_GENERATED_(8F)
  6
Continuous
 62
     7
100
AcDbCircle
 10
138.9343802243
 20
394.166769233
 30
0.0
 40
26.25
100
AcDbArc
 50
100.7109153329
 51
360.0
  0
ARC
  5
96
330
85
100
AcDbEntity
  8
$DDT_AUDIT_GENERATED_(8F)
  6
Continuous
 62
     7
100
AcDbCircle
 10
138.9343802243
 20
394.166769233
 30
0.0
 40
26.25
100
AcDbArc
 50
0.0
 51
79.2890846671
  0
ARC
  5
97
330
85
100
AcDbEntity
  8
$DDT_AUDIT_GENERATED_(87)
  6
Continuous
 62
     7
100
AcDbCircle
 10
138.9343802243
 20
416.266769233
 30
0.0
 40
5.999999999999997
100
AcDbArc
 50
207.1923065604
 51
332.8076934396
  0
ARC
  5
98
330
85
100
AcDbEntity
  8
$DDT_AUDIT_GENERATED_(87)
  6
Continuous
 62
     7
100
AcDbCircle
 10
138.9343802242
 20
416.266769233
 30
0.0
 40
5.999999999953629
100
AcDbArc
 50
198.3316788429
 51
207.1923065605
  0
ARC
  5
99
330
85
100
AcDbEntity
  8
$DDT_AUDIT_GENERATED_(87)
  6
Continuous
 62
     7
100
AcDbCircle
 10
138.9343802243
 20
416.266769233
 30
0.0
 40
5.999999999978717
100
AcDbArc
 50
332.8076934396
 51
341.6683211571
  0
ARC
  5
9A
330
85
100
AcDbEntity
  8
$DDT_AUDIT_GENERATED_(87)
  6
Continuous
 62
     7
100
AcDbCircle
 10
138.9343802243
 20
394.166769233
 30
0.0
 40
21.00000000000005
100
AcDbArc
 50
105.736566058
 51
74.263433942
  0
ARC
  5
9B
330
85
100
AcDbEntity
  8
$DDT_AUDIT_GENERATED_(8C)
  6
Continuous
 62
     7
100
AcDbCircle
 10
138.9343802243
 20
416.466769233
 30
0.0
 40
6.000000000000036
100
AcDbArc
 50
339.789202971
 51
0.0
  0
ARC
  5
9C
330
85
100
AcDbEntity
  8
$DDT_AUDIT_GENERATED_(8C)
  6
Continuous
 62
     7
100
AcDbCircle
 10
138.9343802243
 20
416.466769233
 30
0.0
 40
6.000000000000036
100
AcDbArc
 50
0.0
 51
316.3031069185
  0
ARC
  5
9E
330
85
100
AcDbEntity
  8
$DDT_AUDIT_GENERATED_(9D)
  6
Continuous
 62
     7
100
AcDbCircle
 10
138.9343802243
 20
309.166769233
 30
0.0
 40
26.75000000000002
100
AcDbArc
 50
0.0
 51
80.6008083245
  0
ARC
  5
9F
330
85
100
AcDbEntity
  8
$DDT_AUDIT_GENERATED_(9D)
  6
Continuous
 62
     7
100
AcDbCircle
 10
138.9343802243
 20
309.166769233
 30
0.0
 40
26.75000000000002
100
AcDbArc
 50
99.3910389691
 51
0.0
  0
ARC
  5
A0
330
85
100
AcDbEntity
  8
$DDT_AUDIT_GENERATED_(9D)
  6
Continuous
 62
     7
100
AcDbCircle
 10
138.9343802243
 20
394.166769233
 30
0.0
 40
26.75000000000017
100
AcDbArc
 50
0.0
 51
80.5984570728
  0
ARC
  5
A1
330
85
100
AcDbEntity
  8
$DDT_AUDIT_GENERATED_(9D)
  6
Continuous
 62
     7
100
AcDbCircle
 10
138.9343802243
 20
394.166769233
 30
0.0
 40
26.75000000000017
100
AcDbArc
 50
99.3994762104
 51
0.0
  0
ARC
  5
A2
330
85
100
AcDbEntity
  8
$DDT_AUDIT_GENERATED_(9D)
  6
Continuous
 62
     7
100
AcDbCircle
 10
138.9343802243
 20
347.166769233
 30
0.0
 40
101.3247943574443
100
AcDbArc
 50
272.7513095559
 51
267.2486904441
  0
ARC
  5
A3
330
85
100
AcDbEntity
  8
$DDT_AUDIT_GENERATED_(9D)
  6
Continuous
 62
     7
100
AcDbCircle
 10
144.2042096227
 20
199.4089583283
 30
0.0
 40
46.55438059714393
100
AcDbArc
 50
90.6250124099
 51
92.4088975589
  0
ARC
  5
A4
330
85
100
AcDbEntity
  8
$DDT_AUDIT_GENERATED_(9D)
  6
Continuous
 62
     7
100
AcDbCircle
 10
138.9343802243
 20
347.166769233
 30
0.0
 40
101.2987640654028
100
AcDbArc
 50
268.1257308891
 51
271.8742691109
  0
ARC
  5
A5
330
85
100
AcDbEntity
  8
$DDT_AUDIT_GENERATED_(9D)
  6
Continuous
 62
     7
100
AcDbCircle
 10
133.2811991704
 20
184.9330511528
 30
0.0
 40
61.03402449562069
100
AcDbArc
 50
87.8027173949
 51
89.1633726363
  0
ARC
  5
A6
330
85
100
AcDbEntity
  8
$DDT_AUDIT_GENERATED_(9D)
  6
Continuous
 62
     7
100
AcDbCircle
 10
145.5424032562
 20
347.5979508532
 30
0.0
 40
101.6541449167214
100
AcDbArc
 50
268.9594605287
 51
269.016783966
  0
ARC
  5
A7
330
85
100
AcDbEntity
  8
$DDT_AUDIT_GENERATED_(9D)
  6
Continuous
 62
     7
100
AcDbCircle
 10
132.3263571921
 20
347.5979508654
 30
0.0
 40
101.6541449289296
100
AcDbArc
 50
270.983216034
 51
271.0405394713
  0
ELLIPSE
  5
A8
330
85
100
AcDbEntity
  8
$DDT_AUDIT_GENERATED_(9D)
  6
Continuous
 62
     7
100
AcDbEllipse
 10
138.9343802243
 20
340.9354740773
 30
0.0
 11
1.354564311284706
 21
-4.177779823477668E-8
 31
0.0
210
0.0
220
0.0
230
1.0
 40
0.9999603776
 41
0.0
 42
6.283185307179586
  0
ELLIPSE
  5
A9
330
85
100
AcDbEntity
  8
$DDT_AUDIT_GENERATED_(9D)
  6
Continuous
 62
     7
100
AcDbEllipse
 10
138.9343802243
 20
425.6825608432
 30
0.0
 11
-1.374777145302468
 21
9.714451465470120E-14
 31
0.0
210
0.0
220
0.0
230
1.0
 40
0.9936895243
 41
0.0
 42
6.283185307179586
  0
ARC
  5
AA
330
85
100
AcDbEntity
  8
$DDT_AUDIT_GENERATED_(92)
  6
Continuous
 62
     7
100
AcDbCircle
 10
138.9343802243
 20
394.1667986329
 30
0.0
 40
26.25
100
AcDbArc
 50
175.4981587444
 51
179.9997190477
  0
ARC
  5
AB
330
85
100
AcDbEntity
  8
$DDT_AUDIT_GENERATED_(92)
  6
Continuous
 62
     7
100
AcDbCircle
 10
138.9343802243
 20
394.1667986329
 30
0.0
 40
26.55
100
AcDbArc
 50
0.0
 51
80.014589768
  0
ARC
  5
AC
330
85
100
AcDbEntity
  8
$DDT_AUDIT_GENERATED_(92)
  6
Continuous
 62
     7
100
AcDbCircle
 10
138.9343802243
 20
394.1667986329
 30
0.0
 40
26.55
100
AcDbArc
 50
99.985410232
 51
0.0
  0
ENDBLK
  5
AE
330
85
100
AcDbEntity
  8
0
100
AcDbBlockEnd
  0
BLOCK
  5
12F
330
AF
100
AcDbEntity
  8
0
100
AcDbBlockBegin
  2
SE1
 70
     0
 10
0.0
 20
0.0
 30
0.0
  3
SE1
  1

  0
LINE
  5
B3
330
AF
100
AcDbEntity
  8
$DDT_AUDIT_GENERATED_(B1)
  6
PHANTOM2
 62
     7
100
AcDbLine
 10
342.106693498
 20
325.9923075485
 30
0.0
 11
342.206693498
 21
325.9923075485
 31
0.0
  0
LINE
  5
B4
330
AF
100
AcDbEntity
  8
$DDT_AUDIT_GENERATED_(B1)
  6
PHANTOM2
 62
     7
100
AcDbLine
 10
342.106693498
 20
312.0409514505
 30
0.0
 11
342.206693498
 21
312.0409514505
 31
0.0
  0
LINE
  5
B5
330
AF
100
AcDbEntity
  8
$DDT_AUDIT_GENERATED_(B1)
  6
PHANTOM2
 62
     7
100
AcDbLine
 10
342.106693498
 20
295.215413135
 30
0.0
 11
342.206693498
 21
295.215413135
 31
0.0
  0
LINE
  5
B6
330
AF
100
AcDbEntity
  8
$DDT_AUDIT_GENERATED_(B1)
  6
PHANTOM2
 62
     7
100
AcDbLine
 10
342.206693498
 20
291.1685762243
 30
0.0
 11
342.106693498
 21
291.1685762243
 31
0.0
  0
LINE
  5
B7
330
AF
100
AcDbEntity
  8
$DDT_AUDIT_GENERATED_(B1)
  6
PHANTOM2
 62
     7
100
AcDbLine
 10
342.206693498
 20
300.3885489748
 30
0.0
 11
342.106693498
 21
300.3885489748
 31
0.0
  0
LINE
  5
B8
330
AF
100
AcDbEntity
  8
$DDT_AUDIT_GENERATED_(B1)
  6
PHANTOM2
 62
     7
100
AcDbLine
 10
342.206693498
 20
318.3867419835
 30
0.0
 11
342.106693498
 21
318.3867419835
 31
0.0
  0
SPLINE
  5
B9
330
AF
100
AcDbEntity
  8
$DDT_AUDIT_GENERATED_(B1)
  6
PHANTOM2
 62
     7
100
AcDbSpline
210
0.0
220
0.0
230
1.0
 70
     8
 71
     3
 72
    16
 73
    12
 74
     0
 42
0.0000000095568261
 43
0.0000000001
 40
0.0
 40
0.0
 40
0.0
 40
0.0
 40
0.4999999999999983
 40
0.4999999999999983
 40
0.7499999999999969
 40
0.7499999999999969
 40
0.8749999999999972
 40
0.8749999999999972
 40
0.9374999999999987
 40
0.9374999999999987
 40
1.0
 40
1.0
 40
1.0
 40
1.0
 10
342.6066934979506
 20
319.2607823881407
 30
0.0
 10
342.6066934979506
 20
319.101017513926
 30
0.0
 10
342.5930938448891
 20
318.9405825841761
 30
0.0
 10
342.5270705050295
 20
318.7045003418689
 30
0.0
 10
342.4978324157105
 20
318.6262299301328
 30
0.0
 10
342.4271090640769
 20
318.5154258543616
 30
0.0
 10
342.3989854105784
 20
318.4791899509559
 30
0.0
 10
342.3416722799052
 20
318.4317233195561
 30
0.0
 10
342.3198868254352
 20
318.4170445331626
 30
0.0
 10
342.2684824682808
 20
318.3944087610942
 30
0.0
 10
342.237719509796
 20
318.3867419834974
 30
0.0
 10
342.2066934979506
 20
318.3867419834976
 30
0.0
  0
SPLINE
  5
BA
330
AF
100
AcDbEntity
  8
$DDT_AUDIT_GENERATED_(B1)
  6
PHANTOM2
 62
     7
100
AcDbSpline
210
0.0
220
0.0
230
1.0
 70
     8
 71
     3
 72
    16
 73
    12
 74
     0
 42
0.0000000095567314
 43
0.0000000001
 40
0.0
 40
0.0
 40
0.0
 40
0.0
 40
0.0625000000000006
 40
0.0625000000000006
 40
0.1250000000000012
 40
0.1250000000000012
 40
0.2500000000000011
 40
0.2500000000000011
 40
0.5000000000000001
 40
0.5000000000000001
 40
1.0
 40
1.0
 40
1.0
 40
1.0
 10
342.2066934979506
 20
325.9923075484847
 30
0.0
 10
342.2381863984336
 20
325.9923075484847
 30
0.0
 10
342.2689296788549
 20
325.9845551225671
 30
0.0
 10
342.3210649460761
 20
325.9613714137377
 30
0.0
 10
342.3427923550541
 20
325.9465463052754
 30
0.0
 10
342.4004168362513
 20
325.8983640304345
 30
0.0
 10
342.4283184823554
 20
325.862044235436
 30
0.0
 10
342.4991921379229
 20
325.7500326548546
 30
0.0
 10
342.5277709332159
 20
325.6725240954661
 30
0.0
 10
342.5932524250765
 20
325.4369237032154
 30
0.0
 10
342.6066934979506
 20
325.2764523963231
 30
0.0
 10
342.6066934979506
 20
325.1182671438416
 30
0.0
  0
SPLINE
  5
BB
330
AF
100
AcDbEntity
  8
$DDT_AUDIT_GENERATED_(B1)
  6
PHANTOM2
 62
     7
100
AcDbSpline
210
0.0
220
0.0
230
1.0
 70
     8
 71
     3
 72
    16
 73
    12
 74
     0
 42
0.0000000144707713
 43
0.0000000001
 40
0.0
 40
0.0
 40
0.0
 40
0.0
 40
0.4999999999999977
 40
0.4999999999999977
 40
0.7499999999999971
 40
0.7499999999999971
 40
0.8749999999999972
 40
0.8749999999999972
 40
0.9374999999999987
 40
0.9374999999999987
 40
1.0
 40
1.0
 40
1.0
 40
1.0
 10
342.6066934979506
 20
291.6336434096997
 30
0.0
 10
342.6066934979506
 20
291.549065326856
 30
0.0
 10
342.5932795185133
 20
291.4638578080213
 30
0.0
 10
342.5273316657059
 20
291.3380318033075
 30
0.0
 10
342.4979893348817
 20
291.296190229541
 30
0.0
 10
342.4273297759485
 20
291.2372044890798
 30
0.0
 10
342.3992574054714
 20
291.2179189775831
 30
0.0
 10
342.3419033214295
 20
291.1925960843284
 30
0.0
 10
342.3201256614955
 20
291.1847790412478
 30
0.0
 10
342.2688779890437
 20
291.1727253820964
 30
0.0
 10
342.2383459919777
 20
291.1685762242636
 30
0.0
 10
342.2066934979506
 20
291.1685762242664
 30
0.0
  0
SPLINE
  5
BC
330
AF
100
AcDbEntity
  8
$DDT_AUDIT_GENERATED_(B1)
  6
PHANTOM2
 62
     7
100
AcDbSpline
210
0.0
220
0.0
230
1.0
 70
     8
 71
     3
 72
    16
 73
    12
 74
     0
 42
0.000000014471659
 43
0.0000000001
 40
0.0
 40
0.0
 40
0.0
 40
0.0
 40
0.0624999999999978
 40
0.0624999999999978
 40
0.1249999999999956
 40
0.1249999999999956
 40
0.2499999999999943
 40
0.2499999999999943
 40
0.4999999999999951
 40
0.4999999999999951
 40
1.0
 40
1.0
 40
1.0
 40
1.0
 10
342.2066934979506
 20
295.21541313495
 30
0.0
 10
342.238684924794
 20
295.21541313495
 30
0.0
 10
342.2690838233736
 20
295.2112530940021
 30
0.0
 10
342.3209491117432
 20
295.1989783570787
 30
0.0
 10
342.3428689411369
 20
295.1910318444107
 30
0.0
 10
342.4003465609088
 20
295.1654544313455
 30
0.0
 10
342.4283375386406
 20
295.1460656637709
 30
0.0
 10
342.4987206702616
 20
295.0869372178153
 30
0.0
 10
342.527970301135
 20
295.0449344681534
 30
0.0
 10
342.5931928687212
 20
294.9199006760184
 30
0.0
 10
342.6066934979506
 20
294.8353841489816
 30
0.0
 10
342.6066934979506
 20
294.7503459495165
 30
0.0
  0
SPLINE
  5
BD
330
AF
100
AcDbEntity
  8
$DDT_AUDIT_GENERATED_(B1)
  6
PHANTOM2
 62
     7
100
AcDbSpline
210
0.0
220
0.0
230
1.0
 70
     8
 71
     3
 72
    16
 73
    12
 74
     0
 42
0.0000000067654552
 43
0.0000000001
 40
0.0
 40
0.0
 40
0.0
 40
0.0
 40
0.5000000000000019
 40
0.5000000000000019
 40
0.7500000000000019
 40
0.7500000000000019
 40
0.875000000000001
 40
0.875000000000001
 40
0.9375000000000006
 40
0.9375000000000006
 40
1.0
 40
1.0
 40
1.0
 40
1.0
 10
342.6066934979506
 20
301.7276565648719
 30
0.0
 10
342.6066934979506
 20
301.4841236813709
 30
0.0
 10
342.5932795185133
 20
301.2387784091674
 30
0.0
 10
342.5273316657059
 20
300.8764768681887
 30
0.0
 10
342.4979893348817
 20
300.7559988582011
 30
0.0
 10
342.4273297759485
 20
300.5861561876541
 30
0.0
 10
342.3992574054714
 20
300.5306257704742
 30
0.0
 10
342.3419033214295
 20
300.4577114053631
 30
0.0
 10
342.3201256614955
 20
300.4352031268838
 30
0.0
 10
342.2688779890437
 20
300.4004959986163
 30
0.0
 10
342.2383459919777
 20
300.3885489747878
 30
0.0
 10
342.2066934979506
 20
300.3885489747954
 30
0.0
  0
SPLINE
  5
BE
330
AF
100
AcDbEntity
  8
$DDT_AUDIT_GENERATED_(B1)
  6
PHANTOM2
 62
     7
100
AcDbSpline
210
0.0
220
0.0
230
1.0
 70
     8
 71
     3
 72
    16
 73
    12
 74
     0
 42
0.0000000067653815
 43
0.0000000001
 40
0.0
 40
0.0
 40
0.0
 40
0.0
 40
0.0624999999999982
 40
0.0624999999999982
 40
0.1249999999999964
 40
0.1249999999999964
 40
0.2499999999999941
 40
0.2499999999999941
 40
0.4999999999999946
 40
0.4999999999999946
 40
1.0
 40
1.0
 40
1.0
 40
1.0
 10
342.2066934979506
 20
312.0409514504662
 30
0.0
 10
342.238684924794
 20
312.0409514504661
 30
0.0
 10
342.2690838233735
 20
312.0289730899565
 30
0.0
 10
342.3209491117431
 20
311.9936293936149
 30
0.0
 10
342.3428689411369
 20
311.9707483223168
 30
0.0
 10
342.4003465609088
 20
311.8971010966193
 30
0.0
 10
342.4283375386406
 20
311.8412733654126
 30
0.0
 10
342.4987206702616
 20
311.671019790771
 30
0.0
 10
342.527970301135
 20
311.5500776932893
 30
0.0
 10
342.5931928687212
 20
311.1900572375179
 30
0.0
 10
342.6066934979506
 20
310.9467015968993
 30
0.0
 10
342.6066934979506
 20
310.7018438603896
 30
0.0
  0
LINE
  5
BF
330
AF
100
AcDbEntity
  8
$DDT_AUDIT_GENERATED_(B1)
  6
PHANTOM2
 62
     7
100
AcDbLine
 10
342.206693498
 20
327.166769233
 30
0.0
 11
342.106693498
 21
327.166769233
 31
0.0
  0
LINE
  5
C0
330
AF
100
AcDbEntity
  8
$DDT_AUDIT_GENERATED_(B1)
  6
PHANTOM2
 62
     7
100
AcDbLine
 10
342.106693498
 20
291.166769233
 30
0.0
 11
342.206693498
 21
291.166769233
 31
0.0
  0
ARC
  5
C1
330
AF
100
AcDbEntity
  8
$DDT_AUDIT_GENERATED_(B1)
  6
PHANTOM2
 62
     7
100
AcDbCircle
 10
342.206693498
 20
326.766769233
 30
0.0
 40
0.3999999999999976
100
AcDbArc
 50
0.0
 51
90.0
  0
ARC
  5
C2
330
AF
100
AcDbEntity
  8
$DDT_AUDIT_GENERATED_(B1)
  6
PHANTOM2
 62
     7
100
AcDbCircle
 10
342.206693498
 20
291.566769233
 30
0.0
 40
0.3999999999999976
100
AcDbArc
 50
297.9237547531
 51
0.0
  0
LINE
  5
C3
330
AF
100
AcDbEntity
  8
$DDT_AUDIT_GENERATED_(87)
  6
Continuous
 62
     7
100
AcDbLine
 10
388.506693498
 20
329.4559938028
 30
0.0
 11
388.506693498
 21
329.5787239888
 31
0.0
  0
SPLINE
  5
C4
330
AF
100
AcDbEntity
  8
$DDT_AUDIT_GENERATED_(87)
  6
Continuous
 62
     7
100
AcDbSpline
210
0.0
220
0.0
230
1.0
 70
     8
 71
     3
 72
    10
 73
     6
 74
     0
 42
0.0000000254577037
 43
0.0000000001
 40
0.0
 40
0.0
 40
0.0
 40
0.0
 40
0.5
 40
0.5
 40
1.0
 40
1.0
 40
1.0
 40
1.0
 10
388.869903268094
 20
329.3787239888335
 30
0.0
 10
388.7832456577784
 20
329.3787239888335
 30
0.0
 10
388.6974569702786
 20
329.3852308143196
 30
0.0
 10
388.5574280316702
 20
329.412212651986
 30
0.0
 10
388.5066934979506
 20
329.4335038672485
 30
0.0
 10
388.5066934979506
 20
329.4559938028389
 30
0.0
  0
LINE
  5
C5
330
AF
100
AcDbEntity
  8
$DDT_AUDIT_GENERATED_(87)
  6
Continuous
 62
     7
100
AcDbLine
 10
396.4877348373
 20
325.2658283385
 30
0.0
 11
396.198949993
 21
328.5239570864
 31
0.0
  0
LINE
  5
C6
330
AF
100
AcDbEntity
  8
$DDT_AUDIT_GENERATED_(87)
  6
Continuous
 62
     7
100
AcDbLine
 10
395.202180967
 20
329.3787239888
 30
0.0
 11
388.8699032681
 21
329.3787239888
 31
0.0
  0
ARC
  5
C7
330
AF
100
AcDbEntity
  8
$DDT_AUDIT_GENERATED_(87)
  6
Continuous
 62
     7
100
AcDbCircle
 10
395.2212264313
 20
328.392369062
 30
0.0
 40
0.9865387834822765
100
AcDbArc
 50
7.665157579
 51
91.1061830847
  0
LINE
  5
C8
330
AF
100
AcDbEntity
  8
$DDT_AUDIT_GENERATED_(87)
  6
Continuous
 62
     7
100
AcDbLine
 10
343.006693498
 20
329.5787239888
 30
0.0
 11
343.006693498
 21
288.6658280612
 31
0.0
  0
LINE
  5
C9
330
AF
100
AcDbEntity
  8
$DDT_AUDIT_GENERATED_(87)
  6
Continuous
 62
     7
100
AcDbLine
 10
343.506693498
 20
288.1658280612
 30
0.0
 11
395.202180967
 21
288.1658280612
 31
0.0
  0
ARC
  5
CA
330
AF
100
AcDbEntity
  8
$DDT_AUDIT_GENERATED_(87)
  6
Continuous
 62
     7
100
AcDbCircle
 10
147.006693498
 20
309.1658280612
 30
0.0
 40
250.0
100
AcDbArc
 50
355.3929665517
 51
3.6972651403
  0
ARC
  5
CB
330
AF
100
AcDbEntity
  8
$DDT_AUDIT_GENERATED_(87)
  6
Continuous
 62
     7
100
AcDbCircle
 10
395.202180967
 20
289.1658280612
 30
0.0
 40
1.000000000000001
100
AcDbArc
 50
270.0
 51
355.3929665517
  0
ARC
  5
CC
330
AF
100
AcDbEntity
  8
$DDT_AUDIT_GENERATED_(87)
  6
Continuous
 62
     7
100
AcDbCircle
 10
343.506693498
 20
288.6658280612
 30
0.0
 40
0.5000000000000004
100
AcDbArc
 50
180.0
 51
270.0
  0
LINE
  5
CD
330
AF
100
AcDbEntity
  8
$DDT_AUDIT_GENERATED_(8C)
  6
Continuous
 62
     7
100
AcDbLine
 10
343.006693498
 20
329.5787239888
 30
0.0
 11
343.006693498
 21
330.5515746676
 31
0.0
  0
LINE
  5
CE
330
AF
100
AcDbEntity
  8
$DDT_AUDIT_GENERATED_(8C)
  6
Continuous
 62
     7
100
AcDbLine
 10
343.0101856498
 20
330.6103776293
 30
0.0
 11
343.006693498
 21
330.5515746676
 31
0.0
  0
ARC
  5
CF
330
AF
100
AcDbEntity
  8
$DDT_AUDIT_GENERATED_(8C)
  6
Continuous
 62
     7
100
AcDbCircle
 10
354.1327414293
 20
340.5100215138
 30
0.0
 40
9.344507024481917
100
AcDbArc
 50
291.8598874062
 51
339.2487834516
  0
LINE
  5
D0
330
AF
100
AcDbEntity
  8
$DDT_AUDIT_GENERATED_(8C)
  6
Continuous
 62
     7
100
AcDbLine
 10
343.006693498
 20
331.3658280612
 30
0.0
 11
343.006693498
 21
330.5515746676
 31
0.0
  0
ARC
  5
D1
330
AF
100
AcDbEntity
  8
$DDT_AUDIT_GENERATED_(8C)
  6
Continuous
 62
     7
100
AcDbCircle
 10
343.6884311691
 20
330.5040836774
 30
0.0
 40
0.686524135524442
100
AcDbArc
 50
105.3504025381
 51
171.0931120475
  0
LINE
  5
D2
330
AF
100
AcDbEntity
  8
$DDT_AUDIT_GENERATED_(8C)
  6
Continuous
 62
     7
100
AcDbLine
 10
388.8699032681
 20
329.5787239888
 30
0.0
 11
343.006693498
 21
329.5787239888
 31
0.0
  0
ARC
  5
D3
330
AF
100
AcDbEntity
  8
$DDT_AUDIT_GENERATED_(8C)
  6
Continuous
 62
     7
100
AcDbCircle
 10
427.2799276753
 20
359.9563179219
 30
0.0
 40
49.20846807503494
100
AcDbArc
 50
218.1239607816
 51
218.4161967209
  0
ARC
  5
D4
330
AF
100
AcDbEntity
  8
$DDT_AUDIT_GENERATED_(8C)
  6
Continuous
 62
     7
100
AcDbCircle
 10
377.006693498
 20
331.4658280612
 30
0.0
 40
20.00000000000001
100
AcDbArc
 50
345.889713767
 51
16.3826698541
  0
LINE
  5
D5
330
AF
100
AcDbEntity
  8
$DDT_AUDIT_GENERATED_(8C)
  6
Continuous
 62
     7
100
AcDbLine
 10
395.7149804318
 20
337.4658280612
 30
0.0
 11
363.3116042728
 21
337.4658280612
 31
0.0
  0
LINE
  5
D6
330
AF
100
AcDbEntity
  8
$DDT_AUDIT_GENERATED_(8C)
  6
Continuous
 62
     7
100
AcDbLine
 10
354.0267157697
 20
331.8658280612
 30
0.0
 11
343.506693498
 21
331.8658280612
 31
0.0
  0
ARC
  5
D7
330
AF
100
AcDbEntity
  8
$DDT_AUDIT_GENERATED_(8C)
  6
Continuous
 62
     7
100
AcDbCircle
 10
354.0267157697
 20
341.8658280612
 30
0.0
 40
9.999999999999961
100
AcDbArc
 50
270.0
 51
332.1111799404
  0
ARC
  5
D8
330
AF
100
AcDbEntity
  8
$DDT_AUDIT_GENERATED_(8C)
  6
Continuous
 62
     7
100
AcDbCircle
 10
395.7149804318
 20
336.9658280612
 30
0.0
 40
0.5000000000000026
100
AcDbArc
 50
16.3826698541
 51
90.0
  0
ARC
  5
D9
330
AF
100
AcDbEntity
  8
$DDT_AUDIT_GENERATED_(8C)
  6
Continuous
 62
     7
100
AcDbCircle
 10
363.2911605948
 20
336.997790695
 30
0.0
 40
0.4621189327181639
100
AcDbArc
 50
87.4656048238
 51
143.1827695471
  0
ARC
  5
DA
330
AF
100
AcDbEntity
  8
$DDT_AUDIT_GENERATED_(8C)
  6
Continuous
 62
     7
100
AcDbCircle
 10
343.506693498
 20
331.3658280612
 30
0.0
 40
0.5000000000000002
100
AcDbArc
 50
90.0
 51
180.0
  0
LINE
  5
DB
330
AF
100
AcDbEntity
  8
$DDT_AUDIT_GENERATED_(8F)
  6
Continuous
 62
     7
100
AcDbLine
 10
342.106693498
 20
333.416769233
 30
0.0
 11
342.106693498
 21
284.916769233
 31
0.0
  0
LINE
  5
DC
330
AF
100
AcDbEntity
  8
$DDT_AUDIT_GENERATED_(8F)
  6
Continuous
 62
     7
100
AcDbLine
 10
337.7063187521
 20
282.916769233
 30
0.0
 11
340.106693498
 21
282.916769233
 31
0.0
  0
ARC
  5
DD
330
AF
100
AcDbEntity
  8
$DDT_AUDIT_GENERATED_(8F)
  6
Continuous
 62
     7
100
AcDbCircle
 10
340.106693498
 20
333.416769233
 30
0.0
 40
2.000000000000002
100
AcDbArc
 50
0.0
 51
76.7571703332
  0
ARC
  5
DE
330
AF
100
AcDbEntity
  8
$DDT_AUDIT_GENERATED_(8F)
  6
Continuous
 62
     7
100
AcDbCircle
 10
340.106693498
 20
284.916769233
 30
0.0
 40
2.000000000000002
100
AcDbArc
 50
270.0
 51
0.0
  0
LINE
  5
E0
330
AF
100
AcDbEntity
  8
$DDT_AUDIT_GENERATED_(DF)
  6
Continuous
 62
     7
100
AcDbLine
 10
342.606693498
 20
290.866769233
 30
0.0
 11
342.606693498
 21
327.466769233
 31
0.0
  0
LINE
  5
E1
330
AF
100
AcDbEntity
  8
$DDT_AUDIT_GENERATED_(DF)
  6
Continuous
 62
     7
100
AcDbLine
 10
342.606693498
 20
290.866769233
 30
0.0
 11
343.006693498
 21
290.866769233
 31
0.0
  0
LINE
  5
E2
330
AF
100
AcDbEntity
  8
$DDT_AUDIT_GENERATED_(DF)
  6
Continuous
 62
     7
100
AcDbLine
 10
343.006693498
 20
327.466769233
 30
0.0
 11
342.606693498
 21
327.466769233
 31
0.0
  0
LINE
  5
E3
330
AF
100
AcDbEntity
  8
$DDT_AUDIT_GENERATED_(8F)
  6
Continuous
 62
     7
100
AcDbLine
 10
342.156693498
 20
369.916769233
 30
0.0
 11
342.156693498
 21
418.416769233
 31
0.0
  0
LINE
  5
E4
330
AF
100
AcDbEntity
  8
$DDT_AUDIT_GENERATED_(8F)
  6
Continuous
 62
     7
100
AcDbLine
 10
340.156693498
 20
420.416769233
 30
0.0
 11
336.8180529808
 21
420.416769233
 31
0.0
  0
ARC
  5
E5
330
AF
100
AcDbEntity
  8
$DDT_AUDIT_GENERATED_(8F)
  6
Continuous
 62
     7
100
AcDbCircle
 10
340.156693498
 20
418.416769233
 30
0.0
 40
2.000000000000002
100
AcDbArc
 50
0.0
 51
90.0
  0
ARC
  5
E6
330
AF
100
AcDbEntity
  8
$DDT_AUDIT_GENERATED_(8F)
  6
Continuous
 62
     7
100
AcDbCircle
 10
340.156693498
 20
369.916769233
 30
0.0
 40
2.000000000000002
100
AcDbArc
 50
275.710027432
 51
0.0
  0
LINE
  5
E7
330
AF
100
AcDbEntity
  8
$DDT_AUDIT_GENERATED_(87)
  6
Continuous
 62
     7
100
AcDbLine
 10
388.506693498
 20
414.4569349746
 30
0.0
 11
388.506693498
 21
414.5796651606
 31
0.0
  0
SPLINE
  5
E8
330
AF
100
AcDbEntity
  8
$DDT_AUDIT_GENERATED_(87)
  6
Continuous
 62
     7
100
AcDbSpline
210
0.0
220
0.0
230
1.0
 70
     8
 71
     3
 72
    10
 73
     6
 74
     0
 42
0.0000000254577037
 43
0.0000000001
 40
0.0
 40
0.0
 40
0.0
 40
0.0
 40
0.5
 40
0.5
 40
1.0
 40
1.0
 40
1.0
 40
1.0
 10
388.8699032680941
 20
414.3796651605704
 30
0.0
 10
388.7832456577785
 20
414.3796651605704
 30
0.0
 10
388.6974569702787
 20
414.3861719860566
 30
0.0
 10
388.5574280316702
 20
414.4131538237229
 30
0.0
 10
388.5066934979507
 20
414.4344450389854
 30
0.0
 10
388.5066934979507
 20
414.4569349745758
 30
0.0
  0
LINE
  5
E9
330
AF
100
AcDbEntity
  8
$DDT_AUDIT_GENERATED_(87)
  6
Continuous
 62
     7
100
AcDbLine
 10
396.4877348373
 20
410.2667695102
 30
0.0
 11
396.198949993
 21
413.5248982582
 31
0.0
  0
LINE
  5
EA
330
AF
100
AcDbEntity
  8
$DDT_AUDIT_GENERATED_(87)
  6
Continuous
 62
     7
100
AcDbLine
 10
395.202180967
 20
414.3796651606
 30
0.0
 11
388.8699032681
 21
414.3796651606
 31
0.0
  0
ARC
  5
EB
330
AF
100
AcDbEntity
  8
$DDT_AUDIT_GENERATED_(87)
  6
Continuous
 62
     7
100
AcDbCircle
 10
395.2212264313
 20
413.3933102338
 30
0.0
 40
0.9865387834822676
100
AcDbArc
 50
7.665157579
 51
91.1061830847
  0
LINE
  5
EC
330
AF
100
AcDbEntity
  8
$DDT_AUDIT_GENERATED_(87)
  6
Continuous
 62
     7
100
AcDbLine
 10
343.006693498
 20
373.666769233
 30
0.0
 11
343.006693498
 21
414.5796651606
 31
0.0
  0
LINE
  5
ED
330
AF
100
AcDbEntity
  8
$DDT_AUDIT_GENERATED_(87)
  6
Continuous
 62
     7
100
AcDbLine
 10
343.506693498
 20
373.166769233
 30
0.0
 11
395.202180967
 21
373.166769233
 31
0.0
  0
ARC
  5
EE
330
AF
100
AcDbEntity
  8
$DDT_AUDIT_GENERATED_(87)
  6
Continuous
 62
     7
100
AcDbCircle
 10
147.006693498
 20
394.166769233
 30
0.0
 40
250.0
100
AcDbArc
 50
355.3929665517
 51
3.6972651403
  0
ARC
  5
EF
330
AF
100
AcDbEntity
  8
$DDT_AUDIT_GENERATED_(87)
  6
Continuous
 62
     7
100
AcDbCircle
 10
395.202180967
 20
374.166769233
 30
0.0
 40
1.000000000000001
100
AcDbArc
 50
270.0
 51
355.3929665517
  0
ARC
  5
F0
330
AF
100
AcDbEntity
  8
$DDT_AUDIT_GENERATED_(87)
  6
Continuous
 62
     7
100
AcDbCircle
 10
343.506693498
 20
373.666769233
 30
0.0
 40
0.5000000000000004
100
AcDbArc
 50
180.0
 51
270.0
  0
LINE
  5
F1
330
AF
100
AcDbEntity
  8
$DDT_AUDIT_GENERATED_(8C)
  6
Continuous
 62
     7
100
AcDbLine
 10
343.006693498
 20
414.5796651606
 30
0.0
 11
343.006693498
 21
415.5525158393
 31
0.0
  0
LINE
  5
F2
330
AF
100
AcDbEntity
  8
$DDT_AUDIT_GENERATED_(8C)
  6
Continuous
 62
     7
100
AcDbLine
 10
343.0101856498
 20
415.611318801
 30
0.0
 11
343.006693498
 21
415.5525158393
 31
0.0
  0
ARC
  5
F3
330
AF
100
AcDbEntity
  8
$DDT_AUDIT_GENERATED_(8C)
  6
Continuous
 62
     7
100
AcDbCircle
 10
354.1327414293
 20
425.5109626855
 30
0.0
 40
9.344507024482025
100
AcDbArc
 50
291.8598874062
 51
339.2487834516
  0
LINE
  5
F4
330
AF
100
AcDbEntity
  8
$DDT_AUDIT_GENERATED_(8C)
  6
Continuous
 62
     7
100
AcDbLine
 10
343.006693498
 20
416.366769233
 30
0.0
 11
343.006693498
 21
415.5525158393
 31
0.0
  0
ARC
  5
F5
330
AF
100
AcDbEntity
  8
$DDT_AUDIT_GENERATED_(8C)
  6
Continuous
 62
     7
100
AcDbCircle
 10
343.6884311691
 20
415.5050248491
 30
0.0
 40
0.6865241355244216
100
AcDbArc
 50
105.3504025381
 51
171.0931120475
  0
LINE
  5
F6
330
AF
100
AcDbEntity
  8
$DDT_AUDIT_GENERATED_(8C)
  6
Continuous
 62
     7
100
AcDbLine
 10
388.8699032681
 20
414.5796651606
 30
0.0
 11
343.006693498
 21
414.5796651606
 31
0.0
  0
ARC
  5
F7
330
AF
100
AcDbEntity
  8
$DDT_AUDIT_GENERATED_(8C)
  6
Continuous
 62
     7
100
AcDbCircle
 10
427.2799276753
 20
444.9572590937
 30
0.0
 40
49.20846807504263
100
AcDbArc
 50
218.1239607816
 51
218.4161967209
  0
ARC
  5
F8
330
AF
100
AcDbEntity
  8
$DDT_AUDIT_GENERATED_(8C)
  6
Continuous
 62
     7
100
AcDbCircle
 10
377.006693498
 20
416.466769233
 30
0.0
 40
20.0
100
AcDbArc
 50
345.889713767
 51
16.3826698541
  0
LINE
  5
F9
330
AF
100
AcDbEntity
  8
$DDT_AUDIT_GENERATED_(8C)
  6
Continuous
 62
     7
100
AcDbLine
 10
395.7149804318
 20
422.466769233
 30
0.0
 11
363.3116042728
 21
422.466769233
 31
0.0
  0
LINE
  5
FA
330
AF
100
AcDbEntity
  8
$DDT_AUDIT_GENERATED_(8C)
  6
Continuous
 62
     7
100
AcDbLine
 10
354.0267157697
 20
416.866769233
 30
0.0
 11
343.506693498
 21
416.866769233
 31
0.0
  0
ARC
  5
FB
330
AF
100
AcDbEntity
  8
$DDT_AUDIT_GENERATED_(8C)
  6
Continuous
 62
     7
100
AcDbCircle
 10
354.0267157697
 20
426.866769233
 30
0.0
 40
9.999999999999961
100
AcDbArc
 50
270.0
 51
332.1111799404
  0
ARC
  5
FC
330
AF
100
AcDbEntity
  8
$DDT_AUDIT_GENERATED_(8C)
  6
Continuous
 62
     7
100
AcDbCircle
 10
395.7149804318
 20
421.966769233
 30
0.0
 40
0.4999999999999998
100
AcDbArc
 50
16.3826698541
 51
90.0
  0
ARC
  5
FD
330
AF
100
AcDbEntity
  8
$DDT_AUDIT_GENERATED_(8C)
  6
Continuous
 62
     7
100
AcDbCircle
 10
363.2911605948
 20
421.9987318668
 30
0.0
 40
0.462118932718292
100
AcDbArc
 50
87.4656048238
 51
143.1827695471
  0
ARC
  5
FE
330
AF
100
AcDbEntity
  8
$DDT_AUDIT_GENERATED_(8C)
  6
Continuous
 62
     7
100
AcDbCircle
 10
343.506693498
 20
416.366769233
 30
0.0
 40
0.5000000000000004
100
AcDbArc
 50
90.0
 51
180.0
  0
LINE
  5
100
330
AF
100
AcDbEntity
  8
$DDT_AUDIT_GENERATED_(FF)
  6
Continuous
 62
     7
100
AcDbLine
 10
342.156693498
 20
398.6391928697
 30
0.0
 11
343.006693498
 21
398.6391928697
 31
0.0
  0
LINE
  5
101
330
AF
100
AcDbEntity
  8
$DDT_AUDIT_GENERATED_(FF)
  6
Continuous
 62
     7
100
AcDbLine
 10
343.006693498
 20
403.1333903632
 30
0.0
 11
342.156693498
 21
403.1333903632
 31
0.0
  0
LINE
  5
102
330
AF
100
AcDbEntity
  8
$DDT_AUDIT_GENERATED_(FF)
  6
Continuous
 62
     7
100
AcDbLine
 10
342.156693498
 20
378.7901732018
 30
0.0
 11
343.006693498
 21
378.7901732018
 31
0.0
  0
LINE
  5
103
330
AF
100
AcDbEntity
  8
$DDT_AUDIT_GENERATED_(FF)
  6
Continuous
 62
     7
100
AcDbLine
 10
343.006693498
 20
376.9377986655
 30
0.0
 11
342.156693498
 21
376.9377986655
 31
0.0
  0
ARC
  5
104
330
AF
100
AcDbEntity
  8
$DDT_AUDIT_GENERATED_(FF)
  6
Continuous
 62
     7
100
AcDbCircle
 10
317.3075181699
 20
412.3563572156
 30
0.0
 40
27.946693982015
100
AcDbArc
 50
332.7702519003
 51
333.2278720486
  0
ARC
  5
105
330
AF
100
AcDbEntity
  8
$DDT_AUDIT_GENERATED_(FF)
  6
Continuous
 62
     7
100
AcDbCircle
 10
340.9924030967
 20
400.094833072
 30
0.0
 40
1.307580764837662
100
AcDbArc
 50
345.5233388937
 51
14.4766611063
  0
ARC
  5
106
330
AF
100
AcDbEntity
  8
$DDT_AUDIT_GENERATED_(FF)
  6
Continuous
 62
     7
100
AcDbCircle
 10
223.8255580248
 20
375.5515496058
 30
0.0
 40
121.0160275237406
100
AcDbArc
 50
11.859431073
 51
12.0906800901
  0
LINE
  5
107
330
AF
100
AcDbEntity
  8
$DDT_AUDIT_GENERATED_(FF)
  6
Continuous
 62
     7
100
AcDbLine
 10
342.156693498
 20
376.366769233
 30
0.0
 11
343.006693498
 21
376.366769233
 31
0.0
  0
LINE
  5
108
330
AF
100
AcDbEntity
  8
$DDT_AUDIT_GENERATED_(FF)
  6
Continuous
 62
     7
100
AcDbLine
 10
343.006693498
 20
411.966769233
 30
0.0
 11
342.156693498
 21
411.966769233
 31
0.0
  0
LINE
  5
109
330
AF
100
AcDbEntity
  8
$DDT_AUDIT_GENERATED_(9D)
  6
Continuous
 62
     7
100
AcDbLine
 10
332.47738412
 20
245.9582599468
 30
0.0
 11
332.47738412
 21
448.3752785192
 31
0.0
  0
SPLINE
  5
10A
330
AF
100
AcDbEntity
  8
$DDT_AUDIT_GENERATED_(9D)
  6
Continuous
 62
     7
100
AcDbSpline
210
0.0
220
0.0
230
1.0
 70
     8
 71
     3
 72
    14
 73
    10
 74
     0
 42
0.0000000001594846
 43
0.0000000001
 40
0.0
 40
0.0
 40
0.0
 40
0.0
 40
0.03125
 40
0.03125
 40
0.0625
 40
0.0625
 40
0.09375
 40
0.09375
 40
0.1246875258724244
 40
0.1246875258724244
 40
0.1246875258724244
 40
0.1246875258724244
 10
338.1045396855165
 20
290.223338291262
 30
0.0
 10
338.0365547395581
 20
288.9755920447484
 30
0.0
 10
337.9763765183066
 20
287.8713043605351
 30
0.0
 10
337.8710197081456
 20
285.9381634942628
 30
0.0
 10
337.8254768170355
 20
285.1026286123217
 30
0.0
 10
337.7526138440993
 20
283.7659595504844
 30
0.0
 10
337.7251919383313
 20
283.2629546613981
 30
0.0
 10
337.6884105613492
 20
282.58828109549
 30
0.0
 10
337.6790637821578
 20
282.4168449523716
 30
0.0
 10
337.6790597139989
 20
282.4167703990129
 30
0.0
  0
SPLINE
  5
10B
330
AF
100
AcDbEntity
  8
$DDT_AUDIT_GENERATED_(9D)
  6
Continuous
 62
     7
100
AcDbSpline
210
0.0
220
0.0
230
1.0
 70
     8
 71
     3
 72
    30
 73
    26
 74
     0
 42
0.0000000000819786
 43
0.0000000001
 40
0.6248579779735504
 40
0.6248579779735504
 40
0.6248579779735504
 40
0.6248579779735504
 40
0.625
 40
0.625
 40
0.6562500000000001
 40
0.6562500000000001
 40
0.6875000000000001
 40
0.6875000000000001
 40
0.7187500000000001
 40
0.7187500000000001
 40
0.7500000000000001
 40
0.7500000000000001
 40
0.7812500000000001
 40
0.7812500000000001
 40
0.8125000000000001
 40
0.8125000000000001
 40
0.8437500000000001
 40
0.8437500000000001
 40
0.8750000000000001
 40
0.8750000000000001
 40
0.9062500000000002
 40
0.9062500000000002
 40
0.9375000000000002
 40
0.9375000000000002
 40
1.0
 40
1.0
 40
1.0
 40
1.0
 10
340.5897729080369
 20
335.9167693347914
 30
0.0
 10
340.58977290442
 20
335.9167692683162
 30
0.0
 10
340.5897727110734
 20
335.9167657071986
 30
0.0
 10
340.5896880430805
 20
335.9152062350856
 30
0.0
 10
340.580124445567
 20
335.73905408505
 30
0.0
 10
340.5427495519164
 20
335.0506859921903
 30
0.0
 10
340.5151677187093
 20
334.5426964173872
 30
0.0
 10
340.4421644451702
 20
333.1982864104605
 30
0.0
 10
340.3964939071387
 20
332.3572814655928
 30
0.0
 10
340.2910163556529
 20
330.415207762614
 30
0.0
 10
340.2308496499232
 20
329.3075135118147
 30
0.0
 10
340.0951160487015
 20
326.8090050972887
 30
0.0
 10
340.0213634705276
 20
325.4515910258285
 30
0.0
 10
339.8638152529883
 20
322.5524450757174
 30
0.0
 10
339.7788944704378
 20
320.9900135186643
 30
0.0
 10
339.6025718073883
 20
317.74655556771
 30
0.0
 10
339.5119114994474
 20
316.0791645265479
 30
0.0
 10
339.3256600612023
 20
312.654399521655
 30
0.0
 10
339.2292851662833
 20
310.8826255752243
 30
0.0
 10
339.0394315697629
 20
307.3930456365957
 30
0.0
 10
338.9451144210535
 20
305.6598169700846
 30
0.0
 10
338.757723813316
 20
302.2169029515497
 30
0.0
 10
338.6656382940458
 20
300.5253756175895
 30
0.0
 10
338.4029060300862
 20
295.7001048250639
 30
0.0
 10
338.2405095774333
 20
292.7188307842893
 30
0.0
 10
338.1045396855165
 20
290.223338291262
 30
0.0
  0
SPLINE
  5
10C
330
AF
100
AcDbEntity
  8
$DDT_AUDIT_GENERATED_(9D)
  6
Continuous
 62
     7
100
AcDbSpline
210
0.0
220
0.0
230
1.0
 70
     8
 71
     3
 72
    16
 73
    12
 74
     0
 42
0.0000000001581584
 43
0.0000000001
 40
0.0
 40
0.0
 40
0.0
 40
0.0
 40
0.0312500000000001
 40
0.0312500000000001
 40
0.0625000000000001
 40
0.0625000000000001
 40
0.0937500000000002
 40
0.0937500000000002
 40
0.1250000000000003
 40
0.1250000000000003
 40
0.1256885469031273
 40
0.1256885469031273
 40
0.1256885469031273
 40
0.1256885469031273
 10
339.854407900084
 20
375.3458891955467
 30
0.0
 10
339.9388256806535
 20
374.0900862911573
 30
0.0
 10
340.0136362835821
 20
372.9769762657838
 30
0.0
 10
340.1448200172249
 20
371.0248533216661
 30
0.0
 10
340.2016506608013
 20
370.1790288224129
 30
0.0
 10
340.2928718805709
 20
368.821255153985
 30
0.0
 10
340.3273888779296
 20
368.3074277322627
 30
0.0
 10
340.3744185760044
 20
367.6073149053715
 30
0.0
 10
340.3866942443611
 20
367.4245581796429
 30
0.0
 10
340.3872118589329
 20
367.4168522530565
 30
0.0
 10
340.3872174901827
 20
367.4167684205507
 30
0.0
 10
340.3872175906667
 20
367.4167669284872
 30
0.0
  0
SPLINE
  5
10D
330
AF
100
AcDbEntity
  8
$DDT_AUDIT_GENERATED_(9D)
  6
Continuous
 62
     7
100
AcDbSpline
210
0.0
220
0.0
230
1.0
 70
     8
 71
     3
 72
    28
 73
    24
 74
     0
 42
0.000000000081915
 43
0.0000000001
 40
0.6258599098630037
 40
0.6258599098630037
 40
0.6258599098630037
 40
0.6258599098630037
 40
0.6562500000000004
 40
0.6562500000000004
 40
0.6875000000000004
 40
0.6875000000000004
 40
0.7187500000000003
 40
0.7187500000000003
 40
0.7500000000000003
 40
0.7500000000000003
 40
0.7812500000000003
 40
0.7812500000000003
 40
0.8125000000000002
 40
0.8125000000000002
 40
0.8437500000000002
 40
0.8437500000000002
 40
0.8750000000000001
 40
0.8750000000000001
 40
0.9062500000000001
 40
0.9062500000000001
 40
0.9375000000000001
 40
0.9375000000000001
 40
1.0
 40
1.0
 40
1.0
 40
1.0
 10
336.7842950548219
 20
420.9167611215835
 30
0.0
 10
336.7843075139168
 20
420.9165768013769
 30
0.0
 10
336.7954577564535
 20
420.7514371782652
 30
0.0
 10
336.8398889306518
 20
420.0933479774292
 30
0.0
 10
336.8735010495081
 20
419.5954922042413
 30
0.0
 10
336.9629486198932
 20
418.2704538750272
 30
0.0
 10
337.0190776729891
 20
417.438918582342
 30
0.0
 10
337.1489714013648
 20
415.514269821624
 30
0.0
 10
337.2231778188423
 20
414.4146143815473
 30
0.0
 10
337.3907610152867
 20
411.9307219557783
 30
0.0
 10
337.481824730587
 20
410.5807651060936
 30
0.0
 10
337.6765312609867
 20
407.693727109577
 30
0.0
 10
337.7815480353822
 20
406.1362670776615
 30
0.0
 10
337.9995408819397
 20
402.9025038461095
 30
0.0
 10
338.1116662794632
 20
401.2388272396352
 30
0.0
 10
338.3420770252409
 20
397.819204828634
 30
0.0
 10
338.46130223024
 20
396.0492956919871
 30
0.0
 10
338.6961923563625
 20
392.5614343649951
 30
0.0
 10
338.812915536465
 20
390.827782647385
 30
0.0
 10
339.0448941100464
 20
387.3814264119093
 30
0.0
 10
339.1588757965
 20
385.6876364496209
 30
0.0
 10
339.4842688084308
 20
380.8511390036458
 30
0.0
 10
339.6855723389449
 20
377.8574950043255
 30
0.0
 10
339.854407900084
 20
375.3458891955467
 30
0.0
  0
LINE
  5
10E
330
AF
100
AcDbEntity
  8
$DDT_AUDIT_GENERATED_(9D)
  6
Continuous
 62
     7
100
AcDbLine
 10
325.306693498
 20
447.9916397429
 30
0.0
 11
325.306693498
 21
246.4659523875
 31
0.0
  0
ARC
  5
10F
330
AF
100
AcDbEntity
  8
$DDT_AUDIT_GENERATED_(9D)
  6
Continuous
 62
     7
100
AcDbCircle
 10
325.8148711911
 20
246.4669513955
 30
0.0
 40
0.5081786751502104
100
AcDbArc
 50
180.1126355428
 51
270.0618434643
  0
LINE
  5
110
330
AF
100
AcDbEntity
  8
$DDT_AUDIT_GENERATED_(9D)
  6
Continuous
 62
     7
100
AcDbLine
 10
327.306693498
 20
245.9221995228
 30
0.0
 11
327.306693498
 21
245.8680051676
 31
0.0
  0
ARC
  5
111
330
AF
100
AcDbEntity
  8
$DDT_AUDIT_GENERATED_(9D)
  6
Continuous
 62
     7
100
AcDbCircle
 10
326.5449087937
 20
239.9753858992
 30
0.0
 40
5.995407259710157
100
AcDbArc
 50
82.700186649
 51
93.3465898339
  0
ARC
  5
112
330
AF
100
AcDbEntity
  8
$DDT_AUDIT_GENERATED_(9D)
  6
Continuous
 62
     7
100
AcDbCircle
 10
319.3074076721
 20
1661.1884985184
 30
0.0
 40
1415.24468914964
100
AcDbArc
 50
270.2634759484
 51
270.2788401659
  0
LINE
  5
113
330
AF
100
AcDbEntity
  8
$DDT_AUDIT_GENERATED_(9D)
  6
Continuous
 62
     7
100
AcDbLine
 10
340.6390761414
 20
339.5809634371
 30
0.0
 11
340.6631924437
 21
342.2899847175
 31
0.0
  0
LINE
  5
114
330
AF
100
AcDbEntity
  8
$DDT_AUDIT_GENERATED_(9D)
  6
Continuous
 62
     7
100
AcDbLine
 10
336.1073033291
 20
427.0486624908
 30
0.0
 11
336.4157088263
 21
424.3164591956
 31
0.0
  0
ARC
  5
115
330
AF
100
AcDbEntity
  8
$DDT_AUDIT_GENERATED_(9D)
  6
Continuous
 62
     7
100
AcDbCircle
 10
332.4599317061
 20
246.9581076418
 30
0.0
 40
0.9999999999998411
100
AcDbArc
 50
271.0000004285
 51
351.7576762744
  0
ARC
  5
116
330
AF
100
AcDbEntity
  8
$DDT_AUDIT_GENERATED_(9D)
  6
Continuous
 62
     7
100
AcDbCircle
 10
332.4599317061
 20
447.3754308241
 30
0.0
 40
0.9999999999968736
100
AcDbArc
 50
8.2423237256
 51
88.9999995715
  0
ARC
  5
117
330
AF
100
AcDbEntity
  8
$DDT_AUDIT_GENERATED_(9D)
  6
Continuous
 62
     7
100
AcDbCircle
 10
332.4599317061
 20
246.9581076418
 30
0.0
 40
0.9999999999998411
100
AcDbArc
 50
271.0000004285
 51
351.7576762744
  0
ARC
  5
118
330
AF
100
AcDbEntity
  8
$DDT_AUDIT_GENERATED_(9D)
  6
Continuous
 62
     7
100
AcDbCircle
 10
332.4599317061
 20
447.3754308241
 30
0.0
 40
0.9999999999968736
100
AcDbArc
 50
8.2423237256
 51
88.9999995715
  0
ARC
  5
119
330
AF
100
AcDbEntity
  8
$DDT_AUDIT_GENERATED_(9D)
  6
Continuous
 62
     7
100
AcDbCircle
 10
325.806693498
 20
447.9916397429
 30
0.0
 40
0.4999999999999902
100
AcDbArc
 50
88.9999995715
 51
180.0
  0
ARC
  5
11A
330
AF
100
AcDbEntity
  8
$DDT_AUDIT_GENERATED_(9D)
  6
Continuous
 62
     7
100
AcDbCircle
 10
325.806693498
 20
447.9916397429
 30
0.0
 40
0.4999999999999902
100
AcDbArc
 50
88.9999995715
 51
180.0
  0
LINE
  5
11B
330
AF
100
AcDbEntity
  8
$DDT_AUDIT_GENERATED_(9D)
  6
Continuous
 62
     7
100
AcDbLine
 10
327.306693498
 20
245.8680051676
 30
0.0
 11
332.47738412
 21
245.9582599468
 31
0.0
  0
LINE
  5
11C
330
AF
100
AcDbEntity
  8
$DDT_AUDIT_GENERATED_(9D)
  6
Continuous
 62
     7
100
AcDbLine
 10
332.47738412
 20
448.3752785192
 30
0.0
 11
325.8154197049
 21
448.4915635904
 31
0.0
  0
LINE
  5
11D
330
AF
100
AcDbEntity
  8
$DDT_AUDIT_GENERATED_(9D)
  6
Continuous
 62
     7
100
AcDbLine
 10
327.306693498
 20
245.8680051676
 30
0.0
 11
332.47738412
 21
245.9582599468
 31
0.0
  0
LINE
  5
11E
330
AF
100
AcDbEntity
  8
$DDT_AUDIT_GENERATED_(9D)
  6
Continuous
 62
     7
100
AcDbLine
 10
332.47738412
 20
448.3752785192
 30
0.0
 11
325.8154197049
 21
448.4915635904
 31
0.0
  0
ARC
  5
11F
330
AF
100
AcDbEntity
  8
$DDT_AUDIT_GENERATED_(9D)
  6
Continuous
 62
     7
100
AcDbCircle
 10
-359.3198194735
 20
347.166769233
 30
0.0
 40
700.0
100
AcDbArc
 50
359.6008265275
 51
0.0
  0
ARC
  5
120
330
AF
100
AcDbEntity
  8
$DDT_AUDIT_GENERATED_(9D)
  6
Continuous
 62
     7
100
AcDbCircle
 10
-359.3198194735
 20
347.166769233
 30
0.0
 40
700.0
100
AcDbArc
 50
359.077172331
 51
359.3790811945
  0
ARC
  5
121
330
AF
100
AcDbEntity
  8
$DDT_AUDIT_GENERATED_(9D)
  6
Continuous
 62
     7
100
AcDbCircle
 10
-359.3198194735
 20
347.166769233
 30
0.0
 40
700.0
100
AcDbArc
 50
351.7576762756
 51
354.6942097743
  0
ARC
  5
122
330
AF
100
AcDbEntity
  8
$DDT_AUDIT_GENERATED_(9D)
  6
Continuous
 62
     7
100
AcDbCircle
 10
-359.3198194735
 20
347.166769233
 30
0.0
 40
699.9999999999999
100
AcDbArc
 50
6.5526970375
 51
8.2423237244
  0
ARC
  5
123
330
AF
100
AcDbEntity
  8
$DDT_AUDIT_GENERATED_(9D)
  6
Continuous
 62
     7
100
AcDbCircle
 10
-359.3198194735
 20
347.166769233
 30
0.0
 40
699.9999999999999
100
AcDbArc
 50
6.0459163911
 51
6.3276428123
  0
ARC
  5
124
330
AF
100
AcDbEntity
  8
$DDT_AUDIT_GENERATED_(9D)
  6
Continuous
 62
     7
100
AcDbCircle
 10
-359.3198194735
 20
347.166769233
 30
0.0
 40
699.9999999999999
100
AcDbArc
 50
0.0
 51
1.6595338088
  0
ARC
  5
125
330
AF
100
AcDbEntity
  8
$DDT_AUDIT_GENERATED_(9D)
  6
Continuous
 62
     7
100
AcDbCircle
 10
-359.3198194735
 20
347.166769233
 30
0.0
 40
700.0
100
AcDbArc
 50
359.6008265275
 51
0.0
  0
ARC
  5
126
330
AF
100
AcDbEntity
  8
$DDT_AUDIT_GENERATED_(9D)
  6
Continuous
 62
     7
100
AcDbCircle
 10
-359.3198194735
 20
347.166769233
 30
0.0
 40
699.9999999999999
100
AcDbArc
 50
359.0771943369
 51
359.3790811945
  0
ARC
  5
127
330
AF
100
AcDbEntity
  8
$DDT_AUDIT_GENERATED_(9D)
  6
Continuous
 62
     7
100
AcDbCircle
 10
-359.3198194735
 20
347.166769233
 30
0.0
 40
700.0
100
AcDbArc
 50
351.7576762756
 51
354.6942194624
  0
ARC
  5
128
330
AF
100
AcDbEntity
  8
$DDT_AUDIT_GENERATED_(9D)
  6
Continuous
 62
     7
100
AcDbCircle
 10
-359.3198194735
 20
347.166769233
 30
0.0
 40
699.9999999999999
100
AcDbArc
 50
6.5526970375
 51
8.2423237244
  0
ARC
  5
129
330
AF
100
AcDbEntity
  8
$DDT_AUDIT_GENERATED_(9D)
  6
Continuous
 62
     7
100
AcDbCircle
 10
-359.3198194735
 20
347.166769233
 30
0.0
 40
699.9999999999999
100
AcDbArc
 50
6.0459317934
 51
6.3276428123
  0
ARC
  5
12A
330
AF
100
AcDbEntity
  8
$DDT_AUDIT_GENERATED_(9D)
  6
Continuous
 62
     7
100
AcDbCircle
 10
-359.3198194735
 20
347.166769233
 30
0.0
 40
699.9999999999999
100
AcDbArc
 50
0.0
 51
1.659539189
  0
LINE
  5
12C
330
AF
100
AcDbEntity
  8
DV2_Default
  6
Continuous
 62
     7
100
AcDbLine
 10
325.306693498
 20
288.1658280612
 30
0.0
 11
325.306693498
 21
329.5787239888
 31
0.0
  0
LINE
  5
12D
330
AF
100
AcDbEntity
  8
DV2_Default
  6
Continuous
 62
     7
100
AcDbLine
 10
348.5389701181
 20
373.166769233
 30
0.0
 11
325.306693498
 21
373.166769233
 31
0.0
  0
LINE
  5
12E
330
AF
100
AcDbEntity
  8
DV2_Default
  6
Continuous
 62
     7
100
AcDbLine
 10
325.306693498
 20
373.166769233
 30
0.0
 11
325.306693498
 21
414.5796651606
 31
0.0
  0
ENDBLK
  5
130
330
AF
100
AcDbEntity
  8
0
100
AcDbBlockEnd
  0
BLOCK
  5
17D
330
131
100
AcDbEntity
  8
0
100
AcDbBlockBegin
  2
SE2
 70
     0
 10
0.0
 20
0.0
 30
0.0
  3
SE2
  1

  0
LINE
  5
133
330
131
100
AcDbEntity
  8
$DDT_AUDIT_GENERATED_(87)
  6
Continuous
 62
     7
100
AcDbLine
 10
159.4343802243
 20
160.35
 30
0.0
 11
159.4351699611
 21
160.35
 31
0.0
  0
LINE
  5
134
330
131
100
AcDbEntity
  8
$DDT_AUDIT_GENERATED_(87)
  6
Continuous
 62
     7
100
AcDbLine
 10
159.9351699611
 20
108.1545125309
 30
0.0
 11
159.9351699611
 21
159.85
 31
0.0
  0
ARC
  5
135
330
131
100
AcDbEntity
  8
$DDT_AUDIT_GENERATED_(87)
  6
Continuous
 62
     7
100
AcDbCircle
 10
158.9351699611
 20
108.1545125309
 30
0.0
 40
1.000000000000023
100
AcDbArc
 50
274.6070334483
 51
0.0
  0
ARC
  5
136
330
131
100
AcDbEntity
  8
$DDT_AUDIT_GENERATED_(87)
  6
Continuous
 62
     7
100
AcDbCircle
 10
159.4351699611
 20
159.85
 30
0.0
 40
0.5000000000000004
100
AcDbArc
 50
0.0
 51
90.0
  0
LINE
  5
137
330
131
100
AcDbEntity
  8
$DDT_AUDIT_GENERATED_(DF)
  6
Continuous
 62
     7
100
AcDbLine
 10
157.2343802243
 20
160.75
 30
0.0
 11
156.7343802243
 21
160.75
 31
0.0
  0
LINE
  5
138
330
131
100
AcDbEntity
  8
$DDT_AUDIT_GENERATED_(DF)
  6
Continuous
 62
     7
100
AcDbLine
 10
121.1343802243
 20
160.75
 30
0.0
 11
120.6343802243
 21
160.75
 31
0.0
  0
LINE
  5
139
330
131
100
AcDbEntity
  8
$DDT_AUDIT_GENERATED_(DF)
  6
Continuous
 62
     7
100
AcDbLine
 10
120.6343802243
 20
160.75
 30
0.0
 11
120.6343802243
 21
160.35
 31
0.0
  0
LINE
  5
13A
330
131
100
AcDbEntity
  8
$DDT_AUDIT_GENERATED_(DF)
  6
Continuous
 62
     7
100
AcDbLine
 10
157.2343802243
 20
160.35
 30
0.0
 11
157.2343802243
 21
160.75
 31
0.0
  0
LINE
  5
13B
330
131
100
AcDbEntity
  8
$DDT_AUDIT_GENERATED_(8F)
  6
Continuous
 62
     7
100
AcDbLine
 10
165.1843802243
 20
163.2
 30
0.0
 11
112.6843802243
 21
163.2
 31
0.0
  0
LINE
  5
13C
330
131
100
AcDbEntity
  8
$DDT_AUDIT_GENERATED_(8F)
  6
Continuous
 62
     7
100
AcDbLine
 10
114.6843802243
 20
161.2
 30
0.0
 11
163.1843802243
 21
161.2
 31
0.0
  0
LINE
  5
13D
330
131
100
AcDbEntity
  8
$DDT_AUDIT_GENERATED_(8F)
  6
Continuous
 62
     7
100
AcDbLine
 10
112.6843802243
 20
165.1021916259
 30
0.0
 11
112.6843802243
 21
163.2
 31
0.0
  0
LINE
  5
13E
330
131
100
AcDbEntity
  8
$DDT_AUDIT_GENERATED_(8F)
  6
Continuous
 62
     7
100
AcDbLine
 10
165.1843802243
 20
163.2
 30
0.0
 11
165.1843802243
 21
165.1011938681
 31
0.0
  0
ARC
  5
13F
330
131
100
AcDbEntity
  8
$DDT_AUDIT_GENERATED_(8F)
  6
Continuous
 62
     7
100
AcDbCircle
 10
163.1843802243
 20
163.2
 30
0.0
 40
2.000000000000002
100
AcDbArc
 50
270.0
 51
0.0
  0
ARC
  5
140
330
131
100
AcDbEntity
  8
$DDT_AUDIT_GENERATED_(8F)
  6
Continuous
 62
     7
100
AcDbCircle
 10
114.6843802243
 20
163.2
 30
0.0
 40
2.000000000000002
100
AcDbArc
 50
180.0
 51
270.0
  0
LINE
  5
141
330
131
100
AcDbEntity
  8
$DDT_AUDIT_GENERATED_(87)
  6
Continuous
 62
     7
100
AcDbLine
 10
159.4343802243
 20
160.35
 30
0.0
 11
144.8643162047
 21
160.35
 31
0.0
  0
LINE
  5
142
330
131
100
AcDbEntity
  8
$DDT_AUDIT_GENERATED_(87)
  6
Continuous
 62
     7
100
AcDbLine
 10
133.0044442438
 20
160.35
 30
0.0
 11
118.4343802243
 21
160.35
 31
0.0
  0
LINE
  5
143
330
131
100
AcDbEntity
  8
$DDT_AUDIT_GENERATED_(87)
  6
Continuous
 62
     7
100
AcDbLine
 10
159.9343802243
 20
108.1545125309
 30
0.0
 11
159.9343802243
 21
159.85
 31
0.0
  0
LINE
  5
144
330
131
100
AcDbEntity
  8
$DDT_AUDIT_GENERATED_(87)
  6
Continuous
 62
     7
100
AcDbLine
 10
117.9343802243
 20
159.85
 30
0.0
 11
117.9343802243
 21
108.1545125309
 31
0.0
  0
ARC
  5
145
330
131
100
AcDbEntity
  8
$DDT_AUDIT_GENERATED_(87)
  6
Continuous
 62
     7
100
AcDbCircle
 10
138.9343802243
 20
356.35
 30
0.0
 40
250.0
100
AcDbArc
 50
265.3929665517
 51
274.6070334483
  0
ARC
  5
146
330
131
100
AcDbEntity
  8
$DDT_AUDIT_GENERATED_(87)
  6
Continuous
 62
     7
100
AcDbCircle
 10
118.9343802243
 20
108.1545125309
 30
0.0
 40
1.000000000000001
100
AcDbArc
 50
180.0
 51
265.3929665517
  0
ARC
  5
147
330
131
100
AcDbEntity
  8
$DDT_AUDIT_GENERATED_(87)
  6
Continuous
 62
     7
100
AcDbCircle
 10
158.9343802243
 20
108.1545125309
 30
0.0
 40
1.000000000000023
100
AcDbArc
 50
274.6070334483
 51
0.0
  0
ARC
  5
148
330
131
100
AcDbEntity
  8
$DDT_AUDIT_GENERATED_(87)
  6
Continuous
 62
     7
100
AcDbCircle
 10
118.4343802243
 20
159.85
 30
0.0
 40
0.5000000000000004
100
AcDbArc
 50
90.0
 51
180.0
  0
ARC
  5
149
330
131
100
AcDbEntity
  8
$DDT_AUDIT_GENERATED_(87)
  6
Continuous
 62
     7
100
AcDbCircle
 10
159.4343802243
 20
159.85
 30
0.0
 40
0.5000000000000004
100
AcDbArc
 50
0.0
 51
90.0
  0
LINE
  5
14A
330
131
100
AcDbEntity
  8
$DDT_AUDIT_GENERATED_(8C)
  6
Continuous
 62
     7
100
AcDbLine
 10
144.5019151737
 20
149.3299777283
 30
0.0
 11
133.3668452749
 21
149.3299777283
 31
0.0
  0
LINE
  5
14B
330
131
100
AcDbEntity
  8
$DDT_AUDIT_GENERATED_(8C)
  6
Continuous
 62
     7
100
AcDbLine
 10
133.3668452749
 20
159.85
 30
0.0
 11
133.3668452749
 21
149.3299777283
 31
0.0
  0
LINE
  5
14C
330
131
100
AcDbEntity
  8
$DDT_AUDIT_GENERATED_(8C)
  6
Continuous
 62
     7
100
AcDbLine
 10
144.5019151737
 20
149.3299777283
 30
0.0
 11
144.5019151737
 21
159.85
 31
0.0
  0
LINE
  5
14D
330
131
100
AcDbEntity
  8
$DDT_AUDIT_GENERATED_(8C)
  6
Continuous
 62
     7
100
AcDbLine
 10
132.9956762783
 20
160.3465078482
 30
0.0
 11
133.0044442438
 21
160.35
 31
0.0
  0
SPLINE
  5
14E
330
131
100
AcDbEntity
  8
$DDT_AUDIT_GENERATED_(8C)
  6
Continuous
 62
     7
100
AcDbSpline
210
0.0
220
0.0
230
1.0
 70
     8
 71
     3
 72
    10
 73
     6
 74
     0
 42
0.0000000003466859
 43
0.0000000001
 40
0.0
 40
0.0
 40
0.0
 40
0.0
 40
0.1250000000000002
 40
0.1250000000000002
 40
0.2023096803167434
 40
0.2023096803167434
 40
0.2023096803167434
 40
0.2023096803167434
 10
144.8730841703097
 20
149.3299777282581
 30
0.0
 10
144.8730841703097
 20
148.0252816767503
 30
0.0
 10
144.9270063760173
 20
146.7370206876469
 30
0.0
 10
144.9380723332183
 20
144.8216205932161
 30
0.0
 10
144.9204389606832
 20
144.1282407748993
 30
0.0
 10
144.8255269031427
 20
143.5029928436004
 30
0.0
  0
SPLINE
  5
14F
330
131
100
AcDbEntity
  8
$DDT_AUDIT_GENERATED_(8C)
  6
Continuous
 62
     7
100
AcDbSpline
210
0.0
220
0.0
230
1.0
 70
     8
 71
     3
 72
    10
 73
     6
 74
     0
 42
0.0000000003429094
 43
0.0000000001
 40
0.8065863136256749
 40
0.8065863136256749
 40
0.8065863136256749
 40
0.8065863136256749
 40
0.8750000000000002
 40
0.8750000000000002
 40
1.0
 40
1.0
 40
1.0
 40
1.0
 10
133.0172240678322
 20
143.6953805840765
 30
0.0
 10
132.946030016314
 20
144.265174682724
 30
0.0
 10
132.9313748400731
 20
144.8871547851174
 30
0.0
 10
132.9411396803663
 20
146.7263052463704
 30
0.0
 10
132.9956762782607
 20
148.02275712325
 30
0.0
 10
132.9956762782607
 20
149.3299777282581
 30
0.0
  0
LINE
  5
150
330
131
100
AcDbEntity
  8
$DDT_AUDIT_GENERATED_(8C)
  6
Continuous
 62
     7
100
AcDbLine
 10
144.8643162047
 20
160.35
 30
0.0
 11
144.8730841703
 21
160.3465078482
 31
0.0
  0
SPLINE
  5
151
330
131
100
AcDbEntity
  8
$DDT_AUDIT_GENERATED_(8C)
  6
Continuous
 62
     7
100
AcDbSpline
210
0.0
220
0.0
230
1.0
 70
     8
 71
     3
 72
    22
 73
    18
 74
     0
 42
0.0000000003908486
 43
0.0000000001
 40
0.0
 40
0.0
 40
0.0
 40
0.0
 40
0.125
 40
0.125
 40
0.25
 40
0.25
 40
0.375
 40
0.375
 40
0.5
 40
0.5
 40
0.625
 40
0.625
 40
0.75
 40
0.75
 40
0.875
 40
0.875
 40
1.0
 40
1.0
 40
1.0
 40
1.0
 10
133.3668452748873
 20
149.3299777282581
 30
0.0
 10
133.3668452748873
 20
148.1186975764451
 30
0.0
 10
133.3230346732799
 20
146.9178886144354
 30
0.0
 10
133.3206826012113
 20
144.6816799196378
 30
0.0
 10
133.368542990759
 20
143.6406232880646
 30
0.0
 10
134.0134115247093
 20
141.9695609067356
 30
0.0
 10
134.650658378986
 20
141.3619864192354
 30
0.0
 10
136.509015625654
 20
140.6360931028563
 30
0.0
 10
137.722878639083
 20
140.4864464761279
 30
0.0
 10
140.1274181664245
 20
140.4848495628938
 30
0.0
 10
141.3409556445392
 20
140.6322330472529
 30
0.0
 10
143.2070413078629
 20
141.3542421026528
 30
0.0
 10
143.8511732053952
 20
141.9634946469337
 30
0.0
 10
144.4994116865635
 20
143.6338173656262
 30
0.0
 10
144.5481258641703
 20
144.6800492494857
 30
0.0
 10
144.5456748012346
 20
146.9222766740723
 30
0.0
 10
144.5019151736831
 20
148.1179843759564
 30
0.0
 10
144.5019151736831
 20
149.3299777282581
 30
0.0
  0
LINE
  5
152
330
131
100
AcDbEntity
  8
$DDT_AUDIT_GENERATED_(8C)
  6
Continuous
 62
     7
100
AcDbLine
 10
133.0044442438
 20
160.35
 30
0.0
 11
144.8643162047
 21
160.35
 31
0.0
  0
SPLINE
  5
153
330
131
100
AcDbEntity
  8
$DDT_AUDIT_GENERATED_(8C)
  6
Continuous
 62
     7
100
AcDbSpline
210
0.0
220
0.0
230
1.0
 70
     8
 71
     3
 72
    12
 73
     8
 74
     0
 42
0.0000000156790271
 43
0.0000000001
 40
0.0
 40
0.0
 40
0.0
 40
0.0
 40
0.2499999999999996
 40
0.2499999999999996
 40
0.4999999999999991
 40
0.4999999999999991
 40
1.0
 40
1.0
 40
1.0
 40
1.0
 10
132.9956762782607
 20
160.3465078481529
 30
0.0
 10
132.9849052275912
 20
160.3376071858177
 30
0.0
 10
132.9918997971458
 20
160.3122063329197
 30
0.0
 10
133.0293054478232
 20
160.2435533012163
 30
0.0
 10
133.0593510383522
 20
160.2006179937443
 30
0.0
 10
133.1675379293111
 20
160.0617714999569
 30
0.0
 10
133.2639342095252
 20
159.9550273825667
 30
0.0
 10
133.3668452748873
 20
159.8500000000006
 30
0.0
  0
SPLINE
  5
154
330
131
100
AcDbEntity
  8
$DDT_AUDIT_GENERATED_(8C)
  6
Continuous
 62
     7
100
AcDbSpline
210
0.0
220
0.0
230
1.0
 70
     8
 71
     3
 72
    12
 73
     8
 74
     0
 42
0.0000000156790271
 43
0.0000000001
 40
0.0
 40
0.0
 40
0.0
 40
0.0
 40
0.2499999999999997
 40
0.2499999999999997
 40
0.4999999999999993
 40
0.4999999999999993
 40
1.0
 40
1.0
 40
1.0
 40
1.0
 10
144.8730841703097
 20
160.3465078481529
 30
0.0
 10
144.8838552209792
 20
160.3376071858177
 30
0.0
 10
144.8768606514246
 20
160.3122063329197
 30
0.0
 10
144.8394550007472
 20
160.2435533012163
 30
0.0
 10
144.8094094102182
 20
160.2006179937443
 30
0.0
 10
144.7012225192593
 20
160.0617714999569
 30
0.0
 10
144.6048262390415
 20
159.9550273825706
 30
0.0
 10
144.5019151736831
 20
159.8500000000006
 30
0.0
  0
ARC
  5
155
330
131
100
AcDbEntity
  8
$DDT_AUDIT_GENERATED_(8C)
  6
Continuous
 62
     7
100
AcDbCircle
 10
138.9343802243
 20
126.35
 30
0.0
 40
20.0
100
AcDbArc
 50
253.6173301459
 51
286.3826698541
  0
LINE
  5
156
330
131
100
AcDbEntity
  8
$DDT_AUDIT_GENERATED_(8C)
  6
Continuous
 62
     7
100
AcDbLine
 10
132.9343802243
 20
145.4280026185
 30
0.0
 11
132.9343802243
 21
107.6417130661
 31
0.0
  0
LINE
  5
157
330
131
100
AcDbEntity
  8
$DDT_AUDIT_GENERATED_(8C)
  6
Continuous
 62
     7
100
AcDbLine
 10
144.9343802243
 20
107.6417130661
 30
0.0
 11
144.9343802243
 21
145.4513020229
 31
0.0
  0
ARC
  5
158
330
131
100
AcDbEntity
  8
$DDT_AUDIT_GENERATED_(8C)
  6
Continuous
 62
     7
100
AcDbCircle
 10
133.4343802243
 20
107.6417130661
 30
0.0
 40
0.5000000000000004
100
AcDbArc
 50
180.0
 51
253.6173301459
  0
ARC
  5
159
330
131
100
AcDbEntity
  8
$DDT_AUDIT_GENERATED_(8C)
  6
Continuous
 62
     7
100
AcDbCircle
 10
144.4343802243
 20
107.6417130661
 30
0.0
 40
0.5000000000000028
100
AcDbArc
 50
286.3826698541
 51
0.0
  0
LINE
  5
15A
330
131
100
AcDbEntity
  8
$DDT_AUDIT_GENERATED_(8C)
  6
Continuous
 62
     7
100
AcDbLine
 10
132.9905682738
 20
160.3283514411
 30
0.0
 11
132.9905682738
 21
149.3299777283
 31
0.0
  0
LINE
  5
15B
330
131
100
AcDbEntity
  8
$DDT_AUDIT_GENERATED_(8C)
  6
Continuous
 62
     7
100
AcDbLine
 10
144.8781921748
 20
149.3299777283
 30
0.0
 11
144.8781921748
 21
160.3283514411
 31
0.0
  0
LINE
  5
15C
330
131
100
AcDbEntity
  8
$DDT_AUDIT_GENERATED_(FF)
  6
Continuous
 62
     7
100
AcDbLine
 10
154.2438960532
 20
161.2
 30
0.0
 11
154.2438960532
 21
160.35
 31
0.0
  0
LINE
  5
15D
330
131
100
AcDbEntity
  8
$DDT_AUDIT_GENERATED_(FF)
  6
Continuous
 62
     7
100
AcDbLine
 10
156.1653726665
 20
160.35
 30
0.0
 11
156.1653726665
 21
161.2
 31
0.0
  0
LINE
  5
15E
330
131
100
AcDbEntity
  8
$DDT_AUDIT_GENERATED_(FF)
  6
Continuous
 62
     7
100
AcDbLine
 10
154.9522215035
 20
161.2
 30
0.0
 11
154.9522215035
 21
160.35
 31
0.0
  0
LINE
  5
15F
330
131
100
AcDbEntity
  8
$DDT_AUDIT_GENERATED_(FF)
  6
Continuous
 62
     7
100
AcDbLine
 10
121.7054096569
 20
161.2
 30
0.0
 11
121.7054096569
 21
160.35
 31
0.0
  0
LINE
  5
160
330
131
100
AcDbEntity
  8
$DDT_AUDIT_GENERATED_(FF)
  6
Continuous
 62
     7
100
AcDbLine
 10
123.5577841931
 20
160.35
 30
0.0
 11
123.5577841931
 21
161.2
 31
0.0
  0
LINE
  5
161
330
131
100
AcDbEntity
  8
$DDT_AUDIT_GENERATED_(FF)
  6
Continuous
 62
     7
100
AcDbLine
 10
143.406803861
 20
160.35
 30
0.0
 11
143.406803861
 21
161.2
 31
0.0
  0
LINE
  5
162
330
131
100
AcDbEntity
  8
$DDT_AUDIT_GENERATED_(FF)
  6
Continuous
 62
     7
100
AcDbLine
 10
147.9010013545
 20
161.2
 30
0.0
 11
147.9010013545
 21
160.35
 31
0.0
  0
LINE
  5
163
330
131
100
AcDbEntity
  8
$DDT_AUDIT_GENERATED_(FF)
  6
Continuous
 62
     7
100
AcDbLine
 10
154.9097361757
 20
160.35
 30
0.0
 11
154.9097361757
 21
161.2
 31
0.0
  0
ARC
  5
164
330
131
100
AcDbEntity
  8
$DDT_AUDIT_GENERATED_(FF)
  6
Continuous
 62
     7
100
AcDbCircle
 10
144.8624440633
 20
162.3648223435
 30
0.0
 40
1.308095824405596
100
AcDbArc
 50
255.5291634461
 51
284.4708365539
  0
ARC
  5
165
330
131
100
AcDbEntity
  8
$DDT_AUDIT_GENERATED_(FF)
  6
Continuous
 62
     7
100
AcDbCircle
 10
157.1239706774
 20
186.0491801075
 30
0.0
 40
27.94669936191114
100
AcDbArc
 50
242.7702375852
 51
243.2278719404
  0
ARC
  5
166
330
131
100
AcDbEntity
  8
$DDT_AUDIT_GENERATED_(FF)
  6
Continuous
 62
     7
100
AcDbCircle
 10
120.3194511819
 20
279.5297849371
 30
0.0
 40
121.0146460967982
100
AcDbArc
 50
281.8594278385
 51
282.0892587649
  0
LINE
  5
167
330
131
100
AcDbEntity
  8
$DDT_AUDIT_GENERATED_(FF)
  6
Continuous
 62
     7
100
AcDbLine
 10
121.1343802243
 20
161.2
 30
0.0
 11
121.1343802243
 21
160.35
 31
0.0
  0
LINE
  5
168
330
131
100
AcDbEntity
  8
$DDT_AUDIT_GENERATED_(FF)
  6
Continuous
 62
     7
100
AcDbLine
 10
156.7343802243
 20
160.35
 30
0.0
 11
156.7343802243
 21
161.2
 31
0.0
  0
LINE
  5
169
330
131
100
AcDbEntity
  8
$DDT_AUDIT_GENERATED_(9D)
  6
Continuous
 62
     7
100
AcDbLine
 10
239.2864018463
 20
169.9070911894
 30
0.0
 11
38.5823586022
 21
169.9070911894
 31
0.0
  0
SPLINE
  5
16A
330
131
100
AcDbEntity
  8
$DDT_AUDIT_GENERATED_(9D)
  6
Continuous
 62
     7
100
AcDbSpline
210
0.0
220
0.0
230
1.0
 70
     8
 71
     3
 72
    42
 73
    38
 74
     0
 42
0.0000000001012007
 43
0.0000000001
 40
0.3461993556683235
 40
0.3461993556683235
 40
0.3461993556683235
 40
0.3461993556683235
 40
0.3750000000000006
 40
0.3750000000000006
 40
0.4062500000000006
 40
0.4062500000000006
 40
0.4375000000000006
 40
0.4375000000000006
 40
0.4687500000000007
 40
0.4687500000000007
 40
0.5000000000000007
 40
0.5000000000000007
 40
0.5312500000000007
 40
0.5312500000000007
 40
0.5625000000000006
 40
0.5625000000000006
 40
0.5937500000000006
 40
0.5937500000000006
 40
0.6250000000000004
 40
0.6250000000000004
 40
0.6562500000000004
 40
0.6562500000000004
 40
0.6875000000000004
 40
0.6875000000000004
 40
0.7187500000000003
 40
0.7187500000000003
 40
0.7500000000000003
 40
0.7500000000000003
 40
0.7812500000000003
 40
0.7812500000000003
 40
0.8125000000000002
 40
0.8125000000000002
 40
0.8437500000000002
 40
0.8437500000000002
 40
0.8750000000000001
 40
0.8750000000000001
 40
0.9054893739006691
 40
0.9054893739006691
 40
0.9054893739006691
 40
0.9054893739006691
 10
165.2256350281008
 20
164.436487548978
 30
0.0
 10
165.5216273902638
 20
164.5426081963346
 30
0.0
 10
165.6762063194047
 20
164.6503923880676
 30
0.0
 10
165.6925975576853
 20
164.8787289823728
 30
0.0
 10
165.5278614451361
 20
164.995816553862
 30
0.0
 10
164.8663669996732
 20
165.2261228538179
 30
0.0
 10
164.3617330052479
 20
165.3406045033758
 30
0.0
 10
163.0366247742218
 20
165.5593513602116
 30
0.0
 10
162.2235944239361
 20
165.6631725971981
 30
0.0
 10
160.2996263518461
 20
165.8598088323912
 30
0.0
 10
159.177370673118
 20
165.9530895083
 30
0.0
 10
156.7220931239419
 20
166.120508952333
 30
0.0
 10
155.3813891960948
 20
166.1957138455218
 30
0.0
 10
152.4688012168909
 20
166.3287167663981
 30
0.0
 10
150.9131847440996
 20
166.3854947534331
 30
0.0
 10
147.6989370131235
 20
166.4767621218742
 30
0.0
 10
146.0173261154285
 20
166.5120023586008
 30
0.0
 10
142.561754311997
 20
166.5596730311127
 30
0.0
 10
140.8246855528546
 20
166.5717370981924
 30
0.0
 10
137.3325258655325
 20
166.5730083812806
 30
0.0
 10
135.5583622801235
 20
166.5618555784389
 30
0.0
 10
132.1194850674424
 20
166.5168045672995
 30
0.0
 10
130.4481656287207
 20
166.4831924484432
 30
0.0
 10
127.2020242465671
 20
166.3937448780581
 30
0.0
 10
125.6298095256748
 20
166.3376158249623
 30
0.0
 10
122.7205356638109
 20
166.2077220965865
 30
0.0
 10
121.3644598539035
 20
166.133515679109
 30
0.0
 10
118.8565487018285
 20
165.9659324826645
 30
0.0
 10
117.7405783073062
 20
165.8748687673643
 30
0.0
 10
115.7909597592033
 20
165.6801622369646
 30
0.0
 10
114.9475405335831
 20
165.5751454625691
 30
0.0
 10
113.5902626075615
 20
165.3571526160116
 30
0.0
 10
113.0771889189978
 20
165.245027218488
 30
0.0
 10
112.3774967311604
 20
165.0146164727104
 30
0.0
 10
112.1937749593727
 20
164.8953912677113
 30
0.0
 10
112.1759235088013
 20
164.6633597585552
 30
0.0
 10
112.3279487227676
 20
164.5494604817764
 30
0.0
 10
112.6437849468272
 20
164.4362595288423
 30
0.0
  0
LINE
  5
16B
330
131
100
AcDbEntity
  8
$DDT_AUDIT_GENERATED_(9D)
  6
Continuous
 62
     7
100
AcDbLine
 10
38.1095097144
 20
178.05
 30
0.0
 11
239.7592507342
 21
178.05
 31
0.0
  0
ELLIPSE
  5
16C
330
131
100
AcDbEntity
  8
$DDT_AUDIT_GENERATED_(9D)
  6
Continuous
 62
     7
100
AcDbEllipse
 10
138.9343802243
 20
167.0951874203
 30
0.0
 11
1.37477714530247
 21
0.0
 31
0.0
210
0.0
220
0.0
230
1.0
 40
0.1121656329
 41
0.0
 42
6.283185307179586
  0
ARC
  5
16D
330
131
100
AcDbEntity
  8
$DDT_AUDIT_GENERATED_(9D)
  6
Continuous
 62
     7
100
AcDbCircle
 10
38.7257186331
 20
170.8967617919
 30
0.0
 40
0.99999999999998
100
AcDbArc
 50
181.0000004285
 51
261.7576762744
  0
ARC
  5
16E
330
131
100
AcDbEntity
  8
$DDT_AUDIT_GENERATED_(9D)
  6
Continuous
 62
     7
100
AcDbCircle
 10
239.1430418154
 20
170.8967617919
 30
0.0
 40
0.9999999999968758
100
AcDbArc
 50
278.2423237256
 51
358.9999995715
  0
ARC
  5
16F
330
131
100
AcDbEntity
  8
$DDT_AUDIT_GENERATED_(9D)
  6
Continuous
 62
     7
100
AcDbCircle
 10
38.7257186331
 20
170.8967617919
 30
0.0
 40
0.99999999999998
100
AcDbArc
 50
181.0000004285
 51
261.7576762744
  0
ARC
  5
170
330
131
100
AcDbEntity
  8
$DDT_AUDIT_GENERATED_(9D)
  6
Continuous
 62
     7
100
AcDbCircle
 10
239.1430418154
 20
170.8967617919
 30
0.0
 40
0.9999999999968758
100
AcDbArc
 50
278.2423237256
 51
358.9999995715
  0
ARC
  5
171
330
131
100
AcDbEntity
  8
$DDT_AUDIT_GENERATED_(9D)
  6
Continuous
 62
     7
100
AcDbCircle
 10
239.7592507342
 20
177.55
 30
0.0
 40
0.49999999999999
100
AcDbArc
 50
358.9999995715
 51
90.0
  0
ARC
  5
172
330
131
100
AcDbEntity
  8
$DDT_AUDIT_GENERATED_(9D)
  6
Continuous
 62
     7
100
AcDbCircle
 10
38.1095097144
 20
177.55
 30
0.0
 40
0.5000000000000004
100
AcDbArc
 50
90.0
 51
181.0000004285
  0
ARC
  5
173
330
131
100
AcDbEntity
  8
$DDT_AUDIT_GENERATED_(9D)
  6
Continuous
 62
     7
100
AcDbCircle
 10
239.7592507342
 20
177.55
 30
0.0
 40
0.49999999999999
100
AcDbArc
 50
358.9999995715
 51
90.0
  0
ARC
  5
174
330
131
100
AcDbEntity
  8
$DDT_AUDIT_GENERATED_(9D)
  6
Continuous
 62
     7
100
AcDbCircle
 10
38.1095097144
 20
177.55
 30
0.0
 40
0.5000000000000004
100
AcDbArc
 50
90.0
 51
181.0000004285
  0
LINE
  5
175
330
131
100
AcDbEntity
  8
$DDT_AUDIT_GENERATED_(9D)
  6
Continuous
 62
     7
100
AcDbLine
 10
37.6095858668
 20
177.541273793
 30
0.0
 11
37.7258709381
 21
170.879309378
 31
0.0
  0
LINE
  5
176
330
131
100
AcDbEntity
  8
$DDT_AUDIT_GENERATED_(9D)
  6
Continuous
 62
     7
100
AcDbLine
 10
240.1428895105
 20
170.879309378
 30
0.0
 11
240.2591745817
 21
177.541273793
 31
0.0
  0
LINE
  5
177
330
131
100
AcDbEntity
  8
$DDT_AUDIT_GENERATED_(9D)
  6
Continuous
 62
     7
100
AcDbLine
 10
37.6095858668
 20
177.541273793
 30
0.0
 11
37.7258709381
 21
170.879309378
 31
0.0
  0
LINE
  5
178
330
131
100
AcDbEntity
  8
$DDT_AUDIT_GENERATED_(9D)
  6
Continuous
 62
     7
100
AcDbLine
 10
240.1428895105
 20
170.879309378
 30
0.0
 11
240.2591745817
 21
177.541273793
 31
0.0
  0
ARC
  5
179
330
131
100
AcDbEntity
  8
$DDT_AUDIT_GENERATED_(9D)
  6
Continuous
 62
     7
100
AcDbCircle
 10
138.9343802243
 20
862.6765129715
 30
0.0
 40
699.9999999999999
100
AcDbArc
 50
261.7576762756
 51
267.8510394047
  0
ARC
  5
17A
330
131
100
AcDbEntity
  8
$DDT_AUDIT_GENERATED_(9D)
  6
Continuous
 62
     7
100
AcDbCircle
 10
138.9343802243
 20
862.6765129715
 30
0.0
 40
699.9999999999999
100
AcDbArc
 50
272.1489605953
 51
278.2423237244
  0
ARC
  5
17B
330
131
100
AcDbEntity
  8
$DDT_AUDIT_GENERATED_(9D)
  6
Continuous
 62
     7
100
AcDbCircle
 10
138.9343802243
 20
862.6765129715
 30
0.0
 40
699.9999999999999
100
AcDbArc
 50
261.7576762756
 51
267.8510394047
  0
ARC
  5
17C
330
131
100
AcDbEntity
  8
$DDT_AUDIT_GENERATED_(9D)
  6
Continuous
 62
     7
100
AcDbCircle
 10
138.9343802243
 20
862.6765129715
 30
0.0
 40
699.9999999999999
100
AcDbArc
 50
272.1489605953
 51
278.2423237244
  0
ENDBLK
  5
17E
330
131
100
AcDbEntity
  8
0
100
AcDbBlockEnd
  0
ENDSEC
  0
SECTION
  2
ENTITIES
  0
INSERT
  5
5F
330
1F
100
AcDbEntity
  8
Default
100
AcDbBlockReference
  2
SEANNOT_GROUP
 10
0.0
 20
0.0
 30
0.0
  0
INSERT
  5
6A
330
1F
100
AcDbEntity
  8
Default
100
AcDbBlockReference
  2
SEANNOT_GROUP1
 10
0.0
 20
0.0
 30
0.0
  0
INSERT
  5
74
330
1F
100
AcDbEntity
  8
Default
100
AcDbBlockReference
  2
SEANNOT_GROUP2
 10
0.0
 20
0.0
 30
0.0
  0
INSERT
  5
7A
330
1F
100
AcDbEntity
  8
Default
100
AcDbBlockReference
  2
SEANNOT_GROUP3
 10
0.0
 20
0.0
 30
0.0
  0
INSERT
  5
80
330
1F
100
AcDbEntity
  8
Default
100
AcDbBlockReference
  2
SEANNOT_GROUP4
 10
0.0
 20
0.0
 30
0.0
  0
INSERT
  5
86
330
1F
100
AcDbEntity
  8
Default
100
AcDbBlockReference
  2
SE
 10
0.0
 20
0.0
 30
0.0
  0
INSERT
  5
B0
330
1F
100
AcDbEntity
  8
Default
100
AcDbBlockReference
  2
SE1
 10
0.0
 20
0.0
 30
0.0
  0
INSERT
  5
132
330
1F
100
AcDbEntity
  8
Default
100
AcDbBlockReference
  2
SE2
 10
0.0
 20
0.0
 30
0.0
  0
TEXT
  5
180
330
1F
100
AcDbEntity
  8
Default
  6
Continuous
 62
     7
100
AcDbText
 10
5.9362635081
 20
53.4225120485
 30
0.0
 40
10.0
  1
Grohe AG^J
  7
SEACAD_seiso_ttf
 11
5.9362635081
 21
63.4225120485
 31
0.0
100
AcDbText
 73
     3
  0
TEXT
  5
181
330
1F
100
AcDbEntity
  8
Default
  6
Continuous
 62
     7
100
AcDbText
 10
5.9362635081
 20
37.0588756849
 30
0.0
 40
10.0
  1
 
  7
SEACAD_seiso_ttf
 11
5.9362635081
 21
47.0588756849
 31
0.0
100
AcDbText
 73
     3
  0
TEXT
  5
182
330
1F
100
AcDbEntity
  8
Default
  6
Continuous
 62
     7
100
AcDbText
 10
5.9362635081
 20
20.6952393213
 30
0.0
 40
10.0
  1
ecn: 
  7
SEACAD_seiso_ttf
 11
5.9362635081
 21
30.6952393213
 31
0.0
100
AcDbText
 73
     3
  0
TEXT
  5
183
330
1F
100
AcDbEntity
  8
Default
  6
Continuous
 62
     7
100
AcDbText
 10
5.9362635081
 20
4.3316029576
 30
0.0
 40
10.0
  1
unit: mm
  7
SEACAD_seiso_ttf
 11
5.9362635081
 21
14.3316029576
 31
0.0
100
AcDbText
 73
     3
  0
LINE
  5
184
330
1F
100
AcDbEntity
  8
Default
  6
Continuous
 62
     7
100
AcDbLine
 10
0.0
 20
0.0
 30
0.0
 11
100.0
 21
0.0
 31
0.0
  0
LINE
  5
185
330
1F
100
AcDbEntity
  8
Default
  6
Continuous
 62
     7
100
AcDbLine
 10
0.0
 20
0.0
 30
0.0
 11
0.0
 21
100.0
 31
0.0
  0
TEXT
  5
186
330
1F
100
AcDbEntity
  8
Default
  6
Continuous
 62
     7
100
AcDbText
 10
24.3923665681
 20
-18.2375342018
 30
0.0
 40
10.0
  1
100 mm
  7
SEACAD_seiso_ttf
 11
24.3923665681
 21
-8.2375342018
 31
0.0
100
AcDbText
 73
     3
  0
TEXT
  5
187
330
1F
100
AcDbEntity
  8
Default
  6
Continuous
 62
     7
100
AcDbText
 10
-7.6150308803
 20
24.6231930421
 30
0.0
 40
10.0
  1
100 mm
 50
90.0
  7
SEACAD_seiso_ttf
 11
-17.6150308803
 21
24.6231930421
 31
0.0
100
AcDbText
 73
     3
  0
TEXT
  5
188
330
1F
100
AcDbEntity
  8
Default
  6
Continuous
 62
     7
100
AcDbText
 10
28.4878128572
 20
20.0907663715
 30
0.0
 40
10.0
  1
211937
  7
SEACAD_seiso_ttf
 11
28.4878128572
 21
30.0907663715
 31
0.0
100
AcDbText
 73
     3
  0
TEXT
  5
189
330
1F
100
AcDbEntity
  8
Default
  6
Continuous
 62
     7
100
AcDbText
 10
5.9012241913
 20
36.7242780188
 30
0.0
 40
10.0
  1
19402000
  7
SEACAD_seiso_ttf
 11
5.9012241913
 21
46.7242780188
 31
0.0
100
AcDbText
 73
     3
  0
ENDSEC
  0
SECTION
  2
OBJECTS
  0
DICTIONARY
  5
C
330
0
100
AcDbDictionary
281
     1
  3
ACAD_GROUP
350
D
  3
ACAD_LAYOUT
350
1A
  3
ACAD_MLEADERSTYLE
350
18D
  3
ACAD_MLINESTYLE
350
17
  3
ACAD_PLOTSETTINGS
350
19
  3
ACAD_PLOTSTYLENAME
350
E
  3
ACAD_SCALELIST
350
3B
  3
ACAD_TABLESTYLE
350
18C
  3
ACAD_VISUALSTYLE
350
2A
  3
AcDbVariableDictionary
350
18A
  0
DICTIONARY
  5
D
102
{ACAD_REACTORS
330
C
102
}
330
C
100
AcDbDictionary
281
     1
  0
DICTIONARY
  5
1A
102
{ACAD_REACTORS
330
C
102
}
330
C
100
AcDbDictionary
281
     1
  3
Layout1
350
1E
  3
Model
350
22
  0
DICTIONARY
  5
18D
102
{ACAD_REACTORS
330
C
102
}
330
C
100
AcDbDictionary
281
     1
  0
DICTIONARY
  5
17
102
{ACAD_REACTORS
330
C
102
}
330
C
100
AcDbDictionary
281
     1
  3
Standard
350
18
  0
DICTIONARY
  5
19
102
{ACAD_REACTORS
330
C
102
}
330
C
100
AcDbDictionary
281
     1
  0
ACDBDICTIONARYWDFLT
  5
E
102
{ACAD_REACTORS
330
C
102
}
330
C
100
AcDbDictionary
281
     1
  3
Normal
350
F
100
AcDbDictionaryWithDefault
340
F
  0
DICTIONARY
  5
3B
102
{ACAD_REACTORS
330
C
102
}
330
C
100
AcDbDictionary
281
     1
  3
A0
350
3C
  3
A1
350
3D
  3
A2
350
3E
  3
A3
350
3F
  3
A4
350
40
  3
A5
350
41
  3
A6
350
42
  3
A7
350
43
  3
A8
350
44
  3
A9
350
45
  3
B0
350
46
  3
B1
350
47
  3
B2
350
48
  3
B3
350
49
  3
B4
350
4A
  3
B5
350
4B
  3
B6
350
4C
  3
B7
350
4D
  3
B8
350
4E
  3
B9
350
4F
  3
C0
350
50
  3
C1
350
51
  3
C2
350
52
  3
C3
350
53
  3
C4
350
54
  3
C5
350
55
  3
C6
350
56
  3
C7
350
57
  3
C8
350
58
  3
C9
350
59
  3
D0
350
5A
  3
D1
350
5B
  3
D2
350
5C
  0
DICTIONARY
  5
18C
102
{ACAD_REACTORS
330
C
102
}
330
C
100
AcDbDictionary
281
     1
  0
DICTIONARY
  5
2A
102
{ACAD_REACTORS
330
C
102
}
330
C
100
AcDbDictionary
281
     1
  3
2dWireframe
350
2F
  3
3D Hidden
350
31
  3
3dWireframe
350
30
  3
Basic
350
32
  3
Brighten
350
36
  3
ColorChange
350
3A
  3
Conceptual
350
34
  3
Dim
350
35
  3
Facepattern
350
39
  3
Flat
350
2B
  3
FlatWithEdges
350
2C
  3
Gouraud
350
2D
  3
GouraudWithEdges
350
2E
  3
Linepattern
350
38
  3
Realistic
350
33
  3
Thicken
350
37
  0
DICTIONARY
  5
18A
102
{ACAD_REACTORS
330
C
102
}
330
C
100
AcDbDictionary
281
     1
  3
CANNOSCALE
350
18B
  3
PSOLHEIGHT
350
18F
  3
PSOLWIDTH
350
18E
  0
LAYOUT
  5
1E
102
{ACAD_REACTORS
330
1A
102
}
330
1A
100
AcDbPlotSettings
  1

  2
none_device
  4

  6

 40
0.0
 41
0.0
 42
0.0
 43
0.0
 44
0.0
 45
0.0
 46
0.0
 47
0.0
 48
0.0
 49
0.0
140
0.0
141
0.0
142
1.0
143
1.0
 70
   688
 72
     0
 73
     0
 74
     5
  7

 75
    16
147
1.0
148
0.0
149
0.0
100
AcDbLayout
  1
Layout1
 70
     1
 71
     1
 10
0.0
 20
0.0
 11
1682.0
 21
2378.0
 12
0.0
 22
0.0
 32
0.0
 14
0.0
 24
0.0
 34
0.0
 15
1682.0
 25
2378.0
 35
0.0
146
0.0
 13
0.0
 23
0.0
 33
0.0
 16
1.0
 26
0.0
 36
0.0
 17
0.0
 27
1.0
 37
0.0
 76
     0
330
1B
  0
LAYOUT
  5
22
102
{ACAD_REACTORS
330
1A
102
}
330
1A
100
AcDbPlotSettings
  1

  2
none_device
  4

  6

 40
0.0
 41
0.0
 42
0.0
 43
0.0
 44
0.0
 45
0.0
 46
0.0
 47
0.0
 48
0.0
 49
0.0
140
0.0
141
0.0
142
1.0
143
1.0
 70
  1712
 72
     0
 73
     0
 74
     0
  7

 75
     0
147
1.0
148
0.0
149
0.0
100
AcDbLayout
  1
Model
 70
     1
 71
     0
 10
0.0
 20
0.0
 11
1682.0
 21
2378.0
 12
0.0
 22
0.0
 32
0.0
 14
0.0
 24
0.0
 34
0.0
 15
1682.0
 25
2378.0
 35
0.0
146
0.0
 13
0.0
 23
0.0
 33
0.0
 16
1.0
 26
0.0
 36
0.0
 17
0.0
 27
1.0
 37
0.0
 76
     0
330
1F
331
29
  0
MLINESTYLE
  5
18
102
{ACAD_REACTORS
330
17
102
}
330
17
100
AcDbMlineStyle
  2
Standard
 70
     0
  3

 62
   256
 51
90.0
 52
90.0
 71
     2
 49
0.5
 62
   256
  6
BYLAYER
 49
-0.5
 62
   256
  6
BYLAYER
  0
ACDBPLACEHOLDER
  5
F
102
{ACAD_REACTORS
330
E
102
}
330
E
  0
SCALE
  5
3C
102
{ACAD_REACTORS
330
3B
102
}
330
3B
100
AcDbScale
 70
     0
300
1:1
140
1.0
141
1.0
290
     1
  0
SCALE
  5
3D
102
{ACAD_REACTORS
330
3B
102
}
330
3B
100
AcDbScale
 70
     0
300
1:2
140
1.0
141
2.0
290
     0
  0
SCALE
  5
3E
102
{ACAD_REACTORS
330
3B
102
}
330
3B
100
AcDbScale
 70
     0
300
1:4
140
1.0
141
4.0
290
     0
  0
SCALE
  5
3F
102
{ACAD_REACTORS
330
3B
102
}
330
3B
100
AcDbScale
 70
     0
300
1:5
140
1.0
141
5.0
290
     0
  0
SCALE
  5
40
102
{ACAD_REACTORS
330
3B
102
}
330
3B
100
AcDbScale
 70
     0
300
1:8
140
1.0
141
8.0
290
     0
  0
SCALE
  5
41
102
{ACAD_REACTORS
330
3B
102
}
330
3B
100
AcDbScale
 70
     0
300
1:10
140
1.0
141
10.0
290
     0
  0
SCALE
  5
42
102
{ACAD_REACTORS
330
3B
102
}
330
3B
100
AcDbScale
 70
     0
300
1:16
140
1.0
141
16.0
290
     0
  0
SCALE
  5
43
102
{ACAD_REACTORS
330
3B
102
}
330
3B
100
AcDbScale
 70
     0
300
1:20
140
1.0
141
20.0
290
     0
  0
SCALE
  5
44
102
{ACAD_REACTORS
330
3B
102
}
330
3B
100
AcDbScale
 70
     0
300
1:30
140
1.0
141
30.0
290
     0
  0
SCALE
  5
45
102
{ACAD_REACTORS
330
3B
102
}
330
3B
100
AcDbScale
 70
     0
300
1:40
140
1.0
141
40.0
290
     0
  0
SCALE
  5
46
102
{ACAD_REACTORS
330
3B
102
}
330
3B
100
AcDbScale
 70
     0
300
1:50
140
1.0
141
50.0
290
     0
  0
SCALE
  5
47
102
{ACAD_REACTORS
330
3B
102
}
330
3B
100
AcDbScale
 70
     0
300
1:100
140
1.0
141
100.0
290
     0
  0
SCALE
  5
48
102
{ACAD_REACTORS
330
3B
102
}
330
3B
100
AcDbScale
 70
     0
300
2:1
140
2.0
141
1.0
290
     0
  0
SCALE
  5
49
102
{ACAD_REACTORS
330
3B
102
}
330
3B
100
AcDbScale
 70
     0
300
4:1
140
4.0
141
1.0
290
     0
  0
SCALE
  5
4A
102
{ACAD_REACTORS
330
3B
102
}
330
3B
100
AcDbScale
 70
     0
300
8:1
140
8.0
141
1.0
290
     0
  0
SCALE
  5
4B
102
{ACAD_REACTORS
330
3B
102
}
330
3B
100
AcDbScale
 70
     0
300
10:1
140
10.0
141
1.0
290
     0
  0
SCALE
  5
4C
102
{ACAD_REACTORS
330
3B
102
}
330
3B
100
AcDbScale
 70
     0
300
100:1
140
100.0
141
1.0
290
     0
  0
SCALE
  5
4D
102
{ACAD_REACTORS
330
3B
102
}
330
3B
100
AcDbScale
 70
     0
300
1/128" = 1'-0"
140
0.0078125
141
12.0
290
     0
  0
SCALE
  5
4E
102
{ACAD_REACTORS
330
3B
102
}
330
3B
100
AcDbScale
 70
     0
300
1/64" = 1'-0"
140
0.015625
141
12.0
290
     0
  0
SCALE
  5
4F
102
{ACAD_REACTORS
330
3B
102
}
330
3B
100
AcDbScale
 70
     0
300
1/32" = 1'-0"
140
0.03125
141
12.0
290
     0
  0
SCALE
  5
50
102
{ACAD_REACTORS
330
3B
102
}
330
3B
100
AcDbScale
 70
     0
300
1/16" = 1'-0"
140
0.0625
141
12.0
290
     0
  0
SCALE
  5
51
102
{ACAD_REACTORS
330
3B
102
}
330
3B
100
AcDbScale
 70
     0
300
3/32" = 1'-0"
140
0.09375
141
12.0
290
     0
  0
SCALE
  5
52
102
{ACAD_REACTORS
330
3B
102
}
330
3B
100
AcDbScale
 70
     0
300
1/8" = 1'-0"
140
0.125
141
12.0
290
     0
  0
SCALE
  5
53
102
{ACAD_REACTORS
330
3B
102
}
330
3B
100
AcDbScale
 70
     0
300
3/16" = 1'-0"
140
0.1875
141
12.0
290
     0
  0
SCALE
  5
54
102
{ACAD_REACTORS
330
3B
102
}
330
3B
100
AcDbScale
 70
     0
300
1/4" = 1'-0"
140
0.25
141
12.0
290
     0
  0
SCALE
  5
55
102
{ACAD_REACTORS
330
3B
102
}
330
3B
100
AcDbScale
 70
     0
300
3/8" = 1'-0"
140
0.375
141
12.0
290
     0
  0
SCALE
  5
56
102
{ACAD_REACTORS
330
3B
102
}
330
3B
100
AcDbScale
 70
     0
300
1/2" = 1'-0"
140
0.5
141
12.0
290
     0
  0
SCALE
  5
57
102
{ACAD_REACTORS
330
3B
102
}
330
3B
100
AcDbScale
 70
     0
300
3/4" = 1'-0"
140
0.75
141
12.0
290
     0
  0
SCALE
  5
58
102
{ACAD_REACTORS
330
3B
102
}
330
3B
100
AcDbScale
 70
     0
300
1" = 1'-0"
140
1.0
141
12.0
290
     0
  0
SCALE
  5
59
102
{ACAD_REACTORS
330
3B
102
}
330
3B
100
AcDbScale
 70
     0
300
1-1/2" = 1'-0"
140
1.5
141
12.0
290
     0
  0
SCALE
  5
5A
102
{ACAD_REACTORS
330
3B
102
}
330
3B
100
AcDbScale
 70
     0
300
3" = 1'-0"
140
3.0
141
12.0
290
     0
  0
SCALE
  5
5B
102
{ACAD_REACTORS
330
3B
102
}
330
3B
100
AcDbScale
 70
     0
300
6" = 1'-0"
140
6.0
141
12.0
290
     0
  0
SCALE
  5
5C
102
{ACAD_REACTORS
330
3B
102
}
330
3B
100
AcDbScale
 70
     0
300
1'-0" = 1'-0"
140
12.0
141
12.0
290
     0
  0
VISUALSTYLE
  5
2F
102
{ACAD_REACTORS
330
2A
102
}
330
2A
100
AcDbVisualStyle
  2
2dWireframe
 70
     4
 71
     0
 72
     2
 73
     0
 90
        0
 40
-0.6
 41
-30.0
 62
     5
 63
     7
 74
     1
 91
        4
 64
     7
 65
   257
 75
     1
175
     1
 42
1.0
 92
        0
 66
   257
 43
1.0
 76
     1
 77
     6
 78
     2
 67
     7
 79
     5
170
     0
171
     0
290
     0
174
     0
 93
        1
 44
0.0
173
     0
291
     0
 45
0.0
1001
ACAD
1000
AcDbSavedByObjectVersion
1070
     0
  0
VISUALSTYLE
  5
31
102
{ACAD_REACTORS
330
2A
102
}
330
2A
100
AcDbVisualStyle
  2
3D Hidden
 70
     6
 71
     1
 72
     2
 73
     2
 90
        0
 40
-0.6
 41
-30.0
 62
     5
 63
     7
 74
     2
 91
        2
 64
     7
 65
   257
 75
     2
175
     1
 42
40.0
 92
        0
 66
   257
 43
1.0
 76
     1
 77
     6
 78
     2
 67
     7
 79
     3
170
     0
171
     0
290
     0
174
     0
 93
        1
 44
0.0
173
     0
291
     0
 45
0.0
1001
ACAD
1000
AcDbSavedByObjectVersion
1070
     0
  0
VISUALSTYLE
  5
30
102
{ACAD_REACTORS
330
2A
102
}
330
2A
100
AcDbVisualStyle
  2
3dWireframe
 70
     5
 71
     0
 72
     2
 73
     0
 90
        0
 40
-0.6
 41
-30.0
 62
     5
 63
     7
 74
     1
 91
        4
 64
     7
 65
   257
 75
     1
175
     1
 42
1.0
 92
        0
 66
   257
 43
1.0
 76
     1
 77
     6
 78
     2
 67
     7
 79
     5
170
     0
171
     0
290
     0
174
     0
 93
        1
 44
0.0
173
     0
291
     0
 45
0.0
1001
ACAD
1000
AcDbSavedByObjectVersion
1070
     0
  0
VISUALSTYLE
  5
32
102
{ACAD_REACTORS
330
2A
102
}
330
2A
100
AcDbVisualStyle
  2
Basic
 70
     7
 71
     1
 72
     0
 73
     1
 90
        0
 40
-0.6
 41
-30.0
 62
     5
 63
     7
 74
     0
 91
        4
 64
     7
 65
   257
 75
     1
175
     1
 42
1.0
 92
        8
 66
     7
 43
1.0
 76
     1
 77
     6
 78
     2
 67
     7
 79
     5
170
     0
171
     0
290
     0
174
     0
 93
        1
 44
0.0
173
     0
291
     1
 45
0.0
1001
ACAD
1000
AcDbSavedByObjectVersion
1070
     0
  0
VISUALSTYLE
  5
36
102
{ACAD_REACTORS
330
2A
102
}
330
2A
100
AcDbVisualStyle
  2
Brighten
 70
    12
 71
     2
 72
     2
 73
     0
 90
        0
 40
-0.6
 41
-30.0
 62
     5
 63
     7
 74
     1
 91
        4
 64
     7
 65
   257
 75
     1
175
     1
 42
1.0
 92
        8
 66
     7
 43
1.0
 76
     1
 77
     6
 78
     2
 67
     7
 79
     5
170
     0
171
     0
290
     0
174
     0
 93
        1
 44
50.0
173
     0
291
     1
 45
0.0
1001
ACAD
1000
AcDbSavedByObjectVersion
1070
     0
  0
VISUALSTYLE
  5
3A
102
{ACAD_REACTORS
330
2A
102
}
330
2A
100
AcDbVisualStyle
  2
ColorChange
 70
    16
 71
     2
 72
     2
 73
     3
 90
        0
 40
-0.6
 41
-30.0
 62
     5
 63
     8
 74
     1
 91
        4
 64
     7
 65
   257
 75
     1
175
     1
 42
1.0
 92
        8
 66
     8
 43
1.0
 76
     1
 77
     6
 78
     2
 67
     7
 79
     5
170
     0
171
     0
290
     0
174
     0
 93
        1
 44
0.0
173
     0
291
     1
 45
0.0
1001
ACAD
1000
AcDbSavedByObjectVersion
1070
     0
  0
VISUALSTYLE
  5
34
102
{ACAD_REACTORS
330
2A
102
}
330
2A
100
AcDbVisualStyle
  2
Conceptual
 70
     9
 71
     3
 72
     2
 73
     0
 90
        0
 40
-0.6
 41
-30.0
 62
     5
 63
     7
 74
     2
 91
        2
 64
     7
 65
   257
 75
     1
175
     1
 42
40.0
 92
        8
 66
     7
 43
1.0
 76
     1
 77
     6
 78
     2
 67
     7
 79
     3
170
     0
171
     0
290
     0
174
     0
 93
        1
 44
0.0
173
     0
291
     0
 45
0.0
1001
ACAD
1000
AcDbSavedByObjectVersion
1070
     0
  0
VISUALSTYLE
  5
35
102
{ACAD_REACTORS
330
2A
102
}
330
2A
100
AcDbVisualStyle
  2
Dim
 70
    11
 71
     2
 72
     2
 73
     0
 90
        0
 40
-0.6
 41
-30.0
 62
     5
 63
     7
 74
     1
 91
        4
 64
     7
 65
   257
 75
     1
175
     1
 42
1.0
 92
        8
 66
     7
 43
1.0
 76
     1
 77
     6
 78
     2
 67
     7
 79
     5
170
     0
171
     0
290
     0
174
     0
 93
        1
 44
-50.0
173
     0
291
     1
 45
0.0
1001
ACAD
1000
AcDbSavedByObjectVersion
1070
     0
  0
VISUALSTYLE
  5
39
102
{ACAD_REACTORS
330
2A
102
}
330
2A
100
AcDbVisualStyle
  2
Facepattern
 70
    15
 71
     2
 72
     2
 73
     0
 90
        0
 40
-0.6
 41
-30.0
 62
     5
 63
     7
 74
     1
 91
        4
 64
     7
 65
   257
 75
     1
175
     1
 42
1.0
 92
        8
 66
     7
 43
1.0
 76
     1
 77
     6
 78
     2
 67
     7
 79
     5
170
     0
171
     0
290
     0
174
     0
 93
        1
 44
0.0
173
     0
291
     1
 45
0.0
1001
ACAD
1000
AcDbSavedByObjectVersion
1070
     0
  0
VISUALSTYLE
  5
2B
102
{ACAD_REACTORS
330
2A
102
}
330
2A
100
AcDbVisualStyle
  2
Flat
 70
     0
 71
     2
 72
     1
 73
     1
 90
        2
 40
-0.6
 41
30.0
 62
     5
 63
     7
 74
     0
 91
        4
 64
     7
 65
   257
 75
     1
175
     1
 42
1.0
 92
        8
 66
     7
 43
1.0
 76
     1
 77
     6
 78
     2
 67
     7
 79
     5
170
     0
171
     0
290
     0
174
     0
 93
       13
 44
0.0
173
     0
291
     1
 45
0.0
1001
ACAD
1000
AcDbSavedByObjectVersion
1070
     0
  0
VISUALSTYLE
  5
2C
102
{ACAD_REACTORS
330
2A
102
}
330
2A
100
AcDbVisualStyle
  2
FlatWithEdges
 70
     1
 71
     2
 72
     1
 73
     1
 90
        2
 40
-0.6
 41
30.0
 62
     5
 63
     7
 74
     1
 91
        4
 64
     7
 65
   257
 75
     1
175
     1
 42
1.0
 92
        0
 66
   257
 43
1.0
 76
     1
 77
     6
 78
     2
 67
     7
 79
     5
170
     0
171
     0
290
     0
174
     0
 93
       13
 44
0.0
173
     0
291
     1
 45
0.0
1001
ACAD
1000
AcDbSavedByObjectVersion
1070
     0
  0
VISUALSTYLE
  5
2D
102
{ACAD_REACTORS
330
2A
102
}
330
2A
100
AcDbVisualStyle
  2
Gouraud
 70
     2
 71
     2
 72
     2
 73
     1
 90
        2
 40
-0.6
 41
30.0
 62
     5
 63
     7
 74
     0
 91
        4
 64
     7
 65
   257
 75
     1
175
     1
 42
1.0
 92
        0
 66
     7
 43
1.0
 76
     1
 77
     6
 78
     2
 67
     7
 79
     5
170
     0
171
     0
290
     0
174
     0
 93
       13
 44
0.0
173
     0
291
     1
 45
0.0
1001
ACAD
1000
AcDbSavedByObjectVersion
1070
     0
  0
VISUALSTYLE
  5
2E
102
{ACAD_REACTORS
330
2A
102
}
330
2A
100
AcDbVisualStyle
  2
GouraudWithEdges
 70
     3
 71
     2
 72
     2
 73
     1
 90
        2
 40
-0.6
 41
30.0
 62
     5
 63
     7
 74
     1
 91
        4
 64
     7
 65
   257
 75
     1
175
     1
 42
1.0
 92
        0
 66
   257
 43
1.0
 76
     1
 77
     6
 78
     2
 67
     7
 79
     5
170
     0
171
     0
290
     0
174
     0
 93
       13
 44
0.0
173
     0
291
     1
 45
0.0
1001
ACAD
1000
AcDbSavedByObjectVersion
1070
     0
  0
VISUALSTYLE
  5
38
102
{ACAD_REACTORS
330
2A
102
}
330
2A
100
AcDbVisualStyle
  2
Linepattern
 70
    14
 71
     2
 72
     2
 73
     0
 90
        0
 40
-0.6
 41
-30.0
 62
     5
 63
     7
 74
     1
 91
        4
 64
     7
 65
   257
 75
     7
175
     7
 42
1.0
 92
        8
 66
     7
 43
1.0
 76
     1
 77
     6
 78
     2
 67
     7
 79
     5
170
     0
171
     0
290
     0
174
     0
 93
        1
 44
0.0
173
     0
291
     1
 45
0.0
1001
ACAD
1000
AcDbSavedByObjectVersion
1070
     0
  0
VISUALSTYLE
  5
33
102
{ACAD_REACTORS
330
2A
102
}
330
2A
100
AcDbVisualStyle
  2
Realistic
 70
     8
 71
     2
 72
     2
 73
     0
 90
        0
 40
-0.6
 41
-30.0
 62
     5
 63
     7
 74
     1
 91
        0
 64
     7
 65
   257
 75
     1
175
     1
 42
1.0
 92
        8
 66
     8
 43
1.0
 76
     1
 77
     6
 78
     2
 67
     7
 79
     5
170
     0
171
     0
290
     0
174
     0
 93
       13
 44
0.0
173
     0
291
     0
 45
0.0
1001
ACAD
1000
AcDbSavedByObjectVersion
1070
     0
  0
VISUALSTYLE
  5
37
102
{ACAD_REACTORS
330
2A
102
}
330
2A
100
AcDbVisualStyle
  2
Thicken
 70
    13
 71
     2
 72
     2
 73
     0
 90
        0
 40
-0.6
 41
-30.0
 62
     5
 63
     7
 74
     1
 91
        4
 64
     7
 65
   257
 75
     1
175
     1
 42
1.0
 92
       12
 66
     7
 43
1.0
 76
     1
 77
     6
 78
     2
 67
     7
 79
     5
170
     0
171
     0
290
     0
174
     0
 93
        1
 44
0.0
173
     0
291
     1
 45
0.0
1001
ACAD
1000
AcDbSavedByObjectVersion
1070
     0
  0
DICTIONARYVAR
  5
18B
102
{ACAD_REACTORS
330
18A
102
}
330
18A
100
DictionaryVariables
280
     0
  1
1:1
  0
DICTIONARYVAR
  5
18F
102
{ACAD_REACTORS
330
18A
102
}
330
18A
100
DictionaryVariables
280
     0
  1
80.000000
  0
DICTIONARYVAR
  5
18E
102
{ACAD_REACTORS
330
18A
102
}
330
18A
100
DictionaryVariables
280
     0
  1
5.000000
  0
ENDSEC
  0
EOF
