  0
SECTION
  2
HEADER
  9
$ACADVER
  1
AC1015
  9
$ACADMAINTVER
 70
     6
  9
$DWGCODEPAGE
  3
ANSI_1252
  9
$INSBASE
 10
0.0
 20
0.0
 30
0.0
  9
$EXTMIN
 10
0.0
 20
0.0
 30
0.0
  9
$EXTMAX
 10
1682.0
 20
2378.0
 30
0.0
  9
$LIMMIN
 10
0.0
 20
0.0
  9
$LIMMAX
 10
1682.0
 20
2378.0
  9
$ORTHOMODE
 70
     0
  9
$REGENMODE
 70
     1
  9
$FILLMODE
 70
     1
  9
$QTEXTMODE
 70
     0
  9
$MIRRTEXT
 70
     1
  9
$LTSCALE
 40
1.0
  9
$ATTMODE
 70
     1
  9
$TEXTSIZE
 40
2.5
  9
$TRACEWID
 40
1.0
  9
$TEXTSTYLE
  7
Standard
  9
$CLAYER
  8
0
  9
$CELTYPE
  6
ByLayer
  9
$CECOLOR
 62
   256
  9
$CELTSCALE
 40
1.0
  9
$DISPSILH
 70
     0
  9
$DIMSCALE
 40
1.0
  9
$DIMASZ
 40
2.5
  9
$DIMEXO
 40
0.625
  9
$DIMDLI
 40
3.75
  9
$DIMRND
 40
0.0
  9
$DIMDLE
 40
0.0
  9
$DIMEXE
 40
1.25
  9
$DIMTP
 40
0.0
  9
$DIMTM
 40
0.0
  9
$DIMTXT
 40
2.5
  9
$DIMCEN
 40
2.5
  9
$DIMTSZ
 40
0.0
  9
$DIMTOL
 70
     0
  9
$DIMLIM
 70
     0
  9
$DIMTIH
 70
     0
  9
$DIMTOH
 70
     0
  9
$DIMSE1
 70
     0
  9
$DIMSE2
 70
     0
  9
$DIMTAD
 70
     1
  9
$DIMZIN
 70
     8
  9
$DIMBLK
  1

  9
$DIMASO
 70
     1
  9
$DIMSHO
 70
     1
  9
$DIMPOST
  1

  9
$DIMAPOST
  1

  9
$DIMALT
 70
     0
  9
$DIMALTD
 70
     3
  9
$DIMALTF
 40
0.0393700787
  9
$DIMLFAC
 40
1.0
  9
$DIMTOFL
 70
     1
  9
$DIMTVP
 40
0.0
  9
$DIMTIX
 70
     0
  9
$DIMSOXD
 70
     0
  9
$DIMSAH
 70
     0
  9
$DIMBLK1
  1

  9
$DIMBLK2
  1

  9
$DIMSTYLE
  2
ISO-25
  9
$DIMCLRD
 70
     0
  9
$DIMCLRE
 70
     0
  9
$DIMCLRT
 70
     0
  9
$DIMTFAC
 40
1.0
  9
$DIMGAP
 40
0.625
  9
$DIMJUST
 70
     0
  9
$DIMSD1
 70
     0
  9
$DIMSD2
 70
     0
  9
$DIMTOLJ
 70
     0
  9
$DIMTZIN
 70
     8
  9
$DIMALTZ
 70
     0
  9
$DIMALTTZ
 70
     0
  9
$DIMUPT
 70
     0
  9
$DIMDEC
 70
     2
  9
$DIMTDEC
 70
     2
  9
$DIMALTU
 70
     2
  9
$DIMALTTD
 70
     3
  9
$DIMTXSTY
  7
Standard
  9
$DIMAUNIT
 70
     0
  9
$DIMADEC
 70
     0
  9
$DIMALTRND
 40
0.0
  9
$DIMAZIN
 70
     0
  9
$DIMDSEP
 70
    44
  9
$DIMATFIT
 70
     3
  9
$DIMFRAC
 70
     0
  9
$DIMLDRBLK
  1

  9
$DIMLUNIT
 70
     2
  9
$DIMLWD
 70
    -2
  9
$DIMLWE
 70
    -2
  9
$DIMTMOVE
 70
     0
  9
$LUNITS
 70
     2
  9
$LUPREC
 70
     4
  9
$SKETCHINC
 40
1.0
  9
$FILLETRAD
 40
10.0
  9
$AUNITS
 70
     0
  9
$AUPREC
 70
     0
  9
$MENU
  1
.
  9
$ELEVATION
 40
0.0
  9
$PELEVATION
 40
0.0
  9
$THICKNESS
 40
0.0
  9
$LIMCHECK
 70
     0
  9
$CHAMFERA
 40
10.0
  9
$CHAMFERB
 40
10.0
  9
$CHAMFERC
 40
20.0
  9
$CHAMFERD
 40
0.0
  9
$SKPOLY
 70
     0
  9
$TDCREATE
 40
2455496.572037407
  9
$TDUCREATE
 40
2455496.488704074
  9
$TDUPDATE
 40
2455496.572037419
  9
$TDUUPDATE
 40
2455496.488704086
  9
$TDINDWG
 40
0.0000000116
  9
$TDUSRTIMER
 40
0.0000000116
  9
$USRTIMER
 70
     1
  9
$ANGBASE
 50
0.0
  9
$ANGDIR
 70
     0
  9
$PDMODE
 70
     0
  9
$PDSIZE
 40
0.0
  9
$PLINEWID
 40
0.0
  9
$SPLFRAME
 70
     0
  9
$SPLINETYPE
 70
     6
  9
$SPLINESEGS
 70
     8
  9
$HANDSEED
  5
205
  9
$SURFTAB1
 70
     6
  9
$SURFTAB2
 70
     6
  9
$SURFTYPE
 70
     6
  9
$SURFU
 70
     6
  9
$SURFV
 70
     6
  9
$UCSBASE
  2

  9
$UCSNAME
  2

  9
$UCSORG
 10
0.0
 20
0.0
 30
0.0
  9
$UCSXDIR
 10
1.0
 20
0.0
 30
0.0
  9
$UCSYDIR
 10
0.0
 20
1.0
 30
0.0
  9
$UCSORTHOREF
  2

  9
$UCSORTHOVIEW
 70
     0
  9
$UCSORGTOP
 10
0.0
 20
0.0
 30
0.0
  9
$UCSORGBOTTOM
 10
0.0
 20
0.0
 30
0.0
  9
$UCSORGLEFT
 10
0.0
 20
0.0
 30
0.0
  9
$UCSORGRIGHT
 10
0.0
 20
0.0
 30
0.0
  9
$UCSORGFRONT
 10
0.0
 20
0.0
 30
0.0
  9
$UCSORGBACK
 10
0.0
 20
0.0
 30
0.0
  9
$PUCSBASE
  2

  9
$PUCSNAME
  2

  9
$PUCSORG
 10
0.0
 20
0.0
 30
0.0
  9
$PUCSXDIR
 10
1.0
 20
0.0
 30
0.0
  9
$PUCSYDIR
 10
0.0
 20
1.0
 30
0.0
  9
$PUCSORTHOREF
  2

  9
$PUCSORTHOVIEW
 70
     0
  9
$PUCSORGTOP
 10
0.0
 20
0.0
 30
0.0
  9
$PUCSORGBOTTOM
 10
0.0
 20
0.0
 30
0.0
  9
$PUCSORGLEFT
 10
0.0
 20
0.0
 30
0.0
  9
$PUCSORGRIGHT
 10
0.0
 20
0.0
 30
0.0
  9
$PUCSORGFRONT
 10
0.0
 20
0.0
 30
0.0
  9
$PUCSORGBACK
 10
0.0
 20
0.0
 30
0.0
  9
$USERI1
 70
     0
  9
$USERI2
 70
     0
  9
$USERI3
 70
     0
  9
$USERI4
 70
     0
  9
$USERI5
 70
     0
  9
$USERR1
 40
0.0
  9
$USERR2
 40
0.0
  9
$USERR3
 40
0.0
  9
$USERR4
 40
0.0
  9
$USERR5
 40
0.0
  9
$WORLDVIEW
 70
     1
  9
$SHADEDGE
 70
     3
  9
$SHADEDIF
 70
    70
  9
$TILEMODE
 70
     1
  9
$MAXACTVP
 70
    64
  9
$PINSBASE
 10
0.0
 20
0.0
 30
0.0
  9
$PLIMCHECK
 70
     0
  9
$PEXTMIN
 10
0.0
 20
0.0
 30
0.0
  9
$PEXTMAX
 10
1682.0
 20
2378.0
 30
0.0
  9
$PLIMMIN
 10
0.0
 20
0.0
  9
$PLIMMAX
 10
1682.0
 20
2378.0
  9
$UNITMODE
 70
     0
  9
$VISRETAIN
 70
     1
  9
$PLINEGEN
 70
     0
  9
$PSLTSCALE
 70
     1
  9
$TREEDEPTH
 70
  3020
  9
$CMLSTYLE
  2
Standard
  9
$CMLJUST
 70
     0
  9
$CMLSCALE
 40
20.0
  9
$PROXYGRAPHICS
 70
     1
  9
$MEASUREMENT
 70
     1
  9
$CELWEIGHT
370
    -1
  9
$ENDCAPS
280
     0
  9
$JOINSTYLE
280
     0
  9
$LWDISPLAY
290
     0
  9
$INSUNITS
 70
     4
  9
$HYPERLINKBASE
  1

  9
$STYLESHEET
  1

  9
$XEDIT
290
     1
  9
$CEPSNTYPE
380
     0
  9
$PSTYLEMODE
290
     1
  9
$FINGERPRINTGUID
  2
{CF4A77D6-739D-48DD-A716-D86A374E1F8C}
  9
$VERSIONGUID
  2
{FAEB1C32-E019-11D5-929B-00C0DF256EC4}
  9
$EXTNAMES
290
     1
  9
$PSVPSCALE
 40
0.0
  9
$OLESTARTUP
290
     0
  0
ENDSEC
  0
SECTION
  2
CLASSES
  0
CLASS
  1
ACDBDICTIONARYWDFLT
  2
AcDbDictionaryWithDefault
  3
ObjectDBX Classes
 90
        0
280
     0
281
     0
  0
CLASS
  1
VISUALSTYLE
  2
AcDbVisualStyle
  3
ObjectDBX Classes
 90
     4095
280
     0
281
     0
  0
CLASS
  1
SCALE
  2
AcDbScale
  3
ObjectDBX Classes
 90
     1153
280
     0
281
     0
  0
CLASS
  1
DICTIONARYVAR
  2
AcDbDictionaryVar
  3
ObjectDBX Classes
 90
        0
280
     0
281
     0
  0
CLASS
  1
ACDBPLACEHOLDER
  2
AcDbPlaceHolder
  3
ObjectDBX Classes
 90
        0
280
     0
281
     0
  0
CLASS
  1
LAYOUT
  2
AcDbLayout
  3
ObjectDBX Classes
 90
        0
280
     0
281
     0
  0
ENDSEC
  0
SECTION
  2
TABLES
  0
TABLE
  2
VPORT
  5
8
330
0
100
AcDbSymbolTable
 70
     1
  0
VPORT
  5
29
330
8
100
AcDbSymbolTableRecord
100
AcDbViewportTableRecord
  2
*Active
 70
     0
 10
0.0
 20
0.0
 11
1.0
 21
1.0
 12
344.1869158879
 22
148.5
 13
0.0
 23
0.0
 14
10.0
 24
10.0
 15
10.0
 25
10.0
 16
0.0
 26
0.0
 36
1.0
 17
0.0
 27
0.0
 37
0.0
 40
297.0
 41
1.9729729729
 42
50.0
 43
0.0
 44
0.0
 50
0.0
 51
0.0
 71
     0
 72
   100
 73
     1
 74
     3
 75
     0
 76
     0
 77
     0
 78
     0
281
     0
 65
     1
110
0.0
120
0.0
130
0.0
111
1.0
121
0.0
131
0.0
112
0.0
122
1.0
132
0.0
 79
     0
146
0.0
  0
ENDTAB
  0
TABLE
  2
LTYPE
  5
5
330
0
100
AcDbSymbolTable
 70
     3
  0
LTYPE
  5
14
330
5
100
AcDbSymbolTableRecord
100
AcDbLinetypeTableRecord
  2
ByBlock
 70
     0
  3

 72
    65
 73
     0
 40
0.0
  0
LTYPE
  5
15
330
5
100
AcDbSymbolTableRecord
100
AcDbLinetypeTableRecord
  2
ByLayer
 70
     0
  3

 72
    65
 73
     0
 40
0.0
  0
LTYPE
  5
16
330
5
100
AcDbSymbolTableRecord
100
AcDbLinetypeTableRecord
  2
Continuous
 70
     0
  3
Solid line
 72
    65
 73
     0
 40
0.0
  0
LTYPE
  5
60
330
5
100
AcDbSymbolTableRecord
100
AcDbLinetypeTableRecord
  2
CENTER2
 70
     0
  3
Center (.5x) ___ _ ___ _ ___ _ ___ _ ___ _ ___
 72
    65
 73
     4
 40
28.575
 49
19.05
 74
     4
 75
     0
340
0
 46
0.0
 50
0.0
 44
0.0
 45
0.0
 49
-3.175
 74
     4
 75
     0
340
0
 46
0.0
 50
0.0
 44
0.0
 45
0.0
 49
3.175
 74
     4
 75
     0
340
0
 46
0.0
 50
0.0
 44
0.0
 45
0.0
 49
-3.175
 74
     4
 75
     0
340
0
 46
0.0
 50
0.0
 44
0.0
 45
0.0
  0
LTYPE
  5
88
330
5
100
AcDbSymbolTableRecord
100
AcDbLinetypeTableRecord
  2
PHANTOM2
 70
     0
  3
Phantom (.5x) ___ _ _ ___ _ _ ___ _ _ ___ _ _
 72
    65
 73
     6
 40
31.75
 49
15.875
 74
     4
 75
     0
340
0
 46
0.0
 50
0.0
 44
0.0
 45
0.0
 49
-3.175
 74
     4
 75
     0
340
0
 46
0.0
 50
0.0
 44
0.0
 45
0.0
 49
3.175
 74
     4
 75
     0
340
0
 46
0.0
 50
0.0
 44
0.0
 45
0.0
 49
-3.175
 74
     4
 75
     0
340
0
 46
0.0
 50
0.0
 44
0.0
 45
0.0
 49
3.175
 74
     4
 75
     0
340
0
 46
0.0
 50
0.0
 44
0.0
 45
0.0
 49
-3.175
 74
     4
 75
     0
340
0
 46
0.0
 50
0.0
 44
0.0
 45
0.0
  0
ENDTAB
  0
TABLE
  2
LAYER
  5
2
330
0
100
AcDbSymbolTable
 70
    15
  0
LAYER
  5
10
330
2
100
AcDbSymbolTableRecord
100
AcDbLayerTableRecord
  2
0
 70
     0
 62
     7
  6
Continuous
370
    -3
390
F
  0
LAYER
  5
5D
330
2
100
AcDbSymbolTableRecord
100
AcDbLayerTableRecord
  2
Default
 70
     0
 62
     7
  6
Continuous
370
    -3
390
F
  0
LAYER
  5
87
330
2
100
AcDbSymbolTableRecord
100
AcDbLayerTableRecord
  2
$DDT_AUDIT_GENERATED_(87)
 70
     0
 62
     7
  6
Continuous
370
    -3
390
F
  0
LAYER
  5
8B
330
2
100
AcDbSymbolTableRecord
100
AcDbLayerTableRecord
  2
$DDT_AUDIT_GENERATED_(8B)
 70
     0
 62
     7
  6
Continuous
370
    -3
390
F
  0
LAYER
  5
95
330
2
100
AcDbSymbolTableRecord
100
AcDbLayerTableRecord
  2
$DDT_AUDIT_GENERATED_(95)
 70
     0
 62
     7
  6
Continuous
370
    -3
390
F
  0
LAYER
  5
9B
330
2
100
AcDbSymbolTableRecord
100
AcDbLayerTableRecord
  2
$DDT_AUDIT_GENERATED_(9B)
 70
     0
 62
     7
  6
Continuous
370
    -3
390
F
  0
LAYER
  5
9E
330
2
100
AcDbSymbolTableRecord
100
AcDbLayerTableRecord
  2
$DDT_AUDIT_GENERATED_(9E)
 70
     0
 62
     7
  6
Continuous
370
    -3
390
F
  0
LAYER
  5
A3
330
2
100
AcDbSymbolTableRecord
100
AcDbLayerTableRecord
  2
$DDT_AUDIT_GENERATED_(A3)
 70
     0
 62
     7
  6
Continuous
370
    -3
390
F
  0
LAYER
  5
B7
330
2
100
AcDbSymbolTableRecord
100
AcDbLayerTableRecord
  2
09076038_ROSETTE
 70
     0
 62
     7
  6
Continuous
370
    -3
390
F
  0
LAYER
  5
DE
330
2
100
AcDbSymbolTableRecord
100
AcDbLayerTableRecord
  2
$DDT_AUDIT_GENERATED_(DE)
 70
     0
 62
     7
  6
Continuous
370
    -3
390
F
  0
LAYER
  5
113
330
2
100
AcDbSymbolTableRecord
100
AcDbLayerTableRecord
  2
$DDT_AUDIT_GENERATED_(113)
 70
     0
 62
     7
  6
Continuous
370
    -3
390
F
  0
LAYER
  5
11A
330
2
100
AcDbSymbolTableRecord
100
AcDbLayerTableRecord
  2
$DDT_AUDIT_GENERATED_(11A)
 70
     0
 62
     7
  6
Continuous
370
    -3
390
F
  0
LAYER
  5
152
330
2
100
AcDbSymbolTableRecord
100
AcDbLayerTableRecord
  2
$DDT_AUDIT_GENERATED_(152)
 70
     0
 62
     7
  6
Continuous
370
    -3
390
F
  0
LAYER
  5
188
330
2
100
AcDbSymbolTableRecord
100
AcDbLayerTableRecord
  2
DV2_Default
 70
     0
 62
     7
  6
Continuous
370
    -3
390
F
  0
LAYER
  5
1A8
330
2
100
AcDbSymbolTableRecord
100
AcDbLayerTableRecord
  2
$DDT_AUDIT_GENERATED_(1A8)
 70
     0
 62
     7
  6
Continuous
370
    -3
390
F
  0
ENDTAB
  0
TABLE
  2
STYLE
  5
3
330
0
100
AcDbSymbolTable
 70
     2
  0
STYLE
  5
11
330
3
100
AcDbSymbolTableRecord
100
AcDbTextStyleTableRecord
  2
Standard
 70
     0
 40
0.0
 41
1.0
 50
0.0
 71
     0
 42
2.5
  3
txt
  4

  0
STYLE
  5
1F4
330
3
100
AcDbSymbolTableRecord
100
AcDbTextStyleTableRecord
  2
SEACAD_seiso_ttf
 70
     0
 40
0.0
 41
1.0
 50
0.0
 71
     0
 42
0.2
  3
seiso.ttf
  4

  0
ENDTAB
  0
TABLE
  2
VIEW
  5
6
330
0
100
AcDbSymbolTable
 70
     0
  0
ENDTAB
  0
TABLE
  2
UCS
  5
7
330
0
100
AcDbSymbolTable
 70
     0
  0
ENDTAB
  0
TABLE
  2
APPID
  5
9
330
0
100
AcDbSymbolTable
 70
     1
  0
APPID
  5
12
330
9
100
AcDbSymbolTableRecord
100
AcDbRegAppTableRecord
  2
ACAD
 70
     0
  0
ENDTAB
  0
TABLE
  2
DIMSTYLE
  5
A
330
0
100
AcDbSymbolTable
 70
     1
100
AcDbDimStyleTable
  0
DIMSTYLE
105
27
330
A
100
AcDbSymbolTableRecord
100
AcDbDimStyleTableRecord
  2
ISO-25
 70
     0
 41
2.5
 42
0.625
 43
3.75
 44
1.25
 73
     0
 74
     0
 77
     1
 78
     8
140
2.5
141
2.5
143
0.0393700787
147
0.625
171
     3
172
     1
271
     2
272
     2
274
     3
278
    44
283
     0
284
     8
340
11
  0
ENDTAB
  0
TABLE
  2
BLOCK_RECORD
  5
1
330
0
100
AcDbSymbolTable
 70
     9
  0
BLOCK_RECORD
  5
1F
330
1
100
AcDbSymbolTableRecord
100
AcDbBlockTableRecord
  2
*Model_Space
340
22
  0
BLOCK_RECORD
  5
1B
330
1
100
AcDbSymbolTableRecord
100
AcDbBlockTableRecord
  2
*Paper_Space
340
1E
  0
BLOCK_RECORD
  5
5E
330
1
100
AcDbSymbolTableRecord
100
AcDbBlockTableRecord
  2
SEANNOT_GROUP
340
0
102
{BLKREFS
331
5F
102
}
  0
BLOCK_RECORD
  5
69
330
1
100
AcDbSymbolTableRecord
100
AcDbBlockTableRecord
  2
SEANNOT_GROUP1
340
0
102
{BLKREFS
331
6A
102
}
  0
BLOCK_RECORD
  5
73
330
1
100
AcDbSymbolTableRecord
100
AcDbBlockTableRecord
  2
SEANNOT_GROUP2
340
0
102
{BLKREFS
331
74
102
}
  0
BLOCK_RECORD
  5
79
330
1
100
AcDbSymbolTableRecord
100
AcDbBlockTableRecord
  2
SEANNOT_GROUP3
340
0
102
{BLKREFS
331
7A
102
}
  0
BLOCK_RECORD
  5
7F
330
1
100
AcDbSymbolTableRecord
100
AcDbBlockTableRecord
  2
SEANNOT_GROUP4
340
0
102
{BLKREFS
331
80
102
}
  0
BLOCK_RECORD
  5
85
330
1
100
AcDbSymbolTableRecord
100
AcDbBlockTableRecord
  2
SE
340
0
102
{BLKREFS
331
86
102
}
  0
BLOCK_RECORD
  5
DC
330
1
100
AcDbSymbolTableRecord
100
AcDbBlockTableRecord
  2
SE1
340
0
102
{BLKREFS
331
DD
102
}
  0
BLOCK_RECORD
  5
18D
330
1
100
AcDbSymbolTableRecord
100
AcDbBlockTableRecord
  2
SE2
340
0
102
{BLKREFS
331
18E
102
}
  0
ENDTAB
  0
ENDSEC
  0
SECTION
  2
BLOCKS
  0
BLOCK
  5
20
330
1F
100
AcDbEntity
  8
0
100
AcDbBlockBegin
  2
*Model_Space
 70
     0
 10
0.0
 20
0.0
 30
0.0
  3
*Model_Space
  1

  0
ENDBLK
  5
21
330
1F
100
AcDbEntity
  8
0
100
AcDbBlockEnd
  0
BLOCK
  5
1C
330
1B
100
AcDbEntity
 67
     1
  8
0
100
AcDbBlockBegin
  2
*Paper_Space
 70
     0
 10
0.0
 20
0.0
 30
0.0
  3
*Paper_Space
  1

  0
ENDBLK
  5
1D
330
1B
100
AcDbEntity
 67
     1
  8
0
100
AcDbBlockEnd
  0
BLOCK
  5
67
330
5E
100
AcDbEntity
  8
0
100
AcDbBlockBegin
  2
SEANNOT_GROUP
 70
     0
 10
0.0
 20
0.0
 30
0.0
  3
SEANNOT_GROUP
  1

  0
LINE
  5
61
330
5E
100
AcDbEntity
  8
Default
  6
CENTER2
 62
     7
100
AcDbLine
 10
171.4235210565
 20
405.1803746057
 30
0.0
 11
131.4235219506
 21
405.1803746057
 31
0.0
  0
LINE
  5
62
330
5E
100
AcDbEntity
  8
Default
  6
CENTER2
 62
     7
100
AcDbLine
 10
151.4235215036
 20
425.1803741586
 30
0.0
 11
151.4235215036
 21
385.1803750527
 31
0.0
  0
LINE
  5
63
330
5E
100
AcDbEntity
  8
Default
  6
CENTER2
 62
     7
100
AcDbLine
 10
176.4235209448
 20
405.1803746057
 30
0.0
 11
181.1735215036
 21
405.1803746057
 31
0.0
  0
LINE
  5
64
330
5E
100
AcDbEntity
  8
Default
  6
CENTER2
 62
     7
100
AcDbLine
 10
151.4235215036
 20
430.1803740469
 30
0.0
 11
151.4235215036
 21
434.9303746057
 31
0.0
  0
LINE
  5
65
330
5E
100
AcDbEntity
  8
Default
  6
CENTER2
 62
     7
100
AcDbLine
 10
126.4235220623
 20
405.1803746057
 30
0.0
 11
121.6735215036
 21
405.1803746057
 31
0.0
  0
LINE
  5
66
330
5E
100
AcDbEntity
  8
Default
  6
CENTER2
 62
     7
100
AcDbLine
 10
151.4235215036
 20
380.1803751645
 30
0.0
 11
151.4235215036
 21
375.4303746057
 31
0.0
  0
ENDBLK
  5
68
330
5E
100
AcDbEntity
  8
0
100
AcDbBlockEnd
  0
BLOCK
  5
71
330
69
100
AcDbEntity
  8
0
100
AcDbBlockBegin
  2
SEANNOT_GROUP1
 70
     0
 10
0.0
 20
0.0
 30
0.0
  3
SEANNOT_GROUP1
  1

  0
LINE
  5
6B
330
69
100
AcDbEntity
  8
Default
  6
CENTER2
 62
     7
100
AcDbLine
 10
171.4235210565
 20
320.1803746057
 30
0.0
 11
131.4235219506
 21
320.1803746057
 31
0.0
  0
LINE
  5
6C
330
69
100
AcDbEntity
  8
Default
  6
CENTER2
 62
     7
100
AcDbLine
 10
151.4235215036
 20
340.1803741586
 30
0.0
 11
151.4235215036
 21
300.1803750527
 31
0.0
  0
LINE
  5
6D
330
69
100
AcDbEntity
  8
Default
  6
CENTER2
 62
     7
100
AcDbLine
 10
176.4235209448
 20
320.1803746057
 30
0.0
 11
181.1735215036
 21
320.1803746057
 31
0.0
  0
LINE
  5
6E
330
69
100
AcDbEntity
  8
Default
  6
CENTER2
 62
     7
100
AcDbLine
 10
151.4235215036
 20
345.1803740469
 30
0.0
 11
151.4235215036
 21
349.9303746057
 31
0.0
  0
LINE
  5
6F
330
69
100
AcDbEntity
  8
Default
  6
CENTER2
 62
     7
100
AcDbLine
 10
126.4235220623
 20
320.1803746057
 30
0.0
 11
121.6735215036
 21
320.1803746057
 31
0.0
  0
LINE
  5
70
330
69
100
AcDbEntity
  8
Default
  6
CENTER2
 62
     7
100
AcDbLine
 10
151.4235215036
 20
295.1803751645
 30
0.0
 11
151.4235215036
 21
290.4303746057
 31
0.0
  0
ENDBLK
  5
72
330
69
100
AcDbEntity
  8
0
100
AcDbBlockEnd
  0
BLOCK
  5
77
330
73
100
AcDbEntity
  8
0
100
AcDbBlockBegin
  2
SEANNOT_GROUP2
 70
     0
 10
0.0
 20
0.0
 30
0.0
  3
SEANNOT_GROUP2
  1

  0
LINE
  5
75
330
73
100
AcDbEntity
  8
Default
  6
CENTER2
 62
     7
100
AcDbLine
 10
343.616977421
 20
320.1794334339
 30
0.0
 11
303.616978315
 21
320.1794334339
 31
0.0
  0
LINE
  5
76
330
73
100
AcDbEntity
  8
Default
  6
CENTER2
 62
     7
100
AcDbLine
 10
323.616977868
 20
340.1794329869
 30
0.0
 11
323.616977868
 21
300.179433881
 31
0.0
  0
ENDBLK
  5
78
330
73
100
AcDbEntity
  8
0
100
AcDbBlockEnd
  0
BLOCK
  5
7D
330
79
100
AcDbEntity
  8
0
100
AcDbBlockBegin
  2
SEANNOT_GROUP3
 70
     0
 10
0.0
 20
0.0
 30
0.0
  3
SEANNOT_GROUP3
  1

  0
LINE
  5
7B
330
79
100
AcDbEntity
  8
Default
  6
CENTER2
 62
     7
100
AcDbLine
 10
343.616977421
 20
426.1803746057
 30
0.0
 11
303.616978315
 21
426.1803746057
 31
0.0
  0
LINE
  5
7C
330
79
100
AcDbEntity
  8
Default
  6
CENTER2
 62
     7
100
AcDbLine
 10
323.616977868
 20
446.1803741586
 30
0.0
 11
323.616977868
 21
406.1803750527
 31
0.0
  0
ENDBLK
  5
7E
330
79
100
AcDbEntity
  8
0
100
AcDbBlockEnd
  0
BLOCK
  5
83
330
7F
100
AcDbEntity
  8
0
100
AcDbBlockBegin
  2
SEANNOT_GROUP4
 70
     0
 10
0.0
 20
0.0
 30
0.0
  3
SEANNOT_GROUP4
  1

  0
LINE
  5
81
330
7F
100
AcDbEntity
  8
Default
  6
CENTER2
 62
     7
100
AcDbLine
 10
171.4235210565
 20
204.25
 30
0.0
 11
131.4235219506
 21
204.25
 31
0.0
  0
LINE
  5
82
330
7F
100
AcDbEntity
  8
Default
  6
CENTER2
 62
     7
100
AcDbLine
 10
151.4235215036
 20
224.249999553
 30
0.0
 11
151.4235215036
 21
184.250000447
 31
0.0
  0
ENDBLK
  5
84
330
7F
100
AcDbEntity
  8
0
100
AcDbBlockEnd
  0
BLOCK
  5
DA
330
85
100
AcDbEntity
  8
0
100
AcDbBlockBegin
  2
SE
 70
     0
 10
0.0
 20
0.0
 30
0.0
  3
SE
  1

  0
LINE
  5
89
330
85
100
AcDbEntity
  8
$DDT_AUDIT_GENERATED_(87)
  6
PHANTOM2
 62
     7
100
AcDbLine
 10
250.2482105098
 20
329.9408906914
 30
0.0
 11
250.2482105098
 21
332.4639229818
 31
0.0
  0
LINE
  5
8A
330
85
100
AcDbEntity
  8
$DDT_AUDIT_GENERATED_(87)
  6
PHANTOM2
 62
     7
100
AcDbLine
 10
52.5988324973
 20
332.4639229818
 30
0.0
 11
52.5988324973
 21
329.9408906914
 31
0.0
  0
LINE
  5
8C
330
85
100
AcDbEntity
  8
$DDT_AUDIT_GENERATED_(8B)
  6
Continuous
 62
     7
100
AcDbLine
 10
146.4243112404
 20
342.3198491937
 30
0.0
 11
146.4243112404
 21
342.1651998227
 31
0.0
  0
LINE
  5
8D
330
85
100
AcDbEntity
  8
$DDT_AUDIT_GENERATED_(8B)
  6
Continuous
 62
     7
100
AcDbLine
 10
156.4243112404
 20
342.3198491937
 30
0.0
 11
156.4243112404
 21
342.1651998228
 31
0.0
  0
LINE
  5
8E
330
85
100
AcDbEntity
  8
$DDT_AUDIT_GENERATED_(8B)
  6
Continuous
 62
     7
100
AcDbLine
 10
146.4243112404
 20
340.5755114883
 30
0.0
 11
146.4243112404
 21
342.1651998227
 31
0.0
  0
LINE
  5
8F
330
85
100
AcDbEntity
  8
$DDT_AUDIT_GENERATED_(8B)
  6
Continuous
 62
     7
100
AcDbLine
 10
156.4243112404
 20
340.5755114883
 30
0.0
 11
156.4243112404
 21
342.1651998228
 31
0.0
  0
ARC
  5
90
330
85
100
AcDbEntity
  8
$DDT_AUDIT_GENERATED_(8B)
  6
Continuous
 62
     7
100
AcDbCircle
 10
151.4243119633
 20
337.6294340127
 30
0.0
 40
7.700000000000631
100
AcDbArc
 50
51.3178275357
 51
128.6821943441
  0
LINE
  5
91
330
85
100
AcDbEntity
  8
$DDT_AUDIT_GENERATED_(8B)
  6
Continuous
 62
     7
100
AcDbLine
 10
156.4243112404
 20
342.3198491937
 30
0.0
 11
156.4243112404
 21
343.2574636995
 31
0.0
  0
LINE
  5
92
330
85
100
AcDbEntity
  8
$DDT_AUDIT_GENERATED_(8B)
  6
Continuous
 62
     7
100
AcDbLine
 10
146.4243112404
 20
343.2499316325
 30
0.0
 11
146.4243112404
 21
342.3198491937
 31
0.0
  0
ARC
  5
93
330
85
100
AcDbEntity
  8
$DDT_AUDIT_GENERATED_(8B)
  6
Continuous
 62
     7
100
AcDbCircle
 10
155.9243112401
 20
343.2499316329
 30
0.0
 40
0.4999999998939161
100
AcDbArc
 50
0.841571571
 51
51.3315433397
  0
ARC
  5
94
330
85
100
AcDbEntity
  8
$DDT_AUDIT_GENERATED_(8B)
  6
Continuous
 62
     7
100
AcDbCircle
 10
146.8070905067
 20
343.293155527
 30
0.0
 40
0.3764102941518478
100
AcDbArc
 50
143.5240523408
 51
184.708877702
  0
ARC
  5
96
330
85
100
AcDbEntity
  8
$DDT_AUDIT_GENERATED_(95)
  6
Continuous
 62
     7
100
AcDbCircle
 10
151.4243112404
 20
320.1794334339
 30
0.0
 40
14.0
100
AcDbArc
 50
295.3769335252
 51
0.0
  0
ARC
  5
97
330
85
100
AcDbEntity
  8
$DDT_AUDIT_GENERATED_(95)
  6
Continuous
 62
     7
100
AcDbCircle
 10
151.4243112404
 20
320.1794334339
 30
0.0
 40
14.0
100
AcDbArc
 50
115.3769335252
 51
244.6230664748
  0
ARC
  5
98
330
85
100
AcDbEntity
  8
$DDT_AUDIT_GENERATED_(95)
  6
Continuous
 62
     7
100
AcDbCircle
 10
151.4243112404
 20
320.1794334339
 30
0.0
 40
14.0
100
AcDbArc
 50
0.0
 51
64.6230664748
  0
ARC
  5
99
330
85
100
AcDbEntity
  8
$DDT_AUDIT_GENERATED_(95)
  6
Continuous
 62
     7
100
AcDbCircle
 10
151.4243112404
 20
320.1794334339
 30
0.0
 40
21.0
100
AcDbArc
 50
286.601549599
 51
0.0
  0
ARC
  5
9A
330
85
100
AcDbEntity
  8
$DDT_AUDIT_GENERATED_(95)
  6
Continuous
 62
     7
100
AcDbCircle
 10
151.4243112404
 20
320.1794334339
 30
0.0
 40
21.0
100
AcDbArc
 50
0.0
 51
253.398450401
  0
ARC
  5
9C
330
85
100
AcDbEntity
  8
$DDT_AUDIT_GENERATED_(9B)
  6
Continuous
 62
     7
100
AcDbCircle
 10
151.4235215036
 20
320.1803746057
 30
0.0
 40
26.25
100
AcDbArc
 50
283.214750996
 51
0.0
  0
ARC
  5
9D
330
85
100
AcDbEntity
  8
$DDT_AUDIT_GENERATED_(9B)
  6
Continuous
 62
     7
100
AcDbCircle
 10
151.4235215036
 20
320.1803746057
 30
0.0
 40
26.25
100
AcDbArc
 50
0.0
 51
256.7887902628
  0
ARC
  5
9F
330
85
100
AcDbEntity
  8
$DDT_AUDIT_GENERATED_(9E)
  6
Continuous
 62
     7
100
AcDbCircle
 10
151.4235215036
 20
320.1803746057
 30
0.0
 40
26.55
100
AcDbArc
 50
0.0
 51
256.940725418
  0
ARC
  5
A0
330
85
100
AcDbEntity
  8
$DDT_AUDIT_GENERATED_(9E)
  6
Continuous
 62
     7
100
AcDbCircle
 10
151.4235215036
 20
320.1803746057
 30
0.0
 40
26.55
100
AcDbArc
 50
283.06277366
 51
0.0
  0
ARC
  5
A1
330
85
100
AcDbEntity
  8
$DDT_AUDIT_GENERATED_(9B)
  6
Continuous
 62
     7
100
AcDbCircle
 10
151.4235215036
 20
405.1803746057
 30
0.0
 40
26.25
100
AcDbArc
 50
103.2129803602
 51
0.0
  0
ARC
  5
A2
330
85
100
AcDbEntity
  8
$DDT_AUDIT_GENERATED_(9B)
  6
Continuous
 62
     7
100
AcDbCircle
 10
151.4235215036
 20
405.1803746057
 30
0.0
 40
26.25
100
AcDbArc
 50
0.0
 51
76.7870196398
  0
LINE
  5
A4
330
85
100
AcDbEntity
  8
$DDT_AUDIT_GENERATED_(A3)
  6
Continuous
 62
     7
100
AcDbLine
 10
145.9243112404
 20
260.1794334339
 30
0.0
 11
156.9243112404
 21
260.1794334339
 31
0.0
  0
ARC
  5
A5
330
85
100
AcDbEntity
  8
$DDT_AUDIT_GENERATED_(A3)
  6
Continuous
 62
     7
100
AcDbCircle
 10
151.4243112404
 20
320.1794334339
 30
0.0
 40
11.0
100
AcDbArc
 50
122.9261300415
 51
237.0738699585
  0
LINE
  5
A6
330
85
100
AcDbEntity
  8
$DDT_AUDIT_GENERATED_(A3)
  6
Continuous
 62
     7
100
AcDbLine
 10
145.4243112404
 20
328.7962774037
 30
0.0
 11
145.4243112404
 21
311.5625894641
 31
0.0
  0
ARC
  5
A7
330
85
100
AcDbEntity
  8
$DDT_AUDIT_GENERATED_(A3)
  6
Continuous
 62
     7
100
AcDbCircle
 10
151.4243112404
 20
320.1794334339
 30
0.0
 40
11.0
100
AcDbArc
 50
302.9261300415
 51
57.0738699585
  0
LINE
  5
A8
330
85
100
AcDbEntity
  8
$DDT_AUDIT_GENERATED_(A3)
  6
Continuous
 62
     7
100
AcDbLine
 10
157.4243112404
 20
311.5625894641
 30
0.0
 11
157.4243112404
 21
328.7962774037
 31
0.0
  0
LINE
  5
A9
330
85
100
AcDbEntity
  8
$DDT_AUDIT_GENERATED_(A3)
  6
Continuous
 62
     7
100
AcDbLine
 10
156.9243112404
 20
336.1794334339
 30
0.0
 11
145.9243112404
 21
336.1794334339
 31
0.0
  0
LINE
  5
AA
330
85
100
AcDbEntity
  8
$DDT_AUDIT_GENERATED_(A3)
  6
Continuous
 62
     7
100
AcDbLine
 10
145.4243112404
 20
311.5625894641
 30
0.0
 11
145.4243112404
 21
260.6794334339
 31
0.0
  0
LINE
  5
AB
330
85
100
AcDbEntity
  8
$DDT_AUDIT_GENERATED_(A3)
  6
Continuous
 62
     7
100
AcDbLine
 10
145.4243112404
 20
335.6794334339
 30
0.0
 11
145.4243112404
 21
328.7962774037
 31
0.0
  0
LINE
  5
AC
330
85
100
AcDbEntity
  8
$DDT_AUDIT_GENERATED_(A3)
  6
Continuous
 62
     7
100
AcDbLine
 10
157.4243112404
 20
328.7962774037
 30
0.0
 11
157.4243112404
 21
335.6794334339
 31
0.0
  0
LINE
  5
AD
330
85
100
AcDbEntity
  8
$DDT_AUDIT_GENERATED_(A3)
  6
Continuous
 62
     7
100
AcDbLine
 10
157.4243112404
 20
260.6794334339
 30
0.0
 11
157.4243112404
 21
311.5625894641
 31
0.0
  0
ARC
  5
AE
330
85
100
AcDbEntity
  8
$DDT_AUDIT_GENERATED_(A3)
  6
Continuous
 62
     7
100
AcDbCircle
 10
156.9243112404
 20
260.6794334339
 30
0.0
 40
0.5000000000000004
100
AcDbArc
 50
270.0
 51
0.0
  0
ARC
  5
AF
330
85
100
AcDbEntity
  8
$DDT_AUDIT_GENERATED_(A3)
  6
Continuous
 62
     7
100
AcDbCircle
 10
145.9243112404
 20
260.6794334339
 30
0.0
 40
0.4999999999999996
100
AcDbArc
 50
180.0
 51
270.0
  0
ARC
  5
B0
330
85
100
AcDbEntity
  8
$DDT_AUDIT_GENERATED_(A3)
  6
Continuous
 62
     7
100
AcDbCircle
 10
156.9243112404
 20
335.6794334339
 30
0.0
 40
0.4999999999999996
100
AcDbArc
 50
0.0
 51
90.0
  0
ARC
  5
B1
330
85
100
AcDbEntity
  8
$DDT_AUDIT_GENERATED_(A3)
  6
Continuous
 62
     7
100
AcDbCircle
 10
145.9243112404
 20
335.6794334339
 30
0.0
 40
0.4999999999999987
100
AcDbArc
 50
90.0
 51
180.0
  0
ARC
  5
B2
330
85
100
AcDbEntity
  8
$DDT_AUDIT_GENERATED_(95)
  6
Continuous
 62
     7
100
AcDbCircle
 10
151.4235215036
 20
405.1803746057
 30
0.0
 40
14.0
100
AcDbArc
 50
295.3769335252
 51
0.0
  0
ARC
  5
B3
330
85
100
AcDbEntity
  8
$DDT_AUDIT_GENERATED_(95)
  6
Continuous
 62
     7
100
AcDbCircle
 10
151.4235215036
 20
405.1803746057
 30
0.0
 40
14.0
100
AcDbArc
 50
115.3769335252
 51
244.6230664748
  0
ARC
  5
B4
330
85
100
AcDbEntity
  8
$DDT_AUDIT_GENERATED_(95)
  6
Continuous
 62
     7
100
AcDbCircle
 10
151.4235215036
 20
405.1803746057
 30
0.0
 40
14.0
100
AcDbArc
 50
0.0
 51
64.6230664748
  0
ARC
  5
B5
330
85
100
AcDbEntity
  8
$DDT_AUDIT_GENERATED_(95)
  6
Continuous
 62
     7
100
AcDbCircle
 10
151.4235215036
 20
405.1803746057
 30
0.0
 40
21.0
100
AcDbArc
 50
106.601549599
 51
0.0
  0
ARC
  5
B6
330
85
100
AcDbEntity
  8
$DDT_AUDIT_GENERATED_(95)
  6
Continuous
 62
     7
100
AcDbCircle
 10
151.4235215036
 20
405.1803746057
 30
0.0
 40
21.0
100
AcDbArc
 50
0.0
 51
73.398450401
  0
ARC
  5
B8
330
85
100
AcDbEntity
  8
09076038_ROSETTE
  6
Continuous
 62
     7
100
AcDbCircle
 10
151.4235215036
 20
320.1803746057
 30
0.0
 40
26.75
100
AcDbArc
 50
0.0
 51
257.040071634
  0
ARC
  5
B9
330
85
100
AcDbEntity
  8
09076038_ROSETTE
  6
Continuous
 62
     7
100
AcDbCircle
 10
151.4235215036
 20
320.1803746057
 30
0.0
 40
26.75
100
AcDbArc
 50
282.9633998913
 51
0.0
  0
ARC
  5
BA
330
85
100
AcDbEntity
  8
09076038_ROSETTE
  6
Continuous
 62
     7
100
AcDbCircle
 10
151.4235215036
 20
405.1803746057
 30
0.0
 40
26.75
100
AcDbArc
 50
0.0
 51
77.0383358774
  0
ARC
  5
BB
330
85
100
AcDbEntity
  8
09076038_ROSETTE
  6
Continuous
 62
     7
100
AcDbCircle
 10
151.4235215036
 20
405.1803746057
 30
0.0
 40
26.75
100
AcDbArc
 50
102.9616641226
 51
0.0
  0
ARC
  5
BC
330
85
100
AcDbEntity
  8
09076038_ROSETTE
  6
Continuous
 62
     7
100
AcDbCircle
 10
151.4235215036
 20
357.6803746057
 30
0.0
 40
89.412572347315
100
AcDbArc
 50
0.0
 51
86.1522949495
  0
ARC
  5
BD
330
85
100
AcDbEntity
  8
09076038_ROSETTE
  6
Continuous
 62
     7
100
AcDbCircle
 10
151.4235215036
 20
357.6803746057
 30
0.0
 40
89.412572347315
100
AcDbArc
 50
93.8477050505
 51
266.1528021578
  0
ARC
  5
BE
330
85
100
AcDbEntity
  8
09076038_ROSETTE
  6
Continuous
 62
     7
100
AcDbCircle
 10
151.4235215036
 20
357.6803746057
 30
0.0
 40
89.412572347315
100
AcDbArc
 50
273.8482122591
 51
0.0
  0
ARC
  5
BF
330
85
100
AcDbEntity
  8
09076038_ROSETTE
  6
Continuous
 62
     7
100
AcDbCircle
 10
151.4235215036
 20
357.6803746057
 30
0.0
 40
101.9911201510935
100
AcDbArc
 50
273.3725806309
 51
86.6274193691
  0
ARC
  5
C0
330
85
100
AcDbEntity
  8
09076038_ROSETTE
  6
Continuous
 62
     7
100
AcDbCircle
 10
151.4235215036
 20
357.6803746057
 30
0.0
 40
101.9911201510935
100
AcDbArc
 50
93.3725806309
 51
266.6274193691
  0
ARC
  5
C1
330
85
100
AcDbEntity
  8
09076038_ROSETTE
  6
Continuous
 62
     7
100
AcDbCircle
 10
151.4235215036
 20
351.1803746057
 30
0.0
 40
0.99585919546394
100
AcDbArc
 50
180.0
 51
0.0
  0
LINE
  5
C2
330
85
100
AcDbEntity
  8
09076038_ROSETTE
  6
Continuous
 62
     7
100
AcDbLine
 10
145.4235215036
 20
255.8658933681
 30
0.0
 11
145.4235215036
 21
255.9181968776
 31
0.0
  0
ARC
  5
C3
330
85
100
AcDbEntity
  8
09076038_ROSETTE
  6
Continuous
 62
     7
100
AcDbCircle
 10
151.4235215036
 20
357.6803746057
 30
0.0
 40
101.921452207823
100
AcDbArc
 50
267.1880902012
 51
272.8119097988
  0
ARC
  5
C4
330
85
100
AcDbEntity
  8
09076038_ROSETTE
  6
Continuous
 62
     7
100
AcDbCircle
 10
145.4355587358
 20
242.5519702321
 30
0.0
 40
13.36623206565007
100
AcDbArc
 50
85.7611264407
 51
90.0515988868
  0
LINE
  5
C5
330
85
100
AcDbEntity
  8
09076038_ROSETTE
  6
Continuous
 62
     7
100
AcDbLine
 10
157.4235215036
 20
255.9181968776
 30
0.0
 11
157.4235215036
 21
255.8658933681
 31
0.0
  0
ARC
  5
C6
330
85
100
AcDbEntity
  8
09076038_ROSETTE
  6
Continuous
 62
     7
100
AcDbCircle
 10
157.6292375009
 20
236.5954526581
 30
0.0
 40
19.32383924693813
100
AcDbArc
 50
90.6099658003
 51
93.5773088722
  0
LINE
  5
C7
330
85
100
AcDbEntity
  8
$DDT_AUDIT_GENERATED_(A3)
  6
Continuous
 62
     7
100
AcDbLine
 10
156.9235215036
 20
465.1803746057
 30
0.0
 11
145.9235215036
 21
465.1803746057
 31
0.0
  0
ARC
  5
C8
330
85
100
AcDbEntity
  8
$DDT_AUDIT_GENERATED_(A3)
  6
Continuous
 62
     7
100
AcDbCircle
 10
151.4235215036
 20
405.1803746057
 30
0.0
 40
10.99999999999999
100
AcDbArc
 50
302.9261300415
 51
57.0738699585
  0
LINE
  5
C9
330
85
100
AcDbEntity
  8
$DDT_AUDIT_GENERATED_(A3)
  6
Continuous
 62
     7
100
AcDbLine
 10
157.4235215036
 20
396.5635306359
 30
0.0
 11
157.4235215036
 21
413.7972185755
 31
0.0
  0
ARC
  5
CA
330
85
100
AcDbEntity
  8
$DDT_AUDIT_GENERATED_(A3)
  6
Continuous
 62
     7
100
AcDbCircle
 10
151.4235215036
 20
405.1803746057
 30
0.0
 40
11.0
100
AcDbArc
 50
122.9261300415
 51
237.0738699585
  0
LINE
  5
CB
330
85
100
AcDbEntity
  8
$DDT_AUDIT_GENERATED_(A3)
  6
Continuous
 62
     7
100
AcDbLine
 10
145.4235215036
 20
413.7972185755
 30
0.0
 11
145.4235215036
 21
396.5635306359
 31
0.0
  0
LINE
  5
CC
330
85
100
AcDbEntity
  8
$DDT_AUDIT_GENERATED_(A3)
  6
Continuous
 62
     7
100
AcDbLine
 10
145.9235215036
 20
389.1803746057
 30
0.0
 11
156.9235215036
 21
389.1803746057
 31
0.0
  0
LINE
  5
CD
330
85
100
AcDbEntity
  8
$DDT_AUDIT_GENERATED_(A3)
  6
Continuous
 62
     7
100
AcDbLine
 10
157.4235215036
 20
413.7972185755
 30
0.0
 11
157.4235215036
 21
464.6803746057
 31
0.0
  0
LINE
  5
CE
330
85
100
AcDbEntity
  8
$DDT_AUDIT_GENERATED_(A3)
  6
Continuous
 62
     7
100
AcDbLine
 10
157.4235215036
 20
389.6803746057
 30
0.0
 11
157.4235215036
 21
396.5635306359
 31
0.0
  0
LINE
  5
CF
330
85
100
AcDbEntity
  8
$DDT_AUDIT_GENERATED_(A3)
  6
Continuous
 62
     7
100
AcDbLine
 10
145.4235215036
 20
396.5635306359
 30
0.0
 11
145.4235215036
 21
389.6803746057
 31
0.0
  0
LINE
  5
D0
330
85
100
AcDbEntity
  8
$DDT_AUDIT_GENERATED_(A3)
  6
Continuous
 62
     7
100
AcDbLine
 10
145.4235215036
 20
464.6803746057
 30
0.0
 11
145.4235215036
 21
413.7972185755
 31
0.0
  0
ARC
  5
D1
330
85
100
AcDbEntity
  8
$DDT_AUDIT_GENERATED_(A3)
  6
Continuous
 62
     7
100
AcDbCircle
 10
145.9235215036
 20
464.6803746057
 30
0.0
 40
0.5000000000000004
100
AcDbArc
 50
90.0
 51
180.0
  0
ARC
  5
D2
330
85
100
AcDbEntity
  8
$DDT_AUDIT_GENERATED_(A3)
  6
Continuous
 62
     7
100
AcDbCircle
 10
156.9235215036
 20
464.6803746057
 30
0.0
 40
0.4999999999999996
100
AcDbArc
 50
0.0
 51
90.0
  0
ARC
  5
D3
330
85
100
AcDbEntity
  8
$DDT_AUDIT_GENERATED_(A3)
  6
Continuous
 62
     7
100
AcDbCircle
 10
145.9235215036
 20
389.6803746057
 30
0.0
 40
0.4999999999999996
100
AcDbArc
 50
180.0
 51
270.0
  0
ARC
  5
D4
330
85
100
AcDbEntity
  8
$DDT_AUDIT_GENERATED_(A3)
  6
Continuous
 62
     7
100
AcDbCircle
 10
156.9235215036
 20
389.6803746057
 30
0.0
 40
0.5000000000000004
100
AcDbArc
 50
270.0
 51
0.0
  0
ARC
  5
D5
330
85
100
AcDbEntity
  8
$DDT_AUDIT_GENERATED_(9E)
  6
Continuous
 62
     7
100
AcDbCircle
 10
151.4235215036
 20
405.1803746057
 30
0.0
 40
26.25
100
AcDbArc
 50
0.0
 51
76.7870196398
  0
ARC
  5
D6
330
85
100
AcDbEntity
  8
$DDT_AUDIT_GENERATED_(9E)
  6
Continuous
 62
     7
100
AcDbCircle
 10
151.4235215036
 20
405.1803746057
 30
0.0
 40
26.25
100
AcDbArc
 50
103.2129803602
 51
180.0
  0
ARC
  5
D7
330
85
100
AcDbEntity
  8
$DDT_AUDIT_GENERATED_(9E)
  6
Continuous
 62
     7
100
AcDbCircle
 10
151.4235215036
 20
405.1803746057
 30
0.0
 40
26.25
100
AcDbArc
 50
270.0
 51
0.0
  0
ARC
  5
D8
330
85
100
AcDbEntity
  8
$DDT_AUDIT_GENERATED_(9E)
  6
Continuous
 62
     7
100
AcDbCircle
 10
151.4235215036
 20
405.1803746057
 30
0.0
 40
26.55
100
AcDbArc
 50
0.0
 51
76.9389758852
  0
ARC
  5
D9
330
85
100
AcDbEntity
  8
$DDT_AUDIT_GENERATED_(9E)
  6
Continuous
 62
     7
100
AcDbCircle
 10
151.4235215036
 20
405.1803746057
 30
0.0
 40
26.55
100
AcDbArc
 50
103.0610241148
 51
0.0
  0
ENDBLK
  5
DB
330
85
100
AcDbEntity
  8
0
100
AcDbBlockEnd
  0
BLOCK
  5
18B
330
DC
100
AcDbEntity
  8
0
100
AcDbBlockBegin
  2
SE1
 70
     0
 10
0.0
 20
0.0
 30
0.0
  3
SE1
  1

  0
LINE
  5
DF
330
DC
100
AcDbEntity
  8
$DDT_AUDIT_GENERATED_(DE)
  6
PHANTOM2
 62
     7
100
AcDbLine
 10
340.216977868
 20
337.0059129212
 30
0.0
 11
340.316977868
 21
337.0059129212
 31
0.0
  0
LINE
  5
E0
330
DC
100
AcDbEntity
  8
$DDT_AUDIT_GENERATED_(DE)
  6
PHANTOM2
 62
     7
100
AcDbLine
 10
340.216977868
 20
323.0545568232
 30
0.0
 11
340.316977868
 21
323.0545568232
 31
0.0
  0
LINE
  5
E1
330
DC
100
AcDbEntity
  8
$DDT_AUDIT_GENERATED_(DE)
  6
PHANTOM2
 62
     7
100
AcDbLine
 10
340.216977868
 20
306.2290185076
 30
0.0
 11
340.316977868
 21
306.2290185076
 31
0.0
  0
LINE
  5
E2
330
DC
100
AcDbEntity
  8
$DDT_AUDIT_GENERATED_(DE)
  6
PHANTOM2
 62
     7
100
AcDbLine
 10
340.316977868
 20
302.182181597
 30
0.0
 11
340.216977868
 21
302.182181597
 31
0.0
  0
LINE
  5
E3
330
DC
100
AcDbEntity
  8
$DDT_AUDIT_GENERATED_(DE)
  6
PHANTOM2
 62
     7
100
AcDbLine
 10
340.316977868
 20
311.4021543475
 30
0.0
 11
340.216977868
 21
311.4021543475
 31
0.0
  0
LINE
  5
E4
330
DC
100
AcDbEntity
  8
$DDT_AUDIT_GENERATED_(DE)
  6
PHANTOM2
 62
     7
100
AcDbLine
 10
340.316977868
 20
329.4003473562
 30
0.0
 11
340.216977868
 21
329.4003473562
 31
0.0
  0
SPLINE
  5
E5
330
DC
100
AcDbEntity
  8
$DDT_AUDIT_GENERATED_(DE)
  6
PHANTOM2
 62
     7
100
AcDbSpline
210
0.0
220
0.0
230
1.0
 70
     8
 71
     3
 72
    16
 73
    12
 74
     0
 42
0.0000000095568261
 43
0.0000000001
 40
0.0
 40
0.0
 40
0.0
 40
0.0
 40
0.4999999999999983
 40
0.4999999999999983
 40
0.7499999999999969
 40
0.7499999999999969
 40
0.8749999999999972
 40
0.8749999999999972
 40
0.9374999999999987
 40
0.9374999999999987
 40
1.0
 40
1.0
 40
1.0
 40
1.0
 10
340.7169778680091
 20
330.2743877608344
 30
0.0
 10
340.7169778680091
 20
330.1146228866197
 30
0.0
 10
340.7033782149476
 20
329.9541879568698
 30
0.0
 10
340.637354875088
 20
329.7181057145626
 30
0.0
 10
340.608116785769
 20
329.6398353028264
 30
0.0
 10
340.5373934341354
 20
329.5290312270553
 30
0.0
 10
340.5092697806369
 20
329.4927953236496
 30
0.0
 10
340.4519566499636
 20
329.4453286922497
 30
0.0
 10
340.4301711954938
 20
329.4306499058563
 30
0.0
 10
340.3787668383392
 20
329.4080141337878
 30
0.0
 10
340.3480038798544
 20
329.400347356191
 30
0.0
 10
340.3169778680091
 20
329.4003473561913
 30
0.0
  0
SPLINE
  5
E6
330
DC
100
AcDbEntity
  8
$DDT_AUDIT_GENERATED_(DE)
  6
PHANTOM2
 62
     7
100
AcDbSpline
210
0.0
220
0.0
230
1.0
 70
     8
 71
     3
 72
    16
 73
    12
 74
     0
 42
0.0000000095567314
 43
0.0000000001
 40
0.0
 40
0.0
 40
0.0
 40
0.0
 40
0.0625000000000006
 40
0.0625000000000006
 40
0.1250000000000012
 40
0.1250000000000012
 40
0.2500000000000011
 40
0.2500000000000011
 40
0.5000000000000001
 40
0.5000000000000001
 40
1.0
 40
1.0
 40
1.0
 40
1.0
 10
340.3169778680091
 20
337.0059129211784
 30
0.0
 10
340.3484707684921
 20
337.0059129211784
 30
0.0
 10
340.3792140489134
 20
336.9981604952608
 30
0.0
 10
340.4313493161346
 20
336.9749767864313
 30
0.0
 10
340.4530767251127
 20
336.9601516779691
 30
0.0
 10
340.5107012063097
 20
336.9119694031282
 30
0.0
 10
340.5386028524138
 20
336.8756496081297
 30
0.0
 10
340.6094765079814
 20
336.7636380275483
 30
0.0
 10
340.6380553032744
 20
336.6861294681598
 30
0.0
 10
340.7035367951349
 20
336.4505290759091
 30
0.0
 10
340.7169778680091
 20
336.2900577690168
 30
0.0
 10
340.7169778680091
 20
336.1318725165354
 30
0.0
  0
SPLINE
  5
E7
330
DC
100
AcDbEntity
  8
$DDT_AUDIT_GENERATED_(DE)
  6
PHANTOM2
 62
     7
100
AcDbSpline
210
0.0
220
0.0
230
1.0
 70
     8
 71
     3
 72
    16
 73
    12
 74
     0
 42
0.0000000144707713
 43
0.0000000001
 40
0.0
 40
0.0
 40
0.0
 40
0.0
 40
0.4999999999999977
 40
0.4999999999999977
 40
0.7499999999999971
 40
0.7499999999999971
 40
0.8749999999999972
 40
0.8749999999999972
 40
0.9374999999999987
 40
0.9374999999999987
 40
1.0
 40
1.0
 40
1.0
 40
1.0
 10
340.7169778680091
 20
302.6472487823935
 30
0.0
 10
340.7169778680091
 20
302.5626706995497
 30
0.0
 10
340.7035638885717
 20
302.4774631807149
 30
0.0
 10
340.6376160357644
 20
302.3516371760012
 30
0.0
 10
340.6082737049401
 20
302.3097956022347
 30
0.0
 10
340.5376141460069
 20
302.2508098617735
 30
0.0
 10
340.5095417755298
 20
302.2315243502768
 30
0.0
 10
340.4521876914881
 20
302.2062014570221
 30
0.0
 10
340.430410031554
 20
302.1983844139415
 30
0.0
 10
340.3791623591023
 20
302.18633075479
 30
0.0
 10
340.3486303620362
 20
302.1821815969573
 30
0.0
 10
340.3169778680091
 20
302.18218159696
 30
0.0
  0
SPLINE
  5
E8
330
DC
100
AcDbEntity
  8
$DDT_AUDIT_GENERATED_(DE)
  6
PHANTOM2
 62
     7
100
AcDbSpline
210
0.0
220
0.0
230
1.0
 70
     8
 71
     3
 72
    16
 73
    12
 74
     0
 42
0.000000014471659
 43
0.0000000001
 40
0.0
 40
0.0
 40
0.0
 40
0.0
 40
0.0624999999999978
 40
0.0624999999999978
 40
0.1249999999999956
 40
0.1249999999999956
 40
0.2499999999999943
 40
0.2499999999999943
 40
0.4999999999999951
 40
0.4999999999999951
 40
1.0
 40
1.0
 40
1.0
 40
1.0
 10
340.3169778680091
 20
306.2290185076437
 30
0.0
 10
340.3489692948525
 20
306.2290185076437
 30
0.0
 10
340.379368193432
 20
306.2248584666958
 30
0.0
 10
340.4312334818016
 20
306.2125837297723
 30
0.0
 10
340.4531533111954
 20
306.2046372171044
 30
0.0
 10
340.5106309309672
 20
306.1790598040392
 30
0.0
 10
340.538621908699
 20
306.1596710364646
 30
0.0
 10
340.6090050403201
 20
306.100542590509
 30
0.0
 10
340.6382546711935
 20
306.0585398408471
 30
0.0
 10
340.7034772387797
 20
305.9335060487121
 30
0.0
 10
340.7169778680091
 20
305.8489895216753
 30
0.0
 10
340.7169778680091
 20
305.7639513222102
 30
0.0
  0
SPLINE
  5
E9
330
DC
100
AcDbEntity
  8
$DDT_AUDIT_GENERATED_(DE)
  6
PHANTOM2
 62
     7
100
AcDbSpline
210
0.0
220
0.0
230
1.0
 70
     8
 71
     3
 72
    16
 73
    12
 74
     0
 42
0.0000000067654552
 43
0.0000000001
 40
0.0
 40
0.0
 40
0.0
 40
0.0
 40
0.5000000000000019
 40
0.5000000000000019
 40
0.7500000000000019
 40
0.7500000000000019
 40
0.875000000000001
 40
0.875000000000001
 40
0.9375000000000006
 40
0.9375000000000006
 40
1.0
 40
1.0
 40
1.0
 40
1.0
 10
340.7169778680091
 20
312.7412619375656
 30
0.0
 10
340.7169778680091
 20
312.4977290540646
 30
0.0
 10
340.7035638885717
 20
312.2523837818611
 30
0.0
 10
340.6376160357644
 20
311.8900822408824
 30
0.0
 10
340.6082737049401
 20
311.7696042308947
 30
0.0
 10
340.5376141460069
 20
311.5997615603478
 30
0.0
 10
340.5095417755298
 20
311.5442311431678
 30
0.0
 10
340.4521876914881
 20
311.4713167780567
 30
0.0
 10
340.430410031554
 20
311.4488084995775
 30
0.0
 10
340.3791623591023
 20
311.41410137131
 30
0.0
 10
340.3486303620362
 20
311.4021543474815
 30
0.0
 10
340.3169778680091
 20
311.4021543474891
 30
0.0
  0
SPLINE
  5
EA
330
DC
100
AcDbEntity
  8
$DDT_AUDIT_GENERATED_(DE)
  6
PHANTOM2
 62
     7
100
AcDbSpline
210
0.0
220
0.0
230
1.0
 70
     8
 71
     3
 72
    16
 73
    12
 74
     0
 42
0.0000000067653815
 43
0.0000000001
 40
0.0
 40
0.0
 40
0.0
 40
0.0
 40
0.0624999999999982
 40
0.0624999999999982
 40
0.1249999999999964
 40
0.1249999999999964
 40
0.2499999999999941
 40
0.2499999999999941
 40
0.4999999999999946
 40
0.4999999999999946
 40
1.0
 40
1.0
 40
1.0
 40
1.0
 10
340.3169778680091
 20
323.0545568231599
 30
0.0
 10
340.3489692948525
 20
323.0545568231598
 30
0.0
 10
340.379368193432
 20
323.0425784626502
 30
0.0
 10
340.4312334818016
 20
323.0072347663086
 30
0.0
 10
340.4531533111954
 20
322.9843536950105
 30
0.0
 10
340.5106309309672
 20
322.910706469313
 30
0.0
 10
340.538621908699
 20
322.8548787381063
 30
0.0
 10
340.6090050403201
 20
322.6846251634647
 30
0.0
 10
340.6382546711935
 20
322.563683065983
 30
0.0
 10
340.7034772387797
 20
322.2036626102116
 30
0.0
 10
340.7169778680091
 20
321.960306969593
 30
0.0
 10
340.7169778680091
 20
321.7154492330833
 30
0.0
  0
LINE
  5
EB
330
DC
100
AcDbEntity
  8
$DDT_AUDIT_GENERATED_(DE)
  6
PHANTOM2
 62
     7
100
AcDbLine
 10
340.316977868
 20
338.1803746057
 30
0.0
 11
340.216977868
 21
338.1803746057
 31
0.0
  0
LINE
  5
EC
330
DC
100
AcDbEntity
  8
$DDT_AUDIT_GENERATED_(DE)
  6
PHANTOM2
 62
     7
100
AcDbLine
 10
340.216977868
 20
302.1803746057
 30
0.0
 11
340.316977868
 21
302.1803746057
 31
0.0
  0
ARC
  5
ED
330
DC
100
AcDbEntity
  8
$DDT_AUDIT_GENERATED_(DE)
  6
PHANTOM2
 62
     7
100
AcDbCircle
 10
340.316977868
 20
337.7803746057
 30
0.0
 40
0.3999999999999976
100
AcDbArc
 50
0.0
 51
90.0
  0
ARC
  5
EE
330
DC
100
AcDbEntity
  8
$DDT_AUDIT_GENERATED_(DE)
  6
PHANTOM2
 62
     7
100
AcDbCircle
 10
340.316977868
 20
302.5803746057
 30
0.0
 40
0.3999999999999976
100
AcDbArc
 50
297.9237547531
 51
0.0
  0
LINE
  5
EF
330
DC
100
AcDbEntity
  8
$DDT_AUDIT_GENERATED_(8B)
  6
Continuous
 62
     7
100
AcDbLine
 10
373.991977868
 20
342.3198491937
 30
0.0
 11
357.991977868
 21
342.3198491937
 31
0.0
  0
ARC
  5
F0
330
DC
100
AcDbEntity
  8
$DDT_AUDIT_GENERATED_(8B)
  6
Continuous
 62
     7
100
AcDbCircle
 10
359.0440306508
 20
353.0391966163
 30
0.0
 40
10.77085067316123
100
AcDbArc
 50
235.8132709006
 51
264.3946445679
  0
ARC
  5
F1
330
DC
100
AcDbEntity
  8
$DDT_AUDIT_GENERATED_(8B)
  6
Continuous
 62
     7
100
AcDbCircle
 10
377.1303389082
 20
356.0041788143
 30
0.0
 40
14.09774583792931
100
AcDbArc
 50
233.7891616373
 51
247.353816513
  0
ARC
  5
F2
330
DC
100
AcDbEntity
  8
$DDT_AUDIT_GENERATED_(8B)
  6
Continuous
 62
     7
100
AcDbCircle
 10
373.9919781249
 20
351.8034274311
 30
0.0
 40
8.581176933115108
100
AcDbArc
 50
234.3613998438
 51
305.6385945807
  0
LINE
  5
F3
330
DC
100
AcDbEntity
  8
$DDT_AUDIT_GENERATED_(8B)
  6
Continuous
 62
     7
100
AcDbLine
 10
368.8099613891
 20
344.6294334339
 30
0.0
 11
353.4985492416
 21
344.6294334339
 31
0.0
  0
LINE
  5
F4
330
DC
100
AcDbEntity
  8
$DDT_AUDIT_GENERATED_(8B)
  6
Continuous
 62
     7
100
AcDbLine
 10
378.4854809029
 20
345.3294334339
 30
0.0
 11
369.5058714255
 21
345.3294334339
 31
0.0
  0
LINE
  5
F5
330
DC
100
AcDbEntity
  8
$DDT_AUDIT_GENERATED_(8B)
  6
Continuous
 62
     7
100
AcDbLine
 10
378.991977868
 20
343.6389203811
 30
0.0
 11
378.991977868
 21
344.8256007516
 31
0.0
  0
LINE
  5
F6
330
DC
100
AcDbEntity
  8
$DDT_AUDIT_GENERATED_(8B)
  6
Continuous
 62
     7
100
AcDbLine
 10
380.3696618997
 20
341.1187270452
 30
0.0
 11
379.0589651661
 21
343.3889203811
 31
0.0
  0
LINE
  5
F7
330
DC
100
AcDbEntity
  8
$DDT_AUDIT_GENERATED_(8B)
  6
Continuous
 62
     7
100
AcDbLine
 10
352.991977868
 20
344.1238216932
 30
0.0
 11
352.991977868
 21
341.173488974
 31
0.0
  0
ARC
  5
F8
330
DC
100
AcDbEntity
  8
$DDT_AUDIT_GENERATED_(8B)
  6
Continuous
 62
     7
100
AcDbCircle
 10
353.4835757953
 20
344.1384160206
 30
0.0
 40
0.4869265560004706
100
AcDbArc
 50
88.2752604818
 51
181.7427652514
  0
ARC
  5
F9
330
DC
100
AcDbEntity
  8
$DDT_AUDIT_GENERATED_(8B)
  6
Continuous
 62
     7
100
AcDbCircle
 10
379.491977868
 20
343.6389203811
 30
0.0
 40
0.4999999999999987
100
AcDbArc
 50
180.3581923323
 51
209.5005373197
  0
ARC
  5
FA
330
DC
100
AcDbEntity
  8
$DDT_AUDIT_GENERATED_(8B)
  6
Continuous
 62
     7
100
AcDbCircle
 10
368.8227987036
 20
344.8115750079
 30
0.0
 40
0.1681952051072675
100
AcDbArc
 50
306.5869096831
 51
7.499560508
  0
ARC
  5
FB
330
DC
100
AcDbEntity
  8
$DDT_AUDIT_GENERATED_(8B)
  6
Continuous
 62
     7
100
AcDbCircle
 10
378.4975080129
 20
344.8365385081
 30
0.0
 40
0.4908458079151171
100
AcDbArc
 50
358.7474018052
 51
91.45913186
  0
ARC
  5
FC
330
DC
100
AcDbEntity
  8
$DDT_AUDIT_GENERATED_(8B)
  6
Continuous
 62
     7
100
AcDbCircle
 10
369.4843971106
 20
344.8382980002
 30
0.0
 40
0.4873197456168843
100
AcDbArc
 50
87.3957612241
 51
181.9118477291
  0
ARC
  5
FD
330
DC
100
AcDbEntity
  8
$DDT_AUDIT_GENERATED_(95)
  6
Continuous
 62
     7
100
AcDbCircle
 10
358.0829392838
 20
362.3185977546
 30
0.0
 40
21.74942135501635
100
AcDbArc
 50
256.3952416204
 51
269.7603742953
  0
LINE
  5
FE
330
DC
100
AcDbEntity
  8
$DDT_AUDIT_GENERATED_(95)
  6
Continuous
 62
     7
100
AcDbLine
 10
357.991977868
 20
340.5693666118
 30
0.0
 11
375.184779099
 21
340.5693666118
 31
0.0
  0
ARC
  5
FF
330
DC
100
AcDbEntity
  8
$DDT_AUDIT_GENERATED_(95)
  6
Continuous
 62
     7
100
AcDbCircle
 10
375.3038416903
 20
364.1556983976
 30
0.0
 40
23.58663229480732
100
AcDbArc
 50
269.7107763049
 51
283.0629500339
  0
LINE
  5
100
330
DC
100
AcDbEntity
  8
$DDT_AUDIT_GENERATED_(95)
  6
Continuous
 62
     7
100
AcDbLine
 10
394.616977868
 20
333.6794334339
 30
0.0
 11
394.616977868
 21
306.6794334339
 31
0.0
  0
LINE
  5
101
330
DC
100
AcDbEntity
  8
$DDT_AUDIT_GENERATED_(95)
  6
Continuous
 62
     7
100
AcDbLine
 10
387.116977868
 20
340.6794334339
 30
0.0
 11
387.116977868
 21
299.6794334339
 31
0.0
  0
LINE
  5
102
330
DC
100
AcDbEntity
  8
$DDT_AUDIT_GENERATED_(95)
  6
Continuous
 62
     7
100
AcDbLine
 10
341.116977868
 20
299.3794334339
 30
0.0
 11
341.116977868
 21
340.9794334339
 31
0.0
  0
LINE
  5
103
330
DC
100
AcDbEntity
  8
$DDT_AUDIT_GENERATED_(95)
  6
Continuous
 62
     7
100
AcDbLine
 10
352.966977868
 20
341.1794334339
 30
0.0
 11
341.316977868
 21
341.1794334339
 31
0.0
  0
LINE
  5
104
330
DC
100
AcDbEntity
  8
$DDT_AUDIT_GENERATED_(95)
  6
Continuous
 62
     7
100
AcDbLine
 10
386.616977868
 20
341.1794334339
 30
0.0
 11
380.6349270604
 21
341.1794334339
 31
0.0
  0
LINE
  5
105
330
DC
100
AcDbEntity
  8
$DDT_AUDIT_GENERATED_(95)
  6
Continuous
 62
     7
100
AcDbLine
 10
341.316977868
 20
299.1794334339
 30
0.0
 11
386.616977868
 21
299.1794334339
 31
0.0
  0
LINE
  5
106
330
DC
100
AcDbEntity
  8
$DDT_AUDIT_GENERATED_(95)
  6
Continuous
 62
     7
100
AcDbLine
 10
394.116977868
 20
334.1794334339
 30
0.0
 11
388.116977868
 21
334.1794334339
 31
0.0
  0
LINE
  5
107
330
DC
100
AcDbEntity
  8
$DDT_AUDIT_GENERATED_(95)
  6
Continuous
 62
     7
100
AcDbLine
 10
388.116977868
 20
306.1794334339
 30
0.0
 11
394.116977868
 21
306.1794334339
 31
0.0
  0
ARC
  5
108
330
DC
100
AcDbEntity
  8
$DDT_AUDIT_GENERATED_(95)
  6
Continuous
 62
     7
100
AcDbCircle
 10
394.116977868
 20
333.6794334339
 30
0.0
 40
0.5000000000000004
100
AcDbArc
 50
0.0
 51
90.0
  0
ARC
  5
109
330
DC
100
AcDbEntity
  8
$DDT_AUDIT_GENERATED_(95)
  6
Continuous
 62
     7
100
AcDbCircle
 10
394.116977868
 20
306.6794334339
 30
0.0
 40
0.5000000000000004
100
AcDbArc
 50
270.0
 51
0.0
  0
ARC
  5
10A
330
DC
100
AcDbEntity
  8
$DDT_AUDIT_GENERATED_(95)
  6
Continuous
 62
     7
100
AcDbCircle
 10
386.616977868
 20
340.6794334339
 30
0.0
 40
0.5000000000000004
100
AcDbArc
 50
0.0
 51
90.0
  0
ARC
  5
10B
330
DC
100
AcDbEntity
  8
$DDT_AUDIT_GENERATED_(95)
  6
Continuous
 62
     7
100
AcDbCircle
 10
386.616977868
 20
299.6794334339
 30
0.0
 40
0.5000000000000004
100
AcDbArc
 50
270.0
 51
0.0
  0
ARC
  5
10C
330
DC
100
AcDbEntity
  8
$DDT_AUDIT_GENERATED_(95)
  6
Continuous
 62
     7
100
AcDbCircle
 10
341.316977868
 20
299.3794334339
 30
0.0
 40
0.1999999999999919
100
AcDbArc
 50
180.0
 51
270.0
  0
ARC
  5
10D
330
DC
100
AcDbEntity
  8
$DDT_AUDIT_GENERATED_(95)
  6
Continuous
 62
     7
100
AcDbCircle
 10
341.316977868
 20
340.9794334339
 30
0.0
 40
0.1999999999999953
100
AcDbArc
 50
90.0
 51
180.0
  0
ARC
  5
10E
330
DC
100
AcDbEntity
  8
$DDT_AUDIT_GENERATED_(95)
  6
Continuous
 62
     7
100
AcDbCircle
 10
388.116977868
 20
335.1794334339
 30
0.0
 40
1.000000000000001
100
AcDbArc
 50
180.0
 51
270.0
  0
ARC
  5
10F
330
DC
100
AcDbEntity
  8
$DDT_AUDIT_GENERATED_(95)
  6
Continuous
 62
     7
100
AcDbCircle
 10
388.116977868
 20
305.1794334339
 30
0.0
 40
1.000000000000001
100
AcDbArc
 50
90.0
 51
180.0
  0
LINE
  5
110
330
DC
100
AcDbEntity
  8
$DDT_AUDIT_GENERATED_(9B)
  6
Continuous
 62
     7
100
AcDbLine
 10
340.216977868
 20
344.4303746057
 30
0.0
 11
340.216977868
 21
295.9303746057
 31
0.0
  0
ARC
  5
111
330
DC
100
AcDbEntity
  8
$DDT_AUDIT_GENERATED_(9B)
  6
Continuous
 62
     7
100
AcDbCircle
 10
338.216977868
 20
344.4303746057
 30
0.0
 40
2.000000000000002
100
AcDbArc
 50
0.0
 51
45.5729959992
  0
ARC
  5
112
330
DC
100
AcDbEntity
  8
$DDT_AUDIT_GENERATED_(9B)
  6
Continuous
 62
     7
100
AcDbCircle
 10
338.216977868
 20
295.9303746057
 30
0.0
 40
2.000000000000002
100
AcDbArc
 50
314.4270040008
 51
0.0
  0
LINE
  5
114
330
DC
100
AcDbEntity
  8
$DDT_AUDIT_GENERATED_(113)
  6
Continuous
 62
     7
100
AcDbLine
 10
340.716977868
 20
301.8803746057
 30
0.0
 11
340.716977868
 21
338.4803746057
 31
0.0
  0
LINE
  5
115
330
DC
100
AcDbEntity
  8
$DDT_AUDIT_GENERATED_(113)
  6
Continuous
 62
     7
100
AcDbLine
 10
340.716977868
 20
301.8803746057
 30
0.0
 11
341.116977868
 21
301.8803746057
 31
0.0
  0
LINE
  5
116
330
DC
100
AcDbEntity
  8
$DDT_AUDIT_GENERATED_(113)
  6
Continuous
 62
     7
100
AcDbLine
 10
341.116977868
 20
338.4803746057
 30
0.0
 11
340.716977868
 21
338.4803746057
 31
0.0
  0
LINE
  5
117
330
DC
100
AcDbEntity
  8
$DDT_AUDIT_GENERATED_(9B)
  6
Continuous
 62
     7
100
AcDbLine
 10
340.266977868
 20
380.9303746057
 30
0.0
 11
340.266977868
 21
429.4303746057
 31
0.0
  0
ARC
  5
118
330
DC
100
AcDbEntity
  8
$DDT_AUDIT_GENERATED_(9B)
  6
Continuous
 62
     7
100
AcDbCircle
 10
338.266977868
 20
429.4303746057
 30
0.0
 40
2.000000000000002
100
AcDbArc
 50
0.0
 51
47.5458497956
  0
ARC
  5
119
330
DC
100
AcDbEntity
  8
$DDT_AUDIT_GENERATED_(9B)
  6
Continuous
 62
     7
100
AcDbCircle
 10
338.266977868
 20
380.9303746057
 30
0.0
 40
2.000000000000002
100
AcDbArc
 50
312.4541502044
 51
0.0
  0
LINE
  5
11B
330
DC
100
AcDbEntity
  8
$DDT_AUDIT_GENERATED_(11A)
  6
Continuous
 62
     7
100
AcDbLine
 10
394.616977868
 20
314.5954735371
 30
0.0
 11
394.616977868
 21
314.5953488293
 31
0.0
  0
LINE
  5
11C
330
DC
100
AcDbEntity
  8
$DDT_AUDIT_GENERATED_(11A)
  6
Continuous
 62
     7
100
AcDbLine
 10
394.616977868
 20
316.5943490282
 30
0.0
 11
394.616977868
 21
316.5941918872
 31
0.0
  0
LINE
  5
11D
330
DC
100
AcDbEntity
  8
$DDT_AUDIT_GENERATED_(11A)
  6
Continuous
 62
     7
100
AcDbLine
 10
394.616977868
 20
318.9441575597
 30
0.0
 11
394.616977868
 21
318.9439833675
 31
0.0
  0
LINE
  5
11E
330
DC
100
AcDbEntity
  8
$DDT_AUDIT_GENERATED_(11A)
  6
Continuous
 62
     7
100
AcDbLine
 10
394.616977868
 20
321.4148835003
 30
0.0
 11
394.616977868
 21
321.4147093082
 31
0.0
  0
LINE
  5
11F
330
DC
100
AcDbEntity
  8
$DDT_AUDIT_GENERATED_(11A)
  6
Continuous
 62
     7
100
AcDbLine
 10
394.616977868
 20
323.7646749806
 30
0.0
 11
394.616977868
 21
323.7645178396
 31
0.0
  0
LINE
  5
120
330
DC
100
AcDbEntity
  8
$DDT_AUDIT_GENERATED_(11A)
  6
Continuous
 62
     7
100
AcDbLine
 10
394.616977868
 20
325.7635180385
 30
0.0
 11
394.616977868
 21
325.7633933307
 31
0.0
  0
LINE
  5
121
330
DC
100
AcDbEntity
  8
$DDT_AUDIT_GENERATED_(A3)
  6
Continuous
 62
     7
100
AcDbLine
 10
409.616977868
 20
260.1794334339
 30
0.0
 11
420.616977868
 21
260.1794334339
 31
0.0
  0
LINE
  5
122
330
DC
100
AcDbEntity
  8
$DDT_AUDIT_GENERATED_(A3)
  6
Continuous
 62
     7
100
AcDbLine
 10
415.116977868
 20
328.7962774037
 30
0.0
 11
415.116977868
 21
311.5625894641
 31
0.0
  0
SPLINE
  5
123
330
DC
100
AcDbEntity
  8
$DDT_AUDIT_GENERATED_(A3)
  6
Continuous
 62
     7
100
AcDbSpline
210
0.0
220
0.0
230
1.0
 70
     8
 71
     3
 72
    10
 73
     6
 74
     0
 42
0.000000011169161
 43
0.0000000001
 40
0.0
 40
0.0
 40
0.0
 40
0.0
 40
0.5
 40
0.5
 40
1.0
 40
1.0
 40
1.0
 40
1.0
 10
414.616977868009
 20
329.412526090235
 30
0.0
 10
414.7634582759468
 20
329.4045937314149
 30
0.0
 10
414.8981799519689
 20
329.3217450149791
 30
0.0
 10
415.0733952543033
 20
329.0893754554377
 30
0.0
 10
415.116977868009
 20
328.9428885910404
 30
0.0
 10
415.116977868009
 20
328.7962774037323
 30
0.0
  0
SPLINE
  5
124
330
DC
100
AcDbEntity
  8
$DDT_AUDIT_GENERATED_(A3)
  6
Continuous
 62
     7
100
AcDbSpline
210
0.0
220
0.0
230
1.0
 70
     8
 71
     3
 72
    12
 73
     8
 74
     0
 42
0.000000011240689
 43
0.0000000001
 40
0.0
 40
0.0
 40
0.0
 40
0.0
 40
0.2499999999999994
 40
0.2499999999999994
 40
0.4999999999999988
 40
0.4999999999999988
 40
1.0
 40
1.0
 40
1.0
 40
1.0
 10
415.116977868009
 20
311.5625894641183
 30
0.0
 10
415.1169778680091
 20
311.4891188570752
 30
0.0
 10
415.1064104599729
 20
311.4175258012243
 30
0.0
 10
415.0629224890648
 20
311.2783114942279
 30
0.0
 10
415.030146665317
 20
311.2124145954585
 30
0.0
 10
414.8995179901324
 20
311.0383456764509
 30
0.0
 10
414.764053186195
 20
310.9543053526319
 30
0.0
 10
414.616977868009
 20
310.9463407776156
 30
0.0
  0
ARC
  5
125
330
DC
100
AcDbEntity
  8
$DDT_AUDIT_GENERATED_(A3)
  6
Continuous
 62
     7
100
AcDbCircle
 10
416.0109231982
 20
297.1636819252
 30
0.0
 40
13.85296966807029
100
AcDbArc
 50
95.7751213805
 51
119.84471751
  0
ARC
  5
126
330
DC
100
AcDbEntity
  8
$DDT_AUDIT_GENERATED_(A3)
  6
Continuous
 62
     7
100
AcDbCircle
 10
415.7783378967
 20
342.4711958691
 30
0.0
 40
13.11021027713009
100
AcDbArc
 50
239.4623443057
 51
264.917826471
  0
LINE
  5
127
330
DC
100
AcDbEntity
  8
$DDT_AUDIT_GENERATED_(A3)
  6
Continuous
 62
     7
100
AcDbLine
 10
409.616977868
 20
336.1794334339
 30
0.0
 11
420.616977868
 21
336.1794334339
 31
0.0
  0
LINE
  5
128
330
DC
100
AcDbEntity
  8
$DDT_AUDIT_GENERATED_(A3)
  6
Continuous
 62
     7
100
AcDbLine
 10
394.616977868
 20
309.1794334339
 30
0.0
 11
409.1348399209
 21
309.1794334339
 31
0.0
  0
LINE
  5
129
330
DC
100
AcDbEntity
  8
$DDT_AUDIT_GENERATED_(A3)
  6
Continuous
 62
     7
100
AcDbLine
 10
409.1381519169
 20
331.1794334339
 30
0.0
 11
394.616977868
 21
331.1794334339
 31
0.0
  0
LINE
  5
12A
330
DC
100
AcDbEntity
  8
$DDT_AUDIT_GENERATED_(A3)
  6
Continuous
 62
     7
100
AcDbLine
 10
409.116977868
 20
309.1891480472
 30
0.0
 11
409.116977868
 21
260.6794334339
 31
0.0
  0
LINE
  5
12B
330
DC
100
AcDbEntity
  8
$DDT_AUDIT_GENERATED_(A3)
  6
Continuous
 62
     7
100
AcDbLine
 10
409.116977868
 20
335.6794334339
 30
0.0
 11
409.116977868
 21
331.167898813
 31
0.0
  0
LINE
  5
12C
330
DC
100
AcDbEntity
  8
$DDT_AUDIT_GENERATED_(A3)
  6
Continuous
 62
     7
100
AcDbLine
 10
421.116977868
 20
260.6794334339
 30
0.0
 11
421.116977868
 21
335.6794334339
 31
0.0
  0
ARC
  5
12D
330
DC
100
AcDbEntity
  8
$DDT_AUDIT_GENERATED_(A3)
  6
Continuous
 62
     7
100
AcDbCircle
 10
420.616977868
 20
260.6794334339
 30
0.0
 40
0.5000000000000004
100
AcDbArc
 50
270.0
 51
0.0
  0
ARC
  5
12E
330
DC
100
AcDbEntity
  8
$DDT_AUDIT_GENERATED_(A3)
  6
Continuous
 62
     7
100
AcDbCircle
 10
409.616977868
 20
260.6794334339
 30
0.0
 40
0.5000000000000004
100
AcDbArc
 50
180.0
 51
270.0
  0
ARC
  5
12F
330
DC
100
AcDbEntity
  8
$DDT_AUDIT_GENERATED_(A3)
  6
Continuous
 62
     7
100
AcDbCircle
 10
420.616977868
 20
335.6794334339
 30
0.0
 40
0.5000000000000004
100
AcDbArc
 50
0.0
 51
90.0
  0
ARC
  5
130
330
DC
100
AcDbEntity
  8
$DDT_AUDIT_GENERATED_(A3)
  6
Continuous
 62
     7
100
AcDbCircle
 10
409.616977868
 20
335.6794334339
 30
0.0
 40
0.4999999999999987
100
AcDbArc
 50
90.0
 51
180.0
  0
LINE
  5
131
330
DC
100
AcDbEntity
  8
$DDT_AUDIT_GENERATED_(8B)
  6
Continuous
 62
     7
100
AcDbLine
 10
374.391977868
 20
427.3207903655
 30
0.0
 11
358.391977868
 21
427.3207903655
 31
0.0
  0
ARC
  5
132
330
DC
100
AcDbEntity
  8
$DDT_AUDIT_GENERATED_(8B)
  6
Continuous
 62
     7
100
AcDbCircle
 10
359.4440306508
 20
438.040137788
 30
0.0
 40
10.77085067316115
100
AcDbArc
 50
235.8132709006
 51
264.3946445679
  0
ARC
  5
133
330
DC
100
AcDbEntity
  8
$DDT_AUDIT_GENERATED_(8B)
  6
Continuous
 62
     7
100
AcDbCircle
 10
377.5303389082
 20
441.005119986
 30
0.0
 40
14.09774583793015
100
AcDbArc
 50
233.7891616373
 51
247.353816513
  0
ARC
  5
134
330
DC
100
AcDbEntity
  8
$DDT_AUDIT_GENERATED_(8B)
  6
Continuous
 62
     7
100
AcDbCircle
 10
374.3919781249
 20
436.8043686028
 30
0.0
 40
8.581176933115081
100
AcDbArc
 50
234.3613998438
 51
305.6385945807
  0
LINE
  5
135
330
DC
100
AcDbEntity
  8
$DDT_AUDIT_GENERATED_(8B)
  6
Continuous
 62
     7
100
AcDbLine
 10
369.2099613891
 20
429.6303746057
 30
0.0
 11
353.8985492416
 21
429.6303746057
 31
0.0
  0
LINE
  5
136
330
DC
100
AcDbEntity
  8
$DDT_AUDIT_GENERATED_(8B)
  6
Continuous
 62
     7
100
AcDbLine
 10
378.8854809029
 20
430.3303746057
 30
0.0
 11
369.9058714255
 21
430.3303746057
 31
0.0
  0
LINE
  5
137
330
DC
100
AcDbEntity
  8
$DDT_AUDIT_GENERATED_(8B)
  6
Continuous
 62
     7
100
AcDbLine
 10
379.391977868
 20
428.6398615529
 30
0.0
 11
379.391977868
 21
429.8265419233
 31
0.0
  0
LINE
  5
138
330
DC
100
AcDbEntity
  8
$DDT_AUDIT_GENERATED_(8B)
  6
Continuous
 62
     7
100
AcDbLine
 10
380.7696618997
 20
426.1196682169
 30
0.0
 11
379.4589651661
 21
428.3898615529
 31
0.0
  0
LINE
  5
139
330
DC
100
AcDbEntity
  8
$DDT_AUDIT_GENERATED_(8B)
  6
Continuous
 62
     7
100
AcDbLine
 10
353.391977868
 20
429.1247628649
 30
0.0
 11
353.391977868
 21
426.1744301457
 31
0.0
  0
ARC
  5
13A
330
DC
100
AcDbEntity
  8
$DDT_AUDIT_GENERATED_(8B)
  6
Continuous
 62
     7
100
AcDbCircle
 10
353.8835757953
 20
429.1393571923
 30
0.0
 40
0.4869265560005662
100
AcDbArc
 50
88.2752604818
 51
181.7427652514
  0
ARC
  5
13B
330
DC
100
AcDbEntity
  8
$DDT_AUDIT_GENERATED_(8B)
  6
Continuous
 62
     7
100
AcDbCircle
 10
379.891977868
 20
428.6398615529
 30
0.0
 40
0.5000000000000125
100
AcDbArc
 50
180.3581923323
 51
209.5005373197
  0
ARC
  5
13C
330
DC
100
AcDbEntity
  8
$DDT_AUDIT_GENERATED_(8B)
  6
Continuous
 62
     7
100
AcDbCircle
 10
369.2227987036
 20
429.8125161797
 30
0.0
 40
0.1681952051071919
100
AcDbArc
 50
306.5869096831
 51
7.499560508
  0
ARC
  5
13D
330
DC
100
AcDbEntity
  8
$DDT_AUDIT_GENERATED_(8B)
  6
Continuous
 62
     7
100
AcDbCircle
 10
378.8975080129
 20
429.8374796798
 30
0.0
 40
0.4908458079152247
100
AcDbArc
 50
358.7474018052
 51
91.45913186
  0
ARC
  5
13E
330
DC
100
AcDbEntity
  8
$DDT_AUDIT_GENERATED_(8B)
  6
Continuous
 62
     7
100
AcDbCircle
 10
369.8843971106
 20
429.839239172
 30
0.0
 40
0.4873197456168795
100
AcDbArc
 50
87.3957612241
 51
181.9118477291
  0
ARC
  5
13F
330
DC
100
AcDbEntity
  8
$DDT_AUDIT_GENERATED_(95)
  6
Continuous
 62
     7
100
AcDbCircle
 10
358.4829392838
 20
447.3195389263
 30
0.0
 40
21.74942135501608
100
AcDbArc
 50
256.3952416204
 51
269.7603742953
  0
LINE
  5
140
330
DC
100
AcDbEntity
  8
$DDT_AUDIT_GENERATED_(95)
  6
Continuous
 62
     7
100
AcDbLine
 10
358.391977868
 20
425.5703077836
 30
0.0
 11
375.584779099
 21
425.5703077836
 31
0.0
  0
ARC
  5
141
330
DC
100
AcDbEntity
  8
$DDT_AUDIT_GENERATED_(95)
  6
Continuous
 62
     7
100
AcDbCircle
 10
375.7038416903
 20
449.1566395694
 30
0.0
 40
23.58663229480707
100
AcDbArc
 50
269.7107763049
 51
283.0629500339
  0
LINE
  5
142
330
DC
100
AcDbEntity
  8
$DDT_AUDIT_GENERATED_(95)
  6
Continuous
 62
     7
100
AcDbLine
 10
395.016977868
 20
418.6803746057
 30
0.0
 11
395.016977868
 21
391.6803746057
 31
0.0
  0
LINE
  5
143
330
DC
100
AcDbEntity
  8
$DDT_AUDIT_GENERATED_(95)
  6
Continuous
 62
     7
100
AcDbLine
 10
387.516977868
 20
425.6803746057
 30
0.0
 11
387.516977868
 21
384.6803746057
 31
0.0
  0
LINE
  5
144
330
DC
100
AcDbEntity
  8
$DDT_AUDIT_GENERATED_(95)
  6
Continuous
 62
     7
100
AcDbLine
 10
341.516977868
 20
384.3803746057
 30
0.0
 11
341.516977868
 21
425.9803746057
 31
0.0
  0
LINE
  5
145
330
DC
100
AcDbEntity
  8
$DDT_AUDIT_GENERATED_(95)
  6
Continuous
 62
     7
100
AcDbLine
 10
353.366977868
 20
426.1803746057
 30
0.0
 11
341.716977868
 21
426.1803746057
 31
0.0
  0
LINE
  5
146
330
DC
100
AcDbEntity
  8
$DDT_AUDIT_GENERATED_(95)
  6
Continuous
 62
     7
100
AcDbLine
 10
387.016977868
 20
426.1803746057
 30
0.0
 11
381.0349270604
 21
426.1803746057
 31
0.0
  0
LINE
  5
147
330
DC
100
AcDbEntity
  8
$DDT_AUDIT_GENERATED_(95)
  6
Continuous
 62
     7
100
AcDbLine
 10
341.716977868
 20
384.1803746057
 30
0.0
 11
387.016977868
 21
384.1803746057
 31
0.0
  0
LINE
  5
148
330
DC
100
AcDbEntity
  8
$DDT_AUDIT_GENERATED_(95)
  6
Continuous
 62
     7
100
AcDbLine
 10
394.516977868
 20
419.1803746057
 30
0.0
 11
388.516977868
 21
419.1803746057
 31
0.0
  0
LINE
  5
149
330
DC
100
AcDbEntity
  8
$DDT_AUDIT_GENERATED_(95)
  6
Continuous
 62
     7
100
AcDbLine
 10
388.516977868
 20
391.1803746057
 30
0.0
 11
394.516977868
 21
391.1803746057
 31
0.0
  0
ARC
  5
14A
330
DC
100
AcDbEntity
  8
$DDT_AUDIT_GENERATED_(95)
  6
Continuous
 62
     7
100
AcDbCircle
 10
394.516977868
 20
418.6803746057
 30
0.0
 40
0.5000000000000004
100
AcDbArc
 50
0.0
 51
90.0
  0
ARC
  5
14B
330
DC
100
AcDbEntity
  8
$DDT_AUDIT_GENERATED_(95)
  6
Continuous
 62
     7
100
AcDbCircle
 10
394.516977868
 20
391.6803746057
 30
0.0
 40
0.5000000000000004
100
AcDbArc
 50
270.0
 51
0.0
  0
ARC
  5
14C
330
DC
100
AcDbEntity
  8
$DDT_AUDIT_GENERATED_(95)
  6
Continuous
 62
     7
100
AcDbCircle
 10
387.016977868
 20
425.6803746057
 30
0.0
 40
0.5000000000000004
100
AcDbArc
 50
0.0
 51
90.0
  0
ARC
  5
14D
330
DC
100
AcDbEntity
  8
$DDT_AUDIT_GENERATED_(95)
  6
Continuous
 62
     7
100
AcDbCircle
 10
387.016977868
 20
384.6803746057
 30
0.0
 40
0.4999999999999935
100
AcDbArc
 50
270.0
 51
0.0
  0
ARC
  5
14E
330
DC
100
AcDbEntity
  8
$DDT_AUDIT_GENERATED_(95)
  6
Continuous
 62
     7
100
AcDbCircle
 10
341.716977868
 20
384.3803746057
 30
0.0
 40
0.1999999999999919
100
AcDbArc
 50
180.0
 51
270.0
  0
ARC
  5
14F
330
DC
100
AcDbEntity
  8
$DDT_AUDIT_GENERATED_(95)
  6
Continuous
 62
     7
100
AcDbCircle
 10
341.716977868
 20
425.9803746057
 30
0.0
 40
0.1999999999999919
100
AcDbArc
 50
90.0
 51
180.0
  0
ARC
  5
150
330
DC
100
AcDbEntity
  8
$DDT_AUDIT_GENERATED_(95)
  6
Continuous
 62
     7
100
AcDbCircle
 10
388.516977868
 20
420.1803746057
 30
0.0
 40
1.000000000000001
100
AcDbArc
 50
180.0
 51
270.0
  0
ARC
  5
151
330
DC
100
AcDbEntity
  8
$DDT_AUDIT_GENERATED_(95)
  6
Continuous
 62
     7
100
AcDbCircle
 10
388.516977868
 20
390.1803746057
 30
0.0
 40
1.000000000000001
100
AcDbArc
 50
90.0
 51
180.0
  0
LINE
  5
153
330
DC
100
AcDbEntity
  8
$DDT_AUDIT_GENERATED_(152)
  6
Continuous
 62
     7
100
AcDbLine
 10
341.516977868
 20
422.7793176192
 30
0.0
 11
340.266977868
 21
422.7793176192
 31
0.0
  0
LINE
  5
154
330
DC
100
AcDbEntity
  8
$DDT_AUDIT_GENERATED_(152)
  6
Continuous
 62
     7
100
AcDbLine
 10
340.266977868
 20
422.7618652128
 30
0.0
 11
341.516977868
 21
422.7618652128
 31
0.0
  0
LINE
  5
155
330
DC
100
AcDbEntity
  8
$DDT_AUDIT_GENERATED_(152)
  6
Continuous
 62
     7
100
AcDbLine
 10
340.266977868
 20
387.5803746057
 30
0.0
 11
341.516977868
 21
387.5803746057
 31
0.0
  0
LINE
  5
156
330
DC
100
AcDbEntity
  8
09076038_ROSETTE
  6
Continuous
 62
     7
100
AcDbLine
 10
339.616977868
 20
447.092946953
 30
0.0
 11
339.616977868
 21
268.2678022583
 31
0.0
  0
LINE
  5
157
330
DC
100
AcDbEntity
  8
09076038_ROSETTE
  6
Continuous
 62
     7
100
AcDbLine
 10
333.616977868
 20
458.5231266933
 30
0.0
 11
333.616977868
 21
256.8376225181
 31
0.0
  0
LINE
  5
158
330
DC
100
AcDbEntity
  8
09076038_ROSETTE
  6
Continuous
 62
     7
100
AcDbLine
 10
323.616977868
 20
256.3666888218
 30
0.0
 11
323.616977868
 21
459.1715709092
 31
0.0
  0
SPLINE
  5
159
330
DC
100
AcDbEntity
  8
09076038_ROSETTE
  6
Continuous
 62
     7
100
AcDbSpline
210
0.0
220
0.0
230
1.0
 70
     8
 71
     3
 72
    10
 73
     6
 74
     0
 42
0.0000000122645699
 43
0.0000000001
 40
0.0
 40
0.0
 40
0.0
 40
0.0
 40
0.5
 40
0.5
 40
1.0
 40
1.0
 40
1.0
 40
1.0
 10
324.1257040712284
 20
255.8658933680972
 30
0.0
 10
323.9926957074692
 20
255.8635676705848
 30
0.0
 10
323.8601005193685
 20
255.9171503934573
 30
0.0
 10
323.6722806208983
 20
256.1023870789681
 30
0.0
 10
323.616977868009
 20
256.2331122081762
 30
0.0
 10
323.6169778680092
 20
256.3666888217646
 30
0.0
  0
LINE
  5
15A
330
DC
100
AcDbEntity
  8
09076038_ROSETTE
  6
Continuous
 62
     7
100
AcDbLine
 10
324.1257040712
 20
255.8658933681
 30
0.0
 11
327.116977868
 21
255.9181968776
 31
0.0
  0
LINE
  5
15B
330
DC
100
AcDbEntity
  8
09076038_ROSETTE
  6
Continuous
 62
     7
100
AcDbLine
 10
328.116977868
 20
255.8816397405
 30
0.0
 11
328.116977868
 21
255.7589223978
 31
0.0
  0
ARC
  5
15C
330
DC
100
AcDbEntity
  8
09076038_ROSETTE
  6
Continuous
 62
     7
100
AcDbCircle
 10
327.4128277716
 20
250.315506819
 30
0.0
 40
5.610495794305892
100
AcDbArc
 50
82.7900305461
 51
93.0226947814
  0
LINE
  5
15D
330
DC
100
AcDbEntity
  8
09076038_ROSETTE
  6
Continuous
 62
     7
100
AcDbLine
 10
328.116977868
 20
255.7589223978
 30
0.0
 11
332.6344302744
 21
255.8377748229
 31
0.0
  0
LINE
  5
15E
330
DC
100
AcDbEntity
  8
09076038_ROSETTE
  6
Continuous
 62
     7
100
AcDbLine
 10
332.6344302744
 20
459.5229743884
 30
0.0
 11
324.1257040712
 21
459.6714947568
 31
0.0
  0
LINE
  5
15F
330
DC
100
AcDbEntity
  8
09076038_ROSETTE
  6
Continuous
 62
     7
100
AcDbLine
 10
334.5995254616
 20
267.1975250377
 30
0.0
 11
338.6344302744
 21
267.2679545632
 31
0.0
  0
LINE
  5
160
330
DC
100
AcDbEntity
  8
09076038_ROSETTE
  6
Continuous
 62
     7
100
AcDbLine
 10
338.6344302744
 20
448.0927946481
 30
0.0
 11
334.5995254616
 21
448.1632241736
 31
0.0
  0
ARC
  5
161
330
DC
100
AcDbEntity
  8
09076038_ROSETTE
  6
Continuous
 62
     7
100
AcDbCircle
 10
338.616977868
 20
268.2678022583
 30
0.0
 40
0.99999999999998
100
AcDbArc
 50
271.0
 51
0.0
  0
ARC
  5
162
330
DC
100
AcDbEntity
  8
09076038_ROSETTE
  6
Continuous
 62
     7
100
AcDbCircle
 10
338.616977868
 20
447.092946953
 30
0.0
 40
1.000000000000001
100
AcDbArc
 50
0.0
 51
89.0
  0
ARC
  5
163
330
DC
100
AcDbEntity
  8
09076038_ROSETTE
  6
Continuous
 62
     7
100
AcDbCircle
 10
332.616977868
 20
256.8376225181
 30
0.0
 40
1.000000000000004
100
AcDbArc
 50
271.0
 51
0.0
  0
ARC
  5
164
330
DC
100
AcDbEntity
  8
09076038_ROSETTE
  6
Continuous
 62
     7
100
AcDbCircle
 10
332.616977868
 20
458.5231266933
 30
0.0
 40
1.000000000000001
100
AcDbArc
 50
0.0
 51
89.0
  0
ARC
  5
165
330
DC
100
AcDbEntity
  8
09076038_ROSETTE
  6
Continuous
 62
     7
100
AcDbCircle
 10
334.616977868
 20
266.1976773425
 30
0.0
 40
0.999999999999987
100
AcDbArc
 50
91.0
 51
180.0
  0
ARC
  5
166
330
DC
100
AcDbEntity
  8
09076038_ROSETTE
  6
Continuous
 62
     7
100
AcDbCircle
 10
334.616977868
 20
449.1630718688
 30
0.0
 40
0.9999999999999979
100
AcDbArc
 50
180.0
 51
269.0
  0
ARC
  5
167
330
DC
100
AcDbEntity
  8
09076038_ROSETTE
  6
Continuous
 62
     7
100
AcDbCircle
 10
324.116977868
 20
459.1715709092
 30
0.0
 40
0.5000000000000041
100
AcDbArc
 50
88.9999999999
 51
180.0
  0
LINE
  5
168
330
DC
100
AcDbEntity
  8
09076038_ROSETTE
  6
Continuous
 62
     7
100
AcDbLine
 10
340.616977868
 20
436.1803746057
 30
0.0
 11
340.616977868
 21
441.6803746057
 31
0.0
  0
LINE
  5
169
330
DC
100
AcDbEntity
  8
09076038_ROSETTE
  6
Continuous
 62
     7
100
AcDbLine
 10
340.616977868
 20
351.1803746057
 30
0.0
 11
340.616977868
 21
356.6803746057
 31
0.0
  0
ARC
  5
16A
330
DC
100
AcDbEntity
  8
09076038_ROSETTE
  6
Continuous
 62
     7
100
AcDbCircle
 10
339.616977868
 20
441.6803746057
 30
0.0
 40
0.999999999999987
100
AcDbArc
 50
0.0
 51
84.7840914295
  0
ARC
  5
16B
330
DC
100
AcDbEntity
  8
09076038_ROSETTE
  6
Continuous
 62
     7
100
AcDbCircle
 10
339.616977868
 20
351.1803746057
 30
0.0
 40
1.0
100
AcDbArc
 50
275.2159085705
 51
0.0
  0
ARC
  5
16C
330
DC
100
AcDbEntity
  8
09076038_ROSETTE
  6
Continuous
 62
     7
100
AcDbCircle
 10
339.616977868
 20
356.6803746057
 30
0.0
 40
0.999999999999987
100
AcDbArc
 50
0.0
 51
84.7840914295
  0
ARC
  5
16D
330
DC
100
AcDbEntity
  8
09076038_ROSETTE
  6
Continuous
 62
     7
100
AcDbCircle
 10
339.616977868
 20
436.1803746057
 30
0.0
 40
1.000000000000001
100
AcDbArc
 50
275.2159085705
 51
0.0
  0
ARC
  5
16E
330
DC
100
AcDbEntity
  8
09076038_ROSETTE
  6
Continuous
 62
     7
100
AcDbCircle
 10
339.716977868
 20
442.7758197207
 30
0.0
 40
0.1000000000000035
100
AcDbArc
 50
180.0
 51
264.7840914295
  0
ARC
  5
16F
330
DC
100
AcDbEntity
  8
09076038_ROSETTE
  6
Continuous
 62
     7
100
AcDbCircle
 10
339.716977868
 20
435.0849294907
 30
0.0
 40
0.1000000000000029
100
AcDbArc
 50
95.2159085705
 51
180.0
  0
ARC
  5
170
330
DC
100
AcDbEntity
  8
09076038_ROSETTE
  6
Continuous
 62
     7
100
AcDbCircle
 10
339.716977868
 20
350.0849294907
 30
0.0
 40
0.1000000000000029
100
AcDbArc
 50
95.2159085705
 51
180.0
  0
ARC
  5
171
330
DC
100
AcDbEntity
  8
09076038_ROSETTE
  6
Continuous
 62
     7
100
AcDbCircle
 10
339.716977868
 20
357.7758197207
 30
0.0
 40
0.1000000000000005
100
AcDbArc
 50
180.0
 51
264.7840914296
  0
LINE
  5
172
330
DC
100
AcDbEntity
  8
$DDT_AUDIT_GENERATED_(11A)
  6
Continuous
 62
     7
100
AcDbLine
 10
395.016977868
 20
399.5964147089
 30
0.0
 11
395.016977868
 21
399.5962900011
 31
0.0
  0
LINE
  5
173
330
DC
100
AcDbEntity
  8
$DDT_AUDIT_GENERATED_(11A)
  6
Continuous
 62
     7
100
AcDbLine
 10
395.016977868
 20
401.5952901999
 30
0.0
 11
395.016977868
 21
401.5951330589
 31
0.0
  0
LINE
  5
174
330
DC
100
AcDbEntity
  8
$DDT_AUDIT_GENERATED_(11A)
  6
Continuous
 62
     7
100
AcDbLine
 10
395.016977868
 20
403.9450987314
 30
0.0
 11
395.016977868
 21
403.9449245392
 31
0.0
  0
LINE
  5
175
330
DC
100
AcDbEntity
  8
$DDT_AUDIT_GENERATED_(11A)
  6
Continuous
 62
     7
100
AcDbLine
 10
395.016977868
 20
406.4158246721
 30
0.0
 11
395.016977868
 21
406.4156504799
 31
0.0
  0
LINE
  5
176
330
DC
100
AcDbEntity
  8
$DDT_AUDIT_GENERATED_(11A)
  6
Continuous
 62
     7
100
AcDbLine
 10
395.016977868
 20
408.7656161524
 30
0.0
 11
395.016977868
 21
408.7654590114
 31
0.0
  0
LINE
  5
177
330
DC
100
AcDbEntity
  8
$DDT_AUDIT_GENERATED_(11A)
  6
Continuous
 62
     7
100
AcDbLine
 10
395.016977868
 20
410.7644592102
 30
0.0
 11
395.016977868
 21
410.7643345024
 31
0.0
  0
LINE
  5
178
330
DC
100
AcDbEntity
  8
$DDT_AUDIT_GENERATED_(A3)
  6
Continuous
 62
     7
100
AcDbLine
 10
410.016977868
 20
465.1803746057
 30
0.0
 11
421.016977868
 21
465.1803746057
 31
0.0
  0
ARC
  5
179
330
DC
100
AcDbEntity
  8
$DDT_AUDIT_GENERATED_(A3)
  6
Continuous
 62
     7
100
AcDbCircle
 10
416.4109231984
 20
428.1961261143
 30
0.0
 40
13.85296966807071
100
AcDbArc
 50
240.1552824896
 51
264.2248786191
  0
ARC
  5
17A
330
DC
100
AcDbEntity
  8
$DDT_AUDIT_GENERATED_(A3)
  6
Continuous
 62
     7
100
AcDbCircle
 10
416.1783378967
 20
382.8886121705
 30
0.0
 40
13.1102102771296
100
AcDbArc
 50
95.082173529
 51
120.5376556943
  0
LINE
  5
17B
330
DC
100
AcDbEntity
  8
$DDT_AUDIT_GENERATED_(A3)
  6
Continuous
 62
     7
100
AcDbLine
 10
415.516977868
 20
413.7972185755
 30
0.0
 11
415.516977868
 21
396.5635306359
 31
0.0
  0
SPLINE
  5
17C
330
DC
100
AcDbEntity
  8
$DDT_AUDIT_GENERATED_(A3)
  6
Continuous
 62
     7
100
AcDbSpline
210
0.0
220
0.0
230
1.0
 70
     8
 71
     3
 72
    10
 73
     6
 74
     0
 42
0.000000011169161
 43
0.0000000001
 40
0.0
 40
0.0
 40
0.0
 40
0.0
 40
0.5
 40
0.5
 40
1.0
 40
1.0
 40
1.0
 40
1.0
 10
415.0169778680091
 20
414.4134672619719
 30
0.0
 10
415.1634582759469
 20
414.4055349031518
 30
0.0
 10
415.2981799519689
 20
414.322686186716
 30
0.0
 10
415.4733952543034
 20
414.0903166271746
 30
0.0
 10
415.5169778680091
 20
413.9438297627773
 30
0.0
 10
415.5169778680091
 20
413.7972185754692
 30
0.0
  0
SPLINE
  5
17D
330
DC
100
AcDbEntity
  8
$DDT_AUDIT_GENERATED_(A3)
  6
Continuous
 62
     7
100
AcDbSpline
210
0.0
220
0.0
230
1.0
 70
     8
 71
     3
 72
    12
 73
     8
 74
     0
 42
0.000000011240689
 43
0.0000000001
 40
0.0
 40
0.0
 40
0.0
 40
0.0
 40
0.2500000000000018
 40
0.2500000000000018
 40
0.5000000000000036
 40
0.5000000000000036
 40
1.0
 40
1.0
 40
1.0
 40
1.0
 10
415.5169778680091
 20
396.5635306358552
 30
0.0
 10
415.5169778680091
 20
396.4900600288121
 30
0.0
 10
415.506410459973
 20
396.4184669729612
 30
0.0
 10
415.4629224890649
 20
396.2792526659647
 30
0.0
 10
415.430146665317
 20
396.2133557671954
 30
0.0
 10
415.2995179901325
 20
396.0392868481878
 30
0.0
 10
415.1640531861949
 20
395.9552465243687
 30
0.0
 10
415.0169778680091
 20
395.9472819493525
 30
0.0
  0
LINE
  5
17E
330
DC
100
AcDbEntity
  8
$DDT_AUDIT_GENERATED_(A3)
  6
Continuous
 62
     7
100
AcDbLine
 10
410.016977868
 20
389.1803746057
 30
0.0
 11
421.016977868
 21
389.1803746057
 31
0.0
  0
LINE
  5
17F
330
DC
100
AcDbEntity
  8
$DDT_AUDIT_GENERATED_(A3)
  6
Continuous
 62
     7
100
AcDbLine
 10
395.016977868
 20
394.1803746057
 30
0.0
 11
409.5381519169
 21
394.1803746057
 31
0.0
  0
LINE
  5
180
330
DC
100
AcDbEntity
  8
$DDT_AUDIT_GENERATED_(A3)
  6
Continuous
 62
     7
100
AcDbLine
 10
409.5348399209
 20
416.1803746057
 30
0.0
 11
395.016977868
 21
416.1803746057
 31
0.0
  0
LINE
  5
181
330
DC
100
AcDbEntity
  8
$DDT_AUDIT_GENERATED_(A3)
  6
Continuous
 62
     7
100
AcDbLine
 10
421.516977868
 20
389.6803746057
 30
0.0
 11
421.516977868
 21
464.6803746057
 31
0.0
  0
LINE
  5
182
330
DC
100
AcDbEntity
  8
$DDT_AUDIT_GENERATED_(A3)
  6
Continuous
 62
     7
100
AcDbLine
 10
409.516977868
 20
394.1919092266
 30
0.0
 11
409.516977868
 21
389.6803746057
 31
0.0
  0
LINE
  5
183
330
DC
100
AcDbEntity
  8
$DDT_AUDIT_GENERATED_(A3)
  6
Continuous
 62
     7
100
AcDbLine
 10
409.516977868
 20
464.6803746057
 30
0.0
 11
409.516977868
 21
416.1706599924
 31
0.0
  0
ARC
  5
184
330
DC
100
AcDbEntity
  8
$DDT_AUDIT_GENERATED_(A3)
  6
Continuous
 62
     7
100
AcDbCircle
 10
410.016977868
 20
464.6803746057
 30
0.0
 40
0.5000000000000004
100
AcDbArc
 50
90.0
 51
180.0
  0
ARC
  5
185
330
DC
100
AcDbEntity
  8
$DDT_AUDIT_GENERATED_(A3)
  6
Continuous
 62
     7
100
AcDbCircle
 10
421.016977868
 20
464.6803746057
 30
0.0
 40
0.5000000000000004
100
AcDbArc
 50
0.0
 51
90.0
  0
ARC
  5
186
330
DC
100
AcDbEntity
  8
$DDT_AUDIT_GENERATED_(A3)
  6
Continuous
 62
     7
100
AcDbCircle
 10
410.016977868
 20
389.6803746057
 30
0.0
 40
0.5000000000000004
100
AcDbArc
 50
180.0
 51
270.0
  0
ARC
  5
187
330
DC
100
AcDbEntity
  8
$DDT_AUDIT_GENERATED_(A3)
  6
Continuous
 62
     7
100
AcDbCircle
 10
421.016977868
 20
389.6803746057
 30
0.0
 40
0.5000000000000004
100
AcDbArc
 50
270.0
 51
0.0
  0
LINE
  5
189
330
DC
100
AcDbEntity
  8
DV2_Default
  6
Continuous
 62
     7
100
AcDbLine
 10
323.616977868
 20
341.1794334339
 30
0.0
 11
323.616977868
 21
299.1794334339
 31
0.0
  0
LINE
  5
18A
330
DC
100
AcDbEntity
  8
DV2_Default
  6
Continuous
 62
     7
100
AcDbLine
 10
323.616977868
 20
384.1803746057
 30
0.0
 11
323.616977868
 21
426.1803746057
 31
0.0
  0
ENDBLK
  5
18C
330
DC
100
AcDbEntity
  8
0
100
AcDbBlockEnd
  0
BLOCK
  5
1F2
330
18D
100
AcDbEntity
  8
0
100
AcDbBlockBegin
  2
SE2
 70
     0
 10
0.0
 20
0.0
 30
0.0
  3
SE2
  1

  0
LINE
  5
18F
330
18D
100
AcDbEntity
  8
$DDT_AUDIT_GENERATED_(DE)
  6
PHANTOM2
 62
     7
100
AcDbLine
 10
133.6544732291
 20
187.6
 30
0.0
 11
133.6544732291
 21
187.55
 31
0.0
  0
LINE
  5
190
330
18D
100
AcDbEntity
  8
$DDT_AUDIT_GENERATED_(DE)
  6
PHANTOM2
 62
     7
100
AcDbLine
 10
169.192569778
 20
187.6
 30
0.0
 11
169.192569778
 21
187.55
 31
0.0
  0
SPLINE
  5
191
330
18D
100
AcDbEntity
  8
$DDT_AUDIT_GENERATED_(DE)
  6
PHANTOM2
 62
     7
100
AcDbSpline
210
0.0
220
0.0
230
1.0
 70
     8
 71
     3
 72
    16
 73
    12
 74
     0
 42
0.0000000166150624
 43
0.0000000001
 40
0.0
 40
0.0
 40
0.0
 40
0.0
 40
0.062499999999999
 40
0.062499999999999
 40
0.1249999999999979
 40
0.1249999999999979
 40
0.2499999999999983
 40
0.2499999999999983
 40
0.4999999999999984
 40
0.4999999999999984
 40
0.7385327648248402
 40
0.7385327648248402
 40
0.7385327648248402
 40
0.7385327648248402
 10
169.192569778027
 20
187.55
 30
0.0
 10
169.192569778027
 20
187.5180085731566
 30
0.0
 10
169.1904576698845
 20
187.4876096745771
 30
0.0
 10
169.1842256226215
 20
187.4357443862075
 30
0.0
 10
169.1801910724042
 20
187.4138245568138
 30
0.0
 10
169.1672050794594
 20
187.3563469370419
 30
0.0
 10
169.1573611441759
 20
187.3283559593101
 30
0.0
 10
169.1273408454045
 20
187.257972827689
 30
0.0
 10
169.106015490515
 20
187.2287231968157
 30
0.0
 10
169.064665217509
 20
187.1862387151198
 30
0.0
 10
169.0443412681353
 20
187.1723185294097
 30
0.0
 10
169.0239184272359
 20
187.163432400995
 30
0.0
  0
SPLINE
  5
192
330
18D
100
AcDbEntity
  8
$DDT_AUDIT_GENERATED_(DE)
  6
PHANTOM2
 62
     7
100
AcDbSpline
210
0.0
220
0.0
230
1.0
 70
     8
 71
     3
 72
    16
 73
    12
 74
     0
 42
0.0000000166150624
 43
0.0000000001
 40
0.0
 40
0.0
 40
0.0
 40
0.0
 40
0.0624999999999982
 40
0.0624999999999982
 40
0.1249999999999964
 40
0.1249999999999964
 40
0.2499999999999941
 40
0.2499999999999941
 40
0.4999999999999946
 40
0.4999999999999946
 40
0.7385327648247957
 40
0.7385327648247957
 40
0.7385327648247957
 40
0.7385327648247957
 10
133.6544732290772
 20
187.55
 30
0.0
 10
133.6544732290771
 20
187.5180085731566
 30
0.0
 10
133.6565853372196
 20
187.4876096745771
 30
0.0
 10
133.6628173844826
 20
187.4357443862075
 30
0.0
 10
133.6668519347
 20
187.4138245568138
 30
0.0
 10
133.6798379276448
 20
187.3563469370419
 30
0.0
 10
133.6896818629282
 20
187.3283559593101
 30
0.0
 10
133.7197021616996
 20
187.257972827689
 30
0.0
 10
133.7410275165891
 20
187.2287231968157
 30
0.0
 10
133.7823777895952
 20
187.1862387151198
 30
0.0
 10
133.8027017389688
 20
187.1723185294097
 30
0.0
 10
133.8231245798683
 20
187.1634324009951
 30
0.0
  0
LINE
  5
193
330
18D
100
AcDbEntity
  8
$DDT_AUDIT_GENERATED_(95)
  6
Continuous
 62
     7
100
AcDbLine
 10
130.6243112404
 20
186.75
 30
0.0
 11
133.8235215036
 21
186.75
 31
0.0
  0
LINE
  5
194
330
18D
100
AcDbEntity
  8
$DDT_AUDIT_GENERATED_(95)
  6
Continuous
 62
     7
100
AcDbLine
 10
169.0235215036
 20
186.75
 30
0.0
 11
172.2243112404
 21
186.75
 31
0.0
  0
LINE
  5
195
330
18D
100
AcDbEntity
  8
$DDT_AUDIT_GENERATED_(95)
  6
Continuous
 62
     7
100
AcDbLine
 10
172.4243112404
 20
141.25
 30
0.0
 11
172.4243112404
 21
186.55
 31
0.0
  0
LINE
  5
196
330
18D
100
AcDbEntity
  8
$DDT_AUDIT_GENERATED_(95)
  6
Continuous
 62
     7
100
AcDbLine
 10
130.4243112404
 20
186.55
 30
0.0
 11
130.4243112404
 21
186.1677558739
 31
0.0
  0
LINE
  5
197
330
18D
100
AcDbEntity
  8
$DDT_AUDIT_GENERATED_(95)
  6
Continuous
 62
     7
100
AcDbLine
 10
165.4243112404
 20
133.75
 30
0.0
 11
165.4243112404
 21
139.3897347459
 31
0.0
  0
ARC
  5
198
330
18D
100
AcDbEntity
  8
$DDT_AUDIT_GENERATED_(95)
  6
Continuous
 62
     7
100
AcDbCircle
 10
164.9243112404
 20
133.75
 30
0.0
 40
0.5000000000000004
100
AcDbArc
 50
356.7792945269
 51
0.0
  0
ARC
  5
199
330
18D
100
AcDbEntity
  8
$DDT_AUDIT_GENERATED_(95)
  6
Continuous
 62
     7
100
AcDbCircle
 10
171.9243112404
 20
141.25
 30
0.0
 40
0.5000000000000004
100
AcDbArc
 50
356.7792945269
 51
0.0
  0
ARC
  5
19A
330
18D
100
AcDbEntity
  8
$DDT_AUDIT_GENERATED_(95)
  6
Continuous
 62
     7
100
AcDbCircle
 10
130.6243112404
 20
186.55
 30
0.0
 40
0.2000000000000057
100
AcDbArc
 50
90.0
 51
180.0
  0
ARC
  5
19B
330
18D
100
AcDbEntity
  8
$DDT_AUDIT_GENERATED_(95)
  6
Continuous
 62
     7
100
AcDbCircle
 10
172.2243112404
 20
186.55
 30
0.0
 40
0.1999999999999953
100
AcDbArc
 50
0.0
 51
90.0
  0
LINE
  5
19C
330
18D
100
AcDbEntity
  8
$DDT_AUDIT_GENERATED_(113)
  6
Continuous
 62
     7
100
AcDbLine
 10
169.7235215036
 20
187.15
 30
0.0
 11
169.0235215036
 21
187.15
 31
0.0
  0
LINE
  5
19D
330
18D
100
AcDbEntity
  8
$DDT_AUDIT_GENERATED_(113)
  6
Continuous
 62
     7
100
AcDbLine
 10
133.8235215036
 20
187.15
 30
0.0
 11
133.1235215036
 21
187.15
 31
0.0
  0
LINE
  5
19E
330
18D
100
AcDbEntity
  8
$DDT_AUDIT_GENERATED_(113)
  6
Continuous
 62
     7
100
AcDbLine
 10
133.1235215036
 20
187.15
 30
0.0
 11
133.1235215036
 21
186.75
 31
0.0
  0
LINE
  5
19F
330
18D
100
AcDbEntity
  8
$DDT_AUDIT_GENERATED_(113)
  6
Continuous
 62
     7
100
AcDbLine
 10
169.7235215036
 20
186.75
 30
0.0
 11
169.7235215036
 21
187.15
 31
0.0
  0
LINE
  5
1A0
330
18D
100
AcDbEntity
  8
$DDT_AUDIT_GENERATED_(9B)
  6
Continuous
 62
     7
100
AcDbLine
 10
127.1735215036
 20
187.6
 30
0.0
 11
150.6234162653
 21
187.6
 31
0.0
  0
LINE
  5
1A1
330
18D
100
AcDbEntity
  8
$DDT_AUDIT_GENERATED_(9B)
  6
Continuous
 62
     7
100
AcDbLine
 10
152.1834557112
 20
187.6
 30
0.0
 11
175.6735215036
 21
187.6
 31
0.0
  0
ARC
  5
1A2
330
18D
100
AcDbEntity
  8
$DDT_AUDIT_GENERATED_(9B)
  6
Continuous
 62
     7
100
AcDbCircle
 10
175.6735215036
 20
189.6
 30
0.0
 40
2.000000000000002
100
AcDbArc
 50
270.0
 51
317.5458497956
  0
ARC
  5
1A3
330
18D
100
AcDbEntity
  8
$DDT_AUDIT_GENERATED_(9B)
  6
Continuous
 62
     7
100
AcDbCircle
 10
127.1735215036
 20
189.6
 30
0.0
 40
2.000000000000002
100
AcDbArc
 50
222.4541502044
 51
270.0
  0
ARC
  5
1A4
330
18D
100
AcDbEntity
  8
$DDT_AUDIT_GENERATED_(A3)
  6
Continuous
 62
     7
100
AcDbCircle
 10
151.4243112404
 20
112.75
 30
0.0
 40
5.999999999999999
100
AcDbArc
 50
357.9766617787
 51
0.0
  0
ARC
  5
1A5
330
18D
100
AcDbEntity
  8
$DDT_AUDIT_GENERATED_(A3)
  6
Continuous
 62
     7
100
AcDbCircle
 10
151.4243112404
 20
112.75
 30
0.0
 40
5.999999999999999
100
AcDbArc
 50
180.0
 51
181.797095571
  0
LINE
  5
1A6
330
18D
100
AcDbEntity
  8
$DDT_AUDIT_GENERATED_(A3)
  6
Continuous
 62
     7
100
AcDbLine
 10
162.4243112404
 20
113.25
 30
0.0
 11
162.4243112404
 21
132.85
 31
0.0
  0
ARC
  5
1A7
330
18D
100
AcDbEntity
  8
$DDT_AUDIT_GENERATED_(A3)
  6
Continuous
 62
     7
100
AcDbCircle
 10
161.9243112404
 20
113.25
 30
0.0
 40
0.5000000000000004
100
AcDbArc
 50
356.7792945268
 51
0.0
  0
LINE
  5
1A9
330
18D
100
AcDbEntity
  8
$DDT_AUDIT_GENERATED_(1A8)
  6
Continuous
 62
     7
100
AcDbLine
 10
146.3985215036
 20
165.55
 30
0.0
 11
146.4235215036
 21
165.55
 31
0.0
  0
LINE
  5
1AA
330
18D
100
AcDbEntity
  8
$DDT_AUDIT_GENERATED_(8B)
  6
Continuous
 62
     7
100
AcDbLine
 10
146.4235215036
 20
153.475
 30
0.0
 11
146.4235215036
 21
169.475
 31
0.0
  0
LINE
  5
1AB
330
18D
100
AcDbEntity
  8
$DDT_AUDIT_GENERATED_(8B)
  6
Continuous
 62
     7
100
AcDbLine
 10
156.4235215036
 20
169.475
 30
0.0
 11
156.4235215036
 21
153.475
 31
0.0
  0
ARC
  5
1AC
330
18D
100
AcDbEntity
  8
$DDT_AUDIT_GENERATED_(8B)
  6
Continuous
 62
     7
100
AcDbCircle
 10
151.4235215036
 20
169.475
 30
0.0
 40
4.999999999999999
100
AcDbArc
 50
0.0
 51
180.0
  0
LINE
  5
1AD
330
18D
100
AcDbEntity
  8
$DDT_AUDIT_GENERATED_(8B)
  6
Continuous
 62
     7
100
AcDbLine
 10
146.4235215036
 20
151.89859385
 30
0.0
 11
146.4235215036
 21
153.475
 31
0.0
  0
LINE
  5
1AE
330
18D
100
AcDbEntity
  8
$DDT_AUDIT_GENERATED_(8B)
  6
Continuous
 62
     7
100
AcDbLine
 10
156.4235215036
 20
151.7940582264
 30
0.0
 11
156.4235215036
 21
153.475
 31
0.0
  0
CIRCLE
  5
1AF
330
18D
100
AcDbEntity
  8
$DDT_AUDIT_GENERATED_(8B)
  6
Continuous
 62
     7
100
AcDbCircle
 10
151.4235215036
 20
153.475
 30
0.0
 40
5.000000000000004
  0
LINE
  5
1B0
330
18D
100
AcDbEntity
  8
$DDT_AUDIT_GENERATED_(8B)
  6
Continuous
 62
     7
100
AcDbLine
 10
156.4235215036
 20
158.825
 30
0.0
 11
156.4485215036
 21
158.825
 31
0.0
  0
LINE
  5
1B1
330
18D
100
AcDbEntity
  8
$DDT_AUDIT_GENERATED_(8B)
  6
Continuous
 62
     7
100
AcDbLine
 10
156.4485215036
 20
162.125
 30
0.0
 11
156.4235215036
 21
162.125
 31
0.0
  0
LINE
  5
1B2
330
18D
100
AcDbEntity
  8
$DDT_AUDIT_GENERATED_(8B)
  6
Continuous
 62
     7
100
AcDbLine
 10
146.4235215036
 20
162.125
 30
0.0
 11
146.3985215036
 21
162.125
 31
0.0
  0
LINE
  5
1B3
330
18D
100
AcDbEntity
  8
$DDT_AUDIT_GENERATED_(8B)
  6
Continuous
 62
     7
100
AcDbLine
 10
146.3985215036
 20
158.825
 30
0.0
 11
146.4235215036
 21
158.825
 31
0.0
  0
ARC
  5
1B4
330
18D
100
AcDbEntity
  8
$DDT_AUDIT_GENERATED_(95)
  6
Continuous
 62
     7
100
AcDbCircle
 10
151.4235215036
 20
169.475
 30
0.0
 40
5.025
100
AcDbArc
 50
0.0
 51
4.0471162501
  0
ARC
  5
1B5
330
18D
100
AcDbEntity
  8
$DDT_AUDIT_GENERATED_(95)
  6
Continuous
 62
     7
100
AcDbCircle
 10
151.4235215036
 20
169.475
 30
0.0
 40
5.025
100
AcDbArc
 50
173.5050119642
 51
180.0
  0
LINE
  5
1B6
330
18D
100
AcDbEntity
  8
$DDT_AUDIT_GENERATED_(95)
  6
Continuous
 62
     7
100
AcDbLine
 10
146.3985215036
 20
169.475
 30
0.0
 11
146.3985215036
 21
152.282198769
 31
0.0
  0
LINE
  5
1B7
330
18D
100
AcDbEntity
  8
$DDT_AUDIT_GENERATED_(95)
  6
Continuous
 62
     7
100
AcDbLine
 10
156.4485215036
 20
152.282198769
 30
0.0
 11
156.4485215036
 21
169.475
 31
0.0
  0
SPLINE
  5
1B8
330
18D
100
AcDbEntity
  8
$DDT_AUDIT_GENERATED_(95)
  6
Continuous
 62
     7
100
AcDbSpline
210
0.0
220
0.0
230
1.0
 70
     8
 71
     3
 72
    16
 73
    12
 74
     0
 42
0.0000000005919263
 43
0.0000000001
 40
0.0
 40
0.0
 40
0.0
 40
0.0
 40
0.2499999999999999
 40
0.2499999999999999
 40
0.4999999999999999
 40
0.4999999999999999
 40
0.7499999999999998
 40
0.7499999999999998
 40
0.8749999999999999
 40
0.8749999999999999
 40
1.0
 40
1.0
 40
1.0
 40
1.0
 10
156.4485215035522
 20
152.2821987689722
 30
0.0
 10
156.4485215035522
 20
150.9055792857756
 30
0.0
 10
155.9948820538941
 20
149.5024749052832
 30
0.0
 10
154.1845615238757
 20
147.4576956152858
 30
0.0
 10
152.8258856945878
 20
146.8327794639939
 30
0.0
 10
150.0262989088452
 20
146.8313234881332
 30
0.0
 10
148.6733610866808
 20
147.4497108885752
 30
0.0
 10
147.3095930059243
 20
148.9836721146117
 30
0.0
 10
146.9603958529991
 20
149.5939185686001
 30
0.0
 10
146.506457168284
 20
150.8967686107239
 30
0.0
 10
146.398521503552
 20
151.5875080274889
 30
0.0
 10
146.398521503552
 20
152.2821987689722
 30
0.0
  0
LINE
  5
1B9
330
18D
100
AcDbEntity
  8
$DDT_AUDIT_GENERATED_(95)
  6
Continuous
 62
     7
100
AcDbLine
 10
146.3985215036
 20
162.85
 30
0.0
 11
146.4235215036
 21
162.85
 31
0.0
  0
LINE
  5
1BA
330
18D
100
AcDbEntity
  8
$DDT_AUDIT_GENERATED_(95)
  6
Continuous
 62
     7
100
AcDbLine
 10
156.4235215036
 20
162.85
 30
0.0
 11
156.4485215036
 21
162.85
 31
0.0
  0
LINE
  5
1BB
330
18D
100
AcDbEntity
  8
$DDT_AUDIT_GENERATED_(95)
  6
Continuous
 62
     7
100
AcDbLine
 10
137.9235215036
 20
132.85
 30
0.0
 11
164.9235215036
 21
132.85
 31
0.0
  0
LINE
  5
1BC
330
18D
100
AcDbEntity
  8
$DDT_AUDIT_GENERATED_(95)
  6
Continuous
 62
     7
100
AcDbLine
 10
130.9235215036
 20
140.35
 30
0.0
 11
171.9235215036
 21
140.35
 31
0.0
  0
LINE
  5
1BD
330
18D
100
AcDbEntity
  8
$DDT_AUDIT_GENERATED_(95)
  6
Continuous
 62
     7
100
AcDbLine
 10
172.2235215036
 20
186.35
 30
0.0
 11
130.6235215036
 21
186.35
 31
0.0
  0
LINE
  5
1BE
330
18D
100
AcDbEntity
  8
$DDT_AUDIT_GENERATED_(95)
  6
Continuous
 62
     7
100
AcDbLine
 10
172.4235215036
 20
140.85
 30
0.0
 11
172.4235215036
 21
186.15
 31
0.0
  0
LINE
  5
1BF
330
18D
100
AcDbEntity
  8
$DDT_AUDIT_GENERATED_(95)
  6
Continuous
 62
     7
100
AcDbLine
 10
130.4235215036
 20
186.15
 30
0.0
 11
130.4235215036
 21
140.85
 31
0.0
  0
LINE
  5
1C0
330
18D
100
AcDbEntity
  8
$DDT_AUDIT_GENERATED_(95)
  6
Continuous
 62
     7
100
AcDbLine
 10
165.4235215036
 20
133.35
 30
0.0
 11
165.4235215036
 21
139.35
 31
0.0
  0
LINE
  5
1C1
330
18D
100
AcDbEntity
  8
$DDT_AUDIT_GENERATED_(95)
  6
Continuous
 62
     7
100
AcDbLine
 10
137.4235215036
 20
139.35
 30
0.0
 11
137.4235215036
 21
133.35
 31
0.0
  0
ARC
  5
1C2
330
18D
100
AcDbEntity
  8
$DDT_AUDIT_GENERATED_(95)
  6
Continuous
 62
     7
100
AcDbCircle
 10
164.9235215036
 20
133.35
 30
0.0
 40
0.5000000000000004
100
AcDbArc
 50
270.0
 51
0.0
  0
ARC
  5
1C3
330
18D
100
AcDbEntity
  8
$DDT_AUDIT_GENERATED_(95)
  6
Continuous
 62
     7
100
AcDbCircle
 10
137.9235215036
 20
133.35
 30
0.0
 40
0.5000000000000004
100
AcDbArc
 50
180.0
 51
270.0
  0
ARC
  5
1C4
330
18D
100
AcDbEntity
  8
$DDT_AUDIT_GENERATED_(95)
  6
Continuous
 62
     7
100
AcDbCircle
 10
171.9235215036
 20
140.85
 30
0.0
 40
0.5000000000000004
100
AcDbArc
 50
270.0
 51
0.0
  0
ARC
  5
1C5
330
18D
100
AcDbEntity
  8
$DDT_AUDIT_GENERATED_(95)
  6
Continuous
 62
     7
100
AcDbCircle
 10
130.9235215036
 20
140.85
 30
0.0
 40
0.499999999999997
100
AcDbArc
 50
180.0
 51
270.0
  0
ARC
  5
1C6
330
18D
100
AcDbEntity
  8
$DDT_AUDIT_GENERATED_(95)
  6
Continuous
 62
     7
100
AcDbCircle
 10
130.6235215036
 20
186.15
 30
0.0
 40
0.1999999999999919
100
AcDbArc
 50
90.0
 51
180.0
  0
ARC
  5
1C7
330
18D
100
AcDbEntity
  8
$DDT_AUDIT_GENERATED_(95)
  6
Continuous
 62
     7
100
AcDbCircle
 10
172.2235215036
 20
186.15
 30
0.0
 40
0.1999999999999953
100
AcDbArc
 50
0.0
 51
90.0
  0
ARC
  5
1C8
330
18D
100
AcDbEntity
  8
$DDT_AUDIT_GENERATED_(95)
  6
Continuous
 62
     7
100
AcDbCircle
 10
166.4235215036
 20
139.35
 30
0.0
 40
1.000000000000001
100
AcDbArc
 50
90.0
 51
180.0
  0
ARC
  5
1C9
330
18D
100
AcDbEntity
  8
$DDT_AUDIT_GENERATED_(95)
  6
Continuous
 62
     7
100
AcDbCircle
 10
136.4235215036
 20
139.35
 30
0.0
 40
1.000000000000001
100
AcDbArc
 50
0.0
 51
90.0
  0
LINE
  5
1CA
330
18D
100
AcDbEntity
  8
$DDT_AUDIT_GENERATED_(152)
  6
Continuous
 62
     7
100
AcDbLine
 10
154.6080384725
 20
187.6
 30
0.0
 11
154.6080384725
 21
186.35
 31
0.0
  0
LINE
  5
1CB
330
18D
100
AcDbEntity
  8
$DDT_AUDIT_GENERATED_(152)
  6
Continuous
 62
     7
100
AcDbLine
 10
154.6695009941
 20
186.35
 30
0.0
 11
154.6695009941
 21
187.6
 31
0.0
  0
LINE
  5
1CC
330
18D
100
AcDbEntity
  8
$DDT_AUDIT_GENERATED_(152)
  6
Continuous
 62
     7
100
AcDbLine
 10
153.6818126535
 20
187.6
 30
0.0
 11
153.6818126535
 21
186.35
 31
0.0
  0
LINE
  5
1CD
330
18D
100
AcDbEntity
  8
$DDT_AUDIT_GENERATED_(152)
  6
Continuous
 62
     7
100
AcDbLine
 10
151.6164069746
 20
186.35
 30
0.0
 11
151.6164069746
 21
187.2687787227
 31
0.0
  0
LINE
  5
1CE
330
18D
100
AcDbEntity
  8
$DDT_AUDIT_GENERATED_(152)
  6
Continuous
 62
     7
100
AcDbLine
 10
150.6234162653
 20
187.6
 30
0.0
 11
150.6234162653
 21
186.35
 31
0.0
  0
LINE
  5
1CF
330
18D
100
AcDbEntity
  8
$DDT_AUDIT_GENERATED_(152)
  6
Continuous
 62
     7
100
AcDbLine
 10
150.6165592794
 20
187.6
 30
0.0
 11
150.6165592794
 21
186.35
 31
0.0
  0
LINE
  5
1D0
330
18D
100
AcDbEntity
  8
$DDT_AUDIT_GENERATED_(152)
  6
Continuous
 62
     7
100
AcDbLine
 10
148.2280792662
 20
173.3129238622
 30
0.0
 11
148.2280792662
 21
173.3399661248
 31
0.0
  0
LINE
  5
1D1
330
18D
100
AcDbEntity
  8
$DDT_AUDIT_GENERATED_(152)
  6
Continuous
 62
     7
100
AcDbLine
 10
133.8235215036
 20
187.6
 30
0.0
 11
133.8235215036
 21
186.35
 31
0.0
  0
LINE
  5
1D2
330
18D
100
AcDbEntity
  8
$DDT_AUDIT_GENERATED_(152)
  6
Continuous
 62
     7
100
AcDbLine
 10
169.0235215036
 20
186.35
 30
0.0
 11
169.0235215036
 21
187.6
 31
0.0
  0
LINE
  5
1D3
330
18D
100
AcDbEntity
  8
09076038_ROSETTE
  6
Continuous
 62
     7
100
AcDbLine
 10
240.8360938509
 20
188.25
 30
0.0
 11
62.0109491562
 21
188.25
 31
0.0
  0
LINE
  5
1D4
330
18D
100
AcDbEntity
  8
09076038_ROSETTE
  6
Continuous
 62
     7
100
AcDbLine
 10
252.2662735912
 20
194.25
 30
0.0
 11
50.5807694159
 21
194.25
 31
0.0
  0
LINE
  5
1D5
330
18D
100
AcDbEntity
  8
09076038_ROSETTE
  6
Continuous
 62
     7
100
AcDbLine
 10
49.9323252
 20
204.25
 30
0.0
 11
252.9147178071
 21
204.25
 31
0.0
  0
ARC
  5
1D6
330
18D
100
AcDbEntity
  8
09076038_ROSETTE
  6
Continuous
 62
     7
100
AcDbCircle
 10
151.4235215036
 20
188.25
 30
0.0
 40
0.9999999999999866
100
AcDbArc
 50
185.2159085705
 51
354.7840914295
  0
ARC
  5
1D7
330
18D
100
AcDbEntity
  8
09076038_ROSETTE
  6
Continuous
 62
     7
100
AcDbCircle
 10
152.5189666186
 20
188.15
 30
0.0
 40
0.1000000000000009
100
AcDbArc
 50
90.0
 51
174.7840914295
  0
ARC
  5
1D8
330
18D
100
AcDbEntity
  8
09076038_ROSETTE
  6
Continuous
 62
     7
100
AcDbCircle
 10
150.3280763885
 20
188.15
 30
0.0
 40
0.1000000000000067
100
AcDbArc
 50
5.2159085705
 51
90.0
  0
LINE
  5
1D9
330
18D
100
AcDbEntity
  8
09076038_ROSETTE
  6
Continuous
 62
     7
100
AcDbLine
 10
49.4324013525
 20
203.7412737968
 30
0.0
 11
49.5809217208
 21
195.2325475936
 31
0.0
  0
LINE
  5
1DA
330
18D
100
AcDbEntity
  8
09076038_ROSETTE
  6
Continuous
 62
     7
100
AcDbLine
 10
253.2661212863
 20
195.2325475936
 30
0.0
 11
253.4146416546
 21
203.7412737968
 31
0.0
  0
LINE
  5
1DB
330
18D
100
AcDbEntity
  8
09076038_ROSETTE
  6
Continuous
 62
     7
100
AcDbLine
 10
60.9406719356
 20
193.2674524064
 30
0.0
 11
61.0111014611
 21
189.2325475936
 31
0.0
  0
LINE
  5
1DC
330
18D
100
AcDbEntity
  8
09076038_ROSETTE
  6
Continuous
 62
     7
100
AcDbLine
 10
241.835941546
 20
189.2325475936
 30
0.0
 11
241.9063710715
 21
193.2674524064
 31
0.0
  0
ARC
  5
1DD
330
18D
100
AcDbEntity
  8
09076038_ROSETTE
  6
Continuous
 62
     7
100
AcDbCircle
 10
62.0109491562
 20
189.25
 30
0.0
 40
0.99999999999998
100
AcDbArc
 50
181.0
 51
270.0
  0
ARC
  5
1DE
330
18D
100
AcDbEntity
  8
09076038_ROSETTE
  6
Continuous
 62
     7
100
AcDbCircle
 10
240.8360938509
 20
189.25
 30
0.0
 40
1.000000000000001
100
AcDbArc
 50
270.0
 51
359.0
  0
ARC
  5
1DF
330
18D
100
AcDbEntity
  8
09076038_ROSETTE
  6
Continuous
 62
     7
100
AcDbCircle
 10
50.5807694159
 20
195.25
 30
0.0
 40
1.000000000000004
100
AcDbArc
 50
181.0
 51
270.0
  0
ARC
  5
1E0
330
18D
100
AcDbEntity
  8
09076038_ROSETTE
  6
Continuous
 62
     7
100
AcDbCircle
 10
252.2662735912
 20
195.25
 30
0.0
 40
1.000000000000001
100
AcDbArc
 50
270.0
 51
359.0
  0
ARC
  5
1E1
330
18D
100
AcDbEntity
  8
09076038_ROSETTE
  6
Continuous
 62
     7
100
AcDbCircle
 10
59.9408242404
 20
193.25
 30
0.0
 40
1.000000000000001
100
AcDbArc
 50
1.0
 51
90.0
  0
ARC
  5
1E2
330
18D
100
AcDbEntity
  8
09076038_ROSETTE
  6
Continuous
 62
     7
100
AcDbCircle
 10
242.9062187667
 20
193.25
 30
0.0
 40
0.9999999999999974
100
AcDbArc
 50
90.0
 51
179.0
  0
ARC
  5
1E3
330
18D
100
AcDbEntity
  8
09076038_ROSETTE
  6
Continuous
 62
     7
100
AcDbCircle
 10
252.9147178071
 20
203.75
 30
0.0
 40
0.5000000000000041
100
AcDbArc
 50
358.9999999999
 51
90.0
  0
ARC
  5
1E4
330
18D
100
AcDbEntity
  8
09076038_ROSETTE
  6
Continuous
 62
     7
100
AcDbCircle
 10
49.9323252
 20
203.75
 30
0.0
 40
0.5000000000000004
100
AcDbArc
 50
90.0
 51
181.0000000001
  0
LINE
  5
1E5
330
18D
100
AcDbEntity
  8
$DDT_AUDIT_GENERATED_(11A)
  6
Continuous
 62
     7
100
AcDbLine
 10
150.1882456293
 20
132.85
 30
0.0
 11
150.1880714371
 21
132.85
 31
0.0
  0
LINE
  5
1E6
330
18D
100
AcDbEntity
  8
$DDT_AUDIT_GENERATED_(11A)
  6
Continuous
 62
     7
100
AcDbLine
 10
152.65897157
 20
132.85
 30
0.0
 11
152.6587973778
 21
132.85
 31
0.0
  0
LINE
  5
1E7
330
18D
100
AcDbEntity
  8
$DDT_AUDIT_GENERATED_(11A)
  6
Continuous
 62
     7
100
AcDbLine
 10
155.0087630503
 20
132.85
 30
0.0
 11
155.0086059093
 21
132.85
 31
0.0
  0
LINE
  5
1E8
330
18D
100
AcDbEntity
  8
$DDT_AUDIT_GENERATED_(11A)
  6
Continuous
 62
     7
100
AcDbLine
 10
157.0076061081
 20
132.85
 30
0.0
 11
157.0074814003
 21
132.85
 31
0.0
  0
LINE
  5
1E9
330
18D
100
AcDbEntity
  8
$DDT_AUDIT_GENERATED_(11A)
  6
Continuous
 62
     7
100
AcDbLine
 10
145.8395616068
 20
132.85
 30
0.0
 11
145.839436899
 21
132.85
 31
0.0
  0
LINE
  5
1EA
330
18D
100
AcDbEntity
  8
$DDT_AUDIT_GENERATED_(11A)
  6
Continuous
 62
     7
100
AcDbLine
 10
147.8384370978
 20
132.85
 30
0.0
 11
147.8382799568
 21
132.85
 31
0.0
  0
CIRCLE
  5
1EB
330
18D
100
AcDbEntity
  8
$DDT_AUDIT_GENERATED_(A3)
  6
Continuous
 62
     7
100
AcDbCircle
 10
151.4235215036
 20
112.35
 30
0.0
 40
5.999999999999999
  0
LINE
  5
1EC
330
18D
100
AcDbEntity
  8
$DDT_AUDIT_GENERATED_(A3)
  6
Continuous
 62
     7
100
AcDbLine
 10
161.9235215036
 20
112.35
 30
0.0
 11
157.4235215036
 21
112.35
 31
0.0
  0
LINE
  5
1ED
330
18D
100
AcDbEntity
  8
$DDT_AUDIT_GENERATED_(A3)
  6
Continuous
 62
     7
100
AcDbLine
 10
140.9235215036
 20
112.35
 30
0.0
 11
145.4235215036
 21
112.35
 31
0.0
  0
LINE
  5
1EE
330
18D
100
AcDbEntity
  8
$DDT_AUDIT_GENERATED_(A3)
  6
Continuous
 62
     7
100
AcDbLine
 10
140.4235215036
 20
132.85
 30
0.0
 11
140.4235215036
 21
112.85
 31
0.0
  0
LINE
  5
1EF
330
18D
100
AcDbEntity
  8
$DDT_AUDIT_GENERATED_(A3)
  6
Continuous
 62
     7
100
AcDbLine
 10
162.4235215036
 20
112.85
 30
0.0
 11
162.4235215036
 21
132.85
 31
0.0
  0
ARC
  5
1F0
330
18D
100
AcDbEntity
  8
$DDT_AUDIT_GENERATED_(A3)
  6
Continuous
 62
     7
100
AcDbCircle
 10
161.9235215036
 20
112.85
 30
0.0
 40
0.5000000000000004
100
AcDbArc
 50
270.0
 51
0.0
  0
ARC
  5
1F1
330
18D
100
AcDbEntity
  8
$DDT_AUDIT_GENERATED_(A3)
  6
Continuous
 62
     7
100
AcDbCircle
 10
140.9235215036
 20
112.85
 30
0.0
 40
0.5000000000000004
100
AcDbArc
 50
180.0
 51
270.0
  0
ENDBLK
  5
1F3
330
18D
100
AcDbEntity
  8
0
100
AcDbBlockEnd
  0
ENDSEC
  0
SECTION
  2
ENTITIES
  0
INSERT
  5
5F
330
1F
100
AcDbEntity
  8
Default
100
AcDbBlockReference
  2
SEANNOT_GROUP
 10
0.0
 20
0.0
 30
0.0
  0
INSERT
  5
6A
330
1F
100
AcDbEntity
  8
Default
100
AcDbBlockReference
  2
SEANNOT_GROUP1
 10
0.0
 20
0.0
 30
0.0
  0
INSERT
  5
74
330
1F
100
AcDbEntity
  8
Default
100
AcDbBlockReference
  2
SEANNOT_GROUP2
 10
0.0
 20
0.0
 30
0.0
  0
INSERT
  5
7A
330
1F
100
AcDbEntity
  8
Default
100
AcDbBlockReference
  2
SEANNOT_GROUP3
 10
0.0
 20
0.0
 30
0.0
  0
INSERT
  5
80
330
1F
100
AcDbEntity
  8
Default
100
AcDbBlockReference
  2
SEANNOT_GROUP4
 10
0.0
 20
0.0
 30
0.0
  0
INSERT
  5
86
330
1F
100
AcDbEntity
  8
Default
100
AcDbBlockReference
  2
SE
 10
0.0
 20
0.0
 30
0.0
  0
INSERT
  5
DD
330
1F
100
AcDbEntity
  8
Default
100
AcDbBlockReference
  2
SE1
 10
0.0
 20
0.0
 30
0.0
  0
INSERT
  5
18E
330
1F
100
AcDbEntity
  8
Default
100
AcDbBlockReference
  2
SE2
 10
0.0
 20
0.0
 30
0.0
  0
TEXT
  5
1F5
330
1F
100
AcDbEntity
  8
Default
  6
Continuous
 62
     7
100
AcDbText
 10
5.9362635081
 20
53.4225120485
 30
0.0
 40
10.0
  1
Grohe AG^J
  7
SEACAD_seiso_ttf
 11
5.9362635081
 21
63.4225120485
 31
0.0
100
AcDbText
 73
     3
  0
TEXT
  5
1F6
330
1F
100
AcDbEntity
  8
Default
  6
Continuous
 62
     7
100
AcDbText
 10
5.9362635081
 20
37.0588756849
 30
0.0
 40
10.0
  1
 
  7
SEACAD_seiso_ttf
 11
5.9362635081
 21
47.0588756849
 31
0.0
100
AcDbText
 73
     3
  0
TEXT
  5
1F7
330
1F
100
AcDbEntity
  8
Default
  6
Continuous
 62
     7
100
AcDbText
 10
5.9362635081
 20
20.6952393213
 30
0.0
 40
10.0
  1
ecn: 
  7
SEACAD_seiso_ttf
 11
5.9362635081
 21
30.6952393213
 31
0.0
100
AcDbText
 73
     3
  0
TEXT
  5
1F8
330
1F
100
AcDbEntity
  8
Default
  6
Continuous
 62
     7
100
AcDbText
 10
5.9362635081
 20
4.3316029576
 30
0.0
 40
10.0
  1
unit: mm
  7
SEACAD_seiso_ttf
 11
5.9362635081
 21
14.3316029576
 31
0.0
100
AcDbText
 73
     3
  0
LINE
  5
1F9
330
1F
100
AcDbEntity
  8
Default
  6
Continuous
 62
     7
100
AcDbLine
 10
0.0
 20
0.0
 30
0.0
 11
100.0
 21
0.0
 31
0.0
  0
LINE
  5
1FA
330
1F
100
AcDbEntity
  8
Default
  6
Continuous
 62
     7
100
AcDbLine
 10
0.0
 20
0.0
 30
0.0
 11
0.0
 21
100.0
 31
0.0
  0
TEXT
  5
1FB
330
1F
100
AcDbEntity
  8
Default
  6
Continuous
 62
     7
100
AcDbText
 10
24.3923665681
 20
-18.2375342018
 30
0.0
 40
10.0
  1
100 mm
  7
SEACAD_seiso_ttf
 11
24.3923665681
 21
-8.2375342018
 31
0.0
100
AcDbText
 73
     3
  0
TEXT
  5
1FC
330
1F
100
AcDbEntity
  8
Default
  6
Continuous
 62
     7
100
AcDbText
 10
-7.6150308803
 20
24.6231930421
 30
0.0
 40
10.0
  1
100 mm
 50
90.0
  7
SEACAD_seiso_ttf
 11
-17.6150308803
 21
24.6231930421
 31
0.0
100
AcDbText
 73
     3
  0
TEXT
  5
1FD
330
1F
100
AcDbEntity
  8
Default
  6
Continuous
 62
     7
100
AcDbText
 10
28.4878128572
 20
20.0907663715
 30
0.0
 40
10.0
  1
214261
  7
SEACAD_seiso_ttf
 11
28.4878128572
 21
30.0907663715
 31
0.0
100
AcDbText
 73
     3
  0
TEXT
  5
1FE
330
1F
100
AcDbEntity
  8
Default
  6
Continuous
 62
     7
100
AcDbText
 10
5.9012241913
 20
36.7242780188
 30
0.0
 40
10.0
  1
19399000
  7
SEACAD_seiso_ttf
 11
5.9012241913
 21
46.7242780188
 31
0.0
100
AcDbText
 73
     3
  0
ENDSEC
  0
SECTION
  2
OBJECTS
  0
DICTIONARY
  5
C
330
0
100
AcDbDictionary
281
     1
  3
ACAD_GROUP
350
D
  3
ACAD_LAYOUT
350
1A
  3
ACAD_MLEADERSTYLE
350
202
  3
ACAD_MLINESTYLE
350
17
  3
ACAD_PLOTSETTINGS
350
19
  3
ACAD_PLOTSTYLENAME
350
E
  3
ACAD_SCALELIST
350
3B
  3
ACAD_TABLESTYLE
350
201
  3
ACAD_VISUALSTYLE
350
2A
  3
AcDbVariableDictionary
350
1FF
  0
DICTIONARY
  5
D
102
{ACAD_REACTORS
330
C
102
}
330
C
100
AcDbDictionary
281
     1
  0
DICTIONARY
  5
1A
102
{ACAD_REACTORS
330
C
102
}
330
C
100
AcDbDictionary
281
     1
  3
Layout1
350
1E
  3
Model
350
22
  0
DICTIONARY
  5
202
102
{ACAD_REACTORS
330
C
102
}
330
C
100
AcDbDictionary
281
     1
  0
DICTIONARY
  5
17
102
{ACAD_REACTORS
330
C
102
}
330
C
100
AcDbDictionary
281
     1
  3
Standard
350
18
  0
DICTIONARY
  5
19
102
{ACAD_REACTORS
330
C
102
}
330
C
100
AcDbDictionary
281
     1
  0
ACDBDICTIONARYWDFLT
  5
E
102
{ACAD_REACTORS
330
C
102
}
330
C
100
AcDbDictionary
281
     1
  3
Normal
350
F
100
AcDbDictionaryWithDefault
340
F
  0
DICTIONARY
  5
3B
102
{ACAD_REACTORS
330
C
102
}
330
C
100
AcDbDictionary
281
     1
  3
A0
350
3C
  3
A1
350
3D
  3
A2
350
3E
  3
A3
350
3F
  3
A4
350
40
  3
A5
350
41
  3
A6
350
42
  3
A7
350
43
  3
A8
350
44
  3
A9
350
45
  3
B0
350
46
  3
B1
350
47
  3
B2
350
48
  3
B3
350
49
  3
B4
350
4A
  3
B5
350
4B
  3
B6
350
4C
  3
B7
350
4D
  3
B8
350
4E
  3
B9
350
4F
  3
C0
350
50
  3
C1
350
51
  3
C2
350
52
  3
C3
350
53
  3
C4
350
54
  3
C5
350
55
  3
C6
350
56
  3
C7
350
57
  3
C8
350
58
  3
C9
350
59
  3
D0
350
5A
  3
D1
350
5B
  3
D2
350
5C
  0
DICTIONARY
  5
201
102
{ACAD_REACTORS
330
C
102
}
330
C
100
AcDbDictionary
281
     1
  0
DICTIONARY
  5
2A
102
{ACAD_REACTORS
330
C
102
}
330
C
100
AcDbDictionary
281
     1
  3
2dWireframe
350
2F
  3
3D Hidden
350
31
  3
3dWireframe
350
30
  3
Basic
350
32
  3
Brighten
350
36
  3
ColorChange
350
3A
  3
Conceptual
350
34
  3
Dim
350
35
  3
Facepattern
350
39
  3
Flat
350
2B
  3
FlatWithEdges
350
2C
  3
Gouraud
350
2D
  3
GouraudWithEdges
350
2E
  3
Linepattern
350
38
  3
Realistic
350
33
  3
Thicken
350
37
  0
DICTIONARY
  5
1FF
102
{ACAD_REACTORS
330
C
102
}
330
C
100
AcDbDictionary
281
     1
  3
CANNOSCALE
350
200
  3
PSOLHEIGHT
350
204
  3
PSOLWIDTH
350
203
  0
LAYOUT
  5
1E
102
{ACAD_REACTORS
330
1A
102
}
330
1A
100
AcDbPlotSettings
  1

  2
none_device
  4

  6

 40
0.0
 41
0.0
 42
0.0
 43
0.0
 44
0.0
 45
0.0
 46
0.0
 47
0.0
 48
0.0
 49
0.0
140
0.0
141
0.0
142
1.0
143
1.0
 70
   688
 72
     0
 73
     0
 74
     5
  7

 75
    16
147
1.0
148
0.0
149
0.0
100
AcDbLayout
  1
Layout1
 70
     1
 71
     1
 10
0.0
 20
0.0
 11
1682.0
 21
2378.0
 12
0.0
 22
0.0
 32
0.0
 14
0.0
 24
0.0
 34
0.0
 15
1682.0
 25
2378.0
 35
0.0
146
0.0
 13
0.0
 23
0.0
 33
0.0
 16
1.0
 26
0.0
 36
0.0
 17
0.0
 27
1.0
 37
0.0
 76
     0
330
1B
  0
LAYOUT
  5
22
102
{ACAD_REACTORS
330
1A
102
}
330
1A
100
AcDbPlotSettings
  1

  2
none_device
  4

  6

 40
0.0
 41
0.0
 42
0.0
 43
0.0
 44
0.0
 45
0.0
 46
0.0
 47
0.0
 48
0.0
 49
0.0
140
0.0
141
0.0
142
1.0
143
1.0
 70
  1712
 72
     0
 73
     0
 74
     0
  7

 75
     0
147
1.0
148
0.0
149
0.0
100
AcDbLayout
  1
Model
 70
     1
 71
     0
 10
0.0
 20
0.0
 11
1682.0
 21
2378.0
 12
0.0
 22
0.0
 32
0.0
 14
0.0
 24
0.0
 34
0.0
 15
1682.0
 25
2378.0
 35
0.0
146
0.0
 13
0.0
 23
0.0
 33
0.0
 16
1.0
 26
0.0
 36
0.0
 17
0.0
 27
1.0
 37
0.0
 76
     0
330
1F
331
29
  0
MLINESTYLE
  5
18
102
{ACAD_REACTORS
330
17
102
}
330
17
100
AcDbMlineStyle
  2
Standard
 70
     0
  3

 62
   256
 51
90.0
 52
90.0
 71
     2
 49
0.5
 62
   256
  6
BYLAYER
 49
-0.5
 62
   256
  6
BYLAYER
  0
ACDBPLACEHOLDER
  5
F
102
{ACAD_REACTORS
330
E
102
}
330
E
  0
SCALE
  5
3C
102
{ACAD_REACTORS
330
3B
102
}
330
3B
100
AcDbScale
 70
     0
300
1:1
140
1.0
141
1.0
290
     1
  0
SCALE
  5
3D
102
{ACAD_REACTORS
330
3B
102
}
330
3B
100
AcDbScale
 70
     0
300
1:2
140
1.0
141
2.0
290
     0
  0
SCALE
  5
3E
102
{ACAD_REACTORS
330
3B
102
}
330
3B
100
AcDbScale
 70
     0
300
1:4
140
1.0
141
4.0
290
     0
  0
SCALE
  5
3F
102
{ACAD_REACTORS
330
3B
102
}
330
3B
100
AcDbScale
 70
     0
300
1:5
140
1.0
141
5.0
290
     0
  0
SCALE
  5
40
102
{ACAD_REACTORS
330
3B
102
}
330
3B
100
AcDbScale
 70
     0
300
1:8
140
1.0
141
8.0
290
     0
  0
SCALE
  5
41
102
{ACAD_REACTORS
330
3B
102
}
330
3B
100
AcDbScale
 70
     0
300
1:10
140
1.0
141
10.0
290
     0
  0
SCALE
  5
42
102
{ACAD_REACTORS
330
3B
102
}
330
3B
100
AcDbScale
 70
     0
300
1:16
140
1.0
141
16.0
290
     0
  0
SCALE
  5
43
102
{ACAD_REACTORS
330
3B
102
}
330
3B
100
AcDbScale
 70
     0
300
1:20
140
1.0
141
20.0
290
     0
  0
SCALE
  5
44
102
{ACAD_REACTORS
330
3B
102
}
330
3B
100
AcDbScale
 70
     0
300
1:30
140
1.0
141
30.0
290
     0
  0
SCALE
  5
45
102
{ACAD_REACTORS
330
3B
102
}
330
3B
100
AcDbScale
 70
     0
300
1:40
140
1.0
141
40.0
290
     0
  0
SCALE
  5
46
102
{ACAD_REACTORS
330
3B
102
}
330
3B
100
AcDbScale
 70
     0
300
1:50
140
1.0
141
50.0
290
     0
  0
SCALE
  5
47
102
{ACAD_REACTORS
330
3B
102
}
330
3B
100
AcDbScale
 70
     0
300
1:100
140
1.0
141
100.0
290
     0
  0
SCALE
  5
48
102
{ACAD_REACTORS
330
3B
102
}
330
3B
100
AcDbScale
 70
     0
300
2:1
140
2.0
141
1.0
290
     0
  0
SCALE
  5
49
102
{ACAD_REACTORS
330
3B
102
}
330
3B
100
AcDbScale
 70
     0
300
4:1
140
4.0
141
1.0
290
     0
  0
SCALE
  5
4A
102
{ACAD_REACTORS
330
3B
102
}
330
3B
100
AcDbScale
 70
     0
300
8:1
140
8.0
141
1.0
290
     0
  0
SCALE
  5
4B
102
{ACAD_REACTORS
330
3B
102
}
330
3B
100
AcDbScale
 70
     0
300
10:1
140
10.0
141
1.0
290
     0
  0
SCALE
  5
4C
102
{ACAD_REACTORS
330
3B
102
}
330
3B
100
AcDbScale
 70
     0
300
100:1
140
100.0
141
1.0
290
     0
  0
SCALE
  5
4D
102
{ACAD_REACTORS
330
3B
102
}
330
3B
100
AcDbScale
 70
     0
300
1/128" = 1'-0"
140
0.0078125
141
12.0
290
     0
  0
SCALE
  5
4E
102
{ACAD_REACTORS
330
3B
102
}
330
3B
100
AcDbScale
 70
     0
300
1/64" = 1'-0"
140
0.015625
141
12.0
290
     0
  0
SCALE
  5
4F
102
{ACAD_REACTORS
330
3B
102
}
330
3B
100
AcDbScale
 70
     0
300
1/32" = 1'-0"
140
0.03125
141
12.0
290
     0
  0
SCALE
  5
50
102
{ACAD_REACTORS
330
3B
102
}
330
3B
100
AcDbScale
 70
     0
300
1/16" = 1'-0"
140
0.0625
141
12.0
290
     0
  0
SCALE
  5
51
102
{ACAD_REACTORS
330
3B
102
}
330
3B
100
AcDbScale
 70
     0
300
3/32" = 1'-0"
140
0.09375
141
12.0
290
     0
  0
SCALE
  5
52
102
{ACAD_REACTORS
330
3B
102
}
330
3B
100
AcDbScale
 70
     0
300
1/8" = 1'-0"
140
0.125
141
12.0
290
     0
  0
SCALE
  5
53
102
{ACAD_REACTORS
330
3B
102
}
330
3B
100
AcDbScale
 70
     0
300
3/16" = 1'-0"
140
0.1875
141
12.0
290
     0
  0
SCALE
  5
54
102
{ACAD_REACTORS
330
3B
102
}
330
3B
100
AcDbScale
 70
     0
300
1/4" = 1'-0"
140
0.25
141
12.0
290
     0
  0
SCALE
  5
55
102
{ACAD_REACTORS
330
3B
102
}
330
3B
100
AcDbScale
 70
     0
300
3/8" = 1'-0"
140
0.375
141
12.0
290
     0
  0
SCALE
  5
56
102
{ACAD_REACTORS
330
3B
102
}
330
3B
100
AcDbScale
 70
     0
300
1/2" = 1'-0"
140
0.5
141
12.0
290
     0
  0
SCALE
  5
57
102
{ACAD_REACTORS
330
3B
102
}
330
3B
100
AcDbScale
 70
     0
300
3/4" = 1'-0"
140
0.75
141
12.0
290
     0
  0
SCALE
  5
58
102
{ACAD_REACTORS
330
3B
102
}
330
3B
100
AcDbScale
 70
     0
300
1" = 1'-0"
140
1.0
141
12.0
290
     0
  0
SCALE
  5
59
102
{ACAD_REACTORS
330
3B
102
}
330
3B
100
AcDbScale
 70
     0
300
1-1/2" = 1'-0"
140
1.5
141
12.0
290
     0
  0
SCALE
  5
5A
102
{ACAD_REACTORS
330
3B
102
}
330
3B
100
AcDbScale
 70
     0
300
3" = 1'-0"
140
3.0
141
12.0
290
     0
  0
SCALE
  5
5B
102
{ACAD_REACTORS
330
3B
102
}
330
3B
100
AcDbScale
 70
     0
300
6" = 1'-0"
140
6.0
141
12.0
290
     0
  0
SCALE
  5
5C
102
{ACAD_REACTORS
330
3B
102
}
330
3B
100
AcDbScale
 70
     0
300
1'-0" = 1'-0"
140
12.0
141
12.0
290
     0
  0
VISUALSTYLE
  5
2F
102
{ACAD_REACTORS
330
2A
102
}
330
2A
100
AcDbVisualStyle
  2
2dWireframe
 70
     4
 71
     0
 72
     2
 73
     0
 90
        0
 40
-0.6
 41
-30.0
 62
     5
 63
     7
 74
     1
 91
        4
 64
     7
 65
   257
 75
     1
175
     1
 42
1.0
 92
        0
 66
   257
 43
1.0
 76
     1
 77
     6
 78
     2
 67
     7
 79
     5
170
     0
171
     0
290
     0
174
     0
 93
        1
 44
0.0
173
     0
291
     0
 45
0.0
1001
ACAD
1000
AcDbSavedByObjectVersion
1070
     0
  0
VISUALSTYLE
  5
31
102
{ACAD_REACTORS
330
2A
102
}
330
2A
100
AcDbVisualStyle
  2
3D Hidden
 70
     6
 71
     1
 72
     2
 73
     2
 90
        0
 40
-0.6
 41
-30.0
 62
     5
 63
     7
 74
     2
 91
        2
 64
     7
 65
   257
 75
     2
175
     1
 42
40.0
 92
        0
 66
   257
 43
1.0
 76
     1
 77
     6
 78
     2
 67
     7
 79
     3
170
     0
171
     0
290
     0
174
     0
 93
        1
 44
0.0
173
     0
291
     0
 45
0.0
1001
ACAD
1000
AcDbSavedByObjectVersion
1070
     0
  0
VISUALSTYLE
  5
30
102
{ACAD_REACTORS
330
2A
102
}
330
2A
100
AcDbVisualStyle
  2
3dWireframe
 70
     5
 71
     0
 72
     2
 73
     0
 90
        0
 40
-0.6
 41
-30.0
 62
     5
 63
     7
 74
     1
 91
        4
 64
     7
 65
   257
 75
     1
175
     1
 42
1.0
 92
        0
 66
   257
 43
1.0
 76
     1
 77
     6
 78
     2
 67
     7
 79
     5
170
     0
171
     0
290
     0
174
     0
 93
        1
 44
0.0
173
     0
291
     0
 45
0.0
1001
ACAD
1000
AcDbSavedByObjectVersion
1070
     0
  0
VISUALSTYLE
  5
32
102
{ACAD_REACTORS
330
2A
102
}
330
2A
100
AcDbVisualStyle
  2
Basic
 70
     7
 71
     1
 72
     0
 73
     1
 90
        0
 40
-0.6
 41
-30.0
 62
     5
 63
     7
 74
     0
 91
        4
 64
     7
 65
   257
 75
     1
175
     1
 42
1.0
 92
        8
 66
     7
 43
1.0
 76
     1
 77
     6
 78
     2
 67
     7
 79
     5
170
     0
171
     0
290
     0
174
     0
 93
        1
 44
0.0
173
     0
291
     1
 45
0.0
1001
ACAD
1000
AcDbSavedByObjectVersion
1070
     0
  0
VISUALSTYLE
  5
36
102
{ACAD_REACTORS
330
2A
102
}
330
2A
100
AcDbVisualStyle
  2
Brighten
 70
    12
 71
     2
 72
     2
 73
     0
 90
        0
 40
-0.6
 41
-30.0
 62
     5
 63
     7
 74
     1
 91
        4
 64
     7
 65
   257
 75
     1
175
     1
 42
1.0
 92
        8
 66
     7
 43
1.0
 76
     1
 77
     6
 78
     2
 67
     7
 79
     5
170
     0
171
     0
290
     0
174
     0
 93
        1
 44
50.0
173
     0
291
     1
 45
0.0
1001
ACAD
1000
AcDbSavedByObjectVersion
1070
     0
  0
VISUALSTYLE
  5
3A
102
{ACAD_REACTORS
330
2A
102
}
330
2A
100
AcDbVisualStyle
  2
ColorChange
 70
    16
 71
     2
 72
     2
 73
     3
 90
        0
 40
-0.6
 41
-30.0
 62
     5
 63
     8
 74
     1
 91
        4
 64
     7
 65
   257
 75
     1
175
     1
 42
1.0
 92
        8
 66
     8
 43
1.0
 76
     1
 77
     6
 78
     2
 67
     7
 79
     5
170
     0
171
     0
290
     0
174
     0
 93
        1
 44
0.0
173
     0
291
     1
 45
0.0
1001
ACAD
1000
AcDbSavedByObjectVersion
1070
     0
  0
VISUALSTYLE
  5
34
102
{ACAD_REACTORS
330
2A
102
}
330
2A
100
AcDbVisualStyle
  2
Conceptual
 70
     9
 71
     3
 72
     2
 73
     0
 90
        0
 40
-0.6
 41
-30.0
 62
     5
 63
     7
 74
     2
 91
        2
 64
     7
 65
   257
 75
     1
175
     1
 42
40.0
 92
        8
 66
     7
 43
1.0
 76
     1
 77
     6
 78
     2
 67
     7
 79
     3
170
     0
171
     0
290
     0
174
     0
 93
        1
 44
0.0
173
     0
291
     0
 45
0.0
1001
ACAD
1000
AcDbSavedByObjectVersion
1070
     0
  0
VISUALSTYLE
  5
35
102
{ACAD_REACTORS
330
2A
102
}
330
2A
100
AcDbVisualStyle
  2
Dim
 70
    11
 71
     2
 72
     2
 73
     0
 90
        0
 40
-0.6
 41
-30.0
 62
     5
 63
     7
 74
     1
 91
        4
 64
     7
 65
   257
 75
     1
175
     1
 42
1.0
 92
        8
 66
     7
 43
1.0
 76
     1
 77
     6
 78
     2
 67
     7
 79
     5
170
     0
171
     0
290
     0
174
     0
 93
        1
 44
-50.0
173
     0
291
     1
 45
0.0
1001
ACAD
1000
AcDbSavedByObjectVersion
1070
     0
  0
VISUALSTYLE
  5
39
102
{ACAD_REACTORS
330
2A
102
}
330
2A
100
AcDbVisualStyle
  2
Facepattern
 70
    15
 71
     2
 72
     2
 73
     0
 90
        0
 40
-0.6
 41
-30.0
 62
     5
 63
     7
 74
     1
 91
        4
 64
     7
 65
   257
 75
     1
175
     1
 42
1.0
 92
        8
 66
     7
 43
1.0
 76
     1
 77
     6
 78
     2
 67
     7
 79
     5
170
     0
171
     0
290
     0
174
     0
 93
        1
 44
0.0
173
     0
291
     1
 45
0.0
1001
ACAD
1000
AcDbSavedByObjectVersion
1070
     0
  0
VISUALSTYLE
  5
2B
102
{ACAD_REACTORS
330
2A
102
}
330
2A
100
AcDbVisualStyle
  2
Flat
 70
     0
 71
     2
 72
     1
 73
     1
 90
        2
 40
-0.6
 41
30.0
 62
     5
 63
     7
 74
     0
 91
        4
 64
     7
 65
   257
 75
     1
175
     1
 42
1.0
 92
        8
 66
     7
 43
1.0
 76
     1
 77
     6
 78
     2
 67
     7
 79
     5
170
     0
171
     0
290
     0
174
     0
 93
       13
 44
0.0
173
     0
291
     1
 45
0.0
1001
ACAD
1000
AcDbSavedByObjectVersion
1070
     0
  0
VISUALSTYLE
  5
2C
102
{ACAD_REACTORS
330
2A
102
}
330
2A
100
AcDbVisualStyle
  2
FlatWithEdges
 70
     1
 71
     2
 72
     1
 73
     1
 90
        2
 40
-0.6
 41
30.0
 62
     5
 63
     7
 74
     1
 91
        4
 64
     7
 65
   257
 75
     1
175
     1
 42
1.0
 92
        0
 66
   257
 43
1.0
 76
     1
 77
     6
 78
     2
 67
     7
 79
     5
170
     0
171
     0
290
     0
174
     0
 93
       13
 44
0.0
173
     0
291
     1
 45
0.0
1001
ACAD
1000
AcDbSavedByObjectVersion
1070
     0
  0
VISUALSTYLE
  5
2D
102
{ACAD_REACTORS
330
2A
102
}
330
2A
100
AcDbVisualStyle
  2
Gouraud
 70
     2
 71
     2
 72
     2
 73
     1
 90
        2
 40
-0.6
 41
30.0
 62
     5
 63
     7
 74
     0
 91
        4
 64
     7
 65
   257
 75
     1
175
     1
 42
1.0
 92
        0
 66
     7
 43
1.0
 76
     1
 77
     6
 78
     2
 67
     7
 79
     5
170
     0
171
     0
290
     0
174
     0
 93
       13
 44
0.0
173
     0
291
     1
 45
0.0
1001
ACAD
1000
AcDbSavedByObjectVersion
1070
     0
  0
VISUALSTYLE
  5
2E
102
{ACAD_REACTORS
330
2A
102
}
330
2A
100
AcDbVisualStyle
  2
GouraudWithEdges
 70
     3
 71
     2
 72
     2
 73
     1
 90
        2
 40
-0.6
 41
30.0
 62
     5
 63
     7
 74
     1
 91
        4
 64
     7
 65
   257
 75
     1
175
     1
 42
1.0
 92
        0
 66
   257
 43
1.0
 76
     1
 77
     6
 78
     2
 67
     7
 79
     5
170
     0
171
     0
290
     0
174
     0
 93
       13
 44
0.0
173
     0
291
     1
 45
0.0
1001
ACAD
1000
AcDbSavedByObjectVersion
1070
     0
  0
VISUALSTYLE
  5
38
102
{ACAD_REACTORS
330
2A
102
}
330
2A
100
AcDbVisualStyle
  2
Linepattern
 70
    14
 71
     2
 72
     2
 73
     0
 90
        0
 40
-0.6
 41
-30.0
 62
     5
 63
     7
 74
     1
 91
        4
 64
     7
 65
   257
 75
     7
175
     7
 42
1.0
 92
        8
 66
     7
 43
1.0
 76
     1
 77
     6
 78
     2
 67
     7
 79
     5
170
     0
171
     0
290
     0
174
     0
 93
        1
 44
0.0
173
     0
291
     1
 45
0.0
1001
ACAD
1000
AcDbSavedByObjectVersion
1070
     0
  0
VISUALSTYLE
  5
33
102
{ACAD_REACTORS
330
2A
102
}
330
2A
100
AcDbVisualStyle
  2
Realistic
 70
     8
 71
     2
 72
     2
 73
     0
 90
        0
 40
-0.6
 41
-30.0
 62
     5
 63
     7
 74
     1
 91
        0
 64
     7
 65
   257
 75
     1
175
     1
 42
1.0
 92
        8
 66
     8
 43
1.0
 76
     1
 77
     6
 78
     2
 67
     7
 79
     5
170
     0
171
     0
290
     0
174
     0
 93
       13
 44
0.0
173
     0
291
     0
 45
0.0
1001
ACAD
1000
AcDbSavedByObjectVersion
1070
     0
  0
VISUALSTYLE
  5
37
102
{ACAD_REACTORS
330
2A
102
}
330
2A
100
AcDbVisualStyle
  2
Thicken
 70
    13
 71
     2
 72
     2
 73
     0
 90
        0
 40
-0.6
 41
-30.0
 62
     5
 63
     7
 74
     1
 91
        4
 64
     7
 65
   257
 75
     1
175
     1
 42
1.0
 92
       12
 66
     7
 43
1.0
 76
     1
 77
     6
 78
     2
 67
     7
 79
     5
170
     0
171
     0
290
     0
174
     0
 93
        1
 44
0.0
173
     0
291
     1
 45
0.0
1001
ACAD
1000
AcDbSavedByObjectVersion
1070
     0
  0
DICTIONARYVAR
  5
200
102
{ACAD_REACTORS
330
1FF
102
}
330
1FF
100
DictionaryVariables
280
     0
  1
1:1
  0
DICTIONARYVAR
  5
204
102
{ACAD_REACTORS
330
1FF
102
}
330
1FF
100
DictionaryVariables
280
     0
  1
80.000000
  0
DICTIONARYVAR
  5
203
102
{ACAD_REACTORS
330
1FF
102
}
330
1FF
100
DictionaryVariables
280
     0
  1
5.000000
  0
ENDSEC
  0
EOF
