  0
SECTION
  2
HEADER
  9
$ACADVER
  1
AC1015
  9
$ACADMAINTVER
 70
     6
  9
$DWGCODEPAGE
  3
ANSI_1252
  9
$INSBASE
 10
0.0
 20
0.0
 30
0.0
  9
$EXTMIN
 10
0.0
 20
0.0
 30
0.0
  9
$EXTMAX
 10
1682.0
 20
2378.0
 30
0.0
  9
$LIMMIN
 10
0.0
 20
0.0
  9
$LIMMAX
 10
1682.0
 20
2378.0
  9
$ORTHOMODE
 70
     0
  9
$REGENMODE
 70
     1
  9
$FILLMODE
 70
     1
  9
$QTEXTMODE
 70
     0
  9
$MIRRTEXT
 70
     1
  9
$LTSCALE
 40
1.0
  9
$ATTMODE
 70
     1
  9
$TEXTSIZE
 40
2.5
  9
$TRACEWID
 40
1.0
  9
$TEXTSTYLE
  7
Standard
  9
$CLAYER
  8
0
  9
$CELTYPE
  6
ByLayer
  9
$CECOLOR
 62
   256
  9
$CELTSCALE
 40
1.0
  9
$DISPSILH
 70
     0
  9
$DIMSCALE
 40
1.0
  9
$DIMASZ
 40
2.5
  9
$DIMEXO
 40
0.625
  9
$DIMDLI
 40
3.75
  9
$DIMRND
 40
0.0
  9
$DIMDLE
 40
0.0
  9
$DIMEXE
 40
1.25
  9
$DIMTP
 40
0.0
  9
$DIMTM
 40
0.0
  9
$DIMTXT
 40
2.5
  9
$DIMCEN
 40
2.5
  9
$DIMTSZ
 40
0.0
  9
$DIMTOL
 70
     0
  9
$DIMLIM
 70
     0
  9
$DIMTIH
 70
     0
  9
$DIMTOH
 70
     0
  9
$DIMSE1
 70
     0
  9
$DIMSE2
 70
     0
  9
$DIMTAD
 70
     1
  9
$DIMZIN
 70
     8
  9
$DIMBLK
  1

  9
$DIMASO
 70
     1
  9
$DIMSHO
 70
     1
  9
$DIMPOST
  1

  9
$DIMAPOST
  1

  9
$DIMALT
 70
     0
  9
$DIMALTD
 70
     3
  9
$DIMALTF
 40
0.0393700787
  9
$DIMLFAC
 40
1.0
  9
$DIMTOFL
 70
     1
  9
$DIMTVP
 40
0.0
  9
$DIMTIX
 70
     0
  9
$DIMSOXD
 70
     0
  9
$DIMSAH
 70
     0
  9
$DIMBLK1
  1

  9
$DIMBLK2
  1

  9
$DIMSTYLE
  2
ISO-25
  9
$DIMCLRD
 70
     0
  9
$DIMCLRE
 70
     0
  9
$DIMCLRT
 70
     0
  9
$DIMTFAC
 40
1.0
  9
$DIMGAP
 40
0.625
  9
$DIMJUST
 70
     0
  9
$DIMSD1
 70
     0
  9
$DIMSD2
 70
     0
  9
$DIMTOLJ
 70
     0
  9
$DIMTZIN
 70
     8
  9
$DIMALTZ
 70
     0
  9
$DIMALTTZ
 70
     0
  9
$DIMUPT
 70
     0
  9
$DIMDEC
 70
     2
  9
$DIMTDEC
 70
     2
  9
$DIMALTU
 70
     2
  9
$DIMALTTD
 70
     3
  9
$DIMTXSTY
  7
Standard
  9
$DIMAUNIT
 70
     0
  9
$DIMADEC
 70
     0
  9
$DIMALTRND
 40
0.0
  9
$DIMAZIN
 70
     0
  9
$DIMDSEP
 70
    44
  9
$DIMATFIT
 70
     3
  9
$DIMFRAC
 70
     0
  9
$DIMLDRBLK
  1

  9
$DIMLUNIT
 70
     2
  9
$DIMLWD
 70
    -2
  9
$DIMLWE
 70
    -2
  9
$DIMTMOVE
 70
     0
  9
$LUNITS
 70
     2
  9
$LUPREC
 70
     4
  9
$SKETCHINC
 40
1.0
  9
$FILLETRAD
 40
10.0
  9
$AUNITS
 70
     0
  9
$AUPREC
 70
     0
  9
$MENU
  1
.
  9
$ELEVATION
 40
0.0
  9
$PELEVATION
 40
0.0
  9
$THICKNESS
 40
0.0
  9
$LIMCHECK
 70
     0
  9
$CHAMFERA
 40
10.0
  9
$CHAMFERB
 40
10.0
  9
$CHAMFERC
 40
20.0
  9
$CHAMFERD
 40
0.0
  9
$SKPOLY
 70
     0
  9
$TDCREATE
 40
2455496.552253785
  9
$TDUCREATE
 40
2455496.468920452
  9
$TDUPDATE
 40
2455496.552253796
  9
$TDUUPDATE
 40
2455496.468920463
  9
$TDINDWG
 40
0.0000000116
  9
$TDUSRTIMER
 40
0.0000000116
  9
$USRTIMER
 70
     1
  9
$ANGBASE
 50
0.0
  9
$ANGDIR
 70
     0
  9
$PDMODE
 70
     0
  9
$PDSIZE
 40
0.0
  9
$PLINEWID
 40
0.0
  9
$SPLFRAME
 70
     0
  9
$SPLINETYPE
 70
     6
  9
$SPLINESEGS
 70
     8
  9
$HANDSEED
  5
18D
  9
$SURFTAB1
 70
     6
  9
$SURFTAB2
 70
     6
  9
$SURFTYPE
 70
     6
  9
$SURFU
 70
     6
  9
$SURFV
 70
     6
  9
$UCSBASE
  2

  9
$UCSNAME
  2

  9
$UCSORG
 10
0.0
 20
0.0
 30
0.0
  9
$UCSXDIR
 10
1.0
 20
0.0
 30
0.0
  9
$UCSYDIR
 10
0.0
 20
1.0
 30
0.0
  9
$UCSORTHOREF
  2

  9
$UCSORTHOVIEW
 70
     0
  9
$UCSORGTOP
 10
0.0
 20
0.0
 30
0.0
  9
$UCSORGBOTTOM
 10
0.0
 20
0.0
 30
0.0
  9
$UCSORGLEFT
 10
0.0
 20
0.0
 30
0.0
  9
$UCSORGRIGHT
 10
0.0
 20
0.0
 30
0.0
  9
$UCSORGFRONT
 10
0.0
 20
0.0
 30
0.0
  9
$UCSORGBACK
 10
0.0
 20
0.0
 30
0.0
  9
$PUCSBASE
  2

  9
$PUCSNAME
  2

  9
$PUCSORG
 10
0.0
 20
0.0
 30
0.0
  9
$PUCSXDIR
 10
1.0
 20
0.0
 30
0.0
  9
$PUCSYDIR
 10
0.0
 20
1.0
 30
0.0
  9
$PUCSORTHOREF
  2

  9
$PUCSORTHOVIEW
 70
     0
  9
$PUCSORGTOP
 10
0.0
 20
0.0
 30
0.0
  9
$PUCSORGBOTTOM
 10
0.0
 20
0.0
 30
0.0
  9
$PUCSORGLEFT
 10
0.0
 20
0.0
 30
0.0
  9
$PUCSORGRIGHT
 10
0.0
 20
0.0
 30
0.0
  9
$PUCSORGFRONT
 10
0.0
 20
0.0
 30
0.0
  9
$PUCSORGBACK
 10
0.0
 20
0.0
 30
0.0
  9
$USERI1
 70
     0
  9
$USERI2
 70
     0
  9
$USERI3
 70
     0
  9
$USERI4
 70
     0
  9
$USERI5
 70
     0
  9
$USERR1
 40
0.0
  9
$USERR2
 40
0.0
  9
$USERR3
 40
0.0
  9
$USERR4
 40
0.0
  9
$USERR5
 40
0.0
  9
$WORLDVIEW
 70
     1
  9
$SHADEDGE
 70
     3
  9
$SHADEDIF
 70
    70
  9
$TILEMODE
 70
     1
  9
$MAXACTVP
 70
    64
  9
$PINSBASE
 10
0.0
 20
0.0
 30
0.0
  9
$PLIMCHECK
 70
     0
  9
$PEXTMIN
 10
0.0
 20
0.0
 30
0.0
  9
$PEXTMAX
 10
1682.0
 20
2378.0
 30
0.0
  9
$PLIMMIN
 10
0.0
 20
0.0
  9
$PLIMMAX
 10
1682.0
 20
2378.0
  9
$UNITMODE
 70
     0
  9
$VISRETAIN
 70
     1
  9
$PLINEGEN
 70
     0
  9
$PSLTSCALE
 70
     1
  9
$TREEDEPTH
 70
  3020
  9
$CMLSTYLE
  2
Standard
  9
$CMLJUST
 70
     0
  9
$CMLSCALE
 40
20.0
  9
$PROXYGRAPHICS
 70
     1
  9
$MEASUREMENT
 70
     1
  9
$CELWEIGHT
370
    -1
  9
$ENDCAPS
280
     0
  9
$JOINSTYLE
280
     0
  9
$LWDISPLAY
290
     0
  9
$INSUNITS
 70
     4
  9
$HYPERLINKBASE
  1

  9
$STYLESHEET
  1

  9
$XEDIT
290
     1
  9
$CEPSNTYPE
380
     0
  9
$PSTYLEMODE
290
     1
  9
$FINGERPRINTGUID
  2
{9BF3F8F0-B7C2-41C2-A3C3-A7FBE3F4DABC}
  9
$VERSIONGUID
  2
{FAEB1C32-E019-11D5-929B-00C0DF256EC4}
  9
$EXTNAMES
290
     1
  9
$PSVPSCALE
 40
0.0
  9
$OLESTARTUP
290
     0
  0
ENDSEC
  0
SECTION
  2
CLASSES
  0
CLASS
  1
ACDBDICTIONARYWDFLT
  2
AcDbDictionaryWithDefault
  3
ObjectDBX Classes
 90
        0
280
     0
281
     0
  0
CLASS
  1
VISUALSTYLE
  2
AcDbVisualStyle
  3
ObjectDBX Classes
 90
     4095
280
     0
281
     0
  0
CLASS
  1
SCALE
  2
AcDbScale
  3
ObjectDBX Classes
 90
     1153
280
     0
281
     0
  0
CLASS
  1
DICTIONARYVAR
  2
AcDbDictionaryVar
  3
ObjectDBX Classes
 90
        0
280
     0
281
     0
  0
CLASS
  1
ACDBPLACEHOLDER
  2
AcDbPlaceHolder
  3
ObjectDBX Classes
 90
        0
280
     0
281
     0
  0
CLASS
  1
LAYOUT
  2
AcDbLayout
  3
ObjectDBX Classes
 90
        0
280
     0
281
     0
  0
ENDSEC
  0
SECTION
  2
TABLES
  0
TABLE
  2
VPORT
  5
8
330
0
100
AcDbSymbolTable
 70
     1
  0
VPORT
  5
29
330
8
100
AcDbSymbolTableRecord
100
AcDbViewportTableRecord
  2
*Active
 70
     0
 10
0.0
 20
0.0
 11
1.0
 21
1.0
 12
344.1869158879
 22
148.5
 13
0.0
 23
0.0
 14
10.0
 24
10.0
 15
10.0
 25
10.0
 16
0.0
 26
0.0
 36
1.0
 17
0.0
 27
0.0
 37
0.0
 40
297.0
 41
1.9729729729
 42
50.0
 43
0.0
 44
0.0
 50
0.0
 51
0.0
 71
     0
 72
   100
 73
     1
 74
     3
 75
     0
 76
     0
 77
     0
 78
     0
281
     0
 65
     1
110
0.0
120
0.0
130
0.0
111
1.0
121
0.0
131
0.0
112
0.0
122
1.0
132
0.0
 79
     0
146
0.0
  0
ENDTAB
  0
TABLE
  2
LTYPE
  5
5
330
0
100
AcDbSymbolTable
 70
     3
  0
LTYPE
  5
14
330
5
100
AcDbSymbolTableRecord
100
AcDbLinetypeTableRecord
  2
ByBlock
 70
     0
  3

 72
    65
 73
     0
 40
0.0
  0
LTYPE
  5
15
330
5
100
AcDbSymbolTableRecord
100
AcDbLinetypeTableRecord
  2
ByLayer
 70
     0
  3

 72
    65
 73
     0
 40
0.0
  0
LTYPE
  5
16
330
5
100
AcDbSymbolTableRecord
100
AcDbLinetypeTableRecord
  2
Continuous
 70
     0
  3
Solid line
 72
    65
 73
     0
 40
0.0
  0
LTYPE
  5
60
330
5
100
AcDbSymbolTableRecord
100
AcDbLinetypeTableRecord
  2
CENTER2
 70
     0
  3
Center (.5x) ___ _ ___ _ ___ _ ___ _ ___ _ ___
 72
    65
 73
     4
 40
28.575
 49
19.05
 74
     4
 75
     0
340
0
 46
0.0
 50
0.0
 44
0.0
 45
0.0
 49
-3.175
 74
     4
 75
     0
340
0
 46
0.0
 50
0.0
 44
0.0
 45
0.0
 49
3.175
 74
     4
 75
     0
340
0
 46
0.0
 50
0.0
 44
0.0
 45
0.0
 49
-3.175
 74
     4
 75
     0
340
0
 46
0.0
 50
0.0
 44
0.0
 45
0.0
  0
LTYPE
  5
AB
330
5
100
AcDbSymbolTableRecord
100
AcDbLinetypeTableRecord
  2
PHANTOM2
 70
     0
  3
Phantom (.5x) ___ _ _ ___ _ _ ___ _ _ ___ _ _
 72
    65
 73
     6
 40
31.75
 49
15.875
 74
     4
 75
     0
340
0
 46
0.0
 50
0.0
 44
0.0
 45
0.0
 49
-3.175
 74
     4
 75
     0
340
0
 46
0.0
 50
0.0
 44
0.0
 45
0.0
 49
3.175
 74
     4
 75
     0
340
0
 46
0.0
 50
0.0
 44
0.0
 45
0.0
 49
-3.175
 74
     4
 75
     0
340
0
 46
0.0
 50
0.0
 44
0.0
 45
0.0
 49
3.175
 74
     4
 75
     0
340
0
 46
0.0
 50
0.0
 44
0.0
 45
0.0
 49
-3.175
 74
     4
 75
     0
340
0
 46
0.0
 50
0.0
 44
0.0
 45
0.0
  0
ENDTAB
  0
TABLE
  2
LAYER
  5
2
330
0
100
AcDbSymbolTable
 70
    13
  0
LAYER
  5
10
330
2
100
AcDbSymbolTableRecord
100
AcDbLayerTableRecord
  2
0
 70
     0
 62
     7
  6
Continuous
370
    -3
390
F
  0
LAYER
  5
5D
330
2
100
AcDbSymbolTableRecord
100
AcDbLayerTableRecord
  2
Default
 70
     0
 62
     7
  6
Continuous
370
    -3
390
F
  0
LAYER
  5
77
330
2
100
AcDbSymbolTableRecord
100
AcDbLayerTableRecord
  2
$DDT_AUDIT_GENERATED_(77)
 70
     0
 62
     7
  6
Continuous
370
    -3
390
F
  0
LAYER
  5
7D
330
2
100
AcDbSymbolTableRecord
100
AcDbLayerTableRecord
  2
$DDT_AUDIT_GENERATED_(7D)
 70
     0
 62
     7
  6
Continuous
370
    -3
390
F
  0
LAYER
  5
91
330
2
100
AcDbSymbolTableRecord
100
AcDbLayerTableRecord
  2
$DDT_AUDIT_GENERATED_(91)
 70
     0
 62
     7
  6
Continuous
370
    -3
390
F
  0
LAYER
  5
94
330
2
100
AcDbSymbolTableRecord
100
AcDbLayerTableRecord
  2
$DDT_AUDIT_GENERATED_(94)
 70
     0
 62
     7
  6
Continuous
370
    -3
390
F
  0
LAYER
  5
97
330
2
100
AcDbSymbolTableRecord
100
AcDbLayerTableRecord
  2
$DDT_AUDIT_GENERATED_(97)
 70
     0
 62
     7
  6
Continuous
370
    -3
390
F
  0
LAYER
  5
AA
330
2
100
AcDbSymbolTableRecord
100
AcDbLayerTableRecord
  2
$DDT_AUDIT_GENERATED_(AA)
 70
     0
 62
     7
  6
Continuous
370
    -3
390
F
  0
LAYER
  5
BC
330
2
100
AcDbSymbolTableRecord
100
AcDbLayerTableRecord
  2
$DDT_AUDIT_GENERATED_(BC)
 70
     0
 62
     7
  6
Continuous
370
    -3
390
F
  0
LAYER
  5
FC
330
2
100
AcDbSymbolTableRecord
100
AcDbLayerTableRecord
  2
$DDT_AUDIT_GENERATED_(FC)
 70
     0
 62
     7
  6
Continuous
370
    -3
390
F
  0
LAYER
  5
100
330
2
100
AcDbSymbolTableRecord
100
AcDbLayerTableRecord
  2
$DDT_AUDIT_GENERATED_(100)
 70
     0
 62
     7
  6
Continuous
370
    -3
390
F
  0
LAYER
  5
117
330
2
100
AcDbSymbolTableRecord
100
AcDbLayerTableRecord
  2
DV2_Default
 70
     0
 62
     7
  6
Continuous
370
    -3
390
F
  0
LAYER
  5
161
330
2
100
AcDbSymbolTableRecord
100
AcDbLayerTableRecord
  2
$DDT_AUDIT_GENERATED_(161)
 70
     0
 62
     7
  6
Continuous
370
    -3
390
F
  0
ENDTAB
  0
TABLE
  2
STYLE
  5
3
330
0
100
AcDbSymbolTable
 70
     2
  0
STYLE
  5
11
330
3
100
AcDbSymbolTableRecord
100
AcDbTextStyleTableRecord
  2
Standard
 70
     0
 40
0.0
 41
1.0
 50
0.0
 71
     0
 42
2.5
  3
txt
  4

  0
STYLE
  5
17C
330
3
100
AcDbSymbolTableRecord
100
AcDbTextStyleTableRecord
  2
SEACAD_seiso_ttf
 70
     0
 40
0.0
 41
1.0
 50
0.0
 71
     0
 42
0.2
  3
seiso.ttf
  4

  0
ENDTAB
  0
TABLE
  2
VIEW
  5
6
330
0
100
AcDbSymbolTable
 70
     0
  0
ENDTAB
  0
TABLE
  2
UCS
  5
7
330
0
100
AcDbSymbolTable
 70
     0
  0
ENDTAB
  0
TABLE
  2
APPID
  5
9
330
0
100
AcDbSymbolTable
 70
     1
  0
APPID
  5
12
330
9
100
AcDbSymbolTableRecord
100
AcDbRegAppTableRecord
  2
ACAD
 70
     0
  0
ENDTAB
  0
TABLE
  2
DIMSTYLE
  5
A
330
0
100
AcDbSymbolTable
 70
     1
100
AcDbDimStyleTable
  0
DIMSTYLE
105
27
330
A
100
AcDbSymbolTableRecord
100
AcDbDimStyleTableRecord
  2
ISO-25
 70
     0
 41
2.5
 42
0.625
 43
3.75
 44
1.25
 73
     0
 74
     0
 77
     1
 78
     8
140
2.5
141
2.5
143
0.0393700787
147
0.625
171
     3
172
     1
271
     2
272
     2
274
     3
278
    44
283
     0
284
     8
340
11
  0
ENDTAB
  0
TABLE
  2
BLOCK_RECORD
  5
1
330
0
100
AcDbSymbolTable
 70
     7
  0
BLOCK_RECORD
  5
1F
330
1
100
AcDbSymbolTableRecord
100
AcDbBlockTableRecord
  2
*Model_Space
340
22
  0
BLOCK_RECORD
  5
1B
330
1
100
AcDbSymbolTableRecord
100
AcDbBlockTableRecord
  2
*Paper_Space
340
1E
  0
BLOCK_RECORD
  5
5E
330
1
100
AcDbSymbolTableRecord
100
AcDbBlockTableRecord
  2
SEANNOT_GROUP
340
0
102
{BLKREFS
331
5F
102
}
  0
BLOCK_RECORD
  5
65
330
1
100
AcDbSymbolTableRecord
100
AcDbBlockTableRecord
  2
SEANNOT_GROUP1
340
0
102
{BLKREFS
331
66
102
}
  0
BLOCK_RECORD
  5
6F
330
1
100
AcDbSymbolTableRecord
100
AcDbBlockTableRecord
  2
SEANNOT_GROUP2
340
0
102
{BLKREFS
331
70
102
}
  0
BLOCK_RECORD
  5
75
330
1
100
AcDbSymbolTableRecord
100
AcDbBlockTableRecord
  2
SE
340
0
102
{BLKREFS
331
76
102
}
  0
BLOCK_RECORD
  5
A8
330
1
100
AcDbSymbolTableRecord
100
AcDbBlockTableRecord
  2
SE1
340
0
102
{BLKREFS
331
A9
102
}
  0
BLOCK_RECORD
  5
11B
330
1
100
AcDbSymbolTableRecord
100
AcDbBlockTableRecord
  2
SE2
340
0
102
{BLKREFS
331
11C
102
}
  0
ENDTAB
  0
ENDSEC
  0
SECTION
  2
BLOCKS
  0
BLOCK
  5
20
330
1F
100
AcDbEntity
  8
0
100
AcDbBlockBegin
  2
*Model_Space
 70
     0
 10
0.0
 20
0.0
 30
0.0
  3
*Model_Space
  1

  0
ENDBLK
  5
21
330
1F
100
AcDbEntity
  8
0
100
AcDbBlockEnd
  0
BLOCK
  5
1C
330
1B
100
AcDbEntity
 67
     1
  8
0
100
AcDbBlockBegin
  2
*Paper_Space
 70
     0
 10
0.0
 20
0.0
 30
0.0
  3
*Paper_Space
  1

  0
ENDBLK
  5
1D
330
1B
100
AcDbEntity
 67
     1
  8
0
100
AcDbBlockEnd
  0
BLOCK
  5
63
330
5E
100
AcDbEntity
  8
0
100
AcDbBlockBegin
  2
SEANNOT_GROUP
 70
     0
 10
0.0
 20
0.0
 30
0.0
  3
SEANNOT_GROUP
  1

  0
LINE
  5
61
330
5E
100
AcDbEntity
  8
Default
  6
CENTER2
 62
     7
100
AcDbLine
 10
132.0250547169
 20
204.05
 30
0.0
 11
92.0250556109
 21
204.05
 31
0.0
  0
LINE
  5
62
330
5E
100
AcDbEntity
  8
Default
  6
CENTER2
 62
     7
100
AcDbLine
 10
112.0250551639
 20
224.049999553
 30
0.0
 11
112.0250551639
 21
184.050000447
 31
0.0
  0
ENDBLK
  5
64
330
5E
100
AcDbEntity
  8
0
100
AcDbBlockEnd
  0
BLOCK
  5
6D
330
65
100
AcDbEntity
  8
0
100
AcDbBlockBegin
  2
SEANNOT_GROUP1
 70
     0
 10
0.0
 20
0.0
 30
0.0
  3
SEANNOT_GROUP1
  1

  0
LINE
  5
67
330
65
100
AcDbEntity
  8
Default
  6
CENTER2
 62
     7
100
AcDbLine
 10
132.0250547169
 20
328.1215460573
 30
0.0
 11
92.0250556109
 21
328.1215460573
 31
0.0
  0
LINE
  5
68
330
65
100
AcDbEntity
  8
Default
  6
CENTER2
 62
     7
100
AcDbLine
 10
112.0250551639
 20
348.1215456103
 30
0.0
 11
112.0250551639
 21
308.1215465044
 31
0.0
  0
LINE
  5
69
330
65
100
AcDbEntity
  8
Default
  6
CENTER2
 62
     7
100
AcDbLine
 10
137.0250546051
 20
328.1215460573
 30
0.0
 11
142.2750551639
 21
328.1215460573
 31
0.0
  0
LINE
  5
6A
330
65
100
AcDbEntity
  8
Default
  6
CENTER2
 62
     7
100
AcDbLine
 10
112.0250551639
 20
353.1215454985
 30
0.0
 11
112.0250551639
 21
358.3715460573
 31
0.0
  0
LINE
  5
6B
330
65
100
AcDbEntity
  8
Default
  6
CENTER2
 62
     7
100
AcDbLine
 10
87.0250557227
 20
328.1215460573
 30
0.0
 11
81.7750551639
 21
328.1215460573
 31
0.0
  0
LINE
  5
6C
330
65
100
AcDbEntity
  8
Default
  6
CENTER2
 62
     7
100
AcDbLine
 10
112.0250551639
 20
303.1215466161
 30
0.0
 11
112.0250551639
 21
297.8715460573
 31
0.0
  0
ENDBLK
  5
6E
330
65
100
AcDbEntity
  8
0
100
AcDbBlockEnd
  0
BLOCK
  5
73
330
6F
100
AcDbEntity
  8
0
100
AcDbBlockBegin
  2
SEANNOT_GROUP2
 70
     0
 10
0.0
 20
0.0
 30
0.0
  3
SEANNOT_GROUP2
  1

  0
LINE
  5
71
330
6F
100
AcDbEntity
  8
Default
  6
CENTER2
 62
     7
100
AcDbLine
 10
311.4608670186
 20
328.1206048856
 30
0.0
 11
271.4608679126
 21
328.1206048856
 31
0.0
  0
LINE
  5
72
330
6F
100
AcDbEntity
  8
Default
  6
CENTER2
 62
     7
100
AcDbLine
 10
291.4608674656
 20
348.1206044386
 30
0.0
 11
291.4608674656
 21
308.1206053326
 31
0.0
  0
ENDBLK
  5
74
330
6F
100
AcDbEntity
  8
0
100
AcDbBlockEnd
  0
BLOCK
  5
A6
330
75
100
AcDbEntity
  8
0
100
AcDbBlockBegin
  2
SE
 70
     0
 10
0.0
 20
0.0
 30
0.0
  3
SE
  1

  0
ARC
  5
78
330
75
100
AcDbEntity
  8
$DDT_AUDIT_GENERATED_(77)
  6
Continuous
 62
     7
100
AcDbCircle
 10
112.0258449008
 20
328.1206048856
 30
0.0
 40
14.0
100
AcDbArc
 50
295.3769335252
 51
0.0
  0
ARC
  5
79
330
75
100
AcDbEntity
  8
$DDT_AUDIT_GENERATED_(77)
  6
Continuous
 62
     7
100
AcDbCircle
 10
112.0258449008
 20
328.1206048856
 30
0.0
 40
14.0
100
AcDbArc
 50
115.3769335252
 51
244.6230664748
  0
ARC
  5
7A
330
75
100
AcDbEntity
  8
$DDT_AUDIT_GENERATED_(77)
  6
Continuous
 62
     7
100
AcDbCircle
 10
112.0258449008
 20
328.1206048856
 30
0.0
 40
14.0
100
AcDbArc
 50
0.0
 51
64.6230664748
  0
ARC
  5
7B
330
75
100
AcDbEntity
  8
$DDT_AUDIT_GENERATED_(77)
  6
Continuous
 62
     7
100
AcDbCircle
 10
112.0258449008
 20
328.1206048856
 30
0.0
 40
21.0
100
AcDbArc
 50
106.601549599
 51
0.0
  0
ARC
  5
7C
330
75
100
AcDbEntity
  8
$DDT_AUDIT_GENERATED_(77)
  6
Continuous
 62
     7
100
AcDbCircle
 10
112.0258449008
 20
328.1206048856
 30
0.0
 40
21.0
100
AcDbArc
 50
0.0
 51
73.398450401
  0
ARC
  5
7E
330
75
100
AcDbEntity
  8
$DDT_AUDIT_GENERATED_(7D)
  6
Continuous
 62
     7
100
AcDbCircle
 10
112.0250551639
 20
328.1215460573
 30
0.0
 40
26.75000000000001
100
AcDbArc
 50
102.9654140899
 51
0.0
  0
ARC
  5
7F
330
75
100
AcDbEntity
  8
$DDT_AUDIT_GENERATED_(7D)
  6
Continuous
 62
     7
100
AcDbCircle
 10
112.0250551639
 20
328.1215460573
 30
0.0
 40
26.75000000000001
100
AcDbArc
 50
0.0
 51
77.0327929029
  0
LINE
  5
80
330
75
100
AcDbEntity
  8
$DDT_AUDIT_GENERATED_(7D)
  6
Continuous
 62
     7
100
AcDbLine
 10
106.0250551639
 20
265.9845476289
 30
0.0
 11
106.0250551639
 21
265.8800591507
 31
0.0
  0
ARC
  5
81
330
75
100
AcDbEntity
  8
$DDT_AUDIT_GENERATED_(7D)
  6
Continuous
 62
     7
100
AcDbCircle
 10
106.2758902538
 20
259.5193103061
 30
0.0
 40
6.470101381192975
100
AcDbArc
 50
83.3508793472
 51
92.2218190554
  0
ARC
  5
82
330
75
100
AcDbEntity
  8
$DDT_AUDIT_GENERATED_(7D)
  6
Continuous
 62
     7
100
AcDbCircle
 10
112.0250551639
 20
340.6215460573
 30
0.0
 40
74.84285653728713
100
AcDbArc
 50
266.1694082962
 51
273.8305917038
  0
ARC
  5
83
330
75
100
AcDbEntity
  8
$DDT_AUDIT_GENERATED_(7D)
  6
Continuous
 62
     7
100
AcDbCircle
 10
117.8787451327
 20
256.8152412755
 30
0.0
 40
9.170473577112954
100
AcDbArc
 50
89.0858375091
 51
95.3414640883
  0
LINE
  5
84
330
75
100
AcDbEntity
  8
$DDT_AUDIT_GENERATED_(7D)
  6
Continuous
 62
     7
100
AcDbLine
 10
118.0250551639
 20
265.8800591507
 30
0.0
 11
118.0250551639
 21
265.9845476289
 31
0.0
  0
ARC
  5
85
330
75
100
AcDbEntity
  8
$DDT_AUDIT_GENERATED_(7D)
  6
Continuous
 62
     7
100
AcDbCircle
 10
112.0250551639
 20
400.6215460573
 30
0.0
 40
74.98193024708088
100
AcDbArc
 50
0.0
 51
180.0
  0
LINE
  5
86
330
75
100
AcDbEntity
  8
$DDT_AUDIT_GENERATED_(7D)
  6
Continuous
 62
     7
100
AcDbLine
 10
37.0431249073
 20
340.6215460573
 30
0.0
 11
37.0428203208
 21
340.6215460573
 31
0.0
  0
LINE
  5
87
330
75
100
AcDbEntity
  8
$DDT_AUDIT_GENERATED_(7D)
  6
Continuous
 62
     7
100
AcDbLine
 10
37.0431249073
 20
400.6215460573
 30
0.0
 11
37.0428203208
 21
400.6215460573
 31
0.0
  0
LINE
  5
88
330
75
100
AcDbEntity
  8
$DDT_AUDIT_GENERATED_(7D)
  6
Continuous
 62
     7
100
AcDbLine
 10
187.006985411
 20
340.6215460573
 30
0.0
 11
187.0072899975
 21
340.6215460573
 31
0.0
  0
ARC
  5
89
330
75
100
AcDbEntity
  8
$DDT_AUDIT_GENERATED_(7D)
  6
Continuous
 62
     7
100
AcDbCircle
 10
112.0250551639
 20
340.6215460573
 30
0.0
 40
74.98223484310469
100
AcDbArc
 50
180.0
 51
265.4101539129
  0
ARC
  5
8A
330
75
100
AcDbEntity
  8
$DDT_AUDIT_GENERATED_(7D)
  6
Continuous
 62
     7
100
AcDbCircle
 10
112.0250551639
 20
340.6215460573
 30
0.0
 40
74.98223484310469
100
AcDbArc
 50
180.0
 51
265.410242176
  0
LINE
  5
8B
330
75
100
AcDbEntity
  8
$DDT_AUDIT_GENERATED_(7D)
  6
Continuous
 62
     7
100
AcDbLine
 10
37.0428203208
 20
400.6215460573
 30
0.0
 11
37.0428203208
 21
340.6215460573
 31
0.0
  0
LINE
  5
8C
330
75
100
AcDbEntity
  8
$DDT_AUDIT_GENERATED_(7D)
  6
Continuous
 62
     7
100
AcDbLine
 10
37.0428203208
 20
400.6215460573
 30
0.0
 11
37.0428203208
 21
340.6215460573
 31
0.0
  0
LINE
  5
8D
330
75
100
AcDbEntity
  8
$DDT_AUDIT_GENERATED_(7D)
  6
Continuous
 62
     7
100
AcDbLine
 10
187.0072899975
 20
340.6215460573
 30
0.0
 11
187.0072899975
 21
400.6215460573
 31
0.0
  0
LINE
  5
8E
330
75
100
AcDbEntity
  8
$DDT_AUDIT_GENERATED_(7D)
  6
Continuous
 62
     7
100
AcDbLine
 10
187.0072899975
 20
340.6215460573
 30
0.0
 11
187.0072899975
 21
400.6215460573
 31
0.0
  0
ARC
  5
8F
330
75
100
AcDbEntity
  8
$DDT_AUDIT_GENERATED_(7D)
  6
Continuous
 62
     7
100
AcDbCircle
 10
112.0250551639
 20
340.6215460573
 30
0.0
 40
74.98223484310472
100
AcDbArc
 50
274.5900394022
 51
360.0
  0
ARC
  5
90
330
75
100
AcDbEntity
  8
$DDT_AUDIT_GENERATED_(7D)
  6
Continuous
 62
     7
100
AcDbCircle
 10
112.0250551639
 20
340.6215460573
 30
0.0
 40
74.98223484310473
100
AcDbArc
 50
274.5897738101
 51
360.0
  0
ARC
  5
92
330
75
100
AcDbEntity
  8
$DDT_AUDIT_GENERATED_(91)
  6
Continuous
 62
     7
100
AcDbCircle
 10
112.0250551639
 20
328.1215460573
 30
0.0
 40
26.25
100
AcDbArc
 50
103.2112097372
 51
0.0
  0
ARC
  5
93
330
75
100
AcDbEntity
  8
$DDT_AUDIT_GENERATED_(91)
  6
Continuous
 62
     7
100
AcDbCircle
 10
112.0250551639
 20
328.1215460573
 30
0.0
 40
26.25
100
AcDbArc
 50
0.0
 51
76.785249004
  0
ARC
  5
95
330
75
100
AcDbEntity
  8
$DDT_AUDIT_GENERATED_(94)
  6
Continuous
 62
     7
100
AcDbCircle
 10
112.0250551639
 20
328.1215460573
 30
0.0
 40
26.55
100
AcDbArc
 50
0.0
 51
76.93722634
  0
ARC
  5
96
330
75
100
AcDbEntity
  8
$DDT_AUDIT_GENERATED_(94)
  6
Continuous
 62
     7
100
AcDbCircle
 10
112.0250551639
 20
328.1215460573
 30
0.0
 40
26.55
100
AcDbArc
 50
103.059274582
 51
0.0
  0
LINE
  5
98
330
75
100
AcDbEntity
  8
$DDT_AUDIT_GENERATED_(97)
  6
Continuous
 62
     7
100
AcDbLine
 10
117.5258449008
 20
388.1206048856
 30
0.0
 11
106.5258449008
 21
388.1206048856
 31
0.0
  0
ARC
  5
99
330
75
100
AcDbEntity
  8
$DDT_AUDIT_GENERATED_(97)
  6
Continuous
 62
     7
100
AcDbCircle
 10
112.0258449008
 20
328.1206048856
 30
0.0
 40
11.0
100
AcDbArc
 50
302.9261300415
 51
57.0738699585
  0
LINE
  5
9A
330
75
100
AcDbEntity
  8
$DDT_AUDIT_GENERATED_(97)
  6
Continuous
 62
     7
100
AcDbLine
 10
118.0258449008
 20
319.5037609158
 30
0.0
 11
118.0258449008
 21
336.7374488554
 31
0.0
  0
ARC
  5
9B
330
75
100
AcDbEntity
  8
$DDT_AUDIT_GENERATED_(97)
  6
Continuous
 62
     7
100
AcDbCircle
 10
112.0258449008
 20
328.1206048856
 30
0.0
 40
11.0
100
AcDbArc
 50
122.9261300415
 51
237.0738699585
  0
LINE
  5
9C
330
75
100
AcDbEntity
  8
$DDT_AUDIT_GENERATED_(97)
  6
Continuous
 62
     7
100
AcDbLine
 10
106.0258449008
 20
336.7374488554
 30
0.0
 11
106.0258449008
 21
319.5037609158
 31
0.0
  0
LINE
  5
9D
330
75
100
AcDbEntity
  8
$DDT_AUDIT_GENERATED_(97)
  6
Continuous
 62
     7
100
AcDbLine
 10
106.5258449008
 20
312.1206048856
 30
0.0
 11
117.5258449008
 21
312.1206048856
 31
0.0
  0
LINE
  5
9E
330
75
100
AcDbEntity
  8
$DDT_AUDIT_GENERATED_(97)
  6
Continuous
 62
     7
100
AcDbLine
 10
118.0258449008
 20
336.7374488554
 30
0.0
 11
118.0258449008
 21
387.6206048856
 31
0.0
  0
LINE
  5
9F
330
75
100
AcDbEntity
  8
$DDT_AUDIT_GENERATED_(97)
  6
Continuous
 62
     7
100
AcDbLine
 10
118.0258449008
 20
312.6206048856
 30
0.0
 11
118.0258449008
 21
319.5037609158
 31
0.0
  0
LINE
  5
A0
330
75
100
AcDbEntity
  8
$DDT_AUDIT_GENERATED_(97)
  6
Continuous
 62
     7
100
AcDbLine
 10
106.0258449008
 20
319.5037609158
 30
0.0
 11
106.0258449008
 21
312.6206048856
 31
0.0
  0
LINE
  5
A1
330
75
100
AcDbEntity
  8
$DDT_AUDIT_GENERATED_(97)
  6
Continuous
 62
     7
100
AcDbLine
 10
106.0258449008
 20
387.6206048856
 30
0.0
 11
106.0258449008
 21
336.7374488554
 31
0.0
  0
ARC
  5
A2
330
75
100
AcDbEntity
  8
$DDT_AUDIT_GENERATED_(97)
  6
Continuous
 62
     7
100
AcDbCircle
 10
106.5258449008
 20
387.6206048856
 30
0.0
 40
0.5000000000000004
100
AcDbArc
 50
90.0
 51
180.0
  0
ARC
  5
A3
330
75
100
AcDbEntity
  8
$DDT_AUDIT_GENERATED_(97)
  6
Continuous
 62
     7
100
AcDbCircle
 10
117.5258449008
 20
387.6206048856
 30
0.0
 40
0.4999999999999996
100
AcDbArc
 50
0.0
 51
90.0
  0
ARC
  5
A4
330
75
100
AcDbEntity
  8
$DDT_AUDIT_GENERATED_(97)
  6
Continuous
 62
     7
100
AcDbCircle
 10
106.5258449008
 20
312.6206048856
 30
0.0
 40
0.4999999999999996
100
AcDbArc
 50
180.0
 51
270.0
  0
ARC
  5
A5
330
75
100
AcDbEntity
  8
$DDT_AUDIT_GENERATED_(97)
  6
Continuous
 62
     7
100
AcDbCircle
 10
117.5258449008
 20
312.6206048856
 30
0.0
 40
0.5000000000000073
100
AcDbArc
 50
270.0
 51
0.0
  0
ENDBLK
  5
A7
330
75
100
AcDbEntity
  8
0
100
AcDbBlockEnd
  0
BLOCK
  5
119
330
A8
100
AcDbEntity
  8
0
100
AcDbBlockBegin
  2
SE1
 70
     0
 10
0.0
 20
0.0
 30
0.0
  3
SE1
  1

  0
LINE
  5
AC
330
A8
100
AcDbEntity
  8
$DDT_AUDIT_GENERATED_(AA)
  6
PHANTOM2
 62
     7
100
AcDbLine
 10
308.2608674656
 20
344.9470843728
 30
0.0
 11
308.3608674656
 21
344.9470843728
 31
0.0
  0
LINE
  5
AD
330
A8
100
AcDbEntity
  8
$DDT_AUDIT_GENERATED_(AA)
  6
PHANTOM2
 62
     7
100
AcDbLine
 10
308.2608674656
 20
330.9957282748
 30
0.0
 11
308.3608674656
 21
330.9957282748
 31
0.0
  0
LINE
  5
AE
330
A8
100
AcDbEntity
  8
$DDT_AUDIT_GENERATED_(AA)
  6
PHANTOM2
 62
     7
100
AcDbLine
 10
308.2608674656
 20
314.1701899593
 30
0.0
 11
308.3608674656
 21
314.1701899593
 31
0.0
  0
LINE
  5
AF
330
A8
100
AcDbEntity
  8
$DDT_AUDIT_GENERATED_(AA)
  6
PHANTOM2
 62
     7
100
AcDbLine
 10
308.3608674656
 20
310.1233530486
 30
0.0
 11
308.2608674656
 21
310.1233530486
 31
0.0
  0
LINE
  5
B0
330
A8
100
AcDbEntity
  8
$DDT_AUDIT_GENERATED_(AA)
  6
PHANTOM2
 62
     7
100
AcDbLine
 10
308.3608674656
 20
319.3433257992
 30
0.0
 11
308.2608674656
 21
319.3433257992
 31
0.0
  0
LINE
  5
B1
330
A8
100
AcDbEntity
  8
$DDT_AUDIT_GENERATED_(AA)
  6
PHANTOM2
 62
     7
100
AcDbLine
 10
308.3608674656
 20
337.3415188079
 30
0.0
 11
308.2608674656
 21
337.3415188079
 31
0.0
  0
SPLINE
  5
B2
330
A8
100
AcDbEntity
  8
$DDT_AUDIT_GENERATED_(AA)
  6
PHANTOM2
 62
     7
100
AcDbSpline
210
0.0
220
0.0
230
1.0
 70
     8
 71
     3
 72
    16
 73
    12
 74
     0
 42
0.0000000095568261
 43
0.0000000001
 40
0.0
 40
0.0
 40
0.0
 40
0.0
 40
0.4999999999999983
 40
0.4999999999999983
 40
0.7499999999999969
 40
0.7499999999999969
 40
0.8749999999999972
 40
0.8749999999999972
 40
0.9374999999999987
 40
0.9374999999999987
 40
1.0
 40
1.0
 40
1.0
 40
1.0
 10
308.7608674655968
 20
338.215559212501
 30
0.0
 10
308.7608674655968
 20
338.0557943382863
 30
0.0
 10
308.7472678125353
 20
337.8953594085364
 30
0.0
 10
308.6812444726758
 20
337.6592771662292
 30
0.0
 10
308.6520063833567
 20
337.581006754493
 30
0.0
 10
308.5812830317232
 20
337.4702026787219
 30
0.0
 10
308.5531593782246
 20
337.4339667753162
 30
0.0
 10
308.4958462475514
 20
337.3865001439164
 30
0.0
 10
308.4740607930815
 20
337.3718213575229
 30
0.0
 10
308.422656435927
 20
337.3491855854544
 30
0.0
 10
308.3918934774422
 20
337.3415188078577
 30
0.0
 10
308.3608674655968
 20
337.3415188078579
 30
0.0
  0
SPLINE
  5
B3
330
A8
100
AcDbEntity
  8
$DDT_AUDIT_GENERATED_(AA)
  6
PHANTOM2
 62
     7
100
AcDbSpline
210
0.0
220
0.0
230
1.0
 70
     8
 71
     3
 72
    16
 73
    12
 74
     0
 42
0.0000000095567314
 43
0.0000000001
 40
0.0
 40
0.0
 40
0.0
 40
0.0
 40
0.0625000000000006
 40
0.0625000000000006
 40
0.1250000000000012
 40
0.1250000000000012
 40
0.2500000000000011
 40
0.2500000000000011
 40
0.5000000000000001
 40
0.5000000000000001
 40
1.0
 40
1.0
 40
1.0
 40
1.0
 10
308.3608674655968
 20
344.947084372845
 30
0.0
 10
308.3923603660798
 20
344.947084372845
 30
0.0
 10
308.4231036465011
 20
344.9393319469274
 30
0.0
 10
308.4752389137223
 20
344.9161482380979
 30
0.0
 10
308.4969663227004
 20
344.9013231296357
 30
0.0
 10
308.5545908038974
 20
344.8531408547948
 30
0.0
 10
308.5824924500016
 20
344.8168210597963
 30
0.0
 10
308.653366105569
 20
344.7048094792149
 30
0.0
 10
308.6819449008622
 20
344.6273009198264
 30
0.0
 10
308.7474263927226
 20
344.3917005275757
 30
0.0
 10
308.7608674655968
 20
344.2312292206834
 30
0.0
 10
308.7608674655968
 20
344.073043968202
 30
0.0
  0
SPLINE
  5
B4
330
A8
100
AcDbEntity
  8
$DDT_AUDIT_GENERATED_(AA)
  6
PHANTOM2
 62
     7
100
AcDbSpline
210
0.0
220
0.0
230
1.0
 70
     8
 71
     3
 72
    16
 73
    12
 74
     0
 42
0.0000000144707713
 43
0.0000000001
 40
0.0
 40
0.0
 40
0.0
 40
0.0
 40
0.4999999999999977
 40
0.4999999999999977
 40
0.7499999999999971
 40
0.7499999999999971
 40
0.8749999999999972
 40
0.8749999999999972
 40
0.9374999999999987
 40
0.9374999999999987
 40
1.0
 40
1.0
 40
1.0
 40
1.0
 10
308.7608674655968
 20
310.5884202340601
 30
0.0
 10
308.7608674655968
 20
310.5038421512163
 30
0.0
 10
308.7474534861594
 20
310.4186346323816
 30
0.0
 10
308.6815056333522
 20
310.2928086276678
 30
0.0
 10
308.6521633025279
 20
310.2509670539013
 30
0.0
 10
308.5815037435947
 20
310.1919813134401
 30
0.0
 10
308.5534313731176
 20
310.1726958019434
 30
0.0
 10
308.4960772890758
 20
310.1473729086888
 30
0.0
 10
308.4742996291417
 20
310.1395558656081
 30
0.0
 10
308.42305195669
 20
310.1275022064567
 30
0.0
 10
308.3925199596239
 20
310.1233530486239
 30
0.0
 10
308.3608674655968
 20
310.1233530486267
 30
0.0
  0
SPLINE
  5
B5
330
A8
100
AcDbEntity
  8
$DDT_AUDIT_GENERATED_(AA)
  6
PHANTOM2
 62
     7
100
AcDbSpline
210
0.0
220
0.0
230
1.0
 70
     8
 71
     3
 72
    16
 73
    12
 74
     0
 42
0.000000014471659
 43
0.0000000001
 40
0.0
 40
0.0
 40
0.0
 40
0.0
 40
0.0624999999999978
 40
0.0624999999999978
 40
0.1249999999999956
 40
0.1249999999999956
 40
0.2499999999999943
 40
0.2499999999999943
 40
0.4999999999999951
 40
0.4999999999999951
 40
1.0
 40
1.0
 40
1.0
 40
1.0
 10
308.3608674655968
 20
314.1701899593103
 30
0.0
 10
308.3928588924403
 20
314.1701899593103
 30
0.0
 10
308.4232577910198
 20
314.1660299183625
 30
0.0
 10
308.4751230793893
 20
314.153755181439
 30
0.0
 10
308.4970429087831
 20
314.145808668771
 30
0.0
 10
308.554520528555
 20
314.1202312557058
 30
0.0
 10
308.5825115062868
 20
314.1008424881312
 30
0.0
 10
308.6528946379078
 20
314.0417140421756
 30
0.0
 10
308.6821442687812
 20
313.9997112925137
 30
0.0
 10
308.7473668363675
 20
313.8746775003787
 30
0.0
 10
308.7608674655968
 20
313.7901609733419
 30
0.0
 10
308.7608674655968
 20
313.7051227738768
 30
0.0
  0
SPLINE
  5
B6
330
A8
100
AcDbEntity
  8
$DDT_AUDIT_GENERATED_(AA)
  6
PHANTOM2
 62
     7
100
AcDbSpline
210
0.0
220
0.0
230
1.0
 70
     8
 71
     3
 72
    16
 73
    12
 74
     0
 42
0.0000000067654552
 43
0.0000000001
 40
0.0
 40
0.0
 40
0.0
 40
0.0
 40
0.5000000000000019
 40
0.5000000000000019
 40
0.7500000000000019
 40
0.7500000000000019
 40
0.875000000000001
 40
0.875000000000001
 40
0.9375000000000006
 40
0.9375000000000006
 40
1.0
 40
1.0
 40
1.0
 40
1.0
 10
308.7608674655968
 20
320.6824333892322
 30
0.0
 10
308.7608674655968
 20
320.4389005057313
 30
0.0
 10
308.7474534861594
 20
320.1935552335277
 30
0.0
 10
308.6815056333522
 20
319.831253692549
 30
0.0
 10
308.6521633025279
 20
319.7107756825613
 30
0.0
 10
308.5815037435947
 20
319.5409330120144
 30
0.0
 10
308.5534313731176
 20
319.4854025948345
 30
0.0
 10
308.4960772890758
 20
319.4124882297234
 30
0.0
 10
308.4742996291417
 20
319.3899799512441
 30
0.0
 10
308.42305195669
 20
319.3552728229766
 30
0.0
 10
308.3925199596239
 20
319.3433257991481
 30
0.0
 10
308.3608674655968
 20
319.3433257991557
 30
0.0
  0
SPLINE
  5
B7
330
A8
100
AcDbEntity
  8
$DDT_AUDIT_GENERATED_(AA)
  6
PHANTOM2
 62
     7
100
AcDbSpline
210
0.0
220
0.0
230
1.0
 70
     8
 71
     3
 72
    16
 73
    12
 74
     0
 42
0.0000000067653815
 43
0.0000000001
 40
0.0
 40
0.0
 40
0.0
 40
0.0
 40
0.0624999999999982
 40
0.0624999999999982
 40
0.1249999999999964
 40
0.1249999999999964
 40
0.2499999999999941
 40
0.2499999999999941
 40
0.4999999999999946
 40
0.4999999999999946
 40
1.0
 40
1.0
 40
1.0
 40
1.0
 10
308.3608674655968
 20
330.9957282748265
 30
0.0
 10
308.3928588924403
 20
330.9957282748264
 30
0.0
 10
308.4232577910198
 20
330.9837499143168
 30
0.0
 10
308.4751230793893
 20
330.9484062179752
 30
0.0
 10
308.4970429087831
 20
330.9255251466771
 30
0.0
 10
308.554520528555
 20
330.8518779209796
 30
0.0
 10
308.5825115062868
 20
330.7960501897729
 30
0.0
 10
308.6528946379078
 20
330.6257966151313
 30
0.0
 10
308.6821442687812
 20
330.5048545176496
 30
0.0
 10
308.7473668363675
 20
330.1448340618782
 30
0.0
 10
308.7608674655968
 20
329.9014784212596
 30
0.0
 10
308.7608674655968
 20
329.65662068475
 30
0.0
  0
LINE
  5
B8
330
A8
100
AcDbEntity
  8
$DDT_AUDIT_GENERATED_(AA)
  6
PHANTOM2
 62
     7
100
AcDbLine
 10
308.3608674656
 20
346.1215460573
 30
0.0
 11
308.2608674656
 21
346.1215460573
 31
0.0
  0
LINE
  5
B9
330
A8
100
AcDbEntity
  8
$DDT_AUDIT_GENERATED_(AA)
  6
PHANTOM2
 62
     7
100
AcDbLine
 10
308.2608674656
 20
310.1215460573
 30
0.0
 11
308.3608674656
 21
310.1215460573
 31
0.0
  0
ARC
  5
BA
330
A8
100
AcDbEntity
  8
$DDT_AUDIT_GENERATED_(AA)
  6
PHANTOM2
 62
     7
100
AcDbCircle
 10
308.3608674656
 20
345.7215460573
 30
0.0
 40
0.3999999999999976
100
AcDbArc
 50
0.0
 51
90.0
  0
ARC
  5
BB
330
A8
100
AcDbEntity
  8
$DDT_AUDIT_GENERATED_(AA)
  6
PHANTOM2
 62
     7
100
AcDbCircle
 10
308.3608674656
 20
310.5215460573
 30
0.0
 40
0.3999999999999976
100
AcDbArc
 50
297.9237547531
 51
0.0
  0
LINE
  5
BD
330
A8
100
AcDbEntity
  8
$DDT_AUDIT_GENERATED_(BC)
  6
Continuous
 62
     7
100
AcDbLine
 10
342.0358674656
 20
350.2610206454
 30
0.0
 11
326.0358674656
 21
350.2610206454
 31
0.0
  0
ARC
  5
BE
330
A8
100
AcDbEntity
  8
$DDT_AUDIT_GENERATED_(BC)
  6
Continuous
 62
     7
100
AcDbCircle
 10
327.0879202483
 20
360.980368068
 30
0.0
 40
10.77085067316123
100
AcDbArc
 50
235.8132709006
 51
264.3946445679
  0
ARC
  5
BF
330
A8
100
AcDbEntity
  8
$DDT_AUDIT_GENERATED_(BC)
  6
Continuous
 62
     7
100
AcDbCircle
 10
345.1742285058
 20
363.9453502659
 30
0.0
 40
14.09774583792931
100
AcDbArc
 50
233.7891616373
 51
243.9036414967
  0
ARC
  5
C0
330
A8
100
AcDbEntity
  8
$DDT_AUDIT_GENERATED_(BC)
  6
Continuous
 62
     7
100
AcDbCircle
 10
342.0358677225
 20
359.7445988828
 30
0.0
 40
8.581176933115113
100
AcDbArc
 50
234.3613998438
 51
305.6385945807
  0
LINE
  5
C1
330
A8
100
AcDbEntity
  8
$DDT_AUDIT_GENERATED_(BC)
  6
Continuous
 62
     7
100
AcDbLine
 10
336.8538509867
 20
352.5706048856
 30
0.0
 11
321.5424388392
 21
352.5706048856
 31
0.0
  0
LINE
  5
C2
330
A8
100
AcDbEntity
  8
$DDT_AUDIT_GENERATED_(BC)
  6
Continuous
 62
     7
100
AcDbLine
 10
346.5293705005
 20
353.2706048856
 30
0.0
 11
337.5497610231
 21
353.2706048856
 31
0.0
  0
LINE
  5
C3
330
A8
100
AcDbEntity
  8
$DDT_AUDIT_GENERATED_(BC)
  6
Continuous
 62
     7
100
AcDbLine
 10
347.0358674656
 20
351.5800918328
 30
0.0
 11
347.0358674656
 21
352.7667722032
 31
0.0
  0
LINE
  5
C4
330
A8
100
AcDbEntity
  8
$DDT_AUDIT_GENERATED_(BC)
  6
Continuous
 62
     7
100
AcDbLine
 10
348.4135514973
 20
349.0598984968
 30
0.0
 11
347.1028547637
 21
351.3300918328
 31
0.0
  0
LINE
  5
C5
330
A8
100
AcDbEntity
  8
$DDT_AUDIT_GENERATED_(BC)
  6
Continuous
 62
     7
100
AcDbLine
 10
321.0358674656
 20
352.0649931449
 30
0.0
 11
321.0358674656
 21
349.1146604256
 31
0.0
  0
ARC
  5
C6
330
A8
100
AcDbEntity
  8
$DDT_AUDIT_GENERATED_(BC)
  6
Continuous
 62
     7
100
AcDbCircle
 10
321.5249986995
 20
352.0773278906
 30
0.0
 40
0.4871761821412109
100
AcDbArc
 50
87.9878696468
 51
181.5609353136
  0
ARC
  5
C7
330
A8
100
AcDbEntity
  8
$DDT_AUDIT_GENERATED_(BC)
  6
Continuous
 62
     7
100
AcDbCircle
 10
347.5358674656
 20
351.5800918328
 30
0.0
 40
0.5000000000000013
100
AcDbArc
 50
180.4231257411
 51
209.4145029821
  0
SPLINE
  5
C8
330
A8
100
AcDbEntity
  8
$DDT_AUDIT_GENERATED_(BC)
  6
Continuous
 62
     7
100
AcDbSpline
210
0.0
220
0.0
230
1.0
 70
     8
 71
     3
 72
    10
 73
     6
 74
     0
 42
0.0000000612103152
 43
0.0000000001
 40
0.0
 40
0.0
 40
0.0
 40
0.0
 40
0.1618729230237766
 40
0.5852778188933067
 40
1.0
 40
1.0
 40
1.0
 40
1.0
 10
337.0326660054997
 20
352.7552988235612
 30
0.0
 10
337.0333976356808
 20
352.7458202361317
 30
0.0
 10
337.0353774468408
 20
352.7164393060253
 30
0.0
 10
337.0131212168357
 20
352.6620379863259
 30
0.0
 10
336.9847804804691
 20
352.6320210174865
 30
0.0
 10
336.967404334153
 20
352.6149528911001
 30
0.0
  0
ARC
  5
C9
330
A8
100
AcDbEntity
  8
$DDT_AUDIT_GENERATED_(BC)
  6
Continuous
 62
     7
100
AcDbCircle
 10
346.5446150327
 20
352.783573208
 30
0.0
 40
0.4846091209206161
100
AcDbArc
 50
357.9911062809
 51
91.8494998145
  0
ARC
  5
CA
330
A8
100
AcDbEntity
  8
$DDT_AUDIT_GENERATED_(BC)
  6
Continuous
 62
     7
100
AcDbCircle
 10
337.527902344
 20
352.7787564597
 30
0.0
 40
0.4882809508770386
100
AcDbArc
 50
87.4589339526
 51
181.7585825258
  0
ARC
  5
CB
330
A8
100
AcDbEntity
  8
$DDT_AUDIT_GENERATED_(77)
  6
Continuous
 62
     7
100
AcDbCircle
 10
326.1268288814
 20
370.2597692062
 30
0.0
 40
21.74942135501635
100
AcDbArc
 50
256.3952416204
 51
269.7603742953
  0
LINE
  5
CC
330
A8
100
AcDbEntity
  8
$DDT_AUDIT_GENERATED_(77)
  6
Continuous
 62
     7
100
AcDbLine
 10
326.0358674656
 20
348.5105380635
 30
0.0
 11
343.2286686966
 21
348.5105380635
 31
0.0
  0
ARC
  5
CD
330
A8
100
AcDbEntity
  8
$DDT_AUDIT_GENERATED_(77)
  6
Continuous
 62
     7
100
AcDbCircle
 10
343.3477312879
 20
372.0968698493
 30
0.0
 40
23.58663229480732
100
AcDbArc
 50
269.7107763049
 51
283.0629500339
  0
LINE
  5
CE
330
A8
100
AcDbEntity
  8
$DDT_AUDIT_GENERATED_(77)
  6
Continuous
 62
     7
100
AcDbLine
 10
362.6608674656
 20
341.6206048856
 30
0.0
 11
362.6608674656
 21
314.6206048856
 31
0.0
  0
LINE
  5
CF
330
A8
100
AcDbEntity
  8
$DDT_AUDIT_GENERATED_(77)
  6
Continuous
 62
     7
100
AcDbLine
 10
355.1608674656
 20
348.6206048856
 30
0.0
 11
355.1608674656
 21
307.6206048856
 31
0.0
  0
LINE
  5
D0
330
A8
100
AcDbEntity
  8
$DDT_AUDIT_GENERATED_(77)
  6
Continuous
 62
     7
100
AcDbLine
 10
309.1608674656
 20
307.3206048856
 30
0.0
 11
309.1608674656
 21
348.9206048856
 31
0.0
  0
LINE
  5
D1
330
A8
100
AcDbEntity
  8
$DDT_AUDIT_GENERATED_(77)
  6
Continuous
 62
     7
100
AcDbLine
 10
321.0108674656
 20
349.1206048856
 30
0.0
 11
309.3608674656
 21
349.1206048856
 31
0.0
  0
LINE
  5
D2
330
A8
100
AcDbEntity
  8
$DDT_AUDIT_GENERATED_(77)
  6
Continuous
 62
     7
100
AcDbLine
 10
354.6608674656
 20
349.1206048856
 30
0.0
 11
348.678816658
 21
349.1206048856
 31
0.0
  0
LINE
  5
D3
330
A8
100
AcDbEntity
  8
$DDT_AUDIT_GENERATED_(77)
  6
Continuous
 62
     7
100
AcDbLine
 10
309.3608674656
 20
307.1206048856
 30
0.0
 11
354.6608674656
 21
307.1206048856
 31
0.0
  0
LINE
  5
D4
330
A8
100
AcDbEntity
  8
$DDT_AUDIT_GENERATED_(77)
  6
Continuous
 62
     7
100
AcDbLine
 10
362.1608674656
 20
342.1206048856
 30
0.0
 11
356.1608674656
 21
342.1206048856
 31
0.0
  0
LINE
  5
D5
330
A8
100
AcDbEntity
  8
$DDT_AUDIT_GENERATED_(77)
  6
Continuous
 62
     7
100
AcDbLine
 10
356.1608674656
 20
314.1206048856
 30
0.0
 11
362.1608674656
 21
314.1206048856
 31
0.0
  0
ARC
  5
D6
330
A8
100
AcDbEntity
  8
$DDT_AUDIT_GENERATED_(77)
  6
Continuous
 62
     7
100
AcDbCircle
 10
362.1608674656
 20
341.6206048856
 30
0.0
 40
0.5000000000000004
100
AcDbArc
 50
0.0
 51
90.0
  0
ARC
  5
D7
330
A8
100
AcDbEntity
  8
$DDT_AUDIT_GENERATED_(77)
  6
Continuous
 62
     7
100
AcDbCircle
 10
362.1608674656
 20
314.6206048856
 30
0.0
 40
0.5000000000000004
100
AcDbArc
 50
270.0
 51
0.0
  0
ARC
  5
D8
330
A8
100
AcDbEntity
  8
$DDT_AUDIT_GENERATED_(77)
  6
Continuous
 62
     7
100
AcDbCircle
 10
354.6608674656
 20
348.6206048856
 30
0.0
 40
0.5000000000000004
100
AcDbArc
 50
0.0
 51
90.0
  0
ARC
  5
D9
330
A8
100
AcDbEntity
  8
$DDT_AUDIT_GENERATED_(77)
  6
Continuous
 62
     7
100
AcDbCircle
 10
354.6608674656
 20
307.6206048856
 30
0.0
 40
0.5000000000000004
100
AcDbArc
 50
270.0
 51
0.0
  0
ARC
  5
DA
330
A8
100
AcDbEntity
  8
$DDT_AUDIT_GENERATED_(77)
  6
Continuous
 62
     7
100
AcDbCircle
 10
309.3608674656
 20
307.3206048856
 30
0.0
 40
0.1999999999999919
100
AcDbArc
 50
180.0
 51
270.0
  0
ARC
  5
DB
330
A8
100
AcDbEntity
  8
$DDT_AUDIT_GENERATED_(77)
  6
Continuous
 62
     7
100
AcDbCircle
 10
309.3608674656
 20
348.9206048856
 30
0.0
 40
0.1999999999999953
100
AcDbArc
 50
90.0
 51
180.0
  0
ARC
  5
DC
330
A8
100
AcDbEntity
  8
$DDT_AUDIT_GENERATED_(77)
  6
Continuous
 62
     7
100
AcDbCircle
 10
356.1608674656
 20
343.1206048856
 30
0.0
 40
1.000000000000001
100
AcDbArc
 50
180.0
 51
270.0
  0
ARC
  5
DD
330
A8
100
AcDbEntity
  8
$DDT_AUDIT_GENERATED_(77)
  6
Continuous
 62
     7
100
AcDbCircle
 10
356.1608674656
 20
313.1206048856
 30
0.0
 40
1.000000000000001
100
AcDbArc
 50
90.0
 51
180.0
  0
ARC
  5
DE
330
A8
100
AcDbEntity
  8
$DDT_AUDIT_GENERATED_(7D)
  6
Continuous
 62
     7
100
AcDbCircle
 10
5239.7108715471
 20
251.0164642769
 30
0.0
 40
4935.738344911138
100
AcDbArc
 50
178.794324855
 51
179.4154504346
  0
ARC
  5
DF
330
A8
100
AcDbEntity
  8
$DDT_AUDIT_GENERATED_(7D)
  6
Continuous
 62
     7
100
AcDbCircle
 10
5214.4411619519
 20
454.9525019277
 30
0.0
 40
4911.344030335386
100
AcDbArc
 50
179.774451658
 51
180.6337096088
  0
ARC
  5
E0
330
A8
100
AcDbEntity
  8
$DDT_AUDIT_GENERATED_(7D)
  6
Continuous
 62
     7
100
AcDbCircle
 10
-2410.6995142056
 20
370.6215460573
 30
0.0
 40
2714.262964616265
100
AcDbArc
 50
359.3664797901
 51
0.6335202099
  0
ARC
  5
E1
330
A8
100
AcDbEntity
  8
$DDT_AUDIT_GENERATED_(7D)
  6
Continuous
 62
     7
100
AcDbCircle
 10
5214.4411581764
 20
286.2905902004
 30
0.0
 40
4911.34402656
100
AcDbArc
 50
179.3662903909
 51
180.2255483423
  0
LINE
  5
E2
330
A8
100
AcDbEntity
  8
$DDT_AUDIT_GENERATED_(7D)
  6
Continuous
 62
     7
100
AcDbLine
 10
294.9608674656
 20
265.9845476289
 30
0.0
 11
291.9783172139
 21
265.8800591507
 31
0.0
  0
SPLINE
  5
E3
330
A8
100
AcDbEntity
  8
$DDT_AUDIT_GENERATED_(7D)
  6
Continuous
 62
     7
100
AcDbSpline
210
0.0
220
0.0
230
1.0
 70
     8
 71
     3
 72
    12
 73
     8
 74
     0
 42
0.0000000098128708
 43
0.0000000001
 40
0.0
 40
0.0
 40
0.0
 40
0.0
 40
0.2500000000000003
 40
0.2500000000000003
 40
0.5000000000000006
 40
0.5000000000000006
 40
1.0
 40
1.0
 40
1.0
 40
1.0
 10
294.9608674655968
 20
265.9845476289116
 30
0.0
 10
295.0929436664992
 20
265.9891747104393
 30
0.0
 10
295.2226441334541
 20
265.9916153486873
 30
0.0
 10
295.4648649158411
 20
265.9921316533029
 30
0.0
 10
295.5758358397036
 20
265.9901652775275
 30
0.0
 10
295.8524892217462
 20
265.9786952050354
 30
0.0
 10
295.9608674655968
 20
265.9635499207203
 30
0.0
 10
295.9608674655968
 20
265.9458928987461
 30
0.0
  0
LINE
  5
E4
330
A8
100
AcDbEntity
  8
$DDT_AUDIT_GENERATED_(7D)
  6
Continuous
 62
     7
100
AcDbLine
 10
295.9608674656
 20
265.9458928987
 30
0.0
 11
295.9608674656
 21
265.77868952
 31
0.0
  0
LINE
  5
E5
330
A8
100
AcDbEntity
  8
$DDT_AUDIT_GENERATED_(7D)
  6
Continuous
 62
     7
100
AcDbLine
 10
291.4608674656
 20
340.6215460573
 30
0.0
 11
291.4608674656
 21
400.6215460573
 31
0.0
  0
LINE
  5
E6
330
A8
100
AcDbEntity
  8
$DDT_AUDIT_GENERATED_(7D)
  6
Continuous
 62
     7
100
AcDbLine
 10
291.4608674656
 20
266.3813729216
 30
0.0
 11
291.4608674656
 21
340.6215460573
 31
0.0
  0
LINE
  5
E7
330
A8
100
AcDbEntity
  8
$DDT_AUDIT_GENERATED_(7D)
  6
Continuous
 62
     7
100
AcDbLine
 10
291.4608674656
 20
400.6215460573
 30
0.0
 11
291.4608674656
 21
475.1037809004
 31
0.0
  0
SPLINE
  5
E8
330
A8
100
AcDbEntity
  8
$DDT_AUDIT_GENERATED_(7D)
  6
Continuous
 62
     7
100
AcDbSpline
210
0.0
220
0.0
230
1.0
 70
     8
 71
     3
 72
    10
 73
     6
 74
     0
 42
0.0000000121151001
 43
0.0000000001
 40
0.0
 40
0.0
 40
0.0
 40
0.0
 40
0.5
 40
0.5
 40
1.0
 40
1.0
 40
1.0
 40
1.0
 10
291.978317213948
 20
265.8800591507402
 30
0.0
 10
291.8431775240412
 20
265.8753247871722
 30
0.0
 10
291.7091202362031
 20
265.9278408944938
 30
0.0
 10
291.5175897315426
 20
266.1135863906024
 30
0.0
 10
291.4608674655968
 20
266.2461625998741
 30
0.0
 10
291.4608674655968
 20
266.3813729215973
 30
0.0
  0
LINE
  5
E9
330
A8
100
AcDbEntity
  8
$DDT_AUDIT_GENERATED_(7D)
  6
Continuous
 62
     7
100
AcDbLine
 10
302.1727390052
 20
475.2474792605
 30
0.0
 11
291.9783172139
 21
475.6034763139
 31
0.0
  0
LINE
  5
EA
330
A8
100
AcDbEntity
  8
$DDT_AUDIT_GENERATED_(7D)
  6
Continuous
 62
     7
100
AcDbLine
 10
302.1709002286
 20
475.247543472
 30
0.0
 11
291.9783172139
 21
475.6034763139
 31
0.0
  0
LINE
  5
EB
330
A8
100
AcDbEntity
  8
$DDT_AUDIT_GENERATED_(7D)
  6
Continuous
 62
     7
100
AcDbLine
 10
295.9608674656
 20
265.77868952
 30
0.0
 11
302.1728238675
 21
265.9956158176
 31
0.0
  0
LINE
  5
EC
330
A8
100
AcDbEntity
  8
$DDT_AUDIT_GENERATED_(7D)
  6
Continuous
 62
     7
100
AcDbLine
 10
295.9608674656
 20
265.77868952
 30
0.0
 11
302.1709002286
 21
265.9955486427
 31
0.0
  0
ARC
  5
ED
330
A8
100
AcDbEntity
  8
$DDT_AUDIT_GENERATED_(7D)
  6
Continuous
 62
     7
100
AcDbCircle
 10
-2415.5391325344
 20
370.6215460573
 30
0.0
 40
2720.65
100
AcDbArc
 50
359.6681918931
 51
2.1823748511
  0
ARC
  5
EE
330
A8
100
AcDbEntity
  8
$DDT_AUDIT_GENERATED_(7D)
  6
Continuous
 62
     7
100
AcDbCircle
 10
-2415.5391325344
 20
370.6215460573
 30
0.0
 40
2720.65
100
AcDbArc
 50
357.8176265529
 51
358.5417869451
  0
ARC
  5
EF
330
A8
100
AcDbEntity
  8
$DDT_AUDIT_GENERATED_(7D)
  6
Continuous
 62
     7
100
AcDbCircle
 10
-2415.5391325344
 20
370.6215460573
 30
0.0
 40
2720.650000000001
100
AcDbArc
 50
359.6681912822
 51
2.1833617014
  0
ARC
  5
F0
330
A8
100
AcDbEntity
  8
$DDT_AUDIT_GENERATED_(7D)
  6
Continuous
 62
     7
100
AcDbCircle
 10
-2415.5391325344
 20
370.6215460573
 30
0.0
 40
2720.650000000001
100
AcDbArc
 50
357.8166383736
 51
358.5417889035
  0
ARC
  5
F1
330
A8
100
AcDbEntity
  8
$DDT_AUDIT_GENERATED_(7D)
  6
Continuous
 62
     7
100
AcDbCircle
 10
302.1359121068
 20
474.2481557348
 30
0.0
 40
0.9999999999323212
100
AcDbArc
 50
359.7747543589
 51
87.1688986834
  0
ARC
  5
F2
330
A8
100
AcDbEntity
  8
$DDT_AUDIT_GENERATED_(7D)
  6
Continuous
 62
     7
100
AcDbCircle
 10
302.1359121068
 20
474.2481557348
 30
0.0
 40
0.9999999999324058
100
AcDbArc
 50
359.7747543589
 51
88.0285442388
  0
ARC
  5
F3
330
A8
100
AcDbEntity
  8
$DDT_AUDIT_GENERATED_(7D)
  6
Continuous
 62
     7
100
AcDbCircle
 10
302.1359121068
 20
266.9949363798
 30
0.0
 40
0.9999999999943615
100
AcDbArc
 50
272.6229872547
 51
0.2252456411
  0
ARC
  5
F4
330
A8
100
AcDbEntity
  8
$DDT_AUDIT_GENERATED_(7D)
  6
Continuous
 62
     7
100
AcDbCircle
 10
302.1359121068
 20
266.9949363798
 30
0.0
 40
0.9999999999958326
100
AcDbArc
 50
272.0016680131
 51
0.2252456411
  0
ARC
  5
F5
330
A8
100
AcDbEntity
  8
$DDT_AUDIT_GENERATED_(7D)
  6
Continuous
 62
     7
100
AcDbCircle
 10
291.9608674656
 20
475.1037809004
 30
0.0
 40
0.5000000000000341
100
AcDbArc
 50
88.0
 51
180.0
  0
ARC
  5
F6
330
A8
100
AcDbEntity
  8
$DDT_AUDIT_GENERATED_(7D)
  6
Continuous
 62
     7
100
AcDbCircle
 10
291.9608674656
 20
475.1037809004
 30
0.0
 40
0.5000000000000341
100
AcDbArc
 50
88.0
 51
180.0
  0
LINE
  5
F7
330
A8
100
AcDbEntity
  8
$DDT_AUDIT_GENERATED_(91)
  6
Continuous
 62
     7
100
AcDbLine
 10
308.2608674656
 20
352.3715460573
 30
0.0
 11
308.2608674656
 21
303.8715460573
 31
0.0
  0
LINE
  5
F8
330
A8
100
AcDbEntity
  8
$DDT_AUDIT_GENERATED_(91)
  6
Continuous
 62
     7
100
AcDbLine
 10
304.2345284075
 20
301.8715460573
 30
0.0
 11
306.2608674656
 21
301.8715460573
 31
0.0
  0
LINE
  5
F9
330
A8
100
AcDbEntity
  8
$DDT_AUDIT_GENERATED_(91)
  6
Continuous
 62
     7
100
AcDbLine
 10
306.2608674656
 20
354.3715460573
 30
0.0
 11
305.054785945
 21
354.3715460573
 31
0.0
  0
ARC
  5
FA
330
A8
100
AcDbEntity
  8
$DDT_AUDIT_GENERATED_(91)
  6
Continuous
 62
     7
100
AcDbCircle
 10
306.2608674656
 20
352.3715460573
 30
0.0
 40
2.000000000000002
100
AcDbArc
 50
0.0
 51
90.0
  0
ARC
  5
FB
330
A8
100
AcDbEntity
  8
$DDT_AUDIT_GENERATED_(91)
  6
Continuous
 62
     7
100
AcDbCircle
 10
306.2608674656
 20
303.8715460573
 30
0.0
 40
2.000000000000002
100
AcDbArc
 50
270.0
 51
0.0
  0
LINE
  5
FD
330
A8
100
AcDbEntity
  8
$DDT_AUDIT_GENERATED_(FC)
  6
Continuous
 62
     7
100
AcDbLine
 10
308.7608674656
 20
309.8215460573
 30
0.0
 11
308.7608674656
 21
346.4215460573
 31
0.0
  0
LINE
  5
FE
330
A8
100
AcDbEntity
  8
$DDT_AUDIT_GENERATED_(FC)
  6
Continuous
 62
     7
100
AcDbLine
 10
308.7608674656
 20
309.8215460573
 30
0.0
 11
309.1608674656
 21
309.8215460573
 31
0.0
  0
LINE
  5
FF
330
A8
100
AcDbEntity
  8
$DDT_AUDIT_GENERATED_(FC)
  6
Continuous
 62
     7
100
AcDbLine
 10
309.1608674656
 20
346.4215460573
 30
0.0
 11
308.7608674656
 21
346.4215460573
 31
0.0
  0
LINE
  5
101
330
A8
100
AcDbEntity
  8
$DDT_AUDIT_GENERATED_(100)
  6
Continuous
 62
     7
100
AcDbLine
 10
362.6608674656
 20
322.5366449888
 30
0.0
 11
362.6608674656
 21
322.536520281
 31
0.0
  0
LINE
  5
102
330
A8
100
AcDbEntity
  8
$DDT_AUDIT_GENERATED_(100)
  6
Continuous
 62
     7
100
AcDbLine
 10
362.6608674656
 20
324.5355204799
 30
0.0
 11
362.6608674656
 21
324.5353633389
 31
0.0
  0
LINE
  5
103
330
A8
100
AcDbEntity
  8
$DDT_AUDIT_GENERATED_(100)
  6
Continuous
 62
     7
100
AcDbLine
 10
362.6608674656
 20
326.8853290113
 30
0.0
 11
362.6608674656
 21
326.8851548192
 31
0.0
  0
LINE
  5
104
330
A8
100
AcDbEntity
  8
$DDT_AUDIT_GENERATED_(100)
  6
Continuous
 62
     7
100
AcDbLine
 10
362.6608674656
 20
329.356054952
 30
0.0
 11
362.6608674656
 21
329.3558807599
 31
0.0
  0
LINE
  5
105
330
A8
100
AcDbEntity
  8
$DDT_AUDIT_GENERATED_(100)
  6
Continuous
 62
     7
100
AcDbLine
 10
362.6608674656
 20
331.7058464323
 30
0.0
 11
362.6608674656
 21
331.7056892913
 31
0.0
  0
LINE
  5
106
330
A8
100
AcDbEntity
  8
$DDT_AUDIT_GENERATED_(100)
  6
Continuous
 62
     7
100
AcDbLine
 10
362.6608674656
 20
333.7046894902
 30
0.0
 11
362.6608674656
 21
333.7045647824
 31
0.0
  0
LINE
  5
107
330
A8
100
AcDbEntity
  8
$DDT_AUDIT_GENERATED_(97)
  6
Continuous
 62
     7
100
AcDbLine
 10
377.6608674656
 20
388.1206048856
 30
0.0
 11
388.6608674656
 21
388.1206048856
 31
0.0
  0
ARC
  5
108
330
A8
100
AcDbEntity
  8
$DDT_AUDIT_GENERATED_(97)
  6
Continuous
 62
     7
100
AcDbCircle
 10
384.0548127959
 20
351.1363563943
 30
0.0
 40
13.8529696680706
100
AcDbArc
 50
240.1552824896
 51
264.2248786191
  0
ARC
  5
109
330
A8
100
AcDbEntity
  8
$DDT_AUDIT_GENERATED_(97)
  6
Continuous
 62
     7
100
AcDbCircle
 10
383.8222274943
 20
305.8288424504
 30
0.0
 40
13.1102102771297
100
AcDbArc
 50
95.082173529
 51
120.5376556943
  0
LINE
  5
10A
330
A8
100
AcDbEntity
  8
$DDT_AUDIT_GENERATED_(97)
  6
Continuous
 62
     7
100
AcDbLine
 10
383.1608674656
 20
336.7374488554
 30
0.0
 11
383.1608674656
 21
319.5037609158
 31
0.0
  0
SPLINE
  5
10B
330
A8
100
AcDbEntity
  8
$DDT_AUDIT_GENERATED_(97)
  6
Continuous
 62
     7
100
AcDbSpline
210
0.0
220
0.0
230
1.0
 70
     8
 71
     3
 72
    10
 73
     6
 74
     0
 42
0.000000011169161
 43
0.0000000001
 40
0.0
 40
0.0
 40
0.0
 40
0.0
 40
0.5
 40
0.5
 40
1.0
 40
1.0
 40
1.0
 40
1.0
 10
382.6608674655968
 20
337.3536975419016
 30
0.0
 10
382.8073478735345
 20
337.3457651830816
 30
0.0
 10
382.9420695495566
 20
337.2629164666457
 30
0.0
 10
383.117284851891
 20
337.0305469071043
 30
0.0
 10
383.1608674655968
 20
336.884060042707
 30
0.0
 10
383.1608674655968
 20
336.737448855399
 30
0.0
  0
SPLINE
  5
10C
330
A8
100
AcDbEntity
  8
$DDT_AUDIT_GENERATED_(97)
  6
Continuous
 62
     7
100
AcDbSpline
210
0.0
220
0.0
230
1.0
 70
     8
 71
     3
 72
    12
 73
     8
 74
     0
 42
0.000000011240689
 43
0.0000000001
 40
0.0
 40
0.0
 40
0.0
 40
0.0
 40
0.2500000000000018
 40
0.2500000000000018
 40
0.5000000000000036
 40
0.5000000000000036
 40
1.0
 40
1.0
 40
1.0
 40
1.0
 10
383.1608674655968
 20
319.5037609157849
 30
0.0
 10
383.1608674655968
 20
319.4302903087418
 30
0.0
 10
383.1503000575607
 20
319.3586972528909
 30
0.0
 10
383.1068120866526
 20
319.2194829458945
 30
0.0
 10
383.0740362629047
 20
319.1535860471251
 30
0.0
 10
382.9434075877202
 20
318.9795171281175
 30
0.0
 10
382.8079427837826
 20
318.8954768042984
 30
0.0
 10
382.6608674655969
 20
318.8875122292823
 30
0.0
  0
LINE
  5
10D
330
A8
100
AcDbEntity
  8
$DDT_AUDIT_GENERATED_(97)
  6
Continuous
 62
     7
100
AcDbLine
 10
388.6608674656
 20
312.1206048856
 30
0.0
 11
377.6608674656
 21
312.1206048856
 31
0.0
  0
LINE
  5
10E
330
A8
100
AcDbEntity
  8
$DDT_AUDIT_GENERATED_(97)
  6
Continuous
 62
     7
100
AcDbLine
 10
362.6608674656
 20
317.1206048856
 30
0.0
 11
377.1820415144
 21
317.1206048856
 31
0.0
  0
LINE
  5
10F
330
A8
100
AcDbEntity
  8
$DDT_AUDIT_GENERATED_(97)
  6
Continuous
 62
     7
100
AcDbLine
 10
377.1787295185
 20
339.1206048856
 30
0.0
 11
362.6608674656
 21
339.1206048856
 31
0.0
  0
LINE
  5
110
330
A8
100
AcDbEntity
  8
$DDT_AUDIT_GENERATED_(97)
  6
Continuous
 62
     7
100
AcDbLine
 10
389.1608674656
 20
312.6206048856
 30
0.0
 11
389.1608674656
 21
387.6206048856
 31
0.0
  0
LINE
  5
111
330
A8
100
AcDbEntity
  8
$DDT_AUDIT_GENERATED_(97)
  6
Continuous
 62
     7
100
AcDbLine
 10
377.1608674656
 20
317.1321395065
 30
0.0
 11
377.1608674656
 21
312.6206048856
 31
0.0
  0
LINE
  5
112
330
A8
100
AcDbEntity
  8
$DDT_AUDIT_GENERATED_(97)
  6
Continuous
 62
     7
100
AcDbLine
 10
377.1608674656
 20
387.6206048856
 30
0.0
 11
377.1608674656
 21
339.1108902724
 31
0.0
  0
ARC
  5
113
330
A8
100
AcDbEntity
  8
$DDT_AUDIT_GENERATED_(97)
  6
Continuous
 62
     7
100
AcDbCircle
 10
377.6608674656
 20
387.6206048856
 30
0.0
 40
0.5000000000000004
100
AcDbArc
 50
90.0
 51
180.0
  0
ARC
  5
114
330
A8
100
AcDbEntity
  8
$DDT_AUDIT_GENERATED_(97)
  6
Continuous
 62
     7
100
AcDbCircle
 10
388.6608674656
 20
387.6206048856
 30
0.0
 40
0.5000000000000004
100
AcDbArc
 50
0.0
 51
90.0
  0
ARC
  5
115
330
A8
100
AcDbEntity
  8
$DDT_AUDIT_GENERATED_(97)
  6
Continuous
 62
     7
100
AcDbCircle
 10
377.6608674656
 20
312.6206048856
 30
0.0
 40
0.5000000000000004
100
AcDbArc
 50
180.0
 51
270.0
  0
ARC
  5
116
330
A8
100
AcDbEntity
  8
$DDT_AUDIT_GENERATED_(97)
  6
Continuous
 62
     7
100
AcDbCircle
 10
388.6608674656
 20
312.6206048856
 30
0.0
 40
0.5000000000000004
100
AcDbArc
 50
270.0
 51
0.0
  0
LINE
  5
118
330
A8
100
AcDbEntity
  8
DV2_Default
  6
Continuous
 62
     7
100
AcDbLine
 10
291.4608674656
 20
349.1206048856
 30
0.0
 11
291.4608674656
 21
307.1206048856
 31
0.0
  0
ENDBLK
  5
11A
330
A8
100
AcDbEntity
  8
0
100
AcDbBlockEnd
  0
BLOCK
  5
17A
330
11B
100
AcDbEntity
  8
0
100
AcDbBlockBegin
  2
SE2
 70
     0
 10
0.0
 20
0.0
 30
0.0
  3
SE2
  1

  0
LINE
  5
11D
330
11B
100
AcDbEntity
  8
$DDT_AUDIT_GENERATED_(AA)
  6
PHANTOM2
 62
     7
100
AcDbLine
 10
105.6296458421
 20
187.25
 30
0.0
 11
105.6296458421
 21
187.15
 31
0.0
  0
LINE
  5
11E
330
11B
100
AcDbEntity
  8
$DDT_AUDIT_GENERATED_(AA)
  6
PHANTOM2
 62
     7
100
AcDbLine
 10
94.2560068894
 20
187.25
 30
0.0
 11
94.2560068894
 21
187.15
 31
0.0
  0
LINE
  5
11F
330
11B
100
AcDbEntity
  8
$DDT_AUDIT_GENERATED_(AA)
  6
PHANTOM2
 62
     7
100
AcDbLine
 10
129.7941034384
 20
187.25
 30
0.0
 11
129.7941034384
 21
187.15
 31
0.0
  0
LINE
  5
120
330
11B
100
AcDbEntity
  8
$DDT_AUDIT_GENERATED_(AA)
  6
PHANTOM2
 62
     7
100
AcDbLine
 10
123.3986941166
 20
187.25
 30
0.0
 11
123.3986941166
 21
187.15
 31
0.0
  0
LINE
  5
121
330
11B
100
AcDbEntity
  8
$DDT_AUDIT_GENERATED_(AA)
  6
PHANTOM2
 62
     7
100
AcDbLine
 10
112.2801010843
 20
187.15
 30
0.0
 11
112.2801010843
 21
187.25
 31
0.0
  0
SPLINE
  5
122
330
11B
100
AcDbEntity
  8
$DDT_AUDIT_GENERATED_(AA)
  6
PHANTOM2
 62
     7
100
AcDbSpline
210
0.0
220
0.0
230
1.0
 70
     8
 71
     3
 72
    16
 73
    12
 74
     0
 42
0.000000007041093
 43
0.0000000001
 40
0.0
 40
0.0
 40
0.0
 40
0.0
 40
0.0624999999999999
 40
0.0624999999999999
 40
0.1249999999999997
 40
0.1249999999999997
 40
0.2499999999999973
 40
0.2499999999999973
 40
0.4999999999999964
 40
0.4999999999999964
 40
1.0
 40
1.0
 40
1.0
 40
1.0
 10
123.3986941165892
 20
187.15
 30
0.0
 10
123.3986941165891
 20
187.1180085731565
 30
0.0
 10
123.3872644980209
 20
187.087609674577
 30
0.0
 10
123.3535399354939
 20
187.0357443862075
 30
0.0
 10
123.3317070713752
 20
187.0138245568137
 30
0.0
 10
123.2614337065306
 20
186.9563469370418
 30
0.0
 10
123.2081635054282
 20
186.92835595931
 30
0.0
 10
123.0457094353178
 20
186.857972827689
 30
0.0
 10
122.9303078290668
 20
186.8287231968156
 30
0.0
 10
122.5867803085071
 20
186.7635006292293
 30
0.0
 10
122.3545730589029
 20
186.75
 30
0.0
 10
122.1209325260813
 20
186.75
 30
0.0
  0
SPLINE
  5
123
330
11B
100
AcDbEntity
  8
$DDT_AUDIT_GENERATED_(AA)
  6
PHANTOM2
 62
     7
100
AcDbSpline
210
0.0
220
0.0
230
1.0
 70
     8
 71
     3
 72
    16
 73
    12
 74
     0
 42
0.000000007041154
 43
0.0000000001
 40
0.0
 40
0.0
 40
0.0
 40
0.0
 40
0.4999999999999989
 40
0.4999999999999989
 40
0.7499999999999999
 40
0.7499999999999999
 40
0.8749999999999992
 40
0.8749999999999992
 40
0.9374999999999997
 40
0.9374999999999997
 40
1.0
 40
1.0
 40
1.0
 40
1.0
 10
113.557862674778
 20
186.75
 30
0.0
 10
113.3254863019838
 20
186.75
 30
0.0
 10
113.0913805680177
 20
186.7634139794374
 30
0.0
 10
112.7456764612865
 20
186.8293618322446
 30
0.0
 10
112.6307176821684
 20
186.8587041630689
 30
0.0
 10
112.4686556921816
 20
186.9293637220021
 30
0.0
 10
112.4156691848217
 20
186.9574360924792
 30
0.0
 10
112.3460951074095
 20
187.014790176521
 30
0.0
 10
112.3246179580584
 20
187.036567836455
 30
0.0
 10
112.2915008017181
 20
187.0878155089068
 30
0.0
 10
112.2801010842629
 20
187.1183475059729
 30
0.0
 10
112.2801010842701
 20
187.15
 30
0.0
  0
LINE
  5
124
330
11B
100
AcDbEntity
  8
$DDT_AUDIT_GENERATED_(AA)
  6
PHANTOM2
 62
     7
100
AcDbLine
 10
127.7394704918
 20
187.15
 30
0.0
 11
127.7394704918
 21
187.25
 31
0.0
  0
LINE
  5
125
330
11B
100
AcDbEntity
  8
$DDT_AUDIT_GENERATED_(AA)
  6
PHANTOM2
 62
     7
100
AcDbLine
 10
96.5656857563
 20
187.15
 30
0.0
 11
96.5656857563
 21
187.25
 31
0.0
  0
SPLINE
  5
126
330
11B
100
AcDbEntity
  8
$DDT_AUDIT_GENERATED_(AA)
  6
PHANTOM2
 62
     7
100
AcDbSpline
210
0.0
220
0.0
230
1.0
 70
     8
 71
     3
 72
    16
 73
    12
 74
     0
 42
0.0000000083347145
 43
0.0000000001
 40
0.0
 40
0.0
 40
0.0
 40
0.0
 40
0.4999999999999983
 40
0.4999999999999983
 40
0.7499999999999969
 40
0.7499999999999969
 40
0.8749999999999972
 40
0.8749999999999972
 40
0.9374999999999987
 40
0.9374999999999987
 40
1.0
 40
1.0
 40
1.0
 40
1.0
 10
97.60732654863591
 20
186.75
 30
0.0
 10
97.41692618582013
 20
186.75
 30
0.0
 10
97.22572728191305
 20
186.7635996530615
 30
0.0
 10
96.9443754214958
 20
186.8296229929211
 30
0.0
 10
96.8510963771154
 20
186.8588610822401
 30
0.0
 10
96.71904522174107
 20
186.9295844338736
 30
0.0
 10
96.67586095367645
 20
186.9577080873722
 30
0.0
 10
96.6192924251773
 20
187.0150212180454
 30
0.0
 10
96.60179892875796
 20
187.0368066725153
 30
0.0
 10
96.57482266607427
 20
187.0882110296698
 30
0.0
 10
96.5656857563297
 20
187.1189739881546
 30
0.0
 10
96.56568575633005
 20
187.15
 30
0.0
  0
SPLINE
  5
127
330
11B
100
AcDbEntity
  8
$DDT_AUDIT_GENERATED_(AA)
  6
PHANTOM2
 62
     7
100
AcDbSpline
210
0.0
220
0.0
230
1.0
 70
     8
 71
     3
 72
    16
 73
    12
 74
     0
 42
0.0000000083345601
 43
0.0000000001
 40
0.0
 40
0.0
 40
0.0
 40
0.0
 40
0.0625000000000006
 40
0.0625000000000006
 40
0.1250000000000012
 40
0.1250000000000012
 40
0.2500000000000011
 40
0.2500000000000011
 40
0.5000000000000001
 40
0.5000000000000001
 40
1.0
 40
1.0
 40
1.0
 40
1.0
 10
105.6296458421142
 20
187.15
 30
0.0
 10
105.6296458421142
 20
187.118507099517
 30
0.0
 10
105.6204068606755
 20
187.0877638190956
 30
0.0
 10
105.5927775923883
 20
187.0356285518745
 30
0.0
 10
105.5751097161179
 20
187.0139011428964
 30
0.0
 10
105.5176883169769
 20
186.9562766616993
 30
0.0
 10
105.4744040708051
 20
186.9283750155952
 30
0.0
 10
105.3409138672352
 20
186.8575013600277
 30
0.0
 10
105.248542763127
 20
186.8289225647347
 30
0.0
 10
104.9677651492457
 20
186.7634410728742
 30
0.0
 10
104.7765228927484
 20
186.75
 30
0.0
 10
104.5880050498083
 20
186.75
 30
0.0
  0
SPLINE
  5
128
330
11B
100
AcDbEntity
  8
$DDT_AUDIT_GENERATED_(AA)
  6
PHANTOM2
 62
     7
100
AcDbSpline
210
0.0
220
0.0
230
1.0
 70
     8
 71
     3
 72
    16
 73
    12
 74
     0
 42
0.0000000193244673
 43
0.0000000001
 40
0.0
 40
0.0
 40
0.0
 40
0.0
 40
0.062499999999999
 40
0.062499999999999
 40
0.1249999999999979
 40
0.1249999999999979
 40
0.2499999999999983
 40
0.2499999999999983
 40
0.4999999999999984
 40
0.4999999999999984
 40
1.0
 40
1.0
 40
1.0
 40
1.0
 10
129.7941034383682
 20
187.15
 30
0.0
 10
129.7941034383682
 20
187.1180085731565
 30
0.0
 10
129.7919913302257
 20
187.087609674577
 30
0.0
 10
129.7857592829627
 20
187.0357443862075
 30
0.0
 10
129.7817247327454
 20
187.0138245568137
 30
0.0
 10
129.7687387398006
 20
186.9563469370418
 30
0.0
 10
129.7588948045171
 20
186.92835595931
 30
0.0
 10
129.7288745057457
 20
186.857972827689
 30
0.0
 10
129.7075491508562
 20
186.8287231968156
 30
0.0
 10
129.6440678308968
 20
186.7635006292293
 30
0.0
 10
129.6011576655481
 20
186.75
 30
0.0
 10
129.5579826401663
 20
186.75
 30
0.0
  0
SPLINE
  5
129
330
11B
100
AcDbEntity
  8
$DDT_AUDIT_GENERATED_(AA)
  6
PHANTOM2
 62
     7
100
AcDbSpline
210
0.0
220
0.0
230
1.0
 70
     8
 71
     3
 72
    16
 73
    12
 74
     0
 42
0.0000000193224248
 43
0.0000000001
 40
0.0
 40
0.0
 40
0.0
 40
0.0
 40
0.4999999999999976
 40
0.4999999999999976
 40
0.7499999999999979
 40
0.7499999999999979
 40
0.8749999999999987
 40
0.8749999999999987
 40
0.9374999999999994
 40
0.9374999999999994
 40
1.0
 40
1.0
 40
1.0
 40
1.0
 10
127.9755912900354
 20
186.75
 30
0.0
 10
127.9326498719844
 20
186.75
 30
0.0
 10
127.8893888809056
 20
186.7634139794374
 30
0.0
 10
127.8255053440788
 20
186.8293618322446
 30
0.0
 10
127.804261820336
 20
186.8587041630689
 30
0.0
 10
127.774313975043
 20
186.9293637220021
 30
0.0
 10
127.7645224642442
 20
186.9574360924792
 30
0.0
 10
127.7516656943938
 20
187.014790176521
 30
0.0
 10
127.7476968776086
 20
187.036567836455
 30
0.0
 10
127.7415770744722
 20
187.0878155089068
 30
0.0
 10
127.739470491832
 20
187.1183475059729
 30
0.0
 10
127.7394704918333
 20
187.15
 30
0.0
  0
SPLINE
  5
12A
330
11B
100
AcDbEntity
  8
$DDT_AUDIT_GENERATED_(AA)
  6
PHANTOM2
 62
     7
100
AcDbSpline
210
0.0
220
0.0
230
1.0
 70
     8
 71
     3
 72
    16
 73
    12
 74
     0
 42
0.0000000193244673
 43
0.0000000001
 40
0.0
 40
0.0
 40
0.0
 40
0.0
 40
0.0624999999999982
 40
0.0624999999999982
 40
0.1249999999999964
 40
0.1249999999999964
 40
0.2499999999999941
 40
0.2499999999999941
 40
0.4999999999999946
 40
0.4999999999999946
 40
1.0
 40
1.0
 40
1.0
 40
1.0
 10
94.25600688941834
 20
187.15
 30
0.0
 10
94.25600688941832
 20
187.1180085731565
 30
0.0
 10
94.25811899756083
 20
187.087609674577
 30
0.0
 10
94.26435104482381
 20
187.0357443862075
 30
0.0
 10
94.2683855950412
 20
187.0138245568137
 30
0.0
 10
94.28137158798597
 20
186.9563469370418
 30
0.0
 10
94.29121552326946
 20
186.92835595931
 30
0.0
 10
94.32123582204083
 20
186.857972827689
 30
0.0
 10
94.34256117693035
 20
186.8287231968156
 30
0.0
 10
94.40604249688978
 20
186.7635006292293
 30
0.0
 10
94.44895266223844
 20
186.75
 30
0.0
 10
94.4921276876203
 20
186.75
 30
0.0
  0
LINE
  5
12B
330
11B
100
AcDbEntity
  8
$DDT_AUDIT_GENERATED_(AA)
  6
PHANTOM2
 62
     7
100
AcDbLine
 10
125.0323147956
 20
186.75
 30
0.0
 11
126.4225636256
 21
186.75
 31
0.0
  0
LINE
  5
12C
330
11B
100
AcDbEntity
  8
$DDT_AUDIT_GENERATED_(BC)
  6
Continuous
 62
     7
100
AcDbLine
 10
107.0258449008
 20
153.475
 30
0.0
 11
107.0258449008
 21
169.475
 31
0.0
  0
LINE
  5
12D
330
11B
100
AcDbEntity
  8
$DDT_AUDIT_GENERATED_(BC)
  6
Continuous
 62
     7
100
AcDbLine
 10
117.0258449008
 20
169.475
 30
0.0
 11
117.0258449008
 21
153.475
 31
0.0
  0
ARC
  5
12E
330
11B
100
AcDbEntity
  8
$DDT_AUDIT_GENERATED_(BC)
  6
Continuous
 62
     7
100
AcDbCircle
 10
112.0258449008
 20
169.475
 30
0.0
 40
4.999999999999999
100
AcDbArc
 50
0.0
 51
180.0
  0
LINE
  5
12F
330
11B
100
AcDbEntity
  8
$DDT_AUDIT_GENERATED_(BC)
  6
Continuous
 62
     7
100
AcDbLine
 10
107.0258449008
 20
151.89859385
 30
0.0
 11
107.0258449008
 21
153.475
 31
0.0
  0
LINE
  5
130
330
11B
100
AcDbEntity
  8
$DDT_AUDIT_GENERATED_(BC)
  6
Continuous
 62
     7
100
AcDbLine
 10
117.0258449008
 20
151.7940582264
 30
0.0
 11
117.0258449008
 21
153.475
 31
0.0
  0
CIRCLE
  5
131
330
11B
100
AcDbEntity
  8
$DDT_AUDIT_GENERATED_(BC)
  6
Continuous
 62
     7
100
AcDbCircle
 10
112.0258449008
 20
153.475
 30
0.0
 40
5.000000000000005
  0
LINE
  5
132
330
11B
100
AcDbEntity
  8
$DDT_AUDIT_GENERATED_(BC)
  6
Continuous
 62
     7
100
AcDbLine
 10
117.0258449008
 20
158.825
 30
0.0
 11
117.0508449008
 21
158.825
 31
0.0
  0
LINE
  5
133
330
11B
100
AcDbEntity
  8
$DDT_AUDIT_GENERATED_(BC)
  6
Continuous
 62
     7
100
AcDbLine
 10
117.0508449008
 20
162.125
 30
0.0
 11
117.0258449008
 21
162.125
 31
0.0
  0
LINE
  5
134
330
11B
100
AcDbEntity
  8
$DDT_AUDIT_GENERATED_(BC)
  6
Continuous
 62
     7
100
AcDbLine
 10
107.0258449008
 20
162.125
 30
0.0
 11
107.0008449008
 21
162.125
 31
0.0
  0
LINE
  5
135
330
11B
100
AcDbEntity
  8
$DDT_AUDIT_GENERATED_(BC)
  6
Continuous
 62
     7
100
AcDbLine
 10
107.0008449008
 20
158.825
 30
0.0
 11
107.0258449008
 21
158.825
 31
0.0
  0
ARC
  5
136
330
11B
100
AcDbEntity
  8
$DDT_AUDIT_GENERATED_(77)
  6
Continuous
 62
     7
100
AcDbCircle
 10
112.0258449008
 20
169.475
 30
0.0
 40
5.025
100
AcDbArc
 50
0.0
 51
4.0471162501
  0
ARC
  5
137
330
11B
100
AcDbEntity
  8
$DDT_AUDIT_GENERATED_(77)
  6
Continuous
 62
     7
100
AcDbCircle
 10
112.0258449008
 20
169.475
 30
0.0
 40
5.025
100
AcDbArc
 50
173.5050119642
 51
180.0
  0
LINE
  5
138
330
11B
100
AcDbEntity
  8
$DDT_AUDIT_GENERATED_(77)
  6
Continuous
 62
     7
100
AcDbLine
 10
107.0008449008
 20
169.475
 30
0.0
 11
107.0008449008
 21
152.282198769
 31
0.0
  0
LINE
  5
139
330
11B
100
AcDbEntity
  8
$DDT_AUDIT_GENERATED_(77)
  6
Continuous
 62
     7
100
AcDbLine
 10
117.0508449008
 20
152.282198769
 30
0.0
 11
117.0508449008
 21
169.475
 31
0.0
  0
SPLINE
  5
13A
330
11B
100
AcDbEntity
  8
$DDT_AUDIT_GENERATED_(77)
  6
Continuous
 62
     7
100
AcDbSpline
210
0.0
220
0.0
230
1.0
 70
     8
 71
     3
 72
    16
 73
    12
 74
     0
 42
0.0000000005919263
 43
0.0000000001
 40
0.0
 40
0.0
 40
0.0
 40
0.0
 40
0.2499999999999999
 40
0.2499999999999999
 40
0.4999999999999999
 40
0.4999999999999999
 40
0.7499999999999998
 40
0.7499999999999998
 40
0.8749999999999999
 40
0.8749999999999999
 40
1.0
 40
1.0
 40
1.0
 40
1.0
 10
117.0508449007508
 20
152.2821987689722
 30
0.0
 10
117.0508449007508
 20
150.9055792857756
 30
0.0
 10
116.5972054510927
 20
149.5024749052832
 30
0.0
 10
114.7868849210743
 20
147.4576956152858
 30
0.0
 10
113.4282090917864
 20
146.8327794639939
 30
0.0
 10
110.6286223060438
 20
146.8313234881332
 30
0.0
 10
109.2756844838794
 20
147.4497108885752
 30
0.0
 10
107.9119164031229
 20
148.9836721146117
 30
0.0
 10
107.5627192501977
 20
149.5939185686001
 30
0.0
 10
107.1087805654826
 20
150.8967686107239
 30
0.0
 10
107.0008449007507
 20
151.5875080274889
 30
0.0
 10
107.0008449007507
 20
152.2821987689722
 30
0.0
  0
LINE
  5
13B
330
11B
100
AcDbEntity
  8
$DDT_AUDIT_GENERATED_(77)
  6
Continuous
 62
     7
100
AcDbLine
 10
107.0008449008
 20
162.85
 30
0.0
 11
107.0258449008
 21
162.85
 31
0.0
  0
LINE
  5
13C
330
11B
100
AcDbEntity
  8
$DDT_AUDIT_GENERATED_(77)
  6
Continuous
 62
     7
100
AcDbLine
 10
117.0258449008
 20
162.85
 30
0.0
 11
117.0508449008
 21
162.85
 31
0.0
  0
LINE
  5
13D
330
11B
100
AcDbEntity
  8
$DDT_AUDIT_GENERATED_(77)
  6
Continuous
 62
     7
100
AcDbLine
 10
125.5258449008
 20
132.85
 30
0.0
 11
98.5258449008
 21
132.85
 31
0.0
  0
LINE
  5
13E
330
11B
100
AcDbEntity
  8
$DDT_AUDIT_GENERATED_(77)
  6
Continuous
 62
     7
100
AcDbLine
 10
132.5258449008
 20
140.35
 30
0.0
 11
91.5258449008
 21
140.35
 31
0.0
  0
LINE
  5
13F
330
11B
100
AcDbEntity
  8
$DDT_AUDIT_GENERATED_(77)
  6
Continuous
 62
     7
100
AcDbLine
 10
91.2258449008
 20
186.35
 30
0.0
 11
132.8258449008
 21
186.35
 31
0.0
  0
LINE
  5
140
330
11B
100
AcDbEntity
  8
$DDT_AUDIT_GENERATED_(77)
  6
Continuous
 62
     7
100
AcDbLine
 10
133.0258449008
 20
140.85
 30
0.0
 11
133.0258449008
 21
186.15
 31
0.0
  0
LINE
  5
141
330
11B
100
AcDbEntity
  8
$DDT_AUDIT_GENERATED_(77)
  6
Continuous
 62
     7
100
AcDbLine
 10
91.0258449008
 20
186.15
 30
0.0
 11
91.0258449008
 21
140.85
 31
0.0
  0
LINE
  5
142
330
11B
100
AcDbEntity
  8
$DDT_AUDIT_GENERATED_(77)
  6
Continuous
 62
     7
100
AcDbLine
 10
126.0258449008
 20
133.35
 30
0.0
 11
126.0258449008
 21
139.35
 31
0.0
  0
LINE
  5
143
330
11B
100
AcDbEntity
  8
$DDT_AUDIT_GENERATED_(77)
  6
Continuous
 62
     7
100
AcDbLine
 10
98.0258449008
 20
139.35
 30
0.0
 11
98.0258449008
 21
133.35
 31
0.0
  0
ARC
  5
144
330
11B
100
AcDbEntity
  8
$DDT_AUDIT_GENERATED_(77)
  6
Continuous
 62
     7
100
AcDbCircle
 10
125.5258449008
 20
133.35
 30
0.0
 40
0.5000000000000004
100
AcDbArc
 50
270.0
 51
0.0
  0
ARC
  5
145
330
11B
100
AcDbEntity
  8
$DDT_AUDIT_GENERATED_(77)
  6
Continuous
 62
     7
100
AcDbCircle
 10
98.5258449008
 20
133.35
 30
0.0
 40
0.5000000000000004
100
AcDbArc
 50
180.0
 51
270.0
  0
ARC
  5
146
330
11B
100
AcDbEntity
  8
$DDT_AUDIT_GENERATED_(77)
  6
Continuous
 62
     7
100
AcDbCircle
 10
132.5258449008
 20
140.85
 30
0.0
 40
0.5000000000000004
100
AcDbArc
 50
270.0
 51
0.0
  0
ARC
  5
147
330
11B
100
AcDbEntity
  8
$DDT_AUDIT_GENERATED_(77)
  6
Continuous
 62
     7
100
AcDbCircle
 10
91.5258449008
 20
140.85
 30
0.0
 40
0.499999999999997
100
AcDbArc
 50
180.0
 51
270.0
  0
ARC
  5
148
330
11B
100
AcDbEntity
  8
$DDT_AUDIT_GENERATED_(77)
  6
Continuous
 62
     7
100
AcDbCircle
 10
91.2258449008
 20
186.15
 30
0.0
 40
0.2000000000000057
100
AcDbArc
 50
90.0
 51
180.0
  0
ARC
  5
149
330
11B
100
AcDbEntity
  8
$DDT_AUDIT_GENERATED_(77)
  6
Continuous
 62
     7
100
AcDbCircle
 10
132.8258449008
 20
186.15
 30
0.0
 40
0.1999999999999953
100
AcDbArc
 50
0.0
 51
90.0
  0
ARC
  5
14A
330
11B
100
AcDbEntity
  8
$DDT_AUDIT_GENERATED_(77)
  6
Continuous
 62
     7
100
AcDbCircle
 10
127.0258449008
 20
139.35
 30
0.0
 40
1.000000000000001
100
AcDbArc
 50
90.0
 51
180.0
  0
ARC
  5
14B
330
11B
100
AcDbEntity
  8
$DDT_AUDIT_GENERATED_(77)
  6
Continuous
 62
     7
100
AcDbCircle
 10
97.0258449008
 20
139.35
 30
0.0
 40
1.000000000000001
100
AcDbArc
 50
0.0
 51
90.0
  0
ARC
  5
14C
330
11B
100
AcDbEntity
  8
$DDT_AUDIT_GENERATED_(7D)
  6
Continuous
 62
     7
100
AcDbCircle
 10
112.0250551639
 20
-7400.0054556028
 30
0.0
 40
7592.476107537927
100
AcDbArc
 50
89.4472525383
 51
90.5522313702
  0
LINE
  5
14D
330
11B
100
AcDbEntity
  8
$DDT_AUDIT_GENERATED_(7D)
  6
Continuous
 62
     7
100
AcDbLine
 10
37.4140156259
 20
192.9116296935
 30
0.0
 11
37.4082235884
 21
193.0774919447
 31
0.0
  0
LINE
  5
14E
330
11B
100
AcDbEntity
  8
$DDT_AUDIT_GENERATED_(7D)
  6
Continuous
 62
     7
100
AcDbLine
 10
186.6418867298
 20
193.077491945
 30
0.0
 11
186.6360946935
 21
192.9116296931
 31
0.0
  0
LINE
  5
14F
330
11B
100
AcDbEntity
  8
$DDT_AUDIT_GENERATED_(7D)
  6
Continuous
 62
     7
100
AcDbLine
 10
37.5428203208
 20
204.05
 30
0.0
 11
186.507290007
 21
204.05
 31
0.0
  0
LINE
  5
150
330
11B
100
AcDbEntity
  8
$DDT_AUDIT_GENERATED_(7D)
  6
Continuous
 62
     7
100
AcDbLine
 10
187.006985411
 20
203.532550252
 30
0.0
 11
186.6418867298
 21
193.077491945
 31
0.0
  0
LINE
  5
151
330
11B
100
AcDbEntity
  8
$DDT_AUDIT_GENERATED_(7D)
  6
Continuous
 62
     7
100
AcDbLine
 10
37.0431249073
 20
203.5325502516
 30
0.0
 11
37.4082235884
 21
193.0774919447
 31
0.0
  0
ARC
  5
152
330
11B
100
AcDbEntity
  8
$DDT_AUDIT_GENERATED_(7D)
  6
Continuous
 62
     7
100
AcDbCircle
 10
37.5428203208
 20
203.55
 30
0.0
 40
0.5000000000000004
100
AcDbArc
 50
90.0
 51
182.0
  0
ARC
  5
153
330
11B
100
AcDbEntity
  8
$DDT_AUDIT_GENERATED_(7D)
  6
Continuous
 62
     7
100
AcDbCircle
 10
186.507290007
 20
203.55
 30
0.0
 40
0.5000000000000004
100
AcDbArc
 50
358.0
 51
90.0
  0
ARC
  5
154
330
11B
100
AcDbEntity
  8
$DDT_AUDIT_GENERATED_(7D)
  6
Continuous
 62
     7
100
AcDbCircle
 10
112.0250551639
 20
1944.05
 30
0.0
 40
1753.650000000001
100
AcDbArc
 50
267.5927440655
 51
270.0
  0
ARC
  5
155
330
11B
100
AcDbEntity
  8
$DDT_AUDIT_GENERATED_(7D)
  6
Continuous
 62
     7
100
AcDbCircle
 10
112.0250551639
 20
1944.05
 30
0.0
 40
1753.65
100
AcDbArc
 50
270.0
 51
272.4072571515
  0
ARC
  5
156
330
11B
100
AcDbEntity
  8
$DDT_AUDIT_GENERATED_(7D)
  6
Continuous
 62
     7
100
AcDbCircle
 10
112.0250551639
 20
1944.05
 30
0.0
 40
1753.65
100
AcDbArc
 50
267.5927472128
 51
270.0
  0
ARC
  5
157
330
11B
100
AcDbEntity
  8
$DDT_AUDIT_GENERATED_(7D)
  6
Continuous
 62
     7
100
AcDbCircle
 10
112.0250551639
 20
1944.05
 30
0.0
 40
1753.65
100
AcDbArc
 50
270.0
 51
272.407253252
  0
ARC
  5
158
330
11B
100
AcDbEntity
  8
$DDT_AUDIT_GENERATED_(7D)
  6
Continuous
 62
     7
100
AcDbCircle
 10
38.4134062751
 20
192.9465342825
 30
0.0
 40
0.9999999999999931
100
AcDbArc
 50
182.0
 51
267.0335767681
  0
ARC
  5
159
330
11B
100
AcDbEntity
  8
$DDT_AUDIT_GENERATED_(7D)
  6
Continuous
 62
     7
100
AcDbCircle
 10
38.4134062751
 20
192.9465342825
 30
0.0
 40
0.9999999999999931
100
AcDbArc
 50
182.0
 51
267.0335767681
  0
ARC
  5
15A
330
11B
100
AcDbEntity
  8
$DDT_AUDIT_GENERATED_(7D)
  6
Continuous
 62
     7
100
AcDbCircle
 10
185.6367040432
 20
192.9465342821
 30
0.0
 40
1.000000000000006
100
AcDbArc
 50
272.8103491459
 51
358.0
  0
ARC
  5
15B
330
11B
100
AcDbEntity
  8
$DDT_AUDIT_GENERATED_(7D)
  6
Continuous
 62
     7
100
AcDbCircle
 10
185.6367040432
 20
192.9465342821
 30
0.0
 40
1.000000000000006
100
AcDbArc
 50
272.8103491459
 51
358.0
  0
LINE
  5
15C
330
11B
100
AcDbEntity
  8
$DDT_AUDIT_GENERATED_(91)
  6
Continuous
 62
     7
100
AcDbLine
 10
136.2750551639
 20
187.25
 30
0.0
 11
87.7750551639
 21
187.25
 31
0.0
  0
LINE
  5
15D
330
11B
100
AcDbEntity
  8
$DDT_AUDIT_GENERATED_(91)
  6
Continuous
 62
     7
100
AcDbLine
 10
85.7750551639
 20
190.5964762361
 30
0.0
 11
85.7750551639
 21
189.25
 31
0.0
  0
LINE
  5
15E
330
11B
100
AcDbEntity
  8
$DDT_AUDIT_GENERATED_(91)
  6
Continuous
 62
     7
100
AcDbLine
 10
138.2750551639
 20
189.25
 30
0.0
 11
138.2750551639
 21
190.5964762361
 31
0.0
  0
ARC
  5
15F
330
11B
100
AcDbEntity
  8
$DDT_AUDIT_GENERATED_(91)
  6
Continuous
 62
     7
100
AcDbCircle
 10
136.2750551639
 20
189.25
 30
0.0
 40
2.000000000000002
100
AcDbArc
 50
270.0
 51
0.0
  0
ARC
  5
160
330
11B
100
AcDbEntity
  8
$DDT_AUDIT_GENERATED_(91)
  6
Continuous
 62
     7
100
AcDbCircle
 10
87.7750551639
 20
189.25
 30
0.0
 40
2.000000000000002
100
AcDbArc
 50
180.0
 51
270.0
  0
LINE
  5
162
330
11B
100
AcDbEntity
  8
$DDT_AUDIT_GENERATED_(161)
  6
Continuous
 62
     7
100
AcDbLine
 10
109.281587943
 20
173.6309804781
 30
0.0
 11
109.281587943
 21
173.6638077412
 31
0.0
  0
LINE
  5
163
330
11B
100
AcDbEntity
  8
$DDT_AUDIT_GENERATED_(161)
  6
Continuous
 62
     7
100
AcDbLine
 10
109.5751979955
 20
173.8557460425
 30
0.0
 11
109.5751979955
 21
173.827087621
 31
0.0
  0
LINE
  5
164
330
11B
100
AcDbEntity
  8
$DDT_AUDIT_GENERATED_(FC)
  6
Continuous
 62
     7
100
AcDbLine
 10
130.3250551639
 20
186.75
 30
0.0
 11
126.9606776247
 21
186.75
 31
0.0
  0
LINE
  5
165
330
11B
100
AcDbEntity
  8
$DDT_AUDIT_GENERATED_(FC)
  6
Continuous
 62
     7
100
AcDbLine
 10
125.0323147956
 20
186.75
 30
0.0
 11
93.7250551639
 21
186.75
 31
0.0
  0
LINE
  5
166
330
11B
100
AcDbEntity
  8
$DDT_AUDIT_GENERATED_(FC)
  6
Continuous
 62
     7
100
AcDbLine
 10
126.9606776247
 20
186.75
 30
0.0
 11
126.2687887898
 21
186.75
 31
0.0
  0
LINE
  5
167
330
11B
100
AcDbEntity
  8
$DDT_AUDIT_GENERATED_(FC)
  6
Continuous
 62
     7
100
AcDbLine
 10
126.9606776247
 20
186.35
 30
0.0
 11
126.9606776247
 21
186.75
 31
0.0
  0
LINE
  5
168
330
11B
100
AcDbEntity
  8
$DDT_AUDIT_GENERATED_(FC)
  6
Continuous
 62
     7
100
AcDbLine
 10
125.0323147956
 20
186.75
 30
0.0
 11
125.0323147956
 21
186.35
 31
0.0
  0
LINE
  5
169
330
11B
100
AcDbEntity
  8
$DDT_AUDIT_GENERATED_(FC)
  6
Continuous
 62
     7
100
AcDbLine
 10
126.2687887898
 20
186.75
 30
0.0
 11
125.9611989386
 21
186.35
 31
0.0
  0
LINE
  5
16A
330
11B
100
AcDbEntity
  8
$DDT_AUDIT_GENERATED_(FC)
  6
Continuous
 62
     7
100
AcDbLine
 10
125.0323147956
 20
186.75
 30
0.0
 11
126.2748678446
 21
186.75
 31
0.0
  0
LINE
  5
16B
330
11B
100
AcDbEntity
  8
$DDT_AUDIT_GENERATED_(FC)
  6
Continuous
 62
     7
100
AcDbLine
 10
93.7250551639
 20
186.75
 30
0.0
 11
93.7250551639
 21
186.35
 31
0.0
  0
LINE
  5
16C
330
11B
100
AcDbEntity
  8
$DDT_AUDIT_GENERATED_(FC)
  6
Continuous
 62
     7
100
AcDbLine
 10
130.3250551639
 20
186.35
 30
0.0
 11
130.3250551639
 21
186.75
 31
0.0
  0
LINE
  5
16D
330
11B
100
AcDbEntity
  8
$DDT_AUDIT_GENERATED_(100)
  6
Continuous
 62
     7
100
AcDbLine
 10
110.7905690265
 20
132.85
 30
0.0
 11
110.7903948343
 21
132.85
 31
0.0
  0
LINE
  5
16E
330
11B
100
AcDbEntity
  8
$DDT_AUDIT_GENERATED_(100)
  6
Continuous
 62
     7
100
AcDbLine
 10
113.2612949672
 20
132.85
 30
0.0
 11
113.261120775
 21
132.85
 31
0.0
  0
LINE
  5
16F
330
11B
100
AcDbEntity
  8
$DDT_AUDIT_GENERATED_(100)
  6
Continuous
 62
     7
100
AcDbLine
 10
115.6110864475
 20
132.85
 30
0.0
 11
115.6109293065
 21
132.85
 31
0.0
  0
LINE
  5
170
330
11B
100
AcDbEntity
  8
$DDT_AUDIT_GENERATED_(100)
  6
Continuous
 62
     7
100
AcDbLine
 10
117.6099295053
 20
132.85
 30
0.0
 11
117.6098047975
 21
132.85
 31
0.0
  0
LINE
  5
171
330
11B
100
AcDbEntity
  8
$DDT_AUDIT_GENERATED_(100)
  6
Continuous
 62
     7
100
AcDbLine
 10
106.441885004
 20
132.85
 30
0.0
 11
106.4417602962
 21
132.85
 31
0.0
  0
LINE
  5
172
330
11B
100
AcDbEntity
  8
$DDT_AUDIT_GENERATED_(100)
  6
Continuous
 62
     7
100
AcDbLine
 10
108.440760495
 20
132.85
 30
0.0
 11
108.440603354
 21
132.85
 31
0.0
  0
CIRCLE
  5
173
330
11B
100
AcDbEntity
  8
$DDT_AUDIT_GENERATED_(97)
  6
Continuous
 62
     7
100
AcDbCircle
 10
112.0258449008
 20
112.35
 30
0.0
 40
5.999999999999999
  0
LINE
  5
174
330
11B
100
AcDbEntity
  8
$DDT_AUDIT_GENERATED_(97)
  6
Continuous
 62
     7
100
AcDbLine
 10
118.0258449008
 20
112.35
 30
0.0
 11
122.5258449008
 21
112.35
 31
0.0
  0
LINE
  5
175
330
11B
100
AcDbEntity
  8
$DDT_AUDIT_GENERATED_(97)
  6
Continuous
 62
     7
100
AcDbLine
 10
106.0258449008
 20
112.35
 30
0.0
 11
101.5258449008
 21
112.35
 31
0.0
  0
LINE
  5
176
330
11B
100
AcDbEntity
  8
$DDT_AUDIT_GENERATED_(97)
  6
Continuous
 62
     7
100
AcDbLine
 10
101.0258449008
 20
132.85
 30
0.0
 11
101.0258449008
 21
112.85
 31
0.0
  0
LINE
  5
177
330
11B
100
AcDbEntity
  8
$DDT_AUDIT_GENERATED_(97)
  6
Continuous
 62
     7
100
AcDbLine
 10
123.0258449008
 20
112.85
 30
0.0
 11
123.0258449008
 21
132.85
 31
0.0
  0
ARC
  5
178
330
11B
100
AcDbEntity
  8
$DDT_AUDIT_GENERATED_(97)
  6
Continuous
 62
     7
100
AcDbCircle
 10
122.5258449008
 20
112.85
 30
0.0
 40
0.5000000000000004
100
AcDbArc
 50
270.0
 51
0.0
  0
ARC
  5
179
330
11B
100
AcDbEntity
  8
$DDT_AUDIT_GENERATED_(97)
  6
Continuous
 62
     7
100
AcDbCircle
 10
101.5258449008
 20
112.85
 30
0.0
 40
0.5000000000000004
100
AcDbArc
 50
180.0
 51
270.0
  0
ENDBLK
  5
17B
330
11B
100
AcDbEntity
  8
0
100
AcDbBlockEnd
  0
ENDSEC
  0
SECTION
  2
ENTITIES
  0
INSERT
  5
5F
330
1F
100
AcDbEntity
  8
Default
100
AcDbBlockReference
  2
SEANNOT_GROUP
 10
0.0
 20
0.0
 30
0.0
  0
INSERT
  5
66
330
1F
100
AcDbEntity
  8
Default
100
AcDbBlockReference
  2
SEANNOT_GROUP1
 10
0.0
 20
0.0
 30
0.0
  0
INSERT
  5
70
330
1F
100
AcDbEntity
  8
Default
100
AcDbBlockReference
  2
SEANNOT_GROUP2
 10
0.0
 20
0.0
 30
0.0
  0
INSERT
  5
76
330
1F
100
AcDbEntity
  8
Default
100
AcDbBlockReference
  2
SE
 10
0.0
 20
0.0
 30
0.0
  0
INSERT
  5
A9
330
1F
100
AcDbEntity
  8
Default
100
AcDbBlockReference
  2
SE1
 10
0.0
 20
0.0
 30
0.0
  0
INSERT
  5
11C
330
1F
100
AcDbEntity
  8
Default
100
AcDbBlockReference
  2
SE2
 10
0.0
 20
0.0
 30
0.0
  0
TEXT
  5
17D
330
1F
100
AcDbEntity
  8
Default
  6
Continuous
 62
     7
100
AcDbText
 10
5.9362635081
 20
53.4225120485
 30
0.0
 40
10.0
  1
Grohe AG^J
  7
SEACAD_seiso_ttf
 11
5.9362635081
 21
63.4225120485
 31
0.0
100
AcDbText
 73
     3
  0
TEXT
  5
17E
330
1F
100
AcDbEntity
  8
Default
  6
Continuous
 62
     7
100
AcDbText
 10
5.9362635081
 20
37.0588756849
 30
0.0
 40
10.0
  1
 
  7
SEACAD_seiso_ttf
 11
5.9362635081
 21
47.0588756849
 31
0.0
100
AcDbText
 73
     3
  0
TEXT
  5
17F
330
1F
100
AcDbEntity
  8
Default
  6
Continuous
 62
     7
100
AcDbText
 10
5.9362635081
 20
20.6952393213
 30
0.0
 40
10.0
  1
ecn: 
  7
SEACAD_seiso_ttf
 11
5.9362635081
 21
30.6952393213
 31
0.0
100
AcDbText
 73
     3
  0
TEXT
  5
180
330
1F
100
AcDbEntity
  8
Default
  6
Continuous
 62
     7
100
AcDbText
 10
5.9362635081
 20
4.3316029576
 30
0.0
 40
10.0
  1
unit: mm
  7
SEACAD_seiso_ttf
 11
5.9362635081
 21
14.3316029576
 31
0.0
100
AcDbText
 73
     3
  0
LINE
  5
181
330
1F
100
AcDbEntity
  8
Default
  6
Continuous
 62
     7
100
AcDbLine
 10
0.0
 20
0.0
 30
0.0
 11
100.0
 21
0.0
 31
0.0
  0
LINE
  5
182
330
1F
100
AcDbEntity
  8
Default
  6
Continuous
 62
     7
100
AcDbLine
 10
0.0
 20
0.0
 30
0.0
 11
0.0
 21
100.0
 31
0.0
  0
TEXT
  5
183
330
1F
100
AcDbEntity
  8
Default
  6
Continuous
 62
     7
100
AcDbText
 10
24.3923665681
 20
-18.2375342018
 30
0.0
 40
10.0
  1
100 mm
  7
SEACAD_seiso_ttf
 11
24.3923665681
 21
-8.2375342018
 31
0.0
100
AcDbText
 73
     3
  0
TEXT
  5
184
330
1F
100
AcDbEntity
  8
Default
  6
Continuous
 62
     7
100
AcDbText
 10
-7.6150308803
 20
24.6231930421
 30
0.0
 40
10.0
  1
100 mm
 50
90.0
  7
SEACAD_seiso_ttf
 11
-17.6150308803
 21
24.6231930421
 31
0.0
100
AcDbText
 73
     3
  0
TEXT
  5
185
330
1F
100
AcDbEntity
  8
Default
  6
Continuous
 62
     7
100
AcDbText
 10
28.4878128572
 20
20.0907663715
 30
0.0
 40
10.0
  1
211937
  7
SEACAD_seiso_ttf
 11
28.4878128572
 21
30.0907663715
 31
0.0
100
AcDbText
 73
     3
  0
TEXT
  5
186
330
1F
100
AcDbEntity
  8
Default
  6
Continuous
 62
     7
100
AcDbText
 10
5.9012241913
 20
36.7242780188
 30
0.0
 40
10.0
  1
19396000
  7
SEACAD_seiso_ttf
 11
5.9012241913
 21
46.7242780188
 31
0.0
100
AcDbText
 73
     3
  0
ENDSEC
  0
SECTION
  2
OBJECTS
  0
DICTIONARY
  5
C
330
0
100
AcDbDictionary
281
     1
  3
ACAD_GROUP
350
D
  3
ACAD_LAYOUT
350
1A
  3
ACAD_MLEADERSTYLE
350
18A
  3
ACAD_MLINESTYLE
350
17
  3
ACAD_PLOTSETTINGS
350
19
  3
ACAD_PLOTSTYLENAME
350
E
  3
ACAD_SCALELIST
350
3B
  3
ACAD_TABLESTYLE
350
189
  3
ACAD_VISUALSTYLE
350
2A
  3
AcDbVariableDictionary
350
187
  0
DICTIONARY
  5
D
102
{ACAD_REACTORS
330
C
102
}
330
C
100
AcDbDictionary
281
     1
  0
DICTIONARY
  5
1A
102
{ACAD_REACTORS
330
C
102
}
330
C
100
AcDbDictionary
281
     1
  3
Layout1
350
1E
  3
Model
350
22
  0
DICTIONARY
  5
18A
102
{ACAD_REACTORS
330
C
102
}
330
C
100
AcDbDictionary
281
     1
  0
DICTIONARY
  5
17
102
{ACAD_REACTORS
330
C
102
}
330
C
100
AcDbDictionary
281
     1
  3
Standard
350
18
  0
DICTIONARY
  5
19
102
{ACAD_REACTORS
330
C
102
}
330
C
100
AcDbDictionary
281
     1
  0
ACDBDICTIONARYWDFLT
  5
E
102
{ACAD_REACTORS
330
C
102
}
330
C
100
AcDbDictionary
281
     1
  3
Normal
350
F
100
AcDbDictionaryWithDefault
340
F
  0
DICTIONARY
  5
3B
102
{ACAD_REACTORS
330
C
102
}
330
C
100
AcDbDictionary
281
     1
  3
A0
350
3C
  3
A1
350
3D
  3
A2
350
3E
  3
A3
350
3F
  3
A4
350
40
  3
A5
350
41
  3
A6
350
42
  3
A7
350
43
  3
A8
350
44
  3
A9
350
45
  3
B0
350
46
  3
B1
350
47
  3
B2
350
48
  3
B3
350
49
  3
B4
350
4A
  3
B5
350
4B
  3
B6
350
4C
  3
B7
350
4D
  3
B8
350
4E
  3
B9
350
4F
  3
C0
350
50
  3
C1
350
51
  3
C2
350
52
  3
C3
350
53
  3
C4
350
54
  3
C5
350
55
  3
C6
350
56
  3
C7
350
57
  3
C8
350
58
  3
C9
350
59
  3
D0
350
5A
  3
D1
350
5B
  3
D2
350
5C
  0
DICTIONARY
  5
189
102
{ACAD_REACTORS
330
C
102
}
330
C
100
AcDbDictionary
281
     1
  0
DICTIONARY
  5
2A
102
{ACAD_REACTORS
330
C
102
}
330
C
100
AcDbDictionary
281
     1
  3
2dWireframe
350
2F
  3
3D Hidden
350
31
  3
3dWireframe
350
30
  3
Basic
350
32
  3
Brighten
350
36
  3
ColorChange
350
3A
  3
Conceptual
350
34
  3
Dim
350
35
  3
Facepattern
350
39
  3
Flat
350
2B
  3
FlatWithEdges
350
2C
  3
Gouraud
350
2D
  3
GouraudWithEdges
350
2E
  3
Linepattern
350
38
  3
Realistic
350
33
  3
Thicken
350
37
  0
DICTIONARY
  5
187
102
{ACAD_REACTORS
330
C
102
}
330
C
100
AcDbDictionary
281
     1
  3
CANNOSCALE
350
188
  3
PSOLHEIGHT
350
18C
  3
PSOLWIDTH
350
18B
  0
LAYOUT
  5
1E
102
{ACAD_REACTORS
330
1A
102
}
330
1A
100
AcDbPlotSettings
  1

  2
none_device
  4

  6

 40
0.0
 41
0.0
 42
0.0
 43
0.0
 44
0.0
 45
0.0
 46
0.0
 47
0.0
 48
0.0
 49
0.0
140
0.0
141
0.0
142
1.0
143
1.0
 70
   688
 72
     0
 73
     0
 74
     5
  7

 75
    16
147
1.0
148
0.0
149
0.0
100
AcDbLayout
  1
Layout1
 70
     1
 71
     1
 10
0.0
 20
0.0
 11
1682.0
 21
2378.0
 12
0.0
 22
0.0
 32
0.0
 14
0.0
 24
0.0
 34
0.0
 15
1682.0
 25
2378.0
 35
0.0
146
0.0
 13
0.0
 23
0.0
 33
0.0
 16
1.0
 26
0.0
 36
0.0
 17
0.0
 27
1.0
 37
0.0
 76
     0
330
1B
  0
LAYOUT
  5
22
102
{ACAD_REACTORS
330
1A
102
}
330
1A
100
AcDbPlotSettings
  1

  2
none_device
  4

  6

 40
0.0
 41
0.0
 42
0.0
 43
0.0
 44
0.0
 45
0.0
 46
0.0
 47
0.0
 48
0.0
 49
0.0
140
0.0
141
0.0
142
1.0
143
1.0
 70
  1712
 72
     0
 73
     0
 74
     0
  7

 75
     0
147
1.0
148
0.0
149
0.0
100
AcDbLayout
  1
Model
 70
     1
 71
     0
 10
0.0
 20
0.0
 11
1682.0
 21
2378.0
 12
0.0
 22
0.0
 32
0.0
 14
0.0
 24
0.0
 34
0.0
 15
1682.0
 25
2378.0
 35
0.0
146
0.0
 13
0.0
 23
0.0
 33
0.0
 16
1.0
 26
0.0
 36
0.0
 17
0.0
 27
1.0
 37
0.0
 76
     0
330
1F
331
29
  0
MLINESTYLE
  5
18
102
{ACAD_REACTORS
330
17
102
}
330
17
100
AcDbMlineStyle
  2
Standard
 70
     0
  3

 62
   256
 51
90.0
 52
90.0
 71
     2
 49
0.5
 62
   256
  6
BYLAYER
 49
-0.5
 62
   256
  6
BYLAYER
  0
ACDBPLACEHOLDER
  5
F
102
{ACAD_REACTORS
330
E
102
}
330
E
  0
SCALE
  5
3C
102
{ACAD_REACTORS
330
3B
102
}
330
3B
100
AcDbScale
 70
     0
300
1:1
140
1.0
141
1.0
290
     1
  0
SCALE
  5
3D
102
{ACAD_REACTORS
330
3B
102
}
330
3B
100
AcDbScale
 70
     0
300
1:2
140
1.0
141
2.0
290
     0
  0
SCALE
  5
3E
102
{ACAD_REACTORS
330
3B
102
}
330
3B
100
AcDbScale
 70
     0
300
1:4
140
1.0
141
4.0
290
     0
  0
SCALE
  5
3F
102
{ACAD_REACTORS
330
3B
102
}
330
3B
100
AcDbScale
 70
     0
300
1:5
140
1.0
141
5.0
290
     0
  0
SCALE
  5
40
102
{ACAD_REACTORS
330
3B
102
}
330
3B
100
AcDbScale
 70
     0
300
1:8
140
1.0
141
8.0
290
     0
  0
SCALE
  5
41
102
{ACAD_REACTORS
330
3B
102
}
330
3B
100
AcDbScale
 70
     0
300
1:10
140
1.0
141
10.0
290
     0
  0
SCALE
  5
42
102
{ACAD_REACTORS
330
3B
102
}
330
3B
100
AcDbScale
 70
     0
300
1:16
140
1.0
141
16.0
290
     0
  0
SCALE
  5
43
102
{ACAD_REACTORS
330
3B
102
}
330
3B
100
AcDbScale
 70
     0
300
1:20
140
1.0
141
20.0
290
     0
  0
SCALE
  5
44
102
{ACAD_REACTORS
330
3B
102
}
330
3B
100
AcDbScale
 70
     0
300
1:30
140
1.0
141
30.0
290
     0
  0
SCALE
  5
45
102
{ACAD_REACTORS
330
3B
102
}
330
3B
100
AcDbScale
 70
     0
300
1:40
140
1.0
141
40.0
290
     0
  0
SCALE
  5
46
102
{ACAD_REACTORS
330
3B
102
}
330
3B
100
AcDbScale
 70
     0
300
1:50
140
1.0
141
50.0
290
     0
  0
SCALE
  5
47
102
{ACAD_REACTORS
330
3B
102
}
330
3B
100
AcDbScale
 70
     0
300
1:100
140
1.0
141
100.0
290
     0
  0
SCALE
  5
48
102
{ACAD_REACTORS
330
3B
102
}
330
3B
100
AcDbScale
 70
     0
300
2:1
140
2.0
141
1.0
290
     0
  0
SCALE
  5
49
102
{ACAD_REACTORS
330
3B
102
}
330
3B
100
AcDbScale
 70
     0
300
4:1
140
4.0
141
1.0
290
     0
  0
SCALE
  5
4A
102
{ACAD_REACTORS
330
3B
102
}
330
3B
100
AcDbScale
 70
     0
300
8:1
140
8.0
141
1.0
290
     0
  0
SCALE
  5
4B
102
{ACAD_REACTORS
330
3B
102
}
330
3B
100
AcDbScale
 70
     0
300
10:1
140
10.0
141
1.0
290
     0
  0
SCALE
  5
4C
102
{ACAD_REACTORS
330
3B
102
}
330
3B
100
AcDbScale
 70
     0
300
100:1
140
100.0
141
1.0
290
     0
  0
SCALE
  5
4D
102
{ACAD_REACTORS
330
3B
102
}
330
3B
100
AcDbScale
 70
     0
300
1/128" = 1'-0"
140
0.0078125
141
12.0
290
     0
  0
SCALE
  5
4E
102
{ACAD_REACTORS
330
3B
102
}
330
3B
100
AcDbScale
 70
     0
300
1/64" = 1'-0"
140
0.015625
141
12.0
290
     0
  0
SCALE
  5
4F
102
{ACAD_REACTORS
330
3B
102
}
330
3B
100
AcDbScale
 70
     0
300
1/32" = 1'-0"
140
0.03125
141
12.0
290
     0
  0
SCALE
  5
50
102
{ACAD_REACTORS
330
3B
102
}
330
3B
100
AcDbScale
 70
     0
300
1/16" = 1'-0"
140
0.0625
141
12.0
290
     0
  0
SCALE
  5
51
102
{ACAD_REACTORS
330
3B
102
}
330
3B
100
AcDbScale
 70
     0
300
3/32" = 1'-0"
140
0.09375
141
12.0
290
     0
  0
SCALE
  5
52
102
{ACAD_REACTORS
330
3B
102
}
330
3B
100
AcDbScale
 70
     0
300
1/8" = 1'-0"
140
0.125
141
12.0
290
     0
  0
SCALE
  5
53
102
{ACAD_REACTORS
330
3B
102
}
330
3B
100
AcDbScale
 70
     0
300
3/16" = 1'-0"
140
0.1875
141
12.0
290
     0
  0
SCALE
  5
54
102
{ACAD_REACTORS
330
3B
102
}
330
3B
100
AcDbScale
 70
     0
300
1/4" = 1'-0"
140
0.25
141
12.0
290
     0
  0
SCALE
  5
55
102
{ACAD_REACTORS
330
3B
102
}
330
3B
100
AcDbScale
 70
     0
300
3/8" = 1'-0"
140
0.375
141
12.0
290
     0
  0
SCALE
  5
56
102
{ACAD_REACTORS
330
3B
102
}
330
3B
100
AcDbScale
 70
     0
300
1/2" = 1'-0"
140
0.5
141
12.0
290
     0
  0
SCALE
  5
57
102
{ACAD_REACTORS
330
3B
102
}
330
3B
100
AcDbScale
 70
     0
300
3/4" = 1'-0"
140
0.75
141
12.0
290
     0
  0
SCALE
  5
58
102
{ACAD_REACTORS
330
3B
102
}
330
3B
100
AcDbScale
 70
     0
300
1" = 1'-0"
140
1.0
141
12.0
290
     0
  0
SCALE
  5
59
102
{ACAD_REACTORS
330
3B
102
}
330
3B
100
AcDbScale
 70
     0
300
1-1/2" = 1'-0"
140
1.5
141
12.0
290
     0
  0
SCALE
  5
5A
102
{ACAD_REACTORS
330
3B
102
}
330
3B
100
AcDbScale
 70
     0
300
3" = 1'-0"
140
3.0
141
12.0
290
     0
  0
SCALE
  5
5B
102
{ACAD_REACTORS
330
3B
102
}
330
3B
100
AcDbScale
 70
     0
300
6" = 1'-0"
140
6.0
141
12.0
290
     0
  0
SCALE
  5
5C
102
{ACAD_REACTORS
330
3B
102
}
330
3B
100
AcDbScale
 70
     0
300
1'-0" = 1'-0"
140
12.0
141
12.0
290
     0
  0
VISUALSTYLE
  5
2F
102
{ACAD_REACTORS
330
2A
102
}
330
2A
100
AcDbVisualStyle
  2
2dWireframe
 70
     4
 71
     0
 72
     2
 73
     0
 90
        0
 40
-0.6
 41
-30.0
 62
     5
 63
     7
 74
     1
 91
        4
 64
     7
 65
   257
 75
     1
175
     1
 42
1.0
 92
        0
 66
   257
 43
1.0
 76
     1
 77
     6
 78
     2
 67
     7
 79
     5
170
     0
171
     0
290
     0
174
     0
 93
        1
 44
0.0
173
     0
291
     0
 45
0.0
1001
ACAD
1000
AcDbSavedByObjectVersion
1070
     0
  0
VISUALSTYLE
  5
31
102
{ACAD_REACTORS
330
2A
102
}
330
2A
100
AcDbVisualStyle
  2
3D Hidden
 70
     6
 71
     1
 72
     2
 73
     2
 90
        0
 40
-0.6
 41
-30.0
 62
     5
 63
     7
 74
     2
 91
        2
 64
     7
 65
   257
 75
     2
175
     1
 42
40.0
 92
        0
 66
   257
 43
1.0
 76
     1
 77
     6
 78
     2
 67
     7
 79
     3
170
     0
171
     0
290
     0
174
     0
 93
        1
 44
0.0
173
     0
291
     0
 45
0.0
1001
ACAD
1000
AcDbSavedByObjectVersion
1070
     0
  0
VISUALSTYLE
  5
30
102
{ACAD_REACTORS
330
2A
102
}
330
2A
100
AcDbVisualStyle
  2
3dWireframe
 70
     5
 71
     0
 72
     2
 73
     0
 90
        0
 40
-0.6
 41
-30.0
 62
     5
 63
     7
 74
     1
 91
        4
 64
     7
 65
   257
 75
     1
175
     1
 42
1.0
 92
        0
 66
   257
 43
1.0
 76
     1
 77
     6
 78
     2
 67
     7
 79
     5
170
     0
171
     0
290
     0
174
     0
 93
        1
 44
0.0
173
     0
291
     0
 45
0.0
1001
ACAD
1000
AcDbSavedByObjectVersion
1070
     0
  0
VISUALSTYLE
  5
32
102
{ACAD_REACTORS
330
2A
102
}
330
2A
100
AcDbVisualStyle
  2
Basic
 70
     7
 71
     1
 72
     0
 73
     1
 90
        0
 40
-0.6
 41
-30.0
 62
     5
 63
     7
 74
     0
 91
        4
 64
     7
 65
   257
 75
     1
175
     1
 42
1.0
 92
        8
 66
     7
 43
1.0
 76
     1
 77
     6
 78
     2
 67
     7
 79
     5
170
     0
171
     0
290
     0
174
     0
 93
        1
 44
0.0
173
     0
291
     1
 45
0.0
1001
ACAD
1000
AcDbSavedByObjectVersion
1070
     0
  0
VISUALSTYLE
  5
36
102
{ACAD_REACTORS
330
2A
102
}
330
2A
100
AcDbVisualStyle
  2
Brighten
 70
    12
 71
     2
 72
     2
 73
     0
 90
        0
 40
-0.6
 41
-30.0
 62
     5
 63
     7
 74
     1
 91
        4
 64
     7
 65
   257
 75
     1
175
     1
 42
1.0
 92
        8
 66
     7
 43
1.0
 76
     1
 77
     6
 78
     2
 67
     7
 79
     5
170
     0
171
     0
290
     0
174
     0
 93
        1
 44
50.0
173
     0
291
     1
 45
0.0
1001
ACAD
1000
AcDbSavedByObjectVersion
1070
     0
  0
VISUALSTYLE
  5
3A
102
{ACAD_REACTORS
330
2A
102
}
330
2A
100
AcDbVisualStyle
  2
ColorChange
 70
    16
 71
     2
 72
     2
 73
     3
 90
        0
 40
-0.6
 41
-30.0
 62
     5
 63
     8
 74
     1
 91
        4
 64
     7
 65
   257
 75
     1
175
     1
 42
1.0
 92
        8
 66
     8
 43
1.0
 76
     1
 77
     6
 78
     2
 67
     7
 79
     5
170
     0
171
     0
290
     0
174
     0
 93
        1
 44
0.0
173
     0
291
     1
 45
0.0
1001
ACAD
1000
AcDbSavedByObjectVersion
1070
     0
  0
VISUALSTYLE
  5
34
102
{ACAD_REACTORS
330
2A
102
}
330
2A
100
AcDbVisualStyle
  2
Conceptual
 70
     9
 71
     3
 72
     2
 73
     0
 90
        0
 40
-0.6
 41
-30.0
 62
     5
 63
     7
 74
     2
 91
        2
 64
     7
 65
   257
 75
     1
175
     1
 42
40.0
 92
        8
 66
     7
 43
1.0
 76
     1
 77
     6
 78
     2
 67
     7
 79
     3
170
     0
171
     0
290
     0
174
     0
 93
        1
 44
0.0
173
     0
291
     0
 45
0.0
1001
ACAD
1000
AcDbSavedByObjectVersion
1070
     0
  0
VISUALSTYLE
  5
35
102
{ACAD_REACTORS
330
2A
102
}
330
2A
100
AcDbVisualStyle
  2
Dim
 70
    11
 71
     2
 72
     2
 73
     0
 90
        0
 40
-0.6
 41
-30.0
 62
     5
 63
     7
 74
     1
 91
        4
 64
     7
 65
   257
 75
     1
175
     1
 42
1.0
 92
        8
 66
     7
 43
1.0
 76
     1
 77
     6
 78
     2
 67
     7
 79
     5
170
     0
171
     0
290
     0
174
     0
 93
        1
 44
-50.0
173
     0
291
     1
 45
0.0
1001
ACAD
1000
AcDbSavedByObjectVersion
1070
     0
  0
VISUALSTYLE
  5
39
102
{ACAD_REACTORS
330
2A
102
}
330
2A
100
AcDbVisualStyle
  2
Facepattern
 70
    15
 71
     2
 72
     2
 73
     0
 90
        0
 40
-0.6
 41
-30.0
 62
     5
 63
     7
 74
     1
 91
        4
 64
     7
 65
   257
 75
     1
175
     1
 42
1.0
 92
        8
 66
     7
 43
1.0
 76
     1
 77
     6
 78
     2
 67
     7
 79
     5
170
     0
171
     0
290
     0
174
     0
 93
        1
 44
0.0
173
     0
291
     1
 45
0.0
1001
ACAD
1000
AcDbSavedByObjectVersion
1070
     0
  0
VISUALSTYLE
  5
2B
102
{ACAD_REACTORS
330
2A
102
}
330
2A
100
AcDbVisualStyle
  2
Flat
 70
     0
 71
     2
 72
     1
 73
     1
 90
        2
 40
-0.6
 41
30.0
 62
     5
 63
     7
 74
     0
 91
        4
 64
     7
 65
   257
 75
     1
175
     1
 42
1.0
 92
        8
 66
     7
 43
1.0
 76
     1
 77
     6
 78
     2
 67
     7
 79
     5
170
     0
171
     0
290
     0
174
     0
 93
       13
 44
0.0
173
     0
291
     1
 45
0.0
1001
ACAD
1000
AcDbSavedByObjectVersion
1070
     0
  0
VISUALSTYLE
  5
2C
102
{ACAD_REACTORS
330
2A
102
}
330
2A
100
AcDbVisualStyle
  2
FlatWithEdges
 70
     1
 71
     2
 72
     1
 73
     1
 90
        2
 40
-0.6
 41
30.0
 62
     5
 63
     7
 74
     1
 91
        4
 64
     7
 65
   257
 75
     1
175
     1
 42
1.0
 92
        0
 66
   257
 43
1.0
 76
     1
 77
     6
 78
     2
 67
     7
 79
     5
170
     0
171
     0
290
     0
174
     0
 93
       13
 44
0.0
173
     0
291
     1
 45
0.0
1001
ACAD
1000
AcDbSavedByObjectVersion
1070
     0
  0
VISUALSTYLE
  5
2D
102
{ACAD_REACTORS
330
2A
102
}
330
2A
100
AcDbVisualStyle
  2
Gouraud
 70
     2
 71
     2
 72
     2
 73
     1
 90
        2
 40
-0.6
 41
30.0
 62
     5
 63
     7
 74
     0
 91
        4
 64
     7
 65
   257
 75
     1
175
     1
 42
1.0
 92
        0
 66
     7
 43
1.0
 76
     1
 77
     6
 78
     2
 67
     7
 79
     5
170
     0
171
     0
290
     0
174
     0
 93
       13
 44
0.0
173
     0
291
     1
 45
0.0
1001
ACAD
1000
AcDbSavedByObjectVersion
1070
     0
  0
VISUALSTYLE
  5
2E
102
{ACAD_REACTORS
330
2A
102
}
330
2A
100
AcDbVisualStyle
  2
GouraudWithEdges
 70
     3
 71
     2
 72
     2
 73
     1
 90
        2
 40
-0.6
 41
30.0
 62
     5
 63
     7
 74
     1
 91
        4
 64
     7
 65
   257
 75
     1
175
     1
 42
1.0
 92
        0
 66
   257
 43
1.0
 76
     1
 77
     6
 78
     2
 67
     7
 79
     5
170
     0
171
     0
290
     0
174
     0
 93
       13
 44
0.0
173
     0
291
     1
 45
0.0
1001
ACAD
1000
AcDbSavedByObjectVersion
1070
     0
  0
VISUALSTYLE
  5
38
102
{ACAD_REACTORS
330
2A
102
}
330
2A
100
AcDbVisualStyle
  2
Linepattern
 70
    14
 71
     2
 72
     2
 73
     0
 90
        0
 40
-0.6
 41
-30.0
 62
     5
 63
     7
 74
     1
 91
        4
 64
     7
 65
   257
 75
     7
175
     7
 42
1.0
 92
        8
 66
     7
 43
1.0
 76
     1
 77
     6
 78
     2
 67
     7
 79
     5
170
     0
171
     0
290
     0
174
     0
 93
        1
 44
0.0
173
     0
291
     1
 45
0.0
1001
ACAD
1000
AcDbSavedByObjectVersion
1070
     0
  0
VISUALSTYLE
  5
33
102
{ACAD_REACTORS
330
2A
102
}
330
2A
100
AcDbVisualStyle
  2
Realistic
 70
     8
 71
     2
 72
     2
 73
     0
 90
        0
 40
-0.6
 41
-30.0
 62
     5
 63
     7
 74
     1
 91
        0
 64
     7
 65
   257
 75
     1
175
     1
 42
1.0
 92
        8
 66
     8
 43
1.0
 76
     1
 77
     6
 78
     2
 67
     7
 79
     5
170
     0
171
     0
290
     0
174
     0
 93
       13
 44
0.0
173
     0
291
     0
 45
0.0
1001
ACAD
1000
AcDbSavedByObjectVersion
1070
     0
  0
VISUALSTYLE
  5
37
102
{ACAD_REACTORS
330
2A
102
}
330
2A
100
AcDbVisualStyle
  2
Thicken
 70
    13
 71
     2
 72
     2
 73
     0
 90
        0
 40
-0.6
 41
-30.0
 62
     5
 63
     7
 74
     1
 91
        4
 64
     7
 65
   257
 75
     1
175
     1
 42
1.0
 92
       12
 66
     7
 43
1.0
 76
     1
 77
     6
 78
     2
 67
     7
 79
     5
170
     0
171
     0
290
     0
174
     0
 93
        1
 44
0.0
173
     0
291
     1
 45
0.0
1001
ACAD
1000
AcDbSavedByObjectVersion
1070
     0
  0
DICTIONARYVAR
  5
188
102
{ACAD_REACTORS
330
187
102
}
330
187
100
DictionaryVariables
280
     0
  1
1:1
  0
DICTIONARYVAR
  5
18C
102
{ACAD_REACTORS
330
187
102
}
330
187
100
DictionaryVariables
280
     0
  1
80.000000
  0
DICTIONARYVAR
  5
18B
102
{ACAD_REACTORS
330
187
102
}
330
187
100
DictionaryVariables
280
     0
  1
5.000000
  0
ENDSEC
  0
EOF
