  0
SECTION
  2
HEADER
  9
$ACADVER
  1
AC1009
  9
$DWGCODEPAGE
  3
ansi_1252
  9
$INSBASE
 10
0.0
 20
0.0
 30
0.0
  9
$EXTMIN
 10
1.000000000000000E+20
 20
1.000000000000000E+20
 30
1.000000000000000E+20
  9
$EXTMAX
 10
-1.000000000000000E+20
 20
-1.000000000000000E+20
 30
-1.000000000000000E+20
  9
$LIMMIN
 10
0.0
 20
0.0
  9
$LIMMAX
 10
12.0
 20
9.0
  9
$ORTHOMODE
 70
     0
  9
$REGENMODE
 70
     1
  9
$FILLMODE
 70
     1
  9
$QTEXTMODE
 70
     0
  9
$MIRRTEXT
 70
     1
  9
$DRAGMODE
 70
     2
  9
$LTSCALE
 40
1.0
  9
$OSMODE
 70
    37
  9
$ATTMODE
 70
     1
  9
$TEXTSIZE
 40
0.2
  9
$TRACEWID
 40
0.05
  9
$TEXTSTYLE
  7
STANDARD
  9
$CLAYER
  8
0
  9
$CELTYPE
  6
BYLAYER
  9
$CECOLOR
 62
   256
  9
$DIMSCALE
 40
1.0
  9
$DIMASZ
 40
0.18
  9
$DIMEXO
 40
0.0625
  9
$DIMDLI
 40
0.38
  9
$DIMRND
 40
0.0
  9
$DIMDLE
 40
0.0
  9
$DIMEXE
 40
0.18
  9
$DIMTP
 40
0.0
  9
$DIMTM
 40
0.0
  9
$DIMTXT
 40
0.18
  9
$DIMCEN
 40
0.09
  9
$DIMTSZ
 40
0.0
  9
$DIMTOL
 70
     0
  9
$DIMLIM
 70
     0
  9
$DIMTIH
 70
     1
  9
$DIMTOH
 70
     1
  9
$DIMSE1
 70
     0
  9
$DIMSE2
 70
     0
  9
$DIMTAD
 70
     0
  9
$DIMZIN
 70
     0
  9
$DIMBLK
  1

  9
$DIMASO
 70
     1
  9
$DIMSHO
 70
     1
  9
$DIMPOST
  1

  9
$DIMAPOST
  1

  9
$DIMALT
 70
     0
  9
$DIMALTD
 70
     2
  9
$DIMALTF
 40
25.4
  9
$DIMLFAC
 40
1.0
  9
$DIMTOFL
 70
     0
  9
$DIMTVP
 40
0.0
  9
$DIMTIX
 70
     0
  9
$DIMSOXD
 70
     0
  9
$DIMSAH
 70
     0
  9
$DIMBLK1
  1

  9
$DIMBLK2
  1

  9
$DIMSTYLE
  2
STANDARD
  9
$DIMCLRD
 70
     0
  9
$DIMCLRE
 70
     0
  9
$DIMCLRT
 70
     0
  9
$DIMTFAC
 40
1.0
  9
$DIMGAP
 40
0.09
  9
$LUNITS
 70
     2
  9
$LUPREC
 70
     4
  9
$SKETCHINC
 40
0.1
  9
$FILLETRAD
 40
0.5
  9
$AUNITS
 70
     0
  9
$AUPREC
 70
     0
  9
$MENU
  1
.
  9
$ELEVATION
 40
0.0
  9
$PELEVATION
 40
0.0
  9
$THICKNESS
 40
0.0
  9
$LIMCHECK
 70
     0
  9
$CHAMFERA
 40
0.5
  9
$CHAMFERB
 40
0.5
  9
$SKPOLY
 70
     0
  9
$TDCREATE
 40
2455356.755535116
  9
$TDUPDATE
 40
2455356.755535116
  9
$TDINDWG
 40
0.0000000116
  9
$TDUSRTIMER
 40
0.0000000116
  9
$USRTIMER
 70
     1
  9
$ANGBASE
 50
0.0
  9
$ANGDIR
 70
     0
  9
$PDMODE
 70
     0
  9
$PDSIZE
 40
0.0
  9
$PLINEWID
 40
0.0
  9
$COORDS
 70
     1
  9
$SPLFRAME
 70
     0
  9
$SPLINETYPE
 70
     6
  9
$SPLINESEGS
 70
     8
  9
$ATTDIA
 70
     0
  9
$ATTREQ
 70
     1
  9
$HANDLING
 70
     1
  9
$HANDSEED
  5
B0E
  9
$SURFTAB1
 70
     6
  9
$SURFTAB2
 70
     6
  9
$SURFTYPE
 70
     6
  9
$SURFU
 70
     6
  9
$SURFV
 70
     6
  9
$UCSNAME
  2

  9
$UCSORG
 10
0.0
 20
0.0
 30
0.0
  9
$UCSXDIR
 10
1.0
 20
0.0
 30
0.0
  9
$UCSYDIR
 10
0.0
 20
1.0
 30
0.0
  9
$PUCSNAME
  2

  9
$PUCSORG
 10
0.0
 20
0.0
 30
0.0
  9
$PUCSXDIR
 10
1.0
 20
0.0
 30
0.0
  9
$PUCSYDIR
 10
0.0
 20
1.0
 30
0.0
  9
$USERI1
 70
     0
  9
$USERI2
 70
     0
  9
$USERI3
 70
     0
  9
$USERI4
 70
     0
  9
$USERI5
 70
     0
  9
$USERR1
 40
0.0
  9
$USERR2
 40
0.0
  9
$USERR3
 40
0.0
  9
$USERR4
 40
0.0
  9
$USERR5
 40
0.0
  9
$WORLDVIEW
 70
     1
  9
$SHADEDGE
 70
     3
  9
$SHADEDIF
 70
    70
  9
$TILEMODE
 70
     1
  9
$MAXACTVP
 70
    64
  9
$PLIMCHECK
 70
     0
  9
$PEXTMIN
 10
1.000000000000000E+20
 20
1.000000000000000E+20
 30
1.000000000000000E+20
  9
$PEXTMAX
 10
-1.000000000000000E+20
 20
-1.000000000000000E+20
 30
-1.000000000000000E+20
  9
$PLIMMIN
 10
0.0
 20
0.0
  9
$PLIMMAX
 10
12.0
 20
9.0
  9
$UNITMODE
 70
     0
  9
$VISRETAIN
 70
     1
  9
$PLINEGEN
 70
     0
  9
$PSLTSCALE
 70
     1
  0
ENDSEC
  0
SECTION
  2
TABLES
  0
TABLE
  2
VPORT
 70
     1
  0
VPORT
  2
*ACTIVE
 70
     0
 10
0.0
 20
0.0
 11
1.0
 21
1.0
 12
0.0
 22
0.0
 13
0.0
 23
0.0
 14
0.5
 24
0.5
 15
0.5
 25
0.5
 16
839.044677734375
 26
479.4127807617188
 36
839.044677734375
 17
101.3999633789062
 27
95.0
 37
125.25
 40
481.7963758794251
 41
1.972972972850329
 42
50.0
 43
0.0
 44
0.0
 50
0.0
 51
0.0
 71
     0
 72
   100
 73
     1
 74
     3
 75
     0
 76
     0
 77
     0
 78
     0
  0
ENDTAB
  0
TABLE
  2
LTYPE
 70
     1
  0
LTYPE
  2
CONTINUOUS
 70
     0
  3
Solid line
 72
    65
 73
     0
 40
0.0
  0
ENDTAB
  0
TABLE
  2
LAYER
 70
     2
  0
LAYER
  2
0
 70
     0
 62
     7
  6
CONTINUOUS
  0
LAYER
  2
LAYER_1
 70
     0
 62
     7
  6
CONTINUOUS
  0
ENDTAB
  0
TABLE
  2
STYLE
 70
     1
  0
STYLE
  2
STANDARD
 70
     0
 40
0.0
 41
1.0
 50
0.0
 71
     0
 42
0.2
  3
txt
  4

  0
ENDTAB
  0
TABLE
  2
VIEW
 70
     0
  0
ENDTAB
  0
TABLE
  2
UCS
 70
     0
  0
ENDTAB
  0
TABLE
  2
APPID
 70
     1
  0
APPID
  2
ACAD
 70
     0
  0
ENDTAB
  0
TABLE
  2
DIMSTYLE
 70
     1
  0
DIMSTYLE
  2
STANDARD
 70
     0
  3

  4

  5

  6

  7

 40
1.0
 41
0.18
 42
0.0625
 43
0.38
 44
0.18
 45
0.0
 46
0.0
 47
0.0
 48
0.0
140
0.18
141
0.09
142
0.0
143
25.4
144
1.0
145
0.0
146
1.0
147
0.09
 71
     0
 72
     0
 73
     1
 74
     1
 75
     0
 76
     0
 77
     0
 78
     0
170
     0
171
     2
172
     0
173
     0
174
     0
175
     0
176
     0
177
     0
178
     0
  0
ENDTAB
  0
ENDSEC
  0
SECTION
  2
BLOCKS
  0
BLOCK
  8
0
  2
$MODEL_SPACE
 70
     0
 10
0.0
 20
0.0
 30
0.0
  3
$MODEL_SPACE
  1

  0
ENDBLK
  5
21
  8
0
  0
BLOCK
 67
     1
  8
0
  2
$PAPER_SPACE
 70
     0
 10
0.0
 20
0.0
 30
0.0
  3
$PAPER_SPACE
  1

  0
ENDBLK
  5
1D
 67
     1
  8
0
  0
BLOCK
  8
0
  2
E3_NODE
 70
     0
 10
0.0
 20
0.0
 30
0.0
  3
E3_NODE
  1

  0
POLYLINE
  5
3C
  8
0
 62
     9
 66
     1
 10
0.0
 20
0.0
 30
0.0
 70
    64
 71
    78
 72
    78
  0
VERTEX
  5
3D
  8
0
 10
8.710000038146973
 20
-136.1549987792969
 30
15.39999961853027
 70
   192
  0
VERTEX
  5
3E
  8
0
 10
0.0
 20
-134.25
 30
15.39999961853027
 70
   192
  0
VERTEX
  5
3F
  8
0
 10
4.36299991607666
 20
-134.7109985351562
 30
33.0369987487793
 70
   192
  0
VERTEX
  5
40
  8
0
 10
6.446000099182129
 20
-135.27099609375
 30
33.0369987487793
 70
   192
  0
VERTEX
  5
41
  8
0
 10
0.0
 20
-134.25
 30
33.03799819946289
 70
   192
  0
VERTEX
  5
42
  8
0
 10
16.9680004119873
 20
-142.9839935302734
 30
15.39999961853027
 70
   192
  0
VERTEX
  5
43
  8
0
 10
12.625
 20
-138.5039978027344
 30
33.03300094604492
 70
   192
  0
VERTEX
  5
44
  8
0
 10
10.57800006866455
 20
-137.1679992675781
 30
33.03499984741211
 70
   192
  0
VERTEX
  5
45
  8
0
 10
10.84700012207031
 20
-137.2910003662109
 30
33.03499984741211
 70
   192
  0
VERTEX
  5
46
  8
0
 10
8.651000022888184
 20
-136.2830047607422
 30
33.0359992980957
 70
   192
  0
VERTEX
  5
47
  8
0
 10
16.10499954223633
 20
-141.8580017089844
 30
33.02999877929688
 70
   192
  0
VERTEX
  5
48
  8
0
 10
20.71299934387207
 20
-152.97900390625
 30
15.39999961853027
 70
   192
  0
VERTEX
  5
49
  8
0
 10
19.55200004577637
 20
-147.8890075683594
 30
33.0260009765625
 70
   192
  0
VERTEX
  5
4A
  8
0
 10
20.18400001525879
 20
-149.9389953613281
 30
33.02500152587891
 70
   192
  0
VERTEX
  5
4B
  8
0
 10
17.91399955749512
 20
-144.6450042724609
 30
33.02799987792969
 70
   192
  0
VERTEX
  5
4C
  8
0
 10
17.375
 20
-143.5780029296875
 30
33.02799987792969
 70
   192
  0
VERTEX
  5
4D
  8
0
 10
16.94799995422363
 20
-142.9989929199219
 30
33.02899932861328
 70
   192
  0
VERTEX
  5
4E
  8
0
 10
20.80100059509277
 20
-155.6750030517578
 30
15.39999961853027
 70
   192
  0
VERTEX
  5
4F
  8
0
 10
20.80999946594238
 20
-154.7230072021484
 30
33.02500152587891
 70
   192
  0
VERTEX
  5
50
  8
0
 10
20.79700088500977
 20
-155.0619964599609
 30
33.02500152587891
 70
   192
  0
VERTEX
  5
51
  8
0
 10
20.58399963378906
 20
-152.9960021972656
 30
33.02500152587891
 70
   192
  0
VERTEX
  5
52
  8
0
 10
17.6879997253418
 20
-165.9349975585938
 30
15.39999961853027
 70
   192
  0
VERTEX
  5
53
  8
0
 10
18.93099975585938
 20
-163.6199951171875
 30
33.0260009765625
 70
   192
  0
VERTEX
  5
54
  8
0
 10
17.79999923706055
 20
-165.4810028076172
 30
33.02799987792969
 70
   192
  0
VERTEX
  5
55
  8
0
 10
19.73100090026855
 20
-161.6020050048828
 30
33.0260009765625
 70
   192
  0
VERTEX
  5
56
  8
0
 10
20.72599983215332
 20
-156.8809967041016
 30
33.02500152587891
 70
   192
  0
VERTEX
  5
57
  8
0
 10
20.77300071716309
 20
-155.6739959716797
 30
33.02500152587891
 70
   192
  0
VERTEX
  5
58
  8
0
 10
10.96700000762939
 20
-172.6349945068359
 30
15.39999961853027
 70
   192
  0
VERTEX
  5
59
  8
0
 10
14.98600006103516
 20
-169.3990020751953
 30
33.03099822998047
 70
   192
  0
VERTEX
  5
5A
  8
0
 10
11.24499988555908
 20
-172.4600067138672
 30
33.03400039672852
 70
   192
  0
VERTEX
  5
5B
  8
0
 10
16.42300033569336
 20
-167.7460021972656
 30
33.02899932861328
 70
   192
  0
VERTEX
  5
5C
  8
0
 10
17.56800079345703
 20
-165.8619995117188
 30
33.02799987792969
 70
   192
  0
VERTEX
  5
5D
  8
0
 10
9.345000267028809
 20
-173.5410003662109
 30
33.0359992980957
 70
   192
  0
VERTEX
  5
5E
  8
0
 10
4.793000221252441
 20
-175.1929931640625
 30
33.0369987487793
 70
   192
  0
VERTEX
  5
5F
  8
0
 10
10.57800006866455
 20
-172.8399963378906
 30
33.03499984741211
 70
   192
  0
VERTEX
  5
60
  8
0
 10
0.7300000190734863
 20
-175.7369995117188
 30
15.39999961853027
 70
   192
  0
VERTEX
  5
61
  8
0
 10
2.648000001907349
 20
-175.5809936523438
 30
33.03799819946289
 70
   192
  0
VERTEX
  5
62
  8
0
 10
10.96000003814697
 20
-172.6219940185547
 30
33.03499984741211
 70
   192
  0
VERTEX
  5
63
  8
0
 10
0.7289999723434448
 20
-175.6020050048828
 30
33.03799819946289
 70
   192
  0
VERTEX
  5
64
  8
0
 10
-0.0509999990463257
 20
-175.6109924316406
 30
33.03799819946289
 70
   192
  0
VERTEX
  5
65
  8
0
 10
-0.2430000007152557
 20
-175.7489929199219
 30
15.39999961853027
 70
   192
  0
VERTEX
  5
66
  8
0
 10
-10.60499954223633
 20
-172.85400390625
 30
15.39999961853027
 70
   192
  0
VERTEX
  5
67
  8
0
 10
-4.339000225067139
 20
-175.2940063476562
 30
33.0369987487793
 70
   192
  0
VERTEX
  5
68
  8
0
 10
-8.925999641418457
 20
-173.7449951171875
 30
33.0359992980957
 70
   192
  0
VERTEX
  5
69
  8
0
 10
-2.196000099182129
 20
-175.6340026855469
 30
33.03799819946289
 70
   192
  0
VERTEX
  5
6A
  8
0
 10
-0.2450000047683716
 20
-175.6130065917969
 30
33.03799819946289
 70
   192
  0
VERTEX
  5
6B
  8
0
 10
-17.9069995880127
 20
-165.5740051269531
 30
15.39999961853027
 70
   192
  0
VERTEX
  5
6C
  8
0
 10
-14.63399982452393
 20
-169.7539978027344
 30
33.03099822998047
 70
   192
  0
VERTEX
  5
6D
  8
0
 10
-10.68000030517578
 20
-172.8009948730469
 30
33.03499984741211
 70
   192
  0
VERTEX
  5
6E
  8
0
 10
-10.81700038909912
 20
-172.7270050048828
 30
33.03499984741211
 70
   192
  0
VERTEX
  5
6F
  8
0
 10
-10.60000038146973
 20
-172.843994140625
 30
33.03499984741211
 70
   192
  0
VERTEX
  5
70
  8
0
 10
-16.08200073242188
 20
-168.1710052490234
 30
33.02999877929688
 70
   192
  0
VERTEX
  5
71
  8
0
 10
-20.80999946594238
 20
-155.2980041503906
 30
15.39999961853027
 70
   192
  0
VERTEX
  5
72
  8
0
 10
-20.66699981689453
 20
-157.4499969482422
 30
33.02500152587891
 70
   192
  0
VERTEX
  5
73
  8
0
 10
-20.80999946594238
 20
-155.3029937744141
 30
33.02500152587891
 70
   192
  0
VERTEX
  5
74
  8
0
 10
-19.54000091552734
 20
-162.1419982910156
 30
33.0260009765625
 70
   192
  0
VERTEX
  5
75
  8
0
 10
-17.80100059509277
 20
-165.5050048828125
 30
33.02799987792969
 70
   192
  0
VERTEX
  5
76
  8
0
 10
-17.81599998474121
 20
-165.4810028076172
 30
33.02799987792969
 70
   192
  0
VERTEX
  5
77
  8
0
 10
-18.69799995422363
 20
-164.1119995117188
 30
33.02700042724609
 70
   192
  0
VERTEX
  5
78
  8
0
 10
-20.80900001525879
 20
-155.2980041503906
 30
33.02500152587891
 70
   192
  0
VERTEX
  5
79
  8
0
 10
-20.78499984741211
 20
-155.0619964599609
 30
33.02500152587891
 70
   192
  0
VERTEX
  5
7A
  8
0
 10
-20.8120002746582
 20
-154.9010009765625
 30
15.39999961853027
 70
   192
  0
VERTEX
  5
7B
  8
0
 10
-17.97800064086914
 20
-144.5460052490234
 30
15.39999961853027
 70
   192
  0
VERTEX
  5
7C
  8
0
 10
-19.73500061035156
 20
-148.4109954833984
 30
33.0260009765625
 70
   192
  0
VERTEX
  5
7D
  8
0
 10
-17.95899963378906
 20
-144.64599609375
 30
33.02799987792969
 70
   192
  0
VERTEX
  5
7E
  8
0
 10
-20.31800079345703
 20
-150.5050048828125
 30
33.02500152587891
 70
   192
  0
VERTEX
  5
7F
  8
0
 10
-20.76899909973145
 20
-154.9049987792969
 30
33.02500152587891
 70
   192
  0
VERTEX
  5
80
  8
0
 10
-10.37100028991699
 20
-137.0099945068359
 30
15.39999961853027
 70
   192
  0
VERTEX
  5
81
  8
0
 10
-13.02999973297119
 20
-138.8209991455078
 30
33.03300094604492
 70
   192
  0
VERTEX
  5
82
  8
0
 10
-11.25399971008301
 20
-137.5449981689453
 30
33.03400039672852
 70
   192
  0
VERTEX
  5
83
  8
0
 10
-16.42700004577637
 20
-142.2599945068359
 30
33.02899932861328
 70
   192
  0
VERTEX
  5
84
  8
0
 10
-10.67899990081787
 20
-137.2649993896484
 30
33.03499984741211
 70
   192
  0
VERTEX
  5
85
  8
0
 10
-17.67600059509277
 20
-144.0460052490234
 30
33.02799987792969
 70
   192
  0
VERTEX
  5
86
  8
0
 10
-17.92399978637695
 20
-144.5720062255859
 30
33.02799987792969
 70
   192
  0
VERTEX
  5
87
  8
0
 10
-6.903999805450439
 20
-135.4250030517578
 30
33.0369987487793
 70
   192
  0
VERTEX
  5
88
  8
0
 10
-4.811999797821045
 20
-134.8130035400391
 30
33.0369987487793
 70
   192
  0
VERTEX
  5
89
  8
0
 10
-10.32999992370605
 20
-137.0950012207031
 30
33.03499984741211
 70
   192
  0
VERTEX
  5
8A
  8
0
 10
-0.0509999990463257
 20
-134.2559967041016
 30
33.03799819946289
 70
   192
  0
VERTEX
  5
8B
  8
0
 62
     9
 10
0.0
 20
0.0
 30
0.0
 70
   128
 71
     3
 72
     2
 73
     1
  0
VERTEX
  5
8C
  8
0
 62
     9
 10
0.0
 20
0.0
 30
0.0
 70
   128
 71
     1
 72
     4
 73
     3
  0
VERTEX
  5
8D
  8
0
 62
     9
 10
0.0
 20
0.0
 30
0.0
 70
   128
 71
     3
 72
     5
 73
     2
  0
VERTEX
  5
8E
  8
0
 62
     9
 10
0.0
 20
0.0
 30
0.0
 70
   128
 71
     7
 72
     1
 73
     6
  0
VERTEX
  5
8F
  8
0
 62
     9
 10
0.0
 20
0.0
 30
0.0
 70
   128
 71
     9
 72
     8
 73
     1
  0
VERTEX
  5
90
  8
0
 62
     9
 10
0.0
 20
0.0
 30
0.0
 70
   128
 71
     1
 72
     7
 73
     9
  0
VERTEX
  5
91
  8
0
 62
     9
 10
0.0
 20
0.0
 30
0.0
 70
   128
 71
     8
 72
    10
 73
     1
  0
VERTEX
  5
92
  8
0
 62
     9
 10
0.0
 20
0.0
 30
0.0
 70
   128
 71
     6
 72
    11
 73
     7
  0
VERTEX
  5
93
  8
0
 62
     9
 10
0.0
 20
0.0
 30
0.0
 70
   128
 71
    14
 72
    13
 73
    12
  0
VERTEX
  5
94
  8
0
 62
     9
 10
0.0
 20
0.0
 30
0.0
 70
   128
 71
    13
 72
    15
 73
     6
  0
VERTEX
  5
95
  8
0
 62
     9
 10
0.0
 20
0.0
 30
0.0
 70
   128
 71
    15
 72
    16
 73
     6
  0
VERTEX
  5
96
  8
0
 62
     9
 10
0.0
 20
0.0
 30
0.0
 70
   128
 71
    16
 72
    17
 73
     6
  0
VERTEX
  5
97
  8
0
 62
     9
 10
0.0
 20
0.0
 30
0.0
 70
   128
 71
     6
 72
    12
 73
    13
  0
VERTEX
  5
98
  8
0
 62
     9
 10
0.0
 20
0.0
 30
0.0
 70
   128
 71
    20
 72
    19
 73
    18
  0
VERTEX
  5
99
  8
0
 62
     9
 10
0.0
 20
0.0
 30
0.0
 70
   128
 71
    19
 72
    21
 73
    12
  0
VERTEX
  5
9A
  8
0
 62
     9
 10
0.0
 20
0.0
 30
0.0
 70
   128
 71
    12
 72
    18
 73
    19
  0
VERTEX
  5
9B
  8
0
 62
     9
 10
0.0
 20
0.0
 30
0.0
 70
   128
 71
    24
 72
    23
 73
    22
  0
VERTEX
  5
9C
  8
0
 62
     9
 10
0.0
 20
0.0
 30
0.0
 70
   128
 71
    23
 72
    25
 73
    22
  0
VERTEX
  5
9D
  8
0
 62
     9
 10
0.0
 20
0.0
 30
0.0
 70
   128
 71
    25
 72
    26
 73
    18
  0
VERTEX
  5
9E
  8
0
 62
     9
 10
0.0
 20
0.0
 30
0.0
 70
   128
 71
    26
 72
    27
 73
    18
  0
VERTEX
  5
9F
  8
0
 62
     9
 10
0.0
 20
0.0
 30
0.0
 70
   128
 71
    18
 72
    22
 73
    25
  0
VERTEX
  5
A0
  8
0
 62
     9
 10
0.0
 20
0.0
 30
0.0
 70
   128
 71
    29
 72
    22
 73
    28
  0
VERTEX
  5
A1
  8
0
 62
     9
 10
0.0
 20
0.0
 30
0.0
 70
   128
 71
    28
 72
    30
 73
    29
  0
VERTEX
  5
A2
  8
0
 62
     9
 10
0.0
 20
0.0
 30
0.0
 70
   128
 71
    29
 72
    31
 73
    22
  0
VERTEX
  5
A3
  8
0
 62
     9
 10
0.0
 20
0.0
 30
0.0
 70
   128
 71
    31
 72
    32
 73
    22
  0
VERTEX
  5
A4
  8
0
 62
     9
 10
0.0
 20
0.0
 30
0.0
 70
   128
 71
    34
 72
    33
 73
    28
  0
VERTEX
  5
A5
  8
0
 62
     9
 10
0.0
 20
0.0
 30
0.0
 70
   128
 71
    33
 72
    35
 73
    28
  0
VERTEX
  5
A6
  8
0
 62
     9
 10
0.0
 20
0.0
 30
0.0
 70
   128
 71
    28
 72
    36
 73
    34
  0
VERTEX
  5
A7
  8
0
 62
     9
 10
0.0
 20
0.0
 30
0.0
 70
   128
 71
    36
 72
    37
 73
    34
  0
VERTEX
  5
A8
  8
0
 62
     9
 10
0.0
 20
0.0
 30
0.0
 70
   128
 71
    35
 72
    38
 73
    28
  0
VERTEX
  5
A9
  8
0
 62
     9
 10
0.0
 20
0.0
 30
0.0
 70
   128
 71
    40
 72
    39
 73
    36
  0
VERTEX
  5
AA
  8
0
 62
     9
 10
0.0
 20
0.0
 30
0.0
 70
   128
 71
    36
 72
    41
 73
    40
  0
VERTEX
  5
AB
  8
0
 62
     9
 10
0.0
 20
0.0
 30
0.0
 70
   128
 71
    43
 72
    41
 73
    42
  0
VERTEX
  5
AC
  8
0
 62
     9
 10
0.0
 20
0.0
 30
0.0
 70
   128
 71
    42
 72
    44
 73
    43
  0
VERTEX
  5
AD
  8
0
 62
     9
 10
0.0
 20
0.0
 30
0.0
 70
   128
 71
    43
 72
    45
 73
    41
  0
VERTEX
  5
AE
  8
0
 62
     9
 10
0.0
 20
0.0
 30
0.0
 70
   128
 71
    45
 72
    46
 73
    41
  0
VERTEX
  5
AF
  8
0
 62
     9
 10
0.0
 20
0.0
 30
0.0
 70
   128
 71
    48
 72
    42
 73
    47
  0
VERTEX
  5
B0
  8
0
 62
     9
 10
0.0
 20
0.0
 30
0.0
 70
   128
 71
    50
 72
    49
 73
    42
  0
VERTEX
  5
B1
  8
0
 62
     9
 10
0.0
 20
0.0
 30
0.0
 70
   128
 71
    42
 72
    48
 73
    50
  0
VERTEX
  5
B2
  8
0
 62
     9
 10
0.0
 20
0.0
 30
0.0
 70
   128
 71
    49
 72
    51
 73
    42
  0
VERTEX
  5
B3
  8
0
 62
     9
 10
0.0
 20
0.0
 30
0.0
 70
   128
 71
    47
 72
    52
 73
    48
  0
VERTEX
  5
B4
  8
0
 62
     9
 10
0.0
 20
0.0
 30
0.0
 70
   128
 71
    55
 72
    54
 73
    53
  0
VERTEX
  5
B5
  8
0
 62
     9
 10
0.0
 20
0.0
 30
0.0
 70
   128
 71
    56
 72
    47
 73
    53
  0
VERTEX
  5
B6
  8
0
 62
     9
 10
0.0
 20
0.0
 30
0.0
 70
   128
 71
    53
 72
    54
 73
    56
  0
VERTEX
  5
B7
  8
0
 62
     9
 10
0.0
 20
0.0
 30
0.0
 70
   128
 71
    58
 72
    57
 73
    47
  0
VERTEX
  5
B8
  8
0
 62
     9
 10
0.0
 20
0.0
 30
0.0
 70
   128
 71
    47
 72
    59
 73
    58
  0
VERTEX
  5
B9
  8
0
 62
     9
 10
0.0
 20
0.0
 30
0.0
 70
   128
 71
    47
 72
    56
 73
    59
  0
VERTEX
  5
BA
  8
0
 62
     9
 10
0.0
 20
0.0
 30
0.0
 70
   128
 71
    61
 72
    60
 73
    53
  0
VERTEX
  5
BB
  8
0
 62
     9
 10
0.0
 20
0.0
 30
0.0
 70
   128
 71
    53
 72
    62
 73
    61
  0
VERTEX
  5
BC
  8
0
 62
     9
 10
0.0
 20
0.0
 30
0.0
 70
   128
 71
    65
 72
    64
 73
    63
  0
VERTEX
  5
BD
  8
0
 62
     9
 10
0.0
 20
0.0
 30
0.0
 70
   128
 71
    66
 72
    62
 73
    63
  0
VERTEX
  5
BE
  8
0
 62
     9
 10
0.0
 20
0.0
 30
0.0
 70
   128
 71
    66
 72
    67
 73
    62
  0
VERTEX
  5
BF
  8
0
 62
     9
 10
0.0
 20
0.0
 30
0.0
 70
   128
 71
    63
 72
    64
 73
    66
  0
VERTEX
  5
C0
  8
0
 62
     9
 10
0.0
 20
0.0
 30
0.0
 70
   128
 71
    70
 72
    69
 73
    68
  0
VERTEX
  5
C1
  8
0
 62
     9
 10
0.0
 20
0.0
 30
0.0
 70
   128
 71
    69
 72
    71
 73
    63
  0
VERTEX
  5
C2
  8
0
 62
     9
 10
0.0
 20
0.0
 30
0.0
 70
   128
 71
    63
 72
    68
 73
    69
  0
VERTEX
  5
C3
  8
0
 62
     9
 10
0.0
 20
0.0
 30
0.0
 70
   128
 71
    68
 72
    72
 73
    70
  0
VERTEX
  5
C4
  8
0
 62
     9
 10
0.0
 20
0.0
 30
0.0
 70
   128
 71
    71
 72
    73
 73
    63
  0
VERTEX
  5
C5
  8
0
 62
     9
 10
0.0
 20
0.0
 30
0.0
 70
   128
 71
    73
 72
    74
 73
    63
  0
VERTEX
  5
C6
  8
0
 62
     9
 10
0.0
 20
0.0
 30
0.0
 70
   128
 71
    76
 72
    75
 73
    68
  0
VERTEX
  5
C7
  8
0
 62
     9
 10
0.0
 20
0.0
 30
0.0
 70
   128
 71
    75
 72
    77
 73
    68
  0
VERTEX
  5
C8
  8
0
 62
     9
 10
0.0
 20
0.0
 30
0.0
 70
   128
 71
    68
 72
     2
 73
    76
  0
VERTEX
  5
C9
  8
0
 62
     9
 10
0.0
 20
0.0
 30
0.0
 70
   128
 71
     2
 72
    78
 73
    76
  0
VERTEX
  5
CA
  8
0
 62
     9
 10
0.0
 20
0.0
 30
0.0
 70
   128
 71
     2
 72
     5
 73
    78
  0
VERTEX
  5
CB
  8
0
 62
     9
 10
0.0
 20
0.0
 30
0.0
 70
   128
 71
    68
 72
    77
 73
    72
  0
VERTEX
  5
CC
  8
0
 62
     9
 10
0.0
 20
0.0
 30
0.0
 70
   128
 71
    63
 72
    74
 73
    65
  0
VERTEX
  5
CD
  8
0
 62
     9
 10
0.0
 20
0.0
 30
0.0
 70
   128
 71
    62
 72
    67
 73
    61
  0
VERTEX
  5
CE
  8
0
 62
     9
 10
0.0
 20
0.0
 30
0.0
 70
   128
 71
    53
 72
    60
 73
    55
  0
VERTEX
  5
CF
  8
0
 62
     9
 10
0.0
 20
0.0
 30
0.0
 70
   128
 71
    47
 72
    57
 73
    52
  0
VERTEX
  5
D0
  8
0
 62
     9
 10
0.0
 20
0.0
 30
0.0
 70
   128
 71
    42
 72
    51
 73
    44
  0
VERTEX
  5
D1
  8
0
 62
     9
 10
0.0
 20
0.0
 30
0.0
 70
   128
 71
    41
 72
    46
 73
    40
  0
VERTEX
  5
D2
  8
0
 62
     9
 10
0.0
 20
0.0
 30
0.0
 70
   128
 71
    36
 72
    39
 73
    37
  0
VERTEX
  5
D3
  8
0
 62
     9
 10
0.0
 20
0.0
 30
0.0
 70
   128
 71
    28
 72
    38
 73
    30
  0
VERTEX
  5
D4
  8
0
 62
     9
 10
0.0
 20
0.0
 30
0.0
 70
   128
 71
    22
 72
    32
 73
    24
  0
VERTEX
  5
D5
  8
0
 62
     9
 10
0.0
 20
0.0
 30
0.0
 70
   128
 71
    18
 72
    27
 73
    20
  0
VERTEX
  5
D6
  8
0
 62
     9
 10
0.0
 20
0.0
 30
0.0
 70
   128
 71
    12
 72
    21
 73
    14
  0
VERTEX
  5
D7
  8
0
 62
     9
 10
0.0
 20
0.0
 30
0.0
 70
   128
 71
     6
 72
    17
 73
    11
  0
VERTEX
  5
D8
  8
0
 62
     9
 10
0.0
 20
0.0
 30
0.0
 70
   128
 71
     1
 72
    10
 73
     4
  0
SEQEND
  5
D9
  8
0
 62
     9
  0
ENDBLK
  5
DD
  8
0
  0
BLOCK
  8
0
  2
E3_NODE_1_
 70
     0
 10
0.0
 20
0.0
 30
0.0
  3
E3_NODE_1_
  1

  0
POLYLINE
  5
DF
  8
0
 62
     9
 66
     1
 10
0.0
 20
0.0
 30
0.0
 70
    64
 71
    73
 72
    81
  0
VERTEX
  5
E0
  8
0
 10
-0.0509999990463257
 20
-144.4750061035156
 30
34.65800094604492
 70
   192
  0
VERTEX
  5
E1
  8
0
 10
-10.68000030517578
 20
-144.5350036621094
 30
34.09000015258789
 70
   192
  0
VERTEX
  5
E2
  8
0
 10
-10.68000030517578
 20
-155.0630035400391
 30
34.64300155639648
 70
   192
  0
VERTEX
  5
E3
  8
0
 10
-0.0509999990463257
 20
-165.6519927978516
 30
34.64500045776367
 70
   192
  0
VERTEX
  5
E4
  8
0
 10
-0.0509999990463257
 20
-155.0639953613281
 30
35.2140007019043
 70
   192
  0
VERTEX
  5
E5
  8
0
 10
10.57900047302246
 20
-165.5919952392578
 30
34.0880012512207
 70
   192
  0
VERTEX
  5
E6
  8
0
 10
10.57900047302246
 20
-155.0630035400391
 30
34.65399932861328
 70
   192
  0
VERTEX
  5
E7
  8
0
 10
-10.32999992370605
 20
-137.0950012207031
 30
33.03499984741211
 70
   192
  0
VERTEX
  5
E8
  8
0
 10
-0.0509999990463257
 20
-134.2559967041016
 30
33.03799819946289
 70
   192
  0
VERTEX
  5
E9
  8
0
 10
-4.811999797821045
 20
-134.8130035400391
 30
33.0369987487793
 70
   192
  0
VERTEX
  5
EA
  8
0
 10
-6.903999805450439
 20
-135.4250030517578
 30
33.0369987487793
 70
   192
  0
VERTEX
  5
EB
  8
0
 10
-16.42700004577637
 20
-142.2599945068359
 30
33.02899932861328
 70
   192
  0
VERTEX
  5
EC
  8
0
 10
-17.67600059509277
 20
-144.0460052490234
 30
33.02799987792969
 70
   192
  0
VERTEX
  5
ED
  8
0
 10
-13.02999973297119
 20
-138.8209991455078
 30
33.03300094604492
 70
   192
  0
VERTEX
  5
EE
  8
0
 10
-10.67899990081787
 20
-137.2649993896484
 30
33.03499984741211
 70
   192
  0
VERTEX
  5
EF
  8
0
 10
-11.25399971008301
 20
-137.5449981689453
 30
33.03400039672852
 70
   192
  0
VERTEX
  5
F0
  8
0
 10
-17.92399978637695
 20
-144.5720062255859
 30
33.02799987792969
 70
   192
  0
VERTEX
  5
F1
  8
0
 10
-19.73500061035156
 20
-148.4109954833984
 30
33.0260009765625
 70
   192
  0
VERTEX
  5
F2
  8
0
 10
-20.31800079345703
 20
-150.5050048828125
 30
33.02500152587891
 70
   192
  0
VERTEX
  5
F3
  8
0
 10
-17.95899963378906
 20
-144.64599609375
 30
33.02799987792969
 70
   192
  0
VERTEX
  5
F4
  8
0
 10
-20.76899909973145
 20
-154.9049987792969
 30
33.02500152587891
 70
   192
  0
VERTEX
  5
F5
  8
0
 10
-18.69799995422363
 20
-164.1119995117188
 30
33.02700042724609
 70
   192
  0
VERTEX
  5
F6
  8
0
 10
-17.81599998474121
 20
-165.4810028076172
 30
33.02799987792969
 70
   192
  0
VERTEX
  5
F7
  8
0
 10
-19.54000091552734
 20
-162.1419982910156
 30
33.0260009765625
 70
   192
  0
VERTEX
  5
F8
  8
0
 10
-20.80999946594238
 20
-155.3029937744141
 30
33.02500152587891
 70
   192
  0
VERTEX
  5
F9
  8
0
 10
-20.66699981689453
 20
-157.4499969482422
 30
33.02500152587891
 70
   192
  0
VERTEX
  5
FA
  8
0
 10
-20.80900001525879
 20
-155.2980041503906
 30
33.02500152587891
 70
   192
  0
VERTEX
  5
FB
  8
0
 10
-20.78499984741211
 20
-155.0619964599609
 30
33.02500152587891
 70
   192
  0
VERTEX
  5
FC
  8
0
 10
-16.08200073242188
 20
-168.1710052490234
 30
33.02999877929688
 70
   192
  0
VERTEX
  5
FD
  8
0
 10
-14.63399982452393
 20
-169.7539978027344
 30
33.03099822998047
 70
   192
  0
VERTEX
  5
FE
  8
0
 10
-16.22200012207031
 20
-167.6300048828125
 30
33.07799911499023
 70
   192
  0
VERTEX
  5
FF
  8
0
 10
-10.68000030517578
 20
-165.5910034179688
 30
34.07699966430664
 70
   192
  0
VERTEX
  5
100
  8
0
 10
-10.81700038909912
 20
-172.7270050048828
 30
33.03499984741211
 70
   192
  0
VERTEX
  5
101
  8
0
 10
-17.80100059509277
 20
-165.5050048828125
 30
33.02799987792969
 70
   192
  0
VERTEX
  5
102
  8
0
 10
-10.68000030517578
 20
-172.8009948730469
 30
33.03499984741211
 70
   192
  0
VERTEX
  5
103
  8
0
 10
-4.339000225067139
 20
-175.2940063476562
 30
33.0369987487793
 70
   192
  0
VERTEX
  5
104
  8
0
 10
-2.196000099182129
 20
-175.6340026855469
 30
33.03799819946289
 70
   192
  0
VERTEX
  5
105
  8
0
 10
-8.925999641418457
 20
-173.7449951171875
 30
33.0359992980957
 70
   192
  0
VERTEX
  5
106
  8
0
 10
-10.60000038146973
 20
-172.843994140625
 30
33.03499984741211
 70
   192
  0
VERTEX
  5
107
  8
0
 10
-0.2450000047683716
 20
-175.6130065917969
 30
33.03799819946289
 70
   192
  0
VERTEX
  5
108
  8
0
 10
9.345000267028809
 20
-173.5410003662109
 30
33.0359992980957
 70
   192
  0
VERTEX
  5
109
  8
0
 10
10.57800006866455
 20
-172.8399963378906
 30
33.03499984741211
 70
   192
  0
VERTEX
  5
10A
  8
0
 10
4.793000221252441
 20
-175.1929931640625
 30
33.0369987487793
 70
   192
  0
VERTEX
  5
10B
  8
0
 10
0.7289999723434448
 20
-175.6020050048828
 30
33.03799819946289
 70
   192
  0
VERTEX
  5
10C
  8
0
 10
2.648000001907349
 20
-175.5809936523438
 30
33.03799819946289
 70
   192
  0
VERTEX
  5
10D
  8
0
 10
-0.0509999990463257
 20
-175.6109924316406
 30
33.03799819946289
 70
   192
  0
VERTEX
  5
10E
  8
0
 10
14.98600006103516
 20
-169.3990020751953
 30
33.03099822998047
 70
   192
  0
VERTEX
  5
10F
  8
0
 10
16.42300033569336
 20
-167.7460021972656
 30
33.02899932861328
 70
   192
  0
VERTEX
  5
110
  8
0
 10
11.24499988555908
 20
-172.4600067138672
 30
33.03400039672852
 70
   192
  0
VERTEX
  5
111
  8
0
 10
10.96000003814697
 20
-172.6219940185547
 30
33.03499984741211
 70
   192
  0
VERTEX
  5
112
  8
0
 10
17.56800079345703
 20
-165.8619995117188
 30
33.02799987792969
 70
   192
  0
VERTEX
  5
113
  8
0
 10
18.93099975585938
 20
-163.6199951171875
 30
33.0260009765625
 70
   192
  0
VERTEX
  5
114
  8
0
 10
19.73100090026855
 20
-161.6020050048828
 30
33.0260009765625
 70
   192
  0
VERTEX
  5
115
  8
0
 10
20.72599983215332
 20
-156.8809967041016
 30
33.02500152587891
 70
   192
  0
VERTEX
  5
116
  8
0
 10
17.79999923706055
 20
-165.4810028076172
 30
33.02799987792969
 70
   192
  0
VERTEX
  5
117
  8
0
 10
20.77300071716309
 20
-155.6739959716797
 30
33.02500152587891
 70
   192
  0
VERTEX
  5
118
  8
0
 10
19.55200004577637
 20
-147.8890075683594
 30
33.0260009765625
 70
   192
  0
VERTEX
  5
119
  8
0
 10
17.91399955749512
 20
-144.6450042724609
 30
33.02799987792969
 70
   192
  0
VERTEX
  5
11A
  8
0
 10
20.18400001525879
 20
-149.9389953613281
 30
33.02500152587891
 70
   192
  0
VERTEX
  5
11B
  8
0
 10
20.58399963378906
 20
-152.9960021972656
 30
33.02500152587891
 70
   192
  0
VERTEX
  5
11C
  8
0
 10
20.79700088500977
 20
-155.0619964599609
 30
33.02500152587891
 70
   192
  0
VERTEX
  5
11D
  8
0
 10
20.80999946594238
 20
-154.7230072021484
 30
33.02500152587891
 70
   192
  0
VERTEX
  5
11E
  8
0
 10
10.57900047302246
 20
-144.5339965820312
 30
34.10100173950195
 70
   192
  0
VERTEX
  5
11F
  8
0
 10
12.625
 20
-138.5039978027344
 30
33.03300094604492
 70
   192
  0
VERTEX
  5
120
  8
0
 10
10.84700012207031
 20
-137.2910003662109
 30
33.03499984741211
 70
   192
  0
VERTEX
  5
121
  8
0
 10
16.10499954223633
 20
-141.8580017089844
 30
33.02999877929688
 70
   192
  0
VERTEX
  5
122
  8
0
 10
16.94799995422363
 20
-142.9989929199219
 30
33.02899932861328
 70
   192
  0
VERTEX
  5
123
  8
0
 10
17.375
 20
-143.5780029296875
 30
33.02799987792969
 70
   192
  0
VERTEX
  5
124
  8
0
 10
4.36299991607666
 20
-134.7109985351562
 30
33.0369987487793
 70
   192
  0
VERTEX
  5
125
  8
0
 10
0.0
 20
-134.25
 30
33.03799819946289
 70
   192
  0
VERTEX
  5
126
  8
0
 10
8.651000022888184
 20
-136.2830047607422
 30
33.0359992980957
 70
   192
  0
VERTEX
  5
127
  8
0
 10
6.446000099182129
 20
-135.27099609375
 30
33.0369987487793
 70
   192
  0
VERTEX
  5
128
  8
0
 10
10.57800006866455
 20
-137.1679992675781
 30
33.03499984741211
 70
   192
  0
VERTEX
  5
129
  8
0
 62
     9
 10
0.0
 20
0.0
 30
0.0
 70
   128
 71
     3
 72
     2
 73
     1
  0
VERTEX
  5
12A
  8
0
 62
     9
 10
0.0
 20
0.0
 30
0.0
 70
   128
 71
     3
 72
     5
 73
     4
  0
VERTEX
  5
12B
  8
0
 62
     9
 10
0.0
 20
0.0
 30
0.0
 70
   128
 71
     7
 72
     6
 73
     4
  0
VERTEX
  5
12C
  8
0
 62
     9
 10
0.0
 20
0.0
 30
0.0
 70
   128
 71
     7
 72
     5
 73
     1
  0
VERTEX
  5
12D
  8
0
 62
     9
 10
0.0
 20
0.0
 30
0.0
 70
   128
 71
     8
 72
     1
 73
     2
  0
VERTEX
  5
12E
  8
0
 62
     9
 10
0.0
 20
0.0
 30
0.0
 70
   128
 71
    10
 72
     9
 73
     1
  0
VERTEX
  5
12F
  8
0
 62
     9
 10
0.0
 20
0.0
 30
0.0
 70
   128
 71
     1
 72
    11
 73
    10
  0
VERTEX
  5
130
  8
0
 62
     9
 10
0.0
 20
0.0
 30
0.0
 70
   128
 71
     1
 72
     8
 73
    11
  0
VERTEX
  5
131
  8
0
 62
     9
 10
0.0
 20
0.0
 30
0.0
 70
   128
 71
    13
 72
    12
 73
     2
  0
VERTEX
  5
132
  8
0
 62
     9
 10
0.0
 20
0.0
 30
0.0
 70
   128
 71
    12
 72
    14
 73
     2
  0
VERTEX
  5
133
  8
0
 62
     9
 10
0.0
 20
0.0
 30
0.0
 70
   128
 71
    16
 72
    15
 73
     2
  0
VERTEX
  5
134
  8
0
 62
     9
 10
0.0
 20
0.0
 30
0.0
 70
   128
 71
     2
 72
    14
 73
    16
  0
VERTEX
  5
135
  8
0
 62
     9
 10
0.0
 20
0.0
 30
0.0
 70
   128
 71
     2
 72
    17
 73
    13
  0
VERTEX
  5
136
  8
0
 62
     9
 10
0.0
 20
0.0
 30
0.0
 70
   128
 71
    19
 72
    18
 73
     3
  0
VERTEX
  5
137
  8
0
 62
     9
 10
0.0
 20
0.0
 30
0.0
 70
   128
 71
    20
 72
     2
 73
     3
  0
VERTEX
  5
138
  8
0
 62
     9
 10
0.0
 20
0.0
 30
0.0
 70
   128
 71
     3
 72
    18
 73
    20
  0
VERTEX
  5
139
  8
0
 62
     9
 10
0.0
 20
0.0
 30
0.0
 70
   128
 71
     3
 72
    21
 73
    19
  0
VERTEX
  5
13A
  8
0
 62
     9
 10
0.0
 20
0.0
 30
0.0
 70
   128
 71
    23
 72
    22
 73
     3
  0
VERTEX
  5
13B
  8
0
 62
     9
 10
0.0
 20
0.0
 30
0.0
 70
   128
 71
    22
 72
    24
 73
     3
  0
VERTEX
  5
13C
  8
0
 62
     9
 10
0.0
 20
0.0
 30
0.0
 70
   128
 71
    26
 72
    25
 73
     3
  0
VERTEX
  5
13D
  8
0
 62
     9
 10
0.0
 20
0.0
 30
0.0
 70
   128
 71
    25
 72
    27
 73
     3
  0
VERTEX
  5
13E
  8
0
 62
     9
 10
0.0
 20
0.0
 30
0.0
 70
   128
 71
     3
 72
    24
 73
    26
  0
VERTEX
  5
13F
  8
0
 62
     9
 10
0.0
 20
0.0
 30
0.0
 70
   128
 71
    27
 72
    28
 73
     3
  0
VERTEX
  5
140
  8
0
 62
     9
 10
0.0
 20
0.0
 30
0.0
 70
   128
 71
    31
 72
    30
 73
    29
  0
VERTEX
  5
141
  8
0
 62
     9
 10
0.0
 20
0.0
 30
0.0
 70
   128
 71
    30
 72
    31
 73
    32
  0
VERTEX
  5
142
  8
0
 62
     9
 10
0.0
 20
0.0
 30
0.0
 70
   128
 71
    32
 72
    33
 73
    30
  0
VERTEX
  5
143
  8
0
 62
     9
 10
0.0
 20
0.0
 30
0.0
 70
   128
 71
    34
 72
    23
 73
    32
  0
VERTEX
  5
144
  8
0
 62
     9
 10
0.0
 20
0.0
 30
0.0
 70
   128
 71
    32
 72
    31
 73
    34
  0
VERTEX
  5
145
  8
0
 62
     9
 10
0.0
 20
0.0
 30
0.0
 70
   128
 71
    32
 72
    35
 73
    33
  0
VERTEX
  5
146
  8
0
 62
     9
 10
0.0
 20
0.0
 30
0.0
 70
   128
 71
    29
 72
    34
 73
    31
  0
VERTEX
  5
147
  8
0
 62
     9
 10
0.0
 20
0.0
 30
0.0
 70
   128
 71
    37
 72
    36
 73
     4
  0
VERTEX
  5
148
  8
0
 62
     9
 10
0.0
 20
0.0
 30
0.0
 70
   128
 71
    36
 72
    38
 73
     4
  0
VERTEX
  5
149
  8
0
 62
     9
 10
0.0
 20
0.0
 30
0.0
 70
   128
 71
    38
 72
    39
 73
     4
  0
VERTEX
  5
14A
  8
0
 62
     9
 10
0.0
 20
0.0
 30
0.0
 70
   128
 71
    35
 72
    32
 73
     4
  0
VERTEX
  5
14B
  8
0
 62
     9
 10
0.0
 20
0.0
 30
0.0
 70
   128
 71
     4
 72
    39
 73
    35
  0
VERTEX
  5
14C
  8
0
 62
     9
 10
0.0
 20
0.0
 30
0.0
 70
   128
 71
     4
 72
    40
 73
    37
  0
VERTEX
  5
14D
  8
0
 62
     9
 10
0.0
 20
0.0
 30
0.0
 70
   128
 71
    42
 72
    41
 73
     4
  0
VERTEX
  5
14E
  8
0
 62
     9
 10
0.0
 20
0.0
 30
0.0
 70
   128
 71
    41
 72
    43
 73
     4
  0
VERTEX
  5
14F
  8
0
 62
     9
 10
0.0
 20
0.0
 30
0.0
 70
   128
 71
    45
 72
    44
 73
     4
  0
VERTEX
  5
150
  8
0
 62
     9
 10
0.0
 20
0.0
 30
0.0
 70
   128
 71
     4
 72
    43
 73
    45
  0
VERTEX
  5
151
  8
0
 62
     9
 10
0.0
 20
0.0
 30
0.0
 70
   128
 71
    44
 72
    46
 73
     4
  0
VERTEX
  5
152
  8
0
 62
     9
 10
0.0
 20
0.0
 30
0.0
 70
   128
 71
    48
 72
    47
 73
     6
  0
VERTEX
  5
153
  8
0
 62
     9
 10
0.0
 20
0.0
 30
0.0
 70
   128
 71
    47
 72
    49
 73
     6
  0
VERTEX
  5
154
  8
0
 62
     9
 10
0.0
 20
0.0
 30
0.0
 70
   128
 71
    49
 72
    50
 73
     6
  0
VERTEX
  5
155
  8
0
 62
     9
 10
0.0
 20
0.0
 30
0.0
 70
   128
 71
     6
 72
    51
 73
    48
  0
VERTEX
  5
156
  8
0
 62
     9
 10
0.0
 20
0.0
 30
0.0
 70
   128
 71
    50
 72
    42
 73
     6
  0
VERTEX
  5
157
  8
0
 62
     9
 10
0.0
 20
0.0
 30
0.0
 70
   128
 71
    53
 72
    52
 73
     7
  0
VERTEX
  5
158
  8
0
 62
     9
 10
0.0
 20
0.0
 30
0.0
 70
   128
 71
     7
 72
    54
 73
    53
  0
VERTEX
  5
159
  8
0
 62
     9
 10
0.0
 20
0.0
 30
0.0
 70
   128
 71
    55
 72
     6
 73
     7
  0
VERTEX
  5
15A
  8
0
 62
     9
 10
0.0
 20
0.0
 30
0.0
 70
   128
 71
     7
 72
    52
 73
    55
  0
VERTEX
  5
15B
  8
0
 62
     9
 10
0.0
 20
0.0
 30
0.0
 70
   128
 71
     7
 72
    56
 73
    54
  0
VERTEX
  5
15C
  8
0
 62
     9
 10
0.0
 20
0.0
 30
0.0
 70
   128
 71
    58
 72
    57
 73
     7
  0
VERTEX
  5
15D
  8
0
 62
     9
 10
0.0
 20
0.0
 30
0.0
 70
   128
 71
    57
 72
    59
 73
     7
  0
VERTEX
  5
15E
  8
0
 62
     9
 10
0.0
 20
0.0
 30
0.0
 70
   128
 71
    59
 72
    60
 73
     7
  0
VERTEX
  5
15F
  8
0
 62
     9
 10
0.0
 20
0.0
 30
0.0
 70
   128
 71
    62
 72
    61
 73
     7
  0
VERTEX
  5
160
  8
0
 62
     9
 10
0.0
 20
0.0
 30
0.0
 70
   128
 71
     7
 72
    60
 73
    62
  0
VERTEX
  5
161
  8
0
 62
     9
 10
0.0
 20
0.0
 30
0.0
 70
   128
 71
    65
 72
    64
 73
    63
  0
VERTEX
  5
162
  8
0
 62
     9
 10
0.0
 20
0.0
 30
0.0
 70
   128
 71
    64
 72
    66
 73
    63
  0
VERTEX
  5
163
  8
0
 62
     9
 10
0.0
 20
0.0
 30
0.0
 70
   128
 71
    66
 72
    67
 73
    63
  0
VERTEX
  5
164
  8
0
 62
     9
 10
0.0
 20
0.0
 30
0.0
 70
   128
 71
    68
 72
    58
 73
    63
  0
VERTEX
  5
165
  8
0
 62
     9
 10
0.0
 20
0.0
 30
0.0
 70
   128
 71
    63
 72
    67
 73
    68
  0
VERTEX
  5
166
  8
0
 62
     9
 10
0.0
 20
0.0
 30
0.0
 70
   128
 71
    70
 72
    69
 73
     1
  0
VERTEX
  5
167
  8
0
 62
     9
 10
0.0
 20
0.0
 30
0.0
 70
   128
 71
    72
 72
    71
 73
     1
  0
VERTEX
  5
168
  8
0
 62
     9
 10
0.0
 20
0.0
 30
0.0
 70
   128
 71
     1
 72
    69
 73
    72
  0
VERTEX
  5
169
  8
0
 62
     9
 10
0.0
 20
0.0
 30
0.0
 70
   128
 71
    73
 72
    63
 73
     1
  0
VERTEX
  5
16A
  8
0
 62
     9
 10
0.0
 20
0.0
 30
0.0
 70
   128
 71
     1
 72
    71
 73
    73
  0
VERTEX
  5
16B
  8
0
 62
     9
 10
0.0
 20
0.0
 30
0.0
 70
   128
 71
     1
 72
     9
 73
    70
  0
VERTEX
  5
16C
  8
0
 62
     9
 10
0.0
 20
0.0
 30
0.0
 70
   128
 71
    63
 72
    73
 73
    65
  0
VERTEX
  5
16D
  8
0
 62
     9
 10
0.0
 20
0.0
 30
0.0
 70
   128
 71
     7
 72
    63
 73
    58
  0
VERTEX
  5
16E
  8
0
 62
     9
 10
0.0
 20
0.0
 30
0.0
 70
   128
 71
     7
 72
    61
 73
    56
  0
VERTEX
  5
16F
  8
0
 62
     9
 10
0.0
 20
0.0
 30
0.0
 70
   128
 71
     6
 72
    55
 73
    51
  0
VERTEX
  5
170
  8
0
 62
     9
 10
0.0
 20
0.0
 30
0.0
 70
   128
 71
     4
 72
     6
 73
    42
  0
VERTEX
  5
171
  8
0
 62
     9
 10
0.0
 20
0.0
 30
0.0
 70
   128
 71
     4
 72
    46
 73
    40
  0
VERTEX
  5
172
  8
0
 62
     9
 10
0.0
 20
0.0
 30
0.0
 70
   128
 71
     3
 72
    32
 73
    23
  0
VERTEX
  5
173
  8
0
 62
     9
 10
0.0
 20
0.0
 30
0.0
 70
   128
 71
     3
 72
    28
 73
    21
  0
VERTEX
  5
174
  8
0
 62
     9
 10
0.0
 20
0.0
 30
0.0
 70
   128
 71
     2
 72
    20
 73
    17
  0
VERTEX
  5
175
  8
0
 62
     9
 10
0.0
 20
0.0
 30
0.0
 70
   128
 71
     2
 72
    15
 73
     8
  0
VERTEX
  5
176
  8
0
 62
     9
 10
0.0
 20
0.0
 30
0.0
 70
   128
 71
     1
 72
    63
 73
     7
  0
VERTEX
  5
177
  8
0
 62
     9
 10
0.0
 20
0.0
 30
0.0
 70
   128
 71
     4
 72
     5
 73
     7
  0
VERTEX
  5
178
  8
0
 62
     9
 10
0.0
 20
0.0
 30
0.0
 70
   128
 71
     4
 72
    32
 73
     3
  0
VERTEX
  5
179
  8
0
 62
     9
 10
0.0
 20
0.0
 30
0.0
 70
   128
 71
     1
 72
     5
 73
     3
  0
SEQEND
  5
17A
  8
0
 62
     9
  0
ENDBLK
  5
17D
  8
0
  0
BLOCK
  8
0
  2
E3_NODE_2_
 70
     0
 10
0.0
 20
0.0
 30
0.0
  3
E3_NODE_2_
  1

  0
POLYLINE
  5
17F
  8
0
 62
     9
 66
     1
 10
0.0
 20
0.0
 30
0.0
 70
    64
 71
     4
 72
     2
  0
VERTEX
  5
180
  8
0
 10
32.5
 20
157.5
 30
10.0
 70
   192
  0
VERTEX
  5
181
  8
0
 10
32.5
 20
157.5
 30
0.300000011920929
 70
   192
  0
VERTEX
  5
182
  8
0
 10
32.5
 20
222.5
 30
0.300000011920929
 70
   192
  0
VERTEX
  5
183
  8
0
 10
32.5
 20
222.5
 30
10.0
 70
   192
  0
VERTEX
  5
184
  8
0
 62
     9
 10
0.0
 20
0.0
 30
0.0
 70
   128
 71
     3
 72
     2
 73
     1
  0
VERTEX
  5
185
  8
0
 62
     9
 10
0.0
 20
0.0
 30
0.0
 70
   128
 71
     1
 72
     4
 73
     3
  0
SEQEND
  5
186
  8
0
 62
     9
  0
ENDBLK
  5
189
  8
0
  0
BLOCK
  8
0
  2
E3_NODE_3_
 70
     0
 10
0.0
 20
0.0
 30
0.0
  3
E3_NODE_3_
  1

  0
POLYLINE
  5
18B
  8
0
 62
     9
 66
     1
 10
0.0
 20
0.0
 30
0.0
 70
    64
 71
     4
 72
     2
  0
VERTEX
  5
18C
  8
0
 10
-32.5
 20
222.5
 30
0.300000011920929
 70
   192
  0
VERTEX
  5
18D
  8
0
 10
-32.5
 20
222.5
 30
10.0
 70
   192
  0
VERTEX
  5
18E
  8
0
 10
32.5
 20
222.5
 30
10.0
 70
   192
  0
VERTEX
  5
18F
  8
0
 10
32.5
 20
222.5
 30
0.300000011920929
 70
   192
  0
VERTEX
  5
190
  8
0
 62
     9
 10
0.0
 20
0.0
 30
0.0
 70
   128
 71
     3
 72
     2
 73
     1
  0
VERTEX
  5
191
  8
0
 62
     9
 10
0.0
 20
0.0
 30
0.0
 70
   128
 71
     1
 72
     4
 73
     3
  0
SEQEND
  5
192
  8
0
 62
     9
  0
ENDBLK
  5
195
  8
0
  0
BLOCK
  8
0
  2
E3_NODE_4_
 70
     0
 10
0.0
 20
0.0
 30
0.0
  3
E3_NODE_4_
  1

  0
POLYLINE
  5
197
  8
0
 62
     9
 66
     1
 10
0.0
 20
0.0
 30
0.0
 70
    64
 71
     4
 72
     2
  0
VERTEX
  5
198
  8
0
 10
-32.5
 20
157.5
 30
0.300000011920929
 70
   192
  0
VERTEX
  5
199
  8
0
 10
-32.5
 20
157.5
 30
10.0
 70
   192
  0
VERTEX
  5
19A
  8
0
 10
-32.5
 20
222.5
 30
10.0
 70
   192
  0
VERTEX
  5
19B
  8
0
 10
-32.5
 20
222.5
 30
0.300000011920929
 70
   192
  0
VERTEX
  5
19C
  8
0
 62
     9
 10
0.0
 20
0.0
 30
0.0
 70
   128
 71
     3
 72
     2
 73
     1
  0
VERTEX
  5
19D
  8
0
 62
     9
 10
0.0
 20
0.0
 30
0.0
 70
   128
 71
     1
 72
     4
 73
     3
  0
SEQEND
  5
19E
  8
0
 62
     9
  0
ENDBLK
  5
1A1
  8
0
  0
BLOCK
  8
0
  2
E3_NODE_5_
 70
     0
 10
0.0
 20
0.0
 30
0.0
  3
E3_NODE_5_
  1

  0
POLYLINE
  5
1A3
  8
0
 62
     9
 66
     1
 10
0.0
 20
0.0
 30
0.0
 70
    64
 71
     4
 72
     2
  0
VERTEX
  5
1A4
  8
0
 10
-32.5
 20
157.5
 30
10.0
 70
   192
  0
VERTEX
  5
1A5
  8
0
 10
-32.5
 20
157.5
 30
0.300000011920929
 70
   192
  0
VERTEX
  5
1A6
  8
0
 10
32.5
 20
157.5
 30
0.300000011920929
 70
   192
  0
VERTEX
  5
1A7
  8
0
 10
32.5
 20
157.5
 30
10.0
 70
   192
  0
VERTEX
  5
1A8
  8
0
 62
     9
 10
0.0
 20
0.0
 30
0.0
 70
   128
 71
     3
 72
     2
 73
     1
  0
VERTEX
  5
1A9
  8
0
 62
     9
 10
0.0
 20
0.0
 30
0.0
 70
   128
 71
     1
 72
     4
 73
     3
  0
SEQEND
  5
1AA
  8
0
 62
     9
  0
ENDBLK
  5
1AD
  8
0
  0
BLOCK
  8
0
  2
E3_NODE_6_
 70
     0
 10
0.0
 20
0.0
 30
0.0
  3
E3_NODE_6_
  1

  0
POLYLINE
  5
1AF
  8
0
 62
     9
 66
     1
 10
0.0
 20
0.0
 30
0.0
 70
    64
 71
     4
 72
     2
  0
VERTEX
  5
1B0
  8
0
 10
32.5
 20
222.5
 30
10.0
 70
   192
  0
VERTEX
  5
1B1
  8
0
 10
-32.5
 20
222.5
 30
10.0
 70
   192
  0
VERTEX
  5
1B2
  8
0
 10
-32.5
 20
157.5
 30
10.0
 70
   192
  0
VERTEX
  5
1B3
  8
0
 10
32.5
 20
157.5
 30
10.0
 70
   192
  0
VERTEX
  5
1B4
  8
0
 62
     9
 10
0.0
 20
0.0
 30
0.0
 70
   128
 71
     3
 72
     2
 73
     1
  0
VERTEX
  5
1B5
  8
0
 62
     9
 10
0.0
 20
0.0
 30
0.0
 70
   128
 71
     1
 72
     4
 73
     3
  0
SEQEND
  5
1B6
  8
0
 62
     9
  0
ENDBLK
  5
1B9
  8
0
  0
BLOCK
  8
0
  2
E3_NODE_7_
 70
     0
 10
0.0
 20
0.0
 30
0.0
  3
E3_NODE_7_
  1

  0
POLYLINE
  5
1BB
  8
0
 62
     9
 66
     1
 10
0.0
 20
0.0
 30
0.0
 70
    64
 71
     4
 72
     2
  0
VERTEX
  5
1BC
  8
0
 10
32.5
 20
157.5
 30
0.300000011920929
 70
   192
  0
VERTEX
  5
1BD
  8
0
 10
-32.5
 20
157.5
 30
0.300000011920929
 70
   192
  0
VERTEX
  5
1BE
  8
0
 10
-32.5
 20
222.5
 30
0.300000011920929
 70
   192
  0
VERTEX
  5
1BF
  8
0
 10
32.5
 20
222.5
 30
0.300000011920929
 70
   192
  0
VERTEX
  5
1C0
  8
0
 62
     9
 10
0.0
 20
0.0
 30
0.0
 70
   128
 71
     3
 72
     2
 73
     1
  0
VERTEX
  5
1C1
  8
0
 62
     9
 10
0.0
 20
0.0
 30
0.0
 70
   128
 71
     1
 72
     4
 73
     3
  0
SEQEND
  5
1C2
  8
0
 62
     9
  0
ENDBLK
  5
1C5
  8
0
  0
BLOCK
  8
0
  2
E3_NODE_8_
 70
     0
 10
0.0
 20
0.0
 30
0.0
  3
E3_NODE_8_
  1

  0
POLYLINE
  5
1C7
  8
0
 62
     9
 66
     1
 10
0.0
 20
0.0
 30
0.0
 70
    64
 71
     4
 72
     2
  0
VERTEX
  5
1C8
  8
0
 10
-32.5
 20
312.5
 30
10.0
 70
   192
  0
VERTEX
  5
1C9
  8
0
 10
-32.5
 20
312.5
 30
0.0
 70
   192
  0
VERTEX
  5
1CA
  8
0
 10
32.5
 20
312.5
 30
0.0
 70
   192
  0
VERTEX
  5
1CB
  8
0
 10
32.5
 20
312.5
 30
10.0
 70
   192
  0
VERTEX
  5
1CC
  8
0
 62
     9
 10
0.0
 20
0.0
 30
0.0
 70
   128
 71
     3
 72
     2
 73
     1
  0
VERTEX
  5
1CD
  8
0
 62
     9
 10
0.0
 20
0.0
 30
0.0
 70
   128
 71
     1
 72
     4
 73
     3
  0
SEQEND
  5
1CE
  8
0
 62
     9
  0
ENDBLK
  5
1D1
  8
0
  0
BLOCK
  8
0
  2
E3_NODE_9_
 70
     0
 10
0.0
 20
0.0
 30
0.0
  3
E3_NODE_9_
  1

  0
POLYLINE
  5
1D3
  8
0
 62
     9
 66
     1
 10
0.0
 20
0.0
 30
0.0
 70
    64
 71
     4
 72
     2
  0
VERTEX
  5
1D4
  8
0
 10
32.5
 20
377.5
 30
0.0
 70
   192
  0
VERTEX
  5
1D5
  8
0
 10
32.5
 20
377.5
 30
10.0
 70
   192
  0
VERTEX
  5
1D6
  8
0
 10
32.5
 20
312.5
 30
10.0
 70
   192
  0
VERTEX
  5
1D7
  8
0
 10
32.5
 20
312.5
 30
0.0
 70
   192
  0
VERTEX
  5
1D8
  8
0
 62
     9
 10
0.0
 20
0.0
 30
0.0
 70
   128
 71
     3
 72
     2
 73
     1
  0
VERTEX
  5
1D9
  8
0
 62
     9
 10
0.0
 20
0.0
 30
0.0
 70
   128
 71
     1
 72
     4
 73
     3
  0
SEQEND
  5
1DA
  8
0
 62
     9
  0
ENDBLK
  5
1DD
  8
0
  0
BLOCK
  8
0
  2
E3_NODE_10_
 70
     0
 10
0.0
 20
0.0
 30
0.0
  3
E3_NODE_10_
  1

  0
POLYLINE
  5
1DF
  8
0
 62
     9
 66
     1
 10
0.0
 20
0.0
 30
0.0
 70
    64
 71
     4
 72
     2
  0
VERTEX
  5
1E0
  8
0
 10
-32.5
 20
377.5
 30
0.0
 70
   192
  0
VERTEX
  5
1E1
  8
0
 10
-32.5
 20
377.5
 30
10.0
 70
   192
  0
VERTEX
  5
1E2
  8
0
 10
32.5
 20
377.5
 30
10.0
 70
   192
  0
VERTEX
  5
1E3
  8
0
 10
32.5
 20
377.5
 30
0.0
 70
   192
  0
VERTEX
  5
1E4
  8
0
 62
     9
 10
0.0
 20
0.0
 30
0.0
 70
   128
 71
     3
 72
     2
 73
     1
  0
VERTEX
  5
1E5
  8
0
 62
     9
 10
0.0
 20
0.0
 30
0.0
 70
   128
 71
     1
 72
     4
 73
     3
  0
SEQEND
  5
1E6
  8
0
 62
     9
  0
ENDBLK
  5
1E9
  8
0
  0
BLOCK
  8
0
  2
E3_NODE_11_
 70
     0
 10
0.0
 20
0.0
 30
0.0
  3
E3_NODE_11_
  1

  0
POLYLINE
  5
1EB
  8
0
 62
     9
 66
     1
 10
0.0
 20
0.0
 30
0.0
 70
    64
 71
     4
 72
     2
  0
VERTEX
  5
1EC
  8
0
 10
-32.5
 20
377.5
 30
10.0
 70
   192
  0
VERTEX
  5
1ED
  8
0
 10
-32.5
 20
377.5
 30
0.0
 70
   192
  0
VERTEX
  5
1EE
  8
0
 10
-32.5
 20
312.5
 30
0.0
 70
   192
  0
VERTEX
  5
1EF
  8
0
 10
-32.5
 20
312.5
 30
10.0
 70
   192
  0
VERTEX
  5
1F0
  8
0
 62
     9
 10
0.0
 20
0.0
 30
0.0
 70
   128
 71
     3
 72
     2
 73
     1
  0
VERTEX
  5
1F1
  8
0
 62
     9
 10
0.0
 20
0.0
 30
0.0
 70
   128
 71
     1
 72
     4
 73
     3
  0
SEQEND
  5
1F2
  8
0
 62
     9
  0
ENDBLK
  5
1F5
  8
0
  0
BLOCK
  8
0
  2
E3_NODE_12_
 70
     0
 10
0.0
 20
0.0
 30
0.0
  3
E3_NODE_12_
  1

  0
POLYLINE
  5
1F7
  8
0
 62
     9
 66
     1
 10
0.0
 20
0.0
 30
0.0
 70
    64
 71
     4
 72
     2
  0
VERTEX
  5
1F8
  8
0
 10
32.5
 20
377.5
 30
10.0
 70
   192
  0
VERTEX
  5
1F9
  8
0
 10
-32.5
 20
377.5
 30
10.0
 70
   192
  0
VERTEX
  5
1FA
  8
0
 10
-32.5
 20
312.5
 30
10.0
 70
   192
  0
VERTEX
  5
1FB
  8
0
 10
32.5
 20
312.5
 30
10.0
 70
   192
  0
VERTEX
  5
1FC
  8
0
 62
     9
 10
0.0
 20
0.0
 30
0.0
 70
   128
 71
     3
 72
     2
 73
     1
  0
VERTEX
  5
1FD
  8
0
 62
     9
 10
0.0
 20
0.0
 30
0.0
 70
   128
 71
     1
 72
     4
 73
     3
  0
SEQEND
  5
1FE
  8
0
 62
     9
  0
ENDBLK
  5
201
  8
0
  0
BLOCK
  8
0
  2
E3_NODE_13_
 70
     0
 10
0.0
 20
0.0
 30
0.0
  3
E3_NODE_13_
  1

  0
POLYLINE
  5
203
  8
0
 62
     9
 66
     1
 10
0.0
 20
0.0
 30
0.0
 70
    64
 71
     4
 72
     2
  0
VERTEX
  5
204
  8
0
 10
-32.5
 20
312.5
 30
0.0
 70
   192
  0
VERTEX
  5
205
  8
0
 10
-32.5
 20
377.5
 30
0.0
 70
   192
  0
VERTEX
  5
206
  8
0
 10
32.5
 20
377.5
 30
0.0
 70
   192
  0
VERTEX
  5
207
  8
0
 10
32.5
 20
312.5
 30
0.0
 70
   192
  0
VERTEX
  5
208
  8
0
 62
     9
 10
0.0
 20
0.0
 30
0.0
 70
   128
 71
     3
 72
     2
 73
     1
  0
VERTEX
  5
209
  8
0
 62
     9
 10
0.0
 20
0.0
 30
0.0
 70
   128
 71
     1
 72
     4
 73
     3
  0
SEQEND
  5
20A
  8
0
 62
     9
  0
ENDBLK
  5
20D
  8
0
  0
BLOCK
  8
0
  2
E3_NODE_14_
 70
     0
 10
0.0
 20
0.0
 30
0.0
  3
E3_NODE_14_
  1

  0
POLYLINE
  5
20F
  8
0
 62
     9
 66
     1
 10
0.0
 20
0.0
 30
0.0
 70
    64
 71
     4
 72
     2
  0
VERTEX
  5
210
  8
0
 10
-32.5
 20
-32.5
 30
10.0
 70
   192
  0
VERTEX
  5
211
  8
0
 10
-32.5
 20
-32.5
 30
0.0
 70
   192
  0
VERTEX
  5
212
  8
0
 10
32.5
 20
-32.5
 30
0.0
 70
   192
  0
VERTEX
  5
213
  8
0
 10
32.5
 20
-32.5
 30
10.0
 70
   192
  0
VERTEX
  5
214
  8
0
 62
     9
 10
0.0
 20
0.0
 30
0.0
 70
   128
 71
     3
 72
     2
 73
     1
  0
VERTEX
  5
215
  8
0
 62
     9
 10
0.0
 20
0.0
 30
0.0
 70
   128
 71
     1
 72
     4
 73
     3
  0
SEQEND
  5
216
  8
0
 62
     9
  0
ENDBLK
  5
219
  8
0
  0
BLOCK
  8
0
  2
E3_NODE_15_
 70
     0
 10
0.0
 20
0.0
 30
0.0
  3
E3_NODE_15_
  1

  0
POLYLINE
  5
21B
  8
0
 62
     9
 66
     1
 10
0.0
 20
0.0
 30
0.0
 70
    64
 71
     4
 72
     2
  0
VERTEX
  5
21C
  8
0
 10
32.5
 20
32.5
 30
0.0
 70
   192
  0
VERTEX
  5
21D
  8
0
 10
32.5
 20
32.5
 30
10.0
 70
   192
  0
VERTEX
  5
21E
  8
0
 10
32.5
 20
-32.5
 30
10.0
 70
   192
  0
VERTEX
  5
21F
  8
0
 10
32.5
 20
-32.5
 30
0.0
 70
   192
  0
VERTEX
  5
220
  8
0
 62
     9
 10
0.0
 20
0.0
 30
0.0
 70
   128
 71
     3
 72
     2
 73
     1
  0
VERTEX
  5
221
  8
0
 62
     9
 10
0.0
 20
0.0
 30
0.0
 70
   128
 71
     1
 72
     4
 73
     3
  0
SEQEND
  5
222
  8
0
 62
     9
  0
ENDBLK
  5
225
  8
0
  0
BLOCK
  8
0
  2
E3_NODE_16_
 70
     0
 10
0.0
 20
0.0
 30
0.0
  3
E3_NODE_16_
  1

  0
POLYLINE
  5
227
  8
0
 62
     9
 66
     1
 10
0.0
 20
0.0
 30
0.0
 70
    64
 71
     4
 72
     2
  0
VERTEX
  5
228
  8
0
 10
-32.5
 20
32.5
 30
10.0
 70
   192
  0
VERTEX
  5
229
  8
0
 10
32.5
 20
32.5
 30
10.0
 70
   192
  0
VERTEX
  5
22A
  8
0
 10
32.5
 20
32.5
 30
0.0
 70
   192
  0
VERTEX
  5
22B
  8
0
 10
-32.5
 20
32.5
 30
0.0
 70
   192
  0
VERTEX
  5
22C
  8
0
 62
     9
 10
0.0
 20
0.0
 30
0.0
 70
   128
 71
     3
 72
     2
 73
     1
  0
VERTEX
  5
22D
  8
0
 62
     9
 10
0.0
 20
0.0
 30
0.0
 70
   128
 71
     1
 72
     4
 73
     3
  0
SEQEND
  5
22E
  8
0
 62
     9
  0
ENDBLK
  5
231
  8
0
  0
BLOCK
  8
0
  2
E3_NODE_17_
 70
     0
 10
0.0
 20
0.0
 30
0.0
  3
E3_NODE_17_
  1

  0
POLYLINE
  5
233
  8
0
 62
     9
 66
     1
 10
0.0
 20
0.0
 30
0.0
 70
    64
 71
     4
 72
     2
  0
VERTEX
  5
234
  8
0
 10
-32.5
 20
32.5
 30
10.0
 70
   192
  0
VERTEX
  5
235
  8
0
 10
-32.5
 20
32.5
 30
0.0
 70
   192
  0
VERTEX
  5
236
  8
0
 10
-32.5
 20
-32.5
 30
0.0
 70
   192
  0
VERTEX
  5
237
  8
0
 10
-32.5
 20
-32.5
 30
10.0
 70
   192
  0
VERTEX
  5
238
  8
0
 62
     9
 10
0.0
 20
0.0
 30
0.0
 70
   128
 71
     3
 72
     2
 73
     1
  0
VERTEX
  5
239
  8
0
 62
     9
 10
0.0
 20
0.0
 30
0.0
 70
   128
 71
     1
 72
     4
 73
     3
  0
SEQEND
  5
23A
  8
0
 62
     9
  0
ENDBLK
  5
23D
  8
0
  0
BLOCK
  8
0
  2
E3_NODE_18_
 70
     0
 10
0.0
 20
0.0
 30
0.0
  3
E3_NODE_18_
  1

  0
POLYLINE
  5
23F
  8
0
 62
     9
 66
     1
 10
0.0
 20
0.0
 30
0.0
 70
    64
 71
     4
 72
     2
  0
VERTEX
  5
240
  8
0
 10
32.5
 20
-32.5
 30
10.0
 70
   192
  0
VERTEX
  5
241
  8
0
 10
32.5
 20
32.5
 30
10.0
 70
   192
  0
VERTEX
  5
242
  8
0
 10
-32.5
 20
32.5
 30
10.0
 70
   192
  0
VERTEX
  5
243
  8
0
 10
-32.5
 20
-32.5
 30
10.0
 70
   192
  0
VERTEX
  5
244
  8
0
 62
     9
 10
0.0
 20
0.0
 30
0.0
 70
   128
 71
     3
 72
     2
 73
     1
  0
VERTEX
  5
245
  8
0
 62
     9
 10
0.0
 20
0.0
 30
0.0
 70
   128
 71
     1
 72
     4
 73
     3
  0
SEQEND
  5
246
  8
0
 62
     9
  0
ENDBLK
  5
249
  8
0
  0
BLOCK
  8
0
  2
E3_NODE_19_
 70
     0
 10
0.0
 20
0.0
 30
0.0
  3
E3_NODE_19_
  1

  0
POLYLINE
  5
24B
  8
0
 62
     9
 66
     1
 10
0.0
 20
0.0
 30
0.0
 70
    64
 71
     4
 72
     2
  0
VERTEX
  5
24C
  8
0
 10
-32.5
 20
-32.5
 30
0.0
 70
   192
  0
VERTEX
  5
24D
  8
0
 10
-32.5
 20
32.5
 30
0.0
 70
   192
  0
VERTEX
  5
24E
  8
0
 10
32.5
 20
32.5
 30
0.0
 70
   192
  0
VERTEX
  5
24F
  8
0
 10
32.5
 20
-32.5
 30
0.0
 70
   192
  0
VERTEX
  5
250
  8
0
 62
     9
 10
0.0
 20
0.0
 30
0.0
 70
   128
 71
     3
 72
     2
 73
     1
  0
VERTEX
  5
251
  8
0
 62
     9
 10
0.0
 20
0.0
 30
0.0
 70
   128
 71
     1
 72
     4
 73
     3
  0
SEQEND
  5
252
  8
0
 62
     9
  0
ENDBLK
  5
255
  8
0
  0
BLOCK
  8
0
  2
E3_NODE_20_
 70
     0
 10
0.0
 20
0.0
 30
0.0
  3
E3_NODE_20_
  1

  0
POLYLINE
  5
257
  8
0
 62
     9
 66
     1
 10
0.0
 20
0.0
 30
0.0
 70
    64
 71
     7
 72
     5
  0
VERTEX
  5
258
  8
0
 10
12.7819995880127
 20
173.9720001220703
 30
40.04999923706055
 70
   192
  0
VERTEX
  5
259
  8
0
 10
-18.46999931335449
 20
198.8950042724609
 30
40.04999923706055
 70
   192
  0
VERTEX
  5
25A
  8
0
 10
-18.46999931335449
 20
181.1049957275391
 30
40.04999923706055
 70
   192
  0
VERTEX
  5
25B
  8
0
 10
-4.561999797821045
 20
209.9859924316406
 30
40.04999923706055
 70
   192
  0
VERTEX
  5
25C
  8
0
 10
20.5
 20
190.0
 30
40.04999923706055
 70
   192
  0
VERTEX
  5
25D
  8
0
 10
12.7819995880127
 20
206.0279998779297
 30
40.04999923706055
 70
   192
  0
VERTEX
  5
25E
  8
0
 10
-4.561999797821045
 20
170.0140075683594
 30
40.04999923706055
 70
   192
  0
VERTEX
  5
25F
  8
0
 62
     9
 10
0.0
 20
0.0
 30
0.0
 70
   128
 71
     3
 72
     2
 73
     1
  0
VERTEX
  5
260
  8
0
 62
     9
 10
0.0
 20
0.0
 30
0.0
 70
   128
 71
     2
 72
     4
 73
     1
  0
VERTEX
  5
261
  8
0
 62
     9
 10
0.0
 20
0.0
 30
0.0
 70
   128
 71
     5
 72
     1
 73
     4
  0
VERTEX
  5
262
  8
0
 62
     9
 10
0.0
 20
0.0
 30
0.0
 70
   128
 71
     4
 72
     6
 73
     5
  0
VERTEX
  5
263
  8
0
 62
     9
 10
0.0
 20
0.0
 30
0.0
 70
   128
 71
     1
 72
     7
 73
     3
  0
SEQEND
  5
264
  8
0
 62
     9
  0
ENDBLK
  5
267
  8
0
  0
BLOCK
  8
0
  2
E3_NODE_21_
 70
     0
 10
0.0
 20
0.0
 30
0.0
  3
E3_NODE_21_
  1

  0
POLYLINE
  5
269
  8
0
 62
     9
 66
     1
 10
0.0
 20
0.0
 30
0.0
 70
    64
 71
    14
 72
    14
  0
VERTEX
  5
26A
  8
0
 10
12.7819995880127
 20
173.9720001220703
 30
8.649999618530273
 70
   192
  0
VERTEX
  5
26B
  8
0
 10
20.5
 20
190.0
 30
8.649999618530273
 70
   192
  0
VERTEX
  5
26C
  8
0
 10
20.5
 20
190.0
 30
40.04999923706055
 70
   192
  0
VERTEX
  5
26D
  8
0
 10
-4.561999797821045
 20
170.0140075683594
 30
40.04999923706055
 70
   192
  0
VERTEX
  5
26E
  8
0
 10
-4.561999797821045
 20
170.0140075683594
 30
8.649999618530273
 70
   192
  0
VERTEX
  5
26F
  8
0
 10
-18.46999931335449
 20
181.1049957275391
 30
40.04999923706055
 70
   192
  0
VERTEX
  5
270
  8
0
 10
-18.46999931335449
 20
181.1049957275391
 30
8.649999618530273
 70
   192
  0
VERTEX
  5
271
  8
0
 10
-18.46999931335449
 20
198.8950042724609
 30
40.04999923706055
 70
   192
  0
VERTEX
  5
272
  8
0
 10
-18.46999931335449
 20
198.8950042724609
 30
8.649999618530273
 70
   192
  0
VERTEX
  5
273
  8
0
 10
-4.561999797821045
 20
209.9859924316406
 30
8.649999618530273
 70
   192
  0
VERTEX
  5
274
  8
0
 10
12.7819995880127
 20
206.0279998779297
 30
8.649999618530273
 70
   192
  0
VERTEX
  5
275
  8
0
 10
-4.561999797821045
 20
209.9859924316406
 30
40.04999923706055
 70
   192
  0
VERTEX
  5
276
  8
0
 10
12.7819995880127
 20
206.0279998779297
 30
40.04999923706055
 70
   192
  0
VERTEX
  5
277
  8
0
 10
12.7819995880127
 20
173.9720001220703
 30
40.04999923706055
 70
   192
  0
VERTEX
  5
278
  8
0
 62
     9
 10
0.0
 20
0.0
 30
0.0
 70
   128
 71
     3
 72
     2
 73
     1
  0
VERTEX
  5
279
  8
0
 62
     9
 10
0.0
 20
0.0
 30
0.0
 70
   128
 71
     1
 72
     5
 73
     4
  0
VERTEX
  5
27A
  8
0
 62
     9
 10
0.0
 20
0.0
 30
0.0
 70
   128
 71
     5
 72
     7
 73
     6
  0
VERTEX
  5
27B
  8
0
 62
     9
 10
0.0
 20
0.0
 30
0.0
 70
   128
 71
     7
 72
     9
 73
     8
  0
VERTEX
  5
27C
  8
0
 62
     9
 10
0.0
 20
0.0
 30
0.0
 70
   128
 71
     8
 72
     9
 73
    10
  0
VERTEX
  5
27D
  8
0
 62
     9
 10
0.0
 20
0.0
 30
0.0
 70
   128
 71
    12
 72
    10
 73
    11
  0
VERTEX
  5
27E
  8
0
 62
     9
 10
0.0
 20
0.0
 30
0.0
 70
   128
 71
    11
 72
     2
 73
     3
  0
VERTEX
  5
27F
  8
0
 62
     9
 10
0.0
 20
0.0
 30
0.0
 70
   128
 71
     3
 72
    13
 73
    11
  0
VERTEX
  5
280
  8
0
 62
     9
 10
0.0
 20
0.0
 30
0.0
 70
   128
 71
    11
 72
    13
 73
    12
  0
VERTEX
  5
281
  8
0
 62
     9
 10
0.0
 20
0.0
 30
0.0
 70
   128
 71
    10
 72
    12
 73
     8
  0
VERTEX
  5
282
  8
0
 62
     9
 10
0.0
 20
0.0
 30
0.0
 70
   128
 71
     8
 72
     6
 73
     7
  0
VERTEX
  5
283
  8
0
 62
     9
 10
0.0
 20
0.0
 30
0.0
 70
   128
 71
     6
 72
     4
 73
     5
  0
VERTEX
  5
284
  8
0
 62
     9
 10
0.0
 20
0.0
 30
0.0
 70
   128
 71
     4
 72
    14
 73
     1
  0
VERTEX
  5
285
  8
0
 62
     9
 10
0.0
 20
0.0
 30
0.0
 70
   128
 71
     1
 72
    14
 73
     3
  0
SEQEND
  5
286
  8
0
 62
     9
  0
ENDBLK
  5
289
  8
0
  0
BLOCK
  8
0
  2
E3_NODE_22_
 70
     0
 10
0.0
 20
0.0
 30
0.0
  3
E3_NODE_22_
  1

  0
POLYLINE
  5
28B
  8
0
 62
     9
 66
     1
 10
0.0
 20
0.0
 30
0.0
 70
    64
 71
     4
 72
     2
  0
VERTEX
  5
28C
  8
0
 10
-32.5
 20
-122.5
 30
10.0
 70
   192
  0
VERTEX
  5
28D
  8
0
 10
-32.5
 20
-122.5
 30
0.300000011920929
 70
   192
  0
VERTEX
  5
28E
  8
0
 10
-32.5
 20
-187.5
 30
0.300000011920929
 70
   192
  0
VERTEX
  5
28F
  8
0
 10
-32.5
 20
-187.5
 30
10.0
 70
   192
  0
VERTEX
  5
290
  8
0
 62
     9
 10
0.0
 20
0.0
 30
0.0
 70
   128
 71
     3
 72
     2
 73
     1
  0
VERTEX
  5
291
  8
0
 62
     9
 10
0.0
 20
0.0
 30
0.0
 70
   128
 71
     1
 72
     4
 73
     3
  0
SEQEND
  5
292
  8
0
 62
     9
  0
ENDBLK
  5
295
  8
0
  0
BLOCK
  8
0
  2
E3_NODE_23_
 70
     0
 10
0.0
 20
0.0
 30
0.0
  3
E3_NODE_23_
  1

  0
POLYLINE
  5
297
  8
0
 62
     9
 66
     1
 10
0.0
 20
0.0
 30
0.0
 70
    64
 71
     4
 72
     2
  0
VERTEX
  5
298
  8
0
 10
32.5
 20
-187.5
 30
0.300000011920929
 70
   192
  0
VERTEX
  5
299
  8
0
 10
32.5
 20
-187.5
 30
10.0
 70
   192
  0
VERTEX
  5
29A
  8
0
 10
-32.5
 20
-187.5
 30
10.0
 70
   192
  0
VERTEX
  5
29B
  8
0
 10
-32.5
 20
-187.5
 30
0.300000011920929
 70
   192
  0
VERTEX
  5
29C
  8
0
 62
     9
 10
0.0
 20
0.0
 30
0.0
 70
   128
 71
     3
 72
     2
 73
     1
  0
VERTEX
  5
29D
  8
0
 62
     9
 10
0.0
 20
0.0
 30
0.0
 70
   128
 71
     1
 72
     4
 73
     3
  0
SEQEND
  5
29E
  8
0
 62
     9
  0
ENDBLK
  5
2A1
  8
0
  0
BLOCK
  8
0
  2
E3_NODE_24_
 70
     0
 10
0.0
 20
0.0
 30
0.0
  3
E3_NODE_24_
  1

  0
POLYLINE
  5
2A3
  8
0
 62
     9
 66
     1
 10
0.0
 20
0.0
 30
0.0
 70
    64
 71
     4
 72
     2
  0
VERTEX
  5
2A4
  8
0
 10
32.5
 20
-122.5
 30
0.300000011920929
 70
   192
  0
VERTEX
  5
2A5
  8
0
 10
32.5
 20
-122.5
 30
10.0
 70
   192
  0
VERTEX
  5
2A6
  8
0
 10
32.5
 20
-187.5
 30
10.0
 70
   192
  0
VERTEX
  5
2A7
  8
0
 10
32.5
 20
-187.5
 30
0.300000011920929
 70
   192
  0
VERTEX
  5
2A8
  8
0
 62
     9
 10
0.0
 20
0.0
 30
0.0
 70
   128
 71
     3
 72
     2
 73
     1
  0
VERTEX
  5
2A9
  8
0
 62
     9
 10
0.0
 20
0.0
 30
0.0
 70
   128
 71
     1
 72
     4
 73
     3
  0
SEQEND
  5
2AA
  8
0
 62
     9
  0
ENDBLK
  5
2AD
  8
0
  0
BLOCK
  8
0
  2
E3_NODE_25_
 70
     0
 10
0.0
 20
0.0
 30
0.0
  3
E3_NODE_25_
  1

  0
POLYLINE
  5
2AF
  8
0
 62
     9
 66
     1
 10
0.0
 20
0.0
 30
0.0
 70
    64
 71
     4
 72
     2
  0
VERTEX
  5
2B0
  8
0
 10
32.5
 20
-122.5
 30
10.0
 70
   192
  0
VERTEX
  5
2B1
  8
0
 10
32.5
 20
-122.5
 30
0.300000011920929
 70
   192
  0
VERTEX
  5
2B2
  8
0
 10
-32.5
 20
-122.5
 30
0.300000011920929
 70
   192
  0
VERTEX
  5
2B3
  8
0
 10
-32.5
 20
-122.5
 30
10.0
 70
   192
  0
VERTEX
  5
2B4
  8
0
 62
     9
 10
0.0
 20
0.0
 30
0.0
 70
   128
 71
     3
 72
     2
 73
     1
  0
VERTEX
  5
2B5
  8
0
 62
     9
 10
0.0
 20
0.0
 30
0.0
 70
   128
 71
     1
 72
     4
 73
     3
  0
SEQEND
  5
2B6
  8
0
 62
     9
  0
ENDBLK
  5
2B9
  8
0
  0
BLOCK
  8
0
  2
E3_NODE_26_
 70
     0
 10
0.0
 20
0.0
 30
0.0
  3
E3_NODE_26_
  1

  0
POLYLINE
  5
2BB
  8
0
 62
     9
 66
     1
 10
0.0
 20
0.0
 30
0.0
 70
    64
 71
     4
 72
     2
  0
VERTEX
  5
2BC
  8
0
 10
-32.5
 20
-187.5
 30
10.0
 70
   192
  0
VERTEX
  5
2BD
  8
0
 10
32.5
 20
-187.5
 30
10.0
 70
   192
  0
VERTEX
  5
2BE
  8
0
 10
32.5
 20
-122.5
 30
10.0
 70
   192
  0
VERTEX
  5
2BF
  8
0
 10
-32.5
 20
-122.5
 30
10.0
 70
   192
  0
VERTEX
  5
2C0
  8
0
 62
     9
 10
0.0
 20
0.0
 30
0.0
 70
   128
 71
     3
 72
     2
 73
     1
  0
VERTEX
  5
2C1
  8
0
 62
     9
 10
0.0
 20
0.0
 30
0.0
 70
   128
 71
     1
 72
     4
 73
     3
  0
SEQEND
  5
2C2
  8
0
 62
     9
  0
ENDBLK
  5
2C5
  8
0
  0
BLOCK
  8
0
  2
E3_NODE_27_
 70
     0
 10
0.0
 20
0.0
 30
0.0
  3
E3_NODE_27_
  1

  0
POLYLINE
  5
2C7
  8
0
 62
     9
 66
     1
 10
0.0
 20
0.0
 30
0.0
 70
    64
 71
     4
 72
     2
  0
VERTEX
  5
2C8
  8
0
 10
-32.5
 20
-122.5
 30
0.300000011920929
 70
   192
  0
VERTEX
  5
2C9
  8
0
 10
32.5
 20
-122.5
 30
0.300000011920929
 70
   192
  0
VERTEX
  5
2CA
  8
0
 10
32.5
 20
-187.5
 30
0.300000011920929
 70
   192
  0
VERTEX
  5
2CB
  8
0
 10
-32.5
 20
-187.5
 30
0.300000011920929
 70
   192
  0
VERTEX
  5
2CC
  8
0
 62
     9
 10
0.0
 20
0.0
 30
0.0
 70
   128
 71
     3
 72
     2
 73
     1
  0
VERTEX
  5
2CD
  8
0
 62
     9
 10
0.0
 20
0.0
 30
0.0
 70
   128
 71
     1
 72
     4
 73
     3
  0
SEQEND
  5
2CE
  8
0
 62
     9
  0
ENDBLK
  5
2D1
  8
0
  0
BLOCK
  8
0
  2
E3_NODE_28_
 70
     0
 10
0.0
 20
0.0
 30
0.0
  3
E3_NODE_28_
  1

  0
POLYLINE
  5
2D3
  8
0
 62
     9
 66
     1
 10
0.0
 20
0.0
 30
0.0
 70
    64
 71
    12
 72
    12
  0
VERTEX
  5
2D4
  8
0
 10
6.0
 20
179.6080017089844
 30
45.5
 70
   192
  0
VERTEX
  5
2D5
  8
0
 10
12.0
 20
190.0
 30
45.5
 70
   192
  0
VERTEX
  5
2D6
  8
0
 10
12.0
 20
190.0
 30
175.5
 70
   192
  0
VERTEX
  5
2D7
  8
0
 10
-6.0
 20
179.6080017089844
 30
175.5
 70
   192
  0
VERTEX
  5
2D8
  8
0
 10
-6.0
 20
179.6080017089844
 30
45.5
 70
   192
  0
VERTEX
  5
2D9
  8
0
 10
-12.0
 20
190.0
 30
175.5
 70
   192
  0
VERTEX
  5
2DA
  8
0
 10
-12.0
 20
190.0
 30
45.5
 70
   192
  0
VERTEX
  5
2DB
  8
0
 10
-6.0
 20
200.3919982910156
 30
175.5
 70
   192
  0
VERTEX
  5
2DC
  8
0
 10
-6.0
 20
200.3919982910156
 30
45.5
 70
   192
  0
VERTEX
  5
2DD
  8
0
 10
6.0
 20
200.3919982910156
 30
45.5
 70
   192
  0
VERTEX
  5
2DE
  8
0
 10
6.0
 20
200.3919982910156
 30
175.5
 70
   192
  0
VERTEX
  5
2DF
  8
0
 10
6.0
 20
179.6080017089844
 30
175.5
 70
   192
  0
VERTEX
  5
2E0
  8
0
 62
     9
 10
0.0
 20
0.0
 30
0.0
 70
   128
 71
     3
 72
     2
 73
     1
  0
VERTEX
  5
2E1
  8
0
 62
     9
 10
0.0
 20
0.0
 30
0.0
 70
   128
 71
     1
 72
     5
 73
     4
  0
VERTEX
  5
2E2
  8
0
 62
     9
 10
0.0
 20
0.0
 30
0.0
 70
   128
 71
     5
 72
     7
 73
     6
  0
VERTEX
  5
2E3
  8
0
 62
     9
 10
0.0
 20
0.0
 30
0.0
 70
   128
 71
     7
 72
     9
 73
     8
  0
VERTEX
  5
2E4
  8
0
 62
     9
 10
0.0
 20
0.0
 30
0.0
 70
   128
 71
     8
 72
     9
 73
    10
  0
VERTEX
  5
2E5
  8
0
 62
     9
 10
0.0
 20
0.0
 30
0.0
 70
   128
 71
    11
 72
    10
 73
     2
  0
VERTEX
  5
2E6
  8
0
 62
     9
 10
0.0
 20
0.0
 30
0.0
 70
   128
 71
     2
 72
     3
 73
    11
  0
VERTEX
  5
2E7
  8
0
 62
     9
 10
0.0
 20
0.0
 30
0.0
 70
   128
 71
    10
 72
    11
 73
     8
  0
VERTEX
  5
2E8
  8
0
 62
     9
 10
0.0
 20
0.0
 30
0.0
 70
   128
 71
     8
 72
     6
 73
     7
  0
VERTEX
  5
2E9
  8
0
 62
     9
 10
0.0
 20
0.0
 30
0.0
 70
   128
 71
     6
 72
     4
 73
     5
  0
VERTEX
  5
2EA
  8
0
 62
     9
 10
0.0
 20
0.0
 30
0.0
 70
   128
 71
     4
 72
    12
 73
     1
  0
VERTEX
  5
2EB
  8
0
 62
     9
 10
0.0
 20
0.0
 30
0.0
 70
   128
 71
     1
 72
    12
 73
     3
  0
SEQEND
  5
2EC
  8
0
 62
     9
  0
ENDBLK
  5
2EF
  8
0
  0
BLOCK
  8
0
  2
E3_NODE_29_
 70
     0
 10
0.0
 20
0.0
 30
0.0
  3
E3_NODE_29_
  1

  0
POLYLINE
  5
2F1
  8
0
 62
     9
 66
     1
 10
0.0
 20
0.0
 30
0.0
 70
    64
 71
    13
 72
    13
  0
VERTEX
  5
2F2
  8
0
 10
-14.41600036621094
 20
196.9420013427734
 30
175.5
 70
   192
  0
VERTEX
  5
2F3
  8
0
 10
-3.559999942779541
 20
205.5989990234375
 30
175.5
 70
   192
  0
VERTEX
  5
2F4
  8
0
 10
-6.0
 20
200.3919982910156
 30
175.5
 70
   192
  0
VERTEX
  5
2F5
  8
0
 10
-3.559999942779541
 20
174.4010009765625
 30
175.5
 70
   192
  0
VERTEX
  5
2F6
  8
0
 10
-6.0
 20
179.6080017089844
 30
175.5
 70
   192
  0
VERTEX
  5
2F7
  8
0
 10
6.0
 20
179.6080017089844
 30
175.5
 70
   192
  0
VERTEX
  5
2F8
  8
0
 10
-14.41600036621094
 20
183.0579986572266
 30
175.5
 70
   192
  0
VERTEX
  5
2F9
  8
0
 10
-12.0
 20
190.0
 30
175.5
 70
   192
  0
VERTEX
  5
2FA
  8
0
 10
9.97599983215332
 20
202.5090026855469
 30
175.5
 70
   192
  0
VERTEX
  5
2FB
  8
0
 10
6.0
 20
200.3919982910156
 30
175.5
 70
   192
  0
VERTEX
  5
2FC
  8
0
 10
16.0
 20
190.0
 30
175.5
 70
   192
  0
VERTEX
  5
2FD
  8
0
 10
12.0
 20
190.0
 30
175.5
 70
   192
  0
VERTEX
  5
2FE
  8
0
 10
9.97599983215332
 20
177.4909973144531
 30
175.5
 70
   192
  0
VERTEX
  5
2FF
  8
0
 62
     9
 10
0.0
 20
0.0
 30
0.0
 70
   128
 71
     3
 72
     2
 73
     1
  0
VERTEX
  5
300
  8
0
 62
     9
 10
0.0
 20
0.0
 30
0.0
 70
   128
 71
     6
 72
     5
 73
     4
  0
VERTEX
  5
301
  8
0
 62
     9
 10
0.0
 20
0.0
 30
0.0
 70
   128
 71
     5
 72
     8
 73
     7
  0
VERTEX
  5
302
  8
0
 62
     9
 10
0.0
 20
0.0
 30
0.0
 70
   128
 71
     1
 72
     8
 73
     3
  0
VERTEX
  5
303
  8
0
 62
     9
 10
0.0
 20
0.0
 30
0.0
 70
   128
 71
    10
 72
     9
 73
     2
  0
VERTEX
  5
304
  8
0
 62
     9
 10
0.0
 20
0.0
 30
0.0
 70
   128
 71
    12
 72
    11
 73
     9
  0
VERTEX
  5
305
  8
0
 62
     9
 10
0.0
 20
0.0
 30
0.0
 70
   128
 71
    12
 72
     6
 73
    13
  0
VERTEX
  5
306
  8
0
 62
     9
 10
0.0
 20
0.0
 30
0.0
 70
   128
 71
     7
 72
     4
 73
     5
  0
VERTEX
  5
307
  8
0
 62
     9
 10
0.0
 20
0.0
 30
0.0
 70
   128
 71
     2
 72
     3
 73
    10
  0
VERTEX
  5
308
  8
0
 62
     9
 10
0.0
 20
0.0
 30
0.0
 70
   128
 71
    13
 72
    11
 73
    12
  0
VERTEX
  5
309
  8
0
 62
     9
 10
0.0
 20
0.0
 30
0.0
 70
   128
 71
     1
 72
     7
 73
     8
  0
VERTEX
  5
30A
  8
0
 62
     9
 10
0.0
 20
0.0
 30
0.0
 70
   128
 71
     4
 72
    13
 73
     6
  0
VERTEX
  5
30B
  8
0
 62
     9
 10
0.0
 20
0.0
 30
0.0
 70
   128
 71
     9
 72
    10
 73
    12
  0
SEQEND
  5
30C
  8
0
 62
     9
  0
ENDBLK
  5
30F
  8
0
  0
BLOCK
  8
0
  2
E3_NODE_30_
 70
     0
 10
0.0
 20
0.0
 30
0.0
  3
E3_NODE_30_
  1

  0
POLYLINE
  5
311
  8
0
 62
     9
 66
     1
 10
0.0
 20
0.0
 30
0.0
 70
    64
 71
    14
 72
    14
  0
VERTEX
  5
312
  8
0
 10
9.97599983215332
 20
177.4909973144531
 30
175.5
 70
   192
  0
VERTEX
  5
313
  8
0
 10
16.0
 20
190.0
 30
175.5
 70
   192
  0
VERTEX
  5
314
  8
0
 10
16.0
 20
190.0
 30
250.5
 70
   192
  0
VERTEX
  5
315
  8
0
 10
-3.559999942779541
 20
174.4010009765625
 30
175.5
 70
   192
  0
VERTEX
  5
316
  8
0
 10
9.97599983215332
 20
177.4909973144531
 30
250.5
 70
   192
  0
VERTEX
  5
317
  8
0
 10
-14.41600036621094
 20
183.0579986572266
 30
250.5
 70
   192
  0
VERTEX
  5
318
  8
0
 10
-14.41600036621094
 20
183.0579986572266
 30
175.5
 70
   192
  0
VERTEX
  5
319
  8
0
 10
-14.41600036621094
 20
196.9420013427734
 30
250.5
 70
   192
  0
VERTEX
  5
31A
  8
0
 10
-14.41600036621094
 20
196.9420013427734
 30
175.5
 70
   192
  0
VERTEX
  5
31B
  8
0
 10
-3.559999942779541
 20
205.5989990234375
 30
250.5
 70
   192
  0
VERTEX
  5
31C
  8
0
 10
-3.559999942779541
 20
205.5989990234375
 30
175.5
 70
   192
  0
VERTEX
  5
31D
  8
0
 10
9.97599983215332
 20
202.5090026855469
 30
175.5
 70
   192
  0
VERTEX
  5
31E
  8
0
 10
9.97599983215332
 20
202.5090026855469
 30
250.5
 70
   192
  0
VERTEX
  5
31F
  8
0
 10
-3.559999942779541
 20
174.4010009765625
 30
250.5
 70
   192
  0
VERTEX
  5
320
  8
0
 62
     9
 10
0.0
 20
0.0
 30
0.0
 70
   128
 71
     3
 72
     2
 73
     1
  0
VERTEX
  5
321
  8
0
 62
     9
 10
0.0
 20
0.0
 30
0.0
 70
   128
 71
     5
 72
     1
 73
     4
  0
VERTEX
  5
322
  8
0
 62
     9
 10
0.0
 20
0.0
 30
0.0
 70
   128
 71
     4
 72
     7
 73
     6
  0
VERTEX
  5
323
  8
0
 62
     9
 10
0.0
 20
0.0
 30
0.0
 70
   128
 71
     7
 72
     9
 73
     8
  0
VERTEX
  5
324
  8
0
 62
     9
 10
0.0
 20
0.0
 30
0.0
 70
   128
 71
     9
 72
    11
 73
    10
  0
VERTEX
  5
325
  8
0
 62
     9
 10
0.0
 20
0.0
 30
0.0
 70
   128
 71
    10
 72
    11
 73
    12
  0
VERTEX
  5
326
  8
0
 62
     9
 10
0.0
 20
0.0
 30
0.0
 70
   128
 71
    13
 72
    12
 73
     2
  0
VERTEX
  5
327
  8
0
 62
     9
 10
0.0
 20
0.0
 30
0.0
 70
   128
 71
     2
 72
     3
 73
    13
  0
VERTEX
  5
328
  8
0
 62
     9
 10
0.0
 20
0.0
 30
0.0
 70
   128
 71
    12
 72
    13
 73
    10
  0
VERTEX
  5
329
  8
0
 62
     9
 10
0.0
 20
0.0
 30
0.0
 70
   128
 71
    10
 72
     8
 73
     9
  0
VERTEX
  5
32A
  8
0
 62
     9
 10
0.0
 20
0.0
 30
0.0
 70
   128
 71
     8
 72
     6
 73
     7
  0
VERTEX
  5
32B
  8
0
 62
     9
 10
0.0
 20
0.0
 30
0.0
 70
   128
 71
     6
 72
    14
 73
     4
  0
VERTEX
  5
32C
  8
0
 62
     9
 10
0.0
 20
0.0
 30
0.0
 70
   128
 71
     4
 72
    14
 73
     5
  0
VERTEX
  5
32D
  8
0
 62
     9
 10
0.0
 20
0.0
 30
0.0
 70
   128
 71
     1
 72
     5
 73
     3
  0
SEQEND
  5
32E
  8
0
 62
     9
  0
ENDBLK
  5
331
  8
0
  0
BLOCK
  8
0
  2
E3_NODE_31_
 70
     0
 10
0.0
 20
0.0
 30
0.0
  3
E3_NODE_31_
  1

  0
POLYLINE
  5
333
  8
0
 62
     9
 66
     1
 10
0.0
 20
0.0
 30
0.0
 70
    64
 71
     7
 72
     5
  0
VERTEX
  5
334
  8
0
 10
-3.559999942779541
 20
174.4010009765625
 30
250.5
 70
   192
  0
VERTEX
  5
335
  8
0
 10
-3.559999942779541
 20
205.5989990234375
 30
250.5
 70
   192
  0
VERTEX
  5
336
  8
0
 10
-14.41600036621094
 20
196.9420013427734
 30
250.5
 70
   192
  0
VERTEX
  5
337
  8
0
 10
9.97599983215332
 20
202.5090026855469
 30
250.5
 70
   192
  0
VERTEX
  5
338
  8
0
 10
9.97599983215332
 20
177.4909973144531
 30
250.5
 70
   192
  0
VERTEX
  5
339
  8
0
 10
16.0
 20
190.0
 30
250.5
 70
   192
  0
VERTEX
  5
33A
  8
0
 10
-14.41600036621094
 20
183.0579986572266
 30
250.5
 70
   192
  0
VERTEX
  5
33B
  8
0
 62
     9
 10
0.0
 20
0.0
 30
0.0
 70
   128
 71
     3
 72
     2
 73
     1
  0
VERTEX
  5
33C
  8
0
 62
     9
 10
0.0
 20
0.0
 30
0.0
 70
   128
 71
     2
 72
     4
 73
     1
  0
VERTEX
  5
33D
  8
0
 62
     9
 10
0.0
 20
0.0
 30
0.0
 70
   128
 71
     6
 72
     5
 73
     1
  0
VERTEX
  5
33E
  8
0
 62
     9
 10
0.0
 20
0.0
 30
0.0
 70
   128
 71
     1
 72
     4
 73
     6
  0
VERTEX
  5
33F
  8
0
 62
     9
 10
0.0
 20
0.0
 30
0.0
 70
   128
 71
     1
 72
     7
 73
     3
  0
SEQEND
  5
340
  8
0
 62
     9
  0
ENDBLK
  5
343
  8
0
  0
BLOCK
  8
0
  2
E3_NODE_32_
 70
     0
 10
0.0
 20
0.0
 30
0.0
  3
E3_NODE_32_
  1

  0
POLYLINE
  5
345
  8
0
 62
     9
 66
     1
 10
0.0
 20
0.0
 30
0.0
 70
    64
 71
     6
 72
     4
  0
VERTEX
  5
346
  8
0
 10
232.125
 20
0.0
 30
114.3529968261719
 70
   192
  0
VERTEX
  5
347
  8
0
 10
226.0619964599609
 20
-10.50100040435791
 30
114.3529968261719
 70
   192
  0
VERTEX
  5
348
  8
0
 10
213.9380035400391
 20
-10.50100040435791
 30
114.3529968261719
 70
   192
  0
VERTEX
  5
349
  8
0
 10
207.875
 20
0.0
 30
114.3529968261719
 70
   192
  0
VERTEX
  5
34A
  8
0
 10
213.9380035400391
 20
10.50100040435791
 30
114.3529968261719
 70
   192
  0
VERTEX
  5
34B
  8
0
 10
226.0619964599609
 20
10.50100040435791
 30
114.3529968261719
 70
   192
  0
VERTEX
  5
34C
  8
0
 62
     9
 10
0.0
 20
0.0
 30
0.0
 70
   128
 71
     3
 72
     2
 73
     1
  0
VERTEX
  5
34D
  8
0
 62
     9
 10
0.0
 20
0.0
 30
0.0
 70
   128
 71
     6
 72
     5
 73
     4
  0
VERTEX
  5
34E
  8
0
 62
     9
 10
0.0
 20
0.0
 30
0.0
 70
   128
 71
     4
 72
     1
 73
     6
  0
VERTEX
  5
34F
  8
0
 62
     9
 10
0.0
 20
0.0
 30
0.0
 70
   128
 71
     1
 72
     4
 73
     3
  0
SEQEND
  5
350
  8
0
 62
     9
  0
ENDBLK
  5
353
  8
0
  0
BLOCK
  8
0
  2
E3_NODE_33_
 70
     0
 10
0.0
 20
0.0
 30
0.0
  3
E3_NODE_33_
  1

  0
POLYLINE
  5
355
  8
0
 62
     9
 66
     1
 10
0.0
 20
0.0
 30
0.0
 70
    64
 71
    21
 72
    21
  0
VERTEX
  5
356
  8
0
 10
232.125
 20
0.0
 30
114.3529968261719
 70
   192
  0
VERTEX
  5
357
  8
0
 10
232.125
 20
0.0
 30
110.3529968261719
 70
   192
  0
VERTEX
  5
358
  8
0
 10
230.3500061035156
 20
-6.315999984741211
 30
110.3529968261719
 70
   192
  0
VERTEX
  5
359
  8
0
 10
226.0619964599609
 20
-10.50100040435791
 30
114.3529968261719
 70
   192
  0
VERTEX
  5
35A
  8
0
 10
224.1369934082031
 20
-11.39799976348877
 30
110.3529968261719
 70
   192
  0
VERTEX
  5
35B
  8
0
 10
216.1100006103516
 20
-11.48400020599365
 30
110.3529968261719
 70
   192
  0
VERTEX
  5
35C
  8
0
 10
213.9380035400391
 20
-10.50100040435791
 30
114.3529968261719
 70
   192
  0
VERTEX
  5
35D
  8
0
 10
225.7299957275391
 20
-10.0939998626709
 30
110.3529968261719
 70
   192
  0
VERTEX
  5
35E
  8
0
 10
207.875
 20
0.0
 30
114.3529968261719
 70
   192
  0
VERTEX
  5
35F
  8
0
 10
209.7879943847656
 20
-6.538000106811523
 30
110.3529968261719
 70
   192
  0
VERTEX
  5
360
  8
0
 10
214.2850036621094
 20
-10.05599975585938
 30
110.3529968261719
 70
   192
  0
VERTEX
  5
361
  8
0
 10
207.9420013427734
 20
1.27400004863739
 30
110.3529968261719
 70
   192
  0
VERTEX
  5
362
  8
0
 10
211.3800048828125
 20
8.527000427246094
 30
110.3529968261719
 70
   192
  0
VERTEX
  5
363
  8
0
 10
208.2239990234375
 20
0.0820000022649765
 30
110.3529968261719
 70
   192
  0
VERTEX
  5
364
  8
0
 10
213.9380035400391
 20
10.50100040435791
 30
114.3529968261719
 70
   192
  0
VERTEX
  5
365
  8
0
 10
226.0619964599609
 20
10.50100040435791
 30
114.3529968261719
 70
   192
  0
VERTEX
  5
366
  8
0
 10
218.5959930419922
 20
12.04300022125244
 30
110.3529968261719
 70
   192
  0
VERTEX
  5
367
  8
0
 10
214.2239990234375
 20
9.913000106811523
 30
110.3529968261719
 70
   192
  0
VERTEX
  5
368
  8
0
 10
226.427001953125
 20
10.2810001373291
 30
110.3529968261719
 70
   192
  0
VERTEX
  5
369
  8
0
 10
231.4409942626953
 20
4.013000011444092
 30
110.3529968261719
 70
   192
  0
VERTEX
  5
36A
  8
0
 10
226.0330047607422
 20
10.36999988555908
 30
110.3529968261719
 70
   192
  0
VERTEX
  5
36B
  8
0
 62
     9
 10
0.0
 20
0.0
 30
0.0
 70
   128
 71
     3
 72
     2
 73
     1
  0
VERTEX
  5
36C
  8
0
 62
     9
 10
0.0
 20
0.0
 30
0.0
 70
   128
 71
     1
 72
     4
 73
     3
  0
VERTEX
  5
36D
  8
0
 62
     9
 10
0.0
 20
0.0
 30
0.0
 70
   128
 71
     6
 72
     5
 73
     4
  0
VERTEX
  5
36E
  8
0
 62
     9
 10
0.0
 20
0.0
 30
0.0
 70
   128
 71
     4
 72
     7
 73
     6
  0
VERTEX
  5
36F
  8
0
 62
     9
 10
0.0
 20
0.0
 30
0.0
 70
   128
 71
     5
 72
     8
 73
     4
  0
VERTEX
  5
370
  8
0
 62
     9
 10
0.0
 20
0.0
 30
0.0
 70
   128
 71
    10
 72
     7
 73
     9
  0
VERTEX
  5
371
  8
0
 62
     9
 10
0.0
 20
0.0
 30
0.0
 70
   128
 71
    10
 72
    11
 73
     7
  0
VERTEX
  5
372
  8
0
 62
     9
 10
0.0
 20
0.0
 30
0.0
 70
   128
 71
    13
 72
    12
 73
     9
  0
VERTEX
  5
373
  8
0
 62
     9
 10
0.0
 20
0.0
 30
0.0
 70
   128
 71
    12
 72
    14
 73
     9
  0
VERTEX
  5
374
  8
0
 62
     9
 10
0.0
 20
0.0
 30
0.0
 70
   128
 71
     9
 72
    15
 73
    13
  0
VERTEX
  5
375
  8
0
 62
     9
 10
0.0
 20
0.0
 30
0.0
 70
   128
 71
    17
 72
    15
 73
    16
  0
VERTEX
  5
376
  8
0
 62
     9
 10
0.0
 20
0.0
 30
0.0
 70
   128
 71
    17
 72
    18
 73
    15
  0
VERTEX
  5
377
  8
0
 62
     9
 10
0.0
 20
0.0
 30
0.0
 70
   128
 71
    20
 72
    19
 73
    16
  0
VERTEX
  5
378
  8
0
 62
     9
 10
0.0
 20
0.0
 30
0.0
 70
   128
 71
    16
 72
     1
 73
    20
  0
VERTEX
  5
379
  8
0
 62
     9
 10
0.0
 20
0.0
 30
0.0
 70
   128
 71
    19
 72
    21
 73
    16
  0
VERTEX
  5
37A
  8
0
 62
     9
 10
0.0
 20
0.0
 30
0.0
 70
   128
 71
     1
 72
     2
 73
    20
  0
VERTEX
  5
37B
  8
0
 62
     9
 10
0.0
 20
0.0
 30
0.0
 70
   128
 71
    16
 72
    21
 73
    17
  0
VERTEX
  5
37C
  8
0
 62
     9
 10
0.0
 20
0.0
 30
0.0
 70
   128
 71
    15
 72
    18
 73
    13
  0
VERTEX
  5
37D
  8
0
 62
     9
 10
0.0
 20
0.0
 30
0.0
 70
   128
 71
     9
 72
    14
 73
    10
  0
VERTEX
  5
37E
  8
0
 62
     9
 10
0.0
 20
0.0
 30
0.0
 70
   128
 71
     7
 72
    11
 73
     6
  0
VERTEX
  5
37F
  8
0
 62
     9
 10
0.0
 20
0.0
 30
0.0
 70
   128
 71
     4
 72
     8
 73
     3
  0
SEQEND
  5
380
  8
0
 62
     9
  0
ENDBLK
  5
383
  8
0
  0
BLOCK
  8
0
  2
E3_NODE_34_
 70
     0
 10
0.0
 20
0.0
 30
0.0
  3
E3_NODE_34_
  1

  0
POLYLINE
  5
385
  8
0
 62
     9
 66
     1
 10
0.0
 20
0.0
 30
0.0
 70
    64
 71
    31
 72
    31
  0
VERTEX
  5
386
  8
0
 10
11.0
 20
17.5
 30
67.90899658203125
 70
   192
  0
VERTEX
  5
387
  8
0
 10
11.0
 20
-17.5
 30
67.90899658203125
 70
   192
  0
VERTEX
  5
388
  8
0
 10
11.0
 20
-17.5
 30
10.0
 70
   192
  0
VERTEX
  5
389
  8
0
 10
11.60200023651123
 20
-17.5
 30
91.68900299072266
 70
   192
  0
VERTEX
  5
38A
  8
0
 10
19.72100067138672
 20
17.5
 30
104.8619995117188
 70
   192
  0
VERTEX
  5
38B
  8
0
 10
19.72100067138672
 20
-17.5
 30
104.8619995117188
 70
   192
  0
VERTEX
  5
38C
  8
0
 10
34.52700042724609
 20
-17.5
 30
110.3450012207031
 70
   192
  0
VERTEX
  5
38D
  8
0
 10
91.86499786376953
 20
-17.5
 30
110.3529968261719
 70
   192
  0
VERTEX
  5
38E
  8
0
 10
34.52700042724609
 20
17.5
 30
110.3450012207031
 70
   192
  0
VERTEX
  5
38F
  8
0
 10
91.86499786376953
 20
17.5
 30
110.3529968261719
 70
   192
  0
VERTEX
  5
390
  8
0
 10
168.0130004882812
 20
17.5
 30
110.3529968261719
 70
   192
  0
VERTEX
  5
391
  8
0
 10
218.5959930419922
 20
12.04300022125244
 30
110.3529968261719
 70
   192
  0
VERTEX
  5
392
  8
0
 10
214.2239990234375
 20
9.913000106811523
 30
110.3529968261719
 70
   192
  0
VERTEX
  5
393
  8
0
 10
235.3000030517578
 20
17.5
 30
110.3529968261719
 70
   192
  0
VERTEX
  5
394
  8
0
 10
226.427001953125
 20
10.2810001373291
 30
110.3529968261719
 70
   192
  0
VERTEX
  5
395
  8
0
 10
226.0330047607422
 20
10.36999988555908
 30
110.3529968261719
 70
   192
  0
VERTEX
  5
396
  8
0
 10
235.3000030517578
 20
-17.5
 30
110.3529968261719
 70
   192
  0
VERTEX
  5
397
  8
0
 10
232.125
 20
0.0
 30
110.3529968261719
 70
   192
  0
VERTEX
  5
398
  8
0
 10
230.3500061035156
 20
-6.315999984741211
 30
110.3529968261719
 70
   192
  0
VERTEX
  5
399
  8
0
 10
231.4409942626953
 20
4.013000011444092
 30
110.3529968261719
 70
   192
  0
VERTEX
  5
39A
  8
0
 10
224.1369934082031
 20
-11.39799976348877
 30
110.3529968261719
 70
   192
  0
VERTEX
  5
39B
  8
0
 10
225.7299957275391
 20
-10.0939998626709
 30
110.3529968261719
 70
   192
  0
VERTEX
  5
39C
  8
0
 10
168.0130004882812
 20
-17.5
 30
110.3529968261719
 70
   192
  0
VERTEX
  5
39D
  8
0
 10
216.1100006103516
 20
-11.48400020599365
 30
110.3529968261719
 70
   192
  0
VERTEX
  5
39E
  8
0
 10
209.7879943847656
 20
-6.538000106811523
 30
110.3529968261719
 70
   192
  0
VERTEX
  5
39F
  8
0
 10
214.2850036621094
 20
-10.05599975585938
 30
110.3529968261719
 70
   192
  0
VERTEX
  5
3A0
  8
0
 10
207.9420013427734
 20
1.27400004863739
 30
110.3529968261719
 70
   192
  0
VERTEX
  5
3A1
  8
0
 10
208.2239990234375
 20
0.0820000022649765
 30
110.3529968261719
 70
   192
  0
VERTEX
  5
3A2
  8
0
 10
211.3800048828125
 20
8.527000427246094
 30
110.3529968261719
 70
   192
  0
VERTEX
  5
3A3
  8
0
 10
11.60200023651123
 20
17.5
 30
91.68900299072266
 70
   192
  0
VERTEX
  5
3A4
  8
0
 10
11.0
 20
17.5
 30
10.0
 70
   192
  0
VERTEX
  5
3A5
  8
0
 62
     9
 10
0.0
 20
0.0
 30
0.0
 70
   128
 71
     3
 72
     2
 73
     1
  0
VERTEX
  5
3A6
  8
0
 62
     9
 10
0.0
 20
0.0
 30
0.0
 70
   128
 71
     1
 72
     2
 73
     4
  0
VERTEX
  5
3A7
  8
0
 62
     9
 10
0.0
 20
0.0
 30
0.0
 70
   128
 71
     4
 72
     6
 73
     5
  0
VERTEX
  5
3A8
  8
0
 62
     9
 10
0.0
 20
0.0
 30
0.0
 70
   128
 71
     5
 72
     6
 73
     7
  0
VERTEX
  5
3A9
  8
0
 62
     9
 10
0.0
 20
0.0
 30
0.0
 70
   128
 71
     9
 72
     7
 73
     8
  0
VERTEX
  5
3AA
  8
0
 62
     9
 10
0.0
 20
0.0
 30
0.0
 70
   128
 71
    11
 72
    10
 73
     8
  0
VERTEX
  5
3AB
  8
0
 62
     9
 10
0.0
 20
0.0
 30
0.0
 70
   128
 71
    13
 72
    12
 73
    11
  0
VERTEX
  5
3AC
  8
0
 62
     9
 10
0.0
 20
0.0
 30
0.0
 70
   128
 71
    16
 72
    15
 73
    14
  0
VERTEX
  5
3AD
  8
0
 62
     9
 10
0.0
 20
0.0
 30
0.0
 70
   128
 71
    14
 72
    12
 73
    16
  0
VERTEX
  5
3AE
  8
0
 62
     9
 10
0.0
 20
0.0
 30
0.0
 70
   128
 71
    18
 72
    17
 73
    14
  0
VERTEX
  5
3AF
  8
0
 62
     9
 10
0.0
 20
0.0
 30
0.0
 70
   128
 71
    18
 72
    19
 73
    17
  0
VERTEX
  5
3B0
  8
0
 62
     9
 10
0.0
 20
0.0
 30
0.0
 70
   128
 71
    14
 72
    20
 73
    18
  0
VERTEX
  5
3B1
  8
0
 62
     9
 10
0.0
 20
0.0
 30
0.0
 70
   128
 71
    22
 72
    21
 73
    17
  0
VERTEX
  5
3B2
  8
0
 62
     9
 10
0.0
 20
0.0
 30
0.0
 70
   128
 71
    17
 72
    19
 73
    22
  0
VERTEX
  5
3B3
  8
0
 62
     9
 10
0.0
 20
0.0
 30
0.0
 70
   128
 71
    14
 72
    15
 73
    20
  0
VERTEX
  5
3B4
  8
0
 62
     9
 10
0.0
 20
0.0
 30
0.0
 70
   128
 71
    24
 72
    23
 73
    17
  0
VERTEX
  5
3B5
  8
0
 62
     9
 10
0.0
 20
0.0
 30
0.0
 70
   128
 71
    17
 72
    21
 73
    24
  0
VERTEX
  5
3B6
  8
0
 62
     9
 10
0.0
 20
0.0
 30
0.0
 70
   128
 71
    14
 72
    11
 73
    12
  0
VERTEX
  5
3B7
  8
0
 62
     9
 10
0.0
 20
0.0
 30
0.0
 70
   128
 71
    26
 72
    25
 73
    23
  0
VERTEX
  5
3B8
  8
0
 62
     9
 10
0.0
 20
0.0
 30
0.0
 70
   128
 71
    23
 72
    24
 73
    26
  0
VERTEX
  5
3B9
  8
0
 62
     9
 10
0.0
 20
0.0
 30
0.0
 70
   128
 71
    27
 72
    11
 73
    23
  0
VERTEX
  5
3BA
  8
0
 62
     9
 10
0.0
 20
0.0
 30
0.0
 70
   128
 71
    23
 72
    28
 73
    27
  0
VERTEX
  5
3BB
  8
0
 62
     9
 10
0.0
 20
0.0
 30
0.0
 70
   128
 71
    23
 72
    25
 73
    28
  0
VERTEX
  5
3BC
  8
0
 62
     9
 10
0.0
 20
0.0
 30
0.0
 70
   128
 71
    11
 72
    27
 73
    29
  0
VERTEX
  5
3BD
  8
0
 62
     9
 10
0.0
 20
0.0
 30
0.0
 70
   128
 71
    11
 72
    29
 73
    13
  0
VERTEX
  5
3BE
  8
0
 62
     9
 10
0.0
 20
0.0
 30
0.0
 70
   128
 71
     8
 72
    23
 73
    11
  0
VERTEX
  5
3BF
  8
0
 62
     9
 10
0.0
 20
0.0
 30
0.0
 70
   128
 71
     8
 72
    10
 73
     9
  0
VERTEX
  5
3C0
  8
0
 62
     9
 10
0.0
 20
0.0
 30
0.0
 70
   128
 71
     7
 72
     9
 73
     5
  0
VERTEX
  5
3C1
  8
0
 62
     9
 10
0.0
 20
0.0
 30
0.0
 70
   128
 71
     5
 72
    30
 73
     4
  0
VERTEX
  5
3C2
  8
0
 62
     9
 10
0.0
 20
0.0
 30
0.0
 70
   128
 71
     4
 72
    30
 73
     1
  0
VERTEX
  5
3C3
  8
0
 62
     9
 10
0.0
 20
0.0
 30
0.0
 70
   128
 71
     1
 72
    31
 73
     3
  0
SEQEND
  5
3C4
  8
0
 62
     9
  0
ENDBLK
  5
3C7
  8
0
  0
BLOCK
  8
0
  2
E3_NODE_35_
 70
     0
 10
0.0
 20
0.0
 30
0.0
  3
E3_NODE_35_
  1

  0
POLYLINE
  5
3C9
  8
0
 62
     9
 66
     1
 10
0.0
 20
0.0
 30
0.0
 70
    64
 71
     4
 72
     2
  0
VERTEX
  5
3CA
  8
0
 10
235.3000030517578
 20
17.5
 30
110.3529968261719
 70
   192
  0
VERTEX
  5
3CB
  8
0
 10
235.3000030517578
 20
17.5
 30
132.3529968261719
 70
   192
  0
VERTEX
  5
3CC
  8
0
 10
235.3000030517578
 20
-17.5
 30
132.3529968261719
 70
   192
  0
VERTEX
  5
3CD
  8
0
 10
235.3000030517578
 20
-17.5
 30
110.3529968261719
 70
   192
  0
VERTEX
  5
3CE
  8
0
 62
     9
 10
0.0
 20
0.0
 30
0.0
 70
   128
 71
     3
 72
     2
 73
     1
  0
VERTEX
  5
3CF
  8
0
 62
     9
 10
0.0
 20
0.0
 30
0.0
 70
   128
 71
     1
 72
     4
 73
     3
  0
SEQEND
  5
3D0
  8
0
 62
     9
  0
ENDBLK
  5
3D3
  8
0
  0
BLOCK
  8
0
  2
E3_NODE_36_
 70
     0
 10
0.0
 20
0.0
 30
0.0
  3
E3_NODE_36_
  1

  0
POLYLINE
  5
3D5
  8
0
 62
     9
 66
     1
 10
0.0
 20
0.0
 30
0.0
 70
    64
 71
    16
 72
    14
  0
VERTEX
  5
3D6
  8
0
 10
69.50499725341797
 20
-17.5
 30
132.3529968261719
 70
   192
  0
VERTEX
  5
3D7
  8
0
 10
235.3000030517578
 20
-17.5
 30
132.3529968261719
 70
   192
  0
VERTEX
  5
3D8
  8
0
 10
235.3000030517578
 20
17.5
 30
132.3529968261719
 70
   192
  0
VERTEX
  5
3D9
  8
0
 10
39.58200073242188
 20
-17.5
 30
132.3520050048828
 70
   192
  0
VERTEX
  5
3DA
  8
0
 10
69.50499725341797
 20
17.5
 30
132.3529968261719
 70
   192
  0
VERTEX
  5
3DB
  8
0
 10
16.3129997253418
 20
17.5
 30
128.3860015869141
 70
   192
  0
VERTEX
  5
3DC
  8
0
 10
16.3129997253418
 20
-17.5
 30
128.3860015869141
 70
   192
  0
VERTEX
  5
3DD
  8
0
 10
-1.52400004863739
 20
17.5
 30
114.318000793457
 70
   192
  0
VERTEX
  5
3DE
  8
0
 10
-1.52400004863739
 20
-17.5
 30
114.318000793457
 70
   192
  0
VERTEX
  5
3DF
  8
0
 10
-10.19600009918213
 20
17.5
 30
94.91899871826172
 70
   192
  0
VERTEX
  5
3E0
  8
0
 10
-10.19600009918213
 20
-17.5
 30
94.91899871826172
 70
   192
  0
VERTEX
  5
3E1
  8
0
 10
-11.0
 20
-17.5
 30
70.8239974975586
 70
   192
  0
VERTEX
  5
3E2
  8
0
 10
-11.0
 20
17.5
 30
70.8239974975586
 70
   192
  0
VERTEX
  5
3E3
  8
0
 10
-11.0
 20
17.5
 30
10.0
 70
   192
  0
VERTEX
  5
3E4
  8
0
 10
-11.0
 20
-17.5
 30
10.0
 70
   192
  0
VERTEX
  5
3E5
  8
0
 10
39.58200073242188
 20
17.5
 30
132.3520050048828
 70
   192
  0
VERTEX
  5
3E6
  8
0
 62
     9
 10
0.0
 20
0.0
 30
0.0
 70
   128
 71
     3
 72
     2
 73
     1
  0
VERTEX
  5
3E7
  8
0
 62
     9
 10
0.0
 20
0.0
 30
0.0
 70
   128
 71
     5
 72
     1
 73
     4
  0
VERTEX
  5
3E8
  8
0
 62
     9
 10
0.0
 20
0.0
 30
0.0
 70
   128
 71
     4
 72
     7
 73
     6
  0
VERTEX
  5
3E9
  8
0
 62
     9
 10
0.0
 20
0.0
 30
0.0
 70
   128
 71
     7
 72
     9
 73
     8
  0
VERTEX
  5
3EA
  8
0
 62
     9
 10
0.0
 20
0.0
 30
0.0
 70
   128
 71
     9
 72
    11
 73
    10
  0
VERTEX
  5
3EB
  8
0
 62
     9
 10
0.0
 20
0.0
 30
0.0
 70
   128
 71
    10
 72
    11
 73
    12
  0
VERTEX
  5
3EC
  8
0
 62
     9
 10
0.0
 20
0.0
 30
0.0
 70
   128
 71
    14
 72
    13
 73
    12
  0
VERTEX
  5
3ED
  8
0
 62
     9
 10
0.0
 20
0.0
 30
0.0
 70
   128
 71
    12
 72
    15
 73
    14
  0
VERTEX
  5
3EE
  8
0
 62
     9
 10
0.0
 20
0.0
 30
0.0
 70
   128
 71
    12
 72
    13
 73
    10
  0
VERTEX
  5
3EF
  8
0
 62
     9
 10
0.0
 20
0.0
 30
0.0
 70
   128
 71
    10
 72
     8
 73
     9
  0
VERTEX
  5
3F0
  8
0
 62
     9
 10
0.0
 20
0.0
 30
0.0
 70
   128
 71
     8
 72
     6
 73
     7
  0
VERTEX
  5
3F1
  8
0
 62
     9
 10
0.0
 20
0.0
 30
0.0
 70
   128
 71
     6
 72
    16
 73
     4
  0
VERTEX
  5
3F2
  8
0
 62
     9
 10
0.0
 20
0.0
 30
0.0
 70
   128
 71
     4
 72
    16
 73
     5
  0
VERTEX
  5
3F3
  8
0
 62
     9
 10
0.0
 20
0.0
 30
0.0
 70
   128
 71
     1
 72
     5
 73
     3
  0
SEQEND
  5
3F4
  8
0
 62
     9
  0
ENDBLK
  5
3F7
  8
0
  0
BLOCK
  8
0
  2
E3_NODE_37_
 70
     0
 10
0.0
 20
0.0
 30
0.0
  3
E3_NODE_37_
  1

  0
POLYLINE
  5
3F9
  8
0
 62
     9
 66
     1
 10
0.0
 20
0.0
 30
0.0
 70
    64
 71
    16
 72
    14
  0
VERTEX
  5
3FA
  8
0
 10
69.50499725341797
 20
17.5
 30
132.3529968261719
 70
   192
  0
VERTEX
  5
3FB
  8
0
 10
235.3000030517578
 20
17.5
 30
132.3529968261719
 70
   192
  0
VERTEX
  5
3FC
  8
0
 10
168.0130004882812
 20
17.5
 30
110.3529968261719
 70
   192
  0
VERTEX
  5
3FD
  8
0
 10
-11.0
 20
17.5
 30
10.0
 70
   192
  0
VERTEX
  5
3FE
  8
0
 10
-11.0
 20
17.5
 30
70.8239974975586
 70
   192
  0
VERTEX
  5
3FF
  8
0
 10
11.0
 20
17.5
 30
67.90899658203125
 70
   192
  0
VERTEX
  5
400
  8
0
 10
-10.19600009918213
 20
17.5
 30
94.91899871826172
 70
   192
  0
VERTEX
  5
401
  8
0
 10
11.60200023651123
 20
17.5
 30
91.68900299072266
 70
   192
  0
VERTEX
  5
402
  8
0
 10
16.3129997253418
 20
17.5
 30
128.3860015869141
 70
   192
  0
VERTEX
  5
403
  8
0
 10
39.58200073242188
 20
17.5
 30
132.3520050048828
 70
   192
  0
VERTEX
  5
404
  8
0
 10
34.52700042724609
 20
17.5
 30
110.3450012207031
 70
   192
  0
VERTEX
  5
405
  8
0
 10
235.3000030517578
 20
17.5
 30
110.3529968261719
 70
   192
  0
VERTEX
  5
406
  8
0
 10
-1.52400004863739
 20
17.5
 30
114.318000793457
 70
   192
  0
VERTEX
  5
407
  8
0
 10
19.72100067138672
 20
17.5
 30
104.8619995117188
 70
   192
  0
VERTEX
  5
408
  8
0
 10
91.86499786376953
 20
17.5
 30
110.3529968261719
 70
   192
  0
VERTEX
  5
409
  8
0
 10
11.0
 20
17.5
 30
10.0
 70
   192
  0
VERTEX
  5
40A
  8
0
 62
     9
 10
0.0
 20
0.0
 30
0.0
 70
   128
 71
     3
 72
     2
 73
     1
  0
VERTEX
  5
40B
  8
0
 62
     9
 10
0.0
 20
0.0
 30
0.0
 70
   128
 71
     6
 72
     5
 73
     4
  0
VERTEX
  5
40C
  8
0
 62
     9
 10
0.0
 20
0.0
 30
0.0
 70
   128
 71
     8
 72
     7
 73
     5
  0
VERTEX
  5
40D
  8
0
 62
     9
 10
0.0
 20
0.0
 30
0.0
 70
   128
 71
    11
 72
    10
 73
     9
  0
VERTEX
  5
40E
  8
0
 62
     9
 10
0.0
 20
0.0
 30
0.0
 70
   128
 71
     1
 72
    10
 73
    11
  0
VERTEX
  5
40F
  8
0
 62
     9
 10
0.0
 20
0.0
 30
0.0
 70
   128
 71
     3
 72
    12
 73
     2
  0
VERTEX
  5
410
  8
0
 62
     9
 10
0.0
 20
0.0
 30
0.0
 70
   128
 71
     5
 72
     6
 73
     8
  0
VERTEX
  5
411
  8
0
 62
     9
 10
0.0
 20
0.0
 30
0.0
 70
   128
 71
     8
 72
    14
 73
    13
  0
VERTEX
  5
412
  8
0
 62
     9
 10
0.0
 20
0.0
 30
0.0
 70
   128
 71
     9
 72
    13
 73
    14
  0
VERTEX
  5
413
  8
0
 62
     9
 10
0.0
 20
0.0
 30
0.0
 70
   128
 71
     1
 72
    15
 73
     3
  0
VERTEX
  5
414
  8
0
 62
     9
 10
0.0
 20
0.0
 30
0.0
 70
   128
 71
    13
 72
     7
 73
     8
  0
VERTEX
  5
415
  8
0
 62
     9
 10
0.0
 20
0.0
 30
0.0
 70
   128
 71
    11
 72
    15
 73
     1
  0
VERTEX
  5
416
  8
0
 62
     9
 10
0.0
 20
0.0
 30
0.0
 70
   128
 71
     9
 72
    14
 73
    11
  0
VERTEX
  5
417
  8
0
 62
     9
 10
0.0
 20
0.0
 30
0.0
 70
   128
 71
     4
 72
    16
 73
     6
  0
SEQEND
  5
418
  8
0
 62
     9
  0
ENDBLK
  5
41B
  8
0
  0
BLOCK
  8
0
  2
E3_NODE_38_
 70
     0
 10
0.0
 20
0.0
 30
0.0
  3
E3_NODE_38_
  1

  0
POLYLINE
  5
41D
  8
0
 62
     9
 66
     1
 10
0.0
 20
0.0
 30
0.0
 70
    64
 71
    16
 72
    14
  0
VERTEX
  5
41E
  8
0
 10
69.50499725341797
 20
-17.5
 30
132.3529968261719
 70
   192
  0
VERTEX
  5
41F
  8
0
 10
91.86499786376953
 20
-17.5
 30
110.3529968261719
 70
   192
  0
VERTEX
  5
420
  8
0
 10
168.0130004882812
 20
-17.5
 30
110.3529968261719
 70
   192
  0
VERTEX
  5
421
  8
0
 10
235.3000030517578
 20
-17.5
 30
132.3529968261719
 70
   192
  0
VERTEX
  5
422
  8
0
 10
34.52700042724609
 20
-17.5
 30
110.3450012207031
 70
   192
  0
VERTEX
  5
423
  8
0
 10
16.3129997253418
 20
-17.5
 30
128.3860015869141
 70
   192
  0
VERTEX
  5
424
  8
0
 10
19.72100067138672
 20
-17.5
 30
104.8619995117188
 70
   192
  0
VERTEX
  5
425
  8
0
 10
-11.0
 20
-17.5
 30
70.8239974975586
 70
   192
  0
VERTEX
  5
426
  8
0
 10
11.0
 20
-17.5
 30
67.90899658203125
 70
   192
  0
VERTEX
  5
427
  8
0
 10
11.60200023651123
 20
-17.5
 30
91.68900299072266
 70
   192
  0
VERTEX
  5
428
  8
0
 10
-11.0
 20
-17.5
 30
10.0
 70
   192
  0
VERTEX
  5
429
  8
0
 10
11.0
 20
-17.5
 30
10.0
 70
   192
  0
VERTEX
  5
42A
  8
0
 10
39.58200073242188
 20
-17.5
 30
132.3520050048828
 70
   192
  0
VERTEX
  5
42B
  8
0
 10
-1.52400004863739
 20
-17.5
 30
114.318000793457
 70
   192
  0
VERTEX
  5
42C
  8
0
 10
-10.19600009918213
 20
-17.5
 30
94.91899871826172
 70
   192
  0
VERTEX
  5
42D
  8
0
 10
235.3000030517578
 20
-17.5
 30
110.3529968261719
 70
   192
  0
VERTEX
  5
42E
  8
0
 62
     9
 10
0.0
 20
0.0
 30
0.0
 70
   128
 71
     3
 72
     2
 73
     1
  0
VERTEX
  5
42F
  8
0
 62
     9
 10
0.0
 20
0.0
 30
0.0
 70
   128
 71
     1
 72
     4
 73
     3
  0
VERTEX
  5
430
  8
0
 62
     9
 10
0.0
 20
0.0
 30
0.0
 70
   128
 71
     1
 72
     2
 73
     5
  0
VERTEX
  5
431
  8
0
 62
     9
 10
0.0
 20
0.0
 30
0.0
 70
   128
 71
     5
 72
     7
 73
     6
  0
VERTEX
  5
432
  8
0
 62
     9
 10
0.0
 20
0.0
 30
0.0
 70
   128
 71
    10
 72
     9
 73
     8
  0
VERTEX
  5
433
  8
0
 62
     9
 10
0.0
 20
0.0
 30
0.0
 70
   128
 71
     9
 72
    12
 73
    11
  0
VERTEX
  5
434
  8
0
 62
     9
 10
0.0
 20
0.0
 30
0.0
 70
   128
 71
     5
 72
    13
 73
     1
  0
VERTEX
  5
435
  8
0
 62
     9
 10
0.0
 20
0.0
 30
0.0
 70
   128
 71
     6
 72
    13
 73
     5
  0
VERTEX
  5
436
  8
0
 62
     9
 10
0.0
 20
0.0
 30
0.0
 70
   128
 71
    10
 72
    15
 73
    14
  0
VERTEX
  5
437
  8
0
 62
     9
 10
0.0
 20
0.0
 30
0.0
 70
   128
 71
    11
 72
     8
 73
     9
  0
VERTEX
  5
438
  8
0
 62
     9
 10
0.0
 20
0.0
 30
0.0
 70
   128
 71
     7
 72
    14
 73
     6
  0
VERTEX
  5
439
  8
0
 62
     9
 10
0.0
 20
0.0
 30
0.0
 70
   128
 71
     8
 72
    15
 73
    10
  0
VERTEX
  5
43A
  8
0
 62
     9
 10
0.0
 20
0.0
 30
0.0
 70
   128
 71
    14
 72
     7
 73
    10
  0
VERTEX
  5
43B
  8
0
 62
     9
 10
0.0
 20
0.0
 30
0.0
 70
   128
 71
     4
 72
    16
 73
     3
  0
SEQEND
  5
43C
  8
0
 62
     9
  0
ENDBLK
  5
43F
  8
0
  0
BLOCK
  8
0
  2
E3_NODE_39_
 70
     0
 10
0.0
 20
0.0
 30
0.0
  3
E3_NODE_39_
  1

  0
POLYLINE
  5
441
  8
0
 62
     9
 66
     1
 10
0.0
 20
0.0
 30
0.0
 70
    64
 71
     6
 72
     4
  0
VERTEX
  5
442
  8
0
 10
5.75
 20
180.0410003662109
 30
44.5
 70
   192
  0
VERTEX
  5
443
  8
0
 10
-5.75
 20
199.9589996337891
 30
44.5
 70
   192
  0
VERTEX
  5
444
  8
0
 10
-11.5
 20
190.0
 30
44.5
 70
   192
  0
VERTEX
  5
445
  8
0
 10
11.5
 20
190.0
 30
44.5
 70
   192
  0
VERTEX
  5
446
  8
0
 10
5.75
 20
199.9589996337891
 30
44.5
 70
   192
  0
VERTEX
  5
447
  8
0
 10
-5.75
 20
180.0410003662109
 30
44.5
 70
   192
  0
VERTEX
  5
448
  8
0
 62
     9
 10
0.0
 20
0.0
 30
0.0
 70
   128
 71
     3
 72
     2
 73
     1
  0
VERTEX
  5
449
  8
0
 62
     9
 10
0.0
 20
0.0
 30
0.0
 70
   128
 71
     4
 72
     1
 73
     2
  0
VERTEX
  5
44A
  8
0
 62
     9
 10
0.0
 20
0.0
 30
0.0
 70
   128
 71
     2
 72
     5
 73
     4
  0
VERTEX
  5
44B
  8
0
 62
     9
 10
0.0
 20
0.0
 30
0.0
 70
   128
 71
     1
 72
     6
 73
     3
  0
SEQEND
  5
44C
  8
0
 62
     9
  0
ENDBLK
  5
44F
  8
0
  0
BLOCK
  8
0
  2
E3_NODE_40_
 70
     0
 10
0.0
 20
0.0
 30
0.0
  3
E3_NODE_40_
  1

  0
POLYLINE
  5
451
  8
0
 62
     9
 66
     1
 10
0.0
 20
0.0
 30
0.0
 70
    64
 71
    12
 72
    12
  0
VERTEX
  5
452
  8
0
 10
-5.75
 20
180.0410003662109
 30
44.5
 70
   192
  0
VERTEX
  5
453
  8
0
 10
-11.5
 20
190.0
 30
44.5
 70
   192
  0
VERTEX
  5
454
  8
0
 10
-11.5
 20
190.0
 30
41.29999923706055
 70
   192
  0
VERTEX
  5
455
  8
0
 10
5.75
 20
180.0410003662109
 30
41.29999923706055
 70
   192
  0
VERTEX
  5
456
  8
0
 10
5.75
 20
180.0410003662109
 30
44.5
 70
   192
  0
VERTEX
  5
457
  8
0
 10
11.5
 20
190.0
 30
41.29999923706055
 70
   192
  0
VERTEX
  5
458
  8
0
 10
11.5
 20
190.0
 30
44.5
 70
   192
  0
VERTEX
  5
459
  8
0
 10
5.75
 20
199.9589996337891
 30
41.29999923706055
 70
   192
  0
VERTEX
  5
45A
  8
0
 10
5.75
 20
199.9589996337891
 30
44.5
 70
   192
  0
VERTEX
  5
45B
  8
0
 10
-5.75
 20
199.9589996337891
 30
41.29999923706055
 70
   192
  0
VERTEX
  5
45C
  8
0
 10
-5.75
 20
199.9589996337891
 30
44.5
 70
   192
  0
VERTEX
  5
45D
  8
0
 10
-5.75
 20
180.0410003662109
 30
41.29999923706055
 70
   192
  0
VERTEX
  5
45E
  8
0
 62
     9
 10
0.0
 20
0.0
 30
0.0
 70
   128
 71
     3
 72
     2
 73
     1
  0
VERTEX
  5
45F
  8
0
 62
     9
 10
0.0
 20
0.0
 30
0.0
 70
   128
 71
     1
 72
     5
 73
     4
  0
VERTEX
  5
460
  8
0
 62
     9
 10
0.0
 20
0.0
 30
0.0
 70
   128
 71
     5
 72
     7
 73
     6
  0
VERTEX
  5
461
  8
0
 62
     9
 10
0.0
 20
0.0
 30
0.0
 70
   128
 71
     7
 72
     9
 73
     8
  0
VERTEX
  5
462
  8
0
 62
     9
 10
0.0
 20
0.0
 30
0.0
 70
   128
 71
     9
 72
    11
 73
    10
  0
VERTEX
  5
463
  8
0
 62
     9
 10
0.0
 20
0.0
 30
0.0
 70
   128
 71
    10
 72
    11
 73
     2
  0
VERTEX
  5
464
  8
0
 62
     9
 10
0.0
 20
0.0
 30
0.0
 70
   128
 71
     2
 72
     3
 73
    10
  0
VERTEX
  5
465
  8
0
 62
     9
 10
0.0
 20
0.0
 30
0.0
 70
   128
 71
    10
 72
     8
 73
     9
  0
VERTEX
  5
466
  8
0
 62
     9
 10
0.0
 20
0.0
 30
0.0
 70
   128
 71
     8
 72
     6
 73
     7
  0
VERTEX
  5
467
  8
0
 62
     9
 10
0.0
 20
0.0
 30
0.0
 70
   128
 71
     6
 72
     4
 73
     5
  0
VERTEX
  5
468
  8
0
 62
     9
 10
0.0
 20
0.0
 30
0.0
 70
   128
 71
     4
 72
    12
 73
     1
  0
VERTEX
  5
469
  8
0
 62
     9
 10
0.0
 20
0.0
 30
0.0
 70
   128
 71
     1
 72
    12
 73
     3
  0
SEQEND
  5
46A
  8
0
 62
     9
  0
ENDBLK
  5
46D
  8
0
  0
BLOCK
  8
0
  2
E3_NODE_41_
 70
     0
 10
0.0
 20
0.0
 30
0.0
  3
E3_NODE_41_
  1

  0
POLYLINE
  5
46F
  8
0
 62
     9
 66
     1
 10
0.0
 20
0.0
 30
0.0
 70
    64
 71
    12
 72
    12
  0
VERTEX
  5
470
  8
0
 10
11.80000019073486
 20
190.0
 30
41.0
 70
   192
  0
VERTEX
  5
471
  8
0
 10
11.5
 20
190.0
 30
41.29999923706055
 70
   192
  0
VERTEX
  5
472
  8
0
 10
5.75
 20
180.0410003662109
 30
41.29999923706055
 70
   192
  0
VERTEX
  5
473
  8
0
 10
-5.900000095367432
 20
179.781005859375
 30
41.0
 70
   192
  0
VERTEX
  5
474
  8
0
 10
5.900000095367432
 20
179.781005859375
 30
41.0
 70
   192
  0
VERTEX
  5
475
  8
0
 10
-11.80000019073486
 20
190.0
 30
41.0
 70
   192
  0
VERTEX
  5
476
  8
0
 10
-5.75
 20
180.0410003662109
 30
41.29999923706055
 70
   192
  0
VERTEX
  5
477
  8
0
 10
-11.5
 20
190.0
 30
41.29999923706055
 70
   192
  0
VERTEX
  5
478
  8
0
 10
-5.75
 20
199.9589996337891
 30
41.29999923706055
 70
   192
  0
VERTEX
  5
479
  8
0
 10
5.900000095367432
 20
200.218994140625
 30
41.0
 70
   192
  0
VERTEX
  5
47A
  8
0
 10
-5.900000095367432
 20
200.218994140625
 30
41.0
 70
   192
  0
VERTEX
  5
47B
  8
0
 10
5.75
 20
199.9589996337891
 30
41.29999923706055
 70
   192
  0
VERTEX
  5
47C
  8
0
 62
     9
 10
0.0
 20
0.0
 30
0.0
 70
   128
 71
     3
 72
     2
 73
     1
  0
VERTEX
  5
47D
  8
0
 62
     9
 10
0.0
 20
0.0
 30
0.0
 70
   128
 71
     3
 72
     5
 73
     4
  0
VERTEX
  5
47E
  8
0
 62
     9
 10
0.0
 20
0.0
 30
0.0
 70
   128
 71
     7
 72
     4
 73
     6
  0
VERTEX
  5
47F
  8
0
 62
     9
 10
0.0
 20
0.0
 30
0.0
 70
   128
 71
     9
 72
     8
 73
     6
  0
VERTEX
  5
480
  8
0
 62
     9
 10
0.0
 20
0.0
 30
0.0
 70
   128
 71
     9
 72
    11
 73
    10
  0
VERTEX
  5
481
  8
0
 62
     9
 10
0.0
 20
0.0
 30
0.0
 70
   128
 71
    12
 72
    10
 73
     1
  0
VERTEX
  5
482
  8
0
 62
     9
 10
0.0
 20
0.0
 30
0.0
 70
   128
 71
     1
 72
     2
 73
    12
  0
VERTEX
  5
483
  8
0
 62
     9
 10
0.0
 20
0.0
 30
0.0
 70
   128
 71
    10
 72
    12
 73
     9
  0
VERTEX
  5
484
  8
0
 62
     9
 10
0.0
 20
0.0
 30
0.0
 70
   128
 71
     6
 72
    11
 73
     9
  0
VERTEX
  5
485
  8
0
 62
     9
 10
0.0
 20
0.0
 30
0.0
 70
   128
 71
     6
 72
     8
 73
     7
  0
VERTEX
  5
486
  8
0
 62
     9
 10
0.0
 20
0.0
 30
0.0
 70
   128
 71
     4
 72
     7
 73
     3
  0
VERTEX
  5
487
  8
0
 62
     9
 10
0.0
 20
0.0
 30
0.0
 70
   128
 71
     1
 72
     5
 73
     3
  0
SEQEND
  5
488
  8
0
 62
     9
  0
ENDBLK
  5
48B
  8
0
  0
BLOCK
  8
0
  2
E3_NODE_42_
 70
     0
 10
0.0
 20
0.0
 30
0.0
  3
E3_NODE_42_
  1

  0
POLYLINE
  5
48D
  8
0
 62
     9
 66
     1
 10
0.0
 20
0.0
 30
0.0
 70
    64
 71
    12
 72
    12
  0
VERTEX
  5
48E
  8
0
 10
-11.80000019073486
 20
190.0
 30
41.0
 70
   192
  0
VERTEX
  5
48F
  8
0
 10
-10.56900024414062
 20
190.0
 30
17.51899909973145
 70
   192
  0
VERTEX
  5
490
  8
0
 10
-5.284999847412109
 20
180.8470001220703
 30
17.51899909973145
 70
   192
  0
VERTEX
  5
491
  8
0
 10
5.900000095367432
 20
179.781005859375
 30
41.0
 70
   192
  0
VERTEX
  5
492
  8
0
 10
-5.900000095367432
 20
179.781005859375
 30
41.0
 70
   192
  0
VERTEX
  5
493
  8
0
 10
11.80000019073486
 20
190.0
 30
41.0
 70
   192
  0
VERTEX
  5
494
  8
0
 10
5.284999847412109
 20
180.8470001220703
 30
17.51899909973145
 70
   192
  0
VERTEX
  5
495
  8
0
 10
10.56900024414062
 20
190.0
 30
17.51899909973145
 70
   192
  0
VERTEX
  5
496
  8
0
 10
5.284999847412109
 20
199.1529998779297
 30
17.51899909973145
 70
   192
  0
VERTEX
  5
497
  8
0
 10
-5.900000095367432
 20
200.218994140625
 30
41.0
 70
   192
  0
VERTEX
  5
498
  8
0
 10
5.900000095367432
 20
200.218994140625
 30
41.0
 70
   192
  0
VERTEX
  5
499
  8
0
 10
-5.284999847412109
 20
199.1529998779297
 30
17.51899909973145
 70
   192
  0
VERTEX
  5
49A
  8
0
 62
     9
 10
0.0
 20
0.0
 30
0.0
 70
   128
 71
     3
 72
     2
 73
     1
  0
VERTEX
  5
49B
  8
0
 62
     9
 10
0.0
 20
0.0
 30
0.0
 70
   128
 71
     3
 72
     5
 73
     4
  0
VERTEX
  5
49C
  8
0
 62
     9
 10
0.0
 20
0.0
 30
0.0
 70
   128
 71
     7
 72
     4
 73
     6
  0
VERTEX
  5
49D
  8
0
 62
     9
 10
0.0
 20
0.0
 30
0.0
 70
   128
 71
     9
 72
     8
 73
     6
  0
VERTEX
  5
49E
  8
0
 62
     9
 10
0.0
 20
0.0
 30
0.0
 70
   128
 71
     9
 72
    11
 73
    10
  0
VERTEX
  5
49F
  8
0
 62
     9
 10
0.0
 20
0.0
 30
0.0
 70
   128
 71
     2
 72
    12
 73
    10
  0
VERTEX
  5
4A0
  8
0
 62
     9
 10
0.0
 20
0.0
 30
0.0
 70
   128
 71
    10
 72
     1
 73
     2
  0
VERTEX
  5
4A1
  8
0
 62
     9
 10
0.0
 20
0.0
 30
0.0
 70
   128
 71
    10
 72
    12
 73
     9
  0
VERTEX
  5
4A2
  8
0
 62
     9
 10
0.0
 20
0.0
 30
0.0
 70
   128
 71
     6
 72
    11
 73
     9
  0
VERTEX
  5
4A3
  8
0
 62
     9
 10
0.0
 20
0.0
 30
0.0
 70
   128
 71
     6
 72
     8
 73
     7
  0
VERTEX
  5
4A4
  8
0
 62
     9
 10
0.0
 20
0.0
 30
0.0
 70
   128
 71
     4
 72
     7
 73
     3
  0
VERTEX
  5
4A5
  8
0
 62
     9
 10
0.0
 20
0.0
 30
0.0
 70
   128
 71
     1
 72
     5
 73
     3
  0
SEQEND
  5
4A6
  8
0
 62
     9
  0
ENDBLK
  5
4A9
  8
0
  0
BLOCK
  8
0
  2
E3_NODE_43_
 70
     0
 10
0.0
 20
0.0
 30
0.0
  3
E3_NODE_43_
  1

  0
POLYLINE
  5
4AB
  8
0
 62
     9
 66
     1
 10
0.0
 20
0.0
 30
0.0
 70
    64
 71
    14
 72
    14
  0
VERTEX
  5
4AC
  8
0
 10
17.75
 20
-155.0
 30
23.70000076293945
 70
   192
  0
VERTEX
  5
4AD
  8
0
 10
11.06700038909912
 20
-168.8780059814453
 30
23.70000076293945
 70
   192
  0
VERTEX
  5
4AE
  8
0
 10
11.06700038909912
 20
-168.8780059814453
 30
4.599999904632568
 70
   192
  0
VERTEX
  5
4AF
  8
0
 10
17.75
 20
-155.0
 30
4.599999904632568
 70
   192
  0
VERTEX
  5
4B0
  8
0
 10
-3.950000047683716
 20
-172.3049926757812
 30
23.70000076293945
 70
   192
  0
VERTEX
  5
4B1
  8
0
 10
-3.950000047683716
 20
-172.3049926757812
 30
4.599999904632568
 70
   192
  0
VERTEX
  5
4B2
  8
0
 10
-15.99199962615967
 20
-162.7010040283203
 30
23.70000076293945
 70
   192
  0
VERTEX
  5
4B3
  8
0
 10
-15.99199962615967
 20
-162.7010040283203
 30
4.599999904632568
 70
   192
  0
VERTEX
  5
4B4
  8
0
 10
-15.99199962615967
 20
-147.2989959716797
 30
23.70000076293945
 70
   192
  0
VERTEX
  5
4B5
  8
0
 10
-15.99199962615967
 20
-147.2989959716797
 30
4.599999904632568
 70
   192
  0
VERTEX
  5
4B6
  8
0
 10
-3.950000047683716
 20
-137.6950073242188
 30
23.70000076293945
 70
   192
  0
VERTEX
  5
4B7
  8
0
 10
-3.950000047683716
 20
-137.6950073242188
 30
4.599999904632568
 70
   192
  0
VERTEX
  5
4B8
  8
0
 10
11.06700038909912
 20
-141.1219940185547
 30
23.70000076293945
 70
   192
  0
VERTEX
  5
4B9
  8
0
 10
11.06700038909912
 20
-141.1219940185547
 30
4.599999904632568
 70
   192
  0
VERTEX
  5
4BA
  8
0
 62
     9
 10
0.0
 20
0.0
 30
0.0
 70
   128
 71
     3
 72
     2
 73
     1
  0
VERTEX
  5
4BB
  8
0
 62
     9
 10
0.0
 20
0.0
 30
0.0
 70
   128
 71
     4
 72
     3
 73
     1
  0
VERTEX
  5
4BC
  8
0
 62
     9
 10
0.0
 20
0.0
 30
0.0
 70
   128
 71
     6
 72
     5
 73
     2
  0
VERTEX
  5
4BD
  8
0
 62
     9
 10
0.0
 20
0.0
 30
0.0
 70
   128
 71
     3
 72
     6
 73
     2
  0
VERTEX
  5
4BE
  8
0
 62
     9
 10
0.0
 20
0.0
 30
0.0
 70
   128
 71
     8
 72
     7
 73
     5
  0
VERTEX
  5
4BF
  8
0
 62
     9
 10
0.0
 20
0.0
 30
0.0
 70
   128
 71
     6
 72
     8
 73
     5
  0
VERTEX
  5
4C0
  8
0
 62
     9
 10
0.0
 20
0.0
 30
0.0
 70
   128
 71
    10
 72
     9
 73
     7
  0
VERTEX
  5
4C1
  8
0
 62
     9
 10
0.0
 20
0.0
 30
0.0
 70
   128
 71
     8
 72
    10
 73
     7
  0
VERTEX
  5
4C2
  8
0
 62
     9
 10
0.0
 20
0.0
 30
0.0
 70
   128
 71
    12
 72
    11
 73
     9
  0
VERTEX
  5
4C3
  8
0
 62
     9
 10
0.0
 20
0.0
 30
0.0
 70
   128
 71
    10
 72
    12
 73
     9
  0
VERTEX
  5
4C4
  8
0
 62
     9
 10
0.0
 20
0.0
 30
0.0
 70
   128
 71
    14
 72
    13
 73
    11
  0
VERTEX
  5
4C5
  8
0
 62
     9
 10
0.0
 20
0.0
 30
0.0
 70
   128
 71
    12
 72
    14
 73
    11
  0
VERTEX
  5
4C6
  8
0
 62
     9
 10
0.0
 20
0.0
 30
0.0
 70
   128
 71
     4
 72
     1
 73
    13
  0
VERTEX
  5
4C7
  8
0
 62
     9
 10
0.0
 20
0.0
 30
0.0
 70
   128
 71
    14
 72
     4
 73
    13
  0
SEQEND
  5
4C8
  8
0
 62
     9
  0
ENDBLK
  5
4CB
  8
0
  0
BLOCK
  8
0
  2
E3_NODE_44_
 70
     0
 10
0.0
 20
0.0
 30
0.0
  3
E3_NODE_44_
  1

  0
POLYLINE
  5
4CD
  8
0
 62
     9
 66
     1
 10
0.0
 20
0.0
 30
0.0
 70
    64
 71
    31
 72
    35
  0
VERTEX
  5
4CE
  8
0
 10
-6.651000022888184
 20
322.9769897460938
 30
90.6500015258789
 70
   192
  0
VERTEX
  5
4CF
  8
0
 10
0.9380000233650208
 20
322.218994140625
 30
90.6500015258789
 70
   192
  0
VERTEX
  5
4D0
  8
0
 10
0.906000018119812
 20
322.6929931640625
 30
90.83499908447266
 70
   192
  0
VERTEX
  5
4D1
  8
0
 10
-16.81399917602539
 20
328.9020080566406
 30
90.6500015258789
 70
   192
  0
VERTEX
  5
4D2
  8
0
 10
-6.526000022888184
 20
323.4349975585938
 30
90.83499908447266
 70
   192
  0
VERTEX
  5
4D3
  8
0
 10
-16.47699928283691
 20
329.2369995117188
 30
90.83499908447266
 70
   192
  0
VERTEX
  5
4D4
  8
0
 10
-22.2189998626709
 20
339.2229919433594
 30
90.83499908447266
 70
   192
  0
VERTEX
  5
4D5
  8
0
 10
-22.6870002746582
 20
350.864013671875
 30
90.6500015258789
 70
   192
  0
VERTEX
  5
4D6
  8
0
 10
-22.67799949645996
 20
339.1000061035156
 30
90.6500015258789
 70
   192
  0
VERTEX
  5
4D7
  8
0
 10
-16.84000015258789
 20
361.0710144042969
 30
90.6500015258789
 70
   192
  0
VERTEX
  5
4D8
  8
0
 10
-22.22800064086914
 20
350.7420043945312
 30
90.83499908447266
 70
   192
  0
VERTEX
  5
4D9
  8
0
 10
-6.686999797821045
 20
367.0130004882812
 30
90.6500015258789
 70
   192
  0
VERTEX
  5
4DA
  8
0
 10
-16.50200080871582
 20
360.7369995117188
 30
90.83499908447266
 70
   192
  0
VERTEX
  5
4DB
  8
0
 10
-6.560999870300293
 20
366.5549926757812
 30
90.83499908447266
 70
   192
  0
VERTEX
  5
4DC
  8
0
 10
0.8700000047683716
 20
367.3089904785156
 30
90.83499908447266
 70
   192
  0
VERTEX
  5
4DD
  8
0
 10
0.8920000195503235
 20
367.6499938964844
 30
90.74700164794922
 70
   192
  0
VERTEX
  5
4DE
  8
0
 10
0.8989999890327454
 20
367.7479858398438
 30
90.62200164794922
 70
   192
  0
VERTEX
  5
4DF
  8
0
 10
-0.5979999899864197
 20
367.8510131835938
 30
90.1969985961914
 70
   192
  0
VERTEX
  5
4E0
  8
0
 10
0.9139999747276306
 20
367.9819946289062
 30
90.3239974975586
 70
   192
  0
VERTEX
  5
4E1
  8
0
 10
0.9160000085830688
 20
368.0050048828125
 30
90.1969985961914
 70
   192
  0
VERTEX
  5
4E2
  8
0
 10
-16.90900039672852
 20
361.2799987792969
 30
90.1969985961914
 70
   192
  0
VERTEX
  5
4E3
  8
0
 10
-6.745999813079834
 20
367.2269897460938
 30
90.1969985961914
 70
   192
  0
VERTEX
  5
4E4
  8
0
 10
-22.90200042724609
 20
350.9209899902344
 30
90.1969985961914
 70
   192
  0
VERTEX
  5
4E5
  8
0
 10
-22.89699935913086
 20
345.0010070800781
 30
90.1969985961914
 70
   192
  0
VERTEX
  5
4E6
  8
0
 10
-16.97100067138672
 20
328.7460021972656
 30
90.1969985961914
 70
   192
  0
VERTEX
  5
4E7
  8
0
 10
-16.91300010681152
 20
328.7120056152344
 30
90.1969985961914
 70
   192
  0
VERTEX
  5
4E8
  8
0
 10
-6.710000038146973
 20
322.7630004882812
 30
90.1969985961914
 70
   192
  0
VERTEX
  5
4E9
  8
0
 10
-0.5979999899864197
 20
322.1520080566406
 30
90.1969985961914
 70
   192
  0
VERTEX
  5
4EA
  8
0
 10
0.953000009059906
 20
321.9970092773438
 30
90.1969985961914
 70
   192
  0
VERTEX
  5
4EB
  8
0
 10
-22.89299964904785
 20
339.0429992675781
 30
90.1969985961914
 70
   192
  0
VERTEX
  5
4EC
  8
0
 10
-16.99799919128418
 20
361.2279968261719
 30
90.1969985961914
 70
   192
  0
VERTEX
  5
4ED
  8
0
 62
     9
 10
0.0
 20
0.0
 30
0.0
 70
   128
 71
     3
 72
     2
 73
     1
  0
VERTEX
  5
4EE
  8
0
 62
     9
 10
0.0
 20
0.0
 30
0.0
 70
   128
 71
     5
 72
     1
 73
     4
  0
VERTEX
  5
4EF
  8
0
 62
     9
 10
0.0
 20
0.0
 30
0.0
 70
   128
 71
     7
 72
     6
 73
     4
  0
VERTEX
  5
4F0
  8
0
 62
     9
 10
0.0
 20
0.0
 30
0.0
 70
   128
 71
     7
 72
     9
 73
     8
  0
VERTEX
  5
4F1
  8
0
 62
     9
 10
0.0
 20
0.0
 30
0.0
 70
   128
 71
    11
 72
     8
 73
    10
  0
VERTEX
  5
4F2
  8
0
 62
     9
 10
0.0
 20
0.0
 30
0.0
 70
   128
 71
    13
 72
    10
 73
    12
  0
VERTEX
  5
4F3
  8
0
 62
     9
 10
0.0
 20
0.0
 30
0.0
 70
   128
 71
    15
 72
    14
 73
    12
  0
VERTEX
  5
4F4
  8
0
 62
     9
 10
0.0
 20
0.0
 30
0.0
 70
   128
 71
    12
 72
    16
 73
    15
  0
VERTEX
  5
4F5
  8
0
 62
     9
 10
0.0
 20
0.0
 30
0.0
 70
   128
 71
    18
 72
    17
 73
    12
  0
VERTEX
  5
4F6
  8
0
 62
     9
 10
0.0
 20
0.0
 30
0.0
 70
   128
 71
    19
 72
    17
 73
    18
  0
VERTEX
  5
4F7
  8
0
 62
     9
 10
0.0
 20
0.0
 30
0.0
 70
   128
 71
    18
 72
    20
 73
    19
  0
VERTEX
  5
4F8
  8
0
 62
     9
 10
0.0
 20
0.0
 30
0.0
 70
   128
 71
    12
 72
    10
 73
    21
  0
VERTEX
  5
4F9
  8
0
 62
     9
 10
0.0
 20
0.0
 30
0.0
 70
   128
 71
    21
 72
    22
 73
    12
  0
VERTEX
  5
4FA
  8
0
 62
     9
 10
0.0
 20
0.0
 30
0.0
 70
   128
 71
    10
 72
     8
 73
    23
  0
VERTEX
  5
4FB
  8
0
 62
     9
 10
0.0
 20
0.0
 30
0.0
 70
   128
 71
    24
 72
     8
 73
     9
  0
VERTEX
  5
4FC
  8
0
 62
     9
 10
0.0
 20
0.0
 30
0.0
 70
   128
 71
    24
 72
    23
 73
     8
  0
VERTEX
  5
4FD
  8
0
 62
     9
 10
0.0
 20
0.0
 30
0.0
 70
   128
 71
     9
 72
     4
 73
    25
  0
VERTEX
  5
4FE
  8
0
 62
     9
 10
0.0
 20
0.0
 30
0.0
 70
   128
 71
     1
 72
    27
 73
    26
  0
VERTEX
  5
4FF
  8
0
 62
     9
 10
0.0
 20
0.0
 30
0.0
 70
   128
 71
    26
 72
    25
 73
     4
  0
VERTEX
  5
500
  8
0
 62
     9
 10
0.0
 20
0.0
 30
0.0
 70
   128
 71
    28
 72
    27
 73
     1
  0
VERTEX
  5
501
  8
0
 62
     9
 10
0.0
 20
0.0
 30
0.0
 70
   128
 71
     1
 72
     2
 73
    28
  0
VERTEX
  5
502
  8
0
 62
     9
 10
0.0
 20
0.0
 30
0.0
 70
   128
 71
     2
 72
    29
 73
    28
  0
VERTEX
  5
503
  8
0
 62
     9
 10
0.0
 20
0.0
 30
0.0
 70
   128
 71
    26
 72
     4
 73
     1
  0
VERTEX
  5
504
  8
0
 62
     9
 10
0.0
 20
0.0
 30
0.0
 70
   128
 71
    25
 72
    30
 73
     9
  0
VERTEX
  5
505
  8
0
 62
     9
 10
0.0
 20
0.0
 30
0.0
 70
   128
 71
     9
 72
    30
 73
    24
  0
VERTEX
  5
506
  8
0
 62
     9
 10
0.0
 20
0.0
 30
0.0
 70
   128
 71
    23
 72
    31
 73
    10
  0
VERTEX
  5
507
  8
0
 62
     9
 10
0.0
 20
0.0
 30
0.0
 70
   128
 71
    10
 72
    31
 73
    21
  0
VERTEX
  5
508
  8
0
 62
     9
 10
0.0
 20
0.0
 30
0.0
 70
   128
 71
    12
 72
    22
 73
    18
  0
VERTEX
  5
509
  8
0
 62
     9
 10
0.0
 20
0.0
 30
0.0
 70
   128
 71
    12
 72
    17
 73
    16
  0
VERTEX
  5
50A
  8
0
 62
     9
 10
0.0
 20
0.0
 30
0.0
 70
   128
 71
    12
 72
    14
 73
    13
  0
VERTEX
  5
50B
  8
0
 62
     9
 10
0.0
 20
0.0
 30
0.0
 70
   128
 71
    10
 72
    13
 73
    11
  0
VERTEX
  5
50C
  8
0
 62
     9
 10
0.0
 20
0.0
 30
0.0
 70
   128
 71
     8
 72
    11
 73
     7
  0
VERTEX
  5
50D
  8
0
 62
     9
 10
0.0
 20
0.0
 30
0.0
 70
   128
 71
     4
 72
     9
 73
     7
  0
VERTEX
  5
50E
  8
0
 62
     9
 10
0.0
 20
0.0
 30
0.0
 70
   128
 71
     4
 72
     6
 73
     5
  0
VERTEX
  5
50F
  8
0
 62
     9
 10
0.0
 20
0.0
 30
0.0
 70
   128
 71
     1
 72
     5
 73
     3
  0
SEQEND
  5
510
  8
0
 62
     9
  0
ENDBLK
  5
513
  8
0
  0
BLOCK
  8
0
  2
E3_NODE_45_
 70
     0
 10
0.0
 20
0.0
 30
0.0
  3
E3_NODE_45_
  1

  0
POLYLINE
  5
515
  8
0
 62
     9
 66
     1
 10
0.0
 20
0.0
 30
0.0
 70
    64
 71
    45
 72
    45
  0
VERTEX
  5
516
  8
0
 10
-0.5979999899864197
 20
322.1520080566406
 30
90.1969985961914
 70
   192
  0
VERTEX
  5
517
  8
0
 10
-15.64799976348877
 20
324.8070068359375
 30
66.22599792480469
 70
   192
  0
VERTEX
  5
518
  8
0
 10
-1.33299994468689
 20
319.0490112304688
 30
57.28099822998047
 70
   192
  0
VERTEX
  5
519
  8
0
 10
-6.710000038146973
 20
322.7630004882812
 30
90.1969985961914
 70
   192
  0
VERTEX
  5
51A
  8
0
 10
-16.91300010681152
 20
328.7120056152344
 30
90.1969985961914
 70
   192
  0
VERTEX
  5
51B
  8
0
 10
-17.61700057983398
 20
327.7630004882812
 30
67.45700073242188
 70
   192
  0
VERTEX
  5
51C
  8
0
 10
-16.97100067138672
 20
328.7460021972656
 30
90.1969985961914
 70
   192
  0
VERTEX
  5
51D
  8
0
 10
-24.19599914550781
 20
337.6369934082031
 30
71.56800079345703
 70
   192
  0
VERTEX
  5
51E
  8
0
 10
-22.89299964904785
 20
339.0429992675781
 30
90.1969985961914
 70
   192
  0
VERTEX
  5
51F
  8
0
 10
-24.09499931335449
 20
344.9830017089844
 30
71.50499725341797
 70
   192
  0
VERTEX
  5
520
  8
0
 10
-22.89699935913086
 20
345.0010070800781
 30
90.1969985961914
 70
   192
  0
VERTEX
  5
521
  8
0
 10
-22.90200042724609
 20
350.9209899902344
 30
90.1969985961914
 70
   192
  0
VERTEX
  5
522
  8
0
 10
-16.99799919128418
 20
361.2279968261719
 30
90.1969985961914
 70
   192
  0
VERTEX
  5
523
  8
0
 10
-17.54500007629395
 20
362.1579895019531
 30
67.41200256347656
 70
   192
  0
VERTEX
  5
524
  8
0
 10
-23.98500061035156
 20
353.0450134277344
 30
71.43599700927734
 70
   192
  0
VERTEX
  5
525
  8
0
 10
-16.90900039672852
 20
361.2799987792969
 30
90.1969985961914
 70
   192
  0
VERTEX
  5
526
  8
0
 10
-6.745999813079834
 20
367.2269897460938
 30
90.1969985961914
 70
   192
  0
VERTEX
  5
527
  8
0
 10
-15.08699989318848
 20
365.635986328125
 30
65.8759994506836
 70
   192
  0
VERTEX
  5
528
  8
0
 10
-0.5979999899864197
 20
367.8510131835938
 30
90.1969985961914
 70
   192
  0
VERTEX
  5
529
  8
0
 10
-0.6190000176429749
 20
371.0
 30
56.83499908447266
 70
   192
  0
VERTEX
  5
52A
  8
0
 10
7.827000141143799
 20
367.1119995117188
 30
83.23999786376953
 70
   192
  0
VERTEX
  5
52B
  8
0
 10
11.1899995803833
 20
365.572998046875
 30
82.66000366210938
 70
   192
  0
VERTEX
  5
52C
  8
0
 10
5.067999839782715
 20
367.875
 30
84.35800170898438
 70
   192
  0
VERTEX
  5
52D
  8
0
 10
6.162000179290771
 20
367.6229858398438
 30
83.83799743652344
 70
   192
  0
VERTEX
  5
52E
  8
0
 10
17.76600074768066
 20
363.385009765625
 30
56.83499908447266
 70
   192
  0
VERTEX
  5
52F
  8
0
 10
4.059000015258789
 20
368.0360107421875
 30
85.0979995727539
 70
   192
  0
VERTEX
  5
530
  8
0
 10
0.9160000085830688
 20
368.0050048828125
 30
90.1969985961914
 70
   192
  0
VERTEX
  5
531
  8
0
 10
3.359999895095825
 20
368.0360107421875
 30
86.55699920654297
 70
   192
  0
VERTEX
  5
532
  8
0
 10
3.891000032424927
 20
368.0459899902344
 30
85.36000061035156
 70
   192
  0
VERTEX
  5
533
  8
0
 10
25.38100051879883
 20
345.0
 30
56.83499908447266
 70
   192
  0
VERTEX
  5
534
  8
0
 10
19.90900039672852
 20
356.8880004882812
 30
82.66000366210938
 70
   192
  0
VERTEX
  5
535
  8
0
 10
15.58100032806396
 20
361.197998046875
 30
82.66000366210938
 70
   192
  0
VERTEX
  5
536
  8
0
 10
23.10199928283691
 20
345.0020141601562
 30
82.66000366210938
 70
   192
  0
VERTEX
  5
537
  8
0
 10
23.10199928283691
 20
345.0
 30
82.66000366210938
 70
   192
  0
VERTEX
  5
538
  8
0
 10
19.9109992980957
 20
333.1159973144531
 30
82.66000366210938
 70
   192
  0
VERTEX
  5
539
  8
0
 10
17.76600074768066
 20
326.614990234375
 30
56.83499908447266
 70
   192
  0
VERTEX
  5
53A
  8
0
 10
-0.6190000176429749
 20
319.0
 30
56.83499908447266
 70
   192
  0
VERTEX
  5
53B
  8
0
 10
3.901999950408936
 20
321.9559936523438
 30
85.36000061035156
 70
   192
  0
VERTEX
  5
53C
  8
0
 10
0.9779999852180481
 20
321.9970092773438
 30
90.1760025024414
 70
   192
  0
VERTEX
  5
53D
  8
0
 10
4.116000175476074
 20
321.9710083007812
 30
85.04499816894531
 70
   192
  0
VERTEX
  5
53E
  8
0
 10
11.19299983978271
 20
324.4289855957031
 30
82.66000366210938
 70
   192
  0
VERTEX
  5
53F
  8
0
 10
15.58100032806396
 20
328.802001953125
 30
82.66000366210938
 70
   192
  0
VERTEX
  5
540
  8
0
 10
8.20300006866455
 20
323.0249938964844
 30
83.13099670410156
 70
   192
  0
VERTEX
  5
541
  8
0
 10
4.894000053405762
 20
322.0920104980469
 30
84.46199798583984
 70
   192
  0
VERTEX
  5
542
  8
0
 10
0.953000009059906
 20
321.9970092773438
 30
90.1969985961914
 70
   192
  0
VERTEX
  5
543
  8
0
 62
     9
 10
0.0
 20
0.0
 30
0.0
 70
   128
 71
     3
 72
     2
 73
     1
  0
VERTEX
  5
544
  8
0
 62
     9
 10
0.0
 20
0.0
 30
0.0
 70
   128
 71
     6
 72
     5
 73
     4
  0
VERTEX
  5
545
  8
0
 62
     9
 10
0.0
 20
0.0
 30
0.0
 70
   128
 71
     4
 72
     1
 73
     2
  0
VERTEX
  5
546
  8
0
 62
     9
 10
0.0
 20
0.0
 30
0.0
 70
   128
 71
     4
 72
     2
 73
     6
  0
VERTEX
  5
547
  8
0
 62
     9
 10
0.0
 20
0.0
 30
0.0
 70
   128
 71
     7
 72
     5
 73
     6
  0
VERTEX
  5
548
  8
0
 62
     9
 10
0.0
 20
0.0
 30
0.0
 70
   128
 71
     6
 72
     8
 73
     7
  0
VERTEX
  5
549
  8
0
 62
     9
 10
0.0
 20
0.0
 30
0.0
 70
   128
 71
     8
 72
     9
 73
     7
  0
VERTEX
  5
54A
  8
0
 62
     9
 10
0.0
 20
0.0
 30
0.0
 70
   128
 71
     9
 72
     8
 73
    10
  0
VERTEX
  5
54B
  8
0
 62
     9
 10
0.0
 20
0.0
 30
0.0
 70
   128
 71
    10
 72
    11
 73
     9
  0
VERTEX
  5
54C
  8
0
 62
     9
 10
0.0
 20
0.0
 30
0.0
 70
   128
 71
    12
 72
    11
 73
    10
  0
VERTEX
  5
54D
  8
0
 62
     9
 10
0.0
 20
0.0
 30
0.0
 70
   128
 71
    15
 72
    14
 73
    13
  0
VERTEX
  5
54E
  8
0
 62
     9
 10
0.0
 20
0.0
 30
0.0
 70
   128
 71
    13
 72
    12
 73
    15
  0
VERTEX
  5
54F
  8
0
 62
     9
 10
0.0
 20
0.0
 30
0.0
 70
   128
 71
    14
 72
    16
 73
    13
  0
VERTEX
  5
550
  8
0
 62
     9
 10
0.0
 20
0.0
 30
0.0
 70
   128
 71
    14
 72
    18
 73
    17
  0
VERTEX
  5
551
  8
0
 62
     9
 10
0.0
 20
0.0
 30
0.0
 70
   128
 71
    17
 72
    16
 73
    14
  0
VERTEX
  5
552
  8
0
 62
     9
 10
0.0
 20
0.0
 30
0.0
 70
   128
 71
    18
 72
    20
 73
    19
  0
VERTEX
  5
553
  8
0
 62
     9
 10
0.0
 20
0.0
 30
0.0
 70
   128
 71
    22
 72
    21
 73
    20
  0
VERTEX
  5
554
  8
0
 62
     9
 10
0.0
 20
0.0
 30
0.0
 70
   128
 71
    24
 72
    23
 73
    20
  0
VERTEX
  5
555
  8
0
 62
     9
 10
0.0
 20
0.0
 30
0.0
 70
   128
 71
    20
 72
    21
 73
    24
  0
VERTEX
  5
556
  8
0
 62
     9
 10
0.0
 20
0.0
 30
0.0
 70
   128
 71
    20
 72
    25
 73
    22
  0
VERTEX
  5
557
  8
0
 62
     9
 10
0.0
 20
0.0
 30
0.0
 70
   128
 71
    23
 72
    26
 73
    20
  0
VERTEX
  5
558
  8
0
 62
     9
 10
0.0
 20
0.0
 30
0.0
 70
   128
 71
    28
 72
    27
 73
    19
  0
VERTEX
  5
559
  8
0
 62
     9
 10
0.0
 20
0.0
 30
0.0
 70
   128
 71
    19
 72
    20
 73
    28
  0
VERTEX
  5
55A
  8
0
 62
     9
 10
0.0
 20
0.0
 30
0.0
 70
   128
 71
    20
 72
    29
 73
    28
  0
VERTEX
  5
55B
  8
0
 62
     9
 10
0.0
 20
0.0
 30
0.0
 70
   128
 71
    20
 72
    26
 73
    29
  0
VERTEX
  5
55C
  8
0
 62
     9
 10
0.0
 20
0.0
 30
0.0
 70
   128
 71
    31
 72
    25
 73
    30
  0
VERTEX
  5
55D
  8
0
 62
     9
 10
0.0
 20
0.0
 30
0.0
 70
   128
 71
    31
 72
    32
 73
    25
  0
VERTEX
  5
55E
  8
0
 62
     9
 10
0.0
 20
0.0
 30
0.0
 70
   128
 71
    30
 72
    33
 73
    31
  0
VERTEX
  5
55F
  8
0
 62
     9
 10
0.0
 20
0.0
 30
0.0
 70
   128
 71
    35
 72
    34
 73
    30
  0
VERTEX
  5
560
  8
0
 62
     9
 10
0.0
 20
0.0
 30
0.0
 70
   128
 71
    30
 72
    36
 73
    35
  0
VERTEX
  5
561
  8
0
 62
     9
 10
0.0
 20
0.0
 30
0.0
 70
   128
 71
    38
 72
    37
 73
     1
  0
VERTEX
  5
562
  8
0
 62
     9
 10
0.0
 20
0.0
 30
0.0
 70
   128
 71
     1
 72
    39
 73
    38
  0
VERTEX
  5
563
  8
0
 62
     9
 10
0.0
 20
0.0
 30
0.0
 70
   128
 71
    38
 72
    40
 73
    37
  0
VERTEX
  5
564
  8
0
 62
     9
 10
0.0
 20
0.0
 30
0.0
 70
   128
 71
    41
 72
    36
 73
    37
  0
VERTEX
  5
565
  8
0
 62
     9
 10
0.0
 20
0.0
 30
0.0
 70
   128
 71
    41
 72
    42
 73
    36
  0
VERTEX
  5
566
  8
0
 62
     9
 10
0.0
 20
0.0
 30
0.0
 70
   128
 71
    37
 72
    43
 73
    41
  0
VERTEX
  5
567
  8
0
 62
     9
 10
0.0
 20
0.0
 30
0.0
 70
   128
 71
    37
 72
    44
 73
    43
  0
VERTEX
  5
568
  8
0
 62
     9
 10
0.0
 20
0.0
 30
0.0
 70
   128
 71
    37
 72
    40
 73
    44
  0
VERTEX
  5
569
  8
0
 62
     9
 10
0.0
 20
0.0
 30
0.0
 70
   128
 71
     1
 72
    45
 73
    39
  0
VERTEX
  5
56A
  8
0
 62
     9
 10
0.0
 20
0.0
 30
0.0
 70
   128
 71
    36
 72
    42
 73
    35
  0
VERTEX
  5
56B
  8
0
 62
     9
 10
0.0
 20
0.0
 30
0.0
 70
   128
 71
    30
 72
    34
 73
    33
  0
VERTEX
  5
56C
  8
0
 62
     9
 10
0.0
 20
0.0
 30
0.0
 70
   128
 71
    25
 72
    32
 73
    22
  0
VERTEX
  5
56D
  8
0
 62
     9
 10
0.0
 20
0.0
 30
0.0
 70
   128
 71
    18
 72
    19
 73
    17
  0
VERTEX
  5
56E
  8
0
 62
     9
 10
0.0
 20
0.0
 30
0.0
 70
   128
 71
    10
 72
    15
 73
    12
  0
VERTEX
  5
56F
  8
0
 62
     9
 10
0.0
 20
0.0
 30
0.0
 70
   128
 71
     1
 72
    37
 73
     3
  0
SEQEND
  5
570
  8
0
 62
     9
  0
ENDBLK
  5
573
  8
0
  0
BLOCK
  8
0
  2
E3_NODE_46_
 70
     0
 10
0.0
 20
0.0
 30
0.0
  3
E3_NODE_46_
  1

  0
POLYLINE
  5
575
  8
0
 62
     9
 66
     1
 10
0.0
 20
0.0
 30
0.0
 70
    64
 71
    10
 72
     8
  0
VERTEX
  5
576
  8
0
 10
-0.6190000176429749
 20
319.0
 30
56.83499908447266
 70
   192
  0
VERTEX
  5
577
  8
0
 10
-17.54500007629395
 20
362.1579895019531
 30
67.41200256347656
 70
   192
  0
VERTEX
  5
578
  8
0
 10
-15.08699989318848
 20
365.635986328125
 30
65.8759994506836
 70
   192
  0
VERTEX
  5
579
  8
0
 10
-24.09499931335449
 20
344.9830017089844
 30
71.50499725341797
 70
   192
  0
VERTEX
  5
57A
  8
0
 10
-23.98500061035156
 20
353.0450134277344
 30
71.43599700927734
 70
   192
  0
VERTEX
  5
57B
  8
0
 10
-17.61700057983398
 20
327.7630004882812
 30
67.45700073242188
 70
   192
  0
VERTEX
  5
57C
  8
0
 10
-1.33299994468689
 20
319.0490112304688
 30
57.28099822998047
 70
   192
  0
VERTEX
  5
57D
  8
0
 10
-15.64799976348877
 20
324.8070068359375
 30
66.22599792480469
 70
   192
  0
VERTEX
  5
57E
  8
0
 10
-24.19599914550781
 20
337.6369934082031
 30
71.56800079345703
 70
   192
  0
VERTEX
  5
57F
  8
0
 10
-0.6190000176429749
 20
371.0
 30
56.83499908447266
 70
   192
  0
VERTEX
  5
580
  8
0
 62
     9
 10
0.0
 20
0.0
 30
0.0
 70
   128
 71
     3
 72
     2
 73
     1
  0
VERTEX
  5
581
  8
0
 62
     9
 10
0.0
 20
0.0
 30
0.0
 70
   128
 71
     5
 72
     4
 73
     1
  0
VERTEX
  5
582
  8
0
 62
     9
 10
0.0
 20
0.0
 30
0.0
 70
   128
 71
     6
 72
     1
 73
     4
  0
VERTEX
  5
583
  8
0
 62
     9
 10
0.0
 20
0.0
 30
0.0
 70
   128
 71
     7
 72
     1
 73
     6
  0
VERTEX
  5
584
  8
0
 62
     9
 10
0.0
 20
0.0
 30
0.0
 70
   128
 71
     1
 72
     2
 73
     5
  0
VERTEX
  5
585
  8
0
 62
     9
 10
0.0
 20
0.0
 30
0.0
 70
   128
 71
     6
 72
     8
 73
     7
  0
VERTEX
  5
586
  8
0
 62
     9
 10
0.0
 20
0.0
 30
0.0
 70
   128
 71
     4
 72
     9
 73
     6
  0
VERTEX
  5
587
  8
0
 62
     9
 10
0.0
 20
0.0
 30
0.0
 70
   128
 71
     1
 72
    10
 73
     3
  0
SEQEND
  5
588
  8
0
 62
     9
  0
ENDBLK
  5
58B
  8
0
  0
BLOCK
  8
0
  2
E3_NODE_47_
 70
     0
 10
0.0
 20
0.0
 30
0.0
  3
E3_NODE_47_
  1

  0
POLYLINE
  5
58D
  8
0
 62
     9
 66
     1
 10
0.0
 20
0.0
 30
0.0
 70
    64
 71
     5
 72
     3
  0
VERTEX
  5
58E
  8
0
 10
17.76600074768066
 20
363.385009765625
 30
56.83499908447266
 70
   192
  0
VERTEX
  5
58F
  8
0
 10
25.38100051879883
 20
345.0
 30
56.83499908447266
 70
   192
  0
VERTEX
  5
590
  8
0
 10
17.76600074768066
 20
326.614990234375
 30
56.83499908447266
 70
   192
  0
VERTEX
  5
591
  8
0
 10
-0.6190000176429749
 20
319.0
 30
56.83499908447266
 70
   192
  0
VERTEX
  5
592
  8
0
 10
-0.6190000176429749
 20
371.0
 30
56.83499908447266
 70
   192
  0
VERTEX
  5
593
  8
0
 62
     9
 10
0.0
 20
0.0
 30
0.0
 70
   128
 71
     3
 72
     2
 73
     1
  0
VERTEX
  5
594
  8
0
 62
     9
 10
0.0
 20
0.0
 30
0.0
 70
   128
 71
     1
 72
     5
 73
     4
  0
VERTEX
  5
595
  8
0
 62
     9
 10
0.0
 20
0.0
 30
0.0
 70
   128
 71
     1
 72
     4
 73
     3
  0
SEQEND
  5
596
  8
0
 62
     9
  0
ENDBLK
  5
599
  8
0
  0
BLOCK
  8
0
  2
E3_NODE_48_
 70
     0
 10
0.0
 20
0.0
 30
0.0
  3
E3_NODE_48_
  1

  0
POLYLINE
  5
59B
  8
0
 62
     9
 66
     1
 10
0.0
 20
0.0
 30
0.0
 70
    64
 71
    13
 72
    11
  0
VERTEX
  5
59C
  8
0
 10
7.827000141143799
 20
367.1119995117188
 30
83.23999786376953
 70
   192
  0
VERTEX
  5
59D
  8
0
 10
8.538000106811523
 20
367.7349853515625
 30
84.98600006103516
 70
   192
  0
VERTEX
  5
59E
  8
0
 10
11.6850004196167
 20
366.43701171875
 30
83.74800109863281
 70
   192
  0
VERTEX
  5
59F
  8
0
 10
12.18099975585938
 20
367.3009948730469
 30
84.83499908447266
 70
   192
  0
VERTEX
  5
5A0
  8
0
 10
6.162000179290771
 20
367.6229858398438
 30
83.83799743652344
 70
   192
  0
VERTEX
  5
5A1
  8
0
 10
6.734000205993652
 20
367.8789978027344
 30
85.14099884033203
 70
   192
  0
VERTEX
  5
5A2
  8
0
 10
5.067999839782715
 20
367.875
 30
84.35800170898438
 70
   192
  0
VERTEX
  5
5A3
  8
0
 10
5.548999786376953
 20
367.9509887695312
 30
85.2760009765625
 70
   192
  0
VERTEX
  5
5A4
  8
0
 10
4.059000015258789
 20
368.0360107421875
 30
85.0979995727539
 70
   192
  0
VERTEX
  5
5A5
  8
0
 10
4.454999923706055
 20
367.9979858398438
 30
85.46800231933594
 70
   192
  0
VERTEX
  5
5A6
  8
0
 10
3.891000032424927
 20
368.0459899902344
 30
85.36000061035156
 70
   192
  0
VERTEX
  5
5A7
  8
0
 10
4.27400016784668
 20
368.0010070800781
 30
85.53500366210938
 70
   192
  0
VERTEX
  5
5A8
  8
0
 10
11.1899995803833
 20
365.572998046875
 30
82.66000366210938
 70
   192
  0
VERTEX
  5
5A9
  8
0
 62
     9
 10
0.0
 20
0.0
 30
0.0
 70
   128
 71
     3
 72
     2
 73
     1
  0
VERTEX
  5
5AA
  8
0
 62
     9
 10
0.0
 20
0.0
 30
0.0
 70
   128
 71
     3
 72
     4
 73
     2
  0
VERTEX
  5
5AB
  8
0
 62
     9
 10
0.0
 20
0.0
 30
0.0
 70
   128
 71
     6
 72
     5
 73
     1
  0
VERTEX
  5
5AC
  8
0
 62
     9
 10
0.0
 20
0.0
 30
0.0
 70
   128
 71
     8
 72
     7
 73
     5
  0
VERTEX
  5
5AD
  8
0
 62
     9
 10
0.0
 20
0.0
 30
0.0
 70
   128
 71
    10
 72
     9
 73
     7
  0
VERTEX
  5
5AE
  8
0
 62
     9
 10
0.0
 20
0.0
 30
0.0
 70
   128
 71
    12
 72
    11
 73
     9
  0
VERTEX
  5
5AF
  8
0
 62
     9
 10
0.0
 20
0.0
 30
0.0
 70
   128
 71
     9
 72
    10
 73
    12
  0
VERTEX
  5
5B0
  8
0
 62
     9
 10
0.0
 20
0.0
 30
0.0
 70
   128
 71
     7
 72
     8
 73
    10
  0
VERTEX
  5
5B1
  8
0
 62
     9
 10
0.0
 20
0.0
 30
0.0
 70
   128
 71
     5
 72
     6
 73
     8
  0
VERTEX
  5
5B2
  8
0
 62
     9
 10
0.0
 20
0.0
 30
0.0
 70
   128
 71
     1
 72
     2
 73
     6
  0
VERTEX
  5
5B3
  8
0
 62
     9
 10
0.0
 20
0.0
 30
0.0
 70
   128
 71
     1
 72
    13
 73
     3
  0
SEQEND
  5
5B4
  8
0
 62
     9
  0
ENDBLK
  5
5B7
  8
0
  0
BLOCK
  8
0
  2
E3_NODE_49_
 70
     0
 10
0.0
 20
0.0
 30
0.0
  3
E3_NODE_49_
  1

  0
POLYLINE
  5
5B9
  8
0
 62
     9
 66
     1
 10
0.0
 20
0.0
 30
0.0
 70
    64
 71
    11
 72
     9
  0
VERTEX
  5
5BA
  8
0
 10
4.116000175476074
 20
321.9710083007812
 30
85.04499816894531
 70
   192
  0
VERTEX
  5
5BB
  8
0
 10
4.51800012588501
 20
322.0060119628906
 30
85.4540023803711
 70
   192
  0
VERTEX
  5
5BC
  8
0
 10
4.284999847412109
 20
322.0010070800781
 30
85.53500366210938
 70
   192
  0
VERTEX
  5
5BD
  8
0
 10
4.894000053405762
 20
322.0920104980469
 30
84.46199798583984
 70
   192
  0
VERTEX
  5
5BE
  8
0
 10
5.360000133514404
 20
322.0409851074219
 30
85.3030014038086
 70
   192
  0
VERTEX
  5
5BF
  8
0
 10
8.20300006866455
 20
323.0249938964844
 30
83.13099670410156
 70
   192
  0
VERTEX
  5
5C0
  8
0
 10
8.946000099182129
 20
322.3059997558594
 30
84.95800018310547
 70
   192
  0
VERTEX
  5
5C1
  8
0
 10
11.19299983978271
 20
324.4289855957031
 30
82.66000366210938
 70
   192
  0
VERTEX
  5
5C2
  8
0
 10
11.68900012969971
 20
323.5650024414062
 30
83.74800109863281
 70
   192
  0
VERTEX
  5
5C3
  8
0
 10
12.1850004196167
 20
322.7009887695312
 30
84.83499908447266
 70
   192
  0
VERTEX
  5
5C4
  8
0
 10
3.901999950408936
 20
321.9559936523438
 30
85.36000061035156
 70
   192
  0
VERTEX
  5
5C5
  8
0
 62
     9
 10
0.0
 20
0.0
 30
0.0
 70
   128
 71
     3
 72
     2
 73
     1
  0
VERTEX
  5
5C6
  8
0
 62
     9
 10
0.0
 20
0.0
 30
0.0
 70
   128
 71
     2
 72
     5
 73
     4
  0
VERTEX
  5
5C7
  8
0
 62
     9
 10
0.0
 20
0.0
 30
0.0
 70
   128
 71
     5
 72
     7
 73
     6
  0
VERTEX
  5
5C8
  8
0
 62
     9
 10
0.0
 20
0.0
 30
0.0
 70
   128
 71
     9
 72
     8
 73
     6
  0
VERTEX
  5
5C9
  8
0
 62
     9
 10
0.0
 20
0.0
 30
0.0
 70
   128
 71
     6
 72
     7
 73
     9
  0
VERTEX
  5
5CA
  8
0
 62
     9
 10
0.0
 20
0.0
 30
0.0
 70
   128
 71
     7
 72
    10
 73
     9
  0
VERTEX
  5
5CB
  8
0
 62
     9
 10
0.0
 20
0.0
 30
0.0
 70
   128
 71
     6
 72
     4
 73
     5
  0
VERTEX
  5
5CC
  8
0
 62
     9
 10
0.0
 20
0.0
 30
0.0
 70
   128
 71
     4
 72
     1
 73
     2
  0
VERTEX
  5
5CD
  8
0
 62
     9
 10
0.0
 20
0.0
 30
0.0
 70
   128
 71
     1
 72
    11
 73
     3
  0
SEQEND
  5
5CE
  8
0
 62
     9
  0
ENDBLK
  5
5D1
  8
0
  0
BLOCK
  8
0
  2
E3_NODE_50_
 70
     0
 10
0.0
 20
0.0
 30
0.0
  3
E3_NODE_50_
  1

  0
POLYLINE
  5
5D3
  8
0
 62
     9
 66
     1
 10
0.0
 20
0.0
 30
0.0
 70
    64
 71
     6
 72
     4
  0
VERTEX
  5
5D4
  8
0
 10
1.118000030517578
 20
368.0010070800781
 30
90.13500213623047
 70
   192
  0
VERTEX
  5
5D5
  8
0
 10
4.27400016784668
 20
368.0010070800781
 30
85.53500366210938
 70
   192
  0
VERTEX
  5
5D6
  8
0
 10
3.359999895095825
 20
368.0360107421875
 30
86.55699920654297
 70
   192
  0
VERTEX
  5
5D7
  8
0
 10
0.9160000085830688
 20
368.0050048828125
 30
90.1969985961914
 70
   192
  0
VERTEX
  5
5D8
  8
0
 10
1.064000010490417
 20
368.0010070800781
 30
90.1510009765625
 70
   192
  0
VERTEX
  5
5D9
  8
0
 10
3.891000032424927
 20
368.0459899902344
 30
85.36000061035156
 70
   192
  0
VERTEX
  5
5DA
  8
0
 62
     9
 10
0.0
 20
0.0
 30
0.0
 70
   128
 71
     3
 72
     2
 73
     1
  0
VERTEX
  5
5DB
  8
0
 62
     9
 10
0.0
 20
0.0
 30
0.0
 70
   128
 71
     5
 72
     4
 73
     3
  0
VERTEX
  5
5DC
  8
0
 62
     9
 10
0.0
 20
0.0
 30
0.0
 70
   128
 71
     3
 72
     6
 73
     2
  0
VERTEX
  5
5DD
  8
0
 62
     9
 10
0.0
 20
0.0
 30
0.0
 70
   128
 71
     1
 72
     5
 73
     3
  0
SEQEND
  5
5DE
  8
0
 62
     9
  0
ENDBLK
  5
5E1
  8
0
  0
BLOCK
  8
0
  2
E3_NODE_51_
 70
     0
 10
0.0
 20
0.0
 30
0.0
  3
E3_NODE_51_
  1

  0
POLYLINE
  5
5E3
  8
0
 62
     9
 66
     1
 10
0.0
 20
0.0
 30
0.0
 70
    64
 71
    21
 72
    22
  0
VERTEX
  5
5E4
  8
0
 10
12.18099975585938
 20
367.3009948730469
 30
84.83499908447266
 70
   192
  0
VERTEX
  5
5E5
  8
0
 10
21.63299942016602
 20
357.885986328125
 30
84.83499908447266
 70
   192
  0
VERTEX
  5
5E6
  8
0
 10
20.35600090026855
 20
357.1470031738281
 30
84.18599700927734
 70
   192
  0
VERTEX
  5
5E7
  8
0
 10
12.1850004196167
 20
322.7009887695312
 30
84.83499908447266
 70
   192
  0
VERTEX
  5
5E8
  8
0
 10
11.68900012969971
 20
323.5650024414062
 30
83.74800109863281
 70
   192
  0
VERTEX
  5
5E9
  8
0
 10
20.35799980163574
 20
332.8569946289062
 30
84.18599700927734
 70
   192
  0
VERTEX
  5
5EA
  8
0
 10
11.6850004196167
 20
366.43701171875
 30
83.74800109863281
 70
   192
  0
VERTEX
  5
5EB
  8
0
 10
15.58100032806396
 20
361.197998046875
 30
82.66000366210938
 70
   192
  0
VERTEX
  5
5EC
  8
0
 10
19.90900039672852
 20
356.8880004882812
 30
82.66000366210938
 70
   192
  0
VERTEX
  5
5ED
  8
0
 10
23.61899948120117
 20
345.0020141601562
 30
84.18599700927734
 70
   192
  0
VERTEX
  5
5EE
  8
0
 10
23.10199928283691
 20
345.0020141601562
 30
82.66000366210938
 70
   192
  0
VERTEX
  5
5EF
  8
0
 10
19.9109992980957
 20
333.1159973144531
 30
82.66000366210938
 70
   192
  0
VERTEX
  5
5F0
  8
0
 10
23.10199928283691
 20
345.0
 30
82.66000366210938
 70
   192
  0
VERTEX
  5
5F1
  8
0
 10
11.19299983978271
 20
324.4289855957031
 30
82.66000366210938
 70
   192
  0
VERTEX
  5
5F2
  8
0
 10
15.58100032806396
 20
328.802001953125
 30
82.66000366210938
 70
   192
  0
VERTEX
  5
5F3
  8
0
 10
24.46599960327148
 20
350.6510009765625
 30
84.83499908447266
 70
   192
  0
VERTEX
  5
5F4
  8
0
 10
24.69700050354004
 20
345.3519897460938
 30
84.7959976196289
 70
   192
  0
VERTEX
  5
5F5
  8
0
 10
24.46599960327148
 20
339.3489990234375
 30
84.83499908447266
 70
   192
  0
VERTEX
  5
5F6
  8
0
 10
24.68400001525879
 20
345.0039978027344
 30
84.7979965209961
 70
   192
  0
VERTEX
  5
5F7
  8
0
 10
21.63500022888184
 20
332.1180114746094
 30
84.83499908447266
 70
   192
  0
VERTEX
  5
5F8
  8
0
 10
11.1899995803833
 20
365.572998046875
 30
82.66000366210938
 70
   192
  0
VERTEX
  5
5F9
  8
0
 62
     9
 10
0.0
 20
0.0
 30
0.0
 70
   128
 71
     3
 72
     2
 73
     1
  0
VERTEX
  5
5FA
  8
0
 62
     9
 10
0.0
 20
0.0
 30
0.0
 70
   128
 71
     6
 72
     5
 73
     4
  0
VERTEX
  5
5FB
  8
0
 62
     9
 10
0.0
 20
0.0
 30
0.0
 70
   128
 71
     8
 72
     3
 73
     7
  0
VERTEX
  5
5FC
  8
0
 62
     9
 10
0.0
 20
0.0
 30
0.0
 70
   128
 71
     8
 72
     9
 73
     3
  0
VERTEX
  5
5FD
  8
0
 62
     9
 10
0.0
 20
0.0
 30
0.0
 70
   128
 71
     9
 72
    11
 73
    10
  0
VERTEX
  5
5FE
  8
0
 62
     9
 10
0.0
 20
0.0
 30
0.0
 70
   128
 71
    13
 72
    12
 73
     6
  0
VERTEX
  5
5FF
  8
0
 62
     9
 10
0.0
 20
0.0
 30
0.0
 70
   128
 71
     6
 72
    10
 73
    13
  0
VERTEX
  5
600
  8
0
 62
     9
 10
0.0
 20
0.0
 30
0.0
 70
   128
 71
    15
 72
    14
 73
     5
  0
VERTEX
  5
601
  8
0
 62
     9
 10
0.0
 20
0.0
 30
0.0
 70
   128
 71
     5
 72
     6
 73
    15
  0
VERTEX
  5
602
  8
0
 62
     9
 10
0.0
 20
0.0
 30
0.0
 70
   128
 71
    16
 72
     2
 73
     3
  0
VERTEX
  5
603
  8
0
 62
     9
 10
0.0
 20
0.0
 30
0.0
 70
   128
 71
     3
 72
    10
 73
    16
  0
VERTEX
  5
604
  8
0
 62
     9
 10
0.0
 20
0.0
 30
0.0
 70
   128
 71
    10
 72
    17
 73
    16
  0
VERTEX
  5
605
  8
0
 62
     9
 10
0.0
 20
0.0
 30
0.0
 70
   128
 71
    18
 72
    10
 73
     6
  0
VERTEX
  5
606
  8
0
 62
     9
 10
0.0
 20
0.0
 30
0.0
 70
   128
 71
    18
 72
    19
 73
    10
  0
VERTEX
  5
607
  8
0
 62
     9
 10
0.0
 20
0.0
 30
0.0
 70
   128
 71
     6
 72
    20
 73
    18
  0
VERTEX
  5
608
  8
0
 62
     9
 10
0.0
 20
0.0
 30
0.0
 70
   128
 71
    10
 72
    19
 73
    17
  0
VERTEX
  5
609
  8
0
 62
     9
 10
0.0
 20
0.0
 30
0.0
 70
   128
 71
     6
 72
    12
 73
    15
  0
VERTEX
  5
60A
  8
0
 62
     9
 10
0.0
 20
0.0
 30
0.0
 70
   128
 71
    10
 72
    11
 73
    13
  0
VERTEX
  5
60B
  8
0
 62
     9
 10
0.0
 20
0.0
 30
0.0
 70
   128
 71
    10
 72
     3
 73
     9
  0
VERTEX
  5
60C
  8
0
 62
     9
 10
0.0
 20
0.0
 30
0.0
 70
   128
 71
     7
 72
    21
 73
     8
  0
VERTEX
  5
60D
  8
0
 62
     9
 10
0.0
 20
0.0
 30
0.0
 70
   128
 71
     4
 72
    20
 73
     6
  0
VERTEX
  5
60E
  8
0
 62
     9
 10
0.0
 20
0.0
 30
0.0
 70
   128
 71
     1
 72
     7
 73
     3
  0
SEQEND
  5
60F
  8
0
 62
     9
  0
ENDBLK
  5
612
  8
0
  0
BLOCK
  8
0
  2
E3_NODE_52_
 70
     0
 10
0.0
 20
0.0
 30
0.0
  3
E3_NODE_52_
  1

  0
POLYLINE
  5
614
  8
0
 62
     9
 66
     1
 10
0.0
 20
0.0
 30
0.0
 70
    64
 71
     8
 72
     6
  0
VERTEX
  5
615
  8
0
 10
79.58100128173828
 20
368.0010070800781
 30
85.53500366210938
 70
   192
  0
VERTEX
  5
616
  8
0
 10
5.548999786376953
 20
367.9509887695312
 30
85.2760009765625
 70
   192
  0
VERTEX
  5
617
  8
0
 10
4.454999923706055
 20
367.9979858398438
 30
85.46800231933594
 70
   192
  0
VERTEX
  5
618
  8
0
 10
6.734000205993652
 20
367.8789978027344
 30
85.14099884033203
 70
   192
  0
VERTEX
  5
619
  8
0
 10
79.58100128173828
 20
367.3009948730469
 30
84.83499908447266
 70
   192
  0
VERTEX
  5
61A
  8
0
 10
12.18099975585938
 20
367.3009948730469
 30
84.83499908447266
 70
   192
  0
VERTEX
  5
61B
  8
0
 10
8.538000106811523
 20
367.7349853515625
 30
84.98600006103516
 70
   192
  0
VERTEX
  5
61C
  8
0
 10
4.27400016784668
 20
368.0010070800781
 30
85.53500366210938
 70
   192
  0
VERTEX
  5
61D
  8
0
 62
     9
 10
0.0
 20
0.0
 30
0.0
 70
   128
 71
     3
 72
     2
 73
     1
  0
VERTEX
  5
61E
  8
0
 62
     9
 10
0.0
 20
0.0
 30
0.0
 70
   128
 71
     2
 72
     4
 73
     1
  0
VERTEX
  5
61F
  8
0
 62
     9
 10
0.0
 20
0.0
 30
0.0
 70
   128
 71
     6
 72
     5
 73
     1
  0
VERTEX
  5
620
  8
0
 62
     9
 10
0.0
 20
0.0
 30
0.0
 70
   128
 71
     1
 72
     7
 73
     6
  0
VERTEX
  5
621
  8
0
 62
     9
 10
0.0
 20
0.0
 30
0.0
 70
   128
 71
     1
 72
     4
 73
     7
  0
VERTEX
  5
622
  8
0
 62
     9
 10
0.0
 20
0.0
 30
0.0
 70
   128
 71
     1
 72
     8
 73
     3
  0
SEQEND
  5
623
  8
0
 62
     9
  0
ENDBLK
  5
626
  8
0
  0
BLOCK
  8
0
  2
E3_NODE_53_
 70
     0
 10
0.0
 20
0.0
 30
0.0
  3
E3_NODE_53_
  1

  0
POLYLINE
  5
628
  8
0
 62
     9
 66
     1
 10
0.0
 20
0.0
 30
0.0
 70
    64
 71
     6
 72
     4
  0
VERTEX
  5
629
  8
0
 10
79.58100128173828
 20
368.0010070800781
 30
85.53500366210938
 70
   192
  0
VERTEX
  5
62A
  8
0
 10
85.23799896240234
 20
365.6579895019531
 30
85.53500366210938
 70
   192
  0
VERTEX
  5
62B
  8
0
 10
84.74299621582031
 20
365.1629943847656
 30
84.83499908447266
 70
   192
  0
VERTEX
  5
62C
  8
0
 10
87.58100128173828
 20
360.0010070800781
 30
85.53500366210938
 70
   192
  0
VERTEX
  5
62D
  8
0
 10
86.88099670410156
 20
360.0010070800781
 30
84.83499908447266
 70
   192
  0
VERTEX
  5
62E
  8
0
 10
79.58100128173828
 20
367.3009948730469
 30
84.83499908447266
 70
   192
  0
VERTEX
  5
62F
  8
0
 62
     9
 10
0.0
 20
0.0
 30
0.0
 70
   128
 71
     3
 72
     2
 73
     1
  0
VERTEX
  5
630
  8
0
 62
     9
 10
0.0
 20
0.0
 30
0.0
 70
   128
 71
     5
 72
     4
 73
     2
  0
VERTEX
  5
631
  8
0
 62
     9
 10
0.0
 20
0.0
 30
0.0
 70
   128
 71
     2
 72
     3
 73
     5
  0
VERTEX
  5
632
  8
0
 62
     9
 10
0.0
 20
0.0
 30
0.0
 70
   128
 71
     1
 72
     6
 73
     3
  0
SEQEND
  5
633
  8
0
 62
     9
  0
ENDBLK
  5
636
  8
0
  0
BLOCK
  8
0
  2
E3_NODE_54_
 70
     0
 10
0.0
 20
0.0
 30
0.0
  3
E3_NODE_54_
  1

  0
POLYLINE
  5
638
  8
0
 62
     9
 66
     1
 10
0.0
 20
0.0
 30
0.0
 70
    64
 71
     4
 72
     2
  0
VERTEX
  5
639
  8
0
 10
79.58100128173828
 20
368.0010070800781
 30
90.13500213623047
 70
   192
  0
VERTEX
  5
63A
  8
0
 10
79.58100128173828
 20
368.0010070800781
 30
85.53500366210938
 70
   192
  0
VERTEX
  5
63B
  8
0
 10
4.27400016784668
 20
368.0010070800781
 30
85.53500366210938
 70
   192
  0
VERTEX
  5
63C
  8
0
 10
1.118000030517578
 20
368.0010070800781
 30
90.13500213623047
 70
   192
  0
VERTEX
  5
63D
  8
0
 62
     9
 10
0.0
 20
0.0
 30
0.0
 70
   128
 71
     3
 72
     2
 73
     1
  0
VERTEX
  5
63E
  8
0
 62
     9
 10
0.0
 20
0.0
 30
0.0
 70
   128
 71
     1
 72
     4
 73
     3
  0
SEQEND
  5
63F
  8
0
 62
     9
  0
ENDBLK
  5
642
  8
0
  0
BLOCK
  8
0
  2
E3_NODE_55_
 70
     0
 10
0.0
 20
0.0
 30
0.0
  3
E3_NODE_55_
  1

  0
POLYLINE
  5
644
  8
0
 62
     9
 66
     1
 10
0.0
 20
0.0
 30
0.0
 70
    64
 71
     6
 72
     4
  0
VERTEX
  5
645
  8
0
 10
79.58100128173828
 20
367.7959899902344
 30
90.62999725341797
 70
   192
  0
VERTEX
  5
646
  8
0
 10
1.118000030517578
 20
367.7959899902344
 30
90.62999725341797
 70
   192
  0
VERTEX
  5
647
  8
0
 10
1.118000030517578
 20
367.3009948730469
 30
90.83499908447266
 70
   192
  0
VERTEX
  5
648
  8
0
 10
79.58100128173828
 20
368.0010070800781
 30
90.13500213623047
 70
   192
  0
VERTEX
  5
649
  8
0
 10
1.118000030517578
 20
368.0010070800781
 30
90.13500213623047
 70
   192
  0
VERTEX
  5
64A
  8
0
 10
79.58100128173828
 20
367.3009948730469
 30
90.83499908447266
 70
   192
  0
VERTEX
  5
64B
  8
0
 62
     9
 10
0.0
 20
0.0
 30
0.0
 70
   128
 71
     3
 72
     2
 73
     1
  0
VERTEX
  5
64C
  8
0
 62
     9
 10
0.0
 20
0.0
 30
0.0
 70
   128
 71
     5
 72
     4
 73
     1
  0
VERTEX
  5
64D
  8
0
 62
     9
 10
0.0
 20
0.0
 30
0.0
 70
   128
 71
     1
 72
     2
 73
     5
  0
VERTEX
  5
64E
  8
0
 62
     9
 10
0.0
 20
0.0
 30
0.0
 70
   128
 71
     1
 72
     6
 73
     3
  0
SEQEND
  5
64F
  8
0
 62
     9
  0
ENDBLK
  5
652
  8
0
  0
BLOCK
  8
0
  2
E3_NODE_56_
 70
     0
 10
0.0
 20
0.0
 30
0.0
  3
E3_NODE_56_
  1

  0
POLYLINE
  5
654
  8
0
 62
     9
 66
     1
 10
0.0
 20
0.0
 30
0.0
 70
    64
 71
     9
 72
     8
  0
VERTEX
  5
655
  8
0
 10
85.23799896240234
 20
365.6579895019531
 30
90.13500213623047
 70
   192
  0
VERTEX
  5
656
  8
0
 10
85.09300231933594
 20
365.5130004882812
 30
90.62999725341797
 70
   192
  0
VERTEX
  5
657
  8
0
 10
87.3759994506836
 20
360.0010070800781
 30
90.62999725341797
 70
   192
  0
VERTEX
  5
658
  8
0
 10
79.58100128173828
 20
368.0010070800781
 30
90.13500213623047
 70
   192
  0
VERTEX
  5
659
  8
0
 10
79.58100128173828
 20
367.7959899902344
 30
90.62999725341797
 70
   192
  0
VERTEX
  5
65A
  8
0
 10
84.74299621582031
 20
365.1629943847656
 30
90.83499908447266
 70
   192
  0
VERTEX
  5
65B
  8
0
 10
86.88099670410156
 20
360.0010070800781
 30
90.83499908447266
 70
   192
  0
VERTEX
  5
65C
  8
0
 10
79.58100128173828
 20
367.3009948730469
 30
90.83499908447266
 70
   192
  0
VERTEX
  5
65D
  8
0
 10
87.58100128173828
 20
360.0010070800781
 30
90.13500213623047
 70
   192
  0
VERTEX
  5
65E
  8
0
 62
     9
 10
0.0
 20
0.0
 30
0.0
 70
   128
 71
     3
 72
     2
 73
     1
  0
VERTEX
  5
65F
  8
0
 62
     9
 10
0.0
 20
0.0
 30
0.0
 70
   128
 71
     2
 72
     5
 73
     4
  0
VERTEX
  5
660
  8
0
 62
     9
 10
0.0
 20
0.0
 30
0.0
 70
   128
 71
     7
 72
     6
 73
     2
  0
VERTEX
  5
661
  8
0
 62
     9
 10
0.0
 20
0.0
 30
0.0
 70
   128
 71
     8
 72
     5
 73
     2
  0
VERTEX
  5
662
  8
0
 62
     9
 10
0.0
 20
0.0
 30
0.0
 70
   128
 71
     2
 72
     6
 73
     8
  0
VERTEX
  5
663
  8
0
 62
     9
 10
0.0
 20
0.0
 30
0.0
 70
   128
 71
     2
 72
     3
 73
     7
  0
VERTEX
  5
664
  8
0
 62
     9
 10
0.0
 20
0.0
 30
0.0
 70
   128
 71
     4
 72
     1
 73
     2
  0
VERTEX
  5
665
  8
0
 62
     9
 10
0.0
 20
0.0
 30
0.0
 70
   128
 71
     1
 72
     9
 73
     3
  0
SEQEND
  5
666
  8
0
 62
     9
  0
ENDBLK
  5
669
  8
0
  0
BLOCK
  8
0
  2
E3_NODE_57_
 70
     0
 10
0.0
 20
0.0
 30
0.0
  3
E3_NODE_57_
  1

  0
POLYLINE
  5
66B
  8
0
 62
     9
 66
     1
 10
0.0
 20
0.0
 30
0.0
 70
    64
 71
     6
 72
     4
  0
VERTEX
  5
66C
  8
0
 10
85.23799896240234
 20
365.6579895019531
 30
90.13500213623047
 70
   192
  0
VERTEX
  5
66D
  8
0
 10
85.23799896240234
 20
365.6579895019531
 30
85.53500366210938
 70
   192
  0
VERTEX
  5
66E
  8
0
 10
79.58100128173828
 20
368.0010070800781
 30
85.53500366210938
 70
   192
  0
VERTEX
  5
66F
  8
0
 10
87.58100128173828
 20
360.0010070800781
 30
90.13500213623047
 70
   192
  0
VERTEX
  5
670
  8
0
 10
87.58100128173828
 20
360.0010070800781
 30
85.53500366210938
 70
   192
  0
VERTEX
  5
671
  8
0
 10
79.58100128173828
 20
368.0010070800781
 30
90.13500213623047
 70
   192
  0
VERTEX
  5
672
  8
0
 62
     9
 10
0.0
 20
0.0
 30
0.0
 70
   128
 71
     3
 72
     2
 73
     1
  0
VERTEX
  5
673
  8
0
 62
     9
 10
0.0
 20
0.0
 30
0.0
 70
   128
 71
     4
 72
     1
 73
     2
  0
VERTEX
  5
674
  8
0
 62
     9
 10
0.0
 20
0.0
 30
0.0
 70
   128
 71
     2
 72
     5
 73
     4
  0
VERTEX
  5
675
  8
0
 62
     9
 10
0.0
 20
0.0
 30
0.0
 70
   128
 71
     1
 72
     6
 73
     3
  0
SEQEND
  5
676
  8
0
 62
     9
  0
ENDBLK
  5
679
  8
0
  0
BLOCK
  8
0
  2
E3_NODE_58_
 70
     0
 10
0.0
 20
0.0
 30
0.0
  3
E3_NODE_58_
  1

  0
POLYLINE
  5
67B
  8
0
 62
     9
 66
     1
 10
0.0
 20
0.0
 30
0.0
 70
    64
 71
     5
 72
     3
  0
VERTEX
  5
67C
  8
0
 10
87.58100128173828
 20
330.0010070800781
 30
90.13500213623047
 70
   192
  0
VERTEX
  5
67D
  8
0
 10
87.58100128173828
 20
360.0010070800781
 30
90.13500213623047
 70
   192
  0
VERTEX
  5
67E
  8
0
 10
87.3759994506836
 20
360.0010070800781
 30
90.62999725341797
 70
   192
  0
VERTEX
  5
67F
  8
0
 10
86.88099670410156
 20
330.0010070800781
 30
90.83499908447266
 70
   192
  0
VERTEX
  5
680
  8
0
 10
86.88099670410156
 20
360.0010070800781
 30
90.83499908447266
 70
   192
  0
VERTEX
  5
681
  8
0
 62
     9
 10
0.0
 20
0.0
 30
0.0
 70
   128
 71
     3
 72
     2
 73
     1
  0
VERTEX
  5
682
  8
0
 62
     9
 10
0.0
 20
0.0
 30
0.0
 70
   128
 71
     1
 72
     4
 73
     3
  0
VERTEX
  5
683
  8
0
 62
     9
 10
0.0
 20
0.0
 30
0.0
 70
   128
 71
     4
 72
     5
 73
     3
  0
SEQEND
  5
684
  8
0
 62
     9
  0
ENDBLK
  5
687
  8
0
  0
BLOCK
  8
0
  2
E3_NODE_59_
 70
     0
 10
0.0
 20
0.0
 30
0.0
  3
E3_NODE_59_
  1

  0
POLYLINE
  5
689
  8
0
 62
     9
 66
     1
 10
0.0
 20
0.0
 30
0.0
 70
    64
 71
     5
 72
     3
  0
VERTEX
  5
68A
  8
0
 10
87.58100128173828
 20
360.0010070800781
 30
85.53500366210938
 70
   192
  0
VERTEX
  5
68B
  8
0
 10
87.58100128173828
 20
330.0010070800781
 30
85.53500366210938
 70
   192
  0
VERTEX
  5
68C
  8
0
 10
87.3759994506836
 20
330.0010070800781
 30
85.04000091552734
 70
   192
  0
VERTEX
  5
68D
  8
0
 10
86.88099670410156
 20
360.0010070800781
 30
84.83499908447266
 70
   192
  0
VERTEX
  5
68E
  8
0
 10
86.88099670410156
 20
330.0010070800781
 30
84.83499908447266
 70
   192
  0
VERTEX
  5
68F
  8
0
 62
     9
 10
0.0
 20
0.0
 30
0.0
 70
   128
 71
     3
 72
     2
 73
     1
  0
VERTEX
  5
690
  8
0
 62
     9
 10
0.0
 20
0.0
 30
0.0
 70
   128
 71
     1
 72
     4
 73
     3
  0
VERTEX
  5
691
  8
0
 62
     9
 10
0.0
 20
0.0
 30
0.0
 70
   128
 71
     4
 72
     5
 73
     3
  0
SEQEND
  5
692
  8
0
 62
     9
  0
ENDBLK
  5
695
  8
0
  0
BLOCK
  8
0
  2
E3_NODE_60_
 70
     0
 10
0.0
 20
0.0
 30
0.0
  3
E3_NODE_60_
  1

  0
POLYLINE
  5
697
  8
0
 62
     9
 66
     1
 10
0.0
 20
0.0
 30
0.0
 70
    64
 71
     9
 72
     8
  0
VERTEX
  5
698
  8
0
 10
85.23799896240234
 20
324.343994140625
 30
85.53500366210938
 70
   192
  0
VERTEX
  5
699
  8
0
 10
85.09300231933594
 20
324.489013671875
 30
85.04000091552734
 70
   192
  0
VERTEX
  5
69A
  8
0
 10
87.3759994506836
 20
330.0010070800781
 30
85.04000091552734
 70
   192
  0
VERTEX
  5
69B
  8
0
 10
79.58100128173828
 20
322.0010070800781
 30
85.53500366210938
 70
   192
  0
VERTEX
  5
69C
  8
0
 10
79.58100128173828
 20
322.2059936523438
 30
85.04000091552734
 70
   192
  0
VERTEX
  5
69D
  8
0
 10
84.74299621582031
 20
324.8389892578125
 30
84.83499908447266
 70
   192
  0
VERTEX
  5
69E
  8
0
 10
86.88099670410156
 20
330.0010070800781
 30
84.83499908447266
 70
   192
  0
VERTEX
  5
69F
  8
0
 10
79.58100128173828
 20
322.7009887695312
 30
84.83499908447266
 70
   192
  0
VERTEX
  5
6A0
  8
0
 10
87.58100128173828
 20
330.0010070800781
 30
85.53500366210938
 70
   192
  0
VERTEX
  5
6A1
  8
0
 62
     9
 10
0.0
 20
0.0
 30
0.0
 70
   128
 71
     3
 72
     2
 73
     1
  0
VERTEX
  5
6A2
  8
0
 62
     9
 10
0.0
 20
0.0
 30
0.0
 70
   128
 71
     2
 72
     5
 73
     4
  0
VERTEX
  5
6A3
  8
0
 62
     9
 10
0.0
 20
0.0
 30
0.0
 70
   128
 71
     7
 72
     6
 73
     2
  0
VERTEX
  5
6A4
  8
0
 62
     9
 10
0.0
 20
0.0
 30
0.0
 70
   128
 71
     8
 72
     5
 73
     2
  0
VERTEX
  5
6A5
  8
0
 62
     9
 10
0.0
 20
0.0
 30
0.0
 70
   128
 71
     2
 72
     6
 73
     8
  0
VERTEX
  5
6A6
  8
0
 62
     9
 10
0.0
 20
0.0
 30
0.0
 70
   128
 71
     2
 72
     3
 73
     7
  0
VERTEX
  5
6A7
  8
0
 62
     9
 10
0.0
 20
0.0
 30
0.0
 70
   128
 71
     4
 72
     1
 73
     2
  0
VERTEX
  5
6A8
  8
0
 62
     9
 10
0.0
 20
0.0
 30
0.0
 70
   128
 71
     1
 72
     9
 73
     3
  0
SEQEND
  5
6A9
  8
0
 62
     9
  0
ENDBLK
  5
6AC
  8
0
  0
BLOCK
  8
0
  2
E3_NODE_61_
 70
     0
 10
0.0
 20
0.0
 30
0.0
  3
E3_NODE_61_
  1

  0
POLYLINE
  5
6AE
  8
0
 62
     9
 66
     1
 10
0.0
 20
0.0
 30
0.0
 70
    64
 71
     4
 72
     2
  0
VERTEX
  5
6AF
  8
0
 10
87.58100128173828
 20
330.0010070800781
 30
90.13500213623047
 70
   192
  0
VERTEX
  5
6B0
  8
0
 10
87.58100128173828
 20
330.0010070800781
 30
85.53500366210938
 70
   192
  0
VERTEX
  5
6B1
  8
0
 10
87.58100128173828
 20
360.0010070800781
 30
85.53500366210938
 70
   192
  0
VERTEX
  5
6B2
  8
0
 10
87.58100128173828
 20
360.0010070800781
 30
90.13500213623047
 70
   192
  0
VERTEX
  5
6B3
  8
0
 62
     9
 10
0.0
 20
0.0
 30
0.0
 70
   128
 71
     3
 72
     2
 73
     1
  0
VERTEX
  5
6B4
  8
0
 62
     9
 10
0.0
 20
0.0
 30
0.0
 70
   128
 71
     1
 72
     4
 73
     3
  0
SEQEND
  5
6B5
  8
0
 62
     9
  0
ENDBLK
  5
6B8
  8
0
  0
BLOCK
  8
0
  2
E3_NODE_62_
 70
     0
 10
0.0
 20
0.0
 30
0.0
  3
E3_NODE_62_
  1

  0
POLYLINE
  5
6BA
  8
0
 62
     9
 66
     1
 10
0.0
 20
0.0
 30
0.0
 70
    64
 71
     7
 72
     5
  0
VERTEX
  5
6BB
  8
0
 10
79.58100128173828
 20
322.3510131835938
 30
90.48500061035156
 70
   192
  0
VERTEX
  5
6BC
  8
0
 10
85.23799896240234
 20
324.343994140625
 30
90.13500213623047
 70
   192
  0
VERTEX
  5
6BD
  8
0
 10
84.74299621582031
 20
324.8389892578125
 30
90.83499908447266
 70
   192
  0
VERTEX
  5
6BE
  8
0
 10
79.58100128173828
 20
322.7009887695312
 30
90.83499908447266
 70
   192
  0
VERTEX
  5
6BF
  8
0
 10
87.58100128173828
 20
330.0010070800781
 30
90.13500213623047
 70
   192
  0
VERTEX
  5
6C0
  8
0
 10
86.88099670410156
 20
330.0010070800781
 30
90.83499908447266
 70
   192
  0
VERTEX
  5
6C1
  8
0
 10
79.58100128173828
 20
322.0010070800781
 30
90.13500213623047
 70
   192
  0
VERTEX
  5
6C2
  8
0
 62
     9
 10
0.0
 20
0.0
 30
0.0
 70
   128
 71
     3
 72
     2
 73
     1
  0
VERTEX
  5
6C3
  8
0
 62
     9
 10
0.0
 20
0.0
 30
0.0
 70
   128
 71
     1
 72
     4
 73
     3
  0
VERTEX
  5
6C4
  8
0
 62
     9
 10
0.0
 20
0.0
 30
0.0
 70
   128
 71
     6
 72
     5
 73
     2
  0
VERTEX
  5
6C5
  8
0
 62
     9
 10
0.0
 20
0.0
 30
0.0
 70
   128
 71
     2
 72
     3
 73
     6
  0
VERTEX
  5
6C6
  8
0
 62
     9
 10
0.0
 20
0.0
 30
0.0
 70
   128
 71
     2
 72
     7
 73
     1
  0
SEQEND
  5
6C7
  8
0
 62
     9
  0
ENDBLK
  5
6CA
  8
0
  0
BLOCK
  8
0
  2
E3_NODE_63_
 70
     0
 10
0.0
 20
0.0
 30
0.0
  3
E3_NODE_63_
  1

  0
POLYLINE
  5
6CC
  8
0
 62
     9
 66
     1
 10
0.0
 20
0.0
 30
0.0
 70
    64
 71
     8
 72
     6
  0
VERTEX
  5
6CD
  8
0
 10
79.58100128173828
 20
322.0010070800781
 30
85.53500366210938
 70
   192
  0
VERTEX
  5
6CE
  8
0
 10
5.360000133514404
 20
322.0409851074219
 30
85.3030014038086
 70
   192
  0
VERTEX
  5
6CF
  8
0
 10
8.946000099182129
 20
322.3059997558594
 30
84.95800018310547
 70
   192
  0
VERTEX
  5
6D0
  8
0
 10
4.284999847412109
 20
322.0010070800781
 30
85.53500366210938
 70
   192
  0
VERTEX
  5
6D1
  8
0
 10
4.51800012588501
 20
322.0060119628906
 30
85.4540023803711
 70
   192
  0
VERTEX
  5
6D2
  8
0
 10
79.58100128173828
 20
322.2059936523438
 30
85.04000091552734
 70
   192
  0
VERTEX
  5
6D3
  8
0
 10
12.1850004196167
 20
322.7009887695312
 30
84.83499908447266
 70
   192
  0
VERTEX
  5
6D4
  8
0
 10
79.58100128173828
 20
322.7009887695312
 30
84.83499908447266
 70
   192
  0
VERTEX
  5
6D5
  8
0
 62
     9
 10
0.0
 20
0.0
 30
0.0
 70
   128
 71
     3
 72
     2
 73
     1
  0
VERTEX
  5
6D6
  8
0
 62
     9
 10
0.0
 20
0.0
 30
0.0
 70
   128
 71
     5
 72
     4
 73
     1
  0
VERTEX
  5
6D7
  8
0
 62
     9
 10
0.0
 20
0.0
 30
0.0
 70
   128
 71
     1
 72
     2
 73
     5
  0
VERTEX
  5
6D8
  8
0
 62
     9
 10
0.0
 20
0.0
 30
0.0
 70
   128
 71
     7
 72
     3
 73
     6
  0
VERTEX
  5
6D9
  8
0
 62
     9
 10
0.0
 20
0.0
 30
0.0
 70
   128
 71
     6
 72
     8
 73
     7
  0
VERTEX
  5
6DA
  8
0
 62
     9
 10
0.0
 20
0.0
 30
0.0
 70
   128
 71
     1
 72
     6
 73
     3
  0
SEQEND
  5
6DB
  8
0
 62
     9
  0
ENDBLK
  5
6DE
  8
0
  0
BLOCK
  8
0
  2
E3_NODE_64_
 70
     0
 10
0.0
 20
0.0
 30
0.0
  3
E3_NODE_64_
  1

  0
POLYLINE
  5
6E0
  8
0
 62
     9
 66
     1
 10
0.0
 20
0.0
 30
0.0
 70
    64
 71
     6
 72
     4
  0
VERTEX
  5
6E1
  8
0
 10
87.58100128173828
 20
330.0010070800781
 30
90.13500213623047
 70
   192
  0
VERTEX
  5
6E2
  8
0
 10
85.23799896240234
 20
324.343994140625
 30
90.13500213623047
 70
   192
  0
VERTEX
  5
6E3
  8
0
 10
85.23799896240234
 20
324.343994140625
 30
85.53500366210938
 70
   192
  0
VERTEX
  5
6E4
  8
0
 10
79.58100128173828
 20
322.0010070800781
 30
85.53500366210938
 70
   192
  0
VERTEX
  5
6E5
  8
0
 10
79.58100128173828
 20
322.0010070800781
 30
90.13500213623047
 70
   192
  0
VERTEX
  5
6E6
  8
0
 10
87.58100128173828
 20
330.0010070800781
 30
85.53500366210938
 70
   192
  0
VERTEX
  5
6E7
  8
0
 62
     9
 10
0.0
 20
0.0
 30
0.0
 70
   128
 71
     3
 72
     2
 73
     1
  0
VERTEX
  5
6E8
  8
0
 62
     9
 10
0.0
 20
0.0
 30
0.0
 70
   128
 71
     2
 72
     3
 73
     4
  0
VERTEX
  5
6E9
  8
0
 62
     9
 10
0.0
 20
0.0
 30
0.0
 70
   128
 71
     4
 72
     5
 73
     2
  0
VERTEX
  5
6EA
  8
0
 62
     9
 10
0.0
 20
0.0
 30
0.0
 70
   128
 71
     1
 72
     6
 73
     3
  0
SEQEND
  5
6EB
  8
0
 62
     9
  0
ENDBLK
  5
6EE
  8
0
  0
BLOCK
  8
0
  2
E3_NODE_65_
 70
     0
 10
0.0
 20
0.0
 30
0.0
  3
E3_NODE_65_
  1

  0
POLYLINE
  5
6F0
  8
0
 62
     9
 66
     1
 10
0.0
 20
0.0
 30
0.0
 70
    64
 71
     6
 72
     4
  0
VERTEX
  5
6F1
  8
0
 10
1.144000053405762
 20
322.7009887695312
 30
90.83499908447266
 70
   192
  0
VERTEX
  5
6F2
  8
0
 10
1.144000053405762
 20
322.2059936523438
 30
90.62999725341797
 70
   192
  0
VERTEX
  5
6F3
  8
0
 10
79.58100128173828
 20
322.3510131835938
 30
90.48500061035156
 70
   192
  0
VERTEX
  5
6F4
  8
0
 10
1.144000053405762
 20
322.0010070800781
 30
90.13500213623047
 70
   192
  0
VERTEX
  5
6F5
  8
0
 10
79.58100128173828
 20
322.0010070800781
 30
90.13500213623047
 70
   192
  0
VERTEX
  5
6F6
  8
0
 10
79.58100128173828
 20
322.7009887695312
 30
90.83499908447266
 70
   192
  0
VERTEX
  5
6F7
  8
0
 62
     9
 10
0.0
 20
0.0
 30
0.0
 70
   128
 71
     3
 72
     2
 73
     1
  0
VERTEX
  5
6F8
  8
0
 62
     9
 10
0.0
 20
0.0
 30
0.0
 70
   128
 71
     3
 72
     5
 73
     4
  0
VERTEX
  5
6F9
  8
0
 62
     9
 10
0.0
 20
0.0
 30
0.0
 70
   128
 71
     4
 72
     2
 73
     3
  0
VERTEX
  5
6FA
  8
0
 62
     9
 10
0.0
 20
0.0
 30
0.0
 70
   128
 71
     1
 72
     6
 73
     3
  0
SEQEND
  5
6FB
  8
0
 62
     9
  0
ENDBLK
  5
6FE
  8
0
  0
BLOCK
  8
0
  2
E3_NODE_66_
 70
     0
 10
0.0
 20
0.0
 30
0.0
  3
E3_NODE_66_
  1

  0
POLYLINE
  5
700
  8
0
 62
     9
 66
     1
 10
0.0
 20
0.0
 30
0.0
 70
    64
 71
     5
 72
     3
  0
VERTEX
  5
701
  8
0
 10
79.58100128173828
 20
322.0010070800781
 30
90.13500213623047
 70
   192
  0
VERTEX
  5
702
  8
0
 10
3.956000089645386
 20
322.0010070800781
 30
86.2239990234375
 70
   192
  0
VERTEX
  5
703
  8
0
 10
4.284999847412109
 20
322.0010070800781
 30
85.53500366210938
 70
   192
  0
VERTEX
  5
704
  8
0
 10
1.144000053405762
 20
322.0010070800781
 30
90.13500213623047
 70
   192
  0
VERTEX
  5
705
  8
0
 10
79.58100128173828
 20
322.0010070800781
 30
85.53500366210938
 70
   192
  0
VERTEX
  5
706
  8
0
 62
     9
 10
0.0
 20
0.0
 30
0.0
 70
   128
 71
     3
 72
     2
 73
     1
  0
VERTEX
  5
707
  8
0
 62
     9
 10
0.0
 20
0.0
 30
0.0
 70
   128
 71
     2
 72
     4
 73
     1
  0
VERTEX
  5
708
  8
0
 62
     9
 10
0.0
 20
0.0
 30
0.0
 70
   128
 71
     1
 72
     5
 73
     3
  0
SEQEND
  5
709
  8
0
 62
     9
  0
ENDBLK
  5
70C
  8
0
  0
BLOCK
  8
0
  2
E3_NODE_67_
 70
     0
 10
0.0
 20
0.0
 30
0.0
  3
E3_NODE_67_
  1

  0
POLYLINE
  5
70E
  8
0
 62
     9
 66
     1
 10
0.0
 20
0.0
 30
0.0
 70
    64
 71
    10
 72
     9
  0
VERTEX
  5
70F
  8
0
 10
25.33200073242188
 20
339.3489990234375
 30
85.33499908447266
 70
   192
  0
VERTEX
  5
710
  8
0
 10
24.46599960327148
 20
339.3489990234375
 30
84.83499908447266
 70
   192
  0
VERTEX
  5
711
  8
0
 10
24.68400001525879
 20
345.0039978027344
 30
84.7979965209961
 70
   192
  0
VERTEX
  5
712
  8
0
 10
25.4109992980957
 20
345.3510131835938
 30
85.36499786376953
 70
   192
  0
VERTEX
  5
713
  8
0
 10
25.36599922180176
 20
345.3489990234375
 30
86.2760009765625
 70
   192
  0
VERTEX
  5
714
  8
0
 10
25.33200073242188
 20
350.6510009765625
 30
85.33499908447266
 70
   192
  0
VERTEX
  5
715
  8
0
 10
24.69700050354004
 20
345.3519897460938
 30
84.7959976196289
 70
   192
  0
VERTEX
  5
716
  8
0
 10
25.33200073242188
 20
350.6510009765625
 30
86.33499908447266
 70
   192
  0
VERTEX
  5
717
  8
0
 10
24.46599960327148
 20
350.6510009765625
 30
84.83499908447266
 70
   192
  0
VERTEX
  5
718
  8
0
 10
25.33200073242188
 20
339.3489990234375
 30
86.33499908447266
 70
   192
  0
VERTEX
  5
719
  8
0
 62
     9
 10
0.0
 20
0.0
 30
0.0
 70
   128
 71
     3
 72
     2
 73
     1
  0
VERTEX
  5
71A
  8
0
 62
     9
 10
0.0
 20
0.0
 30
0.0
 70
   128
 71
     1
 72
     4
 73
     3
  0
VERTEX
  5
71B
  8
0
 62
     9
 10
0.0
 20
0.0
 30
0.0
 70
   128
 71
     5
 72
     4
 73
     1
  0
VERTEX
  5
71C
  8
0
 62
     9
 10
0.0
 20
0.0
 30
0.0
 70
   128
 71
     7
 72
     4
 73
     6
  0
VERTEX
  5
71D
  8
0
 62
     9
 10
0.0
 20
0.0
 30
0.0
 70
   128
 71
     5
 72
     8
 73
     6
  0
VERTEX
  5
71E
  8
0
 62
     9
 10
0.0
 20
0.0
 30
0.0
 70
   128
 71
     6
 72
     4
 73
     5
  0
VERTEX
  5
71F
  8
0
 62
     9
 10
0.0
 20
0.0
 30
0.0
 70
   128
 71
     6
 72
     9
 73
     7
  0
VERTEX
  5
720
  8
0
 62
     9
 10
0.0
 20
0.0
 30
0.0
 70
   128
 71
     1
 72
    10
 73
     5
  0
VERTEX
  5
721
  8
0
 62
     9
 10
0.0
 20
0.0
 30
0.0
 70
   128
 71
     4
 72
     7
 73
     3
  0
SEQEND
  5
722
  8
0
 62
     9
  0
ENDBLK
  5
725
  8
0
  0
BLOCK
  8
0
  2
E3_NODE_68_
 70
     0
 10
0.0
 20
0.0
 30
0.0
  3
E3_NODE_68_
  1

  0
POLYLINE
  5
727
  8
0
 62
     9
 66
     1
 10
0.0
 20
0.0
 30
0.0
 70
    64
 71
     6
 72
     4
  0
VERTEX
  5
728
  8
0
 10
25.33200073242188
 20
350.6510009765625
 30
85.33499908447266
 70
   192
  0
VERTEX
  5
729
  8
0
 10
24.46599960327148
 20
350.6510009765625
 30
84.83499908447266
 70
   192
  0
VERTEX
  5
72A
  8
0
 10
24.46599960327148
 20
354.1310119628906
 30
84.83499908447266
 70
   192
  0
VERTEX
  5
72B
  8
0
 10
25.33200073242188
 20
354.1310119628906
 30
85.33499908447266
 70
   192
  0
VERTEX
  5
72C
  8
0
 10
25.33200073242188
 20
354.1310119628906
 30
86.33499908447266
 70
   192
  0
VERTEX
  5
72D
  8
0
 10
25.33200073242188
 20
350.6510009765625
 30
86.33499908447266
 70
   192
  0
VERTEX
  5
72E
  8
0
 62
     9
 10
0.0
 20
0.0
 30
0.0
 70
   128
 71
     3
 72
     2
 73
     1
  0
VERTEX
  5
72F
  8
0
 62
     9
 10
0.0
 20
0.0
 30
0.0
 70
   128
 71
     5
 72
     4
 73
     1
  0
VERTEX
  5
730
  8
0
 62
     9
 10
0.0
 20
0.0
 30
0.0
 70
   128
 71
     1
 72
     6
 73
     5
  0
VERTEX
  5
731
  8
0
 62
     9
 10
0.0
 20
0.0
 30
0.0
 70
   128
 71
     1
 72
     4
 73
     3
  0
SEQEND
  5
732
  8
0
 62
     9
  0
ENDBLK
  5
735
  8
0
  0
BLOCK
  8
0
  2
E3_NODE_69_
 70
     0
 10
0.0
 20
0.0
 30
0.0
  3
E3_NODE_69_
  1

  0
POLYLINE
  5
737
  8
0
 62
     9
 66
     1
 10
0.0
 20
0.0
 30
0.0
 70
    64
 71
     6
 72
     4
  0
VERTEX
  5
738
  8
0
 10
24.46599960327148
 20
339.3489990234375
 30
84.83499908447266
 70
   192
  0
VERTEX
  5
739
  8
0
 10
25.33200073242188
 20
339.3489990234375
 30
85.33499908447266
 70
   192
  0
VERTEX
  5
73A
  8
0
 10
25.33200073242188
 20
335.8689880371094
 30
85.33499908447266
 70
   192
  0
VERTEX
  5
73B
  8
0
 10
25.33200073242188
 20
339.3489990234375
 30
86.33499908447266
 70
   192
  0
VERTEX
  5
73C
  8
0
 10
25.33200073242188
 20
335.8689880371094
 30
86.33499908447266
 70
   192
  0
VERTEX
  5
73D
  8
0
 10
24.46599960327148
 20
335.8689880371094
 30
84.83499908447266
 70
   192
  0
VERTEX
  5
73E
  8
0
 62
     9
 10
0.0
 20
0.0
 30
0.0
 70
   128
 71
     3
 72
     2
 73
     1
  0
VERTEX
  5
73F
  8
0
 62
     9
 10
0.0
 20
0.0
 30
0.0
 70
   128
 71
     3
 72
     5
 73
     4
  0
VERTEX
  5
740
  8
0
 62
     9
 10
0.0
 20
0.0
 30
0.0
 70
   128
 71
     4
 72
     2
 73
     3
  0
VERTEX
  5
741
  8
0
 62
     9
 10
0.0
 20
0.0
 30
0.0
 70
   128
 71
     1
 72
     6
 73
     3
  0
SEQEND
  5
742
  8
0
 62
     9
  0
ENDBLK
  5
745
  8
0
  0
BLOCK
  8
0
  2
E3_NODE_70_
 70
     0
 10
0.0
 20
0.0
 30
0.0
  3
E3_NODE_70_
  1

  0
POLYLINE
  5
747
  8
0
 62
     9
 66
     1
 10
0.0
 20
0.0
 30
0.0
 70
    64
 71
     9
 72
     7
  0
VERTEX
  5
748
  8
0
 10
25.36599922180176
 20
345.3489990234375
 30
86.2760009765625
 70
   192
  0
VERTEX
  5
749
  8
0
 10
25.33200073242188
 20
350.6510009765625
 30
86.33499908447266
 70
   192
  0
VERTEX
  5
74A
  8
0
 10
24.03300094604492
 20
349.8970031738281
 30
88.58499908447266
 70
   192
  0
VERTEX
  5
74B
  8
0
 10
22.73399925231934
 20
345.6629943847656
 30
90.83499908447266
 70
   192
  0
VERTEX
  5
74C
  8
0
 10
22.73399925231934
 20
333.27099609375
 30
90.83499908447266
 70
   192
  0
VERTEX
  5
74D
  8
0
 10
25.33200073242188
 20
339.3489990234375
 30
86.33499908447266
 70
   192
  0
VERTEX
  5
74E
  8
0
 10
23.97100067138672
 20
334.5079956054688
 30
88.69300079345703
 70
   192
  0
VERTEX
  5
74F
  8
0
 10
25.33200073242188
 20
335.8689880371094
 30
86.33499908447266
 70
   192
  0
VERTEX
  5
750
  8
0
 10
25.33200073242188
 20
354.1310119628906
 30
86.33499908447266
 70
   192
  0
VERTEX
  5
751
  8
0
 62
     9
 10
0.0
 20
0.0
 30
0.0
 70
   128
 71
     3
 72
     2
 73
     1
  0
VERTEX
  5
752
  8
0
 62
     9
 10
0.0
 20
0.0
 30
0.0
 70
   128
 71
     6
 72
     5
 73
     4
  0
VERTEX
  5
753
  8
0
 62
     9
 10
0.0
 20
0.0
 30
0.0
 70
   128
 71
     4
 72
     1
 73
     6
  0
VERTEX
  5
754
  8
0
 62
     9
 10
0.0
 20
0.0
 30
0.0
 70
   128
 71
     7
 72
     5
 73
     6
  0
VERTEX
  5
755
  8
0
 62
     9
 10
0.0
 20
0.0
 30
0.0
 70
   128
 71
     6
 72
     8
 73
     7
  0
VERTEX
  5
756
  8
0
 62
     9
 10
0.0
 20
0.0
 30
0.0
 70
   128
 71
     1
 72
     4
 73
     3
  0
VERTEX
  5
757
  8
0
 62
     9
 10
0.0
 20
0.0
 30
0.0
 70
   128
 71
     3
 72
     9
 73
     2
  0
SEQEND
  5
758
  8
0
 62
     9
  0
ENDBLK
  5
75B
  8
0
  0
BLOCK
  8
0
  2
E3_NODE_71_
 70
     0
 10
0.0
 20
0.0
 30
0.0
  3
E3_NODE_71_
  1

  0
POLYLINE
  5
75D
  8
0
 62
     9
 66
     1
 10
0.0
 20
0.0
 30
0.0
 70
    64
 71
    19
 72
    21
  0
VERTEX
  5
75E
  8
0
 10
27.05299949645996
 20
356.7650146484375
 30
85.38500213623047
 70
   192
  0
VERTEX
  5
75F
  8
0
 10
28.18499946594238
 20
356.9809875488281
 30
85.33499908447266
 70
   192
  0
VERTEX
  5
760
  8
0
 10
28.18499946594238
 20
356.9809875488281
 30
86.33499908447266
 70
   192
  0
VERTEX
  5
761
  8
0
 10
26.7450008392334
 20
357.6029968261719
 30
84.83499908447266
 70
   192
  0
VERTEX
  5
762
  8
0
 10
28.18499946594238
 20
357.8469848632812
 30
84.83499908447266
 70
   192
  0
VERTEX
  5
763
  8
0
 10
27.02199935913086
 20
356.8489990234375
 30
86.43099975585938
 70
   192
  0
VERTEX
  5
764
  8
0
 10
26.24099922180176
 20
356.4339904785156
 30
86.46600341796875
 70
   192
  0
VERTEX
  5
765
  8
0
 10
26.32099914550781
 20
356.3359985351562
 30
85.40599822998047
 70
   192
  0
VERTEX
  5
766
  8
0
 10
25.74799919128418
 20
357.0329895019531
 30
84.83499908447266
 70
   192
  0
VERTEX
  5
767
  8
0
 10
25.66900062561035
 20
355.7579956054688
 30
86.45600128173828
 70
   192
  0
VERTEX
  5
768
  8
0
 10
25.76799964904785
 20
355.697998046875
 30
85.4000015258789
 70
   192
  0
VERTEX
  5
769
  8
0
 10
25.37599945068359
 20
354.9209899902344
 30
86.40499877929688
 70
   192
  0
VERTEX
  5
76A
  8
0
 10
24.99699974060059
 20
356.1629943847656
 30
84.83499908447266
 70
   192
  0
VERTEX
  5
76B
  8
0
 10
25.4379997253418
 20
354.9070129394531
 30
85.37100219726562
 70
   192
  0
VERTEX
  5
76C
  8
0
 10
25.33200073242188
 20
354.1310119628906
 30
85.33499908447266
 70
   192
  0
VERTEX
  5
76D
  8
0
 10
25.35099983215332
 20
354.4739990234375
 30
86.36599731445312
 70
   192
  0
VERTEX
  5
76E
  8
0
 10
24.57500076293945
 20
355.1069946289062
 30
84.83499908447266
 70
   192
  0
VERTEX
  5
76F
  8
0
 10
24.46599960327148
 20
354.1310119628906
 30
84.83499908447266
 70
   192
  0
VERTEX
  5
770
  8
0
 10
25.33200073242188
 20
354.1310119628906
 30
86.33499908447266
 70
   192
  0
VERTEX
  5
771
  8
0
 62
     9
 10
0.0
 20
0.0
 30
0.0
 70
   128
 71
     3
 72
     2
 73
     1
  0
VERTEX
  5
772
  8
0
 62
     9
 10
0.0
 20
0.0
 30
0.0
 70
   128
 71
     2
 72
     5
 73
     4
  0
VERTEX
  5
773
  8
0
 62
     9
 10
0.0
 20
0.0
 30
0.0
 70
   128
 71
     8
 72
     7
 73
     6
  0
VERTEX
  5
774
  8
0
 62
     9
 10
0.0
 20
0.0
 30
0.0
 70
   128
 71
     1
 72
     4
 73
     9
  0
VERTEX
  5
775
  8
0
 62
     9
 10
0.0
 20
0.0
 30
0.0
 70
   128
 71
     8
 72
    11
 73
    10
  0
VERTEX
  5
776
  8
0
 62
     9
 10
0.0
 20
0.0
 30
0.0
 70
   128
 71
    11
 72
     8
 73
     9
  0
VERTEX
  5
777
  8
0
 62
     9
 10
0.0
 20
0.0
 30
0.0
 70
   128
 71
    12
 72
    10
 73
    11
  0
VERTEX
  5
778
  8
0
 62
     9
 10
0.0
 20
0.0
 30
0.0
 70
   128
 71
    14
 72
    11
 73
    13
  0
VERTEX
  5
779
  8
0
 62
     9
 10
0.0
 20
0.0
 30
0.0
 70
   128
 71
    16
 72
    14
 73
    15
  0
VERTEX
  5
77A
  8
0
 62
     9
 10
0.0
 20
0.0
 30
0.0
 70
   128
 71
    16
 72
    12
 73
    14
  0
VERTEX
  5
77B
  8
0
 62
     9
 10
0.0
 20
0.0
 30
0.0
 70
   128
 71
    15
 72
    14
 73
    17
  0
VERTEX
  5
77C
  8
0
 62
     9
 10
0.0
 20
0.0
 30
0.0
 70
   128
 71
    17
 72
    18
 73
    15
  0
VERTEX
  5
77D
  8
0
 62
     9
 10
0.0
 20
0.0
 30
0.0
 70
   128
 71
    15
 72
    19
 73
    16
  0
VERTEX
  5
77E
  8
0
 62
     9
 10
0.0
 20
0.0
 30
0.0
 70
   128
 71
    13
 72
    17
 73
    14
  0
VERTEX
  5
77F
  8
0
 62
     9
 10
0.0
 20
0.0
 30
0.0
 70
   128
 71
    11
 72
    14
 73
    12
  0
VERTEX
  5
780
  8
0
 62
     9
 10
0.0
 20
0.0
 30
0.0
 70
   128
 71
     9
 72
    13
 73
    11
  0
VERTEX
  5
781
  8
0
 62
     9
 10
0.0
 20
0.0
 30
0.0
 70
   128
 71
    10
 72
     7
 73
     8
  0
VERTEX
  5
782
  8
0
 62
     9
 10
0.0
 20
0.0
 30
0.0
 70
   128
 71
     9
 72
     8
 73
     1
  0
VERTEX
  5
783
  8
0
 62
     9
 10
0.0
 20
0.0
 30
0.0
 70
   128
 71
     6
 72
     1
 73
     8
  0
VERTEX
  5
784
  8
0
 62
     9
 10
0.0
 20
0.0
 30
0.0
 70
   128
 71
     4
 72
     1
 73
     2
  0
VERTEX
  5
785
  8
0
 62
     9
 10
0.0
 20
0.0
 30
0.0
 70
   128
 71
     1
 72
     6
 73
     3
  0
SEQEND
  5
786
  8
0
 62
     9
  0
ENDBLK
  5
789
  8
0
  0
BLOCK
  8
0
  2
E3_NODE_72_
 70
     0
 10
0.0
 20
0.0
 30
0.0
  3
E3_NODE_72_
  1

  0
POLYLINE
  5
78B
  8
0
 62
     9
 66
     1
 10
0.0
 20
0.0
 30
0.0
 70
    64
 71
    18
 72
    20
  0
VERTEX
  5
78C
  8
0
 10
25.54599952697754
 20
334.7529907226562
 30
85.38500213623047
 70
   192
  0
VERTEX
  5
78D
  8
0
 10
25.33200073242188
 20
335.8689880371094
 30
85.33499908447266
 70
   192
  0
VERTEX
  5
78E
  8
0
 10
25.33200073242188
 20
335.8689880371094
 30
86.33499908447266
 70
   192
  0
VERTEX
  5
78F
  8
0
 10
24.70700073242188
 20
334.447998046875
 30
84.83499908447266
 70
   192
  0
VERTEX
  5
790
  8
0
 10
24.46599960327148
 20
335.8689880371094
 30
84.83499908447266
 70
   192
  0
VERTEX
  5
791
  8
0
 10
25.46199989318848
 20
334.7219848632812
 30
86.43000030517578
 70
   192
  0
VERTEX
  5
792
  8
0
 10
25.87899971008301
 20
333.9289855957031
 30
86.46600341796875
 70
   192
  0
VERTEX
  5
793
  8
0
 10
25.97699928283691
 20
334.0090026855469
 30
85.40499877929688
 70
   192
  0
VERTEX
  5
794
  8
0
 10
25.27799987792969
 20
333.43798828125
 30
84.83499908447266
 70
   192
  0
VERTEX
  5
795
  8
0
 10
26.55999946594238
 20
333.3510131835938
 30
86.45600128173828
 70
   192
  0
VERTEX
  5
796
  8
0
 10
26.6200008392334
 20
333.4500122070312
 30
85.4000015258789
 70
   192
  0
VERTEX
  5
797
  8
0
 10
27.39299964904785
 20
333.06201171875
 30
86.40399932861328
 70
   192
  0
VERTEX
  5
798
  8
0
 10
26.1560001373291
 20
332.6780090332031
 30
84.83499908447266
 70
   192
  0
VERTEX
  5
799
  8
0
 10
27.4069995880127
 20
333.1229858398438
 30
85.37100219726562
 70
   192
  0
VERTEX
  5
79A
  8
0
 10
28.18499946594238
 20
333.0190124511719
 30
86.33499908447266
 70
   192
  0
VERTEX
  5
79B
  8
0
 10
27.20999908447266
 20
332.260009765625
 30
84.83499908447266
 70
   192
  0
VERTEX
  5
79C
  8
0
 10
28.18499946594238
 20
333.0190124511719
 30
85.33499908447266
 70
   192
  0
VERTEX
  5
79D
  8
0
 10
28.18499946594238
 20
332.1530151367188
 30
84.83499908447266
 70
   192
  0
VERTEX
  5
79E
  8
0
 62
     9
 10
0.0
 20
0.0
 30
0.0
 70
   128
 71
     3
 72
     2
 73
     1
  0
VERTEX
  5
79F
  8
0
 62
     9
 10
0.0
 20
0.0
 30
0.0
 70
   128
 71
     2
 72
     5
 73
     4
  0
VERTEX
  5
7A0
  8
0
 62
     9
 10
0.0
 20
0.0
 30
0.0
 70
   128
 71
     8
 72
     7
 73
     6
  0
VERTEX
  5
7A1
  8
0
 62
     9
 10
0.0
 20
0.0
 30
0.0
 70
   128
 71
     1
 72
     4
 73
     9
  0
VERTEX
  5
7A2
  8
0
 62
     9
 10
0.0
 20
0.0
 30
0.0
 70
   128
 71
     8
 72
    11
 73
    10
  0
VERTEX
  5
7A3
  8
0
 62
     9
 10
0.0
 20
0.0
 30
0.0
 70
   128
 71
    11
 72
     8
 73
     9
  0
VERTEX
  5
7A4
  8
0
 62
     9
 10
0.0
 20
0.0
 30
0.0
 70
   128
 71
    12
 72
    10
 73
    11
  0
VERTEX
  5
7A5
  8
0
 62
     9
 10
0.0
 20
0.0
 30
0.0
 70
   128
 71
    14
 72
    11
 73
    13
  0
VERTEX
  5
7A6
  8
0
 62
     9
 10
0.0
 20
0.0
 30
0.0
 70
   128
 71
    15
 72
    12
 73
    14
  0
VERTEX
  5
7A7
  8
0
 62
     9
 10
0.0
 20
0.0
 30
0.0
 70
   128
 71
    17
 72
    14
 73
    16
  0
VERTEX
  5
7A8
  8
0
 62
     9
 10
0.0
 20
0.0
 30
0.0
 70
   128
 71
    16
 72
    18
 73
    17
  0
VERTEX
  5
7A9
  8
0
 62
     9
 10
0.0
 20
0.0
 30
0.0
 70
   128
 71
    14
 72
    17
 73
    15
  0
VERTEX
  5
7AA
  8
0
 62
     9
 10
0.0
 20
0.0
 30
0.0
 70
   128
 71
    13
 72
    16
 73
    14
  0
VERTEX
  5
7AB
  8
0
 62
     9
 10
0.0
 20
0.0
 30
0.0
 70
   128
 71
    11
 72
    14
 73
    12
  0
VERTEX
  5
7AC
  8
0
 62
     9
 10
0.0
 20
0.0
 30
0.0
 70
   128
 71
     9
 72
    13
 73
    11
  0
VERTEX
  5
7AD
  8
0
 62
     9
 10
0.0
 20
0.0
 30
0.0
 70
   128
 71
    10
 72
     7
 73
     8
  0
VERTEX
  5
7AE
  8
0
 62
     9
 10
0.0
 20
0.0
 30
0.0
 70
   128
 71
     9
 72
     8
 73
     1
  0
VERTEX
  5
7AF
  8
0
 62
     9
 10
0.0
 20
0.0
 30
0.0
 70
   128
 71
     6
 72
     1
 73
     8
  0
VERTEX
  5
7B0
  8
0
 62
     9
 10
0.0
 20
0.0
 30
0.0
 70
   128
 71
     4
 72
     1
 73
     2
  0
VERTEX
  5
7B1
  8
0
 62
     9
 10
0.0
 20
0.0
 30
0.0
 70
   128
 71
     1
 72
     6
 73
     3
  0
SEQEND
  5
7B2
  8
0
 62
     9
  0
ENDBLK
  5
7B5
  8
0
  0
BLOCK
  8
0
  2
E3_NODE_73_
 70
     0
 10
0.0
 20
0.0
 30
0.0
  3
E3_NODE_73_
  1

  0
POLYLINE
  5
7B7
  8
0
 62
     9
 66
     1
 10
0.0
 20
0.0
 30
0.0
 70
    64
 71
    18
 72
    18
  0
VERTEX
  5
7B8
  8
0
 10
29.14800071716309
 20
332.8569946289062
 30
86.61699676513672
 70
   192
  0
VERTEX
  5
7B9
  8
0
 10
27.95700073242188
 20
331.6659851074219
 30
88.68000030517578
 70
   192
  0
VERTEX
  5
7BA
  8
0
 10
33.62099838256836
 20
331.7049865722656
 30
88.61199951171875
 70
   192
  0
VERTEX
  5
7BB
  8
0
 10
23.97100067138672
 20
334.5079956054688
 30
88.69300079345703
 70
   192
  0
VERTEX
  5
7BC
  8
0
 10
26.55999946594238
 20
333.3510131835938
 30
86.45600128173828
 70
   192
  0
VERTEX
  5
7BD
  8
0
 10
28.18499946594238
 20
333.0190124511719
 30
86.33499908447266
 70
   192
  0
VERTEX
  5
7BE
  8
0
 10
27.39299964904785
 20
333.06201171875
 30
86.40399932861328
 70
   192
  0
VERTEX
  5
7BF
  8
0
 10
25.87899971008301
 20
333.9289855957031
 30
86.46600341796875
 70
   192
  0
VERTEX
  5
7C0
  8
0
 10
25.46199989318848
 20
334.7219848632812
 30
86.43000030517578
 70
   192
  0
VERTEX
  5
7C1
  8
0
 10
22.73399925231934
 20
333.27099609375
 30
90.83499908447266
 70
   192
  0
VERTEX
  5
7C2
  8
0
 10
26.04199981689453
 20
330.4209899902344
 30
90.83499908447266
 70
   192
  0
VERTEX
  5
7C3
  8
0
 10
30.67300033569336
 20
330.4209899902344
 30
90.83499908447266
 70
   192
  0
VERTEX
  5
7C4
  8
0
 10
26.71199989318848
 20
330.4209899902344
 30
90.83499908447266
 70
   192
  0
VERTEX
  5
7C5
  8
0
 10
32.33700180053711
 20
330.4209899902344
 30
90.83499908447266
 70
   192
  0
VERTEX
  5
7C6
  8
0
 10
43.58700180053711
 20
330.4209899902344
 30
90.83499908447266
 70
   192
  0
VERTEX
  5
7C7
  8
0
 10
35.88600158691406
 20
331.7200012207031
 30
88.58499908447266
 70
   192
  0
VERTEX
  5
7C8
  8
0
 10
25.33200073242188
 20
335.8689880371094
 30
86.33499908447266
 70
   192
  0
VERTEX
  5
7C9
  8
0
 10
33.96099853515625
 20
332.0450134277344
 30
88.02300262451172
 70
   192
  0
VERTEX
  5
7CA
  8
0
 62
     9
 10
0.0
 20
0.0
 30
0.0
 70
   128
 71
     3
 72
     2
 73
     1
  0
VERTEX
  5
7CB
  8
0
 62
     9
 10
0.0
 20
0.0
 30
0.0
 70
   128
 71
     5
 72
     2
 73
     4
  0
VERTEX
  5
7CC
  8
0
 62
     9
 10
0.0
 20
0.0
 30
0.0
 70
   128
 71
     6
 72
     1
 73
     2
  0
VERTEX
  5
7CD
  8
0
 62
     9
 10
0.0
 20
0.0
 30
0.0
 70
   128
 71
     2
 72
     7
 73
     6
  0
VERTEX
  5
7CE
  8
0
 62
     9
 10
0.0
 20
0.0
 30
0.0
 70
   128
 71
     2
 72
     5
 73
     7
  0
VERTEX
  5
7CF
  8
0
 62
     9
 10
0.0
 20
0.0
 30
0.0
 70
   128
 71
     4
 72
     8
 73
     5
  0
VERTEX
  5
7D0
  8
0
 62
     9
 10
0.0
 20
0.0
 30
0.0
 70
   128
 71
     4
 72
     9
 73
     8
  0
VERTEX
  5
7D1
  8
0
 62
     9
 10
0.0
 20
0.0
 30
0.0
 70
   128
 71
    11
 72
    10
 73
     4
  0
VERTEX
  5
7D2
  8
0
 62
     9
 10
0.0
 20
0.0
 30
0.0
 70
   128
 71
     4
 72
     2
 73
    11
  0
VERTEX
  5
7D3
  8
0
 62
     9
 10
0.0
 20
0.0
 30
0.0
 70
   128
 71
    12
 72
     2
 73
     3
  0
VERTEX
  5
7D4
  8
0
 62
     9
 10
0.0
 20
0.0
 30
0.0
 70
   128
 71
    12
 72
    13
 73
     2
  0
VERTEX
  5
7D5
  8
0
 62
     9
 10
0.0
 20
0.0
 30
0.0
 70
   128
 71
    16
 72
    15
 73
    14
  0
VERTEX
  5
7D6
  8
0
 62
     9
 10
0.0
 20
0.0
 30
0.0
 70
   128
 71
    14
 72
     3
 73
    16
  0
VERTEX
  5
7D7
  8
0
 62
     9
 10
0.0
 20
0.0
 30
0.0
 70
   128
 71
     3
 72
    14
 73
    12
  0
VERTEX
  5
7D8
  8
0
 62
     9
 10
0.0
 20
0.0
 30
0.0
 70
   128
 71
     2
 72
    13
 73
    11
  0
VERTEX
  5
7D9
  8
0
 62
     9
 10
0.0
 20
0.0
 30
0.0
 70
   128
 71
     4
 72
    17
 73
     9
  0
VERTEX
  5
7DA
  8
0
 62
     9
 10
0.0
 20
0.0
 30
0.0
 70
   128
 71
     1
 72
    18
 73
     3
  0
VERTEX
  5
7DB
  8
0
 62
     9
 10
0.0
 20
0.0
 30
0.0
 70
   128
 71
    16
 72
     3
 73
    18
  0
SEQEND
  5
7DC
  8
0
 62
     9
  0
ENDBLK
  5
7DF
  8
0
  0
BLOCK
  8
0
  2
E3_NODE_74_
 70
     0
 10
0.0
 20
0.0
 30
0.0
  3
E3_NODE_74_
  1

  0
POLYLINE
  5
7E1
  8
0
 62
     9
 66
     1
 10
0.0
 20
0.0
 30
0.0
 70
    64
 71
     6
 72
     4
  0
VERTEX
  5
7E2
  8
0
 10
28.18499946594238
 20
333.0190124511719
 30
86.33499908447266
 70
   192
  0
VERTEX
  5
7E3
  8
0
 10
67.72000122070312
 20
333.0190124511719
 30
86.33499908447266
 70
   192
  0
VERTEX
  5
7E4
  8
0
 10
67.72000122070312
 20
333.0190124511719
 30
85.33499908447266
 70
   192
  0
VERTEX
  5
7E5
  8
0
 10
28.18499946594238
 20
332.1530151367188
 30
84.83499908447266
 70
   192
  0
VERTEX
  5
7E6
  8
0
 10
28.18499946594238
 20
333.0190124511719
 30
85.33499908447266
 70
   192
  0
VERTEX
  5
7E7
  8
0
 10
67.72000122070312
 20
332.1530151367188
 30
84.83499908447266
 70
   192
  0
VERTEX
  5
7E8
  8
0
 62
     9
 10
0.0
 20
0.0
 30
0.0
 70
   128
 71
     3
 72
     2
 73
     1
  0
VERTEX
  5
7E9
  8
0
 62
     9
 10
0.0
 20
0.0
 30
0.0
 70
   128
 71
     3
 72
     5
 73
     4
  0
VERTEX
  5
7EA
  8
0
 62
     9
 10
0.0
 20
0.0
 30
0.0
 70
   128
 71
     4
 72
     6
 73
     3
  0
VERTEX
  5
7EB
  8
0
 62
     9
 10
0.0
 20
0.0
 30
0.0
 70
   128
 71
     1
 72
     5
 73
     3
  0
SEQEND
  5
7EC
  8
0
 62
     9
  0
ENDBLK
  5
7EF
  8
0
  0
BLOCK
  8
0
  2
E3_NODE_75_
 70
     0
 10
0.0
 20
0.0
 30
0.0
  3
E3_NODE_75_
  1

  0
POLYLINE
  5
7F1
  8
0
 62
     9
 66
     1
 10
0.0
 20
0.0
 30
0.0
 70
    64
 71
     7
 72
     5
  0
VERTEX
  5
7F2
  8
0
 10
67.72000122070312
 20
333.0190124511719
 30
86.33499908447266
 70
   192
  0
VERTEX
  5
7F3
  8
0
 10
35.88600158691406
 20
331.7200012207031
 30
88.58499908447266
 70
   192
  0
VERTEX
  5
7F4
  8
0
 10
43.58700180053711
 20
330.4209899902344
 30
90.83499908447266
 70
   192
  0
VERTEX
  5
7F5
  8
0
 10
33.96099853515625
 20
332.0450134277344
 30
88.02300262451172
 70
   192
  0
VERTEX
  5
7F6
  8
0
 10
28.18499946594238
 20
333.0190124511719
 30
86.33499908447266
 70
   192
  0
VERTEX
  5
7F7
  8
0
 10
29.14800071716309
 20
332.8569946289062
 30
86.61699676513672
 70
   192
  0
VERTEX
  5
7F8
  8
0
 10
70.31800079345703
 20
330.4209899902344
 30
90.83499908447266
 70
   192
  0
VERTEX
  5
7F9
  8
0
 62
     9
 10
0.0
 20
0.0
 30
0.0
 70
   128
 71
     3
 72
     2
 73
     1
  0
VERTEX
  5
7FA
  8
0
 62
     9
 10
0.0
 20
0.0
 30
0.0
 70
   128
 71
     2
 72
     4
 73
     1
  0
VERTEX
  5
7FB
  8
0
 62
     9
 10
0.0
 20
0.0
 30
0.0
 70
   128
 71
     6
 72
     5
 73
     1
  0
VERTEX
  5
7FC
  8
0
 62
     9
 10
0.0
 20
0.0
 30
0.0
 70
   128
 71
     1
 72
     4
 73
     6
  0
VERTEX
  5
7FD
  8
0
 62
     9
 10
0.0
 20
0.0
 30
0.0
 70
   128
 71
     1
 72
     7
 73
     3
  0
SEQEND
  5
7FE
  8
0
 62
     9
  0
ENDBLK
  5
801
  8
0
  0
BLOCK
  8
0
  2
E3_NODE_76_
 70
     0
 10
0.0
 20
0.0
 30
0.0
  3
E3_NODE_76_
  1

  0
POLYLINE
  5
803
  8
0
 62
     9
 66
     1
 10
0.0
 20
0.0
 30
0.0
 70
    64
 71
    18
 72
    20
  0
VERTEX
  5
804
  8
0
 10
68.96099853515625
 20
333.2340087890625
 30
85.38099670410156
 70
   192
  0
VERTEX
  5
805
  8
0
 10
67.72000122070312
 20
333.0190124511719
 30
85.33499908447266
 70
   192
  0
VERTEX
  5
806
  8
0
 10
67.72000122070312
 20
333.0190124511719
 30
86.33499908447266
 70
   192
  0
VERTEX
  5
807
  8
0
 10
69.23300170898438
 20
332.385986328125
 30
84.83499908447266
 70
   192
  0
VERTEX
  5
808
  8
0
 10
67.72000122070312
 20
332.1530151367188
 30
84.83499908447266
 70
   192
  0
VERTEX
  5
809
  8
0
 10
68.98600006103516
 20
333.1570129394531
 30
86.4229965209961
 70
   192
  0
VERTEX
  5
80A
  8
0
 10
70.23600006103516
 20
333.7749938964844
 30
86.46499633789062
 70
   192
  0
VERTEX
  5
80B
  8
0
 10
70.15899658203125
 20
333.8739929199219
 30
85.40499877929688
 70
   192
  0
VERTEX
  5
80C
  8
0
 10
70.71099853515625
 20
333.1600036621094
 30
84.83499908447266
 70
   192
  0
VERTEX
  5
80D
  8
0
 10
71.15299987792969
 20
334.7730102539062
 30
86.45999908447266
 70
   192
  0
VERTEX
  5
80E
  8
0
 10
71.0530014038086
 20
334.8380126953125
 30
85.4020004272461
 70
   192
  0
VERTEX
  5
80F
  8
0
 10
71.6510009765625
 20
336.0350036621094
 30
86.40599822998047
 70
   192
  0
VERTEX
  5
810
  8
0
 10
71.58699798583984
 20
336.0509948730469
 30
85.37200164794922
 70
   192
  0
VERTEX
  5
811
  8
0
 10
71.80799865722656
 20
334.3460083007812
 30
84.83499908447266
 70
   192
  0
VERTEX
  5
812
  8
0
 10
71.72000122070312
 20
337.0190124511719
 30
86.33499908447266
 70
   192
  0
VERTEX
  5
813
  8
0
 10
72.4489974975586
 20
335.8450012207031
 30
84.83499908447266
 70
   192
  0
VERTEX
  5
814
  8
0
 10
71.72000122070312
 20
337.0190124511719
 30
85.33499908447266
 70
   192
  0
VERTEX
  5
815
  8
0
 10
72.58599853515625
 20
337.0190124511719
 30
84.83499908447266
 70
   192
  0
VERTEX
  5
816
  8
0
 62
     9
 10
0.0
 20
0.0
 30
0.0
 70
   128
 71
     3
 72
     2
 73
     1
  0
VERTEX
  5
817
  8
0
 62
     9
 10
0.0
 20
0.0
 30
0.0
 70
   128
 71
     2
 72
     5
 73
     4
  0
VERTEX
  5
818
  8
0
 62
     9
 10
0.0
 20
0.0
 30
0.0
 70
   128
 71
     8
 72
     7
 73
     6
  0
VERTEX
  5
819
  8
0
 62
     9
 10
0.0
 20
0.0
 30
0.0
 70
   128
 71
     1
 72
     4
 73
     9
  0
VERTEX
  5
81A
  8
0
 62
     9
 10
0.0
 20
0.0
 30
0.0
 70
   128
 71
     8
 72
    11
 73
    10
  0
VERTEX
  5
81B
  8
0
 62
     9
 10
0.0
 20
0.0
 30
0.0
 70
   128
 71
    11
 72
     8
 73
     9
  0
VERTEX
  5
81C
  8
0
 62
     9
 10
0.0
 20
0.0
 30
0.0
 70
   128
 71
    11
 72
    13
 73
    12
  0
VERTEX
  5
81D
  8
0
 62
     9
 10
0.0
 20
0.0
 30
0.0
 70
   128
 71
    13
 72
    11
 73
    14
  0
VERTEX
  5
81E
  8
0
 62
     9
 10
0.0
 20
0.0
 30
0.0
 70
   128
 71
    15
 72
    12
 73
    13
  0
VERTEX
  5
81F
  8
0
 62
     9
 10
0.0
 20
0.0
 30
0.0
 70
   128
 71
    17
 72
    13
 73
    16
  0
VERTEX
  5
820
  8
0
 62
     9
 10
0.0
 20
0.0
 30
0.0
 70
   128
 71
    16
 72
    18
 73
    17
  0
VERTEX
  5
821
  8
0
 62
     9
 10
0.0
 20
0.0
 30
0.0
 70
   128
 71
    13
 72
    17
 73
    15
  0
VERTEX
  5
822
  8
0
 62
     9
 10
0.0
 20
0.0
 30
0.0
 70
   128
 71
    14
 72
    16
 73
    13
  0
VERTEX
  5
823
  8
0
 62
     9
 10
0.0
 20
0.0
 30
0.0
 70
   128
 71
    12
 72
    10
 73
    11
  0
VERTEX
  5
824
  8
0
 62
     9
 10
0.0
 20
0.0
 30
0.0
 70
   128
 71
     9
 72
    14
 73
    11
  0
VERTEX
  5
825
  8
0
 62
     9
 10
0.0
 20
0.0
 30
0.0
 70
   128
 71
    10
 72
     7
 73
     8
  0
VERTEX
  5
826
  8
0
 62
     9
 10
0.0
 20
0.0
 30
0.0
 70
   128
 71
     9
 72
     8
 73
     1
  0
VERTEX
  5
827
  8
0
 62
     9
 10
0.0
 20
0.0
 30
0.0
 70
   128
 71
     6
 72
     1
 73
     8
  0
VERTEX
  5
828
  8
0
 62
     9
 10
0.0
 20
0.0
 30
0.0
 70
   128
 71
     4
 72
     1
 73
     2
  0
VERTEX
  5
829
  8
0
 62
     9
 10
0.0
 20
0.0
 30
0.0
 70
   128
 71
     1
 72
     6
 73
     3
  0
SEQEND
  5
82A
  8
0
 62
     9
  0
ENDBLK
  5
82D
  8
0
  0
BLOCK
  8
0
  2
E3_NODE_77_
 70
     0
 10
0.0
 20
0.0
 30
0.0
  3
E3_NODE_77_
  1

  0
POLYLINE
  5
82F
  8
0
 62
     9
 66
     1
 10
0.0
 20
0.0
 30
0.0
 70
    64
 71
    36
 72
    34
  0
VERTEX
  5
830
  8
0
 10
86.88099670410156
 20
330.0010070800781
 30
84.83499908447266
 70
   192
  0
VERTEX
  5
831
  8
0
 10
72.58599853515625
 20
337.0190124511719
 30
84.83499908447266
 70
   192
  0
VERTEX
  5
832
  8
0
 10
72.58599853515625
 20
352.9809875488281
 30
84.83499908447266
 70
   192
  0
VERTEX
  5
833
  8
0
 10
21.63500022888184
 20
332.1180114746094
 30
84.83499908447266
 70
   192
  0
VERTEX
  5
834
  8
0
 10
27.20999908447266
 20
332.260009765625
 30
84.83499908447266
 70
   192
  0
VERTEX
  5
835
  8
0
 10
28.18499946594238
 20
332.1530151367188
 30
84.83499908447266
 70
   192
  0
VERTEX
  5
836
  8
0
 10
72.4489974975586
 20
335.8450012207031
 30
84.83499908447266
 70
   192
  0
VERTEX
  5
837
  8
0
 10
79.58100128173828
 20
322.7009887695312
 30
84.83499908447266
 70
   192
  0
VERTEX
  5
838
  8
0
 10
86.88099670410156
 20
360.0010070800781
 30
84.83499908447266
 70
   192
  0
VERTEX
  5
839
  8
0
 10
84.74299621582031
 20
324.8389892578125
 30
84.83499908447266
 70
   192
  0
VERTEX
  5
83A
  8
0
 10
71.80799865722656
 20
334.3460083007812
 30
84.83499908447266
 70
   192
  0
VERTEX
  5
83B
  8
0
 10
67.72000122070312
 20
332.1530151367188
 30
84.83499908447266
 70
   192
  0
VERTEX
  5
83C
  8
0
 10
72.35600280761719
 20
354.4930114746094
 30
84.83499908447266
 70
   192
  0
VERTEX
  5
83D
  8
0
 10
71.56800079345703
 20
355.989013671875
 30
84.83499908447266
 70
   192
  0
VERTEX
  5
83E
  8
0
 10
26.1560001373291
 20
332.6780090332031
 30
84.83499908447266
 70
   192
  0
VERTEX
  5
83F
  8
0
 10
21.63299942016602
 20
357.885986328125
 30
84.83499908447266
 70
   192
  0
VERTEX
  5
840
  8
0
 10
79.58100128173828
 20
367.3009948730469
 30
84.83499908447266
 70
   192
  0
VERTEX
  5
841
  8
0
 10
28.18499946594238
 20
357.8469848632812
 30
84.83499908447266
 70
   192
  0
VERTEX
  5
842
  8
0
 10
68.9010009765625
 20
357.7080078125
 30
84.83499908447266
 70
   192
  0
VERTEX
  5
843
  8
0
 10
67.72000122070312
 20
357.8469848632812
 30
84.83499908447266
 70
   192
  0
VERTEX
  5
844
  8
0
 10
69.23300170898438
 20
332.385986328125
 30
84.83499908447266
 70
   192
  0
VERTEX
  5
845
  8
0
 10
70.71099853515625
 20
333.1600036621094
 30
84.83499908447266
 70
   192
  0
VERTEX
  5
846
  8
0
 10
25.27799987792969
 20
333.43798828125
 30
84.83499908447266
 70
   192
  0
VERTEX
  5
847
  8
0
 10
24.57500076293945
 20
355.1069946289062
 30
84.83499908447266
 70
   192
  0
VERTEX
  5
848
  8
0
 10
24.46599960327148
 20
354.1310119628906
 30
84.83499908447266
 70
   192
  0
VERTEX
  5
849
  8
0
 10
70.4000015258789
 20
357.0610046386719
 30
84.83499908447266
 70
   192
  0
VERTEX
  5
84A
  8
0
 10
24.99699974060059
 20
356.1629943847656
 30
84.83499908447266
 70
   192
  0
VERTEX
  5
84B
  8
0
 10
84.74299621582031
 20
365.1629943847656
 30
84.83499908447266
 70
   192
  0
VERTEX
  5
84C
  8
0
 10
24.70700073242188
 20
334.447998046875
 30
84.83499908447266
 70
   192
  0
VERTEX
  5
84D
  8
0
 10
25.74799919128418
 20
357.0329895019531
 30
84.83499908447266
 70
   192
  0
VERTEX
  5
84E
  8
0
 10
24.46599960327148
 20
339.3489990234375
 30
84.83499908447266
 70
   192
  0
VERTEX
  5
84F
  8
0
 10
24.46599960327148
 20
335.8689880371094
 30
84.83499908447266
 70
   192
  0
VERTEX
  5
850
  8
0
 10
26.7450008392334
 20
357.6029968261719
 30
84.83499908447266
 70
   192
  0
VERTEX
  5
851
  8
0
 10
12.1850004196167
 20
322.7009887695312
 30
84.83499908447266
 70
   192
  0
VERTEX
  5
852
  8
0
 10
24.46599960327148
 20
350.6510009765625
 30
84.83499908447266
 70
   192
  0
VERTEX
  5
853
  8
0
 10
12.18099975585938
 20
367.3009948730469
 30
84.83499908447266
 70
   192
  0
VERTEX
  5
854
  8
0
 62
     9
 10
0.0
 20
0.0
 30
0.0
 70
   128
 71
     3
 72
     2
 73
     1
  0
VERTEX
  5
855
  8
0
 62
     9
 10
0.0
 20
0.0
 30
0.0
 70
   128
 71
     6
 72
     5
 73
     4
  0
VERTEX
  5
856
  8
0
 62
     9
 10
0.0
 20
0.0
 30
0.0
 70
   128
 71
     2
 72
     7
 73
     1
  0
VERTEX
  5
857
  8
0
 62
     9
 10
0.0
 20
0.0
 30
0.0
 70
   128
 71
     4
 72
     8
 73
     6
  0
VERTEX
  5
858
  8
0
 62
     9
 10
0.0
 20
0.0
 30
0.0
 70
   128
 71
     1
 72
     9
 73
     3
  0
VERTEX
  5
859
  8
0
 62
     9
 10
0.0
 20
0.0
 30
0.0
 70
   128
 71
    11
 72
    10
 73
     1
  0
VERTEX
  5
85A
  8
0
 62
     9
 10
0.0
 20
0.0
 30
0.0
 70
   128
 71
     8
 72
    12
 73
     6
  0
VERTEX
  5
85B
  8
0
 62
     9
 10
0.0
 20
0.0
 30
0.0
 70
   128
 71
    14
 72
    13
 73
     9
  0
VERTEX
  5
85C
  8
0
 62
     9
 10
0.0
 20
0.0
 30
0.0
 70
   128
 71
     1
 72
     7
 73
    11
  0
VERTEX
  5
85D
  8
0
 62
     9
 10
0.0
 20
0.0
 30
0.0
 70
   128
 71
     5
 72
    15
 73
     4
  0
VERTEX
  5
85E
  8
0
 62
     9
 10
0.0
 20
0.0
 30
0.0
 70
   128
 71
    18
 72
    17
 73
    16
  0
VERTEX
  5
85F
  8
0
 62
     9
 10
0.0
 20
0.0
 30
0.0
 70
   128
 71
    20
 72
    19
 73
    17
  0
VERTEX
  5
860
  8
0
 62
     9
 10
0.0
 20
0.0
 30
0.0
 70
   128
 71
     9
 72
    13
 73
     3
  0
VERTEX
  5
861
  8
0
 62
     9
 10
0.0
 20
0.0
 30
0.0
 70
   128
 71
     8
 72
    10
 73
    11
  0
VERTEX
  5
862
  8
0
 62
     9
 10
0.0
 20
0.0
 30
0.0
 70
   128
 71
     8
 72
    21
 73
    12
  0
VERTEX
  5
863
  8
0
 62
     9
 10
0.0
 20
0.0
 30
0.0
 70
   128
 71
    17
 72
    18
 73
    20
  0
VERTEX
  5
864
  8
0
 62
     9
 10
0.0
 20
0.0
 30
0.0
 70
   128
 71
    11
 72
    22
 73
     8
  0
VERTEX
  5
865
  8
0
 62
     9
 10
0.0
 20
0.0
 30
0.0
 70
   128
 71
    15
 72
    23
 73
     4
  0
VERTEX
  5
866
  8
0
 62
     9
 10
0.0
 20
0.0
 30
0.0
 70
   128
 71
    25
 72
    24
 73
    16
  0
VERTEX
  5
867
  8
0
 62
     9
 10
0.0
 20
0.0
 30
0.0
 70
   128
 71
    19
 72
    26
 73
    17
  0
VERTEX
  5
868
  8
0
 62
     9
 10
0.0
 20
0.0
 30
0.0
 70
   128
 71
    17
 72
    26
 73
    14
  0
VERTEX
  5
869
  8
0
 62
     9
 10
0.0
 20
0.0
 30
0.0
 70
   128
 71
     8
 72
    22
 73
    21
  0
VERTEX
  5
86A
  8
0
 62
     9
 10
0.0
 20
0.0
 30
0.0
 70
   128
 71
    24
 72
    27
 73
    16
  0
VERTEX
  5
86B
  8
0
 62
     9
 10
0.0
 20
0.0
 30
0.0
 70
   128
 71
    14
 72
    28
 73
    17
  0
VERTEX
  5
86C
  8
0
 62
     9
 10
0.0
 20
0.0
 30
0.0
 70
   128
 71
    23
 72
    29
 73
     4
  0
VERTEX
  5
86D
  8
0
 62
     9
 10
0.0
 20
0.0
 30
0.0
 70
   128
 71
    27
 72
    30
 73
    16
  0
VERTEX
  5
86E
  8
0
 62
     9
 10
0.0
 20
0.0
 30
0.0
 70
   128
 71
     9
 72
    28
 73
    14
  0
VERTEX
  5
86F
  8
0
 62
     9
 10
0.0
 20
0.0
 30
0.0
 70
   128
 71
    32
 72
    31
 73
     4
  0
VERTEX
  5
870
  8
0
 62
     9
 10
0.0
 20
0.0
 30
0.0
 70
   128
 71
    30
 72
    33
 73
    16
  0
VERTEX
  5
871
  8
0
 62
     9
 10
0.0
 20
0.0
 30
0.0
 70
   128
 71
     4
 72
    29
 73
    32
  0
VERTEX
  5
872
  8
0
 62
     9
 10
0.0
 20
0.0
 30
0.0
 70
   128
 71
    16
 72
    33
 73
    18
  0
VERTEX
  5
873
  8
0
 62
     9
 10
0.0
 20
0.0
 30
0.0
 70
   128
 71
     4
 72
    34
 73
     8
  0
VERTEX
  5
874
  8
0
 62
     9
 10
0.0
 20
0.0
 30
0.0
 70
   128
 71
    16
 72
    35
 73
    25
  0
VERTEX
  5
875
  8
0
 62
     9
 10
0.0
 20
0.0
 30
0.0
 70
   128
 71
    17
 72
    36
 73
    16
  0
SEQEND
  5
876
  8
0
 62
     9
  0
ENDBLK
  5
879
  8
0
  0
BLOCK
  8
0
  2
E3_NODE_78_
 70
     0
 10
0.0
 20
0.0
 30
0.0
  3
E3_NODE_78_
  1

  0
POLYLINE
  5
87B
  8
0
 62
     9
 66
     1
 10
0.0
 20
0.0
 30
0.0
 70
    64
 71
     6
 72
     4
  0
VERTEX
  5
87C
  8
0
 10
28.18499946594238
 20
356.9809875488281
 30
86.33499908447266
 70
   192
  0
VERTEX
  5
87D
  8
0
 10
28.18499946594238
 20
356.9809875488281
 30
85.33499908447266
 70
   192
  0
VERTEX
  5
87E
  8
0
 10
67.72000122070312
 20
356.9809875488281
 30
85.33499908447266
 70
   192
  0
VERTEX
  5
87F
  8
0
 10
67.72000122070312
 20
357.8469848632812
 30
84.83499908447266
 70
   192
  0
VERTEX
  5
880
  8
0
 10
28.18499946594238
 20
357.8469848632812
 30
84.83499908447266
 70
   192
  0
VERTEX
  5
881
  8
0
 10
67.72000122070312
 20
356.9809875488281
 30
86.33499908447266
 70
   192
  0
VERTEX
  5
882
  8
0
 62
     9
 10
0.0
 20
0.0
 30
0.0
 70
   128
 71
     3
 72
     2
 73
     1
  0
VERTEX
  5
883
  8
0
 62
     9
 10
0.0
 20
0.0
 30
0.0
 70
   128
 71
     2
 72
     3
 73
     4
  0
VERTEX
  5
884
  8
0
 62
     9
 10
0.0
 20
0.0
 30
0.0
 70
   128
 71
     4
 72
     5
 73
     2
  0
VERTEX
  5
885
  8
0
 62
     9
 10
0.0
 20
0.0
 30
0.0
 70
   128
 71
     1
 72
     6
 73
     3
  0
SEQEND
  5
886
  8
0
 62
     9
  0
ENDBLK
  5
889
  8
0
  0
BLOCK
  8
0
  2
E3_NODE_79_
 70
     0
 10
0.0
 20
0.0
 30
0.0
  3
E3_NODE_79_
  1

  0
POLYLINE
  5
88B
  8
0
 62
     9
 66
     1
 10
0.0
 20
0.0
 30
0.0
 70
    64
 71
    18
 72
    18
  0
VERTEX
  5
88C
  8
0
 10
24.01899909973145
 20
355.7850036621094
 30
88.63500213623047
 70
   192
  0
VERTEX
  5
88D
  8
0
 10
24.03300094604492
 20
349.8970031738281
 30
88.58499908447266
 70
   192
  0
VERTEX
  5
88E
  8
0
 10
25.33200073242188
 20
354.1310119628906
 30
86.33499908447266
 70
   192
  0
VERTEX
  5
88F
  8
0
 10
28.36700057983398
 20
358.2969970703125
 30
88.61599731445312
 70
   192
  0
VERTEX
  5
890
  8
0
 10
27.02199935913086
 20
356.8489990234375
 30
86.43099975585938
 70
   192
  0
VERTEX
  5
891
  8
0
 10
28.18499946594238
 20
356.9809875488281
 30
86.33499908447266
 70
   192
  0
VERTEX
  5
892
  8
0
 10
26.24099922180176
 20
356.4339904785156
 30
86.46600341796875
 70
   192
  0
VERTEX
  5
893
  8
0
 10
25.35099983215332
 20
354.4739990234375
 30
86.36599731445312
 70
   192
  0
VERTEX
  5
894
  8
0
 10
25.37599945068359
 20
354.9209899902344
 30
86.40499877929688
 70
   192
  0
VERTEX
  5
895
  8
0
 10
25.66900062561035
 20
355.7579956054688
 30
86.45600128173828
 70
   192
  0
VERTEX
  5
896
  8
0
 10
27.13999938964844
 20
358.9800109863281
 30
90.83499908447266
 70
   192
  0
VERTEX
  5
897
  8
0
 10
30.47599983215332
 20
358.2820129394531
 30
88.58999633789062
 70
   192
  0
VERTEX
  5
898
  8
0
 10
23.3390007019043
 20
358.5740051269531
 30
90.83499908447266
 70
   192
  0
VERTEX
  5
899
  8
0
 10
22.73399925231934
 20
354.8529968261719
 30
90.83499908447266
 70
   192
  0
VERTEX
  5
89A
  8
0
 10
22.73399925231934
 20
345.6629943847656
 30
90.83499908447266
 70
   192
  0
VERTEX
  5
89B
  8
0
 10
23.08399963378906
 20
357.0060119628906
 30
90.83499908447266
 70
   192
  0
VERTEX
  5
89C
  8
0
 10
32.75799942016602
 20
359.5790100097656
 30
90.83499908447266
 70
   192
  0
VERTEX
  5
89D
  8
0
 10
29.13999938964844
 20
357.5230102539062
 30
87.2750015258789
 70
   192
  0
VERTEX
  5
89E
  8
0
 62
     9
 10
0.0
 20
0.0
 30
0.0
 70
   128
 71
     3
 72
     2
 73
     1
  0
VERTEX
  5
89F
  8
0
 62
     9
 10
0.0
 20
0.0
 30
0.0
 70
   128
 71
     6
 72
     5
 73
     4
  0
VERTEX
  5
8A0
  8
0
 62
     9
 10
0.0
 20
0.0
 30
0.0
 70
   128
 71
     7
 72
     1
 73
     4
  0
VERTEX
  5
8A1
  8
0
 62
     9
 10
0.0
 20
0.0
 30
0.0
 70
   128
 71
     9
 72
     8
 73
     1
  0
VERTEX
  5
8A2
  8
0
 62
     9
 10
0.0
 20
0.0
 30
0.0
 70
   128
 71
     1
 72
    10
 73
     9
  0
VERTEX
  5
8A3
  8
0
 62
     9
 10
0.0
 20
0.0
 30
0.0
 70
   128
 71
     1
 72
     7
 73
    10
  0
VERTEX
  5
8A4
  8
0
 62
     9
 10
0.0
 20
0.0
 30
0.0
 70
   128
 71
     4
 72
     5
 73
     7
  0
VERTEX
  5
8A5
  8
0
 62
     9
 10
0.0
 20
0.0
 30
0.0
 70
   128
 71
    12
 72
     4
 73
    11
  0
VERTEX
  5
8A6
  8
0
 62
     9
 10
0.0
 20
0.0
 30
0.0
 70
   128
 71
    11
 72
     4
 73
     1
  0
VERTEX
  5
8A7
  8
0
 62
     9
 10
0.0
 20
0.0
 30
0.0
 70
   128
 71
     1
 72
    13
 73
    11
  0
VERTEX
  5
8A8
  8
0
 62
     9
 10
0.0
 20
0.0
 30
0.0
 70
   128
 71
     2
 72
    15
 73
    14
  0
VERTEX
  5
8A9
  8
0
 62
     9
 10
0.0
 20
0.0
 30
0.0
 70
   128
 71
    14
 72
    16
 73
     1
  0
VERTEX
  5
8AA
  8
0
 62
     9
 10
0.0
 20
0.0
 30
0.0
 70
   128
 71
    14
 72
     1
 73
     2
  0
VERTEX
  5
8AB
  8
0
 62
     9
 10
0.0
 20
0.0
 30
0.0
 70
   128
 71
     1
 72
    16
 73
    13
  0
VERTEX
  5
8AC
  8
0
 62
     9
 10
0.0
 20
0.0
 30
0.0
 70
   128
 71
    11
 72
    17
 73
    12
  0
VERTEX
  5
8AD
  8
0
 62
     9
 10
0.0
 20
0.0
 30
0.0
 70
   128
 71
    18
 72
     4
 73
    12
  0
VERTEX
  5
8AE
  8
0
 62
     9
 10
0.0
 20
0.0
 30
0.0
 70
   128
 71
     4
 72
    18
 73
     6
  0
VERTEX
  5
8AF
  8
0
 62
     9
 10
0.0
 20
0.0
 30
0.0
 70
   128
 71
     1
 72
     8
 73
     3
  0
SEQEND
  5
8B0
  8
0
 62
     9
  0
ENDBLK
  5
8B3
  8
0
  0
BLOCK
  8
0
  2
E3_NODE_80_
 70
     0
 10
0.0
 20
0.0
 30
0.0
  3
E3_NODE_80_
  1

  0
POLYLINE
  5
8B5
  8
0
 62
     9
 66
     1
 10
0.0
 20
0.0
 30
0.0
 70
    64
 71
    42
 72
    42
  0
VERTEX
  5
8B6
  8
0
 10
22.73399925231934
 20
345.6629943847656
 30
90.83499908447266
 70
   192
  0
VERTEX
  5
8B7
  8
0
 10
-22.22800064086914
 20
350.7420043945312
 30
90.83499908447266
 70
   192
  0
VERTEX
  5
8B8
  8
0
 10
-22.2189998626709
 20
339.2229919433594
 30
90.83499908447266
 70
   192
  0
VERTEX
  5
8B9
  8
0
 10
1.144000053405762
 20
322.7009887695312
 30
90.83499908447266
 70
   192
  0
VERTEX
  5
8BA
  8
0
 10
32.33700180053711
 20
330.4209899902344
 30
90.83499908447266
 70
   192
  0
VERTEX
  5
8BB
  8
0
 10
30.67300033569336
 20
330.4209899902344
 30
90.83499908447266
 70
   192
  0
VERTEX
  5
8BC
  8
0
 10
79.58100128173828
 20
322.7009887695312
 30
90.83499908447266
 70
   192
  0
VERTEX
  5
8BD
  8
0
 10
43.58700180053711
 20
330.4209899902344
 30
90.83499908447266
 70
   192
  0
VERTEX
  5
8BE
  8
0
 10
22.73399925231934
 20
354.8529968261719
 30
90.83499908447266
 70
   192
  0
VERTEX
  5
8BF
  8
0
 10
0.8700000047683716
 20
367.3089904785156
 30
90.83499908447266
 70
   192
  0
VERTEX
  5
8C0
  8
0
 10
-6.560999870300293
 20
366.5549926757812
 30
90.83499908447266
 70
   192
  0
VERTEX
  5
8C1
  8
0
 10
23.08399963378906
 20
357.0060119628906
 30
90.83499908447266
 70
   192
  0
VERTEX
  5
8C2
  8
0
 10
23.3390007019043
 20
358.5740051269531
 30
90.83499908447266
 70
   192
  0
VERTEX
  5
8C3
  8
0
 10
1.118000030517578
 20
367.3009948730469
 30
90.83499908447266
 70
   192
  0
VERTEX
  5
8C4
  8
0
 10
-6.526000022888184
 20
323.4349975585938
 30
90.83499908447266
 70
   192
  0
VERTEX
  5
8C5
  8
0
 10
0.906000018119812
 20
322.6929931640625
 30
90.83499908447266
 70
   192
  0
VERTEX
  5
8C6
  8
0
 10
-16.47699928283691
 20
329.2369995117188
 30
90.83499908447266
 70
   192
  0
VERTEX
  5
8C7
  8
0
 10
26.71199989318848
 20
330.4209899902344
 30
90.83499908447266
 70
   192
  0
VERTEX
  5
8C8
  8
0
 10
70.31800079345703
 20
330.4209899902344
 30
90.83499908447266
 70
   192
  0
VERTEX
  5
8C9
  8
0
 10
74.22599792480469
 20
333.5599975585938
 30
90.83499908447266
 70
   192
  0
VERTEX
  5
8CA
  8
0
 10
79.58100128173828
 20
367.3009948730469
 30
90.83499908447266
 70
   192
  0
VERTEX
  5
8CB
  8
0
 10
42.9739990234375
 20
359.5790100097656
 30
90.83499908447266
 70
   192
  0
VERTEX
  5
8CC
  8
0
 10
60.06399917602539
 20
359.5790100097656
 30
90.83499908447266
 70
   192
  0
VERTEX
  5
8CD
  8
0
 10
32.75799942016602
 20
359.5790100097656
 30
90.83499908447266
 70
   192
  0
VERTEX
  5
8CE
  8
0
 10
0.9300000071525574
 20
367.3059997558594
 30
90.83499908447266
 70
   192
  0
VERTEX
  5
8CF
  8
0
 10
-16.50200080871582
 20
360.7369995117188
 30
90.83499908447266
 70
   192
  0
VERTEX
  5
8D0
  8
0
 10
22.73399925231934
 20
333.27099609375
 30
90.83499908447266
 70
   192
  0
VERTEX
  5
8D1
  8
0
 10
1.082000017166138
 20
322.7009887695312
 30
90.83499908447266
 70
   192
  0
VERTEX
  5
8D2
  8
0
 10
84.74299621582031
 20
324.8389892578125
 30
90.83499908447266
 70
   192
  0
VERTEX
  5
8D3
  8
0
 10
60.38299942016602
 20
359.5790100097656
 30
90.83499908447266
 70
   192
  0
VERTEX
  5
8D4
  8
0
 10
70.48999786376953
 20
359.4859924316406
 30
90.83499908447266
 70
   192
  0
VERTEX
  5
8D5
  8
0
 10
26.04199981689453
 20
330.4209899902344
 30
90.83499908447266
 70
   192
  0
VERTEX
  5
8D6
  8
0
 10
86.88099670410156
 20
330.0010070800781
 30
90.83499908447266
 70
   192
  0
VERTEX
  5
8D7
  8
0
 10
74.26399993896484
 20
338.6969909667969
 30
90.83499908447266
 70
   192
  0
VERTEX
  5
8D8
  8
0
 10
74.23899841308594
 20
335.3049926757812
 30
90.83499908447266
 70
   192
  0
VERTEX
  5
8D9
  8
0
 10
86.88099670410156
 20
360.0010070800781
 30
90.83499908447266
 70
   192
  0
VERTEX
  5
8DA
  8
0
 10
74.31800079345703
 20
346.0050048828125
 30
90.83499908447266
 70
   192
  0
VERTEX
  5
8DB
  8
0
 10
74.31800079345703
 20
355.5790100097656
 30
90.83499908447266
 70
   192
  0
VERTEX
  5
8DC
  8
0
 10
84.74299621582031
 20
365.1629943847656
 30
90.83499908447266
 70
   192
  0
VERTEX
  5
8DD
  8
0
 10
27.13999938964844
 20
358.9800109863281
 30
90.83499908447266
 70
   192
  0
VERTEX
  5
8DE
  8
0
 10
74.31800079345703
 20
352.7640075683594
 30
90.83499908447266
 70
   192
  0
VERTEX
  5
8DF
  8
0
 10
71.21299743652344
 20
359.47900390625
 30
90.83499908447266
 70
   192
  0
VERTEX
  5
8E0
  8
0
 62
     9
 10
0.0
 20
0.0
 30
0.0
 70
   128
 71
     3
 72
     2
 73
     1
  0
VERTEX
  5
8E1
  8
0
 62
     9
 10
0.0
 20
0.0
 30
0.0
 70
   128
 71
     6
 72
     5
 73
     4
  0
VERTEX
  5
8E2
  8
0
 62
     9
 10
0.0
 20
0.0
 30
0.0
 70
   128
 71
     8
 72
     7
 73
     4
  0
VERTEX
  5
8E3
  8
0
 62
     9
 10
0.0
 20
0.0
 30
0.0
 70
   128
 71
    11
 72
    10
 73
     9
  0
VERTEX
  5
8E4
  8
0
 62
     9
 10
0.0
 20
0.0
 30
0.0
 70
   128
 71
    14
 72
    13
 73
    12
  0
VERTEX
  5
8E5
  8
0
 62
     9
 10
0.0
 20
0.0
 30
0.0
 70
   128
 71
    16
 72
    15
 73
     1
  0
VERTEX
  5
8E6
  8
0
 62
     9
 10
0.0
 20
0.0
 30
0.0
 70
   128
 71
     1
 72
    17
 73
     3
  0
VERTEX
  5
8E7
  8
0
 62
     9
 10
0.0
 20
0.0
 30
0.0
 70
   128
 71
     4
 72
    18
 73
     6
  0
VERTEX
  5
8E8
  8
0
 62
     9
 10
0.0
 20
0.0
 30
0.0
 70
   128
 71
     8
 72
    19
 73
     7
  0
VERTEX
  5
8E9
  8
0
 62
     9
 10
0.0
 20
0.0
 30
0.0
 70
   128
 71
     7
 72
    19
 73
    20
  0
VERTEX
  5
8EA
  8
0
 62
     9
 10
0.0
 20
0.0
 30
0.0
 70
   128
 71
    23
 72
    22
 73
    21
  0
VERTEX
  5
8EB
  8
0
 62
     9
 10
0.0
 20
0.0
 30
0.0
 70
   128
 71
    22
 72
    24
 73
    14
  0
VERTEX
  5
8EC
  8
0
 62
     9
 10
0.0
 20
0.0
 30
0.0
 70
   128
 71
    10
 72
    25
 73
     9
  0
VERTEX
  5
8ED
  8
0
 62
     9
 10
0.0
 20
0.0
 30
0.0
 70
   128
 71
    12
 72
     9
 73
    25
  0
VERTEX
  5
8EE
  8
0
 62
     9
 10
0.0
 20
0.0
 30
0.0
 70
   128
 71
    26
 72
     9
 73
     1
  0
VERTEX
  5
8EF
  8
0
 62
     9
 10
0.0
 20
0.0
 30
0.0
 70
   128
 71
     1
 72
    15
 73
    17
  0
VERTEX
  5
8F0
  8
0
 62
     9
 10
0.0
 20
0.0
 30
0.0
 70
   128
 71
    28
 72
    16
 73
    27
  0
VERTEX
  5
8F1
  8
0
 62
     9
 10
0.0
 20
0.0
 30
0.0
 70
   128
 71
     4
 72
     5
 73
     8
  0
VERTEX
  5
8F2
  8
0
 62
     9
 10
0.0
 20
0.0
 30
0.0
 70
   128
 71
    20
 72
    29
 73
     7
  0
VERTEX
  5
8F3
  8
0
 62
     9
 10
0.0
 20
0.0
 30
0.0
 70
   128
 71
    31
 72
    30
 73
    21
  0
VERTEX
  5
8F4
  8
0
 62
     9
 10
0.0
 20
0.0
 30
0.0
 70
   128
 71
    14
 72
    21
 73
    22
  0
VERTEX
  5
8F5
  8
0
 62
     9
 10
0.0
 20
0.0
 30
0.0
 70
   128
 71
    12
 72
    25
 73
    14
  0
VERTEX
  5
8F6
  8
0
 62
     9
 10
0.0
 20
0.0
 30
0.0
 70
   128
 71
     1
 72
    27
 73
    16
  0
VERTEX
  5
8F7
  8
0
 62
     9
 10
0.0
 20
0.0
 30
0.0
 70
   128
 71
    27
 72
    32
 73
    28
  0
VERTEX
  5
8F8
  8
0
 62
     9
 10
0.0
 20
0.0
 30
0.0
 70
   128
 71
    32
 72
     4
 73
    28
  0
VERTEX
  5
8F9
  8
0
 62
     9
 10
0.0
 20
0.0
 30
0.0
 70
   128
 71
    20
 72
    33
 73
    29
  0
VERTEX
  5
8FA
  8
0
 62
     9
 10
0.0
 20
0.0
 30
0.0
 70
   128
 71
    35
 72
    34
 73
    33
  0
VERTEX
  5
8FB
  8
0
 62
     9
 10
0.0
 20
0.0
 30
0.0
 70
   128
 71
    37
 72
    36
 73
    33
  0
VERTEX
  5
8FC
  8
0
 62
     9
 10
0.0
 20
0.0
 30
0.0
 70
   128
 71
    21
 72
    39
 73
    38
  0
VERTEX
  5
8FD
  8
0
 62
     9
 10
0.0
 20
0.0
 30
0.0
 70
   128
 71
    21
 72
    30
 73
    23
  0
VERTEX
  5
8FE
  8
0
 62
     9
 10
0.0
 20
0.0
 30
0.0
 70
   128
 71
    40
 72
    13
 73
    14
  0
VERTEX
  5
8FF
  8
0
 62
     9
 10
0.0
 20
0.0
 30
0.0
 70
   128
 71
     1
 72
     2
 73
    26
  0
VERTEX
  5
900
  8
0
 62
     9
 10
0.0
 20
0.0
 30
0.0
 70
   128
 71
     4
 72
    32
 73
    18
  0
VERTEX
  5
901
  8
0
 62
     9
 10
0.0
 20
0.0
 30
0.0
 70
   128
 71
    33
 72
    34
 73
    37
  0
VERTEX
  5
902
  8
0
 62
     9
 10
0.0
 20
0.0
 30
0.0
 70
   128
 71
    41
 72
    38
 73
    36
  0
VERTEX
  5
903
  8
0
 62
     9
 10
0.0
 20
0.0
 30
0.0
 70
   128
 71
    39
 72
    36
 73
    38
  0
VERTEX
  5
904
  8
0
 62
     9
 10
0.0
 20
0.0
 30
0.0
 70
   128
 71
    14
 72
    24
 73
    40
  0
VERTEX
  5
905
  8
0
 62
     9
 10
0.0
 20
0.0
 30
0.0
 70
   128
 71
    36
 72
    37
 73
    41
  0
VERTEX
  5
906
  8
0
 62
     9
 10
0.0
 20
0.0
 30
0.0
 70
   128
 71
    21
 72
    42
 73
    31
  0
VERTEX
  5
907
  8
0
 62
     9
 10
0.0
 20
0.0
 30
0.0
 70
   128
 71
    33
 72
    20
 73
    35
  0
VERTEX
  5
908
  8
0
 62
     9
 10
0.0
 20
0.0
 30
0.0
 70
   128
 71
     9
 72
    26
 73
    11
  0
VERTEX
  5
909
  8
0
 62
     9
 10
0.0
 20
0.0
 30
0.0
 70
   128
 71
    38
 72
    42
 73
    21
  0
SEQEND
  5
90A
  8
0
 62
     9
  0
ENDBLK
  5
90D
  8
0
  0
BLOCK
  8
0
  2
E3_NODE_81_
 70
     0
 10
0.0
 20
0.0
 30
0.0
  3
E3_NODE_81_
  1

  0
POLYLINE
  5
90F
  8
0
 62
     9
 66
     1
 10
0.0
 20
0.0
 30
0.0
 70
    64
 71
    19
 72
    21
  0
VERTEX
  5
910
  8
0
 10
71.50599670410156
 20
354.2250061035156
 30
85.38099670410156
 70
   192
  0
VERTEX
  5
911
  8
0
 10
71.72000122070312
 20
352.9809875488281
 30
85.33499908447266
 70
   192
  0
VERTEX
  5
912
  8
0
 10
71.72000122070312
 20
352.9809875488281
 30
86.33499908447266
 70
   192
  0
VERTEX
  5
913
  8
0
 10
72.35600280761719
 20
354.4930114746094
 30
84.83499908447266
 70
   192
  0
VERTEX
  5
914
  8
0
 10
72.58599853515625
 20
352.9809875488281
 30
84.83499908447266
 70
   192
  0
VERTEX
  5
915
  8
0
 10
71.58300018310547
 20
354.2489929199219
 30
86.4219970703125
 70
   192
  0
VERTEX
  5
916
  8
0
 10
70.95600128173828
 20
355.5090026855469
 30
86.46499633789062
 70
   192
  0
VERTEX
  5
917
  8
0
 10
70.85700225830078
 20
355.4320068359375
 30
85.40499877929688
 70
   192
  0
VERTEX
  5
918
  8
0
 10
71.56800079345703
 20
355.989013671875
 30
84.83499908447266
 70
   192
  0
VERTEX
  5
919
  8
0
 10
69.9739990234375
 20
356.4070129394531
 30
86.45999908447266
 70
   192
  0
VERTEX
  5
91A
  8
0
 10
69.90799713134766
 20
356.3059997558594
 30
85.4020004272461
 70
   192
  0
VERTEX
  5
91B
  8
0
 10
68.70700073242188
 20
356.9100036621094
 30
86.40699768066406
 70
   192
  0
VERTEX
  5
91C
  8
0
 10
68.69100189208984
 20
356.8460083007812
 30
85.37300109863281
 70
   192
  0
VERTEX
  5
91D
  8
0
 10
70.4000015258789
 20
357.0610046386719
 30
84.83499908447266
 70
   192
  0
VERTEX
  5
91E
  8
0
 10
67.91999816894531
 20
356.9660034179688
 30
86.3499984741211
 70
   192
  0
VERTEX
  5
91F
  8
0
 10
67.72000122070312
 20
356.9809875488281
 30
85.33499908447266
 70
   192
  0
VERTEX
  5
920
  8
0
 10
68.9010009765625
 20
357.7080078125
 30
84.83499908447266
 70
   192
  0
VERTEX
  5
921
  8
0
 10
67.72000122070312
 20
357.8469848632812
 30
84.83499908447266
 70
   192
  0
VERTEX
  5
922
  8
0
 10
67.72000122070312
 20
356.9809875488281
 30
86.33499908447266
 70
   192
  0
VERTEX
  5
923
  8
0
 62
     9
 10
0.0
 20
0.0
 30
0.0
 70
   128
 71
     3
 72
     2
 73
     1
  0
VERTEX
  5
924
  8
0
 62
     9
 10
0.0
 20
0.0
 30
0.0
 70
   128
 71
     2
 72
     5
 73
     4
  0
VERTEX
  5
925
  8
0
 62
     9
 10
0.0
 20
0.0
 30
0.0
 70
   128
 71
     8
 72
     7
 73
     6
  0
VERTEX
  5
926
  8
0
 62
     9
 10
0.0
 20
0.0
 30
0.0
 70
   128
 71
     1
 72
     4
 73
     9
  0
VERTEX
  5
927
  8
0
 62
     9
 10
0.0
 20
0.0
 30
0.0
 70
   128
 71
     8
 72
    11
 73
    10
  0
VERTEX
  5
928
  8
0
 62
     9
 10
0.0
 20
0.0
 30
0.0
 70
   128
 71
    11
 72
     8
 73
     9
  0
VERTEX
  5
929
  8
0
 62
     9
 10
0.0
 20
0.0
 30
0.0
 70
   128
 71
    11
 72
    13
 73
    12
  0
VERTEX
  5
92A
  8
0
 62
     9
 10
0.0
 20
0.0
 30
0.0
 70
   128
 71
    13
 72
    11
 73
    14
  0
VERTEX
  5
92B
  8
0
 62
     9
 10
0.0
 20
0.0
 30
0.0
 70
   128
 71
    15
 72
    12
 73
    13
  0
VERTEX
  5
92C
  8
0
 62
     9
 10
0.0
 20
0.0
 30
0.0
 70
   128
 71
    13
 72
    16
 73
    15
  0
VERTEX
  5
92D
  8
0
 62
     9
 10
0.0
 20
0.0
 30
0.0
 70
   128
 71
    16
 72
    13
 73
    17
  0
VERTEX
  5
92E
  8
0
 62
     9
 10
0.0
 20
0.0
 30
0.0
 70
   128
 71
    17
 72
    18
 73
    16
  0
VERTEX
  5
92F
  8
0
 62
     9
 10
0.0
 20
0.0
 30
0.0
 70
   128
 71
    16
 72
    19
 73
    15
  0
VERTEX
  5
930
  8
0
 62
     9
 10
0.0
 20
0.0
 30
0.0
 70
   128
 71
    14
 72
    17
 73
    13
  0
VERTEX
  5
931
  8
0
 62
     9
 10
0.0
 20
0.0
 30
0.0
 70
   128
 71
    12
 72
    10
 73
    11
  0
VERTEX
  5
932
  8
0
 62
     9
 10
0.0
 20
0.0
 30
0.0
 70
   128
 71
     9
 72
    14
 73
    11
  0
VERTEX
  5
933
  8
0
 62
     9
 10
0.0
 20
0.0
 30
0.0
 70
   128
 71
    10
 72
     7
 73
     8
  0
VERTEX
  5
934
  8
0
 62
     9
 10
0.0
 20
0.0
 30
0.0
 70
   128
 71
     9
 72
     8
 73
     1
  0
VERTEX
  5
935
  8
0
 62
     9
 10
0.0
 20
0.0
 30
0.0
 70
   128
 71
     6
 72
     1
 73
     8
  0
VERTEX
  5
936
  8
0
 62
     9
 10
0.0
 20
0.0
 30
0.0
 70
   128
 71
     4
 72
     1
 73
     2
  0
VERTEX
  5
937
  8
0
 62
     9
 10
0.0
 20
0.0
 30
0.0
 70
   128
 71
     1
 72
     6
 73
     3
  0
SEQEND
  5
938
  8
0
 62
     9
  0
ENDBLK
  5
93B
  8
0
  0
BLOCK
  8
0
  2
E3_NODE_82_
 70
     0
 10
0.0
 20
0.0
 30
0.0
  3
E3_NODE_82_
  1

  0
POLYLINE
  5
93D
  8
0
 62
     9
 66
     1
 10
0.0
 20
0.0
 30
0.0
 70
    64
 71
     7
 72
     5
  0
VERTEX
  5
93E
  8
0
 10
30.47599983215332
 20
358.2820129394531
 30
88.58999633789062
 70
   192
  0
VERTEX
  5
93F
  8
0
 10
58.44100189208984
 20
357.9549865722656
 30
88.02300262451172
 70
   192
  0
VERTEX
  5
940
  8
0
 10
42.9739990234375
 20
359.5790100097656
 30
90.83499908447266
 70
   192
  0
VERTEX
  5
941
  8
0
 10
32.75799942016602
 20
359.5790100097656
 30
90.83499908447266
 70
   192
  0
VERTEX
  5
942
  8
0
 10
29.13999938964844
 20
357.5230102539062
 30
87.2750015258789
 70
   192
  0
VERTEX
  5
943
  8
0
 10
67.72000122070312
 20
356.9809875488281
 30
86.33499908447266
 70
   192
  0
VERTEX
  5
944
  8
0
 10
28.18499946594238
 20
356.9809875488281
 30
86.33499908447266
 70
   192
  0
VERTEX
  5
945
  8
0
 62
     9
 10
0.0
 20
0.0
 30
0.0
 70
   128
 71
     3
 72
     2
 73
     1
  0
VERTEX
  5
946
  8
0
 62
     9
 10
0.0
 20
0.0
 30
0.0
 70
   128
 71
     1
 72
     4
 73
     3
  0
VERTEX
  5
947
  8
0
 62
     9
 10
0.0
 20
0.0
 30
0.0
 70
   128
 71
     2
 72
     6
 73
     5
  0
VERTEX
  5
948
  8
0
 62
     9
 10
0.0
 20
0.0
 30
0.0
 70
   128
 71
     2
 72
     5
 73
     1
  0
VERTEX
  5
949
  8
0
 62
     9
 10
0.0
 20
0.0
 30
0.0
 70
   128
 71
     6
 72
     7
 73
     5
  0
SEQEND
  5
94A
  8
0
 62
     9
  0
ENDBLK
  5
94D
  8
0
  0
BLOCK
  8
0
  2
E3_NODE_83_
 70
     0
 10
0.0
 20
0.0
 30
0.0
  3
E3_NODE_83_
  1

  0
POLYLINE
  5
94F
  8
0
 62
     9
 66
     1
 10
0.0
 20
0.0
 30
0.0
 70
    64
 71
    17
 72
    15
  0
VERTEX
  5
950
  8
0
 10
74.22599792480469
 20
333.5599975585938
 30
90.83499908447266
 70
   192
  0
VERTEX
  5
951
  8
0
 10
71.15299987792969
 20
334.7730102539062
 30
86.45999908447266
 70
   192
  0
VERTEX
  5
952
  8
0
 10
70.23600006103516
 20
333.7749938964844
 30
86.46499633789062
 70
   192
  0
VERTEX
  5
953
  8
0
 10
74.23899841308594
 20
335.3049926757812
 30
90.83499908447266
 70
   192
  0
VERTEX
  5
954
  8
0
 10
71.802001953125
 20
337.7980041503906
 30
86.47699737548828
 70
   192
  0
VERTEX
  5
955
  8
0
 10
71.72000122070312
 20
337.0190124511719
 30
86.33499908447266
 70
   192
  0
VERTEX
  5
956
  8
0
 10
71.6510009765625
 20
336.0350036621094
 30
86.40599822998047
 70
   192
  0
VERTEX
  5
957
  8
0
 10
70.31800079345703
 20
330.4209899902344
 30
90.83499908447266
 70
   192
  0
VERTEX
  5
958
  8
0
 10
68.98600006103516
 20
333.1570129394531
 30
86.4229965209961
 70
   192
  0
VERTEX
  5
959
  8
0
 10
74.26399993896484
 20
338.6969909667969
 30
90.83499908447266
 70
   192
  0
VERTEX
  5
95A
  8
0
 10
73.46199798583984
 20
353.6210021972656
 30
89.35199737548828
 70
   192
  0
VERTEX
  5
95B
  8
0
 10
72.125
 20
340.875
 30
87.03600311279297
 70
   192
  0
VERTEX
  5
95C
  8
0
 10
74.31800079345703
 20
346.0050048828125
 30
90.83499908447266
 70
   192
  0
VERTEX
  5
95D
  8
0
 10
74.31800079345703
 20
352.7640075683594
 30
90.83499908447266
 70
   192
  0
VERTEX
  5
95E
  8
0
 10
74.31800079345703
 20
355.5790100097656
 30
90.83499908447266
 70
   192
  0
VERTEX
  5
95F
  8
0
 10
73.59100341796875
 20
354.8510131835938
 30
89.57599639892578
 70
   192
  0
VERTEX
  5
960
  8
0
 10
67.72000122070312
 20
333.0190124511719
 30
86.33499908447266
 70
   192
  0
VERTEX
  5
961
  8
0
 62
     9
 10
0.0
 20
0.0
 30
0.0
 70
   128
 71
     3
 72
     2
 73
     1
  0
VERTEX
  5
962
  8
0
 62
     9
 10
0.0
 20
0.0
 30
0.0
 70
   128
 71
     4
 72
     1
 73
     2
  0
VERTEX
  5
963
  8
0
 62
     9
 10
0.0
 20
0.0
 30
0.0
 70
   128
 71
     6
 72
     5
 73
     4
  0
VERTEX
  5
964
  8
0
 62
     9
 10
0.0
 20
0.0
 30
0.0
 70
   128
 71
     4
 72
     7
 73
     6
  0
VERTEX
  5
965
  8
0
 62
     9
 10
0.0
 20
0.0
 30
0.0
 70
   128
 71
     2
 72
     7
 73
     4
  0
VERTEX
  5
966
  8
0
 62
     9
 10
0.0
 20
0.0
 30
0.0
 70
   128
 71
     1
 72
     8
 73
     3
  0
VERTEX
  5
967
  8
0
 62
     9
 10
0.0
 20
0.0
 30
0.0
 70
   128
 71
     8
 72
     9
 73
     3
  0
VERTEX
  5
968
  8
0
 62
     9
 10
0.0
 20
0.0
 30
0.0
 70
   128
 71
    10
 72
     4
 73
     5
  0
VERTEX
  5
969
  8
0
 62
     9
 10
0.0
 20
0.0
 30
0.0
 70
   128
 71
    13
 72
    12
 73
    11
  0
VERTEX
  5
96A
  8
0
 62
     9
 10
0.0
 20
0.0
 30
0.0
 70
   128
 71
    13
 72
    10
 73
    12
  0
VERTEX
  5
96B
  8
0
 62
     9
 10
0.0
 20
0.0
 30
0.0
 70
   128
 71
    16
 72
    15
 73
    14
  0
VERTEX
  5
96C
  8
0
 62
     9
 10
0.0
 20
0.0
 30
0.0
 70
   128
 71
    14
 72
    11
 73
    16
  0
VERTEX
  5
96D
  8
0
 62
     9
 10
0.0
 20
0.0
 30
0.0
 70
   128
 71
    11
 72
    14
 73
    13
  0
VERTEX
  5
96E
  8
0
 62
     9
 10
0.0
 20
0.0
 30
0.0
 70
   128
 71
     5
 72
    12
 73
    10
  0
VERTEX
  5
96F
  8
0
 62
     9
 10
0.0
 20
0.0
 30
0.0
 70
   128
 71
     8
 72
    17
 73
     9
  0
SEQEND
  5
970
  8
0
 62
     9
  0
ENDBLK
  5
973
  8
0
  0
BLOCK
  8
0
  2
E3_NODE_84_
 70
     0
 10
0.0
 20
0.0
 30
0.0
  3
E3_NODE_84_
  1

  0
POLYLINE
  5
975
  8
0
 62
     9
 66
     1
 10
0.0
 20
0.0
 30
0.0
 70
    64
 71
    15
 72
    13
  0
VERTEX
  5
976
  8
0
 10
70.95600128173828
 20
355.5090026855469
 30
86.46499633789062
 70
   192
  0
VERTEX
  5
977
  8
0
 10
71.58300018310547
 20
354.2489929199219
 30
86.4219970703125
 70
   192
  0
VERTEX
  5
978
  8
0
 10
73.59100341796875
 20
354.8510131835938
 30
89.57599639892578
 70
   192
  0
VERTEX
  5
979
  8
0
 10
71.21299743652344
 20
359.47900390625
 30
90.83499908447266
 70
   192
  0
VERTEX
  5
97A
  8
0
 10
69.9739990234375
 20
356.4070129394531
 30
86.45999908447266
 70
   192
  0
VERTEX
  5
97B
  8
0
 10
70.48999786376953
 20
359.4859924316406
 30
90.83499908447266
 70
   192
  0
VERTEX
  5
97C
  8
0
 10
67.91999816894531
 20
356.9660034179688
 30
86.3499984741211
 70
   192
  0
VERTEX
  5
97D
  8
0
 10
68.70700073242188
 20
356.9100036621094
 30
86.40699768066406
 70
   192
  0
VERTEX
  5
97E
  8
0
 10
74.31800079345703
 20
355.5790100097656
 30
90.83499908447266
 70
   192
  0
VERTEX
  5
97F
  8
0
 10
67.72000122070312
 20
356.9809875488281
 30
86.33499908447266
 70
   192
  0
VERTEX
  5
980
  8
0
 10
60.38299942016602
 20
359.5790100097656
 30
90.83499908447266
 70
   192
  0
VERTEX
  5
981
  8
0
 10
58.44100189208984
 20
357.9549865722656
 30
88.02300262451172
 70
   192
  0
VERTEX
  5
982
  8
0
 10
42.9739990234375
 20
359.5790100097656
 30
90.83499908447266
 70
   192
  0
VERTEX
  5
983
  8
0
 10
60.06399917602539
 20
359.5790100097656
 30
90.83499908447266
 70
   192
  0
VERTEX
  5
984
  8
0
 10
71.72000122070312
 20
352.9809875488281
 30
86.33499908447266
 70
   192
  0
VERTEX
  5
985
  8
0
 62
     9
 10
0.0
 20
0.0
 30
0.0
 70
   128
 71
     3
 72
     2
 73
     1
  0
VERTEX
  5
986
  8
0
 62
     9
 10
0.0
 20
0.0
 30
0.0
 70
   128
 71
     1
 72
     5
 73
     4
  0
VERTEX
  5
987
  8
0
 62
     9
 10
0.0
 20
0.0
 30
0.0
 70
   128
 71
     6
 72
     4
 73
     5
  0
VERTEX
  5
988
  8
0
 62
     9
 10
0.0
 20
0.0
 30
0.0
 70
   128
 71
     8
 72
     7
 73
     6
  0
VERTEX
  5
989
  8
0
 62
     9
 10
0.0
 20
0.0
 30
0.0
 70
   128
 71
     5
 72
     8
 73
     6
  0
VERTEX
  5
98A
  8
0
 62
     9
 10
0.0
 20
0.0
 30
0.0
 70
   128
 71
     4
 72
     9
 73
     1
  0
VERTEX
  5
98B
  8
0
 62
     9
 10
0.0
 20
0.0
 30
0.0
 70
   128
 71
     1
 72
     9
 73
     3
  0
VERTEX
  5
98C
  8
0
 62
     9
 10
0.0
 20
0.0
 30
0.0
 70
   128
 71
    11
 72
     6
 73
    10
  0
VERTEX
  5
98D
  8
0
 62
     9
 10
0.0
 20
0.0
 30
0.0
 70
   128
 71
    10
 72
    12
 73
    11
  0
VERTEX
  5
98E
  8
0
 62
     9
 10
0.0
 20
0.0
 30
0.0
 70
   128
 71
     6
 72
     7
 73
    10
  0
VERTEX
  5
98F
  8
0
 62
     9
 10
0.0
 20
0.0
 30
0.0
 70
   128
 71
    14
 72
    12
 73
    13
  0
VERTEX
  5
990
  8
0
 62
     9
 10
0.0
 20
0.0
 30
0.0
 70
   128
 71
    12
 72
    14
 73
    11
  0
VERTEX
  5
991
  8
0
 62
     9
 10
0.0
 20
0.0
 30
0.0
 70
   128
 71
     3
 72
    15
 73
     2
  0
SEQEND
  5
992
  8
0
 62
     9
  0
ENDBLK
  5
995
  8
0
  0
BLOCK
  8
0
  2
E3_NODE_85_
 70
     0
 10
0.0
 20
0.0
 30
0.0
  3
E3_NODE_85_
  1

  0
POLYLINE
  5
997
  8
0
 62
     9
 66
     1
 10
0.0
 20
0.0
 30
0.0
 70
    64
 71
     6
 72
     4
  0
VERTEX
  5
998
  8
0
 10
71.72000122070312
 20
337.0190124511719
 30
85.33499908447266
 70
   192
  0
VERTEX
  5
999
  8
0
 10
71.72000122070312
 20
337.0190124511719
 30
86.33499908447266
 70
   192
  0
VERTEX
  5
99A
  8
0
 10
71.72000122070312
 20
352.9809875488281
 30
86.33499908447266
 70
   192
  0
VERTEX
  5
99B
  8
0
 10
71.72000122070312
 20
352.9809875488281
 30
85.33499908447266
 70
   192
  0
VERTEX
  5
99C
  8
0
 10
72.58599853515625
 20
352.9809875488281
 30
84.83499908447266
 70
   192
  0
VERTEX
  5
99D
  8
0
 10
72.58599853515625
 20
337.0190124511719
 30
84.83499908447266
 70
   192
  0
VERTEX
  5
99E
  8
0
 62
     9
 10
0.0
 20
0.0
 30
0.0
 70
   128
 71
     3
 72
     2
 73
     1
  0
VERTEX
  5
99F
  8
0
 62
     9
 10
0.0
 20
0.0
 30
0.0
 70
   128
 71
     5
 72
     4
 73
     1
  0
VERTEX
  5
9A0
  8
0
 62
     9
 10
0.0
 20
0.0
 30
0.0
 70
   128
 71
     1
 72
     6
 73
     5
  0
VERTEX
  5
9A1
  8
0
 62
     9
 10
0.0
 20
0.0
 30
0.0
 70
   128
 71
     1
 72
     4
 73
     3
  0
SEQEND
  5
9A2
  8
0
 62
     9
  0
ENDBLK
  5
9A5
  8
0
  0
BLOCK
  8
0
  2
E3_NODE_86_
 70
     0
 10
0.0
 20
0.0
 30
0.0
  3
E3_NODE_86_
  1

  0
POLYLINE
  5
9A7
  8
0
 62
     9
 66
     1
 10
0.0
 20
0.0
 30
0.0
 70
    64
 71
     6
 72
     4
  0
VERTEX
  5
9A8
  8
0
 10
71.72000122070312
 20
352.9809875488281
 30
86.33499908447266
 70
   192
  0
VERTEX
  5
9A9
  8
0
 10
71.802001953125
 20
337.7980041503906
 30
86.47699737548828
 70
   192
  0
VERTEX
  5
9AA
  8
0
 10
72.125
 20
340.875
 30
87.03600311279297
 70
   192
  0
VERTEX
  5
9AB
  8
0
 10
73.46199798583984
 20
353.6210021972656
 30
89.35199737548828
 70
   192
  0
VERTEX
  5
9AC
  8
0
 10
71.72000122070312
 20
337.0190124511719
 30
86.33499908447266
 70
   192
  0
VERTEX
  5
9AD
  8
0
 10
73.59100341796875
 20
354.8510131835938
 30
89.57599639892578
 70
   192
  0
VERTEX
  5
9AE
  8
0
 62
     9
 10
0.0
 20
0.0
 30
0.0
 70
   128
 71
     3
 72
     2
 73
     1
  0
VERTEX
  5
9AF
  8
0
 62
     9
 10
0.0
 20
0.0
 30
0.0
 70
   128
 71
     1
 72
     4
 73
     3
  0
VERTEX
  5
9B0
  8
0
 62
     9
 10
0.0
 20
0.0
 30
0.0
 70
   128
 71
     2
 72
     5
 73
     1
  0
VERTEX
  5
9B1
  8
0
 62
     9
 10
0.0
 20
0.0
 30
0.0
 70
   128
 71
     1
 72
     6
 73
     4
  0
SEQEND
  5
9B2
  8
0
 62
     9
  0
ENDBLK
  5
9B5
  8
0
  0
BLOCK
  8
0
  2
E3_NODE_87_
 70
     0
 10
0.0
 20
0.0
 30
0.0
  3
E3_NODE_87_
  1

  0
POLYLINE
  5
9B7
  8
0
 62
     9
 66
     1
 10
0.0
 20
0.0
 30
0.0
 70
    64
 71
    10
 72
    10
  0
VERTEX
  5
9B8
  8
0
 10
10.47999954223633
 20
190.0
 30
45.5
 70
   192
  0
VERTEX
  5
9B9
  8
0
 10
3.23799991607666
 20
180.0330047607422
 30
45.5
 70
   192
  0
VERTEX
  5
9BA
  8
0
 10
3.23799991607666
 20
180.0330047607422
 30
35.5
 70
   192
  0
VERTEX
  5
9BB
  8
0
 10
10.47999954223633
 20
190.0
 30
35.5
 70
   192
  0
VERTEX
  5
9BC
  8
0
 10
-8.477999687194824
 20
183.8399963378906
 30
45.5
 70
   192
  0
VERTEX
  5
9BD
  8
0
 10
-8.477999687194824
 20
183.8399963378906
 30
35.5
 70
   192
  0
VERTEX
  5
9BE
  8
0
 10
-8.477999687194824
 20
196.1600036621094
 30
45.5
 70
   192
  0
VERTEX
  5
9BF
  8
0
 10
-8.477999687194824
 20
196.1600036621094
 30
35.5
 70
   192
  0
VERTEX
  5
9C0
  8
0
 10
3.23799991607666
 20
199.9669952392578
 30
45.5
 70
   192
  0
VERTEX
  5
9C1
  8
0
 10
3.23799991607666
 20
199.9669952392578
 30
35.5
 70
   192
  0
VERTEX
  5
9C2
  8
0
 62
     9
 10
0.0
 20
0.0
 30
0.0
 70
   128
 71
     3
 72
     2
 73
     1
  0
VERTEX
  5
9C3
  8
0
 62
     9
 10
0.0
 20
0.0
 30
0.0
 70
   128
 71
     4
 72
     3
 73
     1
  0
VERTEX
  5
9C4
  8
0
 62
     9
 10
0.0
 20
0.0
 30
0.0
 70
   128
 71
     6
 72
     5
 73
     2
  0
VERTEX
  5
9C5
  8
0
 62
     9
 10
0.0
 20
0.0
 30
0.0
 70
   128
 71
     3
 72
     6
 73
     2
  0
VERTEX
  5
9C6
  8
0
 62
     9
 10
0.0
 20
0.0
 30
0.0
 70
   128
 71
     8
 72
     7
 73
     5
  0
VERTEX
  5
9C7
  8
0
 62
     9
 10
0.0
 20
0.0
 30
0.0
 70
   128
 71
     6
 72
     8
 73
     5
  0
VERTEX
  5
9C8
  8
0
 62
     9
 10
0.0
 20
0.0
 30
0.0
 70
   128
 71
    10
 72
     9
 73
     7
  0
VERTEX
  5
9C9
  8
0
 62
     9
 10
0.0
 20
0.0
 30
0.0
 70
   128
 71
     8
 72
    10
 73
     7
  0
VERTEX
  5
9CA
  8
0
 62
     9
 10
0.0
 20
0.0
 30
0.0
 70
   128
 71
     4
 72
     1
 73
     9
  0
VERTEX
  5
9CB
  8
0
 62
     9
 10
0.0
 20
0.0
 30
0.0
 70
   128
 71
    10
 72
     4
 73
     9
  0
SEQEND
  5
9CC
  8
0
 62
     9
  0
ENDBLK
  5
9CF
  8
0
  0
BLOCK
  8
0
  2
E3_NODE_88_
 70
     0
 10
0.0
 20
0.0
 30
0.0
  3
E3_NODE_88_
  1

  0
POLYLINE
  5
9D1
  8
0
 62
     9
 66
     1
 10
0.0
 20
0.0
 30
0.0
 70
    64
 71
    20
 72
    20
  0
VERTEX
  5
9D2
  8
0
 10
-9.8100004196167
 20
320.5509948730469
 30
8.0
 70
   192
  0
VERTEX
  5
9D3
  8
0
 10
-9.65999984741211
 20
320.9259948730469
 30
54.30300140380859
 70
   192
  0
VERTEX
  5
9D4
  8
0
 10
-23.85400009155273
 20
334.8080139160156
 30
54.30300140380859
 70
   192
  0
VERTEX
  5
9D5
  8
0
 10
-24.44899940490723
 20
354.8099975585938
 30
8.0
 70
   192
  0
VERTEX
  5
9D6
  8
0
 10
-24.22500038146973
 20
334.6489868164062
 30
8.0
 70
   192
  0
VERTEX
  5
9D7
  8
0
 10
-25.9379997253418
 20
344.7120056152344
 30
54.30300140380859
 70
   192
  0
VERTEX
  5
9D8
  8
0
 10
-24.07399940490723
 20
354.6600036621094
 30
54.30300140380859
 70
   192
  0
VERTEX
  5
9D9
  8
0
 10
-10.19200038909912
 20
368.85400390625
 30
54.30300140380859
 70
   192
  0
VERTEX
  5
9DA
  8
0
 10
9.8100004196167
 20
369.4490051269531
 30
8.0
 70
   192
  0
VERTEX
  5
9DB
  8
0
 10
-10.35099983215332
 20
369.2250061035156
 30
8.0
 70
   192
  0
VERTEX
  5
9DC
  8
0
 10
-0.2879999876022339
 20
370.93798828125
 30
54.30300140380859
 70
   192
  0
VERTEX
  5
9DD
  8
0
 10
24.22500038146973
 20
355.3510131835938
 30
8.0
 70
   192
  0
VERTEX
  5
9DE
  8
0
 10
18.13699913024902
 20
363.5450134277344
 30
54.30300140380859
 70
   192
  0
VERTEX
  5
9DF
  8
0
 10
9.65999984741211
 20
369.0740051269531
 30
54.30300140380859
 70
   192
  0
VERTEX
  5
9E0
  8
0
 10
23.85400009155273
 20
355.1919860839844
 30
54.30300140380859
 70
   192
  0
VERTEX
  5
9E1
  8
0
 10
24.07399940490723
 20
335.3399963378906
 30
54.30300140380859
 70
   192
  0
VERTEX
  5
9E2
  8
0
 10
10.35099983215332
 20
320.7749938964844
 30
8.0
 70
   192
  0
VERTEX
  5
9E3
  8
0
 10
24.44899940490723
 20
335.1900024414062
 30
8.0
 70
   192
  0
VERTEX
  5
9E4
  8
0
 10
18.54500007629395
 20
326.8630065917969
 30
54.30300140380859
 70
   192
  0
VERTEX
  5
9E5
  8
0
 10
10.19200038909912
 20
321.14599609375
 30
54.30300140380859
 70
   192
  0
VERTEX
  5
9E6
  8
0
 62
     9
 10
0.0
 20
0.0
 30
0.0
 70
   128
 71
     3
 72
     2
 73
     1
  0
VERTEX
  5
9E7
  8
0
 62
     9
 10
0.0
 20
0.0
 30
0.0
 70
   128
 71
     6
 72
     5
 73
     4
  0
VERTEX
  5
9E8
  8
0
 62
     9
 10
0.0
 20
0.0
 30
0.0
 70
   128
 71
     6
 72
     3
 73
     5
  0
VERTEX
  5
9E9
  8
0
 62
     9
 10
0.0
 20
0.0
 30
0.0
 70
   128
 71
     8
 72
     7
 73
     4
  0
VERTEX
  5
9EA
  8
0
 62
     9
 10
0.0
 20
0.0
 30
0.0
 70
   128
 71
    11
 72
    10
 73
     9
  0
VERTEX
  5
9EB
  8
0
 62
     9
 10
0.0
 20
0.0
 30
0.0
 70
   128
 71
    11
 72
     8
 73
    10
  0
VERTEX
  5
9EC
  8
0
 62
     9
 10
0.0
 20
0.0
 30
0.0
 70
   128
 71
    13
 72
     9
 73
    12
  0
VERTEX
  5
9ED
  8
0
 62
     9
 10
0.0
 20
0.0
 30
0.0
 70
   128
 71
    13
 72
    14
 73
     9
  0
VERTEX
  5
9EE
  8
0
 62
     9
 10
0.0
 20
0.0
 30
0.0
 70
   128
 71
    16
 72
    15
 73
    12
  0
VERTEX
  5
9EF
  8
0
 62
     9
 10
0.0
 20
0.0
 30
0.0
 70
   128
 71
    19
 72
    18
 73
    17
  0
VERTEX
  5
9F0
  8
0
 62
     9
 10
0.0
 20
0.0
 30
0.0
 70
   128
 71
    19
 72
    16
 73
    18
  0
VERTEX
  5
9F1
  8
0
 62
     9
 10
0.0
 20
0.0
 30
0.0
 70
   128
 71
    20
 72
    17
 73
     1
  0
VERTEX
  5
9F2
  8
0
 62
     9
 10
0.0
 20
0.0
 30
0.0
 70
   128
 71
     1
 72
     2
 73
    20
  0
VERTEX
  5
9F3
  8
0
 62
     9
 10
0.0
 20
0.0
 30
0.0
 70
   128
 71
    17
 72
    20
 73
    19
  0
VERTEX
  5
9F4
  8
0
 62
     9
 10
0.0
 20
0.0
 30
0.0
 70
   128
 71
    12
 72
    18
 73
    16
  0
VERTEX
  5
9F5
  8
0
 62
     9
 10
0.0
 20
0.0
 30
0.0
 70
   128
 71
    12
 72
    15
 73
    13
  0
VERTEX
  5
9F6
  8
0
 62
     9
 10
0.0
 20
0.0
 30
0.0
 70
   128
 71
     9
 72
    14
 73
    11
  0
VERTEX
  5
9F7
  8
0
 62
     9
 10
0.0
 20
0.0
 30
0.0
 70
   128
 71
     4
 72
    10
 73
     8
  0
VERTEX
  5
9F8
  8
0
 62
     9
 10
0.0
 20
0.0
 30
0.0
 70
   128
 71
     4
 72
     7
 73
     6
  0
VERTEX
  5
9F9
  8
0
 62
     9
 10
0.0
 20
0.0
 30
0.0
 70
   128
 71
     1
 72
     5
 73
     3
  0
SEQEND
  5
9FA
  8
0
 62
     9
  0
ENDBLK
  5
9FD
  8
0
  0
BLOCK
  8
0
  2
E3_NODE_89_
 70
     0
 10
0.0
 20
0.0
 30
0.0
  3
E3_NODE_89_
  1

  0
POLYLINE
  5
9FF
  8
0
 62
     9
 66
     1
 10
0.0
 20
0.0
 30
0.0
 70
    64
 71
    27
 72
    27
  0
VERTEX
  5
A00
  8
0
 10
9.65999984741211
 20
369.0740051269531
 30
54.30300140380859
 70
   192
  0
VERTEX
  5
A01
  8
0
 10
9.038000106811523
 20
367.5239868164062
 30
54.30300140380859
 70
   192
  0
VERTEX
  5
A02
  8
0
 10
15.01700019836426
 20
364.0650024414062
 30
54.30300140380859
 70
   192
  0
VERTEX
  5
A03
  8
0
 10
-0.2879999876022339
 20
370.93798828125
 30
54.30300140380859
 70
   192
  0
VERTEX
  5
A04
  8
0
 10
2.325999975204468
 20
369.1579895019531
 30
54.30300140380859
 70
   192
  0
VERTEX
  5
A05
  8
0
 10
-10.19200038909912
 20
368.85400390625
 30
54.30300140380859
 70
   192
  0
VERTEX
  5
A06
  8
0
 10
-11.10400009155273
 20
366.5799865722656
 30
54.30300140380859
 70
   192
  0
VERTEX
  5
A07
  8
0
 10
-4.573999881744385
 20
368.8340148925781
 30
54.30300140380859
 70
   192
  0
VERTEX
  5
A08
  8
0
 10
-25.9379997253418
 20
344.7120056152344
 30
54.30300140380859
 70
   192
  0
VERTEX
  5
A09
  8
0
 10
-23.85400009155273
 20
334.8080139160156
 30
54.30300140380859
 70
   192
  0
VERTEX
  5
A0A
  8
0
 10
-22.94099998474121
 20
337.0809936523438
 30
54.30300140380859
 70
   192
  0
VERTEX
  5
A0B
  8
0
 10
22.94099998474121
 20
352.9190063476562
 30
54.30300140380859
 70
   192
  0
VERTEX
  5
A0C
  8
0
 10
23.85400009155273
 20
355.1919860839844
 30
54.30300140380859
 70
   192
  0
VERTEX
  5
A0D
  8
0
 10
18.13699913024902
 20
363.5450134277344
 30
54.30300140380859
 70
   192
  0
VERTEX
  5
A0E
  8
0
 10
-19.78000068664551
 20
330.93798828125
 30
54.30300140380859
 70
   192
  0
VERTEX
  5
A0F
  8
0
 10
-9.65999984741211
 20
320.9259948730469
 30
54.30300140380859
 70
   192
  0
VERTEX
  5
A10
  8
0
 10
-9.038000106811523
 20
322.4760131835938
 30
54.30300140380859
 70
   192
  0
VERTEX
  5
A11
  8
0
 10
-24.07399940490723
 20
354.6600036621094
 30
54.30300140380859
 70
   192
  0
VERTEX
  5
A12
  8
0
 10
-21.00799942016602
 20
357.1510009765625
 30
54.30300140380859
 70
   192
  0
VERTEX
  5
A13
  8
0
 10
-24.24300003051758
 20
343.864990234375
 30
54.30300140380859
 70
   192
  0
VERTEX
  5
A14
  8
0
 10
10.19200038909912
 20
321.14599609375
 30
54.30300140380859
 70
   192
  0
VERTEX
  5
A15
  8
0
 10
4.573999881744385
 20
321.1659851074219
 30
54.30300140380859
 70
   192
  0
VERTEX
  5
A16
  8
0
 10
18.54500007629395
 20
326.8630065917969
 30
54.30300140380859
 70
   192
  0
VERTEX
  5
A17
  8
0
 10
24.07399940490723
 20
335.3399963378906
 30
54.30300140380859
 70
   192
  0
VERTEX
  5
A18
  8
0
 10
21.00799942016602
 20
332.8489990234375
 30
54.30300140380859
 70
   192
  0
VERTEX
  5
A19
  8
0
 10
23.58099937438965
 20
339.260009765625
 30
54.30300140380859
 70
   192
  0
VERTEX
  5
A1A
  8
0
 10
16.73399925231934
 20
327.4219970703125
 30
54.30300140380859
 70
   192
  0
VERTEX
  5
A1B
  8
0
 62
     9
 10
0.0
 20
0.0
 30
0.0
 70
   128
 71
     3
 72
     2
 73
     1
  0
VERTEX
  5
A1C
  8
0
 62
     9
 10
0.0
 20
0.0
 30
0.0
 70
   128
 71
     5
 72
     4
 73
     1
  0
VERTEX
  5
A1D
  8
0
 62
     9
 10
0.0
 20
0.0
 30
0.0
 70
   128
 71
     8
 72
     7
 73
     6
  0
VERTEX
  5
A1E
  8
0
 62
     9
 10
0.0
 20
0.0
 30
0.0
 70
   128
 71
     1
 72
     2
 73
     5
  0
VERTEX
  5
A1F
  8
0
 62
     9
 10
0.0
 20
0.0
 30
0.0
 70
   128
 71
     6
 72
     4
 73
     8
  0
VERTEX
  5
A20
  8
0
 62
     9
 10
0.0
 20
0.0
 30
0.0
 70
   128
 71
    11
 72
    10
 73
     9
  0
VERTEX
  5
A21
  8
0
 62
     9
 10
0.0
 20
0.0
 30
0.0
 70
   128
 71
    14
 72
    13
 73
    12
  0
VERTEX
  5
A22
  8
0
 62
     9
 10
0.0
 20
0.0
 30
0.0
 70
   128
 71
     4
 72
     5
 73
     8
  0
VERTEX
  5
A23
  8
0
 62
     9
 10
0.0
 20
0.0
 30
0.0
 70
   128
 71
    11
 72
    15
 73
    10
  0
VERTEX
  5
A24
  8
0
 62
     9
 10
0.0
 20
0.0
 30
0.0
 70
   128
 71
    15
 72
    17
 73
    16
  0
VERTEX
  5
A25
  8
0
 62
     9
 10
0.0
 20
0.0
 30
0.0
 70
   128
 71
     1
 72
    14
 73
     3
  0
VERTEX
  5
A26
  8
0
 62
     9
 10
0.0
 20
0.0
 30
0.0
 70
   128
 71
    19
 72
    18
 73
     6
  0
VERTEX
  5
A27
  8
0
 62
     9
 10
0.0
 20
0.0
 30
0.0
 70
   128
 71
    18
 72
    19
 73
    20
  0
VERTEX
  5
A28
  8
0
 62
     9
 10
0.0
 20
0.0
 30
0.0
 70
   128
 71
    16
 72
    10
 73
    15
  0
VERTEX
  5
A29
  8
0
 62
     9
 10
0.0
 20
0.0
 30
0.0
 70
   128
 71
     6
 72
     7
 73
    19
  0
VERTEX
  5
A2A
  8
0
 62
     9
 10
0.0
 20
0.0
 30
0.0
 70
   128
 71
     9
 72
    20
 73
    11
  0
VERTEX
  5
A2B
  8
0
 62
     9
 10
0.0
 20
0.0
 30
0.0
 70
   128
 71
    20
 72
     9
 73
    18
  0
VERTEX
  5
A2C
  8
0
 62
     9
 10
0.0
 20
0.0
 30
0.0
 70
   128
 71
    22
 72
    21
 73
    16
  0
VERTEX
  5
A2D
  8
0
 62
     9
 10
0.0
 20
0.0
 30
0.0
 70
   128
 71
    25
 72
    24
 73
    23
  0
VERTEX
  5
A2E
  8
0
 62
     9
 10
0.0
 20
0.0
 30
0.0
 70
   128
 71
    26
 72
    12
 73
    13
  0
VERTEX
  5
A2F
  8
0
 62
     9
 10
0.0
 20
0.0
 30
0.0
 70
   128
 71
    16
 72
    17
 73
    22
  0
VERTEX
  5
A30
  8
0
 62
     9
 10
0.0
 20
0.0
 30
0.0
 70
   128
 71
    21
 72
    22
 73
    27
  0
VERTEX
  5
A31
  8
0
 62
     9
 10
0.0
 20
0.0
 30
0.0
 70
   128
 71
    25
 72
    26
 73
    24
  0
VERTEX
  5
A32
  8
0
 62
     9
 10
0.0
 20
0.0
 30
0.0
 70
   128
 71
    12
 72
     3
 73
    14
  0
VERTEX
  5
A33
  8
0
 62
     9
 10
0.0
 20
0.0
 30
0.0
 70
   128
 71
    23
 72
    27
 73
    25
  0
VERTEX
  5
A34
  8
0
 62
     9
 10
0.0
 20
0.0
 30
0.0
 70
   128
 71
    27
 72
    23
 73
    21
  0
VERTEX
  5
A35
  8
0
 62
     9
 10
0.0
 20
0.0
 30
0.0
 70
   128
 71
    13
 72
    24
 73
    26
  0
SEQEND
  5
A36
  8
0
 62
     9
  0
ENDBLK
  5
A39
  8
0
  0
BLOCK
  8
0
  2
E3_NODE_90_
 70
     0
 10
0.0
 20
0.0
 30
0.0
  3
E3_NODE_90_
  1

  0
POLYLINE
  5
A3B
  8
0
 62
     9
 66
     1
 10
0.0
 20
0.0
 30
0.0
 70
    64
 71
    38
 72
    59
  0
VERTEX
  5
A3C
  8
0
 10
-3.989000082015991
 20
335.0580139160156
 30
70.89199829101562
 70
   192
  0
VERTEX
  5
A3D
  8
0
 10
-8.730999946594238
 20
338.7929992675781
 30
70.89199829101562
 70
   192
  0
VERTEX
  5
A3E
  8
0
 10
-15.77700042724609
 20
333.7839965820312
 30
64.12300109863281
 70
   192
  0
VERTEX
  5
A3F
  8
0
 10
-10.69999980926514
 20
344.4989929199219
 30
70.89199829101562
 70
   192
  0
VERTEX
  5
A40
  8
0
 10
-19.33600044250488
 20
344.093994140625
 30
64.12300109863281
 70
   192
  0
VERTEX
  5
A41
  8
0
 10
-9.27299976348877
 20
350.3630065917969
 30
70.89199829101562
 70
   192
  0
VERTEX
  5
A42
  8
0
 10
-16.75699996948242
 20
354.6919860839844
 30
64.12300109863281
 70
   192
  0
VERTEX
  5
A43
  8
0
 10
-4.901000022888184
 20
354.5249938964844
 30
70.89199829101562
 70
   192
  0
VERTEX
  5
A44
  8
0
 10
-8.857000350952148
 20
362.2130126953125
 30
64.12300109863281
 70
   192
  0
VERTEX
  5
A45
  8
0
 10
1.026999950408936
 20
355.6629943847656
 30
70.89199829101562
 70
   192
  0
VERTEX
  5
A46
  8
0
 10
1.855000019073486
 20
364.2690124511719
 30
64.12300109863281
 70
   192
  0
VERTEX
  5
A47
  8
0
 10
6.627999782562256
 20
353.4150085449219
 30
70.89199829101562
 70
   192
  0
VERTEX
  5
A48
  8
0
 10
11.97799968719482
 20
360.2070007324219
 30
64.12300109863281
 70
   192
  0
VERTEX
  5
A49
  8
0
 10
10.12600040435791
 20
348.4949951171875
 30
70.89199829101562
 70
   192
  0
VERTEX
  5
A4A
  8
0
 10
18.29800033569336
 20
351.3169860839844
 30
64.12300109863281
 70
   192
  0
VERTEX
  5
A4B
  8
0
 10
10.40799999237061
 20
342.4660034179688
 30
70.89199829101562
 70
   192
  0
VERTEX
  5
A4C
  8
0
 10
18.8080005645752
 20
340.4209899902344
 30
64.12300109863281
 70
   192
  0
VERTEX
  5
A4D
  8
0
 10
7.386000156402588
 20
337.2409973144531
 30
70.89199829101562
 70
   192
  0
VERTEX
  5
A4E
  8
0
 10
13.34700012207031
 20
330.9800109863281
 30
64.12300109863281
 70
   192
  0
VERTEX
  5
A4F
  8
0
 10
2.019000053405762
 20
334.4800109863281
 30
70.89199829101562
 70
   192
  0
VERTEX
  5
A50
  8
0
 10
3.648000001907349
 20
325.989013671875
 30
64.12300109863281
 70
   192
  0
VERTEX
  5
A51
  8
0
 10
-7.209000110626221
 20
327.0350036621094
 30
64.12300109863281
 70
   192
  0
VERTEX
  5
A52
  8
0
 10
-9.038000106811523
 20
322.4760131835938
 30
54.30300140380859
 70
   192
  0
VERTEX
  5
A53
  8
0
 10
-24.24300003051758
 20
343.864990234375
 30
54.30300140380859
 70
   192
  0
VERTEX
  5
A54
  8
0
 10
-22.94099998474121
 20
337.0809936523438
 30
54.30300140380859
 70
   192
  0
VERTEX
  5
A55
  8
0
 10
-21.00799942016602
 20
357.1510009765625
 30
54.30300140380859
 70
   192
  0
VERTEX
  5
A56
  8
0
 10
-4.573999881744385
 20
368.8340148925781
 30
54.30300140380859
 70
   192
  0
VERTEX
  5
A57
  8
0
 10
2.325999975204468
 20
369.1579895019531
 30
54.30300140380859
 70
   192
  0
VERTEX
  5
A58
  8
0
 10
9.038000106811523
 20
367.5239868164062
 30
54.30300140380859
 70
   192
  0
VERTEX
  5
A59
  8
0
 10
15.01700019836426
 20
364.0650024414062
 30
54.30300140380859
 70
   192
  0
VERTEX
  5
A5A
  8
0
 10
22.94099998474121
 20
352.9190063476562
 30
54.30300140380859
 70
   192
  0
VERTEX
  5
A5B
  8
0
 10
21.00799942016602
 20
332.8489990234375
 30
54.30300140380859
 70
   192
  0
VERTEX
  5
A5C
  8
0
 10
16.73399925231934
 20
327.4219970703125
 30
54.30300140380859
 70
   192
  0
VERTEX
  5
A5D
  8
0
 10
4.573999881744385
 20
321.1659851074219
 30
54.30300140380859
 70
   192
  0
VERTEX
  5
A5E
  8
0
 10
23.58099937438965
 20
339.260009765625
 30
54.30300140380859
 70
   192
  0
VERTEX
  5
A5F
  8
0
 10
-11.10400009155273
 20
366.5799865722656
 30
54.30300140380859
 70
   192
  0
VERTEX
  5
A60
  8
0
 10
-19.78000068664551
 20
330.93798828125
 30
54.30300140380859
 70
   192
  0
VERTEX
  5
A61
  8
0
 10
0.0
 20
345.0
 30
73.3030014038086
 70
   192
  0
VERTEX
  5
A62
  8
0
 62
     9
 10
0.0
 20
0.0
 30
0.0
 70
   128
 71
     3
 72
     2
 73
     1
  0
VERTEX
  5
A63
  8
0
 62
     9
 10
0.0
 20
0.0
 30
0.0
 70
   128
 71
     5
 72
     4
 73
     2
  0
VERTEX
  5
A64
  8
0
 62
     9
 10
0.0
 20
0.0
 30
0.0
 70
   128
 71
     7
 72
     6
 73
     4
  0
VERTEX
  5
A65
  8
0
 62
     9
 10
0.0
 20
0.0
 30
0.0
 70
   128
 71
     9
 72
     8
 73
     6
  0
VERTEX
  5
A66
  8
0
 62
     9
 10
0.0
 20
0.0
 30
0.0
 70
   128
 71
    11
 72
    10
 73
     8
  0
VERTEX
  5
A67
  8
0
 62
     9
 10
0.0
 20
0.0
 30
0.0
 70
   128
 71
    13
 72
    12
 73
    10
  0
VERTEX
  5
A68
  8
0
 62
     9
 10
0.0
 20
0.0
 30
0.0
 70
   128
 71
    15
 72
    14
 73
    12
  0
VERTEX
  5
A69
  8
0
 62
     9
 10
0.0
 20
0.0
 30
0.0
 70
   128
 71
    17
 72
    16
 73
    14
  0
VERTEX
  5
A6A
  8
0
 62
     9
 10
0.0
 20
0.0
 30
0.0
 70
   128
 71
    19
 72
    18
 73
    16
  0
VERTEX
  5
A6B
  8
0
 62
     9
 10
0.0
 20
0.0
 30
0.0
 70
   128
 71
    21
 72
    20
 73
    18
  0
VERTEX
  5
A6C
  8
0
 62
     9
 10
0.0
 20
0.0
 30
0.0
 70
   128
 71
    22
 72
     1
 73
    20
  0
VERTEX
  5
A6D
  8
0
 62
     9
 10
0.0
 20
0.0
 30
0.0
 70
   128
 71
     3
 72
    22
 73
    23
  0
VERTEX
  5
A6E
  8
0
 62
     9
 10
0.0
 20
0.0
 30
0.0
 70
   128
 71
    25
 72
    24
 73
     5
  0
VERTEX
  5
A6F
  8
0
 62
     9
 10
0.0
 20
0.0
 30
0.0
 70
   128
 71
     5
 72
     3
 73
    25
  0
VERTEX
  5
A70
  8
0
 62
     9
 10
0.0
 20
0.0
 30
0.0
 70
   128
 71
     7
 72
     5
 73
    24
  0
VERTEX
  5
A71
  8
0
 62
     9
 10
0.0
 20
0.0
 30
0.0
 70
   128
 71
     9
 72
     7
 73
    26
  0
VERTEX
  5
A72
  8
0
 62
     9
 10
0.0
 20
0.0
 30
0.0
 70
   128
 71
    27
 72
    11
 73
     9
  0
VERTEX
  5
A73
  8
0
 62
     9
 10
0.0
 20
0.0
 30
0.0
 70
   128
 71
    27
 72
    28
 73
    11
  0
VERTEX
  5
A74
  8
0
 62
     9
 10
0.0
 20
0.0
 30
0.0
 70
   128
 71
    29
 72
    13
 73
    11
  0
VERTEX
  5
A75
  8
0
 62
     9
 10
0.0
 20
0.0
 30
0.0
 70
   128
 71
    29
 72
    30
 73
    13
  0
VERTEX
  5
A76
  8
0
 62
     9
 10
0.0
 20
0.0
 30
0.0
 70
   128
 71
    15
 72
    13
 73
    30
  0
VERTEX
  5
A77
  8
0
 62
     9
 10
0.0
 20
0.0
 30
0.0
 70
   128
 71
    17
 72
    15
 73
    31
  0
VERTEX
  5
A78
  8
0
 62
     9
 10
0.0
 20
0.0
 30
0.0
 70
   128
 71
    32
 72
    19
 73
    17
  0
VERTEX
  5
A79
  8
0
 62
     9
 10
0.0
 20
0.0
 30
0.0
 70
   128
 71
    32
 72
    33
 73
    19
  0
VERTEX
  5
A7A
  8
0
 62
     9
 10
0.0
 20
0.0
 30
0.0
 70
   128
 71
    21
 72
    19
 73
    33
  0
VERTEX
  5
A7B
  8
0
 62
     9
 10
0.0
 20
0.0
 30
0.0
 70
   128
 71
    21
 72
    34
 73
    23
  0
VERTEX
  5
A7C
  8
0
 62
     9
 10
0.0
 20
0.0
 30
0.0
 70
   128
 71
    23
 72
    22
 73
    21
  0
VERTEX
  5
A7D
  8
0
 62
     9
 10
0.0
 20
0.0
 30
0.0
 70
   128
 71
    33
 72
    34
 73
    21
  0
VERTEX
  5
A7E
  8
0
 62
     9
 10
0.0
 20
0.0
 30
0.0
 70
   128
 71
    17
 72
    35
 73
    32
  0
VERTEX
  5
A7F
  8
0
 62
     9
 10
0.0
 20
0.0
 30
0.0
 70
   128
 71
    31
 72
    35
 73
    17
  0
VERTEX
  5
A80
  8
0
 62
     9
 10
0.0
 20
0.0
 30
0.0
 70
   128
 71
    30
 72
    31
 73
    15
  0
VERTEX
  5
A81
  8
0
 62
     9
 10
0.0
 20
0.0
 30
0.0
 70
   128
 71
    11
 72
    28
 73
    29
  0
VERTEX
  5
A82
  8
0
 62
     9
 10
0.0
 20
0.0
 30
0.0
 70
   128
 71
     9
 72
    36
 73
    27
  0
VERTEX
  5
A83
  8
0
 62
     9
 10
0.0
 20
0.0
 30
0.0
 70
   128
 71
    26
 72
    36
 73
     9
  0
VERTEX
  5
A84
  8
0
 62
     9
 10
0.0
 20
0.0
 30
0.0
 70
   128
 71
    24
 72
    26
 73
     7
  0
VERTEX
  5
A85
  8
0
 62
     9
 10
0.0
 20
0.0
 30
0.0
 70
   128
 71
     3
 72
    37
 73
    25
  0
VERTEX
  5
A86
  8
0
 62
     9
 10
0.0
 20
0.0
 30
0.0
 70
   128
 71
    23
 72
    37
 73
     3
  0
VERTEX
  5
A87
  8
0
 62
     9
 10
0.0
 20
0.0
 30
0.0
 70
   128
 71
    20
 72
    21
 73
    22
  0
VERTEX
  5
A88
  8
0
 62
     9
 10
0.0
 20
0.0
 30
0.0
 70
   128
 71
    18
 72
    19
 73
    21
  0
VERTEX
  5
A89
  8
0
 62
     9
 10
0.0
 20
0.0
 30
0.0
 70
   128
 71
    16
 72
    17
 73
    19
  0
VERTEX
  5
A8A
  8
0
 62
     9
 10
0.0
 20
0.0
 30
0.0
 70
   128
 71
    14
 72
    15
 73
    17
  0
VERTEX
  5
A8B
  8
0
 62
     9
 10
0.0
 20
0.0
 30
0.0
 70
   128
 71
    12
 72
    13
 73
    15
  0
VERTEX
  5
A8C
  8
0
 62
     9
 10
0.0
 20
0.0
 30
0.0
 70
   128
 71
    10
 72
    11
 73
    13
  0
VERTEX
  5
A8D
  8
0
 62
     9
 10
0.0
 20
0.0
 30
0.0
 70
   128
 71
     8
 72
     9
 73
    11
  0
VERTEX
  5
A8E
  8
0
 62
     9
 10
0.0
 20
0.0
 30
0.0
 70
   128
 71
     6
 72
     7
 73
     9
  0
VERTEX
  5
A8F
  8
0
 62
     9
 10
0.0
 20
0.0
 30
0.0
 70
   128
 71
     4
 72
     5
 73
     7
  0
VERTEX
  5
A90
  8
0
 62
     9
 10
0.0
 20
0.0
 30
0.0
 70
   128
 71
     2
 72
     3
 73
     5
  0
VERTEX
  5
A91
  8
0
 62
     9
 10
0.0
 20
0.0
 30
0.0
 70
   128
 71
     1
 72
    22
 73
     3
  0
VERTEX
  5
A92
  8
0
 62
     9
 10
0.0
 20
0.0
 30
0.0
 70
   128
 71
    38
 72
    20
 73
     1
  0
VERTEX
  5
A93
  8
0
 62
     9
 10
0.0
 20
0.0
 30
0.0
 70
   128
 71
    38
 72
    18
 73
    20
  0
VERTEX
  5
A94
  8
0
 62
     9
 10
0.0
 20
0.0
 30
0.0
 70
   128
 71
    38
 72
    16
 73
    18
  0
VERTEX
  5
A95
  8
0
 62
     9
 10
0.0
 20
0.0
 30
0.0
 70
   128
 71
    38
 72
    14
 73
    16
  0
VERTEX
  5
A96
  8
0
 62
     9
 10
0.0
 20
0.0
 30
0.0
 70
   128
 71
    38
 72
    12
 73
    14
  0
VERTEX
  5
A97
  8
0
 62
     9
 10
0.0
 20
0.0
 30
0.0
 70
   128
 71
    38
 72
    10
 73
    12
  0
VERTEX
  5
A98
  8
0
 62
     9
 10
0.0
 20
0.0
 30
0.0
 70
   128
 71
    38
 72
     8
 73
    10
  0
VERTEX
  5
A99
  8
0
 62
     9
 10
0.0
 20
0.0
 30
0.0
 70
   128
 71
    38
 72
     6
 73
     8
  0
VERTEX
  5
A9A
  8
0
 62
     9
 10
0.0
 20
0.0
 30
0.0
 70
   128
 71
    38
 72
     4
 73
     6
  0
VERTEX
  5
A9B
  8
0
 62
     9
 10
0.0
 20
0.0
 30
0.0
 70
   128
 71
    38
 72
     2
 73
     4
  0
VERTEX
  5
A9C
  8
0
 62
     9
 10
0.0
 20
0.0
 30
0.0
 70
   128
 71
    38
 72
     1
 73
     2
  0
SEQEND
  5
A9D
  8
0
 62
     9
  0
ENDBLK
  5
AA0
  8
0
  0
BLOCK
  8
0
  2
E3_NODE_91_
 70
     0
 10
0.0
 20
0.0
 30
0.0
  3
E3_NODE_91_
  1

  0
POLYLINE
  5
AA2
  8
0
 62
     9
 66
     1
 10
0.0
 20
0.0
 30
0.0
 70
    64
 71
     5
 72
     3
  0
VERTEX
  5
AA3
  8
0
 10
210.6640014648438
 20
-3.033999919891357
 30
110.7529983520508
 70
   192
  0
VERTEX
  5
AA4
  8
0
 10
214.2299957275391
 20
7.941999912261963
 30
110.7529983520508
 70
   192
  0
VERTEX
  5
AA5
  8
0
 10
225.7700042724609
 20
7.941999912261963
 30
110.7529983520508
 70
   192
  0
VERTEX
  5
AA6
  8
0
 10
229.3359985351562
 20
-3.033999919891357
 30
110.7529983520508
 70
   192
  0
VERTEX
  5
AA7
  8
0
 10
220.0
 20
-9.817000389099121
 30
110.7529983520508
 70
   192
  0
VERTEX
  5
AA8
  8
0
 62
     9
 10
0.0
 20
0.0
 30
0.0
 70
   128
 71
     3
 72
     2
 73
     1
  0
VERTEX
  5
AA9
  8
0
 62
     9
 10
0.0
 20
0.0
 30
0.0
 70
   128
 71
     1
 72
     5
 73
     4
  0
VERTEX
  5
AAA
  8
0
 62
     9
 10
0.0
 20
0.0
 30
0.0
 70
   128
 71
     1
 72
     4
 73
     3
  0
SEQEND
  5
AAB
  8
0
 62
     9
  0
ENDBLK
  5
AAE
  8
0
  0
BLOCK
  8
0
  2
E3_NODE_92_
 70
     0
 10
0.0
 20
0.0
 30
0.0
  3
E3_NODE_92_
  1

  0
POLYLINE
  5
AB0
  8
0
 62
     9
 66
     1
 10
0.0
 20
0.0
 30
0.0
 70
    64
 71
    10
 72
    10
  0
VERTEX
  5
AB1
  8
0
 10
210.6640014648438
 20
-3.033999919891357
 30
109.8030014038086
 70
   192
  0
VERTEX
  5
AB2
  8
0
 10
210.6640014648438
 20
-3.033999919891357
 30
110.7529983520508
 70
   192
  0
VERTEX
  5
AB3
  8
0
 10
220.0
 20
-9.817000389099121
 30
110.7529983520508
 70
   192
  0
VERTEX
  5
AB4
  8
0
 10
214.2299957275391
 20
7.941999912261963
 30
109.8030014038086
 70
   192
  0
VERTEX
  5
AB5
  8
0
 10
214.2299957275391
 20
7.941999912261963
 30
110.7529983520508
 70
   192
  0
VERTEX
  5
AB6
  8
0
 10
225.7700042724609
 20
7.941999912261963
 30
109.8030014038086
 70
   192
  0
VERTEX
  5
AB7
  8
0
 10
225.7700042724609
 20
7.941999912261963
 30
110.7529983520508
 70
   192
  0
VERTEX
  5
AB8
  8
0
 10
229.3359985351562
 20
-3.033999919891357
 30
110.7529983520508
 70
   192
  0
VERTEX
  5
AB9
  8
0
 10
229.3359985351562
 20
-3.033999919891357
 30
109.8030014038086
 70
   192
  0
VERTEX
  5
ABA
  8
0
 10
220.0
 20
-9.817000389099121
 30
109.8030014038086
 70
   192
  0
VERTEX
  5
ABB
  8
0
 62
     9
 10
0.0
 20
0.0
 30
0.0
 70
   128
 71
     3
 72
     2
 73
     1
  0
VERTEX
  5
ABC
  8
0
 62
     9
 10
0.0
 20
0.0
 30
0.0
 70
   128
 71
     2
 72
     5
 73
     4
  0
VERTEX
  5
ABD
  8
0
 62
     9
 10
0.0
 20
0.0
 30
0.0
 70
   128
 71
     5
 72
     7
 73
     6
  0
VERTEX
  5
ABE
  8
0
 62
     9
 10
0.0
 20
0.0
 30
0.0
 70
   128
 71
     6
 72
     7
 73
     8
  0
VERTEX
  5
ABF
  8
0
 62
     9
 10
0.0
 20
0.0
 30
0.0
 70
   128
 71
     9
 72
     8
 73
     3
  0
VERTEX
  5
AC0
  8
0
 62
     9
 10
0.0
 20
0.0
 30
0.0
 70
   128
 71
     3
 72
    10
 73
     9
  0
VERTEX
  5
AC1
  8
0
 62
     9
 10
0.0
 20
0.0
 30
0.0
 70
   128
 71
     8
 72
     9
 73
     6
  0
VERTEX
  5
AC2
  8
0
 62
     9
 10
0.0
 20
0.0
 30
0.0
 70
   128
 71
     6
 72
     4
 73
     5
  0
VERTEX
  5
AC3
  8
0
 62
     9
 10
0.0
 20
0.0
 30
0.0
 70
   128
 71
     4
 72
     1
 73
     2
  0
VERTEX
  5
AC4
  8
0
 62
     9
 10
0.0
 20
0.0
 30
0.0
 70
   128
 71
     1
 72
    10
 73
     3
  0
SEQEND
  5
AC5
  8
0
 62
     9
  0
ENDBLK
  5
AC8
  8
0
  0
BLOCK
  8
0
  2
E3_NODE_93_
 70
     0
 10
0.0
 20
0.0
 30
0.0
  3
E3_NODE_93_
  1

  0
POLYLINE
  5
ACA
  8
0
 62
     9
 66
     1
 10
0.0
 20
0.0
 30
0.0
 70
    64
 71
    12
 72
    12
  0
VERTEX
  5
ACB
  8
0
 10
220.0
 20
-9.817000389099121
 30
109.8030014038086
 70
   192
  0
VERTEX
  5
ACC
  8
0
 10
229.3359985351562
 20
-3.033999919891357
 30
109.8030014038086
 70
   192
  0
VERTEX
  5
ACD
  8
0
 10
225.9750061035156
 20
-10.34899997711182
 30
109.8030014038086
 70
   192
  0
VERTEX
  5
ACE
  8
0
 10
208.0500030517578
 20
0.0
 30
109.8030014038086
 70
   192
  0
VERTEX
  5
ACF
  8
0
 10
214.0249938964844
 20
10.34899997711182
 30
109.8030014038086
 70
   192
  0
VERTEX
  5
AD0
  8
0
 10
214.2299957275391
 20
7.941999912261963
 30
109.8030014038086
 70
   192
  0
VERTEX
  5
AD1
  8
0
 10
225.9750061035156
 20
10.34899997711182
 30
109.8030014038086
 70
   192
  0
VERTEX
  5
AD2
  8
0
 10
225.7700042724609
 20
7.941999912261963
 30
109.8030014038086
 70
   192
  0
VERTEX
  5
AD3
  8
0
 10
231.9499969482422
 20
0.0
 30
109.8030014038086
 70
   192
  0
VERTEX
  5
AD4
  8
0
 10
220.0
 20
-11.94999980926514
 30
109.8030014038086
 70
   192
  0
VERTEX
  5
AD5
  8
0
 10
214.0249938964844
 20
-10.34899997711182
 30
109.8030014038086
 70
   192
  0
VERTEX
  5
AD6
  8
0
 10
210.6640014648438
 20
-3.033999919891357
 30
109.8030014038086
 70
   192
  0
VERTEX
  5
AD7
  8
0
 62
     9
 10
0.0
 20
0.0
 30
0.0
 70
   128
 71
     3
 72
     2
 73
     1
  0
VERTEX
  5
AD8
  8
0
 62
     9
 10
0.0
 20
0.0
 30
0.0
 70
   128
 71
     6
 72
     5
 73
     4
  0
VERTEX
  5
AD9
  8
0
 62
     9
 10
0.0
 20
0.0
 30
0.0
 70
   128
 71
     6
 72
     8
 73
     7
  0
VERTEX
  5
ADA
  8
0
 62
     9
 10
0.0
 20
0.0
 30
0.0
 70
   128
 71
     8
 72
     2
 73
     9
  0
VERTEX
  5
ADB
  8
0
 62
     9
 10
0.0
 20
0.0
 30
0.0
 70
   128
 71
     1
 72
    10
 73
     3
  0
VERTEX
  5
ADC
  8
0
 62
     9
 10
0.0
 20
0.0
 30
0.0
 70
   128
 71
     7
 72
     5
 73
     6
  0
VERTEX
  5
ADD
  8
0
 62
     9
 10
0.0
 20
0.0
 30
0.0
 70
   128
 71
     3
 72
     9
 73
     2
  0
VERTEX
  5
ADE
  8
0
 62
     9
 10
0.0
 20
0.0
 30
0.0
 70
   128
 71
    11
 72
    10
 73
     1
  0
VERTEX
  5
ADF
  8
0
 62
     9
 10
0.0
 20
0.0
 30
0.0
 70
   128
 71
     9
 72
     7
 73
     8
  0
VERTEX
  5
AE0
  8
0
 62
     9
 10
0.0
 20
0.0
 30
0.0
 70
   128
 71
    12
 72
     4
 73
    11
  0
VERTEX
  5
AE1
  8
0
 62
     9
 10
0.0
 20
0.0
 30
0.0
 70
   128
 71
     1
 72
    12
 73
    11
  0
VERTEX
  5
AE2
  8
0
 62
     9
 10
0.0
 20
0.0
 30
0.0
 70
   128
 71
     4
 72
    12
 73
     6
  0
SEQEND
  5
AE3
  8
0
 62
     9
  0
ENDBLK
  5
AE6
  8
0
  0
BLOCK
  8
0
  2
E3_NODE_94_
 70
     0
 10
0.0
 20
0.0
 30
0.0
  3
E3_NODE_94_
  1

  0
POLYLINE
  5
AE8
  8
0
 62
     9
 66
     1
 10
0.0
 20
0.0
 30
0.0
 70
    64
 71
    14
 72
    14
  0
VERTEX
  5
AE9
  8
0
 10
225.9750061035156
 20
10.34899997711182
 30
109.8030014038086
 70
   192
  0
VERTEX
  5
AEA
  8
0
 10
225.9750061035156
 20
10.34899997711182
 30
125.2539978027344
 70
   192
  0
VERTEX
  5
AEB
  8
0
 10
231.9499969482422
 20
0.0
 30
125.2539978027344
 70
   192
  0
VERTEX
  5
AEC
  8
0
 10
214.0249938964844
 20
10.34899997711182
 30
109.8030014038086
 70
   192
  0
VERTEX
  5
AED
  8
0
 10
214.0249938964844
 20
10.34899997711182
 30
125.2539978027344
 70
   192
  0
VERTEX
  5
AEE
  8
0
 10
208.0500030517578
 20
0.0
 30
109.8030014038086
 70
   192
  0
VERTEX
  5
AEF
  8
0
 10
208.0500030517578
 20
0.0
 30
125.2539978027344
 70
   192
  0
VERTEX
  5
AF0
  8
0
 10
214.0249938964844
 20
-10.34899997711182
 30
109.8030014038086
 70
   192
  0
VERTEX
  5
AF1
  8
0
 10
214.0249938964844
 20
-10.34899997711182
 30
125.2539978027344
 70
   192
  0
VERTEX
  5
AF2
  8
0
 10
225.9750061035156
 20
-10.34899997711182
 30
125.2539978027344
 70
   192
  0
VERTEX
  5
AF3
  8
0
 10
220.0
 20
-11.94999980926514
 30
125.2539978027344
 70
   192
  0
VERTEX
  5
AF4
  8
0
 10
220.0
 20
-11.94999980926514
 30
109.8030014038086
 70
   192
  0
VERTEX
  5
AF5
  8
0
 10
231.9499969482422
 20
0.0
 30
109.8030014038086
 70
   192
  0
VERTEX
  5
AF6
  8
0
 10
225.9750061035156
 20
-10.34899997711182
 30
109.8030014038086
 70
   192
  0
VERTEX
  5
AF7
  8
0
 62
     9
 10
0.0
 20
0.0
 30
0.0
 70
   128
 71
     3
 72
     2
 73
     1
  0
VERTEX
  5
AF8
  8
0
 62
     9
 10
0.0
 20
0.0
 30
0.0
 70
   128
 71
     2
 72
     5
 73
     4
  0
VERTEX
  5
AF9
  8
0
 62
     9
 10
0.0
 20
0.0
 30
0.0
 70
   128
 71
     5
 72
     7
 73
     6
  0
VERTEX
  5
AFA
  8
0
 62
     9
 10
0.0
 20
0.0
 30
0.0
 70
   128
 71
     7
 72
     9
 73
     8
  0
VERTEX
  5
AFB
  8
0
 62
     9
 10
0.0
 20
0.0
 30
0.0
 70
   128
 71
    12
 72
    11
 73
    10
  0
VERTEX
  5
AFC
  8
0
 62
     9
 10
0.0
 20
0.0
 30
0.0
 70
   128
 71
    11
 72
    12
 73
     8
  0
VERTEX
  5
AFD
  8
0
 62
     9
 10
0.0
 20
0.0
 30
0.0
 70
   128
 71
     8
 72
     9
 73
    11
  0
VERTEX
  5
AFE
  8
0
 62
     9
 10
0.0
 20
0.0
 30
0.0
 70
   128
 71
    10
 72
     3
 73
    13
  0
VERTEX
  5
AFF
  8
0
 62
     9
 10
0.0
 20
0.0
 30
0.0
 70
   128
 71
    13
 72
    14
 73
    10
  0
VERTEX
  5
B00
  8
0
 62
     9
 10
0.0
 20
0.0
 30
0.0
 70
   128
 71
    10
 72
    14
 73
    12
  0
VERTEX
  5
B01
  8
0
 62
     9
 10
0.0
 20
0.0
 30
0.0
 70
   128
 71
     8
 72
     6
 73
     7
  0
VERTEX
  5
B02
  8
0
 62
     9
 10
0.0
 20
0.0
 30
0.0
 70
   128
 71
     6
 72
     4
 73
     5
  0
VERTEX
  5
B03
  8
0
 62
     9
 10
0.0
 20
0.0
 30
0.0
 70
   128
 71
     4
 72
     1
 73
     2
  0
VERTEX
  5
B04
  8
0
 62
     9
 10
0.0
 20
0.0
 30
0.0
 70
   128
 71
     1
 72
    13
 73
     3
  0
SEQEND
  5
B05
  8
0
 62
     9
  0
ENDBLK
  5
B08
  8
0
  0
ENDSEC
  0
SECTION
  2
ENTITIES
  0
INSERT
  5
DA
  8
LAYER_1
  2
E3_NODE
 10
0.0
 20
0.0
 30
0.0
  0
INSERT
  5
17B
  8
LAYER_1
  2
E3_NODE_1_
 10
0.0
 20
0.0
 30
0.0
  0
INSERT
  5
187
  8
LAYER_1
  2
E3_NODE_2_
 10
0.0
 20
0.0
 30
0.0
  0
INSERT
  5
193
  8
LAYER_1
  2
E3_NODE_3_
 10
0.0
 20
0.0
 30
0.0
  0
INSERT
  5
19F
  8
LAYER_1
  2
E3_NODE_4_
 10
0.0
 20
0.0
 30
0.0
  0
INSERT
  5
1AB
  8
LAYER_1
  2
E3_NODE_5_
 10
0.0
 20
0.0
 30
0.0
  0
INSERT
  5
1B7
  8
LAYER_1
  2
E3_NODE_6_
 10
0.0
 20
0.0
 30
0.0
  0
INSERT
  5
1C3
  8
LAYER_1
  2
E3_NODE_7_
 10
0.0
 20
0.0
 30
0.0
  0
INSERT
  5
1CF
  8
LAYER_1
  2
E3_NODE_8_
 10
0.0
 20
0.0
 30
0.0
  0
INSERT
  5
1DB
  8
LAYER_1
  2
E3_NODE_9_
 10
0.0
 20
0.0
 30
0.0
  0
INSERT
  5
1E7
  8
LAYER_1
  2
E3_NODE_10_
 10
0.0
 20
0.0
 30
0.0
  0
INSERT
  5
1F3
  8
LAYER_1
  2
E3_NODE_11_
 10
0.0
 20
0.0
 30
0.0
  0
INSERT
  5
1FF
  8
LAYER_1
  2
E3_NODE_12_
 10
0.0
 20
0.0
 30
0.0
  0
INSERT
  5
20B
  8
LAYER_1
  2
E3_NODE_13_
 10
0.0
 20
0.0
 30
0.0
  0
INSERT
  5
217
  8
LAYER_1
  2
E3_NODE_14_
 10
0.0
 20
0.0
 30
0.0
  0
INSERT
  5
223
  8
LAYER_1
  2
E3_NODE_15_
 10
0.0
 20
0.0
 30
0.0
  0
INSERT
  5
22F
  8
LAYER_1
  2
E3_NODE_16_
 10
0.0
 20
0.0
 30
0.0
  0
INSERT
  5
23B
  8
LAYER_1
  2
E3_NODE_17_
 10
0.0
 20
0.0
 30
0.0
  0
INSERT
  5
247
  8
LAYER_1
  2
E3_NODE_18_
 10
0.0
 20
0.0
 30
0.0
  0
INSERT
  5
253
  8
LAYER_1
  2
E3_NODE_19_
 10
0.0
 20
0.0
 30
0.0
  0
INSERT
  5
265
  8
LAYER_1
  2
E3_NODE_20_
 10
0.0
 20
0.0
 30
0.0
  0
INSERT
  5
287
  8
LAYER_1
  2
E3_NODE_21_
 10
0.0
 20
0.0
 30
0.0
  0
INSERT
  5
293
  8
LAYER_1
  2
E3_NODE_22_
 10
0.0
 20
0.0
 30
0.0
  0
INSERT
  5
29F
  8
LAYER_1
  2
E3_NODE_23_
 10
0.0
 20
0.0
 30
0.0
  0
INSERT
  5
2AB
  8
LAYER_1
  2
E3_NODE_24_
 10
0.0
 20
0.0
 30
0.0
  0
INSERT
  5
2B7
  8
LAYER_1
  2
E3_NODE_25_
 10
0.0
 20
0.0
 30
0.0
  0
INSERT
  5
2C3
  8
LAYER_1
  2
E3_NODE_26_
 10
0.0
 20
0.0
 30
0.0
  0
INSERT
  5
2CF
  8
LAYER_1
  2
E3_NODE_27_
 10
0.0
 20
0.0
 30
0.0
  0
INSERT
  5
2ED
  8
LAYER_1
  2
E3_NODE_28_
 10
0.0
 20
0.0
 30
0.0
  0
INSERT
  5
30D
  8
LAYER_1
  2
E3_NODE_29_
 10
0.0
 20
0.0
 30
0.0
  0
INSERT
  5
32F
  8
LAYER_1
  2
E3_NODE_30_
 10
0.0
 20
0.0
 30
0.0
  0
INSERT
  5
341
  8
LAYER_1
  2
E3_NODE_31_
 10
0.0
 20
0.0
 30
0.0
  0
INSERT
  5
351
  8
LAYER_1
  2
E3_NODE_32_
 10
0.0
 20
0.0
 30
0.0
  0
INSERT
  5
381
  8
LAYER_1
  2
E3_NODE_33_
 10
0.0
 20
0.0
 30
0.0
  0
INSERT
  5
3C5
  8
LAYER_1
  2
E3_NODE_34_
 10
0.0
 20
0.0
 30
0.0
  0
INSERT
  5
3D1
  8
LAYER_1
  2
E3_NODE_35_
 10
0.0
 20
0.0
 30
0.0
  0
INSERT
  5
3F5
  8
LAYER_1
  2
E3_NODE_36_
 10
0.0
 20
0.0
 30
0.0
  0
INSERT
  5
419
  8
LAYER_1
  2
E3_NODE_37_
 10
0.0
 20
0.0
 30
0.0
  0
INSERT
  5
43D
  8
LAYER_1
  2
E3_NODE_38_
 10
0.0
 20
0.0
 30
0.0
  0
INSERT
  5
44D
  8
LAYER_1
  2
E3_NODE_39_
 10
0.0
 20
0.0
 30
0.0
  0
INSERT
  5
46B
  8
LAYER_1
  2
E3_NODE_40_
 10
0.0
 20
0.0
 30
0.0
  0
INSERT
  5
489
  8
LAYER_1
  2
E3_NODE_41_
 10
0.0
 20
0.0
 30
0.0
  0
INSERT
  5
4A7
  8
LAYER_1
  2
E3_NODE_42_
 10
0.0
 20
0.0
 30
0.0
  0
INSERT
  5
4C9
  8
LAYER_1
  2
E3_NODE_43_
 10
0.0
 20
0.0
 30
0.0
  0
INSERT
  5
511
  8
LAYER_1
  2
E3_NODE_44_
 10
0.0
 20
0.0
 30
0.0
  0
INSERT
  5
571
  8
LAYER_1
  2
E3_NODE_45_
 10
0.0
 20
0.0
 30
0.0
  0
INSERT
  5
589
  8
LAYER_1
  2
E3_NODE_46_
 10
0.0
 20
0.0
 30
0.0
  0
INSERT
  5
597
  8
LAYER_1
  2
E3_NODE_47_
 10
0.0
 20
0.0
 30
0.0
  0
INSERT
  5
5B5
  8
LAYER_1
  2
E3_NODE_48_
 10
0.0
 20
0.0
 30
0.0
  0
INSERT
  5
5CF
  8
LAYER_1
  2
E3_NODE_49_
 10
0.0
 20
0.0
 30
0.0
  0
INSERT
  5
5DF
  8
LAYER_1
  2
E3_NODE_50_
 10
0.0
 20
0.0
 30
0.0
  0
INSERT
  5
610
  8
LAYER_1
  2
E3_NODE_51_
 10
0.0
 20
0.0
 30
0.0
  0
INSERT
  5
624
  8
LAYER_1
  2
E3_NODE_52_
 10
0.0
 20
0.0
 30
0.0
  0
INSERT
  5
634
  8
LAYER_1
  2
E3_NODE_53_
 10
0.0
 20
0.0
 30
0.0
  0
INSERT
  5
640
  8
LAYER_1
  2
E3_NODE_54_
 10
0.0
 20
0.0
 30
0.0
  0
INSERT
  5
650
  8
LAYER_1
  2
E3_NODE_55_
 10
0.0
 20
0.0
 30
0.0
  0
INSERT
  5
667
  8
LAYER_1
  2
E3_NODE_56_
 10
0.0
 20
0.0
 30
0.0
  0
INSERT
  5
677
  8
LAYER_1
  2
E3_NODE_57_
 10
0.0
 20
0.0
 30
0.0
  0
INSERT
  5
685
  8
LAYER_1
  2
E3_NODE_58_
 10
0.0
 20
0.0
 30
0.0
  0
INSERT
  5
693
  8
LAYER_1
  2
E3_NODE_59_
 10
0.0
 20
0.0
 30
0.0
  0
INSERT
  5
6AA
  8
LAYER_1
  2
E3_NODE_60_
 10
0.0
 20
0.0
 30
0.0
  0
INSERT
  5
6B6
  8
LAYER_1
  2
E3_NODE_61_
 10
0.0
 20
0.0
 30
0.0
  0
INSERT
  5
6C8
  8
LAYER_1
  2
E3_NODE_62_
 10
0.0
 20
0.0
 30
0.0
  0
INSERT
  5
6DC
  8
LAYER_1
  2
E3_NODE_63_
 10
0.0
 20
0.0
 30
0.0
  0
INSERT
  5
6EC
  8
LAYER_1
  2
E3_NODE_64_
 10
0.0
 20
0.0
 30
0.0
  0
INSERT
  5
6FC
  8
LAYER_1
  2
E3_NODE_65_
 10
0.0
 20
0.0
 30
0.0
  0
INSERT
  5
70A
  8
LAYER_1
  2
E3_NODE_66_
 10
0.0
 20
0.0
 30
0.0
  0
INSERT
  5
723
  8
LAYER_1
  2
E3_NODE_67_
 10
0.0
 20
0.0
 30
0.0
  0
INSERT
  5
733
  8
LAYER_1
  2
E3_NODE_68_
 10
0.0
 20
0.0
 30
0.0
  0
INSERT
  5
743
  8
LAYER_1
  2
E3_NODE_69_
 10
0.0
 20
0.0
 30
0.0
  0
INSERT
  5
759
  8
LAYER_1
  2
E3_NODE_70_
 10
0.0
 20
0.0
 30
0.0
  0
INSERT
  5
787
  8
LAYER_1
  2
E3_NODE_71_
 10
0.0
 20
0.0
 30
0.0
  0
INSERT
  5
7B3
  8
LAYER_1
  2
E3_NODE_72_
 10
0.0
 20
0.0
 30
0.0
  0
INSERT
  5
7DD
  8
LAYER_1
  2
E3_NODE_73_
 10
0.0
 20
0.0
 30
0.0
  0
INSERT
  5
7ED
  8
LAYER_1
  2
E3_NODE_74_
 10
0.0
 20
0.0
 30
0.0
  0
INSERT
  5
7FF
  8
LAYER_1
  2
E3_NODE_75_
 10
0.0
 20
0.0
 30
0.0
  0
INSERT
  5
82B
  8
LAYER_1
  2
E3_NODE_76_
 10
0.0
 20
0.0
 30
0.0
  0
INSERT
  5
877
  8
LAYER_1
  2
E3_NODE_77_
 10
0.0
 20
0.0
 30
0.0
  0
INSERT
  5
887
  8
LAYER_1
  2
E3_NODE_78_
 10
0.0
 20
0.0
 30
0.0
  0
INSERT
  5
8B1
  8
LAYER_1
  2
E3_NODE_79_
 10
0.0
 20
0.0
 30
0.0
  0
INSERT
  5
90B
  8
LAYER_1
  2
E3_NODE_80_
 10
0.0
 20
0.0
 30
0.0
  0
INSERT
  5
939
  8
LAYER_1
  2
E3_NODE_81_
 10
0.0
 20
0.0
 30
0.0
  0
INSERT
  5
94B
  8
LAYER_1
  2
E3_NODE_82_
 10
0.0
 20
0.0
 30
0.0
  0
INSERT
  5
971
  8
LAYER_1
  2
E3_NODE_83_
 10
0.0
 20
0.0
 30
0.0
  0
INSERT
  5
993
  8
LAYER_1
  2
E3_NODE_84_
 10
0.0
 20
0.0
 30
0.0
  0
INSERT
  5
9A3
  8
LAYER_1
  2
E3_NODE_85_
 10
0.0
 20
0.0
 30
0.0
  0
INSERT
  5
9B3
  8
LAYER_1
  2
E3_NODE_86_
 10
0.0
 20
0.0
 30
0.0
  0
INSERT
  5
9CD
  8
LAYER_1
  2
E3_NODE_87_
 10
0.0
 20
0.0
 30
0.0
  0
INSERT
  5
9FB
  8
LAYER_1
  2
E3_NODE_88_
 10
0.0
 20
0.0
 30
0.0
  0
INSERT
  5
A37
  8
LAYER_1
  2
E3_NODE_89_
 10
0.0
 20
0.0
 30
0.0
  0
INSERT
  5
A9E
  8
LAYER_1
  2
E3_NODE_90_
 10
0.0
 20
0.0
 30
0.0
  0
INSERT
  5
AAC
  8
LAYER_1
  2
E3_NODE_91_
 10
0.0
 20
0.0
 30
0.0
  0
INSERT
  5
AC6
  8
LAYER_1
  2
E3_NODE_92_
 10
0.0
 20
0.0
 30
0.0
  0
INSERT
  5
AE4
  8
LAYER_1
  2
E3_NODE_93_
 10
0.0
 20
0.0
 30
0.0
  0
INSERT
  5
B06
  8
LAYER_1
  2
E3_NODE_94_
 10
0.0
 20
0.0
 30
0.0
  0
ENDSEC
  0
EOF
