  0
SECTION
  2
HEADER
  9
$ACADVER
  1
AC1015
  9
$ACADMAINTVER
 70
     6
  9
$DWGCODEPAGE
  3
ANSI_1252
  9
$INSBASE
 10
0.0
 20
0.0
 30
0.0
  9
$EXTMIN
 10
0.0
 20
0.0
 30
0.0
  9
$EXTMAX
 10
1682.0
 20
2378.0
 30
0.0
  9
$LIMMIN
 10
0.0
 20
0.0
  9
$LIMMAX
 10
1682.0
 20
2378.0
  9
$ORTHOMODE
 70
     0
  9
$REGENMODE
 70
     1
  9
$FILLMODE
 70
     1
  9
$QTEXTMODE
 70
     0
  9
$MIRRTEXT
 70
     1
  9
$LTSCALE
 40
1.0
  9
$ATTMODE
 70
     1
  9
$TEXTSIZE
 40
2.5
  9
$TRACEWID
 40
1.0
  9
$TEXTSTYLE
  7
Standard
  9
$CLAYER
  8
0
  9
$CELTYPE
  6
ByLayer
  9
$CECOLOR
 62
   256
  9
$CELTSCALE
 40
1.0
  9
$DISPSILH
 70
     0
  9
$DIMSCALE
 40
1.0
  9
$DIMASZ
 40
2.5
  9
$DIMEXO
 40
0.625
  9
$DIMDLI
 40
3.75
  9
$DIMRND
 40
0.0
  9
$DIMDLE
 40
0.0
  9
$DIMEXE
 40
1.25
  9
$DIMTP
 40
0.0
  9
$DIMTM
 40
0.0
  9
$DIMTXT
 40
2.5
  9
$DIMCEN
 40
2.5
  9
$DIMTSZ
 40
0.0
  9
$DIMTOL
 70
     0
  9
$DIMLIM
 70
     0
  9
$DIMTIH
 70
     0
  9
$DIMTOH
 70
     0
  9
$DIMSE1
 70
     0
  9
$DIMSE2
 70
     0
  9
$DIMTAD
 70
     1
  9
$DIMZIN
 70
     8
  9
$DIMBLK
  1

  9
$DIMASO
 70
     1
  9
$DIMSHO
 70
     1
  9
$DIMPOST
  1

  9
$DIMAPOST
  1

  9
$DIMALT
 70
     0
  9
$DIMALTD
 70
     3
  9
$DIMALTF
 40
0.0393700787
  9
$DIMLFAC
 40
1.0
  9
$DIMTOFL
 70
     1
  9
$DIMTVP
 40
0.0
  9
$DIMTIX
 70
     0
  9
$DIMSOXD
 70
     0
  9
$DIMSAH
 70
     0
  9
$DIMBLK1
  1

  9
$DIMBLK2
  1

  9
$DIMSTYLE
  2
ISO-25
  9
$DIMCLRD
 70
     0
  9
$DIMCLRE
 70
     0
  9
$DIMCLRT
 70
     0
  9
$DIMTFAC
 40
1.0
  9
$DIMGAP
 40
0.625
  9
$DIMJUST
 70
     0
  9
$DIMSD1
 70
     0
  9
$DIMSD2
 70
     0
  9
$DIMTOLJ
 70
     0
  9
$DIMTZIN
 70
     8
  9
$DIMALTZ
 70
     0
  9
$DIMALTTZ
 70
     0
  9
$DIMUPT
 70
     0
  9
$DIMDEC
 70
     2
  9
$DIMTDEC
 70
     2
  9
$DIMALTU
 70
     2
  9
$DIMALTTD
 70
     3
  9
$DIMTXSTY
  7
Standard
  9
$DIMAUNIT
 70
     0
  9
$DIMADEC
 70
     0
  9
$DIMALTRND
 40
0.0
  9
$DIMAZIN
 70
     0
  9
$DIMDSEP
 70
    44
  9
$DIMATFIT
 70
     3
  9
$DIMFRAC
 70
     0
  9
$DIMLDRBLK
  1

  9
$DIMLUNIT
 70
     2
  9
$DIMLWD
 70
    -2
  9
$DIMLWE
 70
    -2
  9
$DIMTMOVE
 70
     0
  9
$LUNITS
 70
     2
  9
$LUPREC
 70
     4
  9
$SKETCHINC
 40
1.0
  9
$FILLETRAD
 40
10.0
  9
$AUNITS
 70
     0
  9
$AUPREC
 70
     0
  9
$MENU
  1
.
  9
$ELEVATION
 40
0.0
  9
$PELEVATION
 40
0.0
  9
$THICKNESS
 40
0.0
  9
$LIMCHECK
 70
     0
  9
$CHAMFERA
 40
10.0
  9
$CHAMFERB
 40
10.0
  9
$CHAMFERC
 40
20.0
  9
$CHAMFERD
 40
0.0
  9
$SKPOLY
 70
     0
  9
$TDCREATE
 40
2455495.654712894
  9
$TDUCREATE
 40
2455495.57137956
  9
$TDUPDATE
 40
2455495.654712905
  9
$TDUUPDATE
 40
2455495.571379572
  9
$TDINDWG
 40
0.0000000116
  9
$TDUSRTIMER
 40
0.0000000116
  9
$USRTIMER
 70
     1
  9
$ANGBASE
 50
0.0
  9
$ANGDIR
 70
     0
  9
$PDMODE
 70
     0
  9
$PDSIZE
 40
0.0
  9
$PLINEWID
 40
0.0
  9
$SPLFRAME
 70
     0
  9
$SPLINETYPE
 70
     6
  9
$SPLINESEGS
 70
     8
  9
$HANDSEED
  5
5FA
  9
$SURFTAB1
 70
     6
  9
$SURFTAB2
 70
     6
  9
$SURFTYPE
 70
     6
  9
$SURFU
 70
     6
  9
$SURFV
 70
     6
  9
$UCSBASE
  2

  9
$UCSNAME
  2

  9
$UCSORG
 10
0.0
 20
0.0
 30
0.0
  9
$UCSXDIR
 10
1.0
 20
0.0
 30
0.0
  9
$UCSYDIR
 10
0.0
 20
1.0
 30
0.0
  9
$UCSORTHOREF
  2

  9
$UCSORTHOVIEW
 70
     0
  9
$UCSORGTOP
 10
0.0
 20
0.0
 30
0.0
  9
$UCSORGBOTTOM
 10
0.0
 20
0.0
 30
0.0
  9
$UCSORGLEFT
 10
0.0
 20
0.0
 30
0.0
  9
$UCSORGRIGHT
 10
0.0
 20
0.0
 30
0.0
  9
$UCSORGFRONT
 10
0.0
 20
0.0
 30
0.0
  9
$UCSORGBACK
 10
0.0
 20
0.0
 30
0.0
  9
$PUCSBASE
  2

  9
$PUCSNAME
  2

  9
$PUCSORG
 10
0.0
 20
0.0
 30
0.0
  9
$PUCSXDIR
 10
1.0
 20
0.0
 30
0.0
  9
$PUCSYDIR
 10
0.0
 20
1.0
 30
0.0
  9
$PUCSORTHOREF
  2

  9
$PUCSORTHOVIEW
 70
     0
  9
$PUCSORGTOP
 10
0.0
 20
0.0
 30
0.0
  9
$PUCSORGBOTTOM
 10
0.0
 20
0.0
 30
0.0
  9
$PUCSORGLEFT
 10
0.0
 20
0.0
 30
0.0
  9
$PUCSORGRIGHT
 10
0.0
 20
0.0
 30
0.0
  9
$PUCSORGFRONT
 10
0.0
 20
0.0
 30
0.0
  9
$PUCSORGBACK
 10
0.0
 20
0.0
 30
0.0
  9
$USERI1
 70
     0
  9
$USERI2
 70
     0
  9
$USERI3
 70
     0
  9
$USERI4
 70
     0
  9
$USERI5
 70
     0
  9
$USERR1
 40
0.0
  9
$USERR2
 40
0.0
  9
$USERR3
 40
0.0
  9
$USERR4
 40
0.0
  9
$USERR5
 40
0.0
  9
$WORLDVIEW
 70
     1
  9
$SHADEDGE
 70
     3
  9
$SHADEDIF
 70
    70
  9
$TILEMODE
 70
     1
  9
$MAXACTVP
 70
    64
  9
$PINSBASE
 10
0.0
 20
0.0
 30
0.0
  9
$PLIMCHECK
 70
     0
  9
$PEXTMIN
 10
0.0
 20
0.0
 30
0.0
  9
$PEXTMAX
 10
1682.0
 20
2378.0
 30
0.0
  9
$PLIMMIN
 10
0.0
 20
0.0
  9
$PLIMMAX
 10
1682.0
 20
2378.0
  9
$UNITMODE
 70
     0
  9
$VISRETAIN
 70
     1
  9
$PLINEGEN
 70
     0
  9
$PSLTSCALE
 70
     1
  9
$TREEDEPTH
 70
  3020
  9
$CMLSTYLE
  2
Standard
  9
$CMLJUST
 70
     0
  9
$CMLSCALE
 40
20.0
  9
$PROXYGRAPHICS
 70
     1
  9
$MEASUREMENT
 70
     1
  9
$CELWEIGHT
370
    -1
  9
$ENDCAPS
280
     0
  9
$JOINSTYLE
280
     0
  9
$LWDISPLAY
290
     0
  9
$INSUNITS
 70
     4
  9
$HYPERLINKBASE
  1

  9
$STYLESHEET
  1

  9
$XEDIT
290
     1
  9
$CEPSNTYPE
380
     0
  9
$PSTYLEMODE
290
     1
  9
$FINGERPRINTGUID
  2
{141B337C-736B-42F7-8415-67DBD9B1085F}
  9
$VERSIONGUID
  2
{FAEB1C32-E019-11D5-929B-00C0DF256EC4}
  9
$EXTNAMES
290
     1
  9
$PSVPSCALE
 40
0.0
  9
$OLESTARTUP
290
     0
  0
ENDSEC
  0
SECTION
  2
CLASSES
  0
CLASS
  1
ACDBDICTIONARYWDFLT
  2
AcDbDictionaryWithDefault
  3
ObjectDBX Classes
 90
        0
280
     0
281
     0
  0
CLASS
  1
VISUALSTYLE
  2
AcDbVisualStyle
  3
ObjectDBX Classes
 90
     4095
280
     0
281
     0
  0
CLASS
  1
SCALE
  2
AcDbScale
  3
ObjectDBX Classes
 90
     1153
280
     0
281
     0
  0
CLASS
  1
DICTIONARYVAR
  2
AcDbDictionaryVar
  3
ObjectDBX Classes
 90
        0
280
     0
281
     0
  0
CLASS
  1
ACDBPLACEHOLDER
  2
AcDbPlaceHolder
  3
ObjectDBX Classes
 90
        0
280
     0
281
     0
  0
CLASS
  1
LAYOUT
  2
AcDbLayout
  3
ObjectDBX Classes
 90
        0
280
     0
281
     0
  0
ENDSEC
  0
SECTION
  2
TABLES
  0
TABLE
  2
VPORT
  5
8
330
0
100
AcDbSymbolTable
 70
     1
  0
VPORT
  5
29
330
8
100
AcDbSymbolTableRecord
100
AcDbViewportTableRecord
  2
*Active
 70
     0
 10
0.0
 20
0.0
 11
1.0
 21
1.0
 12
344.1869158879
 22
148.5
 13
0.0
 23
0.0
 14
10.0
 24
10.0
 15
10.0
 25
10.0
 16
0.0
 26
0.0
 36
1.0
 17
0.0
 27
0.0
 37
0.0
 40
297.0
 41
1.9729729729
 42
50.0
 43
0.0
 44
0.0
 50
0.0
 51
0.0
 71
     0
 72
   100
 73
     1
 74
     3
 75
     0
 76
     0
 77
     0
 78
     0
281
     0
 65
     1
110
0.0
120
0.0
130
0.0
111
1.0
121
0.0
131
0.0
112
0.0
122
1.0
132
0.0
 79
     0
146
0.0
  0
ENDTAB
  0
TABLE
  2
LTYPE
  5
5
330
0
100
AcDbSymbolTable
 70
     2
  0
LTYPE
  5
14
330
5
100
AcDbSymbolTableRecord
100
AcDbLinetypeTableRecord
  2
ByBlock
 70
     0
  3

 72
    65
 73
     0
 40
0.0
  0
LTYPE
  5
15
330
5
100
AcDbSymbolTableRecord
100
AcDbLinetypeTableRecord
  2
ByLayer
 70
     0
  3

 72
    65
 73
     0
 40
0.0
  0
LTYPE
  5
16
330
5
100
AcDbSymbolTableRecord
100
AcDbLinetypeTableRecord
  2
Continuous
 70
     0
  3
Solid line
 72
    65
 73
     0
 40
0.0
  0
LTYPE
  5
60
330
5
100
AcDbSymbolTableRecord
100
AcDbLinetypeTableRecord
  2
CENTER2
 70
     0
  3
Center (.5x) ___ _ ___ _ ___ _ ___ _ ___ _ ___
 72
    65
 73
     4
 40
28.575
 49
19.05
 74
     4
 75
     0
340
0
 46
0.0
 50
0.0
 44
0.0
 45
0.0
 49
-3.175
 74
     4
 75
     0
340
0
 46
0.0
 50
0.0
 44
0.0
 45
0.0
 49
3.175
 74
     4
 75
     0
340
0
 46
0.0
 50
0.0
 44
0.0
 45
0.0
 49
-3.175
 74
     4
 75
     0
340
0
 46
0.0
 50
0.0
 44
0.0
 45
0.0
  0
ENDTAB
  0
TABLE
  2
LAYER
  5
2
330
0
100
AcDbSymbolTable
 70
     7
  0
LAYER
  5
10
330
2
100
AcDbSymbolTableRecord
100
AcDbLayerTableRecord
  2
0
 70
     0
 62
     7
  6
Continuous
370
    -3
390
F
  0
LAYER
  5
5D
330
2
100
AcDbSymbolTableRecord
100
AcDbLayerTableRecord
  2
Default
 70
     0
 62
     7
  6
Continuous
370
    -3
390
F
  0
LAYER
  5
6B
330
2
100
AcDbSymbolTableRecord
100
AcDbLayerTableRecord
  2
$DDT_AUDIT_GENERATED_(6B)
 70
     0
 62
     7
  6
Continuous
370
    -3
390
F
  0
LAYER
  5
85
330
2
100
AcDbSymbolTableRecord
100
AcDbLayerTableRecord
  2
$DDT_AUDIT_GENERATED_(85)
 70
     0
 62
     7
  6
Continuous
370
    -3
390
F
  0
LAYER
  5
93
330
2
100
AcDbSymbolTableRecord
100
AcDbLayerTableRecord
  2
$DDT_AUDIT_GENERATED_(93)
 70
     0
 62
     7
  6
Continuous
370
    -3
390
F
  0
LAYER
  5
595
330
2
100
AcDbSymbolTableRecord
100
AcDbLayerTableRecord
  2
$DDT_AUDIT_GENERATED_(595)
 70
     0
 62
     7
  6
Continuous
370
    -3
390
F
  0
LAYER
  5
5D3
330
2
100
AcDbSymbolTableRecord
100
AcDbLayerTableRecord
  2
DV2_Standard
 70
     0
 62
     7
  6
Continuous
370
    -3
390
F
  0
ENDTAB
  0
TABLE
  2
STYLE
  5
3
330
0
100
AcDbSymbolTable
 70
     2
  0
STYLE
  5
11
330
3
100
AcDbSymbolTableRecord
100
AcDbTextStyleTableRecord
  2
Standard
 70
     0
 40
0.0
 41
1.0
 50
0.0
 71
     0
 42
2.5
  3
txt
  4

  0
STYLE
  5
5E9
330
3
100
AcDbSymbolTableRecord
100
AcDbTextStyleTableRecord
  2
SEACAD_seiso_ttf
 70
     0
 40
0.0
 41
1.0
 50
0.0
 71
     0
 42
0.2
  3
seiso.ttf
  4

  0
ENDTAB
  0
TABLE
  2
VIEW
  5
6
330
0
100
AcDbSymbolTable
 70
     0
  0
ENDTAB
  0
TABLE
  2
UCS
  5
7
330
0
100
AcDbSymbolTable
 70
     0
  0
ENDTAB
  0
TABLE
  2
APPID
  5
9
330
0
100
AcDbSymbolTable
 70
     1
  0
APPID
  5
12
330
9
100
AcDbSymbolTableRecord
100
AcDbRegAppTableRecord
  2
ACAD
 70
     0
  0
ENDTAB
  0
TABLE
  2
DIMSTYLE
  5
A
330
0
100
AcDbSymbolTable
 70
     1
100
AcDbDimStyleTable
  0
DIMSTYLE
105
27
330
A
100
AcDbSymbolTableRecord
100
AcDbDimStyleTableRecord
  2
ISO-25
 70
     0
 41
2.5
 42
0.625
 43
3.75
 44
1.25
 73
     0
 74
     0
 77
     1
 78
     8
140
2.5
141
2.5
143
0.0393700787
147
0.625
171
     3
172
     1
271
     2
272
     2
274
     3
278
    44
283
     0
284
     8
340
11
  0
ENDTAB
  0
TABLE
  2
BLOCK_RECORD
  5
1
330
0
100
AcDbSymbolTable
 70
     6
  0
BLOCK_RECORD
  5
1F
330
1
100
AcDbSymbolTableRecord
100
AcDbBlockTableRecord
  2
*Model_Space
340
22
  0
BLOCK_RECORD
  5
1B
330
1
100
AcDbSymbolTableRecord
100
AcDbBlockTableRecord
  2
*Paper_Space
340
1E
  0
BLOCK_RECORD
  5
5E
330
1
100
AcDbSymbolTableRecord
100
AcDbBlockTableRecord
  2
SEANNOT_GROUP
340
0
102
{BLKREFS
331
5F
102
}
  0
BLOCK_RECORD
  5
64
330
1
100
AcDbSymbolTableRecord
100
AcDbBlockTableRecord
  2
SEANNOT_GROUP1
340
0
102
{BLKREFS
331
65
102
}
  0
BLOCK_RECORD
  5
69
330
1
100
AcDbSymbolTableRecord
100
AcDbBlockTableRecord
  2
SE
340
0
102
{BLKREFS
331
6A
102
}
  0
BLOCK_RECORD
  5
5AB
330
1
100
AcDbSymbolTableRecord
100
AcDbBlockTableRecord
  2
SE1
340
0
102
{BLKREFS
331
5AC
102
}
  0
BLOCK_RECORD
  5
5D7
330
1
100
AcDbSymbolTableRecord
100
AcDbBlockTableRecord
  2
SE2
340
0
102
{BLKREFS
331
5D8
102
}
  0
ENDTAB
  0
ENDSEC
  0
SECTION
  2
BLOCKS
  0
BLOCK
  5
20
330
1F
100
AcDbEntity
  8
0
100
AcDbBlockBegin
  2
*Model_Space
 70
     0
 10
0.0
 20
0.0
 30
0.0
  3
*Model_Space
  1

  0
ENDBLK
  5
21
330
1F
100
AcDbEntity
  8
0
100
AcDbBlockEnd
  0
BLOCK
  5
1C
330
1B
100
AcDbEntity
 67
     1
  8
0
100
AcDbBlockBegin
  2
*Paper_Space
 70
     0
 10
0.0
 20
0.0
 30
0.0
  3
*Paper_Space
  1

  0
ENDBLK
  5
1D
330
1B
100
AcDbEntity
 67
     1
  8
0
100
AcDbBlockEnd
  0
BLOCK
  5
62
330
5E
100
AcDbEntity
  8
0
100
AcDbBlockBegin
  2
SEANNOT_GROUP
 70
     0
 10
0.0
 20
0.0
 30
0.0
  3
SEANNOT_GROUP
  1

  0
LINE
  5
61
330
5E
100
AcDbEntity
  8
Default
  6
CENTER2
 62
     7
100
AcDbLine
 10
28.9896980459
 20
407.0631363096
 30
0.0
 11
28.990525173
 21
577.6360216373
 31
0.0
  0
ENDBLK
  5
63
330
5E
100
AcDbEntity
  8
0
100
AcDbBlockEnd
  0
BLOCK
  5
67
330
64
100
AcDbEntity
  8
0
100
AcDbBlockBegin
  2
SEANNOT_GROUP1
 70
     0
 10
0.0
 20
0.0
 30
0.0
  3
SEANNOT_GROUP1
  1

  0
LINE
  5
66
330
64
100
AcDbEntity
  8
Default
  6
CENTER2
 62
     7
100
AcDbLine
 10
28.9902432363
 20
299.563187976
 30
0.0
 11
28.9904889885
 21
102.8545953718
 31
0.0
  0
ENDBLK
  5
68
330
64
100
AcDbEntity
  8
0
100
AcDbBlockEnd
  0
BLOCK
  5
5A9
330
69
100
AcDbEntity
  8
0
100
AcDbBlockBegin
  2
SE
 70
     0
 10
0.0
 20
0.0
 30
0.0
  3
SE
  1

  0
SPLINE
  5
6C
330
69
100
AcDbEntity
  8
$DDT_AUDIT_GENERATED_(6B)
  6
Continuous
 62
     7
100
AcDbSpline
210
0.0
220
0.0
230
1.0
 70
     8
 71
     2
 72
    28
 73
    25
 74
     0
 42
0.0000000001412638
 43
0.0000000001
 40
0.1293768026093751
 40
0.1293768026093751
 40
0.1293768026093751
 40
0.1875
 40
0.1875
 40
0.25
 40
0.25
 40
0.3125
 40
0.3125
 40
0.375
 40
0.375
 40
0.4375
 40
0.4375
 40
0.5
 40
0.5
 40
0.5625
 40
0.5625
 40
0.625
 40
0.625
 40
0.6875
 40
0.6875
 40
0.75
 40
0.75
 40
0.8125
 40
0.8125
 40
0.8706259471823217
 40
0.8706259471823217
 40
0.8706259471823217
 10
49.30249310711227
 20
424.4695794951177
 30
0.0
 10
48.41906723927303
 20
422.323035130404
 30
0.0
 10
47.19459331204656
 20
420.4459488124274
 30
0.0
 10
45.92560971429027
 20
418.5006303404526
 30
0.0
 10
44.31837260892156
 20
416.8881363136803
 30
0.0
 10
42.76295014251085
 20
415.3276264002288
 30
0.0
 10
40.93238628079657
 20
414.1209488146548
 30
0.0
 10
39.15042433756918
 20
412.9463088142646
 30
0.0
 10
37.16407573392156
 20
412.1443863153509
 30
0.0
 10
35.2157512932295
 20
411.3578148135988
 30
0.0
 10
33.14088237454656
 20
410.9584488157685
 30
0.0
 10
31.08733415781684
 20
410.5631865776184
 30
0.0
 10
28.99024760892156
 20
410.5631363159078
 30
0.0
 10
26.894218926058
 20
410.5630860795515
 30
0.0
 10
24.83961284329656
 20
410.9584488157686
 30
0.0
 10
22.76573582115359
 20
411.3575198109007
 30
0.0
 10
20.81641948392155
 20
412.1443863153509
 30
0.0
 10
18.830970778635
 20
412.9458381129141
 30
0.0
 10
17.04810893704656
 20
414.1209488146548
 30
0.0
 10
15.21835341779092
 20
415.3269678353606
 30
0.0
 10
13.66212260892158
 20
416.8881363136803
 30
0.0
 10
12.05554612153498
 20
418.499810209238
 30
0.0
 10
10.78590190579658
 20
420.4459488124274
 30
0.0
 10
9.561814393272378
 20
422.3222570980677
 30
0.0
 10
8.677980716969895
 20
424.4696612696386
 30
0.0
  0
ARC
  5
6D
330
69
100
AcDbEntity
  8
$DDT_AUDIT_GENERATED_(6B)
  6
Continuous
 62
     7
100
AcDbCircle
 10
66.8975248305
 20
569.8989730443
 30
0.0
 40
60.54751723893567
100
AcDbArc
 50
176.620872741
 51
180.9715179582
  0
SPLINE
  5
6E
330
69
100
AcDbEntity
  8
$DDT_AUDIT_GENERATED_(6B)
  6
Continuous
 62
     7
100
AcDbSpline
210
0.0
220
0.0
230
1.0
 70
     8
 71
     3
 72
    34
 73
    30
 74
     0
 42
0.0000000002266407
 43
0.0000000001
 40
0.002498907477077
 40
0.002498907477077
 40
0.002498907477077
 40
0.002498907477077
 40
0.1250000000000001
 40
0.1250000000000001
 40
0.1875000000000001
 40
0.1875000000000001
 40
0.2500000000000001
 40
0.2500000000000001
 40
0.3125000000000001
 40
0.3125000000000001
 40
0.3750000000000002
 40
0.3750000000000002
 40
0.4375000000000002
 40
0.4375000000000002
 40
0.5000000000000002
 40
0.5000000000000002
 40
0.5625000000000002
 40
0.5625000000000002
 40
0.6250000000000002
 40
0.6250000000000002
 40
0.6875000000000003
 40
0.6875000000000003
 40
0.7500000000000003
 40
0.7500000000000003
 40
0.8125000000000002
 40
0.8125000000000002
 40
0.8750000000000001
 40
0.8750000000000001
 40
0.9981821153428301
 40
0.9981821153428301
 40
0.9981821153428301
 40
0.9981821153428301
 10
7.024523677347933
 20
574.1144055166461
 30
0.0
 10
7.041983082636694
 20
574.1171130115129
 30
0.0
 10
7.451987205366079
 20
574.1198327435669
 30
0.0
 10
8.829334307972974
 20
574.1236783558724
 30
0.0
 10
9.422743107519512
 20
574.1249352864646
 30
0.0
 10
10.90777871851575
 20
574.1273507709531
 30
0.0
 10
11.78229822922336
 20
574.1284774376101
 30
0.0
 10
13.7663305055798
 20
574.1305242231563
 30
0.0
 10
14.88714400150102
 20
574.1314564390433
 30
0.0
 10
17.36083377284783
 20
574.1330938241413
 30
0.0
 10
18.67656799852196
 20
574.133776976797
 30
0.0
 10
21.45697811169602
 20
574.1348873852161
 30
0.0
 10
22.9346751592349
 20
574.1353146157898
 30
0.0
 10
25.91178505371024
 20
574.135877038277
 30
0.0
 10
27.42415579057167
 20
574.136019790716
 30
0.0
 10
30.49737673118486
 20
574.1360234485858
 30
0.0
 10
32.0146346965283
 20
574.135883542697
 30
0.0
 10
34.98680886132524
 20
574.1353293772395
 30
0.0
 10
36.46310697358292
 20
574.1349071898585
 30
0.0
 10
39.25276648691267
 20
574.1338016267437
 30
0.0
 10
40.56716653305205
 20
574.133122590951
 30
0.0
 10
43.03005603283784
 20
574.1315040818373
 30
0.0
 10
44.17238850908559
 20
574.1305622239388
 30
0.0
 10
46.17335907252934
 20
574.1285079891671
 30
0.0
 10
47.0539246327038
 20
574.1273767773349
 30
0.0
 10
48.54237026855644
 20
574.1249647515458
 30
0.0
 10
49.13981543784605
 20
574.1237056445835
 30
0.0
 10
50.53360497686609
 20
574.1198270656729
 30
0.0
 10
50.94304417093046
 20
574.117085814056
 30
0.0
 10
50.95622600045208
 20
574.1143602798516
 30
0.0
  0
ARC
  5
6F
330
69
100
AcDbEntity
  8
$DDT_AUDIT_GENERATED_(6B)
  6
Continuous
 62
     7
100
AcDbCircle
 10
-8.9171738065
 20
569.8989663017
 30
0.0
 40
60.54766157861727
100
AcDbArc
 50
359.0284669756
 51
3.4084569474
  0
SPLINE
  5
70
330
69
100
AcDbEntity
  8
$DDT_AUDIT_GENERATED_(6B)
  6
Continuous
 62
     7
100
AcDbSpline
210
0.0
220
0.0
230
1.0
 70
     8
 71
     3
 72
     8
 73
     4
 74
     0
 42
0.0000000248545728
 43
0.0000000001
 40
0.8756891998449807
 40
0.8756891998449807
 40
0.8756891998449807
 40
0.8756891998449807
 40
0.8781746571288995
 40
0.8781746571288995
 40
0.8781746571288995
 40
0.8781746571288995
 10
6.457236279219964
 20
573.5008780241034
 30
0.0
 10
6.45722880108315
 20
573.5008675906498
 30
0.0
 10
6.457221463144914
 20
573.5008570807589
 30
0.0
 10
6.457214264974264
 20
573.5008464945172
 30
0.0
  0
SPLINE
  5
71
330
69
100
AcDbEntity
  8
$DDT_AUDIT_GENERATED_(6B)
  6
Continuous
 62
     7
100
AcDbSpline
210
0.0
220
0.0
230
1.0
 70
     8
 71
     3
 72
     8
 73
     4
 74
     0
 42
0.000000564469584
 43
0.0000000001
 40
0.0002787016833598
 40
0.0002787016833598
 40
0.0002787016833598
 40
0.0002787016833598
 40
0.1278066252822513
 40
0.1278066252822513
 40
0.1278066252822513
 40
0.1278066252822513
 10
51.52338462938171
 20
573.4987557054387
 30
0.0
 10
51.5236640962196
 20
573.4996713808808
 30
0.0
 10
51.52369471594994
 20
573.5003815677583
 30
0.0
 10
51.52338169298185
 20
573.5008829021447
 30
0.0
  0
SPLINE
  5
72
330
69
100
AcDbEntity
  8
$DDT_AUDIT_GENERATED_(6B)
  6
Continuous
 62
     7
100
AcDbSpline
210
0.0
220
0.0
230
1.0
 70
     8
 71
     3
 72
     8
 73
     4
 74
     0
 42
0.0000000282873534
 43
0.0000000001
 40
0.1419150685667737
 40
0.1419150685667737
 40
0.1419150685667737
 40
0.1419150685667737
 40
0.1447438039096348
 40
0.1447438039096348
 40
0.1447438039096348
 40
0.1447438039096348
 10
51.52326505764287
 20
573.5010416173359
 30
0.0
 10
51.52325640210601
 20
573.5010517116563
 30
0.0
 10
51.5232475723336
 20
573.5010617030359
 30
0.0
 10
51.52323856729112
 20
573.5010715914383
 30
0.0
  0
ARC
  5
73
330
69
100
AcDbEntity
  8
$DDT_AUDIT_GENERATED_(6B)
  6
Continuous
 62
     7
100
AcDbCircle
 10
7.0239329963
 20
573.614248578
 30
0.0
 40
0.4999912645495131
100
AcDbArc
 50
95.659061887
 51
131.9333010097
  0
ARC
  5
74
330
69
100
AcDbEntity
  8
$DDT_AUDIT_GENERATED_(6B)
  6
Continuous
 62
     7
100
AcDbCircle
 10
50.9565406461
 20
573.6142319925
 30
0.0
 40
0.5000076304942369
100
AcDbArc
 50
48.1396606308
 51
84.6486957097
  0
SPLINE
  5
75
330
69
100
AcDbEntity
  8
$DDT_AUDIT_GENERATED_(6B)
  6
Continuous
 62
     7
100
AcDbSpline
210
0.0
220
0.0
230
1.0
 70
     8
 71
     3
 72
    32
 73
    28
 74
     0
 42
0.0000000003737273
 43
0.0000000001
 40
0.0056852737531159
 40
0.0056852737531159
 40
0.0056852737531159
 40
0.0056852737531159
 40
0.0625
 40
0.0625
 40
0.125
 40
0.125
 40
0.1875
 40
0.1875
 40
0.25
 40
0.25
 40
0.3125
 40
0.3125
 40
0.375
 40
0.375
 40
0.5
 40
0.5
 40
0.625
 40
0.625
 40
0.75
 40
0.75
 40
0.8125
 40
0.8125
 40
0.875
 40
0.875
 40
0.9375
 40
0.9375
 40
0.9947822968574748
 40
0.9947822968574748
 40
0.9947822968574748
 40
0.9947822968574748
 10
40.80018825779239
 20
559.3303621451695
 30
0.0
 10
41.03321966699635
 20
559.5528482128133
 30
0.0
 10
41.17213792528119
 20
559.7246746585868
 30
0.0
 10
41.27446958391184
 20
560.0023084406478
 30
0.0
 10
41.21557071116857
 20
560.0988295377217
 30
0.0
 10
40.88578314278221
 20
560.24186595537
 30
0.0
 10
40.61077572816375
 20
560.2910559563527
 30
0.0
 10
39.86907204447331
 20
560.3811421690203
 30
0.0
 10
39.40040386931431
 20
560.4226873396888
 30
0.0
 10
38.2676258164776
 20
560.5106290824926
 30
0.0
 10
37.62206599499277
 20
560.5551724696218
 30
0.0
 10
36.1754775186251
 20
560.6386542919621
 30
0.0
 10
35.36659910806099
 20
560.676324990242
 30
0.0
 10
32.82411269923789
 20
560.763700448126
 30
0.0
 10
30.90961134299347
 20
560.7943687198223
 30
0.0
 10
27.07996531794819
 20
560.7948010931763
 30
0.0
 10
25.15948362492468
 20
560.7645538759575
 30
0.0
 10
21.75282288160093
 20
560.6475854696517
 30
0.0
 10
20.26383678441357
 20
560.554204405078
 30
0.0
 10
18.58448639616461
 20
560.423521464065
 30
0.0
 10
18.10712342467177
 20
560.3811576165591
 30
0.0
 10
17.36616068053532
 20
560.2907876240222
 30
0.0
 10
17.09638120179478
 20
560.2427859485744
 30
0.0
 10
16.76349058189523
 20
560.098391961245
 30
0.0
 10
16.70671935223738
 20
560.003183796655
 30
0.0
 10
16.80654131518995
 20
559.7273026283825
 30
0.0
 10
16.94908825409398
 20
559.5507654193725
 30
0.0
 10
17.18600247030157
 20
559.324965262434
 30
0.0
  0
ARC
  5
76
330
69
100
AcDbEntity
  8
$DDT_AUDIT_GENERATED_(6B)
  6
Continuous
 62
     7
100
AcDbCircle
 10
28.9947562165
 20
490.0197731788
 30
0.0
 40
4.800020482976633
100
AcDbArc
 50
179.8349497428
 51
204.5614325133
  0
ARC
  5
77
330
69
100
AcDbEntity
  8
$DDT_AUDIT_GENERATED_(6B)
  6
Continuous
 62
     7
100
AcDbCircle
 10
28.9947562165
 20
490.0197731788
 30
0.0
 40
4.800020482976633
100
AcDbArc
 50
332.6291434137
 51
0.1696847612
  0
LINE
  5
78
330
69
100
AcDbEntity
  8
$DDT_AUDIT_GENERATED_(6B)
  6
Continuous
 62
     7
100
AcDbLine
 10
33.7947556495
 20
489.6362908629
 30
0.0
 11
33.7947556495
 21
498.0004669166
 31
0.0
  0
ARC
  5
79
330
69
100
AcDbEntity
  8
$DDT_AUDIT_GENERATED_(6B)
  6
Continuous
 62
     7
100
AcDbCircle
 10
28.9947548529
 20
489.6396471103
 30
0.0
 40
4.800001969976358
100
AcDbArc
 50
180.061516049
 51
359.9599377607
  0
LINE
  5
7A
330
69
100
AcDbEntity
  8
$DDT_AUDIT_GENERATED_(6B)
  6
Continuous
 62
     7
100
AcDbLine
 10
24.1947556495
 20
497.9984588276
 30
0.0
 11
24.1947556495
 21
489.6344935527
 31
0.0
  0
ARC
  5
7B
330
69
100
AcDbEntity
  8
$DDT_AUDIT_GENERATED_(6B)
  6
Continuous
 62
     7
100
AcDbCircle
 10
28.9947840344
 20
497.8637641128
 30
0.0
 40
4.801917862916151
100
AcDbArc
 50
1.6313382047
 51
178.3926315921
  0
SPLINE
  5
7C
330
69
100
AcDbEntity
  8
$DDT_AUDIT_GENERATED_(6B)
  6
Continuous
 62
     7
100
AcDbSpline
210
0.0
220
0.0
230
1.0
 70
     8
 71
     3
 72
    92
 73
    88
 74
     0
 42
0.000000000074671
 43
0.0000000001
 40
0.0
 40
0.0
 40
0.0
 40
0.0
 40
0.020461159243356
 40
0.0400641154461216
 40
0.0588078511980493
 40
0.0766913930047523
 40
0.0937138113052861
 40
0.1095932057672466
 40
0.1246403044229729
 40
0.1388543504667351
 40
0.1522346280293072
 40
0.1670754836245071
 40
0.1807326770293223
 40
0.1932052275315794
 40
0.2044922367562809
 40
0.2145928887005796
 40
0.2235064497763963
 40
0.2302013217705405
 40
0.2360467222183924
 40
0.2418001016518324
 40
0.2478255770373704
 40
0.254123281724166
 40
0.2606933559136406
 40
0.2675359466688756
 40
0.280788998058261
 40
0.2949595384289319
 40
0.3100486541560875
 40
0.325595104059772
 40
0.3420114709972505
 40
0.3592789291001132
 40
0.3764784135382293
 40
0.3931098690468782
 40
0.4140291774769655
 40
0.4339720352655465
 40
0.4529371646667091
 40
0.4690431061558814
 40
0.4843677812856841
 40
0.4990159505837656
 40
0.5133422978594332
 40
0.527375513616885
 40
0.5411154493544373
 40
0.5518728183820644
 40
0.5624465767621553
 40
0.5734272401291381
 40
0.5852482558414883
 40
0.5979107403017941
 40
0.6114158944988825
 40
0.6226190802385886
 40
0.6343439378804216
 40
0.6465911600276163
 40
0.659361471604177
 40
0.67265562987115
 40
0.6862750812753802
 40
0.7017217221818288
 40
0.7160117110318006
 40
0.7291439833366866
 40
0.7411175011737757
 40
0.7519312597182738
 40
0.7596135513758884
 40
0.7665788342768696
 40
0.7728925717061492
 40
0.7797105372660145
 40
0.7874562474973416
 40
0.7953038467647722
 40
0.8039200745007923
 40
0.8133059316604174
 40
0.8234624838924197
 40
0.8343908624235008
 40
0.8459622921556921
 40
0.8573881604939735
 40
0.872642237445991
 40
0.8873683639005485
 40
0.9015698209661335
 40
0.9152536238734665
 40
0.9240943965062742
 40
0.9325767505073373
 40
0.9404038619241522
 40
0.9476194331412975
 40
0.9542900295037925
 40
0.9604932913258419
 40
0.9644539719411238
 40
0.9685742513103964
 40
0.9733955257236282
 40
0.9789409182645482
 40
0.9852195819042645
 40
0.9922378132659557
 40
1.0
 40
1.0
 40
1.0
 40
1.0
 10
6.352009248493412
 20
569.7835927691244
 30
0.0
 10
6.353219689011757
 20
568.7774297272966
 30
0.0
 10
6.35521495675901
 20
567.1185522597247
 30
0.0
 10
6.358427624363762
 20
564.4387259679306
 30
0.0
 10
6.361418031192535
 20
561.9377402484104
 30
0.0
 10
6.364281992796275
 20
559.5361790329396
 30
0.0
 10
6.366981551119637
 20
557.2666327131641
 30
0.0
 10
6.369525138367623
 20
555.1229008716326
 30
0.0
 10
6.371913775665878
 20
553.1049513218065
 30
0.0
 10
6.374165049826332
 20
551.1986615442894
 30
0.0
 10
6.376400463148649
 20
549.301603194163
 30
0.0
 10
6.378601462400733
 20
547.4294323907426
 30
0.0
 10
6.380749635614372
 20
545.5978406211265
 30
0.0
 10
6.382707113236033
 20
543.9251226615708
 30
0.0
 10
6.384474881626128
 20
542.4114005602612
 30
0.0
 10
6.38605386031138
 20
541.0567847944341
 30
0.0
 10
6.387391263598572
 20
539.9074631597493
 30
0.0
 10
6.388505721961764
 20
538.948375510469
 30
0.0
 10
6.389454921884967
 20
538.1305672047225
 30
0.0
 10
6.390368401602217
 20
537.3426895404732
 30
0.0
 10
6.391304288121645
 20
536.5345965727427
 30
0.0
 10
6.392281315004605
 20
535.6899984695132
 30
0.0
 10
6.393299341797692
 20
534.8088762208091
 30
0.0
 10
6.394674820613087
 20
533.6168303719381
 30
0.0
 10
6.396438875605585
 20
532.0850259193321
 30
0.0
 10
6.398621473095536
 20
530.1845850111334
 30
0.0
 10
6.40091492068573
 20
528.1816291136159
 30
0.0
 10
6.403315556621394
 20
526.078282881595
 30
0.0
 10
6.405818630595611
 20
523.8775614438118
 30
0.0
 10
6.4083959968163
 20
521.6029446322585
 30
0.0
 10
6.41097392699061
 20
519.3187145290742
 30
0.0
 10
6.413724892589491
 20
516.8712419176092
 30
0.0
 10
6.416600243114794
 20
514.3011404134302
 30
0.0
 10
6.419576457277872
 20
511.6267290993763
 30
0.0
 10
6.422298800096655
 20
509.1674988684204
 30
0.0
 10
6.42478024332166
 20
506.9147248197984
 30
0.0
 10
6.427038640898504
 20
504.854941071391
 30
0.0
 10
6.429199885981528
 20
502.8747253759149
 30
0.0
 10
6.43128849403108
 20
500.9522582337678
 30
0.0
 10
6.433323460230976
 20
499.0704092527135
 30
0.0
 10
6.43517707901952
 20
497.3481131670745
 30
0.0
 10
6.436856938332562
 20
495.7804697231917
 30
0.0
 10
6.438398589817401
 20
494.3361791525915
 30
0.0
 10
6.439984511329828
 20
492.8443558073825
 30
0.0
 10
6.441662191263839
 20
491.2591740481004
 30
0.0
 10
6.443450404982897
 20
489.5611552309231
 30
0.0
 10
6.44519986904904
 20
487.8907525407257
 30
0.0
 10
6.446896214999296
 20
486.2622586289865
 30
0.0
 10
6.448525477735292
 20
484.6899896803309
 30
0.0
 10
6.45021773684492
 20
483.0476699576548
 30
0.0
 10
6.451971501832944
 20
481.3352006312059
 30
0.0
 10
6.453776050974941
 20
479.5613907605296
 30
0.0
 10
6.455688643662285
 20
477.6679414723528
 30
0.0
 10
6.457629929309448
 20
475.7300592393548
 30
0.0
 10
6.459531750610481
 20
473.8140483765653
 30
0.0
 10
6.461263407350537
 20
472.0533807993841
 30
0.0
 10
6.4628278304278
 20
470.4482053477226
 30
0.0
 10
6.464142973372208
 20
469.0867230549814
 30
0.0
 10
6.465233303441807
 20
467.949184166405
 30
0.0
 10
6.466125133229888
 20
467.0128127346424
 30
0.0
 10
6.466974765889367
 20
466.11530785188
 30
0.0
 10
6.467853290202664
 20
465.1828379296576
 30
0.0
 10
6.468790742240209
 20
464.1817272668468
 30
0.0
 10
6.46979625864643
 20
463.1001970836921
 30
0.0
 10
6.47086133392065
 20
461.9453146534471
 30
0.0
 10
6.472010866749985
 20
460.6872022828776
 30
0.0
 10
6.473241620818055
 20
459.3257196454099
 30
0.0
 10
6.474545393275501
 20
457.8665066421327
 30
0.0
 10
6.475880292719852
 20
456.3505674866074
 30
0.0
 10
6.47737874461883
 20
454.6399109536869
 30
0.0
 10
6.479033126675186
 20
452.7880811986763
 30
0.0
 10
6.480976914345793
 20
450.8147742149533
 30
0.0
 10
6.483240976314621
 20
448.9175766020704
 30
0.0
 10
6.485785829968068
 20
447.2903650404468
 30
0.0
 10
6.488639947049054
 20
445.926436764112
 30
0.0
 10
6.491508235686401
 20
444.8243656417769
 30
0.0
 10
6.493800584353469
 20
443.7785941888479
 30
0.0
 10
6.495349426385723
 20
442.8073958801066
 30
0.0
 10
6.495998018036089
 20
441.9088642231716
 30
0.0
 10
6.495828053442135
 20
441.1626802021839
 30
0.0
 10
6.495111621520583
 20
440.546535871635
 30
0.0
 10
6.49439061380995
 20
439.9970560711881
 30
0.0
 10
6.494098943483108
 20
439.3646383920513
 30
0.0
 10
6.493981256931986
 20
438.6325196543818
 30
0.0
 10
6.494075318237404
 20
437.8034578981838
 30
0.0
 10
6.494344257823345
 20
436.8514256694899
 30
0.0
 10
6.494598045799258
 20
436.2428785617402
 30
0.0
 10
6.494761836883773
 20
435.8629505713973
 30
0.0
  0
SPLINE
  5
7D
330
69
100
AcDbEntity
  8
$DDT_AUDIT_GENERATED_(6B)
  6
Continuous
 62
     7
100
AcDbSpline
210
0.0
220
0.0
230
1.0
 70
     8
 71
     3
 72
    88
 73
    84
 74
     0
 42
0.000000000074671
 43
0.0000000001
 40
0.0
 40
0.0
 40
0.0
 40
0.0
 40
0.0088949780221067
 40
0.0167991590428984
 40
0.0237199095310456
 40
0.0296684440657067
 40
0.0346623191887722
 40
0.039210961759896
 40
0.0439820210962332
 40
0.0509871260835294
 40
0.0585981749422029
 40
0.0668986306524426
 40
0.0759454747200208
 40
0.0895390538158147
 40
0.1036622977851308
 40
0.1183253775267892
 40
0.1335341378034393
 40
0.1492905954163257
 40
0.1608758901825585
 40
0.1721228946330801
 40
0.182597585113162
 40
0.1923011200792775
 40
0.2012345921365399
 40
0.2093990287862474
 40
0.2167953935588779
 40
0.2229014358613891
 40
0.2283634928586108
 40
0.2336459208597031
 40
0.2394209991678144
 40
0.2456940409046409
 40
0.2524647943158459
 40
0.26376551987219
 40
0.2762255905431675
 40
0.2898439866071832
 40
0.3046196583466957
 40
0.3205515314752854
 40
0.3364699423216604
 40
0.3516616713506996
 40
0.3661266661430881
 40
0.3798661160954937
 40
0.3952781576365731
 40
0.409665313251774
 40
0.4230292442278568
 40
0.4353714868792216
 40
0.4470347955512767
 40
0.4588832476691645
 40
0.4738868504688163
 40
0.4892394654308359
 40
0.5049409000801217
 40
0.5211132312986815
 40
0.5381798670836674
 40
0.5561758233100205
 40
0.5750999836314813
 40
0.5906193773165435
 40
0.6067105008868332
 40
0.6233727585728885
 40
0.6406055387382283
 40
0.6579140091320431
 40
0.6743691735257116
 40
0.6899506076549274
 40
0.70462831550733
 40
0.7184383134491339
 40
0.7313816018447885
 40
0.7434591116425329
 40
0.7546717044717871
 40
0.7605858664030551
 40
0.7662523836630634
 40
0.7724314537379505
 40
0.7794833731400979
 40
0.7874077618725489
 40
0.7962041953911935
 40
0.8058722046421911
 40
0.8182524360669398
 40
0.8318173861326996
 40
0.846566080529421
 40
0.8624974626379441
 40
0.8796103935605663
 40
0.8979036521516802
 40
0.9162314954929216
 40
0.935606308686784
 40
0.9560268674400315
 40
0.9774918825634229
 40
1.0
 40
1.0
 40
1.0
 40
1.0
 10
51.485733380908
 20
435.8629505713953
 30
0.0
 10
51.48592072447868
 20
436.2983065452358
 30
0.0
 10
51.48620424095517
 20
436.9896935714038
 30
0.0
 10
51.48647841882223
 20
438.0614125779546
 30
0.0
 10
51.48649439130013
 20
438.9733917462561
 30
0.0
 10
51.48627309625145
 20
439.7575611455752
 30
0.0
 10
51.48560653695662
 20
440.4230207882725
 30
0.0
 10
51.48476379392649
 20
441.0357166743864
 30
0.0
 10
51.48449750425624
 20
441.7568204798769
 30
0.0
 10
51.48492105677122
 20
442.6228824360884
 30
0.0
 10
51.48643305152711
 20
443.6487040418708
 30
0.0
 10
51.48881871786369
 20
444.7593491385758
 30
0.0
 10
51.49235971365167
 20
446.1152512829939
 30
0.0
 10
51.49551439831752
 20
447.7350022748868
 30
0.0
 10
51.49815496839703
 20
449.6167406423556
 30
0.0
 10
51.50030659574266
 20
451.5783103803942
 30
0.0
 10
51.50221623802776
 20
453.6177147573982
 30
0.0
 10
51.50388841853934
 20
455.5210849203553
 30
0.0
 10
51.50540113316431
 20
457.2459935388281
 30
0.0
 10
51.5067230677371
 20
458.7341662659115
 30
0.0
 10
51.50798652846984
 20
460.1383499079898
 30
0.0
 10
51.50916994717512
 20
461.4390613563105
 30
0.0
 10
51.51027020419501
 20
462.6364937584699
 30
0.0
 10
51.51128434480626
 20
463.7307754786294
 30
0.0
 10
51.51218797245023
 20
464.6986644573129
 30
0.0
 10
51.51298355840739
 20
465.5457639885342
 30
0.0
 10
51.51369357756018
 20
466.2983284715298
 30
0.0
 10
51.51439245704488
 20
467.0360961704184
 30
0.0
 10
51.51512955406906
 20
467.8102618458887
 30
0.0
 10
51.5159342434285
 20
468.6510068865254
 30
0.0
 10
51.51698111900031
 20
469.738733009105
 30
0.0
 10
51.51830389176492
 20
471.103045926371
 30
0.0
 10
51.51993815179532
 20
472.7735087856102
 30
0.0
 10
51.52174088531251
 20
474.5994014382046
 30
0.0
 10
51.52371498021616
 20
476.5805721342331
 30
0.0
 10
51.52581080056071
 20
478.6646502775936
 30
0.0
 10
51.52794389428279
 20
480.7673644315145
 30
0.0
 10
51.53002706241094
 20
482.8044909899667
 30
0.0
 10
51.53202518330679
 20
484.7442190476509
 30
0.0
 10
51.53404682079962
 20
486.6937893600822
 30
0.0
 10
51.5360781609577
 20
488.6398775323922
 30
0.0
 10
51.53810492741321
 20
490.5691798675395
 30
0.0
 10
51.53999832803852
 20
492.3612707025414
 30
0.0
 10
51.5417720794101
 20
494.0316153544464
 30
0.0
 10
51.54348169269173
 20
495.6342307793829
 30
0.0
 10
51.54532616676595
 20
497.3558261970302
 30
0.0
 10
51.54735699112196
 20
499.2423513305775
 30
0.0
 10
51.54958472114039
 20
501.3011278782527
 30
0.0
 10
51.55188062244511
 20
503.4121703162688
 30
0.0
 10
51.5542717979731
 20
505.5998537914406
 30
0.0
 10
51.55678766837618
 20
507.8901254403464
 30
0.0
 10
51.55945216003413
 20
510.3034251585349
 30
0.0
 10
51.5620535911149
 20
512.6475742394396
 30
0.0
 10
51.56457204886291
 20
514.9065827892225
 30
0.0
 10
51.56698758780675
 20
517.0644858103733
 30
0.0
 10
51.56949907312404
 20
519.2989862375844
 30
0.0
 10
51.57208222078444
 20
521.5879092939109
 30
0.0
 10
51.57466525540829
 20
523.8675765338836
 30
0.0
 10
51.57717413094138
 20
526.073424048847
 30
0.0
 10
51.57955752724179
 20
528.1616722772134
 30
0.0
 10
51.58181315027284
 20
530.1316787988635
 30
0.0
 10
51.58393995264053
 20
531.9837590922447
 30
0.0
 10
51.58593862688926
 20
533.719610961282
 30
0.0
 10
51.58780818903086
 20
535.3393605722978
 30
0.0
 10
51.58931844217899
 20
536.644895348199
 30
0.0
 10
51.59049907033798
 20
537.6638435490628
 30
0.0
 10
51.59141997401981
 20
538.4577785723974
 30
0.0
 10
51.59240095152487
 20
539.30258195634
 30
0.0
 10
51.59350046865747
 20
540.2483262764316
 30
0.0
 10
51.59473769561497
 20
541.3110820369977
 30
0.0
 10
51.59611312799557
 20
542.4907916656807
 30
0.0
 10
51.59772342548065
 20
543.8697005956182
 30
0.0
 10
51.59958623475313
 20
545.4617860204604
 30
0.0
 10
51.60171951408285
 20
547.2810033700965
 30
0.0
 10
51.6040444476446
 20
549.258968741196
 30
0.0
 10
51.60656215357323
 20
551.3955591704816
 30
0.0
 10
51.60927366879116
 20
553.690536042025
 30
0.0
 10
51.61211996085839
 20
556.0929160088605
 30
0.0
 10
51.61509306557627
 20
558.5953308306604
 30
0.0
 10
51.61819293385815
 20
561.1971141630765
 30
0.0
 10
51.62144871623649
 20
563.9218802936922
 30
0.0
 10
51.6249649668876
 20
566.8561620882596
 30
0.0
 10
51.62715456803128
 20
568.676767820909
 30
0.0
 10
51.62848601134245
 20
569.7835859295288
 30
0.0
  0
ARC
  5
7E
330
69
100
AcDbEntity
  8
$DDT_AUDIT_GENERATED_(6B)
  6
Continuous
 62
     7
100
AcDbCircle
 10
23.7022113983
 20
435.292120001
 30
0.0
 40
27.79390249793772
100
AcDbArc
 50
337.0833695604
 51
1.1772051926
  0
ARC
  5
7F
330
69
100
AcDbEntity
  8
$DDT_AUDIT_GENERATED_(6B)
  6
Continuous
 62
     7
100
AcDbCircle
 10
34.3175254055
 20
435.2996556877
 30
0.0
 40
27.83298223291732
100
AcDbArc
 50
178.839963793
 51
202.8994210716
  0
LINE
  5
80
330
69
100
AcDbEntity
  8
$DDT_AUDIT_GENERATED_(6B)
  6
Continuous
 62
     7
100
AcDbLine
 10
6.455124927
 20
573.4689793903
 30
0.0
 11
6.4551168739
 21
573.4678323348
 31
0.0
  0
ARC
  5
81
330
69
100
AcDbEntity
  8
$DDT_AUDIT_GENERATED_(6B)
  6
Continuous
 62
     7
100
AcDbCircle
 10
7.1171566787
 20
573.4780140434
 30
0.0
 40
0.6600132743492071
100
AcDbArc
 50
130.0379841613
 51
175.4776521322
  0
LINE
  5
82
330
69
100
AcDbEntity
  8
$DDT_AUDIT_GENERATED_(6B)
  6
Continuous
 62
     7
100
AcDbLine
 10
6.9834138067
 20
574.1128160057
 30
0.0
 11
6.974549862
 21
574.1121595027
 31
0.0
  0
ARC
  5
83
330
69
100
AcDbEntity
  8
$DDT_AUDIT_GENERATED_(6B)
  6
Continuous
 62
     7
100
AcDbCircle
 10
50.9925798794
 20
574.0028368762
 30
0.0
 40
0.1102541360938114
100
AcDbArc
 50
84.4270876869
 51
87.6123872252
  0
ARC
  5
84
330
69
100
AcDbEntity
  8
$DDT_AUDIT_GENERATED_(6B)
  6
Continuous
 62
     7
100
AcDbCircle
 10
50.855352856
 20
573.4839346506
 30
0.0
 40
0.664283925050408
100
AcDbArc
 50
4.9537317294
 51
49.1285052411
  0
ARC
  5
86
330
69
100
AcDbEntity
  8
$DDT_AUDIT_GENERATED_(85)
  6
Continuous
 62
     7
100
AcDbCircle
 10
28.9902476089
 20
490.0029828972
 30
0.0
 40
4.675705365875292
100
AcDbArc
 50
179.9602591775
 51
185.4000104311
  0
ARC
  5
87
330
69
100
AcDbEntity
  8
$DDT_AUDIT_GENERATED_(85)
  6
Continuous
 62
     7
100
AcDbCircle
 10
28.9902476089
 20
490.0029828972
 30
0.0
 40
4.675705365875292
100
AcDbArc
 50
354.6016300723
 51
0.0397408225
  0
ARC
  5
88
330
69
100
AcDbEntity
  8
$DDT_AUDIT_GENERATED_(85)
  6
Continuous
 62
     7
100
AcDbCircle
 10
29.0170324492
 20
489.6874613833
 30
0.0
 40
4.668579662440388
100
AcDbArc
 50
184.3576092408
 51
210.2619960537
  0
LINE
  5
89
330
69
100
AcDbEntity
  8
$DDT_AUDIT_GENERATED_(85)
  6
Continuous
 62
     7
100
AcDbLine
 10
33.6319489249
 20
498.0209374132
 30
0.0
 11
33.6319489273
 21
489.6579146153
 31
0.0
  0
LINE
  5
8A
330
69
100
AcDbEntity
  8
$DDT_AUDIT_GENERATED_(85)
  6
Continuous
 62
     7
100
AcDbLine
 10
24.348546286
 20
489.6579146622
 30
0.0
 11
24.3485462863
 21
498.0209374813
 31
0.0
  0
ARC
  5
8B
330
69
100
AcDbEntity
  8
$DDT_AUDIT_GENERATED_(85)
  6
Continuous
 62
     7
100
AcDbCircle
 10
28.964899091
 20
489.6860242067
 30
0.0
 40
4.667134487450795
100
AcDbArc
 50
324.3061298257
 51
355.6603901992
  0
LINE
  5
8C
330
69
100
AcDbEntity
  8
$DDT_AUDIT_GENERATED_(85)
  6
Continuous
 62
     7
100
AcDbLine
 10
24.3145433678
 20
498.369248827
 30
0.0
 11
24.3145433678
 21
490.0062260046
 31
0.0
  0
ARC
  5
8D
330
69
100
AcDbEntity
  8
$DDT_AUDIT_GENERATED_(85)
  6
Continuous
 62
     7
100
AcDbCircle
 10
28.9902476089
 20
498.2130570624
 30
0.0
 40
4.678312304460903
100
AcDbArc
 50
1.9132524041
 51
18.7405716118
  0
ARC
  5
8E
330
69
100
AcDbEntity
  8
$DDT_AUDIT_GENERATED_(85)
  6
Continuous
 62
     7
100
AcDbCircle
 10
28.9902476089
 20
498.2130570624
 30
0.0
 40
4.678312304460903
100
AcDbArc
 50
162.9899322129
 51
178.0867475959
  0
LINE
  5
8F
330
69
100
AcDbEntity
  8
$DDT_AUDIT_GENERATED_(85)
  6
Continuous
 62
     7
100
AcDbLine
 10
33.6659518501
 20
490.0062260046
 30
0.0
 11
33.6659518501
 21
498.369248827
 31
0.0
  0
LINE
  5
90
330
69
100
AcDbEntity
  8
$DDT_AUDIT_GENERATED_(85)
  6
Continuous
 62
     7
100
AcDbLine
 10
24.3363186059
 20
489.5627593425
 30
0.0
 11
24.3700830325
 21
489.2184900924
 31
0.0
  0
LINE
  5
91
330
69
100
AcDbEntity
  8
$DDT_AUDIT_GENERATED_(85)
  6
Continuous
 62
     7
100
AcDbLine
 10
33.6104113491
 20
489.2184815656
 30
0.0
 11
33.644227073
 21
489.5632738545
 31
0.0
  0
ARC
  5
92
330
69
100
AcDbEntity
  8
$DDT_AUDIT_GENERATED_(85)
  6
Continuous
 62
     7
100
AcDbCircle
 10
28.9909774872
 20
489.6287666786
 30
0.0
 40
4.610375457104706
100
AcDbArc
 50
209.8344908918
 51
324.6663988152
  0
ELLIPSE
  5
94
330
69
100
AcDbEntity
  8
$DDT_AUDIT_GENERATED_(93)
  6
Continuous
 62
     7
100
AcDbEllipse
 10
28.9902456529
 20
553.2133802662
 30
0.0
 11
7.999999999013213
 21
7.568251580991614E-11
 31
0.0
210
0.0
220
0.0
230
1.0
 40
0.2588190451
 41
-1.471202080347244
 42
-1.37956594850997
  0
ELLIPSE
  5
95
330
69
100
AcDbEntity
  8
$DDT_AUDIT_GENERATED_(93)
  6
Continuous
 62
     7
100
AcDbEllipse
 10
28.9902456526
 20
552.7304173535
 30
0.0
 11
-8.0
 21
0.0
 31
0.0
210
0.0
220
0.0
230
1.0
 40
0.2588190451
 41
0.0
 42
6.283185307179586
  0
ELLIPSE
  5
96
330
69
100
AcDbEntity
  8
$DDT_AUDIT_GENERATED_(93)
  6
Continuous
 62
     7
100
AcDbEllipse
 10
28.9902456526
 20
552.7304173535
 30
0.0
 11
8.25
 21
0.0
 31
0.0
210
0.0
220
0.0
230
1.0
 40
0.2588190451
 41
0.0
 42
6.283185307179586
  0
ELLIPSE
  5
97
330
69
100
AcDbEntity
  8
$DDT_AUDIT_GENERATED_(93)
  6
Continuous
 62
     7
100
AcDbEllipse
 10
28.9902456526
 20
552.7304173535
 30
0.0
 11
-8.749999999999998
 21
0.0
 31
0.0
210
0.0
220
0.0
230
1.0
 40
0.2588190451
 41
0.0
 42
6.283185307179586
  0
ELLIPSE
  5
98
330
69
100
AcDbEntity
  8
$DDT_AUDIT_GENERATED_(93)
  6
Continuous
 62
     7
100
AcDbEllipse
 10
28.9902456526
 20
553.2133802667
 30
0.0
 11
-8.749999999999998
 21
0.0
 31
0.0
210
0.0
220
0.0
230
1.0
 40
0.2588190451
 41
0.1068331271930954
 42
0.3756997093905838
  0
ELLIPSE
  5
99
330
69
100
AcDbEntity
  8
$DDT_AUDIT_GENERATED_(93)
  6
Continuous
 62
     7
100
AcDbEllipse
 10
28.9902456526
 20
553.2133802667
 30
0.0
 11
-8.749999999999998
 21
0.0
 31
0.0
210
0.0
220
0.0
230
1.0
 40
0.2588190451
 41
-3.517292362980377
 42
-3.248425780782891
  0
ELLIPSE
  5
9A
330
69
100
AcDbEntity
  8
$DDT_AUDIT_GENERATED_(93)
  6
Continuous
 62
     7
100
AcDbEllipse
 10
28.9902456526
 20
553.2133802667
 30
0.0
 11
8.25
 21
0.0
 31
0.0
210
0.0
220
0.0
230
1.0
 40
0.2588190451
 41
0.0
 42
0.1637066565127502
  0
ELLIPSE
  5
9B
330
69
100
AcDbEntity
  8
$DDT_AUDIT_GENERATED_(93)
  6
Continuous
 62
     7
100
AcDbEllipse
 10
28.9902456526
 20
553.2133802667
 30
0.0
 11
8.25
 21
0.0
 31
0.0
210
0.0
220
0.0
230
1.0
 40
0.2588190451
 41
2.977885997077043
 42
3.141592653589793
  0
ELLIPSE
  5
9C
330
69
100
AcDbEntity
  8
$DDT_AUDIT_GENERATED_(93)
  6
Continuous
 62
     7
100
AcDbEllipse
 10
28.9902456526
 20
552.9236025188
 30
0.0
 11
9.250000000000005
 21
0.0
 31
0.0
210
0.0
220
0.0
230
1.0
 40
0.2588190451
 41
3.141592653589793
 42
3.145880950481645
  0
LINE
  5
9D
330
69
100
AcDbEntity
  8
$DDT_AUDIT_GENERATED_(93)
  6
Continuous
 62
     7
100
AcDbLine
 10
29.5232583545
 20
552.6259606169
 30
0.0
 11
29.5232583545
 21
552.3671415718
 31
0.0
  0
LINE
  5
9E
330
69
100
AcDbEntity
  8
$DDT_AUDIT_GENERATED_(93)
  6
Continuous
 62
     7
100
AcDbLine
 10
29.9562710564
 20
552.5612558556
 30
0.0
 11
29.5232583545
 21
552.6259606169
 31
0.0
  0
LINE
  5
9F
330
69
100
AcDbEntity
  8
$DDT_AUDIT_GENERATED_(93)
  6
Continuous
 62
     7
100
AcDbLine
 10
29.5232583545
 20
552.6259606169
 30
0.0
 11
29.0902456526
 21
552.5612558556
 31
0.0
  0
LINE
  5
A0
330
69
100
AcDbEntity
  8
$DDT_AUDIT_GENERATED_(93)
  6
Continuous
 62
     7
100
AcDbLine
 10
29.0902456526
 20
552.5612558556
 30
0.0
 11
29.0902456526
 21
552.4318463331
 31
0.0
  0
LINE
  5
A1
330
69
100
AcDbEntity
  8
$DDT_AUDIT_GENERATED_(93)
  6
Continuous
 62
     7
100
AcDbLine
 10
29.0902456526
 20
552.4318463331
 30
0.0
 11
29.5232583545
 21
552.3671415718
 31
0.0
  0
LINE
  5
A2
330
69
100
AcDbEntity
  8
$DDT_AUDIT_GENERATED_(93)
  6
Continuous
 62
     7
100
AcDbLine
 10
29.5232583545
 20
552.3671415718
 30
0.0
 11
29.9562710564
 21
552.4318463331
 31
0.0
  0
LINE
  5
A3
330
69
100
AcDbEntity
  8
$DDT_AUDIT_GENERATED_(93)
  6
Continuous
 62
     7
100
AcDbLine
 10
29.9562710564
 20
552.4318463331
 30
0.0
 11
29.9562710564
 21
552.5612558556
 31
0.0
  0
LINE
  5
A4
330
69
100
AcDbEntity
  8
$DDT_AUDIT_GENERATED_(93)
  6
Continuous
 62
     7
100
AcDbLine
 10
28.9902456526
 20
552.8649036744
 30
0.0
 11
28.9902456526
 21
552.6060846293
 31
0.0
  0
LINE
  5
A5
330
69
100
AcDbEntity
  8
$DDT_AUDIT_GENERATED_(93)
  6
Continuous
 62
     7
100
AcDbLine
 10
28.9902456526
 20
552.6060846293
 30
0.0
 11
29.4232583545
 21
552.6707893905
 31
0.0
  0
LINE
  5
A6
330
69
100
AcDbEntity
  8
$DDT_AUDIT_GENERATED_(93)
  6
Continuous
 62
     7
100
AcDbLine
 10
29.4232583545
 20
552.6707893905
 30
0.0
 11
29.4232583545
 21
552.8001989131
 31
0.0
  0
LINE
  5
A7
330
69
100
AcDbEntity
  8
$DDT_AUDIT_GENERATED_(93)
  6
Continuous
 62
     7
100
AcDbLine
 10
29.4232583545
 20
552.8001989131
 30
0.0
 11
28.9902456526
 21
552.8649036744
 31
0.0
  0
LINE
  5
A8
330
69
100
AcDbEntity
  8
$DDT_AUDIT_GENERATED_(93)
  6
Continuous
 62
     7
100
AcDbLine
 10
29.5232583545
 20
553.1038467318
 30
0.0
 11
29.5232583545
 21
552.8450276867
 31
0.0
  0
LINE
  5
A9
330
69
100
AcDbEntity
  8
$DDT_AUDIT_GENERATED_(93)
  6
Continuous
 62
     7
100
AcDbLine
 10
29.0902456526
 20
552.909732448
 30
0.0
 11
29.5232583545
 21
552.8450276867
 31
0.0
  0
LINE
  5
AA
330
69
100
AcDbEntity
  8
$DDT_AUDIT_GENERATED_(93)
  6
Continuous
 62
     7
100
AcDbLine
 10
29.5232583545
 20
552.8450276867
 30
0.0
 11
29.9562710564
 21
552.909732448
 31
0.0
  0
LINE
  5
AB
330
69
100
AcDbEntity
  8
$DDT_AUDIT_GENERATED_(93)
  6
Continuous
 62
     7
100
AcDbLine
 10
29.9562710564
 20
552.909732448
 30
0.0
 11
29.9562710564
 21
553.0391419705
 31
0.0
  0
LINE
  5
AC
330
69
100
AcDbEntity
  8
$DDT_AUDIT_GENERATED_(93)
  6
Continuous
 62
     7
100
AcDbLine
 10
29.9562710564
 20
553.0391419705
 30
0.0
 11
29.5232583545
 21
553.1038467318
 31
0.0
  0
LINE
  5
AD
330
69
100
AcDbEntity
  8
$DDT_AUDIT_GENERATED_(93)
  6
Continuous
 62
     7
100
AcDbLine
 10
29.5232583545
 20
553.1038467318
 30
0.0
 11
29.0902456526
 21
553.0391419705
 31
0.0
  0
LINE
  5
AE
330
69
100
AcDbEntity
  8
$DDT_AUDIT_GENERATED_(93)
  6
Continuous
 62
     7
100
AcDbLine
 10
29.0902456526
 20
553.0391419705
 30
0.0
 11
29.0902456526
 21
552.909732448
 31
0.0
  0
LINE
  5
AF
330
69
100
AcDbEntity
  8
$DDT_AUDIT_GENERATED_(93)
  6
Continuous
 62
     7
100
AcDbLine
 10
30.0562710564
 20
552.8649036744
 30
0.0
 11
30.0562710564
 21
552.6060846293
 31
0.0
  0
LINE
  5
B0
330
69
100
AcDbEntity
  8
$DDT_AUDIT_GENERATED_(93)
  6
Continuous
 62
     7
100
AcDbLine
 10
30.4892837583
 20
552.8001989131
 30
0.0
 11
30.0562710564
 21
552.8649036744
 31
0.0
  0
LINE
  5
B1
330
69
100
AcDbEntity
  8
$DDT_AUDIT_GENERATED_(93)
  6
Continuous
 62
     7
100
AcDbLine
 10
30.0562710564
 20
552.8649036744
 30
0.0
 11
29.6232583545
 21
552.8001989131
 31
0.0
  0
LINE
  5
B2
330
69
100
AcDbEntity
  8
$DDT_AUDIT_GENERATED_(93)
  6
Continuous
 62
     7
100
AcDbLine
 10
29.6232583545
 20
552.8001989131
 30
0.0
 11
29.6232583545
 21
552.6707893905
 31
0.0
  0
LINE
  5
B3
330
69
100
AcDbEntity
  8
$DDT_AUDIT_GENERATED_(93)
  6
Continuous
 62
     7
100
AcDbLine
 10
29.6232583545
 20
552.6707893905
 30
0.0
 11
30.0562710564
 21
552.6060846293
 31
0.0
  0
LINE
  5
B4
330
69
100
AcDbEntity
  8
$DDT_AUDIT_GENERATED_(93)
  6
Continuous
 62
     7
100
AcDbLine
 10
30.0562710564
 20
552.6060846293
 30
0.0
 11
30.4892837583
 21
552.6707893905
 31
0.0
  0
LINE
  5
B5
330
69
100
AcDbEntity
  8
$DDT_AUDIT_GENERATED_(93)
  6
Continuous
 62
     7
100
AcDbLine
 10
30.4892837583
 20
552.6707893905
 30
0.0
 11
30.4892837583
 21
552.8001989131
 31
0.0
  0
LINE
  5
B6
330
69
100
AcDbEntity
  8
$DDT_AUDIT_GENERATED_(93)
  6
Continuous
 62
     7
100
AcDbLine
 10
30.5892837583
 20
553.1038467318
 30
0.0
 11
30.5892837583
 21
552.8450276867
 31
0.0
  0
LINE
  5
B7
330
69
100
AcDbEntity
  8
$DDT_AUDIT_GENERATED_(93)
  6
Continuous
 62
     7
100
AcDbLine
 10
30.1562710564
 20
553.0391419705
 30
0.0
 11
30.1562710564
 21
552.909732448
 31
0.0
  0
LINE
  5
B8
330
69
100
AcDbEntity
  8
$DDT_AUDIT_GENERATED_(93)
  6
Continuous
 62
     7
100
AcDbLine
 10
30.1562710564
 20
552.909732448
 30
0.0
 11
30.5892837583
 21
552.8450276867
 31
0.0
  0
LINE
  5
B9
330
69
100
AcDbEntity
  8
$DDT_AUDIT_GENERATED_(93)
  6
Continuous
 62
     7
100
AcDbLine
 10
30.5892837583
 20
552.8450276867
 30
0.0
 11
31.0222964602
 21
552.909732448
 31
0.0
  0
LINE
  5
BA
330
69
100
AcDbEntity
  8
$DDT_AUDIT_GENERATED_(93)
  6
Continuous
 62
     7
100
AcDbLine
 10
31.0222964602
 20
552.909732448
 30
0.0
 11
31.0222964602
 21
553.0391419705
 31
0.0
  0
LINE
  5
BB
330
69
100
AcDbEntity
  8
$DDT_AUDIT_GENERATED_(93)
  6
Continuous
 62
     7
100
AcDbLine
 10
31.0222964602
 20
553.0391419705
 30
0.0
 11
30.5892837583
 21
553.1038467318
 31
0.0
  0
LINE
  5
BC
330
69
100
AcDbEntity
  8
$DDT_AUDIT_GENERATED_(93)
  6
Continuous
 62
     7
100
AcDbLine
 10
30.5892837583
 20
553.1038467318
 30
0.0
 11
30.1562710564
 21
553.0391419705
 31
0.0
  0
LINE
  5
BD
330
69
100
AcDbEntity
  8
$DDT_AUDIT_GENERATED_(93)
  6
Continuous
 62
     7
100
AcDbLine
 10
30.0562710564
 20
553.3427897892
 30
0.0
 11
30.0562710564
 21
553.0839707441
 31
0.0
  0
LINE
  5
BE
330
69
100
AcDbEntity
  8
$DDT_AUDIT_GENERATED_(93)
  6
Continuous
 62
     7
100
AcDbLine
 10
29.6232583545
 20
553.1486755054
 30
0.0
 11
30.0562710564
 21
553.0839707441
 31
0.0
  0
LINE
  5
BF
330
69
100
AcDbEntity
  8
$DDT_AUDIT_GENERATED_(93)
  6
Continuous
 62
     7
100
AcDbLine
 10
30.0562710564
 20
553.0839707441
 30
0.0
 11
30.4892837583
 21
553.1486755054
 31
0.0
  0
LINE
  5
C0
330
69
100
AcDbEntity
  8
$DDT_AUDIT_GENERATED_(93)
  6
Continuous
 62
     7
100
AcDbLine
 10
30.4892837583
 20
553.1486755054
 30
0.0
 11
30.4892837583
 21
553.2780850279
 31
0.0
  0
LINE
  5
C1
330
69
100
AcDbEntity
  8
$DDT_AUDIT_GENERATED_(93)
  6
Continuous
 62
     7
100
AcDbLine
 10
29.6232583545
 20
553.2780850279
 30
0.0
 11
29.6232583545
 21
553.1486755054
 31
0.0
  0
LINE
  5
C2
330
69
100
AcDbEntity
  8
$DDT_AUDIT_GENERATED_(93)
  6
Continuous
 62
     7
100
AcDbLine
 10
28.9902456526
 20
551.4312453298
 30
0.0
 11
28.9902456526
 21
551.1724262847
 31
0.0
  0
LINE
  5
C3
330
69
100
AcDbEntity
  8
$DDT_AUDIT_GENERATED_(93)
  6
Continuous
 62
     7
100
AcDbLine
 10
28.9902456526
 20
551.1724262847
 30
0.0
 11
29.4232583545
 21
551.2371310459
 31
0.0
  0
LINE
  5
C4
330
69
100
AcDbEntity
  8
$DDT_AUDIT_GENERATED_(93)
  6
Continuous
 62
     7
100
AcDbLine
 10
29.4232583545
 20
551.2371310459
 30
0.0
 11
29.4232583545
 21
551.3665405685
 31
0.0
  0
LINE
  5
C5
330
69
100
AcDbEntity
  8
$DDT_AUDIT_GENERATED_(93)
  6
Continuous
 62
     7
100
AcDbLine
 10
29.4232583545
 20
551.3665405685
 30
0.0
 11
28.9902456526
 21
551.4312453298
 31
0.0
  0
LINE
  5
C6
330
69
100
AcDbEntity
  8
$DDT_AUDIT_GENERATED_(93)
  6
Continuous
 62
     7
100
AcDbLine
 10
29.7856831086
 20
551.1530883394
 30
0.0
 11
29.5232583545
 21
551.1923022723
 31
0.0
  0
LINE
  5
C7
330
69
100
AcDbEntity
  8
$DDT_AUDIT_GENERATED_(93)
  6
Continuous
 62
     7
100
AcDbLine
 10
29.5232583545
 20
551.1923022723
 30
0.0
 11
29.1967882756
 21
551.1435180948
 31
0.0
  0
LINE
  5
C8
330
69
100
AcDbEntity
  8
$DDT_AUDIT_GENERATED_(93)
  6
Continuous
 62
     7
100
AcDbLine
 10
30.0562710564
 20
551.4312453298
 30
0.0
 11
30.0562710564
 21
551.1724262847
 31
0.0
  0
LINE
  5
C9
330
69
100
AcDbEntity
  8
$DDT_AUDIT_GENERATED_(93)
  6
Continuous
 62
     7
100
AcDbLine
 10
29.6232583545
 20
551.3665405685
 30
0.0
 11
29.6232583545
 21
551.2371310459
 31
0.0
  0
LINE
  5
CA
330
69
100
AcDbEntity
  8
$DDT_AUDIT_GENERATED_(93)
  6
Continuous
 62
     7
100
AcDbLine
 10
29.6232583545
 20
551.2371310459
 30
0.0
 11
30.0562710564
 21
551.1724262847
 31
0.0
  0
LINE
  5
CB
330
69
100
AcDbEntity
  8
$DDT_AUDIT_GENERATED_(93)
  6
Continuous
 62
     7
100
AcDbLine
 10
30.0562710564
 20
551.1724262847
 30
0.0
 11
30.4892837583
 21
551.2371310459
 31
0.0
  0
LINE
  5
CC
330
69
100
AcDbEntity
  8
$DDT_AUDIT_GENERATED_(93)
  6
Continuous
 62
     7
100
AcDbLine
 10
30.4892837583
 20
551.2371310459
 30
0.0
 11
30.4892837583
 21
551.3665405685
 31
0.0
  0
LINE
  5
CD
330
69
100
AcDbEntity
  8
$DDT_AUDIT_GENERATED_(93)
  6
Continuous
 62
     7
100
AcDbLine
 10
30.4892837583
 20
551.3665405685
 30
0.0
 11
30.0562710564
 21
551.4312453298
 31
0.0
  0
LINE
  5
CE
330
69
100
AcDbEntity
  8
$DDT_AUDIT_GENERATED_(93)
  6
Continuous
 62
     7
100
AcDbLine
 10
30.0562710564
 20
551.4312453298
 30
0.0
 11
29.6232583545
 21
551.3665405685
 31
0.0
  0
LINE
  5
CF
330
69
100
AcDbEntity
  8
$DDT_AUDIT_GENERATED_(93)
  6
Continuous
 62
     7
100
AcDbLine
 10
29.5232583545
 20
551.6701883872
 30
0.0
 11
29.5232583545
 21
551.4113693421
 31
0.0
  0
LINE
  5
D0
330
69
100
AcDbEntity
  8
$DDT_AUDIT_GENERATED_(93)
  6
Continuous
 62
     7
100
AcDbLine
 10
29.0902456526
 20
551.4760741034
 30
0.0
 11
29.5232583545
 21
551.4113693421
 31
0.0
  0
LINE
  5
D1
330
69
100
AcDbEntity
  8
$DDT_AUDIT_GENERATED_(93)
  6
Continuous
 62
     7
100
AcDbLine
 10
29.5232583545
 20
551.4113693421
 30
0.0
 11
29.9562710564
 21
551.4760741034
 31
0.0
  0
LINE
  5
D2
330
69
100
AcDbEntity
  8
$DDT_AUDIT_GENERATED_(93)
  6
Continuous
 62
     7
100
AcDbLine
 10
29.9562710564
 20
551.4760741034
 30
0.0
 11
29.9562710564
 21
551.6054836259
 31
0.0
  0
LINE
  5
D3
330
69
100
AcDbEntity
  8
$DDT_AUDIT_GENERATED_(93)
  6
Continuous
 62
     7
100
AcDbLine
 10
29.9562710564
 20
551.6054836259
 30
0.0
 11
29.5232583545
 21
551.6701883872
 31
0.0
  0
LINE
  5
D4
330
69
100
AcDbEntity
  8
$DDT_AUDIT_GENERATED_(93)
  6
Continuous
 62
     7
100
AcDbLine
 10
29.5232583545
 20
551.6701883872
 30
0.0
 11
29.0902456526
 21
551.6054836259
 31
0.0
  0
LINE
  5
D5
330
69
100
AcDbEntity
  8
$DDT_AUDIT_GENERATED_(93)
  6
Continuous
 62
     7
100
AcDbLine
 10
29.0902456526
 20
551.6054836259
 30
0.0
 11
29.0902456526
 21
551.4760741034
 31
0.0
  0
LINE
  5
D6
330
69
100
AcDbEntity
  8
$DDT_AUDIT_GENERATED_(93)
  6
Continuous
 62
     7
100
AcDbLine
 10
29.5232583545
 20
552.1480745021
 30
0.0
 11
29.5232583545
 21
551.889255457
 31
0.0
  0
LINE
  5
D7
330
69
100
AcDbEntity
  8
$DDT_AUDIT_GENERATED_(93)
  6
Continuous
 62
     7
100
AcDbLine
 10
29.0902456526
 20
552.0833697408
 30
0.0
 11
29.0902456526
 21
551.9539602182
 31
0.0
  0
LINE
  5
D8
330
69
100
AcDbEntity
  8
$DDT_AUDIT_GENERATED_(93)
  6
Continuous
 62
     7
100
AcDbLine
 10
29.0902456526
 20
551.9539602182
 30
0.0
 11
29.5232583545
 21
551.889255457
 31
0.0
  0
LINE
  5
D9
330
69
100
AcDbEntity
  8
$DDT_AUDIT_GENERATED_(93)
  6
Continuous
 62
     7
100
AcDbLine
 10
29.5232583545
 20
551.889255457
 30
0.0
 11
29.9562710564
 21
551.9539602182
 31
0.0
  0
LINE
  5
DA
330
69
100
AcDbEntity
  8
$DDT_AUDIT_GENERATED_(93)
  6
Continuous
 62
     7
100
AcDbLine
 10
29.9562710564
 20
551.9539602182
 30
0.0
 11
29.9562710564
 21
552.0833697408
 31
0.0
  0
LINE
  5
DB
330
69
100
AcDbEntity
  8
$DDT_AUDIT_GENERATED_(93)
  6
Continuous
 62
     7
100
AcDbLine
 10
29.9562710564
 20
552.0833697408
 30
0.0
 11
29.5232583545
 21
552.1480745021
 31
0.0
  0
LINE
  5
DC
330
69
100
AcDbEntity
  8
$DDT_AUDIT_GENERATED_(93)
  6
Continuous
 62
     7
100
AcDbLine
 10
29.5232583545
 20
552.1480745021
 30
0.0
 11
29.0902456526
 21
552.0833697408
 31
0.0
  0
LINE
  5
DD
330
69
100
AcDbEntity
  8
$DDT_AUDIT_GENERATED_(93)
  6
Continuous
 62
     7
100
AcDbLine
 10
29.4232583545
 20
552.1929032757
 30
0.0
 11
28.9902456526
 21
552.1281985144
 31
0.0
  0
LINE
  5
DE
330
69
100
AcDbEntity
  8
$DDT_AUDIT_GENERATED_(93)
  6
Continuous
 62
     7
100
AcDbLine
 10
28.9902456526
 20
552.3870175595
 30
0.0
 11
29.4232583545
 21
552.3223127982
 31
0.0
  0
LINE
  5
DF
330
69
100
AcDbEntity
  8
$DDT_AUDIT_GENERATED_(93)
  6
Continuous
 62
     7
100
AcDbLine
 10
29.4232583545
 20
552.3223127982
 30
0.0
 11
29.4232583545
 21
552.1929032757
 31
0.0
  0
LINE
  5
E0
330
69
100
AcDbEntity
  8
$DDT_AUDIT_GENERATED_(93)
  6
Continuous
 62
     7
100
AcDbLine
 10
28.9902456526
 20
552.3870175595
 30
0.0
 11
28.9902456526
 21
552.1281985144
 31
0.0
  0
LINE
  5
E1
330
69
100
AcDbEntity
  8
$DDT_AUDIT_GENERATED_(93)
  6
Continuous
 62
     7
100
AcDbLine
 10
30.0562710564
 20
552.3870175595
 30
0.0
 11
30.0562710564
 21
552.1281985144
 31
0.0
  0
LINE
  5
E2
330
69
100
AcDbEntity
  8
$DDT_AUDIT_GENERATED_(93)
  6
Continuous
 62
     7
100
AcDbLine
 10
29.6232583545
 20
552.3223127982
 30
0.0
 11
29.6232583545
 21
552.1929032757
 31
0.0
  0
LINE
  5
E3
330
69
100
AcDbEntity
  8
$DDT_AUDIT_GENERATED_(93)
  6
Continuous
 62
     7
100
AcDbLine
 10
29.6232583545
 20
552.1929032757
 30
0.0
 11
30.0562710564
 21
552.1281985144
 31
0.0
  0
LINE
  5
E4
330
69
100
AcDbEntity
  8
$DDT_AUDIT_GENERATED_(93)
  6
Continuous
 62
     7
100
AcDbLine
 10
30.0562710564
 20
552.1281985144
 30
0.0
 11
30.4892837583
 21
552.1929032757
 31
0.0
  0
LINE
  5
E5
330
69
100
AcDbEntity
  8
$DDT_AUDIT_GENERATED_(93)
  6
Continuous
 62
     7
100
AcDbLine
 10
30.4892837583
 20
552.1929032757
 30
0.0
 11
30.4892837583
 21
552.3223127982
 31
0.0
  0
LINE
  5
E6
330
69
100
AcDbEntity
  8
$DDT_AUDIT_GENERATED_(93)
  6
Continuous
 62
     7
100
AcDbLine
 10
30.4892837583
 20
552.3223127982
 30
0.0
 11
30.0562710564
 21
552.3870175595
 31
0.0
  0
LINE
  5
E7
330
69
100
AcDbEntity
  8
$DDT_AUDIT_GENERATED_(93)
  6
Continuous
 62
     7
100
AcDbLine
 10
30.0562710564
 20
552.3870175595
 30
0.0
 11
29.6232583545
 21
552.3223127982
 31
0.0
  0
LINE
  5
E8
330
69
100
AcDbEntity
  8
$DDT_AUDIT_GENERATED_(93)
  6
Continuous
 62
     7
100
AcDbLine
 10
30.5892837583
 20
552.6259606169
 30
0.0
 11
30.5892837583
 21
552.3671415718
 31
0.0
  0
LINE
  5
E9
330
69
100
AcDbEntity
  8
$DDT_AUDIT_GENERATED_(93)
  6
Continuous
 62
     7
100
AcDbLine
 10
30.5892837583
 20
552.6259606169
 30
0.0
 11
30.1562710564
 21
552.5612558556
 31
0.0
  0
LINE
  5
EA
330
69
100
AcDbEntity
  8
$DDT_AUDIT_GENERATED_(93)
  6
Continuous
 62
     7
100
AcDbLine
 10
30.1562710564
 20
552.5612558556
 30
0.0
 11
30.1562710564
 21
552.4318463331
 31
0.0
  0
LINE
  5
EB
330
69
100
AcDbEntity
  8
$DDT_AUDIT_GENERATED_(93)
  6
Continuous
 62
     7
100
AcDbLine
 10
30.1562710564
 20
552.4318463331
 30
0.0
 11
30.5892837583
 21
552.3671415718
 31
0.0
  0
LINE
  5
EC
330
69
100
AcDbEntity
  8
$DDT_AUDIT_GENERATED_(93)
  6
Continuous
 62
     7
100
AcDbLine
 10
30.5892837583
 20
552.3671415718
 30
0.0
 11
31.0222964602
 21
552.4318463331
 31
0.0
  0
LINE
  5
ED
330
69
100
AcDbEntity
  8
$DDT_AUDIT_GENERATED_(93)
  6
Continuous
 62
     7
100
AcDbLine
 10
31.0222964602
 20
552.4318463331
 30
0.0
 11
31.0222964602
 21
552.5612558556
 31
0.0
  0
LINE
  5
EE
330
69
100
AcDbEntity
  8
$DDT_AUDIT_GENERATED_(93)
  6
Continuous
 62
     7
100
AcDbLine
 10
31.0222964602
 20
552.5612558556
 30
0.0
 11
30.5892837583
 21
552.6259606169
 31
0.0
  0
LINE
  5
EF
330
69
100
AcDbEntity
  8
$DDT_AUDIT_GENERATED_(93)
  6
Continuous
 62
     7
100
AcDbLine
 10
31.1222964602
 20
552.8649036744
 30
0.0
 11
31.1222964602
 21
552.6060846293
 31
0.0
  0
LINE
  5
F0
330
69
100
AcDbEntity
  8
$DDT_AUDIT_GENERATED_(93)
  6
Continuous
 62
     7
100
AcDbLine
 10
31.1222964602
 20
552.8649036744
 30
0.0
 11
30.6892837583
 21
552.8001989131
 31
0.0
  0
LINE
  5
F1
330
69
100
AcDbEntity
  8
$DDT_AUDIT_GENERATED_(93)
  6
Continuous
 62
     7
100
AcDbLine
 10
30.6892837583
 20
552.8001989131
 30
0.0
 11
30.6892837583
 21
552.6707893905
 31
0.0
  0
LINE
  5
F2
330
69
100
AcDbEntity
  8
$DDT_AUDIT_GENERATED_(93)
  6
Continuous
 62
     7
100
AcDbLine
 10
30.6892837583
 20
552.6707893905
 30
0.0
 11
31.1222964602
 21
552.6060846293
 31
0.0
  0
LINE
  5
F3
330
69
100
AcDbEntity
  8
$DDT_AUDIT_GENERATED_(93)
  6
Continuous
 62
     7
100
AcDbLine
 10
31.1222964602
 20
552.6060846293
 30
0.0
 11
31.555309162
 21
552.6707893905
 31
0.0
  0
LINE
  5
F4
330
69
100
AcDbEntity
  8
$DDT_AUDIT_GENERATED_(93)
  6
Continuous
 62
     7
100
AcDbLine
 10
31.555309162
 20
552.6707893905
 30
0.0
 11
31.555309162
 21
552.8001989131
 31
0.0
  0
LINE
  5
F5
330
69
100
AcDbEntity
  8
$DDT_AUDIT_GENERATED_(93)
  6
Continuous
 62
     7
100
AcDbLine
 10
31.555309162
 20
552.8001989131
 30
0.0
 11
31.1222964602
 21
552.8649036744
 31
0.0
  0
LINE
  5
F6
330
69
100
AcDbEntity
  8
$DDT_AUDIT_GENERATED_(93)
  6
Continuous
 62
     7
100
AcDbLine
 10
31.655309162
 20
553.1038467318
 30
0.0
 11
31.655309162
 21
552.8450276867
 31
0.0
  0
LINE
  5
F7
330
69
100
AcDbEntity
  8
$DDT_AUDIT_GENERATED_(93)
  6
Continuous
 62
     7
100
AcDbLine
 10
31.655309162
 20
553.1038467318
 30
0.0
 11
31.2222964602
 21
553.0391419705
 31
0.0
  0
LINE
  5
F8
330
69
100
AcDbEntity
  8
$DDT_AUDIT_GENERATED_(93)
  6
Continuous
 62
     7
100
AcDbLine
 10
31.2222964602
 20
553.0391419705
 30
0.0
 11
31.2222964602
 21
552.909732448
 31
0.0
  0
LINE
  5
F9
330
69
100
AcDbEntity
  8
$DDT_AUDIT_GENERATED_(93)
  6
Continuous
 62
     7
100
AcDbLine
 10
31.2222964602
 20
552.909732448
 30
0.0
 11
31.655309162
 21
552.8450276867
 31
0.0
  0
LINE
  5
FA
330
69
100
AcDbEntity
  8
$DDT_AUDIT_GENERATED_(93)
  6
Continuous
 62
     7
100
AcDbLine
 10
31.655309162
 20
552.8450276867
 30
0.0
 11
32.0883218639
 21
552.909732448
 31
0.0
  0
LINE
  5
FB
330
69
100
AcDbEntity
  8
$DDT_AUDIT_GENERATED_(93)
  6
Continuous
 62
     7
100
AcDbLine
 10
32.0883218639
 20
552.909732448
 30
0.0
 11
32.0883218639
 21
553.0391419705
 31
0.0
  0
LINE
  5
FC
330
69
100
AcDbEntity
  8
$DDT_AUDIT_GENERATED_(93)
  6
Continuous
 62
     7
100
AcDbLine
 10
32.0883218639
 20
553.0391419705
 30
0.0
 11
31.655309162
 21
553.1038467318
 31
0.0
  0
LINE
  5
FD
330
69
100
AcDbEntity
  8
$DDT_AUDIT_GENERATED_(93)
  6
Continuous
 62
     7
100
AcDbLine
 10
31.1222964602
 20
553.3427897892
 30
0.0
 11
31.1222964602
 21
553.0839707441
 31
0.0
  0
LINE
  5
FE
330
69
100
AcDbEntity
  8
$DDT_AUDIT_GENERATED_(93)
  6
Continuous
 62
     7
100
AcDbLine
 10
30.6892837583
 20
553.2780850279
 30
0.0
 11
30.6892837583
 21
553.1486755054
 31
0.0
  0
LINE
  5
FF
330
69
100
AcDbEntity
  8
$DDT_AUDIT_GENERATED_(93)
  6
Continuous
 62
     7
100
AcDbLine
 10
30.6892837583
 20
553.1486755054
 30
0.0
 11
31.1222964602
 21
553.0839707441
 31
0.0
  0
LINE
  5
100
330
69
100
AcDbEntity
  8
$DDT_AUDIT_GENERATED_(93)
  6
Continuous
 62
     7
100
AcDbLine
 10
31.1222964602
 20
553.0839707441
 30
0.0
 11
31.555309162
 21
553.1486755054
 31
0.0
  0
LINE
  5
101
330
69
100
AcDbEntity
  8
$DDT_AUDIT_GENERATED_(93)
  6
Continuous
 62
     7
100
AcDbLine
 10
31.555309162
 20
553.1486755054
 30
0.0
 11
31.555309162
 21
553.2780850279
 31
0.0
  0
LINE
  5
102
330
69
100
AcDbEntity
  8
$DDT_AUDIT_GENERATED_(93)
  6
Continuous
 62
     7
100
AcDbLine
 10
32.1883218639
 20
553.3427897892
 30
0.0
 11
32.1883218639
 21
553.0839707441
 31
0.0
  0
LINE
  5
103
330
69
100
AcDbEntity
  8
$DDT_AUDIT_GENERATED_(93)
  6
Continuous
 62
     7
100
AcDbLine
 10
31.755309162
 20
553.2780850279
 30
0.0
 11
31.755309162
 21
553.1486755054
 31
0.0
  0
LINE
  5
104
330
69
100
AcDbEntity
  8
$DDT_AUDIT_GENERATED_(93)
  6
Continuous
 62
     7
100
AcDbLine
 10
31.755309162
 20
553.1486755054
 30
0.0
 11
32.1883218639
 21
553.0839707441
 31
0.0
  0
LINE
  5
105
330
69
100
AcDbEntity
  8
$DDT_AUDIT_GENERATED_(93)
  6
Continuous
 62
     7
100
AcDbLine
 10
32.1883218639
 20
553.0839707441
 30
0.0
 11
32.6213345658
 21
553.1486755054
 31
0.0
  0
LINE
  5
106
330
69
100
AcDbEntity
  8
$DDT_AUDIT_GENERATED_(93)
  6
Continuous
 62
     7
100
AcDbLine
 10
32.6213345658
 20
553.1486755054
 30
0.0
 11
32.6213345658
 21
553.2780850279
 31
0.0
  0
LINE
  5
107
330
69
100
AcDbEntity
  8
$DDT_AUDIT_GENERATED_(93)
  6
Continuous
 62
     7
100
AcDbLine
 10
33.2543472677
 20
553.3427897892
 30
0.0
 11
33.2543472677
 21
553.0839707441
 31
0.0
  0
LINE
  5
108
330
69
100
AcDbEntity
  8
$DDT_AUDIT_GENERATED_(93)
  6
Continuous
 62
     7
100
AcDbLine
 10
32.8213345658
 20
553.2780850279
 30
0.0
 11
32.8213345658
 21
553.1486755054
 31
0.0
  0
LINE
  5
109
330
69
100
AcDbEntity
  8
$DDT_AUDIT_GENERATED_(93)
  6
Continuous
 62
     7
100
AcDbLine
 10
32.8213345658
 20
553.1486755054
 30
0.0
 11
33.2543472677
 21
553.0839707441
 31
0.0
  0
LINE
  5
10A
330
69
100
AcDbEntity
  8
$DDT_AUDIT_GENERATED_(93)
  6
Continuous
 62
     7
100
AcDbLine
 10
33.2543472677
 20
553.0839707441
 30
0.0
 11
33.6873599696
 21
553.1486755054
 31
0.0
  0
LINE
  5
10B
330
69
100
AcDbEntity
  8
$DDT_AUDIT_GENERATED_(93)
  6
Continuous
 62
     7
100
AcDbLine
 10
33.6873599696
 20
553.1486755054
 30
0.0
 11
33.6873599696
 21
553.2780850279
 31
0.0
  0
LINE
  5
10C
330
69
100
AcDbEntity
  8
$DDT_AUDIT_GENERATED_(93)
  6
Continuous
 62
     7
100
AcDbLine
 10
32.7213345658
 20
553.1038467318
 30
0.0
 11
32.7213345658
 21
552.8450276867
 31
0.0
  0
LINE
  5
10D
330
69
100
AcDbEntity
  8
$DDT_AUDIT_GENERATED_(93)
  6
Continuous
 62
     7
100
AcDbLine
 10
33.1543472677
 20
552.909732448
 30
0.0
 11
33.1543472677
 21
553.0391419705
 31
0.0
  0
LINE
  5
10E
330
69
100
AcDbEntity
  8
$DDT_AUDIT_GENERATED_(93)
  6
Continuous
 62
     7
100
AcDbLine
 10
33.1543472677
 20
553.0391419705
 30
0.0
 11
32.7213345658
 21
553.1038467318
 31
0.0
  0
LINE
  5
10F
330
69
100
AcDbEntity
  8
$DDT_AUDIT_GENERATED_(93)
  6
Continuous
 62
     7
100
AcDbLine
 10
32.7213345658
 20
553.1038467318
 30
0.0
 11
32.2883218639
 21
553.0391419705
 31
0.0
  0
LINE
  5
110
330
69
100
AcDbEntity
  8
$DDT_AUDIT_GENERATED_(93)
  6
Continuous
 62
     7
100
AcDbLine
 10
32.2883218639
 20
553.0391419705
 30
0.0
 11
32.2883218639
 21
552.909732448
 31
0.0
  0
LINE
  5
111
330
69
100
AcDbEntity
  8
$DDT_AUDIT_GENERATED_(93)
  6
Continuous
 62
     7
100
AcDbLine
 10
32.2883218639
 20
552.909732448
 30
0.0
 11
32.7213345658
 21
552.8450276867
 31
0.0
  0
LINE
  5
112
330
69
100
AcDbEntity
  8
$DDT_AUDIT_GENERATED_(93)
  6
Continuous
 62
     7
100
AcDbLine
 10
32.7213345658
 20
552.8450276867
 30
0.0
 11
33.1543472677
 21
552.909732448
 31
0.0
  0
LINE
  5
113
330
69
100
AcDbEntity
  8
$DDT_AUDIT_GENERATED_(93)
  6
Continuous
 62
     7
100
AcDbLine
 10
32.1883218639
 20
552.8649036744
 30
0.0
 11
32.1883218639
 21
552.6060846293
 31
0.0
  0
LINE
  5
114
330
69
100
AcDbEntity
  8
$DDT_AUDIT_GENERATED_(93)
  6
Continuous
 62
     7
100
AcDbLine
 10
32.6213345658
 20
552.6707893905
 30
0.0
 11
32.6213345658
 21
552.8001989131
 31
0.0
  0
LINE
  5
115
330
69
100
AcDbEntity
  8
$DDT_AUDIT_GENERATED_(93)
  6
Continuous
 62
     7
100
AcDbLine
 10
32.6213345658
 20
552.8001989131
 30
0.0
 11
32.1883218639
 21
552.8649036744
 31
0.0
  0
LINE
  5
116
330
69
100
AcDbEntity
  8
$DDT_AUDIT_GENERATED_(93)
  6
Continuous
 62
     7
100
AcDbLine
 10
32.1883218639
 20
552.8649036744
 30
0.0
 11
31.755309162
 21
552.8001989131
 31
0.0
  0
LINE
  5
117
330
69
100
AcDbEntity
  8
$DDT_AUDIT_GENERATED_(93)
  6
Continuous
 62
     7
100
AcDbLine
 10
31.755309162
 20
552.8001989131
 30
0.0
 11
31.755309162
 21
552.6707893905
 31
0.0
  0
LINE
  5
118
330
69
100
AcDbEntity
  8
$DDT_AUDIT_GENERATED_(93)
  6
Continuous
 62
     7
100
AcDbLine
 10
31.755309162
 20
552.6707893905
 30
0.0
 11
32.1883218639
 21
552.6060846293
 31
0.0
  0
LINE
  5
119
330
69
100
AcDbEntity
  8
$DDT_AUDIT_GENERATED_(93)
  6
Continuous
 62
     7
100
AcDbLine
 10
32.1883218639
 20
552.6060846293
 30
0.0
 11
32.6213345658
 21
552.6707893905
 31
0.0
  0
LINE
  5
11A
330
69
100
AcDbEntity
  8
$DDT_AUDIT_GENERATED_(93)
  6
Continuous
 62
     7
100
AcDbLine
 10
31.655309162
 20
552.6259606169
 30
0.0
 11
31.655309162
 21
552.3671415718
 31
0.0
  0
LINE
  5
11B
330
69
100
AcDbEntity
  8
$DDT_AUDIT_GENERATED_(93)
  6
Continuous
 62
     7
100
AcDbLine
 10
32.0883218639
 20
552.4318463331
 30
0.0
 11
32.0883218639
 21
552.5612558556
 31
0.0
  0
LINE
  5
11C
330
69
100
AcDbEntity
  8
$DDT_AUDIT_GENERATED_(93)
  6
Continuous
 62
     7
100
AcDbLine
 10
32.0883218639
 20
552.5612558556
 30
0.0
 11
31.655309162
 21
552.6259606169
 31
0.0
  0
LINE
  5
11D
330
69
100
AcDbEntity
  8
$DDT_AUDIT_GENERATED_(93)
  6
Continuous
 62
     7
100
AcDbLine
 10
31.655309162
 20
552.6259606169
 30
0.0
 11
31.2222964602
 21
552.5612558556
 31
0.0
  0
LINE
  5
11E
330
69
100
AcDbEntity
  8
$DDT_AUDIT_GENERATED_(93)
  6
Continuous
 62
     7
100
AcDbLine
 10
31.2222964602
 20
552.5612558556
 30
0.0
 11
31.2222964602
 21
552.4318463331
 31
0.0
  0
LINE
  5
11F
330
69
100
AcDbEntity
  8
$DDT_AUDIT_GENERATED_(93)
  6
Continuous
 62
     7
100
AcDbLine
 10
31.2222964602
 20
552.4318463331
 30
0.0
 11
31.655309162
 21
552.3671415718
 31
0.0
  0
LINE
  5
120
330
69
100
AcDbEntity
  8
$DDT_AUDIT_GENERATED_(93)
  6
Continuous
 62
     7
100
AcDbLine
 10
31.655309162
 20
552.3671415718
 30
0.0
 11
32.0883218639
 21
552.4318463331
 31
0.0
  0
LINE
  5
121
330
69
100
AcDbEntity
  8
$DDT_AUDIT_GENERATED_(93)
  6
Continuous
 62
     7
100
AcDbLine
 10
31.1222964602
 20
552.3870175595
 30
0.0
 11
31.1222964602
 21
552.1281985144
 31
0.0
  0
LINE
  5
122
330
69
100
AcDbEntity
  8
$DDT_AUDIT_GENERATED_(93)
  6
Continuous
 62
     7
100
AcDbLine
 10
31.555309162
 20
552.1929032757
 30
0.0
 11
31.555309162
 21
552.3223127982
 31
0.0
  0
LINE
  5
123
330
69
100
AcDbEntity
  8
$DDT_AUDIT_GENERATED_(93)
  6
Continuous
 62
     7
100
AcDbLine
 10
31.555309162
 20
552.3223127982
 30
0.0
 11
31.1222964602
 21
552.3870175595
 31
0.0
  0
LINE
  5
124
330
69
100
AcDbEntity
  8
$DDT_AUDIT_GENERATED_(93)
  6
Continuous
 62
     7
100
AcDbLine
 10
31.1222964602
 20
552.3870175595
 30
0.0
 11
30.6892837583
 21
552.3223127982
 31
0.0
  0
LINE
  5
125
330
69
100
AcDbEntity
  8
$DDT_AUDIT_GENERATED_(93)
  6
Continuous
 62
     7
100
AcDbLine
 10
30.6892837583
 20
552.3223127982
 30
0.0
 11
30.6892837583
 21
552.1929032757
 31
0.0
  0
LINE
  5
126
330
69
100
AcDbEntity
  8
$DDT_AUDIT_GENERATED_(93)
  6
Continuous
 62
     7
100
AcDbLine
 10
30.6892837583
 20
552.1929032757
 30
0.0
 11
31.1222964602
 21
552.1281985144
 31
0.0
  0
LINE
  5
127
330
69
100
AcDbEntity
  8
$DDT_AUDIT_GENERATED_(93)
  6
Continuous
 62
     7
100
AcDbLine
 10
31.1222964602
 20
552.1281985144
 30
0.0
 11
31.555309162
 21
552.1929032757
 31
0.0
  0
LINE
  5
128
330
69
100
AcDbEntity
  8
$DDT_AUDIT_GENERATED_(93)
  6
Continuous
 62
     7
100
AcDbLine
 10
30.5892837583
 20
552.1480745021
 30
0.0
 11
30.5892837583
 21
551.889255457
 31
0.0
  0
LINE
  5
129
330
69
100
AcDbEntity
  8
$DDT_AUDIT_GENERATED_(93)
  6
Continuous
 62
     7
100
AcDbLine
 10
31.0222964602
 20
551.9539602182
 30
0.0
 11
31.0222964602
 21
552.0833697408
 31
0.0
  0
LINE
  5
12A
330
69
100
AcDbEntity
  8
$DDT_AUDIT_GENERATED_(93)
  6
Continuous
 62
     7
100
AcDbLine
 10
31.0222964602
 20
552.0833697408
 30
0.0
 11
30.5892837583
 21
552.1480745021
 31
0.0
  0
LINE
  5
12B
330
69
100
AcDbEntity
  8
$DDT_AUDIT_GENERATED_(93)
  6
Continuous
 62
     7
100
AcDbLine
 10
30.5892837583
 20
552.1480745021
 30
0.0
 11
30.1562710564
 21
552.0833697408
 31
0.0
  0
LINE
  5
12C
330
69
100
AcDbEntity
  8
$DDT_AUDIT_GENERATED_(93)
  6
Continuous
 62
     7
100
AcDbLine
 10
30.1562710564
 20
552.0833697408
 30
0.0
 11
30.1562710564
 21
551.9539602182
 31
0.0
  0
LINE
  5
12D
330
69
100
AcDbEntity
  8
$DDT_AUDIT_GENERATED_(93)
  6
Continuous
 62
     7
100
AcDbLine
 10
30.1562710564
 20
551.9539602182
 30
0.0
 11
30.5892837583
 21
551.889255457
 31
0.0
  0
LINE
  5
12E
330
69
100
AcDbEntity
  8
$DDT_AUDIT_GENERATED_(93)
  6
Continuous
 62
     7
100
AcDbLine
 10
30.5892837583
 20
551.889255457
 30
0.0
 11
31.0222964602
 21
551.9539602182
 31
0.0
  0
LINE
  5
12F
330
69
100
AcDbEntity
  8
$DDT_AUDIT_GENERATED_(93)
  6
Continuous
 62
     7
100
AcDbLine
 10
30.0562710564
 20
551.9091314446
 30
0.0
 11
30.0562710564
 21
551.6503123995
 31
0.0
  0
LINE
  5
130
330
69
100
AcDbEntity
  8
$DDT_AUDIT_GENERATED_(93)
  6
Continuous
 62
     7
100
AcDbLine
 10
30.4892837583
 20
551.7150171608
 30
0.0
 11
30.4892837583
 21
551.8444266834
 31
0.0
  0
LINE
  5
131
330
69
100
AcDbEntity
  8
$DDT_AUDIT_GENERATED_(93)
  6
Continuous
 62
     7
100
AcDbLine
 10
30.4892837583
 20
551.8444266834
 30
0.0
 11
30.0562710564
 21
551.9091314446
 31
0.0
  0
LINE
  5
132
330
69
100
AcDbEntity
  8
$DDT_AUDIT_GENERATED_(93)
  6
Continuous
 62
     7
100
AcDbLine
 10
30.0562710564
 20
551.9091314446
 30
0.0
 11
29.6232583545
 21
551.8444266834
 31
0.0
  0
LINE
  5
133
330
69
100
AcDbEntity
  8
$DDT_AUDIT_GENERATED_(93)
  6
Continuous
 62
     7
100
AcDbLine
 10
29.6232583545
 20
551.8444266834
 30
0.0
 11
29.6232583545
 21
551.7150171608
 31
0.0
  0
LINE
  5
134
330
69
100
AcDbEntity
  8
$DDT_AUDIT_GENERATED_(93)
  6
Continuous
 62
     7
100
AcDbLine
 10
29.6232583545
 20
551.7150171608
 30
0.0
 11
30.0562710564
 21
551.6503123995
 31
0.0
  0
LINE
  5
135
330
69
100
AcDbEntity
  8
$DDT_AUDIT_GENERATED_(93)
  6
Continuous
 62
     7
100
AcDbLine
 10
30.0562710564
 20
551.6503123995
 30
0.0
 11
30.4892837583
 21
551.7150171608
 31
0.0
  0
LINE
  5
136
330
69
100
AcDbEntity
  8
$DDT_AUDIT_GENERATED_(93)
  6
Continuous
 62
     7
100
AcDbLine
 10
30.5892837583
 20
551.6701883872
 30
0.0
 11
30.5892837583
 21
551.4113693421
 31
0.0
  0
LINE
  5
137
330
69
100
AcDbEntity
  8
$DDT_AUDIT_GENERATED_(93)
  6
Continuous
 62
     7
100
AcDbLine
 10
31.0222964602
 20
551.4760741034
 30
0.0
 11
31.0222964602
 21
551.6054836259
 31
0.0
  0
LINE
  5
138
330
69
100
AcDbEntity
  8
$DDT_AUDIT_GENERATED_(93)
  6
Continuous
 62
     7
100
AcDbLine
 10
31.0222964602
 20
551.6054836259
 30
0.0
 11
30.5892837583
 21
551.6701883872
 31
0.0
  0
LINE
  5
139
330
69
100
AcDbEntity
  8
$DDT_AUDIT_GENERATED_(93)
  6
Continuous
 62
     7
100
AcDbLine
 10
30.5892837583
 20
551.6701883872
 30
0.0
 11
30.1562710564
 21
551.6054836259
 31
0.0
  0
LINE
  5
13A
330
69
100
AcDbEntity
  8
$DDT_AUDIT_GENERATED_(93)
  6
Continuous
 62
     7
100
AcDbLine
 10
30.1562710564
 20
551.6054836259
 30
0.0
 11
30.1562710564
 21
551.4760741034
 31
0.0
  0
LINE
  5
13B
330
69
100
AcDbEntity
  8
$DDT_AUDIT_GENERATED_(93)
  6
Continuous
 62
     7
100
AcDbLine
 10
30.1562710564
 20
551.4760741034
 30
0.0
 11
30.5892837583
 21
551.4113693421
 31
0.0
  0
LINE
  5
13C
330
69
100
AcDbEntity
  8
$DDT_AUDIT_GENERATED_(93)
  6
Continuous
 62
     7
100
AcDbLine
 10
30.5892837583
 20
551.4113693421
 30
0.0
 11
31.0222964602
 21
551.4760741034
 31
0.0
  0
ELLIPSE
  5
13D
330
69
100
AcDbEntity
  8
$DDT_AUDIT_GENERATED_(93)
  6
Continuous
 62
     7
100
AcDbEllipse
 10
28.9902455442
 20
553.2133803462
 30
0.0
 11
8.00000018090077
 21
-2.835780915644293E-8
 31
0.0
210
0.0
220
0.0
230
1.0
 40
0.2588190492
 41
-1.244398689195623
 42
-1.21788310959504
  0
LINE
  5
13E
330
69
100
AcDbEntity
  8
$DDT_AUDIT_GENERATED_(93)
  6
Continuous
 62
     7
100
AcDbLine
 10
30.9138464885
 20
551.4000968078
 30
0.0
 11
30.9138464885
 21
551.2035748066
 31
0.0
  0
LINE
  5
13F
330
69
100
AcDbEntity
  8
$DDT_AUDIT_GENERATED_(93)
  6
Continuous
 62
     7
100
AcDbLine
 10
31.1222964602
 20
551.4312453298
 30
0.0
 11
30.6892837583
 21
551.3665405685
 31
0.0
  0
LINE
  5
140
330
69
100
AcDbEntity
  8
$DDT_AUDIT_GENERATED_(93)
  6
Continuous
 62
     7
100
AcDbLine
 10
30.6892837583
 20
551.3665405685
 30
0.0
 11
30.6892837583
 21
551.2371310459
 31
0.0
  0
LINE
  5
141
330
69
100
AcDbEntity
  8
$DDT_AUDIT_GENERATED_(93)
  6
Continuous
 62
     7
100
AcDbLine
 10
30.6892837583
 20
551.2371310459
 30
0.0
 11
30.9138464885
 21
551.2035748066
 31
0.0
  0
LINE
  5
142
330
69
100
AcDbEntity
  8
$DDT_AUDIT_GENERATED_(93)
  6
Continuous
 62
     7
100
AcDbLine
 10
31.555309162
 20
551.2521457709
 30
0.0
 11
31.555309162
 21
551.3665405685
 31
0.0
  0
LINE
  5
143
330
69
100
AcDbEntity
  8
$DDT_AUDIT_GENERATED_(93)
  6
Continuous
 62
     7
100
AcDbLine
 10
31.555309162
 20
551.3665405685
 30
0.0
 11
31.1222964602
 21
551.4312453298
 31
0.0
  0
LINE
  5
144
330
69
100
AcDbEntity
  8
$DDT_AUDIT_GENERATED_(93)
  6
Continuous
 62
     7
100
AcDbLine
 10
31.655309162
 20
551.6701883872
 30
0.0
 11
31.655309162
 21
551.4113693421
 31
0.0
  0
LINE
  5
145
330
69
100
AcDbEntity
  8
$DDT_AUDIT_GENERATED_(93)
  6
Continuous
 62
     7
100
AcDbLine
 10
31.2222964602
 20
551.6054836259
 30
0.0
 11
31.2222964602
 21
551.4760741034
 31
0.0
  0
LINE
  5
146
330
69
100
AcDbEntity
  8
$DDT_AUDIT_GENERATED_(93)
  6
Continuous
 62
     7
100
AcDbLine
 10
31.2222964602
 20
551.4760741034
 30
0.0
 11
31.655309162
 21
551.4113693421
 31
0.0
  0
LINE
  5
147
330
69
100
AcDbEntity
  8
$DDT_AUDIT_GENERATED_(93)
  6
Continuous
 62
     7
100
AcDbLine
 10
31.655309162
 20
551.4113693421
 30
0.0
 11
32.0883218639
 21
551.4760741034
 31
0.0
  0
LINE
  5
148
330
69
100
AcDbEntity
  8
$DDT_AUDIT_GENERATED_(93)
  6
Continuous
 62
     7
100
AcDbLine
 10
32.0883218639
 20
551.4760741034
 30
0.0
 11
32.0883218639
 21
551.6054836259
 31
0.0
  0
LINE
  5
149
330
69
100
AcDbEntity
  8
$DDT_AUDIT_GENERATED_(93)
  6
Continuous
 62
     7
100
AcDbLine
 10
32.0883218639
 20
551.6054836259
 30
0.0
 11
31.655309162
 21
551.6701883872
 31
0.0
  0
LINE
  5
14A
330
69
100
AcDbEntity
  8
$DDT_AUDIT_GENERATED_(93)
  6
Continuous
 62
     7
100
AcDbLine
 10
31.655309162
 20
551.6701883872
 30
0.0
 11
31.2222964602
 21
551.6054836259
 31
0.0
  0
LINE
  5
14B
330
69
100
AcDbEntity
  8
$DDT_AUDIT_GENERATED_(93)
  6
Continuous
 62
     7
100
AcDbLine
 10
31.1222964602
 20
551.9091314446
 30
0.0
 11
31.1222964602
 21
551.6503123995
 31
0.0
  0
LINE
  5
14C
330
69
100
AcDbEntity
  8
$DDT_AUDIT_GENERATED_(93)
  6
Continuous
 62
     7
100
AcDbLine
 10
30.6892837583
 20
551.8444266834
 30
0.0
 11
30.6892837583
 21
551.7150171608
 31
0.0
  0
LINE
  5
14D
330
69
100
AcDbEntity
  8
$DDT_AUDIT_GENERATED_(93)
  6
Continuous
 62
     7
100
AcDbLine
 10
30.6892837583
 20
551.7150171608
 30
0.0
 11
31.1222964602
 21
551.6503123995
 31
0.0
  0
LINE
  5
14E
330
69
100
AcDbEntity
  8
$DDT_AUDIT_GENERATED_(93)
  6
Continuous
 62
     7
100
AcDbLine
 10
31.1222964602
 20
551.6503123995
 30
0.0
 11
31.555309162
 21
551.7150171608
 31
0.0
  0
LINE
  5
14F
330
69
100
AcDbEntity
  8
$DDT_AUDIT_GENERATED_(93)
  6
Continuous
 62
     7
100
AcDbLine
 10
31.555309162
 20
551.7150171608
 30
0.0
 11
31.555309162
 21
551.8444266834
 31
0.0
  0
LINE
  5
150
330
69
100
AcDbEntity
  8
$DDT_AUDIT_GENERATED_(93)
  6
Continuous
 62
     7
100
AcDbLine
 10
31.555309162
 20
551.8444266834
 30
0.0
 11
31.1222964602
 21
551.9091314446
 31
0.0
  0
LINE
  5
151
330
69
100
AcDbEntity
  8
$DDT_AUDIT_GENERATED_(93)
  6
Continuous
 62
     7
100
AcDbLine
 10
31.1222964602
 20
551.9091314446
 30
0.0
 11
30.6892837583
 21
551.8444266834
 31
0.0
  0
LINE
  5
152
330
69
100
AcDbEntity
  8
$DDT_AUDIT_GENERATED_(93)
  6
Continuous
 62
     7
100
AcDbLine
 10
31.655309162
 20
552.1480745021
 30
0.0
 11
31.655309162
 21
551.889255457
 31
0.0
  0
LINE
  5
153
330
69
100
AcDbEntity
  8
$DDT_AUDIT_GENERATED_(93)
  6
Continuous
 62
     7
100
AcDbLine
 10
31.2222964602
 20
552.0833697408
 30
0.0
 11
31.2222964602
 21
551.9539602182
 31
0.0
  0
LINE
  5
154
330
69
100
AcDbEntity
  8
$DDT_AUDIT_GENERATED_(93)
  6
Continuous
 62
     7
100
AcDbLine
 10
31.2222964602
 20
551.9539602182
 30
0.0
 11
31.655309162
 21
551.889255457
 31
0.0
  0
LINE
  5
155
330
69
100
AcDbEntity
  8
$DDT_AUDIT_GENERATED_(93)
  6
Continuous
 62
     7
100
AcDbLine
 10
31.655309162
 20
551.889255457
 30
0.0
 11
32.0883218639
 21
551.9539602182
 31
0.0
  0
LINE
  5
156
330
69
100
AcDbEntity
  8
$DDT_AUDIT_GENERATED_(93)
  6
Continuous
 62
     7
100
AcDbLine
 10
32.0883218639
 20
551.9539602182
 30
0.0
 11
32.0883218639
 21
552.0833697408
 31
0.0
  0
LINE
  5
157
330
69
100
AcDbEntity
  8
$DDT_AUDIT_GENERATED_(93)
  6
Continuous
 62
     7
100
AcDbLine
 10
32.0883218639
 20
552.0833697408
 30
0.0
 11
31.655309162
 21
552.1480745021
 31
0.0
  0
LINE
  5
158
330
69
100
AcDbEntity
  8
$DDT_AUDIT_GENERATED_(93)
  6
Continuous
 62
     7
100
AcDbLine
 10
31.655309162
 20
552.1480745021
 30
0.0
 11
31.2222964602
 21
552.0833697408
 31
0.0
  0
LINE
  5
159
330
69
100
AcDbEntity
  8
$DDT_AUDIT_GENERATED_(93)
  6
Continuous
 62
     7
100
AcDbLine
 10
32.1883218639
 20
552.3870175595
 30
0.0
 11
32.1883218639
 21
552.1281985144
 31
0.0
  0
LINE
  5
15A
330
69
100
AcDbEntity
  8
$DDT_AUDIT_GENERATED_(93)
  6
Continuous
 62
     7
100
AcDbLine
 10
32.1883218639
 20
552.3870175595
 30
0.0
 11
31.755309162
 21
552.3223127982
 31
0.0
  0
LINE
  5
15B
330
69
100
AcDbEntity
  8
$DDT_AUDIT_GENERATED_(93)
  6
Continuous
 62
     7
100
AcDbLine
 10
31.755309162
 20
552.3223127982
 30
0.0
 11
31.755309162
 21
552.1929032757
 31
0.0
  0
LINE
  5
15C
330
69
100
AcDbEntity
  8
$DDT_AUDIT_GENERATED_(93)
  6
Continuous
 62
     7
100
AcDbLine
 10
31.755309162
 20
552.1929032757
 30
0.0
 11
32.1883218639
 21
552.1281985144
 31
0.0
  0
LINE
  5
15D
330
69
100
AcDbEntity
  8
$DDT_AUDIT_GENERATED_(93)
  6
Continuous
 62
     7
100
AcDbLine
 10
32.1883218639
 20
552.1281985144
 30
0.0
 11
32.6213345658
 21
552.1929032757
 31
0.0
  0
LINE
  5
15E
330
69
100
AcDbEntity
  8
$DDT_AUDIT_GENERATED_(93)
  6
Continuous
 62
     7
100
AcDbLine
 10
32.6213345658
 20
552.1929032757
 30
0.0
 11
32.6213345658
 21
552.3223127982
 31
0.0
  0
LINE
  5
15F
330
69
100
AcDbEntity
  8
$DDT_AUDIT_GENERATED_(93)
  6
Continuous
 62
     7
100
AcDbLine
 10
32.6213345658
 20
552.3223127982
 30
0.0
 11
32.1883218639
 21
552.3870175595
 31
0.0
  0
LINE
  5
160
330
69
100
AcDbEntity
  8
$DDT_AUDIT_GENERATED_(93)
  6
Continuous
 62
     7
100
AcDbLine
 10
32.7213345658
 20
552.6259606169
 30
0.0
 11
32.7213345658
 21
552.3671415718
 31
0.0
  0
LINE
  5
161
330
69
100
AcDbEntity
  8
$DDT_AUDIT_GENERATED_(93)
  6
Continuous
 62
     7
100
AcDbLine
 10
32.2883218639
 20
552.5612558556
 30
0.0
 11
32.2883218639
 21
552.4318463331
 31
0.0
  0
LINE
  5
162
330
69
100
AcDbEntity
  8
$DDT_AUDIT_GENERATED_(93)
  6
Continuous
 62
     7
100
AcDbLine
 10
32.2883218639
 20
552.4318463331
 30
0.0
 11
32.7213345658
 21
552.3671415718
 31
0.0
  0
LINE
  5
163
330
69
100
AcDbEntity
  8
$DDT_AUDIT_GENERATED_(93)
  6
Continuous
 62
     7
100
AcDbLine
 10
32.7213345658
 20
552.3671415718
 30
0.0
 11
33.1543472677
 21
552.4318463331
 31
0.0
  0
LINE
  5
164
330
69
100
AcDbEntity
  8
$DDT_AUDIT_GENERATED_(93)
  6
Continuous
 62
     7
100
AcDbLine
 10
33.1543472677
 20
552.4318463331
 30
0.0
 11
33.1543472677
 21
552.5612558556
 31
0.0
  0
LINE
  5
165
330
69
100
AcDbEntity
  8
$DDT_AUDIT_GENERATED_(93)
  6
Continuous
 62
     7
100
AcDbLine
 10
33.1543472677
 20
552.5612558556
 30
0.0
 11
32.7213345658
 21
552.6259606169
 31
0.0
  0
LINE
  5
166
330
69
100
AcDbEntity
  8
$DDT_AUDIT_GENERATED_(93)
  6
Continuous
 62
     7
100
AcDbLine
 10
32.7213345658
 20
552.6259606169
 30
0.0
 11
32.2883218639
 21
552.5612558556
 31
0.0
  0
LINE
  5
167
330
69
100
AcDbEntity
  8
$DDT_AUDIT_GENERATED_(93)
  6
Continuous
 62
     7
100
AcDbLine
 10
33.2543472677
 20
552.8649036744
 30
0.0
 11
33.2543472677
 21
552.6060846293
 31
0.0
  0
LINE
  5
168
330
69
100
AcDbEntity
  8
$DDT_AUDIT_GENERATED_(93)
  6
Continuous
 62
     7
100
AcDbLine
 10
33.2543472677
 20
552.8649036744
 30
0.0
 11
32.8213345658
 21
552.8001989131
 31
0.0
  0
LINE
  5
169
330
69
100
AcDbEntity
  8
$DDT_AUDIT_GENERATED_(93)
  6
Continuous
 62
     7
100
AcDbLine
 10
32.8213345658
 20
552.8001989131
 30
0.0
 11
32.8213345658
 21
552.6707893905
 31
0.0
  0
LINE
  5
16A
330
69
100
AcDbEntity
  8
$DDT_AUDIT_GENERATED_(93)
  6
Continuous
 62
     7
100
AcDbLine
 10
32.8213345658
 20
552.6707893905
 30
0.0
 11
33.2543472677
 21
552.6060846293
 31
0.0
  0
LINE
  5
16B
330
69
100
AcDbEntity
  8
$DDT_AUDIT_GENERATED_(93)
  6
Continuous
 62
     7
100
AcDbLine
 10
33.2543472677
 20
552.6060846293
 30
0.0
 11
33.6873599696
 21
552.6707893905
 31
0.0
  0
LINE
  5
16C
330
69
100
AcDbEntity
  8
$DDT_AUDIT_GENERATED_(93)
  6
Continuous
 62
     7
100
AcDbLine
 10
33.6873599696
 20
552.6707893905
 30
0.0
 11
33.6873599696
 21
552.8001989131
 31
0.0
  0
LINE
  5
16D
330
69
100
AcDbEntity
  8
$DDT_AUDIT_GENERATED_(93)
  6
Continuous
 62
     7
100
AcDbLine
 10
33.6873599696
 20
552.8001989131
 30
0.0
 11
33.2543472677
 21
552.8649036744
 31
0.0
  0
LINE
  5
16E
330
69
100
AcDbEntity
  8
$DDT_AUDIT_GENERATED_(93)
  6
Continuous
 62
     7
100
AcDbLine
 10
33.7873599696
 20
553.1038467318
 30
0.0
 11
33.7873599696
 21
552.8450276867
 31
0.0
  0
LINE
  5
16F
330
69
100
AcDbEntity
  8
$DDT_AUDIT_GENERATED_(93)
  6
Continuous
 62
     7
100
AcDbLine
 10
33.3543472677
 20
553.0391419705
 30
0.0
 11
33.3543472677
 21
552.909732448
 31
0.0
  0
LINE
  5
170
330
69
100
AcDbEntity
  8
$DDT_AUDIT_GENERATED_(93)
  6
Continuous
 62
     7
100
AcDbLine
 10
33.3543472677
 20
552.909732448
 30
0.0
 11
33.7873599696
 21
552.8450276867
 31
0.0
  0
LINE
  5
171
330
69
100
AcDbEntity
  8
$DDT_AUDIT_GENERATED_(93)
  6
Continuous
 62
     7
100
AcDbLine
 10
33.7873599696
 20
552.8450276867
 30
0.0
 11
34.2203726715
 21
552.909732448
 31
0.0
  0
LINE
  5
172
330
69
100
AcDbEntity
  8
$DDT_AUDIT_GENERATED_(93)
  6
Continuous
 62
     7
100
AcDbLine
 10
34.2203726715
 20
552.909732448
 30
0.0
 11
34.2203726715
 21
553.0391419705
 31
0.0
  0
LINE
  5
173
330
69
100
AcDbEntity
  8
$DDT_AUDIT_GENERATED_(93)
  6
Continuous
 62
     7
100
AcDbLine
 10
34.2203726715
 20
553.0391419705
 30
0.0
 11
33.7873599696
 21
553.1038467318
 31
0.0
  0
LINE
  5
174
330
69
100
AcDbEntity
  8
$DDT_AUDIT_GENERATED_(93)
  6
Continuous
 62
     7
100
AcDbLine
 10
33.7873599696
 20
553.1038467318
 30
0.0
 11
33.3543472677
 21
553.0391419705
 31
0.0
  0
LINE
  5
175
330
69
100
AcDbEntity
  8
$DDT_AUDIT_GENERATED_(93)
  6
Continuous
 62
     7
100
AcDbLine
 10
34.3203726715
 20
553.3427897892
 30
0.0
 11
34.3203726715
 21
553.0839707441
 31
0.0
  0
LINE
  5
176
330
69
100
AcDbEntity
  8
$DDT_AUDIT_GENERATED_(93)
  6
Continuous
 62
     7
100
AcDbLine
 10
33.8873599696
 20
553.2780850279
 30
0.0
 11
33.8873599696
 21
553.1486755054
 31
0.0
  0
LINE
  5
177
330
69
100
AcDbEntity
  8
$DDT_AUDIT_GENERATED_(93)
  6
Continuous
 62
     7
100
AcDbLine
 10
33.8873599696
 20
553.1486755054
 30
0.0
 11
34.3203726715
 21
553.0839707441
 31
0.0
  0
LINE
  5
178
330
69
100
AcDbEntity
  8
$DDT_AUDIT_GENERATED_(93)
  6
Continuous
 62
     7
100
AcDbLine
 10
34.3203726715
 20
553.0839707441
 30
0.0
 11
34.7533853733
 21
553.1486755054
 31
0.0
  0
LINE
  5
179
330
69
100
AcDbEntity
  8
$DDT_AUDIT_GENERATED_(93)
  6
Continuous
 62
     7
100
AcDbLine
 10
34.7533853733
 20
553.1486755054
 30
0.0
 11
34.7533853733
 21
553.2780850279
 31
0.0
  0
LINE
  5
17A
330
69
100
AcDbEntity
  8
$DDT_AUDIT_GENERATED_(93)
  6
Continuous
 62
     7
100
AcDbLine
 10
35.3863980752
 20
553.3436829335
 30
0.0
 11
35.3863980752
 21
553.0830775998
 31
0.0
  0
LINE
  5
17B
330
69
100
AcDbEntity
  8
$DDT_AUDIT_GENERATED_(93)
  6
Continuous
 62
     7
100
AcDbLine
 10
34.9533853733
 20
553.2789781723
 30
0.0
 11
34.9533853733
 21
553.1477823611
 31
0.0
  0
LINE
  5
17C
330
69
100
AcDbEntity
  8
$DDT_AUDIT_GENERATED_(93)
  6
Continuous
 62
     7
100
AcDbLine
 10
34.9533853733
 20
553.1477823611
 30
0.0
 11
35.3863980752
 21
553.0830775998
 31
0.0
  0
LINE
  5
17D
330
69
100
AcDbEntity
  8
$DDT_AUDIT_GENERATED_(93)
  6
Continuous
 62
     7
100
AcDbLine
 10
35.3863980752
 20
553.0830775998
 30
0.0
 11
35.8194107771
 21
553.1477823611
 31
0.0
  0
LINE
  5
17E
330
69
100
AcDbEntity
  8
$DDT_AUDIT_GENERATED_(93)
  6
Continuous
 62
     7
100
AcDbLine
 10
35.8194107771
 20
553.1477823611
 30
0.0
 11
35.8194107771
 21
553.2789781723
 31
0.0
  0
LINE
  5
17F
330
69
100
AcDbEntity
  8
$DDT_AUDIT_GENERATED_(93)
  6
Continuous
 62
     7
100
AcDbLine
 10
34.8533853733
 20
553.1038467318
 30
0.0
 11
34.8533853733
 21
552.8450276867
 31
0.0
  0
LINE
  5
180
330
69
100
AcDbEntity
  8
$DDT_AUDIT_GENERATED_(93)
  6
Continuous
 62
     7
100
AcDbLine
 10
35.2863980752
 20
553.0391419705
 30
0.0
 11
34.8533853733
 21
553.1038467318
 31
0.0
  0
LINE
  5
181
330
69
100
AcDbEntity
  8
$DDT_AUDIT_GENERATED_(93)
  6
Continuous
 62
     7
100
AcDbLine
 10
34.8533853733
 20
553.1038467318
 30
0.0
 11
34.4203726715
 21
553.0391419705
 31
0.0
  0
LINE
  5
182
330
69
100
AcDbEntity
  8
$DDT_AUDIT_GENERATED_(93)
  6
Continuous
 62
     7
100
AcDbLine
 10
34.4203726715
 20
553.0391419705
 30
0.0
 11
34.4203726715
 21
552.909732448
 31
0.0
  0
LINE
  5
183
330
69
100
AcDbEntity
  8
$DDT_AUDIT_GENERATED_(93)
  6
Continuous
 62
     7
100
AcDbLine
 10
34.4203726715
 20
552.909732448
 30
0.0
 11
34.8533853733
 21
552.8450276867
 31
0.0
  0
LINE
  5
184
330
69
100
AcDbEntity
  8
$DDT_AUDIT_GENERATED_(93)
  6
Continuous
 62
     7
100
AcDbLine
 10
34.8533853733
 20
552.8450276867
 30
0.0
 11
35.2863980752
 21
552.909732448
 31
0.0
  0
LINE
  5
185
330
69
100
AcDbEntity
  8
$DDT_AUDIT_GENERATED_(93)
  6
Continuous
 62
     7
100
AcDbLine
 10
35.2863980752
 20
552.909732448
 30
0.0
 11
35.2863980752
 21
553.0391419705
 31
0.0
  0
LINE
  5
186
330
69
100
AcDbEntity
  8
$DDT_AUDIT_GENERATED_(93)
  6
Continuous
 62
     7
100
AcDbLine
 10
34.3203726715
 20
552.8649036744
 30
0.0
 11
34.3203726715
 21
552.6060846293
 31
0.0
  0
LINE
  5
187
330
69
100
AcDbEntity
  8
$DDT_AUDIT_GENERATED_(93)
  6
Continuous
 62
     7
100
AcDbLine
 10
34.7533853733
 20
552.6707893905
 30
0.0
 11
34.7533853733
 21
552.8001989131
 31
0.0
  0
LINE
  5
188
330
69
100
AcDbEntity
  8
$DDT_AUDIT_GENERATED_(93)
  6
Continuous
 62
     7
100
AcDbLine
 10
34.7533853733
 20
552.8001989131
 30
0.0
 11
34.3203726715
 21
552.8649036744
 31
0.0
  0
LINE
  5
189
330
69
100
AcDbEntity
  8
$DDT_AUDIT_GENERATED_(93)
  6
Continuous
 62
     7
100
AcDbLine
 10
34.3203726715
 20
552.8649036744
 30
0.0
 11
33.8873599696
 21
552.8001989131
 31
0.0
  0
LINE
  5
18A
330
69
100
AcDbEntity
  8
$DDT_AUDIT_GENERATED_(93)
  6
Continuous
 62
     7
100
AcDbLine
 10
33.8873599696
 20
552.8001989131
 30
0.0
 11
33.8873599696
 21
552.6707893905
 31
0.0
  0
LINE
  5
18B
330
69
100
AcDbEntity
  8
$DDT_AUDIT_GENERATED_(93)
  6
Continuous
 62
     7
100
AcDbLine
 10
33.8873599696
 20
552.6707893905
 30
0.0
 11
34.3203726715
 21
552.6060846293
 31
0.0
  0
LINE
  5
18C
330
69
100
AcDbEntity
  8
$DDT_AUDIT_GENERATED_(93)
  6
Continuous
 62
     7
100
AcDbLine
 10
34.3203726715
 20
552.6060846293
 30
0.0
 11
34.7533853733
 21
552.6707893905
 31
0.0
  0
LINE
  5
18D
330
69
100
AcDbEntity
  8
$DDT_AUDIT_GENERATED_(93)
  6
Continuous
 62
     7
100
AcDbLine
 10
35.9194107771
 20
553.1029535874
 30
0.0
 11
35.9194107771
 21
552.8441345424
 31
0.0
  0
LINE
  5
18E
330
69
100
AcDbEntity
  8
$DDT_AUDIT_GENERATED_(93)
  6
Continuous
 62
     7
100
AcDbLine
 10
36.352423479
 20
553.0382488262
 30
0.0
 11
35.9194107771
 21
553.1029535874
 31
0.0
  0
LINE
  5
18F
330
69
100
AcDbEntity
  8
$DDT_AUDIT_GENERATED_(93)
  6
Continuous
 62
     7
100
AcDbLine
 10
35.9194107771
 20
553.1029535874
 30
0.0
 11
35.4863980752
 21
553.0382488262
 31
0.0
  0
LINE
  5
190
330
69
100
AcDbEntity
  8
$DDT_AUDIT_GENERATED_(93)
  6
Continuous
 62
     7
100
AcDbLine
 10
35.4863980752
 20
553.0382488262
 30
0.0
 11
35.4863980752
 21
552.9088393036
 31
0.0
  0
LINE
  5
191
330
69
100
AcDbEntity
  8
$DDT_AUDIT_GENERATED_(93)
  6
Continuous
 62
     7
100
AcDbLine
 10
35.4863980752
 20
552.9088393036
 30
0.0
 11
35.9194107771
 21
552.8441345424
 31
0.0
  0
LINE
  5
192
330
69
100
AcDbEntity
  8
$DDT_AUDIT_GENERATED_(93)
  6
Continuous
 62
     7
100
AcDbLine
 10
35.9194107771
 20
552.8441345424
 30
0.0
 11
36.352423479
 21
552.9088393036
 31
0.0
  0
LINE
  5
193
330
69
100
AcDbEntity
  8
$DDT_AUDIT_GENERATED_(93)
  6
Continuous
 62
     7
100
AcDbLine
 10
36.352423479
 20
552.9088393036
 30
0.0
 11
36.352423479
 21
553.0382488262
 31
0.0
  0
LINE
  5
194
330
69
100
AcDbEntity
  8
$DDT_AUDIT_GENERATED_(93)
  6
Continuous
 62
     7
100
AcDbLine
 10
36.452423479
 20
553.3436829335
 30
0.0
 11
36.452423479
 21
553.0830775998
 31
0.0
  0
LINE
  5
195
330
69
100
AcDbEntity
  8
$DDT_AUDIT_GENERATED_(93)
  6
Continuous
 62
     7
100
AcDbLine
 10
36.0194107771
 20
553.2789781723
 30
0.0
 11
36.0194107771
 21
553.1477823611
 31
0.0
  0
LINE
  5
196
330
69
100
AcDbEntity
  8
$DDT_AUDIT_GENERATED_(93)
  6
Continuous
 62
     7
100
AcDbLine
 10
36.0194107771
 20
553.1477823611
 30
0.0
 11
36.452423479
 21
553.0830775998
 31
0.0
  0
LINE
  5
197
330
69
100
AcDbEntity
  8
$DDT_AUDIT_GENERATED_(93)
  6
Continuous
 62
     7
100
AcDbLine
 10
36.452423479
 20
553.0830775998
 30
0.0
 11
36.8322878637
 21
553.1398404481
 31
0.0
  0
LINE
  5
198
330
69
100
AcDbEntity
  8
$DDT_AUDIT_GENERATED_(93)
  6
Continuous
 62
     7
100
AcDbLine
 10
36.873452502
 20
553.0829294412
 30
0.0
 11
36.873452502
 21
552.860868179
 31
0.0
  0
LINE
  5
199
330
69
100
AcDbEntity
  8
$DDT_AUDIT_GENERATED_(93)
  6
Continuous
 62
     7
100
AcDbLine
 10
36.8714472484
 20
553.0859203073
 30
0.0
 11
36.552423479
 21
553.0382488262
 31
0.0
  0
LINE
  5
19A
330
69
100
AcDbEntity
  8
$DDT_AUDIT_GENERATED_(93)
  6
Continuous
 62
     7
100
AcDbLine
 10
36.552423479
 20
553.0382488262
 30
0.0
 11
36.552423479
 21
552.9088393036
 31
0.0
  0
LINE
  5
19B
330
69
100
AcDbEntity
  8
$DDT_AUDIT_GENERATED_(93)
  6
Continuous
 62
     7
100
AcDbLine
 10
36.552423479
 20
552.9088393036
 30
0.0
 11
36.873452502
 21
552.860868179
 31
0.0
  0
ELLIPSE
  5
19C
330
69
100
AcDbEntity
  8
$DDT_AUDIT_GENERATED_(93)
  6
Continuous
 62
     7
100
AcDbEllipse
 10
28.9902454609
 20
553.2133802759
 30
0.0
 11
8.000000191719097
 21
-9.727173927442934E-9
 31
0.0
210
0.0
220
0.0
230
1.0
 40
0.2588190422
 41
-0.1975955037324244
 42
-0.1710836337804196
  0
LINE
  5
19D
330
69
100
AcDbEntity
  8
$DDT_AUDIT_GENERATED_(93)
  6
Continuous
 62
     7
100
AcDbLine
 10
36.452423479
 20
552.86401053
 30
0.0
 11
36.452423479
 21
552.6051914849
 31
0.0
  0
LINE
  5
19E
330
69
100
AcDbEntity
  8
$DDT_AUDIT_GENERATED_(93)
  6
Continuous
 62
     7
100
AcDbLine
 10
36.6757907815
 20
552.8306329226
 30
0.0
 11
36.6757907815
 21
552.6385690924
 31
0.0
  0
LINE
  5
19F
330
69
100
AcDbEntity
  8
$DDT_AUDIT_GENERATED_(93)
  6
Continuous
 62
     7
100
AcDbLine
 10
36.8345771994
 20
552.806905588
 30
0.0
 11
36.452423479
 21
552.86401053
 31
0.0
  0
LINE
  5
1A0
330
69
100
AcDbEntity
  8
$DDT_AUDIT_GENERATED_(93)
  6
Continuous
 62
     7
100
AcDbLine
 10
36.452423479
 20
552.86401053
 30
0.0
 11
36.0194107771
 21
552.7993057687
 31
0.0
  0
LINE
  5
1A1
330
69
100
AcDbEntity
  8
$DDT_AUDIT_GENERATED_(93)
  6
Continuous
 62
     7
100
AcDbLine
 10
36.0194107771
 20
552.7993057687
 30
0.0
 11
36.0194107771
 21
552.6698962462
 31
0.0
  0
LINE
  5
1A2
330
69
100
AcDbEntity
  8
$DDT_AUDIT_GENERATED_(93)
  6
Continuous
 62
     7
100
AcDbLine
 10
36.0194107771
 20
552.6698962462
 30
0.0
 11
36.452423479
 21
552.6051914849
 31
0.0
  0
LINE
  5
1A3
330
69
100
AcDbEntity
  8
$DDT_AUDIT_GENERATED_(93)
  6
Continuous
 62
     7
100
AcDbLine
 10
36.452423479
 20
552.6051914849
 30
0.0
 11
36.6757907815
 21
552.6385690924
 31
0.0
  0
LINE
  5
1A4
330
69
100
AcDbEntity
  8
$DDT_AUDIT_GENERATED_(93)
  6
Continuous
 62
     7
100
AcDbLine
 10
35.3863980752
 20
552.8649036744
 30
0.0
 11
35.3863980752
 21
552.6060846293
 31
0.0
  0
LINE
  5
1A5
330
69
100
AcDbEntity
  8
$DDT_AUDIT_GENERATED_(93)
  6
Continuous
 62
     7
100
AcDbLine
 10
35.3863980752
 20
552.6060846293
 30
0.0
 11
35.8194107771
 21
552.6707893905
 31
0.0
  0
LINE
  5
1A6
330
69
100
AcDbEntity
  8
$DDT_AUDIT_GENERATED_(93)
  6
Continuous
 62
     7
100
AcDbLine
 10
35.8194107771
 20
552.6707893905
 30
0.0
 11
35.8194107771
 21
552.8001989131
 31
0.0
  0
LINE
  5
1A7
330
69
100
AcDbEntity
  8
$DDT_AUDIT_GENERATED_(93)
  6
Continuous
 62
     7
100
AcDbLine
 10
35.8194107771
 20
552.8001989131
 30
0.0
 11
35.3863980752
 21
552.8649036744
 31
0.0
  0
LINE
  5
1A8
330
69
100
AcDbEntity
  8
$DDT_AUDIT_GENERATED_(93)
  6
Continuous
 62
     7
100
AcDbLine
 10
35.3863980752
 20
552.8649036744
 30
0.0
 11
34.9533853733
 21
552.8001989131
 31
0.0
  0
LINE
  5
1A9
330
69
100
AcDbEntity
  8
$DDT_AUDIT_GENERATED_(93)
  6
Continuous
 62
     7
100
AcDbLine
 10
34.9533853733
 20
552.8001989131
 30
0.0
 11
34.9533853733
 21
552.6707893905
 31
0.0
  0
LINE
  5
1AA
330
69
100
AcDbEntity
  8
$DDT_AUDIT_GENERATED_(93)
  6
Continuous
 62
     7
100
AcDbLine
 10
34.9533853733
 20
552.6707893905
 30
0.0
 11
35.3863980752
 21
552.6060846293
 31
0.0
  0
LINE
  5
1AB
330
69
100
AcDbEntity
  8
$DDT_AUDIT_GENERATED_(93)
  6
Continuous
 62
     7
100
AcDbLine
 10
35.9194107771
 20
552.6259606169
 30
0.0
 11
35.9194107771
 21
552.3671415718
 31
0.0
  0
LINE
  5
1AC
330
69
100
AcDbEntity
  8
$DDT_AUDIT_GENERATED_(93)
  6
Continuous
 62
     7
100
AcDbLine
 10
36.352423479
 20
552.5612558556
 30
0.0
 11
35.9194107771
 21
552.6259606169
 31
0.0
  0
LINE
  5
1AD
330
69
100
AcDbEntity
  8
$DDT_AUDIT_GENERATED_(93)
  6
Continuous
 62
     7
100
AcDbLine
 10
35.9194107771
 20
552.6259606169
 30
0.0
 11
35.4863980752
 21
552.5612558556
 31
0.0
  0
LINE
  5
1AE
330
69
100
AcDbEntity
  8
$DDT_AUDIT_GENERATED_(93)
  6
Continuous
 62
     7
100
AcDbLine
 10
35.4863980752
 20
552.5612558556
 30
0.0
 11
35.4863980752
 21
552.4318463331
 31
0.0
  0
LINE
  5
1AF
330
69
100
AcDbEntity
  8
$DDT_AUDIT_GENERATED_(93)
  6
Continuous
 62
     7
100
AcDbLine
 10
35.4863980752
 20
552.4318463331
 30
0.0
 11
35.9194107771
 21
552.3671415718
 31
0.0
  0
LINE
  5
1B0
330
69
100
AcDbEntity
  8
$DDT_AUDIT_GENERATED_(93)
  6
Continuous
 62
     7
100
AcDbLine
 10
35.9194107771
 20
552.3671415718
 30
0.0
 11
36.352423479
 21
552.4318463331
 31
0.0
  0
LINE
  5
1B1
330
69
100
AcDbEntity
  8
$DDT_AUDIT_GENERATED_(93)
  6
Continuous
 62
     7
100
AcDbLine
 10
36.352423479
 20
552.4318463331
 30
0.0
 11
36.352423479
 21
552.5612558556
 31
0.0
  0
LINE
  5
1B2
330
69
100
AcDbEntity
  8
$DDT_AUDIT_GENERATED_(93)
  6
Continuous
 62
     7
100
AcDbLine
 10
33.7873599696
 20
552.6259606169
 30
0.0
 11
33.7873599696
 21
552.3671415718
 31
0.0
  0
LINE
  5
1B3
330
69
100
AcDbEntity
  8
$DDT_AUDIT_GENERATED_(93)
  6
Continuous
 62
     7
100
AcDbLine
 10
34.2203726715
 20
552.4318463331
 30
0.0
 11
34.2203726715
 21
552.5612558556
 31
0.0
  0
LINE
  5
1B4
330
69
100
AcDbEntity
  8
$DDT_AUDIT_GENERATED_(93)
  6
Continuous
 62
     7
100
AcDbLine
 10
34.2203726715
 20
552.5612558556
 30
0.0
 11
33.7873599696
 21
552.6259606169
 31
0.0
  0
LINE
  5
1B5
330
69
100
AcDbEntity
  8
$DDT_AUDIT_GENERATED_(93)
  6
Continuous
 62
     7
100
AcDbLine
 10
33.7873599696
 20
552.6259606169
 30
0.0
 11
33.3543472677
 21
552.5612558556
 31
0.0
  0
LINE
  5
1B6
330
69
100
AcDbEntity
  8
$DDT_AUDIT_GENERATED_(93)
  6
Continuous
 62
     7
100
AcDbLine
 10
33.3543472677
 20
552.5612558556
 30
0.0
 11
33.3543472677
 21
552.4318463331
 31
0.0
  0
LINE
  5
1B7
330
69
100
AcDbEntity
  8
$DDT_AUDIT_GENERATED_(93)
  6
Continuous
 62
     7
100
AcDbLine
 10
33.3543472677
 20
552.4318463331
 30
0.0
 11
33.7873599696
 21
552.3671415718
 31
0.0
  0
LINE
  5
1B8
330
69
100
AcDbEntity
  8
$DDT_AUDIT_GENERATED_(93)
  6
Continuous
 62
     7
100
AcDbLine
 10
33.7873599696
 20
552.3671415718
 30
0.0
 11
34.2203726715
 21
552.4318463331
 31
0.0
  0
LINE
  5
1B9
330
69
100
AcDbEntity
  8
$DDT_AUDIT_GENERATED_(93)
  6
Continuous
 62
     7
100
AcDbLine
 10
34.8533853733
 20
552.6259606169
 30
0.0
 11
34.8533853733
 21
552.3671415718
 31
0.0
  0
LINE
  5
1BA
330
69
100
AcDbEntity
  8
$DDT_AUDIT_GENERATED_(93)
  6
Continuous
 62
     7
100
AcDbLine
 10
34.8533853733
 20
552.6259606169
 30
0.0
 11
34.4203726715
 21
552.5612558556
 31
0.0
  0
LINE
  5
1BB
330
69
100
AcDbEntity
  8
$DDT_AUDIT_GENERATED_(93)
  6
Continuous
 62
     7
100
AcDbLine
 10
34.4203726715
 20
552.5612558556
 30
0.0
 11
34.4203726715
 21
552.4318463331
 31
0.0
  0
LINE
  5
1BC
330
69
100
AcDbEntity
  8
$DDT_AUDIT_GENERATED_(93)
  6
Continuous
 62
     7
100
AcDbLine
 10
34.4203726715
 20
552.4318463331
 30
0.0
 11
34.8533853733
 21
552.3671415718
 31
0.0
  0
LINE
  5
1BD
330
69
100
AcDbEntity
  8
$DDT_AUDIT_GENERATED_(93)
  6
Continuous
 62
     7
100
AcDbLine
 10
34.8533853733
 20
552.3671415718
 30
0.0
 11
35.2863980752
 21
552.4318463331
 31
0.0
  0
LINE
  5
1BE
330
69
100
AcDbEntity
  8
$DDT_AUDIT_GENERATED_(93)
  6
Continuous
 62
     7
100
AcDbLine
 10
35.2863980752
 20
552.4318463331
 30
0.0
 11
35.2863980752
 21
552.5612558556
 31
0.0
  0
LINE
  5
1BF
330
69
100
AcDbEntity
  8
$DDT_AUDIT_GENERATED_(93)
  6
Continuous
 62
     7
100
AcDbLine
 10
35.2863980752
 20
552.5612558556
 30
0.0
 11
34.8533853733
 21
552.6259606169
 31
0.0
  0
LINE
  5
1C0
330
69
100
AcDbEntity
  8
$DDT_AUDIT_GENERATED_(93)
  6
Continuous
 62
     7
100
AcDbLine
 10
35.3863980752
 20
552.3870175595
 30
0.0
 11
35.3863980752
 21
552.1281985144
 31
0.0
  0
LINE
  5
1C1
330
69
100
AcDbEntity
  8
$DDT_AUDIT_GENERATED_(93)
  6
Continuous
 62
     7
100
AcDbLine
 10
35.3863980752
 20
552.3870175595
 30
0.0
 11
34.9533853733
 21
552.3223127982
 31
0.0
  0
LINE
  5
1C2
330
69
100
AcDbEntity
  8
$DDT_AUDIT_GENERATED_(93)
  6
Continuous
 62
     7
100
AcDbLine
 10
34.9533853733
 20
552.3223127982
 30
0.0
 11
34.9533853733
 21
552.1929032757
 31
0.0
  0
LINE
  5
1C3
330
69
100
AcDbEntity
  8
$DDT_AUDIT_GENERATED_(93)
  6
Continuous
 62
     7
100
AcDbLine
 10
34.9533853733
 20
552.1929032757
 30
0.0
 11
35.3863980752
 21
552.1281985144
 31
0.0
  0
LINE
  5
1C4
330
69
100
AcDbEntity
  8
$DDT_AUDIT_GENERATED_(93)
  6
Continuous
 62
     7
100
AcDbLine
 10
35.3863980752
 20
552.1281985144
 30
0.0
 11
35.8194107771
 21
552.1929032757
 31
0.0
  0
LINE
  5
1C5
330
69
100
AcDbEntity
  8
$DDT_AUDIT_GENERATED_(93)
  6
Continuous
 62
     7
100
AcDbLine
 10
35.8194107771
 20
552.1929032757
 30
0.0
 11
35.8194107771
 21
552.3223127982
 31
0.0
  0
LINE
  5
1C6
330
69
100
AcDbEntity
  8
$DDT_AUDIT_GENERATED_(93)
  6
Continuous
 62
     7
100
AcDbLine
 10
35.8194107771
 20
552.3223127982
 30
0.0
 11
35.3863980752
 21
552.3870175595
 31
0.0
  0
LINE
  5
1C7
330
69
100
AcDbEntity
  8
$DDT_AUDIT_GENERATED_(93)
  6
Continuous
 62
     7
100
AcDbLine
 10
34.3203726715
 20
552.3870175595
 30
0.0
 11
34.3203726715
 21
552.1281985144
 31
0.0
  0
LINE
  5
1C8
330
69
100
AcDbEntity
  8
$DDT_AUDIT_GENERATED_(93)
  6
Continuous
 62
     7
100
AcDbLine
 10
34.3203726715
 20
552.1281985144
 30
0.0
 11
34.7533853733
 21
552.1929032757
 31
0.0
  0
LINE
  5
1C9
330
69
100
AcDbEntity
  8
$DDT_AUDIT_GENERATED_(93)
  6
Continuous
 62
     7
100
AcDbLine
 10
34.7533853733
 20
552.1929032757
 30
0.0
 11
34.7533853733
 21
552.3223127982
 31
0.0
  0
LINE
  5
1CA
330
69
100
AcDbEntity
  8
$DDT_AUDIT_GENERATED_(93)
  6
Continuous
 62
     7
100
AcDbLine
 10
34.7533853733
 20
552.3223127982
 30
0.0
 11
34.3203726715
 21
552.3870175595
 31
0.0
  0
LINE
  5
1CB
330
69
100
AcDbEntity
  8
$DDT_AUDIT_GENERATED_(93)
  6
Continuous
 62
     7
100
AcDbLine
 10
34.3203726715
 20
552.3870175595
 30
0.0
 11
33.8873599696
 21
552.3223127982
 31
0.0
  0
LINE
  5
1CC
330
69
100
AcDbEntity
  8
$DDT_AUDIT_GENERATED_(93)
  6
Continuous
 62
     7
100
AcDbLine
 10
33.8873599696
 20
552.3223127982
 30
0.0
 11
33.8873599696
 21
552.1929032757
 31
0.0
  0
LINE
  5
1CD
330
69
100
AcDbEntity
  8
$DDT_AUDIT_GENERATED_(93)
  6
Continuous
 62
     7
100
AcDbLine
 10
33.8873599696
 20
552.1929032757
 30
0.0
 11
34.3203726715
 21
552.1281985144
 31
0.0
  0
LINE
  5
1CE
330
69
100
AcDbEntity
  8
$DDT_AUDIT_GENERATED_(93)
  6
Continuous
 62
     7
100
AcDbLine
 10
33.2543472677
 20
552.3870175595
 30
0.0
 11
33.2543472677
 21
552.1281985144
 31
0.0
  0
LINE
  5
1CF
330
69
100
AcDbEntity
  8
$DDT_AUDIT_GENERATED_(93)
  6
Continuous
 62
     7
100
AcDbLine
 10
33.2543472677
 20
552.1281985144
 30
0.0
 11
33.6873599696
 21
552.1929032757
 31
0.0
  0
LINE
  5
1D0
330
69
100
AcDbEntity
  8
$DDT_AUDIT_GENERATED_(93)
  6
Continuous
 62
     7
100
AcDbLine
 10
33.6873599696
 20
552.1929032757
 30
0.0
 11
33.6873599696
 21
552.3223127982
 31
0.0
  0
LINE
  5
1D1
330
69
100
AcDbEntity
  8
$DDT_AUDIT_GENERATED_(93)
  6
Continuous
 62
     7
100
AcDbLine
 10
33.6873599696
 20
552.3223127982
 30
0.0
 11
33.2543472677
 21
552.3870175595
 31
0.0
  0
LINE
  5
1D2
330
69
100
AcDbEntity
  8
$DDT_AUDIT_GENERATED_(93)
  6
Continuous
 62
     7
100
AcDbLine
 10
33.2543472677
 20
552.3870175595
 30
0.0
 11
32.8213345658
 21
552.3223127982
 31
0.0
  0
LINE
  5
1D3
330
69
100
AcDbEntity
  8
$DDT_AUDIT_GENERATED_(93)
  6
Continuous
 62
     7
100
AcDbLine
 10
32.8213345658
 20
552.3223127982
 30
0.0
 11
32.8213345658
 21
552.1929032757
 31
0.0
  0
LINE
  5
1D4
330
69
100
AcDbEntity
  8
$DDT_AUDIT_GENERATED_(93)
  6
Continuous
 62
     7
100
AcDbLine
 10
32.8213345658
 20
552.1929032757
 30
0.0
 11
33.2543472677
 21
552.1281985144
 31
0.0
  0
LINE
  5
1D5
330
69
100
AcDbEntity
  8
$DDT_AUDIT_GENERATED_(93)
  6
Continuous
 62
     7
100
AcDbLine
 10
33.7873599696
 20
552.1480745021
 30
0.0
 11
33.7873599696
 21
551.889255457
 31
0.0
  0
LINE
  5
1D6
330
69
100
AcDbEntity
  8
$DDT_AUDIT_GENERATED_(93)
  6
Continuous
 62
     7
100
AcDbLine
 10
34.2203726715
 20
551.9539602182
 30
0.0
 11
34.2203726715
 21
552.0833697408
 31
0.0
  0
LINE
  5
1D7
330
69
100
AcDbEntity
  8
$DDT_AUDIT_GENERATED_(93)
  6
Continuous
 62
     7
100
AcDbLine
 10
34.2203726715
 20
552.0833697408
 30
0.0
 11
33.7873599696
 21
552.1480745021
 31
0.0
  0
LINE
  5
1D8
330
69
100
AcDbEntity
  8
$DDT_AUDIT_GENERATED_(93)
  6
Continuous
 62
     7
100
AcDbLine
 10
33.7873599696
 20
552.1480745021
 30
0.0
 11
33.3543472677
 21
552.0833697408
 31
0.0
  0
LINE
  5
1D9
330
69
100
AcDbEntity
  8
$DDT_AUDIT_GENERATED_(93)
  6
Continuous
 62
     7
100
AcDbLine
 10
33.3543472677
 20
552.0833697408
 30
0.0
 11
33.3543472677
 21
551.9539602182
 31
0.0
  0
LINE
  5
1DA
330
69
100
AcDbEntity
  8
$DDT_AUDIT_GENERATED_(93)
  6
Continuous
 62
     7
100
AcDbLine
 10
33.3543472677
 20
551.9539602182
 30
0.0
 11
33.7873599696
 21
551.889255457
 31
0.0
  0
LINE
  5
1DB
330
69
100
AcDbEntity
  8
$DDT_AUDIT_GENERATED_(93)
  6
Continuous
 62
     7
100
AcDbLine
 10
33.7873599696
 20
551.889255457
 30
0.0
 11
34.2203726715
 21
551.9539602182
 31
0.0
  0
LINE
  5
1DC
330
69
100
AcDbEntity
  8
$DDT_AUDIT_GENERATED_(93)
  6
Continuous
 62
     7
100
AcDbLine
 10
34.8533853733
 20
552.1480745021
 30
0.0
 11
34.8533853733
 21
551.889255457
 31
0.0
  0
LINE
  5
1DD
330
69
100
AcDbEntity
  8
$DDT_AUDIT_GENERATED_(93)
  6
Continuous
 62
     7
100
AcDbLine
 10
34.8533853733
 20
552.1480745021
 30
0.0
 11
34.4203726715
 21
552.0833697408
 31
0.0
  0
LINE
  5
1DE
330
69
100
AcDbEntity
  8
$DDT_AUDIT_GENERATED_(93)
  6
Continuous
 62
     7
100
AcDbLine
 10
34.4203726715
 20
552.0833697408
 30
0.0
 11
34.4203726715
 21
551.9539602182
 31
0.0
  0
LINE
  5
1DF
330
69
100
AcDbEntity
  8
$DDT_AUDIT_GENERATED_(93)
  6
Continuous
 62
     7
100
AcDbLine
 10
34.4203726715
 20
551.9539602182
 30
0.0
 11
34.8533853733
 21
551.889255457
 31
0.0
  0
LINE
  5
1E0
330
69
100
AcDbEntity
  8
$DDT_AUDIT_GENERATED_(93)
  6
Continuous
 62
     7
100
AcDbLine
 10
34.8533853733
 20
551.889255457
 30
0.0
 11
35.2863980752
 21
551.9539602182
 31
0.0
  0
LINE
  5
1E1
330
69
100
AcDbEntity
  8
$DDT_AUDIT_GENERATED_(93)
  6
Continuous
 62
     7
100
AcDbLine
 10
35.2863980752
 20
551.9539602182
 30
0.0
 11
35.2863980752
 21
552.0833697408
 31
0.0
  0
LINE
  5
1E2
330
69
100
AcDbEntity
  8
$DDT_AUDIT_GENERATED_(93)
  6
Continuous
 62
     7
100
AcDbLine
 10
35.2863980752
 20
552.0833697408
 30
0.0
 11
34.8533853733
 21
552.1480745021
 31
0.0
  0
ELLIPSE
  5
1E3
330
69
100
AcDbEntity
  8
$DDT_AUDIT_GENERATED_(93)
  6
Continuous
 62
     7
100
AcDbEllipse
 10
28.9902456887
 20
553.213380258
 30
0.0
 11
7.999999962215055
 21
6.801666868616607E-9
 31
0.0
210
0.0
220
0.0
230
1.0
 40
0.2588190452
 41
-0.7664283108418326
 42
-0.7296729473672245
  0
LINE
  5
1E4
330
69
100
AcDbEntity
  8
$DDT_AUDIT_GENERATED_(93)
  6
Continuous
 62
     7
100
AcDbLine
 10
34.2701324227
 20
551.9016240822
 30
0.0
 11
34.2701324227
 21
551.657819762
 31
0.0
  0
LINE
  5
1E5
330
69
100
AcDbEntity
  8
$DDT_AUDIT_GENERATED_(93)
  6
Continuous
 62
     7
100
AcDbLine
 10
34.7533853733
 20
551.8444266834
 30
0.0
 11
34.3203726715
 21
551.9091314446
 31
0.0
  0
LINE
  5
1E6
330
69
100
AcDbEntity
  8
$DDT_AUDIT_GENERATED_(93)
  6
Continuous
 62
     7
100
AcDbLine
 10
34.3203726715
 20
551.9091314446
 30
0.0
 11
33.8873599696
 21
551.8444266834
 31
0.0
  0
LINE
  5
1E7
330
69
100
AcDbEntity
  8
$DDT_AUDIT_GENERATED_(93)
  6
Continuous
 62
     7
100
AcDbLine
 10
33.8873599696
 20
551.8444266834
 30
0.0
 11
33.8873599696
 21
551.7150171608
 31
0.0
  0
LINE
  5
1E8
330
69
100
AcDbEntity
  8
$DDT_AUDIT_GENERATED_(93)
  6
Continuous
 62
     7
100
AcDbLine
 10
33.8873599696
 20
551.7150171608
 30
0.0
 11
34.2701324227
 21
551.657819762
 31
0.0
  0
LINE
  5
1E9
330
69
100
AcDbEntity
  8
$DDT_AUDIT_GENERATED_(93)
  6
Continuous
 62
     7
100
AcDbLine
 10
34.7533853733
 20
551.7773142047
 30
0.0
 11
34.7533853733
 21
551.8444266834
 31
0.0
  0
LINE
  5
1EA
330
69
100
AcDbEntity
  8
$DDT_AUDIT_GENERATED_(93)
  6
Continuous
 62
     7
100
AcDbLine
 10
33.2543472677
 20
551.9091314446
 30
0.0
 11
33.2543472677
 21
551.6503123995
 31
0.0
  0
LINE
  5
1EB
330
69
100
AcDbEntity
  8
$DDT_AUDIT_GENERATED_(93)
  6
Continuous
 62
     7
100
AcDbLine
 10
33.6873599696
 20
551.7150171608
 30
0.0
 11
33.6873599696
 21
551.8444266834
 31
0.0
  0
LINE
  5
1EC
330
69
100
AcDbEntity
  8
$DDT_AUDIT_GENERATED_(93)
  6
Continuous
 62
     7
100
AcDbLine
 10
33.6873599696
 20
551.8444266834
 30
0.0
 11
33.2543472677
 21
551.9091314446
 31
0.0
  0
LINE
  5
1ED
330
69
100
AcDbEntity
  8
$DDT_AUDIT_GENERATED_(93)
  6
Continuous
 62
     7
100
AcDbLine
 10
33.2543472677
 20
551.9091314446
 30
0.0
 11
32.8213345658
 21
551.8444266834
 31
0.0
  0
LINE
  5
1EE
330
69
100
AcDbEntity
  8
$DDT_AUDIT_GENERATED_(93)
  6
Continuous
 62
     7
100
AcDbLine
 10
32.8213345658
 20
551.8444266834
 30
0.0
 11
32.8213345658
 21
551.7150171608
 31
0.0
  0
LINE
  5
1EF
330
69
100
AcDbEntity
  8
$DDT_AUDIT_GENERATED_(93)
  6
Continuous
 62
     7
100
AcDbLine
 10
32.8213345658
 20
551.7150171608
 30
0.0
 11
33.2543472677
 21
551.6503123995
 31
0.0
  0
LINE
  5
1F0
330
69
100
AcDbEntity
  8
$DDT_AUDIT_GENERATED_(93)
  6
Continuous
 62
     7
100
AcDbLine
 10
33.2543472677
 20
551.6503123995
 30
0.0
 11
33.6873599696
 21
551.7150171608
 31
0.0
  0
LINE
  5
1F1
330
69
100
AcDbEntity
  8
$DDT_AUDIT_GENERATED_(93)
  6
Continuous
 62
     7
100
AcDbLine
 10
32.7213345658
 20
552.1480745021
 30
0.0
 11
32.7213345658
 21
551.889255457
 31
0.0
  0
LINE
  5
1F2
330
69
100
AcDbEntity
  8
$DDT_AUDIT_GENERATED_(93)
  6
Continuous
 62
     7
100
AcDbLine
 10
32.7213345658
 20
551.889255457
 30
0.0
 11
33.1543472677
 21
551.9539602182
 31
0.0
  0
LINE
  5
1F3
330
69
100
AcDbEntity
  8
$DDT_AUDIT_GENERATED_(93)
  6
Continuous
 62
     7
100
AcDbLine
 10
33.1543472677
 20
551.9539602182
 30
0.0
 11
33.1543472677
 21
552.0833697408
 31
0.0
  0
LINE
  5
1F4
330
69
100
AcDbEntity
  8
$DDT_AUDIT_GENERATED_(93)
  6
Continuous
 62
     7
100
AcDbLine
 10
33.1543472677
 20
552.0833697408
 30
0.0
 11
32.7213345658
 21
552.1480745021
 31
0.0
  0
LINE
  5
1F5
330
69
100
AcDbEntity
  8
$DDT_AUDIT_GENERATED_(93)
  6
Continuous
 62
     7
100
AcDbLine
 10
32.7213345658
 20
552.1480745021
 30
0.0
 11
32.2883218639
 21
552.0833697408
 31
0.0
  0
LINE
  5
1F6
330
69
100
AcDbEntity
  8
$DDT_AUDIT_GENERATED_(93)
  6
Continuous
 62
     7
100
AcDbLine
 10
32.2883218639
 20
552.0833697408
 30
0.0
 11
32.2883218639
 21
551.9539602182
 31
0.0
  0
LINE
  5
1F7
330
69
100
AcDbEntity
  8
$DDT_AUDIT_GENERATED_(93)
  6
Continuous
 62
     7
100
AcDbLine
 10
32.2883218639
 20
551.9539602182
 30
0.0
 11
32.7213345658
 21
551.889255457
 31
0.0
  0
LINE
  5
1F8
330
69
100
AcDbEntity
  8
$DDT_AUDIT_GENERATED_(93)
  6
Continuous
 62
     7
100
AcDbLine
 10
32.1883218639
 20
551.9091314446
 30
0.0
 11
32.1883218639
 21
551.6503123995
 31
0.0
  0
LINE
  5
1F9
330
69
100
AcDbEntity
  8
$DDT_AUDIT_GENERATED_(93)
  6
Continuous
 62
     7
100
AcDbLine
 10
32.1883218639
 20
551.6503123995
 30
0.0
 11
32.6213345658
 21
551.7150171608
 31
0.0
  0
LINE
  5
1FA
330
69
100
AcDbEntity
  8
$DDT_AUDIT_GENERATED_(93)
  6
Continuous
 62
     7
100
AcDbLine
 10
32.6213345658
 20
551.7150171608
 30
0.0
 11
32.6213345658
 21
551.8444266834
 31
0.0
  0
LINE
  5
1FB
330
69
100
AcDbEntity
  8
$DDT_AUDIT_GENERATED_(93)
  6
Continuous
 62
     7
100
AcDbLine
 10
32.6213345658
 20
551.8444266834
 30
0.0
 11
32.1883218639
 21
551.9091314446
 31
0.0
  0
LINE
  5
1FC
330
69
100
AcDbEntity
  8
$DDT_AUDIT_GENERATED_(93)
  6
Continuous
 62
     7
100
AcDbLine
 10
32.1883218639
 20
551.9091314446
 30
0.0
 11
31.755309162
 21
551.8444266834
 31
0.0
  0
LINE
  5
1FD
330
69
100
AcDbEntity
  8
$DDT_AUDIT_GENERATED_(93)
  6
Continuous
 62
     7
100
AcDbLine
 10
31.755309162
 20
551.8444266834
 30
0.0
 11
31.755309162
 21
551.7150171608
 31
0.0
  0
LINE
  5
1FE
330
69
100
AcDbEntity
  8
$DDT_AUDIT_GENERATED_(93)
  6
Continuous
 62
     7
100
AcDbLine
 10
31.755309162
 20
551.7150171608
 30
0.0
 11
32.1883218639
 21
551.6503123995
 31
0.0
  0
LINE
  5
1FF
330
69
100
AcDbEntity
  8
$DDT_AUDIT_GENERATED_(93)
  6
Continuous
 62
     7
100
AcDbLine
 10
32.7213345658
 20
551.6701883872
 30
0.0
 11
32.7213345658
 21
551.4113693421
 31
0.0
  0
LINE
  5
200
330
69
100
AcDbEntity
  8
$DDT_AUDIT_GENERATED_(93)
  6
Continuous
 62
     7
100
AcDbLine
 10
33.1543472677
 20
551.6054836259
 30
0.0
 11
32.7213345658
 21
551.6701883872
 31
0.0
  0
LINE
  5
201
330
69
100
AcDbEntity
  8
$DDT_AUDIT_GENERATED_(93)
  6
Continuous
 62
     7
100
AcDbLine
 10
32.7213345658
 20
551.6701883872
 30
0.0
 11
32.2883218639
 21
551.6054836259
 31
0.0
  0
LINE
  5
202
330
69
100
AcDbEntity
  8
$DDT_AUDIT_GENERATED_(93)
  6
Continuous
 62
     7
100
AcDbLine
 10
32.2883218639
 20
551.6054836259
 30
0.0
 11
32.2883218639
 21
551.4760741034
 31
0.0
  0
LINE
  5
203
330
69
100
AcDbEntity
  8
$DDT_AUDIT_GENERATED_(93)
  6
Continuous
 62
     7
100
AcDbLine
 10
32.2883218639
 20
551.4760741034
 30
0.0
 11
32.7213345658
 21
551.4113693421
 31
0.0
  0
LINE
  5
204
330
69
100
AcDbEntity
  8
$DDT_AUDIT_GENERATED_(93)
  6
Continuous
 62
     7
100
AcDbLine
 10
32.7213345658
 20
551.4113693421
 30
0.0
 11
33.1543472677
 21
551.4760741034
 31
0.0
  0
LINE
  5
205
330
69
100
AcDbEntity
  8
$DDT_AUDIT_GENERATED_(93)
  6
Continuous
 62
     7
100
AcDbLine
 10
33.1543472677
 20
551.4760741034
 30
0.0
 11
33.1543472677
 21
551.6054836259
 31
0.0
  0
ELLIPSE
  5
206
330
69
100
AcDbEntity
  8
$DDT_AUDIT_GENERATED_(93)
  6
Continuous
 62
     7
100
AcDbEllipse
 10
28.9902456532
 20
553.2133802664
 30
0.0
 11
7.999999999325838
 21
1.296601714884105E-10
 31
0.0
210
0.0
220
0.0
230
1.0
 40
0.2588190451
 41
-1.100599509890917
 42
-0.9937955925688771
  0
LINE
  5
207
330
69
100
AcDbEntity
  8
$DDT_AUDIT_GENERATED_(93)
  6
Continuous
 62
     7
100
AcDbLine
 10
32.6147396714
 20
551.3675260386
 30
0.0
 11
32.1883218639
 21
551.4312453298
 31
0.0
  0
LINE
  5
208
330
69
100
AcDbEntity
  8
$DDT_AUDIT_GENERATED_(93)
  6
Continuous
 62
     7
100
AcDbLine
 10
32.1883218639
 20
551.4312453298
 30
0.0
 11
31.755309162
 21
551.3665405685
 31
0.0
  0
LINE
  5
209
330
69
100
AcDbEntity
  8
$DDT_AUDIT_GENERATED_(93)
  6
Continuous
 62
     7
100
AcDbLine
 10
31.755309162
 20
551.3665405685
 30
0.0
 11
31.755309162
 21
551.2704364728
 31
0.0
  0
ELLIPSE
  5
20A
330
69
100
AcDbEntity
  8
$DDT_AUDIT_GENERATED_(93)
  6
Continuous
 62
     7
100
AcDbEllipse
 10
28.9902454556
 20
553.2133803263
 30
0.0
 11
8.00000021563042
 21
-4.155418717455284E-8
 31
0.0
210
0.0
220
0.0
230
1.0
 40
0.2588190459
 41
-0.8765119748169861
 42
-0.8499963951791001
  0
LINE
  5
20B
330
69
100
AcDbEntity
  8
$DDT_AUDIT_GENERATED_(93)
  6
Continuous
 62
     7
100
AcDbLine
 10
33.7873599696
 20
551.6701883872
 30
0.0
 11
33.3543472677
 21
551.6054836259
 31
0.0
  0
LINE
  5
20C
330
69
100
AcDbEntity
  8
$DDT_AUDIT_GENERATED_(93)
  6
Continuous
 62
     7
100
AcDbLine
 10
33.3543472677
 20
551.6054836259
 30
0.0
 11
33.3543472677
 21
551.4780450436
 31
0.0
  0
LINE
  5
20D
330
69
100
AcDbEntity
  8
$DDT_AUDIT_GENERATED_(93)
  6
Continuous
 62
     7
100
AcDbLine
 10
34.1089305411
 20
551.6221363394
 30
0.0
 11
33.7873599696
 21
551.6701883872
 31
0.0
  0
ELLIPSE
  5
20E
330
69
100
AcDbEntity
  8
$DDT_AUDIT_GENERATED_(93)
  6
Continuous
 62
     7
100
AcDbEllipse
 10
28.9902456659
 20
553.2133802656
 30
0.0
 11
7.999999986676634
 21
1.082391121176585E-9
 31
0.0
210
0.0
220
0.0
230
1.0
 40
0.2588190453
 41
-0.3180851631528991
 42
-0.2813080074771994
  0
LINE
  5
20F
330
69
100
AcDbEntity
  8
$DDT_AUDIT_GENERATED_(93)
  6
Continuous
 62
     7
100
AcDbLine
 10
36.5889338224
 20
552.5658184244
 30
0.0
 11
36.552423479
 21
552.5603627113
 31
0.0
  0
LINE
  5
210
330
69
100
AcDbEntity
  8
$DDT_AUDIT_GENERATED_(93)
  6
Continuous
 62
     7
100
AcDbLine
 10
36.552423479
 20
552.5603627113
 30
0.0
 11
36.552423479
 21
552.5377948071
 31
0.0
  0
ELLIPSE
  5
211
330
69
100
AcDbEntity
  8
$DDT_AUDIT_GENERATED_(93)
  6
Continuous
 62
     7
100
AcDbEllipse
 10
28.9902456542
 20
553.2133802665
 30
0.0
 11
7.999999998419948
 21
1.614125499926899E-10
 31
0.0
210
0.0
220
0.0
230
1.0
 40
0.2588190451
 41
-0.4240045291713486
 42
-0.3323683973376674
  0
LINE
  5
212
330
69
100
AcDbEntity
  8
$DDT_AUDIT_GENERATED_(93)
  6
Continuous
 62
     7
100
AcDbLine
 10
36.2818355311
 20
552.3615267312
 30
0.0
 11
36.0194107771
 21
552.3223127982
 31
0.0
  0
LINE
  5
213
330
69
100
AcDbEntity
  8
$DDT_AUDIT_GENERATED_(93)
  6
Continuous
 62
     7
100
AcDbLine
 10
36.0194107771
 20
552.3223127982
 30
0.0
 11
36.0194107771
 21
552.2247444432
 31
0.0
  0
ELLIPSE
  5
214
330
69
100
AcDbEntity
  8
$DDT_AUDIT_GENERATED_(93)
  6
Continuous
 62
     7
100
AcDbEllipse
 10
28.9902456561
 20
553.2133802661
 30
0.0
 11
7.999999996539447
 21
4.777393758370607E-10
 31
0.0
210
0.0
220
0.0
230
1.0
 40
0.2588190451
 41
-0.5494194726480224
 42
-0.4977780787933241
  0
LINE
  5
215
330
69
100
AcDbEntity
  8
$DDT_AUDIT_GENERATED_(93)
  6
Continuous
 62
     7
100
AcDbLine
 10
35.8128681541
 20
552.1321539183
 30
0.0
 11
35.4863980752
 21
552.0833697408
 31
0.0
  0
LINE
  5
216
330
69
100
AcDbEntity
  8
$DDT_AUDIT_GENERATED_(93)
  6
Continuous
 62
     7
100
AcDbLine
 10
35.4863980752
 20
552.0833697408
 30
0.0
 11
35.4863980752
 21
552.0049418749
 31
0.0
  0
ELLIPSE
  5
217
330
69
100
AcDbEntity
  8
$DDT_AUDIT_GENERATED_(93)
  6
Continuous
 62
     7
100
AcDbEllipse
 10
28.9902456519
 20
553.2133802668
 30
0.0
 11
8.000000000720938
 21
-1.212051292664995E-10
 31
0.0
210
0.0
220
0.0
230
1.0
 40
0.2588190451
 41
-0.7148291538635814
 42
-0.6231930220426909
  0
LINE
  5
218
330
69
100
AcDbEntity
  8
$DDT_AUDIT_GENERATED_(93)
  6
Continuous
 62
     7
100
AcDbLine
 10
35.0318875716
 20
551.8561572076
 30
0.0
 11
34.9533853733
 21
551.8444266834
 31
0.0
  0
LINE
  5
219
330
69
100
AcDbEntity
  8
$DDT_AUDIT_GENERATED_(93)
  6
Continuous
 62
     7
100
AcDbLine
 10
34.9533853733
 20
551.8444266834
 30
0.0
 11
34.9533853733
 21
551.8330964629
 31
0.0
  0
ELLIPSE
  5
21A
330
69
100
AcDbEntity
  8
$DDT_AUDIT_GENERATED_(93)
  6
Continuous
 62
     7
100
AcDbEllipse
 10
28.9902456637
 20
553.2133802541
 30
0.0
 11
7.999999973833102
 21
2.995974995867456E-9
 31
0.0
210
0.0
220
0.0
230
1.0
 40
0.2588190444
 41
-1.36472215754959
 42
-1.327966794073307
  0
LINE
  5
21B
330
69
100
AcDbEntity
  8
$DDT_AUDIT_GENERATED_(93)
  6
Continuous
 62
     7
100
AcDbLine
 10
30.6271954148
 20
551.1866371621
 30
0.0
 11
30.5892837583
 21
551.1923022723
 31
0.0
  0
LINE
  5
21C
330
69
100
AcDbEntity
  8
$DDT_AUDIT_GENERATED_(93)
  6
Continuous
 62
     7
100
AcDbLine
 10
30.5892837583
 20
551.1923022723
 30
0.0
 11
30.51078156
 21
551.1805717481
 31
0.0
  0
LINE
  5
21D
330
69
100
AcDbEntity
  8
$DDT_AUDIT_GENERATED_(93)
  6
Continuous
 62
     7
100
AcDbLine
 10
28.4572329508
 20
552.6259606169
 30
0.0
 11
28.4572329508
 21
552.3671415718
 31
0.0
  0
LINE
  5
21E
330
69
100
AcDbEntity
  8
$DDT_AUDIT_GENERATED_(93)
  6
Continuous
 62
     7
100
AcDbLine
 10
28.8902456526
 20
552.5612558556
 30
0.0
 11
28.4572329508
 21
552.6259606169
 31
0.0
  0
LINE
  5
21F
330
69
100
AcDbEntity
  8
$DDT_AUDIT_GENERATED_(93)
  6
Continuous
 62
     7
100
AcDbLine
 10
28.4572329508
 20
552.6259606169
 30
0.0
 11
28.0242202489
 21
552.5612558556
 31
0.0
  0
LINE
  5
220
330
69
100
AcDbEntity
  8
$DDT_AUDIT_GENERATED_(93)
  6
Continuous
 62
     7
100
AcDbLine
 10
28.0242202489
 20
552.5612558556
 30
0.0
 11
28.0242202489
 21
552.4318463331
 31
0.0
  0
LINE
  5
221
330
69
100
AcDbEntity
  8
$DDT_AUDIT_GENERATED_(93)
  6
Continuous
 62
     7
100
AcDbLine
 10
28.0242202489
 20
552.4318463331
 30
0.0
 11
28.4572329508
 21
552.3671415718
 31
0.0
  0
LINE
  5
222
330
69
100
AcDbEntity
  8
$DDT_AUDIT_GENERATED_(93)
  6
Continuous
 62
     7
100
AcDbLine
 10
28.4572329508
 20
552.3671415718
 30
0.0
 11
28.8902456526
 21
552.4318463331
 31
0.0
  0
LINE
  5
223
330
69
100
AcDbEntity
  8
$DDT_AUDIT_GENERATED_(93)
  6
Continuous
 62
     7
100
AcDbLine
 10
28.8902456526
 20
552.4318463331
 30
0.0
 11
28.8902456526
 21
552.5612558556
 31
0.0
  0
LINE
  5
224
330
69
100
AcDbEntity
  8
$DDT_AUDIT_GENERATED_(93)
  6
Continuous
 62
     7
100
AcDbLine
 10
28.5572329508
 20
552.8001989131
 30
0.0
 11
28.5572329508
 21
552.6707893905
 31
0.0
  0
LINE
  5
225
330
69
100
AcDbEntity
  8
$DDT_AUDIT_GENERATED_(93)
  6
Continuous
 62
     7
100
AcDbLine
 10
28.5572329508
 20
552.6707893905
 30
0.0
 11
28.9902456526
 21
552.6060846293
 31
0.0
  0
LINE
  5
226
330
69
100
AcDbEntity
  8
$DDT_AUDIT_GENERATED_(93)
  6
Continuous
 62
     7
100
AcDbLine
 10
28.9902456526
 20
552.8649036744
 30
0.0
 11
28.5572329508
 21
552.8001989131
 31
0.0
  0
LINE
  5
227
330
69
100
AcDbEntity
  8
$DDT_AUDIT_GENERATED_(93)
  6
Continuous
 62
     7
100
AcDbLine
 10
28.4572329508
 20
553.1038467318
 30
0.0
 11
28.4572329508
 21
552.8450276867
 31
0.0
  0
LINE
  5
228
330
69
100
AcDbEntity
  8
$DDT_AUDIT_GENERATED_(93)
  6
Continuous
 62
     7
100
AcDbLine
 10
28.0242202489
 20
552.909732448
 30
0.0
 11
28.4572329508
 21
552.8450276867
 31
0.0
  0
LINE
  5
229
330
69
100
AcDbEntity
  8
$DDT_AUDIT_GENERATED_(93)
  6
Continuous
 62
     7
100
AcDbLine
 10
28.4572329508
 20
552.8450276867
 30
0.0
 11
28.8902456526
 21
552.909732448
 31
0.0
  0
LINE
  5
22A
330
69
100
AcDbEntity
  8
$DDT_AUDIT_GENERATED_(93)
  6
Continuous
 62
     7
100
AcDbLine
 10
28.8902456526
 20
552.909732448
 30
0.0
 11
28.8902456526
 21
553.0391419705
 31
0.0
  0
LINE
  5
22B
330
69
100
AcDbEntity
  8
$DDT_AUDIT_GENERATED_(93)
  6
Continuous
 62
     7
100
AcDbLine
 10
28.8902456526
 20
553.0391419705
 30
0.0
 11
28.4572329508
 21
553.1038467318
 31
0.0
  0
LINE
  5
22C
330
69
100
AcDbEntity
  8
$DDT_AUDIT_GENERATED_(93)
  6
Continuous
 62
     7
100
AcDbLine
 10
28.4572329508
 20
553.1038467318
 30
0.0
 11
28.0242202489
 21
553.0391419705
 31
0.0
  0
LINE
  5
22D
330
69
100
AcDbEntity
  8
$DDT_AUDIT_GENERATED_(93)
  6
Continuous
 62
     7
100
AcDbLine
 10
28.0242202489
 20
553.0391419705
 30
0.0
 11
28.0242202489
 21
552.909732448
 31
0.0
  0
LINE
  5
22E
330
69
100
AcDbEntity
  8
$DDT_AUDIT_GENERATED_(93)
  6
Continuous
 62
     7
100
AcDbLine
 10
27.9242202489
 20
552.8649036744
 30
0.0
 11
27.9242202489
 21
552.6060846293
 31
0.0
  0
LINE
  5
22F
330
69
100
AcDbEntity
  8
$DDT_AUDIT_GENERATED_(93)
  6
Continuous
 62
     7
100
AcDbLine
 10
28.3572329508
 20
552.8001989131
 30
0.0
 11
27.9242202489
 21
552.8649036744
 31
0.0
  0
LINE
  5
230
330
69
100
AcDbEntity
  8
$DDT_AUDIT_GENERATED_(93)
  6
Continuous
 62
     7
100
AcDbLine
 10
27.9242202489
 20
552.8649036744
 30
0.0
 11
27.491207547
 21
552.8001989131
 31
0.0
  0
LINE
  5
231
330
69
100
AcDbEntity
  8
$DDT_AUDIT_GENERATED_(93)
  6
Continuous
 62
     7
100
AcDbLine
 10
27.491207547
 20
552.8001989131
 30
0.0
 11
27.491207547
 21
552.6707893905
 31
0.0
  0
LINE
  5
232
330
69
100
AcDbEntity
  8
$DDT_AUDIT_GENERATED_(93)
  6
Continuous
 62
     7
100
AcDbLine
 10
27.491207547
 20
552.6707893905
 30
0.0
 11
27.9242202489
 21
552.6060846293
 31
0.0
  0
LINE
  5
233
330
69
100
AcDbEntity
  8
$DDT_AUDIT_GENERATED_(93)
  6
Continuous
 62
     7
100
AcDbLine
 10
27.9242202489
 20
552.6060846293
 30
0.0
 11
28.3572329508
 21
552.6707893905
 31
0.0
  0
LINE
  5
234
330
69
100
AcDbEntity
  8
$DDT_AUDIT_GENERATED_(93)
  6
Continuous
 62
     7
100
AcDbLine
 10
28.3572329508
 20
552.6707893905
 30
0.0
 11
28.3572329508
 21
552.8001989131
 31
0.0
  0
LINE
  5
235
330
69
100
AcDbEntity
  8
$DDT_AUDIT_GENERATED_(93)
  6
Continuous
 62
     7
100
AcDbLine
 10
27.391207547
 20
553.1038467318
 30
0.0
 11
27.391207547
 21
552.8450276867
 31
0.0
  0
LINE
  5
236
330
69
100
AcDbEntity
  8
$DDT_AUDIT_GENERATED_(93)
  6
Continuous
 62
     7
100
AcDbLine
 10
27.391207547
 20
552.8450276867
 30
0.0
 11
27.8242202489
 21
552.909732448
 31
0.0
  0
LINE
  5
237
330
69
100
AcDbEntity
  8
$DDT_AUDIT_GENERATED_(93)
  6
Continuous
 62
     7
100
AcDbLine
 10
27.8242202489
 20
552.909732448
 30
0.0
 11
27.8242202489
 21
553.0391419705
 31
0.0
  0
LINE
  5
238
330
69
100
AcDbEntity
  8
$DDT_AUDIT_GENERATED_(93)
  6
Continuous
 62
     7
100
AcDbLine
 10
27.8242202489
 20
553.0391419705
 30
0.0
 11
27.391207547
 21
553.1038467318
 31
0.0
  0
LINE
  5
239
330
69
100
AcDbEntity
  8
$DDT_AUDIT_GENERATED_(93)
  6
Continuous
 62
     7
100
AcDbLine
 10
27.391207547
 20
553.1038467318
 30
0.0
 11
26.9581948451
 21
553.0391419705
 31
0.0
  0
LINE
  5
23A
330
69
100
AcDbEntity
  8
$DDT_AUDIT_GENERATED_(93)
  6
Continuous
 62
     7
100
AcDbLine
 10
26.9581948451
 20
553.0391419705
 30
0.0
 11
26.9581948451
 21
552.909732448
 31
0.0
  0
LINE
  5
23B
330
69
100
AcDbEntity
  8
$DDT_AUDIT_GENERATED_(93)
  6
Continuous
 62
     7
100
AcDbLine
 10
26.9581948451
 20
552.909732448
 30
0.0
 11
27.391207547
 21
552.8450276867
 31
0.0
  0
LINE
  5
23C
330
69
100
AcDbEntity
  8
$DDT_AUDIT_GENERATED_(93)
  6
Continuous
 62
     7
100
AcDbLine
 10
27.9242202489
 20
553.3427897892
 30
0.0
 11
27.9242202489
 21
553.0839707441
 31
0.0
  0
LINE
  5
23D
330
69
100
AcDbEntity
  8
$DDT_AUDIT_GENERATED_(93)
  6
Continuous
 62
     7
100
AcDbLine
 10
27.491207547
 20
553.1486755054
 30
0.0
 11
27.9242202489
 21
553.0839707441
 31
0.0
  0
LINE
  5
23E
330
69
100
AcDbEntity
  8
$DDT_AUDIT_GENERATED_(93)
  6
Continuous
 62
     7
100
AcDbLine
 10
27.9242202489
 20
553.0839707441
 30
0.0
 11
28.3572329508
 21
553.1486755054
 31
0.0
  0
LINE
  5
23F
330
69
100
AcDbEntity
  8
$DDT_AUDIT_GENERATED_(93)
  6
Continuous
 62
     7
100
AcDbLine
 10
28.3572329508
 20
553.1486755054
 30
0.0
 11
28.3572329508
 21
553.2780850279
 31
0.0
  0
LINE
  5
240
330
69
100
AcDbEntity
  8
$DDT_AUDIT_GENERATED_(93)
  6
Continuous
 62
     7
100
AcDbLine
 10
27.491207547
 20
553.2780850279
 30
0.0
 11
27.491207547
 21
553.1486755054
 31
0.0
  0
LINE
  5
241
330
69
100
AcDbEntity
  8
$DDT_AUDIT_GENERATED_(93)
  6
Continuous
 62
     7
100
AcDbLine
 10
28.5572329508
 20
551.2371310459
 30
0.0
 11
28.9902456526
 21
551.1724262847
 31
0.0
  0
LINE
  5
242
330
69
100
AcDbEntity
  8
$DDT_AUDIT_GENERATED_(93)
  6
Continuous
 62
     7
100
AcDbLine
 10
28.9902456526
 20
551.4312453298
 30
0.0
 11
28.5572329508
 21
551.3665405685
 31
0.0
  0
LINE
  5
243
330
69
100
AcDbEntity
  8
$DDT_AUDIT_GENERATED_(93)
  6
Continuous
 62
     7
100
AcDbLine
 10
28.5572329508
 20
551.3665405685
 30
0.0
 11
28.5572329508
 21
551.2371310459
 31
0.0
  0
ARC
  5
244
330
69
100
AcDbEntity
  8
$DDT_AUDIT_GENERATED_(93)
  6
Continuous
 62
     7
100
AcDbCircle
 10
28.9902456526
 20
582.0428412549
 30
0.0
 40
30.90001345640006
100
AcDbArc
 50
269.6170193024
 51
270.3829806976
  0
LINE
  5
245
330
69
100
AcDbEntity
  8
$DDT_AUDIT_GENERATED_(93)
  6
Continuous
 62
     7
100
AcDbLine
 10
28.4572329508
 20
551.1923022723
 30
0.0
 11
28.1948081967
 21
551.1530883394
 31
0.0
  0
LINE
  5
246
330
69
100
AcDbEntity
  8
$DDT_AUDIT_GENERATED_(93)
  6
Continuous
 62
     7
100
AcDbLine
 10
28.7837030297
 20
551.1435180948
 30
0.0
 11
28.4572329508
 21
551.1923022723
 31
0.0
  0
LINE
  5
247
330
69
100
AcDbEntity
  8
$DDT_AUDIT_GENERATED_(93)
  6
Continuous
 62
     7
100
AcDbLine
 10
27.9242202489
 20
551.4312453298
 30
0.0
 11
27.9242202489
 21
551.1724262847
 31
0.0
  0
LINE
  5
248
330
69
100
AcDbEntity
  8
$DDT_AUDIT_GENERATED_(93)
  6
Continuous
 62
     7
100
AcDbLine
 10
27.9242202489
 20
551.1724262847
 30
0.0
 11
28.3572329508
 21
551.2371310459
 31
0.0
  0
LINE
  5
249
330
69
100
AcDbEntity
  8
$DDT_AUDIT_GENERATED_(93)
  6
Continuous
 62
     7
100
AcDbLine
 10
28.3572329508
 20
551.2371310459
 30
0.0
 11
28.3572329508
 21
551.3665405685
 31
0.0
  0
LINE
  5
24A
330
69
100
AcDbEntity
  8
$DDT_AUDIT_GENERATED_(93)
  6
Continuous
 62
     7
100
AcDbLine
 10
28.3572329508
 20
551.3665405685
 30
0.0
 11
27.9242202489
 21
551.4312453298
 31
0.0
  0
LINE
  5
24B
330
69
100
AcDbEntity
  8
$DDT_AUDIT_GENERATED_(93)
  6
Continuous
 62
     7
100
AcDbLine
 10
27.9242202489
 20
551.4312453298
 30
0.0
 11
27.491207547
 21
551.3665405685
 31
0.0
  0
LINE
  5
24C
330
69
100
AcDbEntity
  8
$DDT_AUDIT_GENERATED_(93)
  6
Continuous
 62
     7
100
AcDbLine
 10
27.491207547
 20
551.3665405685
 30
0.0
 11
27.491207547
 21
551.2371310459
 31
0.0
  0
LINE
  5
24D
330
69
100
AcDbEntity
  8
$DDT_AUDIT_GENERATED_(93)
  6
Continuous
 62
     7
100
AcDbLine
 10
27.491207547
 20
551.2371310459
 30
0.0
 11
27.9242202489
 21
551.1724262847
 31
0.0
  0
LINE
  5
24E
330
69
100
AcDbEntity
  8
$DDT_AUDIT_GENERATED_(93)
  6
Continuous
 62
     7
100
AcDbLine
 10
28.4572329508
 20
551.6701883872
 30
0.0
 11
28.4572329508
 21
551.4113693421
 31
0.0
  0
LINE
  5
24F
330
69
100
AcDbEntity
  8
$DDT_AUDIT_GENERATED_(93)
  6
Continuous
 62
     7
100
AcDbLine
 10
28.0242202489
 20
551.4760741034
 30
0.0
 11
28.4572329508
 21
551.4113693421
 31
0.0
  0
LINE
  5
250
330
69
100
AcDbEntity
  8
$DDT_AUDIT_GENERATED_(93)
  6
Continuous
 62
     7
100
AcDbLine
 10
28.4572329508
 20
551.4113693421
 30
0.0
 11
28.8902456526
 21
551.4760741034
 31
0.0
  0
LINE
  5
251
330
69
100
AcDbEntity
  8
$DDT_AUDIT_GENERATED_(93)
  6
Continuous
 62
     7
100
AcDbLine
 10
28.8902456526
 20
551.4760741034
 30
0.0
 11
28.8902456526
 21
551.6054836259
 31
0.0
  0
LINE
  5
252
330
69
100
AcDbEntity
  8
$DDT_AUDIT_GENERATED_(93)
  6
Continuous
 62
     7
100
AcDbLine
 10
28.8902456526
 20
551.6054836259
 30
0.0
 11
28.4572329508
 21
551.6701883872
 31
0.0
  0
LINE
  5
253
330
69
100
AcDbEntity
  8
$DDT_AUDIT_GENERATED_(93)
  6
Continuous
 62
     7
100
AcDbLine
 10
28.4572329508
 20
551.6701883872
 30
0.0
 11
28.0242202489
 21
551.6054836259
 31
0.0
  0
LINE
  5
254
330
69
100
AcDbEntity
  8
$DDT_AUDIT_GENERATED_(93)
  6
Continuous
 62
     7
100
AcDbLine
 10
28.0242202489
 20
551.6054836259
 30
0.0
 11
28.0242202489
 21
551.4760741034
 31
0.0
  0
LINE
  5
255
330
69
100
AcDbEntity
  8
$DDT_AUDIT_GENERATED_(93)
  6
Continuous
 62
     7
100
AcDbLine
 10
28.4572329508
 20
552.1480745021
 30
0.0
 11
28.4572329508
 21
551.889255457
 31
0.0
  0
LINE
  5
256
330
69
100
AcDbEntity
  8
$DDT_AUDIT_GENERATED_(93)
  6
Continuous
 62
     7
100
AcDbLine
 10
28.4572329508
 20
551.889255457
 30
0.0
 11
28.8902456526
 21
551.9539602182
 31
0.0
  0
LINE
  5
257
330
69
100
AcDbEntity
  8
$DDT_AUDIT_GENERATED_(93)
  6
Continuous
 62
     7
100
AcDbLine
 10
28.8902456526
 20
551.9539602182
 30
0.0
 11
28.8902456526
 21
552.0833697408
 31
0.0
  0
LINE
  5
258
330
69
100
AcDbEntity
  8
$DDT_AUDIT_GENERATED_(93)
  6
Continuous
 62
     7
100
AcDbLine
 10
28.8902456526
 20
552.0833697408
 30
0.0
 11
28.4572329508
 21
552.1480745021
 31
0.0
  0
LINE
  5
259
330
69
100
AcDbEntity
  8
$DDT_AUDIT_GENERATED_(93)
  6
Continuous
 62
     7
100
AcDbLine
 10
28.4572329508
 20
552.1480745021
 30
0.0
 11
28.0242202489
 21
552.0833697408
 31
0.0
  0
LINE
  5
25A
330
69
100
AcDbEntity
  8
$DDT_AUDIT_GENERATED_(93)
  6
Continuous
 62
     7
100
AcDbLine
 10
28.0242202489
 20
552.0833697408
 30
0.0
 11
28.0242202489
 21
551.9539602182
 31
0.0
  0
LINE
  5
25B
330
69
100
AcDbEntity
  8
$DDT_AUDIT_GENERATED_(93)
  6
Continuous
 62
     7
100
AcDbLine
 10
28.0242202489
 20
551.9539602182
 30
0.0
 11
28.4572329508
 21
551.889255457
 31
0.0
  0
LINE
  5
25C
330
69
100
AcDbEntity
  8
$DDT_AUDIT_GENERATED_(93)
  6
Continuous
 62
     7
100
AcDbLine
 10
28.5572329508
 20
552.1929032757
 30
0.0
 11
28.5572329508
 21
552.3223127982
 31
0.0
  0
LINE
  5
25D
330
69
100
AcDbEntity
  8
$DDT_AUDIT_GENERATED_(93)
  6
Continuous
 62
     7
100
AcDbLine
 10
28.9902456526
 20
552.1281985144
 30
0.0
 11
28.5572329508
 21
552.1929032757
 31
0.0
  0
LINE
  5
25E
330
69
100
AcDbEntity
  8
$DDT_AUDIT_GENERATED_(93)
  6
Continuous
 62
     7
100
AcDbLine
 10
28.5572329508
 20
552.3223127982
 30
0.0
 11
28.9902456526
 21
552.3870175595
 31
0.0
  0
LINE
  5
25F
330
69
100
AcDbEntity
  8
$DDT_AUDIT_GENERATED_(93)
  6
Continuous
 62
     7
100
AcDbLine
 10
27.9242202489
 20
552.3870175595
 30
0.0
 11
27.9242202489
 21
552.1281985144
 31
0.0
  0
LINE
  5
260
330
69
100
AcDbEntity
  8
$DDT_AUDIT_GENERATED_(93)
  6
Continuous
 62
     7
100
AcDbLine
 10
27.9242202489
 20
552.1281985144
 30
0.0
 11
28.3572329508
 21
552.1929032757
 31
0.0
  0
LINE
  5
261
330
69
100
AcDbEntity
  8
$DDT_AUDIT_GENERATED_(93)
  6
Continuous
 62
     7
100
AcDbLine
 10
28.3572329508
 20
552.1929032757
 30
0.0
 11
28.3572329508
 21
552.3223127982
 31
0.0
  0
LINE
  5
262
330
69
100
AcDbEntity
  8
$DDT_AUDIT_GENERATED_(93)
  6
Continuous
 62
     7
100
AcDbLine
 10
28.3572329508
 20
552.3223127982
 30
0.0
 11
27.9242202489
 21
552.3870175595
 31
0.0
  0
LINE
  5
263
330
69
100
AcDbEntity
  8
$DDT_AUDIT_GENERATED_(93)
  6
Continuous
 62
     7
100
AcDbLine
 10
27.9242202489
 20
552.3870175595
 30
0.0
 11
27.491207547
 21
552.3223127982
 31
0.0
  0
LINE
  5
264
330
69
100
AcDbEntity
  8
$DDT_AUDIT_GENERATED_(93)
  6
Continuous
 62
     7
100
AcDbLine
 10
27.491207547
 20
552.3223127982
 30
0.0
 11
27.491207547
 21
552.1929032757
 31
0.0
  0
LINE
  5
265
330
69
100
AcDbEntity
  8
$DDT_AUDIT_GENERATED_(93)
  6
Continuous
 62
     7
100
AcDbLine
 10
27.491207547
 20
552.1929032757
 30
0.0
 11
27.9242202489
 21
552.1281985144
 31
0.0
  0
LINE
  5
266
330
69
100
AcDbEntity
  8
$DDT_AUDIT_GENERATED_(93)
  6
Continuous
 62
     7
100
AcDbLine
 10
27.391207547
 20
552.6259606169
 30
0.0
 11
27.391207547
 21
552.3671415718
 31
0.0
  0
LINE
  5
267
330
69
100
AcDbEntity
  8
$DDT_AUDIT_GENERATED_(93)
  6
Continuous
 62
     7
100
AcDbLine
 10
27.8242202489
 20
552.4318463331
 30
0.0
 11
27.8242202489
 21
552.5612558556
 31
0.0
  0
LINE
  5
268
330
69
100
AcDbEntity
  8
$DDT_AUDIT_GENERATED_(93)
  6
Continuous
 62
     7
100
AcDbLine
 10
27.8242202489
 20
552.5612558556
 30
0.0
 11
27.391207547
 21
552.6259606169
 31
0.0
  0
LINE
  5
269
330
69
100
AcDbEntity
  8
$DDT_AUDIT_GENERATED_(93)
  6
Continuous
 62
     7
100
AcDbLine
 10
27.391207547
 20
552.6259606169
 30
0.0
 11
26.9581948451
 21
552.5612558556
 31
0.0
  0
LINE
  5
26A
330
69
100
AcDbEntity
  8
$DDT_AUDIT_GENERATED_(93)
  6
Continuous
 62
     7
100
AcDbLine
 10
26.9581948451
 20
552.5612558556
 30
0.0
 11
26.9581948451
 21
552.4318463331
 31
0.0
  0
LINE
  5
26B
330
69
100
AcDbEntity
  8
$DDT_AUDIT_GENERATED_(93)
  6
Continuous
 62
     7
100
AcDbLine
 10
26.9581948451
 20
552.4318463331
 30
0.0
 11
27.391207547
 21
552.3671415718
 31
0.0
  0
LINE
  5
26C
330
69
100
AcDbEntity
  8
$DDT_AUDIT_GENERATED_(93)
  6
Continuous
 62
     7
100
AcDbLine
 10
27.391207547
 20
552.3671415718
 30
0.0
 11
27.8242202489
 21
552.4318463331
 31
0.0
  0
LINE
  5
26D
330
69
100
AcDbEntity
  8
$DDT_AUDIT_GENERATED_(93)
  6
Continuous
 62
     7
100
AcDbLine
 10
26.8581948451
 20
552.8649036744
 30
0.0
 11
26.8581948451
 21
552.6060846293
 31
0.0
  0
LINE
  5
26E
330
69
100
AcDbEntity
  8
$DDT_AUDIT_GENERATED_(93)
  6
Continuous
 62
     7
100
AcDbLine
 10
27.291207547
 20
552.6707893905
 30
0.0
 11
27.291207547
 21
552.8001989131
 31
0.0
  0
LINE
  5
26F
330
69
100
AcDbEntity
  8
$DDT_AUDIT_GENERATED_(93)
  6
Continuous
 62
     7
100
AcDbLine
 10
27.291207547
 20
552.8001989131
 30
0.0
 11
26.8581948451
 21
552.8649036744
 31
0.0
  0
LINE
  5
270
330
69
100
AcDbEntity
  8
$DDT_AUDIT_GENERATED_(93)
  6
Continuous
 62
     7
100
AcDbLine
 10
26.8581948451
 20
552.8649036744
 30
0.0
 11
26.4251821432
 21
552.8001989131
 31
0.0
  0
LINE
  5
271
330
69
100
AcDbEntity
  8
$DDT_AUDIT_GENERATED_(93)
  6
Continuous
 62
     7
100
AcDbLine
 10
26.4251821432
 20
552.8001989131
 30
0.0
 11
26.4251821432
 21
552.6707893905
 31
0.0
  0
LINE
  5
272
330
69
100
AcDbEntity
  8
$DDT_AUDIT_GENERATED_(93)
  6
Continuous
 62
     7
100
AcDbLine
 10
26.4251821432
 20
552.6707893905
 30
0.0
 11
26.8581948451
 21
552.6060846293
 31
0.0
  0
LINE
  5
273
330
69
100
AcDbEntity
  8
$DDT_AUDIT_GENERATED_(93)
  6
Continuous
 62
     7
100
AcDbLine
 10
26.8581948451
 20
552.6060846293
 30
0.0
 11
27.291207547
 21
552.6707893905
 31
0.0
  0
LINE
  5
274
330
69
100
AcDbEntity
  8
$DDT_AUDIT_GENERATED_(93)
  6
Continuous
 62
     7
100
AcDbLine
 10
26.3251821432
 20
553.1038467318
 30
0.0
 11
26.3251821432
 21
552.8450276867
 31
0.0
  0
LINE
  5
275
330
69
100
AcDbEntity
  8
$DDT_AUDIT_GENERATED_(93)
  6
Continuous
 62
     7
100
AcDbLine
 10
26.7581948451
 20
552.909732448
 30
0.0
 11
26.7581948451
 21
553.0391419705
 31
0.0
  0
LINE
  5
276
330
69
100
AcDbEntity
  8
$DDT_AUDIT_GENERATED_(93)
  6
Continuous
 62
     7
100
AcDbLine
 10
26.7581948451
 20
553.0391419705
 30
0.0
 11
26.3251821432
 21
553.1038467318
 31
0.0
  0
LINE
  5
277
330
69
100
AcDbEntity
  8
$DDT_AUDIT_GENERATED_(93)
  6
Continuous
 62
     7
100
AcDbLine
 10
26.3251821432
 20
553.1038467318
 30
0.0
 11
25.8921694413
 21
553.0391419705
 31
0.0
  0
LINE
  5
278
330
69
100
AcDbEntity
  8
$DDT_AUDIT_GENERATED_(93)
  6
Continuous
 62
     7
100
AcDbLine
 10
25.8921694413
 20
553.0391419705
 30
0.0
 11
25.8921694413
 21
552.909732448
 31
0.0
  0
LINE
  5
279
330
69
100
AcDbEntity
  8
$DDT_AUDIT_GENERATED_(93)
  6
Continuous
 62
     7
100
AcDbLine
 10
25.8921694413
 20
552.909732448
 30
0.0
 11
26.3251821432
 21
552.8450276867
 31
0.0
  0
LINE
  5
27A
330
69
100
AcDbEntity
  8
$DDT_AUDIT_GENERATED_(93)
  6
Continuous
 62
     7
100
AcDbLine
 10
26.3251821432
 20
552.8450276867
 30
0.0
 11
26.7581948451
 21
552.909732448
 31
0.0
  0
LINE
  5
27B
330
69
100
AcDbEntity
  8
$DDT_AUDIT_GENERATED_(93)
  6
Continuous
 62
     7
100
AcDbLine
 10
26.8581948451
 20
553.3427897892
 30
0.0
 11
26.8581948451
 21
553.0839707441
 31
0.0
  0
LINE
  5
27C
330
69
100
AcDbEntity
  8
$DDT_AUDIT_GENERATED_(93)
  6
Continuous
 62
     7
100
AcDbLine
 10
26.8581948451
 20
553.0839707441
 30
0.0
 11
27.291207547
 21
553.1486755054
 31
0.0
  0
LINE
  5
27D
330
69
100
AcDbEntity
  8
$DDT_AUDIT_GENERATED_(93)
  6
Continuous
 62
     7
100
AcDbLine
 10
27.291207547
 20
553.1486755054
 30
0.0
 11
27.291207547
 21
553.2780850279
 31
0.0
  0
LINE
  5
27E
330
69
100
AcDbEntity
  8
$DDT_AUDIT_GENERATED_(93)
  6
Continuous
 62
     7
100
AcDbLine
 10
26.4251821432
 20
553.2780850279
 30
0.0
 11
26.4251821432
 21
553.1486755054
 31
0.0
  0
LINE
  5
27F
330
69
100
AcDbEntity
  8
$DDT_AUDIT_GENERATED_(93)
  6
Continuous
 62
     7
100
AcDbLine
 10
26.4251821432
 20
553.1486755054
 30
0.0
 11
26.8581948451
 21
553.0839707441
 31
0.0
  0
LINE
  5
280
330
69
100
AcDbEntity
  8
$DDT_AUDIT_GENERATED_(93)
  6
Continuous
 62
     7
100
AcDbLine
 10
25.7921694413
 20
553.3427897892
 30
0.0
 11
25.7921694413
 21
553.0839707441
 31
0.0
  0
LINE
  5
281
330
69
100
AcDbEntity
  8
$DDT_AUDIT_GENERATED_(93)
  6
Continuous
 62
     7
100
AcDbLine
 10
26.2251821432
 20
553.1486755054
 30
0.0
 11
26.2251821432
 21
553.2780850279
 31
0.0
  0
LINE
  5
282
330
69
100
AcDbEntity
  8
$DDT_AUDIT_GENERATED_(93)
  6
Continuous
 62
     7
100
AcDbLine
 10
25.3591567395
 20
553.2780850279
 30
0.0
 11
25.3591567395
 21
553.1486755054
 31
0.0
  0
LINE
  5
283
330
69
100
AcDbEntity
  8
$DDT_AUDIT_GENERATED_(93)
  6
Continuous
 62
     7
100
AcDbLine
 10
25.3591567395
 20
553.1486755054
 30
0.0
 11
25.7921694413
 21
553.0839707441
 31
0.0
  0
LINE
  5
284
330
69
100
AcDbEntity
  8
$DDT_AUDIT_GENERATED_(93)
  6
Continuous
 62
     7
100
AcDbLine
 10
25.7921694413
 20
553.0839707441
 30
0.0
 11
26.2251821432
 21
553.1486755054
 31
0.0
  0
LINE
  5
285
330
69
100
AcDbEntity
  8
$DDT_AUDIT_GENERATED_(93)
  6
Continuous
 62
     7
100
AcDbLine
 10
24.7261440376
 20
553.3427897892
 30
0.0
 11
24.7261440376
 21
553.0839707441
 31
0.0
  0
LINE
  5
286
330
69
100
AcDbEntity
  8
$DDT_AUDIT_GENERATED_(93)
  6
Continuous
 62
     7
100
AcDbLine
 10
25.1591567395
 20
553.1486755054
 30
0.0
 11
25.1591567395
 21
553.2780850279
 31
0.0
  0
LINE
  5
287
330
69
100
AcDbEntity
  8
$DDT_AUDIT_GENERATED_(93)
  6
Continuous
 62
     7
100
AcDbLine
 10
24.2931313357
 20
553.2780850279
 30
0.0
 11
24.2931313357
 21
553.1486755054
 31
0.0
  0
LINE
  5
288
330
69
100
AcDbEntity
  8
$DDT_AUDIT_GENERATED_(93)
  6
Continuous
 62
     7
100
AcDbLine
 10
24.2931313357
 20
553.1486755054
 30
0.0
 11
24.7261440376
 21
553.0839707441
 31
0.0
  0
LINE
  5
289
330
69
100
AcDbEntity
  8
$DDT_AUDIT_GENERATED_(93)
  6
Continuous
 62
     7
100
AcDbLine
 10
24.7261440376
 20
553.0839707441
 30
0.0
 11
25.1591567395
 21
553.1486755054
 31
0.0
  0
LINE
  5
28A
330
69
100
AcDbEntity
  8
$DDT_AUDIT_GENERATED_(93)
  6
Continuous
 62
     7
100
AcDbLine
 10
25.2591567395
 20
553.1038467318
 30
0.0
 11
25.2591567395
 21
552.8450276867
 31
0.0
  0
LINE
  5
28B
330
69
100
AcDbEntity
  8
$DDT_AUDIT_GENERATED_(93)
  6
Continuous
 62
     7
100
AcDbLine
 10
25.2591567395
 20
553.1038467318
 30
0.0
 11
24.8261440376
 21
553.0391419705
 31
0.0
  0
LINE
  5
28C
330
69
100
AcDbEntity
  8
$DDT_AUDIT_GENERATED_(93)
  6
Continuous
 62
     7
100
AcDbLine
 10
24.8261440376
 20
553.0391419705
 30
0.0
 11
24.8261440376
 21
552.909732448
 31
0.0
  0
LINE
  5
28D
330
69
100
AcDbEntity
  8
$DDT_AUDIT_GENERATED_(93)
  6
Continuous
 62
     7
100
AcDbLine
 10
24.8261440376
 20
552.909732448
 30
0.0
 11
25.2591567395
 21
552.8450276867
 31
0.0
  0
LINE
  5
28E
330
69
100
AcDbEntity
  8
$DDT_AUDIT_GENERATED_(93)
  6
Continuous
 62
     7
100
AcDbLine
 10
25.2591567395
 20
552.8450276867
 30
0.0
 11
25.6921694413
 21
552.909732448
 31
0.0
  0
LINE
  5
28F
330
69
100
AcDbEntity
  8
$DDT_AUDIT_GENERATED_(93)
  6
Continuous
 62
     7
100
AcDbLine
 10
25.6921694413
 20
552.909732448
 30
0.0
 11
25.6921694413
 21
553.0391419705
 31
0.0
  0
LINE
  5
290
330
69
100
AcDbEntity
  8
$DDT_AUDIT_GENERATED_(93)
  6
Continuous
 62
     7
100
AcDbLine
 10
25.6921694413
 20
553.0391419705
 30
0.0
 11
25.2591567395
 21
553.1038467318
 31
0.0
  0
LINE
  5
291
330
69
100
AcDbEntity
  8
$DDT_AUDIT_GENERATED_(93)
  6
Continuous
 62
     7
100
AcDbLine
 10
25.7921694413
 20
552.8649036744
 30
0.0
 11
25.7921694413
 21
552.6060846293
 31
0.0
  0
LINE
  5
292
330
69
100
AcDbEntity
  8
$DDT_AUDIT_GENERATED_(93)
  6
Continuous
 62
     7
100
AcDbLine
 10
25.7921694413
 20
552.8649036744
 30
0.0
 11
25.3591567395
 21
552.8001989131
 31
0.0
  0
LINE
  5
293
330
69
100
AcDbEntity
  8
$DDT_AUDIT_GENERATED_(93)
  6
Continuous
 62
     7
100
AcDbLine
 10
25.3591567395
 20
552.8001989131
 30
0.0
 11
25.3591567395
 21
552.6707893905
 31
0.0
  0
LINE
  5
294
330
69
100
AcDbEntity
  8
$DDT_AUDIT_GENERATED_(93)
  6
Continuous
 62
     7
100
AcDbLine
 10
25.3591567395
 20
552.6707893905
 30
0.0
 11
25.7921694413
 21
552.6060846293
 31
0.0
  0
LINE
  5
295
330
69
100
AcDbEntity
  8
$DDT_AUDIT_GENERATED_(93)
  6
Continuous
 62
     7
100
AcDbLine
 10
25.7921694413
 20
552.6060846293
 30
0.0
 11
26.2251821432
 21
552.6707893905
 31
0.0
  0
LINE
  5
296
330
69
100
AcDbEntity
  8
$DDT_AUDIT_GENERATED_(93)
  6
Continuous
 62
     7
100
AcDbLine
 10
26.2251821432
 20
552.6707893905
 30
0.0
 11
26.2251821432
 21
552.8001989131
 31
0.0
  0
LINE
  5
297
330
69
100
AcDbEntity
  8
$DDT_AUDIT_GENERATED_(93)
  6
Continuous
 62
     7
100
AcDbLine
 10
26.2251821432
 20
552.8001989131
 30
0.0
 11
25.7921694413
 21
552.8649036744
 31
0.0
  0
LINE
  5
298
330
69
100
AcDbEntity
  8
$DDT_AUDIT_GENERATED_(93)
  6
Continuous
 62
     7
100
AcDbLine
 10
26.3251821432
 20
552.6259606169
 30
0.0
 11
26.3251821432
 21
552.3671415718
 31
0.0
  0
LINE
  5
299
330
69
100
AcDbEntity
  8
$DDT_AUDIT_GENERATED_(93)
  6
Continuous
 62
     7
100
AcDbLine
 10
26.3251821432
 20
552.6259606169
 30
0.0
 11
25.8921694413
 21
552.5612558556
 31
0.0
  0
LINE
  5
29A
330
69
100
AcDbEntity
  8
$DDT_AUDIT_GENERATED_(93)
  6
Continuous
 62
     7
100
AcDbLine
 10
25.8921694413
 20
552.5612558556
 30
0.0
 11
25.8921694413
 21
552.4318463331
 31
0.0
  0
LINE
  5
29B
330
69
100
AcDbEntity
  8
$DDT_AUDIT_GENERATED_(93)
  6
Continuous
 62
     7
100
AcDbLine
 10
25.8921694413
 20
552.4318463331
 30
0.0
 11
26.3251821432
 21
552.3671415718
 31
0.0
  0
LINE
  5
29C
330
69
100
AcDbEntity
  8
$DDT_AUDIT_GENERATED_(93)
  6
Continuous
 62
     7
100
AcDbLine
 10
26.3251821432
 20
552.3671415718
 30
0.0
 11
26.7581948451
 21
552.4318463331
 31
0.0
  0
LINE
  5
29D
330
69
100
AcDbEntity
  8
$DDT_AUDIT_GENERATED_(93)
  6
Continuous
 62
     7
100
AcDbLine
 10
26.7581948451
 20
552.4318463331
 30
0.0
 11
26.7581948451
 21
552.5612558556
 31
0.0
  0
LINE
  5
29E
330
69
100
AcDbEntity
  8
$DDT_AUDIT_GENERATED_(93)
  6
Continuous
 62
     7
100
AcDbLine
 10
26.7581948451
 20
552.5612558556
 30
0.0
 11
26.3251821432
 21
552.6259606169
 31
0.0
  0
LINE
  5
29F
330
69
100
AcDbEntity
  8
$DDT_AUDIT_GENERATED_(93)
  6
Continuous
 62
     7
100
AcDbLine
 10
26.8581948451
 20
552.3870175595
 30
0.0
 11
26.8581948451
 21
552.1281985144
 31
0.0
  0
LINE
  5
2A0
330
69
100
AcDbEntity
  8
$DDT_AUDIT_GENERATED_(93)
  6
Continuous
 62
     7
100
AcDbLine
 10
26.8581948451
 20
552.3870175595
 30
0.0
 11
26.4251821432
 21
552.3223127982
 31
0.0
  0
LINE
  5
2A1
330
69
100
AcDbEntity
  8
$DDT_AUDIT_GENERATED_(93)
  6
Continuous
 62
     7
100
AcDbLine
 10
26.4251821432
 20
552.3223127982
 30
0.0
 11
26.4251821432
 21
552.1929032757
 31
0.0
  0
LINE
  5
2A2
330
69
100
AcDbEntity
  8
$DDT_AUDIT_GENERATED_(93)
  6
Continuous
 62
     7
100
AcDbLine
 10
26.4251821432
 20
552.1929032757
 30
0.0
 11
26.8581948451
 21
552.1281985144
 31
0.0
  0
LINE
  5
2A3
330
69
100
AcDbEntity
  8
$DDT_AUDIT_GENERATED_(93)
  6
Continuous
 62
     7
100
AcDbLine
 10
26.8581948451
 20
552.1281985144
 30
0.0
 11
27.291207547
 21
552.1929032757
 31
0.0
  0
LINE
  5
2A4
330
69
100
AcDbEntity
  8
$DDT_AUDIT_GENERATED_(93)
  6
Continuous
 62
     7
100
AcDbLine
 10
27.291207547
 20
552.1929032757
 30
0.0
 11
27.291207547
 21
552.3223127982
 31
0.0
  0
LINE
  5
2A5
330
69
100
AcDbEntity
  8
$DDT_AUDIT_GENERATED_(93)
  6
Continuous
 62
     7
100
AcDbLine
 10
27.291207547
 20
552.3223127982
 30
0.0
 11
26.8581948451
 21
552.3870175595
 31
0.0
  0
LINE
  5
2A6
330
69
100
AcDbEntity
  8
$DDT_AUDIT_GENERATED_(93)
  6
Continuous
 62
     7
100
AcDbLine
 10
27.391207547
 20
552.1480745021
 30
0.0
 11
27.391207547
 21
551.889255457
 31
0.0
  0
LINE
  5
2A7
330
69
100
AcDbEntity
  8
$DDT_AUDIT_GENERATED_(93)
  6
Continuous
 62
     7
100
AcDbLine
 10
27.391207547
 20
552.1480745021
 30
0.0
 11
26.9581948451
 21
552.0833697408
 31
0.0
  0
LINE
  5
2A8
330
69
100
AcDbEntity
  8
$DDT_AUDIT_GENERATED_(93)
  6
Continuous
 62
     7
100
AcDbLine
 10
26.9581948451
 20
552.0833697408
 30
0.0
 11
26.9581948451
 21
551.9539602182
 31
0.0
  0
LINE
  5
2A9
330
69
100
AcDbEntity
  8
$DDT_AUDIT_GENERATED_(93)
  6
Continuous
 62
     7
100
AcDbLine
 10
26.9581948451
 20
551.9539602182
 30
0.0
 11
27.391207547
 21
551.889255457
 31
0.0
  0
LINE
  5
2AA
330
69
100
AcDbEntity
  8
$DDT_AUDIT_GENERATED_(93)
  6
Continuous
 62
     7
100
AcDbLine
 10
27.391207547
 20
551.889255457
 30
0.0
 11
27.8242202489
 21
551.9539602182
 31
0.0
  0
LINE
  5
2AB
330
69
100
AcDbEntity
  8
$DDT_AUDIT_GENERATED_(93)
  6
Continuous
 62
     7
100
AcDbLine
 10
27.8242202489
 20
551.9539602182
 30
0.0
 11
27.8242202489
 21
552.0833697408
 31
0.0
  0
LINE
  5
2AC
330
69
100
AcDbEntity
  8
$DDT_AUDIT_GENERATED_(93)
  6
Continuous
 62
     7
100
AcDbLine
 10
27.8242202489
 20
552.0833697408
 30
0.0
 11
27.391207547
 21
552.1480745021
 31
0.0
  0
LINE
  5
2AD
330
69
100
AcDbEntity
  8
$DDT_AUDIT_GENERATED_(93)
  6
Continuous
 62
     7
100
AcDbLine
 10
27.9242202489
 20
551.9091314446
 30
0.0
 11
27.9242202489
 21
551.6503123995
 31
0.0
  0
LINE
  5
2AE
330
69
100
AcDbEntity
  8
$DDT_AUDIT_GENERATED_(93)
  6
Continuous
 62
     7
100
AcDbLine
 10
27.9242202489
 20
551.9091314446
 30
0.0
 11
27.491207547
 21
551.8444266834
 31
0.0
  0
LINE
  5
2AF
330
69
100
AcDbEntity
  8
$DDT_AUDIT_GENERATED_(93)
  6
Continuous
 62
     7
100
AcDbLine
 10
27.491207547
 20
551.8444266834
 30
0.0
 11
27.491207547
 21
551.7150171608
 31
0.0
  0
LINE
  5
2B0
330
69
100
AcDbEntity
  8
$DDT_AUDIT_GENERATED_(93)
  6
Continuous
 62
     7
100
AcDbLine
 10
27.491207547
 20
551.7150171608
 30
0.0
 11
27.9242202489
 21
551.6503123995
 31
0.0
  0
LINE
  5
2B1
330
69
100
AcDbEntity
  8
$DDT_AUDIT_GENERATED_(93)
  6
Continuous
 62
     7
100
AcDbLine
 10
27.9242202489
 20
551.6503123995
 30
0.0
 11
28.3572329508
 21
551.7150171608
 31
0.0
  0
LINE
  5
2B2
330
69
100
AcDbEntity
  8
$DDT_AUDIT_GENERATED_(93)
  6
Continuous
 62
     7
100
AcDbLine
 10
28.3572329508
 20
551.7150171608
 30
0.0
 11
28.3572329508
 21
551.8444266834
 31
0.0
  0
LINE
  5
2B3
330
69
100
AcDbEntity
  8
$DDT_AUDIT_GENERATED_(93)
  6
Continuous
 62
     7
100
AcDbLine
 10
28.3572329508
 20
551.8444266834
 30
0.0
 11
27.9242202489
 21
551.9091314446
 31
0.0
  0
LINE
  5
2B4
330
69
100
AcDbEntity
  8
$DDT_AUDIT_GENERATED_(93)
  6
Continuous
 62
     7
100
AcDbLine
 10
27.391207547
 20
551.6701883872
 30
0.0
 11
27.391207547
 21
551.4113693421
 31
0.0
  0
LINE
  5
2B5
330
69
100
AcDbEntity
  8
$DDT_AUDIT_GENERATED_(93)
  6
Continuous
 62
     7
100
AcDbLine
 10
27.391207547
 20
551.6701883872
 30
0.0
 11
26.9581948451
 21
551.6054836259
 31
0.0
  0
LINE
  5
2B6
330
69
100
AcDbEntity
  8
$DDT_AUDIT_GENERATED_(93)
  6
Continuous
 62
     7
100
AcDbLine
 10
26.9581948451
 20
551.6054836259
 30
0.0
 11
26.9581948451
 21
551.4760741034
 31
0.0
  0
LINE
  5
2B7
330
69
100
AcDbEntity
  8
$DDT_AUDIT_GENERATED_(93)
  6
Continuous
 62
     7
100
AcDbLine
 10
26.9581948451
 20
551.4760741034
 30
0.0
 11
27.391207547
 21
551.4113693421
 31
0.0
  0
LINE
  5
2B8
330
69
100
AcDbEntity
  8
$DDT_AUDIT_GENERATED_(93)
  6
Continuous
 62
     7
100
AcDbLine
 10
27.391207547
 20
551.4113693421
 30
0.0
 11
27.8242202489
 21
551.4760741034
 31
0.0
  0
LINE
  5
2B9
330
69
100
AcDbEntity
  8
$DDT_AUDIT_GENERATED_(93)
  6
Continuous
 62
     7
100
AcDbLine
 10
27.8242202489
 20
551.4760741034
 30
0.0
 11
27.8242202489
 21
551.6054836259
 31
0.0
  0
LINE
  5
2BA
330
69
100
AcDbEntity
  8
$DDT_AUDIT_GENERATED_(93)
  6
Continuous
 62
     7
100
AcDbLine
 10
27.8242202489
 20
551.6054836259
 30
0.0
 11
27.391207547
 21
551.6701883872
 31
0.0
  0
ELLIPSE
  5
2BB
330
69
100
AcDbEntity
  8
$DDT_AUDIT_GENERATED_(93)
  6
Continuous
 62
     7
100
AcDbEllipse
 10
28.9902456412
 20
553.2133802538
 30
0.0
 11
-7.999999973154556
 21
3.086420008457935E-9
 31
0.0
210
0.0
220
0.0
230
1.0
 40
0.2588190444
 41
1.327966794097588
 42
1.364722157576862
  0
LINE
  5
2BC
330
69
100
AcDbEntity
  8
$DDT_AUDIT_GENERATED_(93)
  6
Continuous
 62
     7
100
AcDbLine
 10
27.0666448168
 20
551.4000968078
 30
0.0
 11
27.0666448168
 21
551.2035748066
 31
0.0
  0
LINE
  5
2BD
330
69
100
AcDbEntity
  8
$DDT_AUDIT_GENERATED_(93)
  6
Continuous
 62
     7
100
AcDbLine
 10
27.291207547
 20
551.2371310459
 30
0.0
 11
27.291207547
 21
551.3665405685
 31
0.0
  0
LINE
  5
2BE
330
69
100
AcDbEntity
  8
$DDT_AUDIT_GENERATED_(93)
  6
Continuous
 62
     7
100
AcDbLine
 10
27.291207547
 20
551.3665405685
 30
0.0
 11
26.8581948451
 21
551.4312453298
 31
0.0
  0
LINE
  5
2BF
330
69
100
AcDbEntity
  8
$DDT_AUDIT_GENERATED_(93)
  6
Continuous
 62
     7
100
AcDbLine
 10
26.8581948451
 20
551.4312453298
 30
0.0
 11
26.4251821432
 21
551.3665405685
 31
0.0
  0
LINE
  5
2C0
330
69
100
AcDbEntity
  8
$DDT_AUDIT_GENERATED_(93)
  6
Continuous
 62
     7
100
AcDbLine
 10
26.4251821432
 20
551.3665405685
 30
0.0
 11
26.4251821432
 21
551.2521457709
 31
0.0
  0
LINE
  5
2C1
330
69
100
AcDbEntity
  8
$DDT_AUDIT_GENERATED_(93)
  6
Continuous
 62
     7
100
AcDbLine
 10
27.0666448168
 20
551.2035748066
 30
0.0
 11
27.291207547
 21
551.2371310459
 31
0.0
  0
LINE
  5
2C2
330
69
100
AcDbEntity
  8
$DDT_AUDIT_GENERATED_(93)
  6
Continuous
 62
     7
100
AcDbLine
 10
26.3251821432
 20
551.6701883872
 30
0.0
 11
26.3251821432
 21
551.4113693421
 31
0.0
  0
LINE
  5
2C3
330
69
100
AcDbEntity
  8
$DDT_AUDIT_GENERATED_(93)
  6
Continuous
 62
     7
100
AcDbLine
 10
26.3251821432
 20
551.4113693421
 30
0.0
 11
26.7581948451
 21
551.4760741034
 31
0.0
  0
LINE
  5
2C4
330
69
100
AcDbEntity
  8
$DDT_AUDIT_GENERATED_(93)
  6
Continuous
 62
     7
100
AcDbLine
 10
26.7581948451
 20
551.4760741034
 30
0.0
 11
26.7581948451
 21
551.6054836259
 31
0.0
  0
LINE
  5
2C5
330
69
100
AcDbEntity
  8
$DDT_AUDIT_GENERATED_(93)
  6
Continuous
 62
     7
100
AcDbLine
 10
26.7581948451
 20
551.6054836259
 30
0.0
 11
26.3251821432
 21
551.6701883872
 31
0.0
  0
LINE
  5
2C6
330
69
100
AcDbEntity
  8
$DDT_AUDIT_GENERATED_(93)
  6
Continuous
 62
     7
100
AcDbLine
 10
26.3251821432
 20
551.6701883872
 30
0.0
 11
25.8921694413
 21
551.6054836259
 31
0.0
  0
LINE
  5
2C7
330
69
100
AcDbEntity
  8
$DDT_AUDIT_GENERATED_(93)
  6
Continuous
 62
     7
100
AcDbLine
 10
25.8921694413
 20
551.6054836259
 30
0.0
 11
25.8921694413
 21
551.4760741034
 31
0.0
  0
LINE
  5
2C8
330
69
100
AcDbEntity
  8
$DDT_AUDIT_GENERATED_(93)
  6
Continuous
 62
     7
100
AcDbLine
 10
25.8921694413
 20
551.4760741034
 30
0.0
 11
26.3251821432
 21
551.4113693421
 31
0.0
  0
LINE
  5
2C9
330
69
100
AcDbEntity
  8
$DDT_AUDIT_GENERATED_(93)
  6
Continuous
 62
     7
100
AcDbLine
 10
26.8581948451
 20
551.9091314446
 30
0.0
 11
26.8581948451
 21
551.6503123995
 31
0.0
  0
LINE
  5
2CA
330
69
100
AcDbEntity
  8
$DDT_AUDIT_GENERATED_(93)
  6
Continuous
 62
     7
100
AcDbLine
 10
26.8581948451
 20
551.6503123995
 30
0.0
 11
27.291207547
 21
551.7150171608
 31
0.0
  0
LINE
  5
2CB
330
69
100
AcDbEntity
  8
$DDT_AUDIT_GENERATED_(93)
  6
Continuous
 62
     7
100
AcDbLine
 10
27.291207547
 20
551.7150171608
 30
0.0
 11
27.291207547
 21
551.8444266834
 31
0.0
  0
LINE
  5
2CC
330
69
100
AcDbEntity
  8
$DDT_AUDIT_GENERATED_(93)
  6
Continuous
 62
     7
100
AcDbLine
 10
27.291207547
 20
551.8444266834
 30
0.0
 11
26.8581948451
 21
551.9091314446
 31
0.0
  0
LINE
  5
2CD
330
69
100
AcDbEntity
  8
$DDT_AUDIT_GENERATED_(93)
  6
Continuous
 62
     7
100
AcDbLine
 10
26.8581948451
 20
551.9091314446
 30
0.0
 11
26.4251821432
 21
551.8444266834
 31
0.0
  0
LINE
  5
2CE
330
69
100
AcDbEntity
  8
$DDT_AUDIT_GENERATED_(93)
  6
Continuous
 62
     7
100
AcDbLine
 10
26.4251821432
 20
551.8444266834
 30
0.0
 11
26.4251821432
 21
551.7150171608
 31
0.0
  0
LINE
  5
2CF
330
69
100
AcDbEntity
  8
$DDT_AUDIT_GENERATED_(93)
  6
Continuous
 62
     7
100
AcDbLine
 10
26.4251821432
 20
551.7150171608
 30
0.0
 11
26.8581948451
 21
551.6503123995
 31
0.0
  0
LINE
  5
2D0
330
69
100
AcDbEntity
  8
$DDT_AUDIT_GENERATED_(93)
  6
Continuous
 62
     7
100
AcDbLine
 10
26.3251821432
 20
552.1480745021
 30
0.0
 11
26.3251821432
 21
551.889255457
 31
0.0
  0
LINE
  5
2D1
330
69
100
AcDbEntity
  8
$DDT_AUDIT_GENERATED_(93)
  6
Continuous
 62
     7
100
AcDbLine
 10
26.3251821432
 20
551.889255457
 30
0.0
 11
26.7581948451
 21
551.9539602182
 31
0.0
  0
LINE
  5
2D2
330
69
100
AcDbEntity
  8
$DDT_AUDIT_GENERATED_(93)
  6
Continuous
 62
     7
100
AcDbLine
 10
26.7581948451
 20
551.9539602182
 30
0.0
 11
26.7581948451
 21
552.0833697408
 31
0.0
  0
LINE
  5
2D3
330
69
100
AcDbEntity
  8
$DDT_AUDIT_GENERATED_(93)
  6
Continuous
 62
     7
100
AcDbLine
 10
26.7581948451
 20
552.0833697408
 30
0.0
 11
26.3251821432
 21
552.1480745021
 31
0.0
  0
LINE
  5
2D4
330
69
100
AcDbEntity
  8
$DDT_AUDIT_GENERATED_(93)
  6
Continuous
 62
     7
100
AcDbLine
 10
26.3251821432
 20
552.1480745021
 30
0.0
 11
25.8921694413
 21
552.0833697408
 31
0.0
  0
LINE
  5
2D5
330
69
100
AcDbEntity
  8
$DDT_AUDIT_GENERATED_(93)
  6
Continuous
 62
     7
100
AcDbLine
 10
25.8921694413
 20
552.0833697408
 30
0.0
 11
25.8921694413
 21
551.9539602182
 31
0.0
  0
LINE
  5
2D6
330
69
100
AcDbEntity
  8
$DDT_AUDIT_GENERATED_(93)
  6
Continuous
 62
     7
100
AcDbLine
 10
25.8921694413
 20
551.9539602182
 30
0.0
 11
26.3251821432
 21
551.889255457
 31
0.0
  0
LINE
  5
2D7
330
69
100
AcDbEntity
  8
$DDT_AUDIT_GENERATED_(93)
  6
Continuous
 62
     7
100
AcDbLine
 10
25.7921694413
 20
552.3870175595
 30
0.0
 11
25.7921694413
 21
552.1281985144
 31
0.0
  0
LINE
  5
2D8
330
69
100
AcDbEntity
  8
$DDT_AUDIT_GENERATED_(93)
  6
Continuous
 62
     7
100
AcDbLine
 10
26.2251821432
 20
552.1929032757
 30
0.0
 11
26.2251821432
 21
552.3223127982
 31
0.0
  0
LINE
  5
2D9
330
69
100
AcDbEntity
  8
$DDT_AUDIT_GENERATED_(93)
  6
Continuous
 62
     7
100
AcDbLine
 10
26.2251821432
 20
552.3223127982
 30
0.0
 11
25.7921694413
 21
552.3870175595
 31
0.0
  0
LINE
  5
2DA
330
69
100
AcDbEntity
  8
$DDT_AUDIT_GENERATED_(93)
  6
Continuous
 62
     7
100
AcDbLine
 10
25.7921694413
 20
552.3870175595
 30
0.0
 11
25.3591567395
 21
552.3223127982
 31
0.0
  0
LINE
  5
2DB
330
69
100
AcDbEntity
  8
$DDT_AUDIT_GENERATED_(93)
  6
Continuous
 62
     7
100
AcDbLine
 10
25.3591567395
 20
552.3223127982
 30
0.0
 11
25.3591567395
 21
552.1929032757
 31
0.0
  0
LINE
  5
2DC
330
69
100
AcDbEntity
  8
$DDT_AUDIT_GENERATED_(93)
  6
Continuous
 62
     7
100
AcDbLine
 10
25.3591567395
 20
552.1929032757
 30
0.0
 11
25.7921694413
 21
552.1281985144
 31
0.0
  0
LINE
  5
2DD
330
69
100
AcDbEntity
  8
$DDT_AUDIT_GENERATED_(93)
  6
Continuous
 62
     7
100
AcDbLine
 10
25.7921694413
 20
552.1281985144
 30
0.0
 11
26.2251821432
 21
552.1929032757
 31
0.0
  0
LINE
  5
2DE
330
69
100
AcDbEntity
  8
$DDT_AUDIT_GENERATED_(93)
  6
Continuous
 62
     7
100
AcDbLine
 10
25.2591567395
 20
552.6259606169
 30
0.0
 11
25.2591567395
 21
552.3671415718
 31
0.0
  0
LINE
  5
2DF
330
69
100
AcDbEntity
  8
$DDT_AUDIT_GENERATED_(93)
  6
Continuous
 62
     7
100
AcDbLine
 10
25.2591567395
 20
552.3671415718
 30
0.0
 11
25.6921694413
 21
552.4318463331
 31
0.0
  0
LINE
  5
2E0
330
69
100
AcDbEntity
  8
$DDT_AUDIT_GENERATED_(93)
  6
Continuous
 62
     7
100
AcDbLine
 10
25.6921694413
 20
552.4318463331
 30
0.0
 11
25.6921694413
 21
552.5612558556
 31
0.0
  0
LINE
  5
2E1
330
69
100
AcDbEntity
  8
$DDT_AUDIT_GENERATED_(93)
  6
Continuous
 62
     7
100
AcDbLine
 10
25.6921694413
 20
552.5612558556
 30
0.0
 11
25.2591567395
 21
552.6259606169
 31
0.0
  0
LINE
  5
2E2
330
69
100
AcDbEntity
  8
$DDT_AUDIT_GENERATED_(93)
  6
Continuous
 62
     7
100
AcDbLine
 10
25.2591567395
 20
552.6259606169
 30
0.0
 11
24.8261440376
 21
552.5612558556
 31
0.0
  0
LINE
  5
2E3
330
69
100
AcDbEntity
  8
$DDT_AUDIT_GENERATED_(93)
  6
Continuous
 62
     7
100
AcDbLine
 10
24.8261440376
 20
552.5612558556
 30
0.0
 11
24.8261440376
 21
552.4318463331
 31
0.0
  0
LINE
  5
2E4
330
69
100
AcDbEntity
  8
$DDT_AUDIT_GENERATED_(93)
  6
Continuous
 62
     7
100
AcDbLine
 10
24.8261440376
 20
552.4318463331
 30
0.0
 11
25.2591567395
 21
552.3671415718
 31
0.0
  0
LINE
  5
2E5
330
69
100
AcDbEntity
  8
$DDT_AUDIT_GENERATED_(93)
  6
Continuous
 62
     7
100
AcDbLine
 10
24.7261440376
 20
552.8649036744
 30
0.0
 11
24.7261440376
 21
552.6060846293
 31
0.0
  0
LINE
  5
2E6
330
69
100
AcDbEntity
  8
$DDT_AUDIT_GENERATED_(93)
  6
Continuous
 62
     7
100
AcDbLine
 10
25.1591567395
 20
552.6707893905
 30
0.0
 11
25.1591567395
 21
552.8001989131
 31
0.0
  0
LINE
  5
2E7
330
69
100
AcDbEntity
  8
$DDT_AUDIT_GENERATED_(93)
  6
Continuous
 62
     7
100
AcDbLine
 10
25.1591567395
 20
552.8001989131
 30
0.0
 11
24.7261440376
 21
552.8649036744
 31
0.0
  0
LINE
  5
2E8
330
69
100
AcDbEntity
  8
$DDT_AUDIT_GENERATED_(93)
  6
Continuous
 62
     7
100
AcDbLine
 10
24.7261440376
 20
552.8649036744
 30
0.0
 11
24.2931313357
 21
552.8001989131
 31
0.0
  0
LINE
  5
2E9
330
69
100
AcDbEntity
  8
$DDT_AUDIT_GENERATED_(93)
  6
Continuous
 62
     7
100
AcDbLine
 10
24.2931313357
 20
552.8001989131
 30
0.0
 11
24.2931313357
 21
552.6707893905
 31
0.0
  0
LINE
  5
2EA
330
69
100
AcDbEntity
  8
$DDT_AUDIT_GENERATED_(93)
  6
Continuous
 62
     7
100
AcDbLine
 10
24.2931313357
 20
552.6707893905
 30
0.0
 11
24.7261440376
 21
552.6060846293
 31
0.0
  0
LINE
  5
2EB
330
69
100
AcDbEntity
  8
$DDT_AUDIT_GENERATED_(93)
  6
Continuous
 62
     7
100
AcDbLine
 10
24.7261440376
 20
552.6060846293
 30
0.0
 11
25.1591567395
 21
552.6707893905
 31
0.0
  0
LINE
  5
2EC
330
69
100
AcDbEntity
  8
$DDT_AUDIT_GENERATED_(93)
  6
Continuous
 62
     7
100
AcDbLine
 10
24.1931313357
 20
553.1038467318
 30
0.0
 11
24.1931313357
 21
552.8450276867
 31
0.0
  0
LINE
  5
2ED
330
69
100
AcDbEntity
  8
$DDT_AUDIT_GENERATED_(93)
  6
Continuous
 62
     7
100
AcDbLine
 10
24.1931313357
 20
552.8450276867
 30
0.0
 11
24.6261440376
 21
552.909732448
 31
0.0
  0
LINE
  5
2EE
330
69
100
AcDbEntity
  8
$DDT_AUDIT_GENERATED_(93)
  6
Continuous
 62
     7
100
AcDbLine
 10
24.6261440376
 20
552.909732448
 30
0.0
 11
24.6261440376
 21
553.0391419705
 31
0.0
  0
LINE
  5
2EF
330
69
100
AcDbEntity
  8
$DDT_AUDIT_GENERATED_(93)
  6
Continuous
 62
     7
100
AcDbLine
 10
24.6261440376
 20
553.0391419705
 30
0.0
 11
24.1931313357
 21
553.1038467318
 31
0.0
  0
LINE
  5
2F0
330
69
100
AcDbEntity
  8
$DDT_AUDIT_GENERATED_(93)
  6
Continuous
 62
     7
100
AcDbLine
 10
24.1931313357
 20
553.1038467318
 30
0.0
 11
23.7601186338
 21
553.0391419705
 31
0.0
  0
LINE
  5
2F1
330
69
100
AcDbEntity
  8
$DDT_AUDIT_GENERATED_(93)
  6
Continuous
 62
     7
100
AcDbLine
 10
23.7601186338
 20
553.0391419705
 30
0.0
 11
23.7601186338
 21
552.909732448
 31
0.0
  0
LINE
  5
2F2
330
69
100
AcDbEntity
  8
$DDT_AUDIT_GENERATED_(93)
  6
Continuous
 62
     7
100
AcDbLine
 10
23.7601186338
 20
552.909732448
 30
0.0
 11
24.1931313357
 21
552.8450276867
 31
0.0
  0
LINE
  5
2F3
330
69
100
AcDbEntity
  8
$DDT_AUDIT_GENERATED_(93)
  6
Continuous
 62
     7
100
AcDbLine
 10
23.6601186338
 20
553.3427897892
 30
0.0
 11
23.6601186338
 21
553.0839707441
 31
0.0
  0
LINE
  5
2F4
330
69
100
AcDbEntity
  8
$DDT_AUDIT_GENERATED_(93)
  6
Continuous
 62
     7
100
AcDbLine
 10
24.0931313357
 20
553.1486755054
 30
0.0
 11
24.0931313357
 21
553.2780850279
 31
0.0
  0
LINE
  5
2F5
330
69
100
AcDbEntity
  8
$DDT_AUDIT_GENERATED_(93)
  6
Continuous
 62
     7
100
AcDbLine
 10
23.2271059319
 20
553.2780850279
 30
0.0
 11
23.2271059319
 21
553.1486755054
 31
0.0
  0
LINE
  5
2F6
330
69
100
AcDbEntity
  8
$DDT_AUDIT_GENERATED_(93)
  6
Continuous
 62
     7
100
AcDbLine
 10
23.2271059319
 20
553.1486755054
 30
0.0
 11
23.6601186338
 21
553.0839707441
 31
0.0
  0
LINE
  5
2F7
330
69
100
AcDbEntity
  8
$DDT_AUDIT_GENERATED_(93)
  6
Continuous
 62
     7
100
AcDbLine
 10
23.6601186338
 20
553.0839707441
 30
0.0
 11
24.0931313357
 21
553.1486755054
 31
0.0
  0
LINE
  5
2F8
330
69
100
AcDbEntity
  8
$DDT_AUDIT_GENERATED_(93)
  6
Continuous
 62
     7
100
AcDbLine
 10
22.5940932301
 20
553.3436829335
 30
0.0
 11
22.5940932301
 21
553.0830775998
 31
0.0
  0
LINE
  5
2F9
330
69
100
AcDbEntity
  8
$DDT_AUDIT_GENERATED_(93)
  6
Continuous
 62
     7
100
AcDbLine
 10
23.0271059319
 20
553.1477823611
 30
0.0
 11
23.0271059319
 21
553.2789781723
 31
0.0
  0
LINE
  5
2FA
330
69
100
AcDbEntity
  8
$DDT_AUDIT_GENERATED_(93)
  6
Continuous
 62
     7
100
AcDbLine
 10
22.1610805282
 20
553.2789781723
 30
0.0
 11
22.1610805282
 21
553.1477823611
 31
0.0
  0
LINE
  5
2FB
330
69
100
AcDbEntity
  8
$DDT_AUDIT_GENERATED_(93)
  6
Continuous
 62
     7
100
AcDbLine
 10
22.1610805282
 20
553.1477823611
 30
0.0
 11
22.5940932301
 21
553.0830775998
 31
0.0
  0
LINE
  5
2FC
330
69
100
AcDbEntity
  8
$DDT_AUDIT_GENERATED_(93)
  6
Continuous
 62
     7
100
AcDbLine
 10
22.5940932301
 20
553.0830775998
 30
0.0
 11
23.0271059319
 21
553.1477823611
 31
0.0
  0
LINE
  5
2FD
330
69
100
AcDbEntity
  8
$DDT_AUDIT_GENERATED_(93)
  6
Continuous
 62
     7
100
AcDbLine
 10
23.1271059319
 20
553.1038467318
 30
0.0
 11
23.1271059319
 21
552.8450276867
 31
0.0
  0
LINE
  5
2FE
330
69
100
AcDbEntity
  8
$DDT_AUDIT_GENERATED_(93)
  6
Continuous
 62
     7
100
AcDbLine
 10
23.5601186338
 20
553.0391419705
 30
0.0
 11
23.1271059319
 21
553.1038467318
 31
0.0
  0
LINE
  5
2FF
330
69
100
AcDbEntity
  8
$DDT_AUDIT_GENERATED_(93)
  6
Continuous
 62
     7
100
AcDbLine
 10
23.1271059319
 20
553.1038467318
 30
0.0
 11
22.6940932301
 21
553.0391419705
 31
0.0
  0
LINE
  5
300
330
69
100
AcDbEntity
  8
$DDT_AUDIT_GENERATED_(93)
  6
Continuous
 62
     7
100
AcDbLine
 10
22.6940932301
 20
553.0391419705
 30
0.0
 11
22.6940932301
 21
552.909732448
 31
0.0
  0
LINE
  5
301
330
69
100
AcDbEntity
  8
$DDT_AUDIT_GENERATED_(93)
  6
Continuous
 62
     7
100
AcDbLine
 10
22.6940932301
 20
552.909732448
 30
0.0
 11
23.1271059319
 21
552.8450276867
 31
0.0
  0
LINE
  5
302
330
69
100
AcDbEntity
  8
$DDT_AUDIT_GENERATED_(93)
  6
Continuous
 62
     7
100
AcDbLine
 10
23.1271059319
 20
552.8450276867
 30
0.0
 11
23.5601186338
 21
552.909732448
 31
0.0
  0
LINE
  5
303
330
69
100
AcDbEntity
  8
$DDT_AUDIT_GENERATED_(93)
  6
Continuous
 62
     7
100
AcDbLine
 10
23.5601186338
 20
552.909732448
 30
0.0
 11
23.5601186338
 21
553.0391419705
 31
0.0
  0
LINE
  5
304
330
69
100
AcDbEntity
  8
$DDT_AUDIT_GENERATED_(93)
  6
Continuous
 62
     7
100
AcDbLine
 10
23.6601186338
 20
552.8649036744
 30
0.0
 11
23.6601186338
 21
552.6060846293
 31
0.0
  0
LINE
  5
305
330
69
100
AcDbEntity
  8
$DDT_AUDIT_GENERATED_(93)
  6
Continuous
 62
     7
100
AcDbLine
 10
23.6601186338
 20
552.8649036744
 30
0.0
 11
23.2271059319
 21
552.8001989131
 31
0.0
  0
LINE
  5
306
330
69
100
AcDbEntity
  8
$DDT_AUDIT_GENERATED_(93)
  6
Continuous
 62
     7
100
AcDbLine
 10
23.2271059319
 20
552.8001989131
 30
0.0
 11
23.2271059319
 21
552.6707893905
 31
0.0
  0
LINE
  5
307
330
69
100
AcDbEntity
  8
$DDT_AUDIT_GENERATED_(93)
  6
Continuous
 62
     7
100
AcDbLine
 10
23.2271059319
 20
552.6707893905
 30
0.0
 11
23.6601186338
 21
552.6060846293
 31
0.0
  0
LINE
  5
308
330
69
100
AcDbEntity
  8
$DDT_AUDIT_GENERATED_(93)
  6
Continuous
 62
     7
100
AcDbLine
 10
23.6601186338
 20
552.6060846293
 30
0.0
 11
24.0931313357
 21
552.6707893905
 31
0.0
  0
LINE
  5
309
330
69
100
AcDbEntity
  8
$DDT_AUDIT_GENERATED_(93)
  6
Continuous
 62
     7
100
AcDbLine
 10
24.0931313357
 20
552.6707893905
 30
0.0
 11
24.0931313357
 21
552.8001989131
 31
0.0
  0
LINE
  5
30A
330
69
100
AcDbEntity
  8
$DDT_AUDIT_GENERATED_(93)
  6
Continuous
 62
     7
100
AcDbLine
 10
24.0931313357
 20
552.8001989131
 30
0.0
 11
23.6601186338
 21
552.8649036744
 31
0.0
  0
LINE
  5
30B
330
69
100
AcDbEntity
  8
$DDT_AUDIT_GENERATED_(93)
  6
Continuous
 62
     7
100
AcDbLine
 10
22.0610805282
 20
553.1029535874
 30
0.0
 11
22.0610805282
 21
552.8441345424
 31
0.0
  0
LINE
  5
30C
330
69
100
AcDbEntity
  8
$DDT_AUDIT_GENERATED_(93)
  6
Continuous
 62
     7
100
AcDbLine
 10
22.4940932301
 20
553.0382488262
 30
0.0
 11
22.0610805282
 21
553.1029535874
 31
0.0
  0
LINE
  5
30D
330
69
100
AcDbEntity
  8
$DDT_AUDIT_GENERATED_(93)
  6
Continuous
 62
     7
100
AcDbLine
 10
22.0610805282
 20
553.1029535874
 30
0.0
 11
21.6280678263
 21
553.0382488262
 31
0.0
  0
LINE
  5
30E
330
69
100
AcDbEntity
  8
$DDT_AUDIT_GENERATED_(93)
  6
Continuous
 62
     7
100
AcDbLine
 10
21.6280678263
 20
553.0382488262
 30
0.0
 11
21.6280678263
 21
552.9088393036
 31
0.0
  0
LINE
  5
30F
330
69
100
AcDbEntity
  8
$DDT_AUDIT_GENERATED_(93)
  6
Continuous
 62
     7
100
AcDbLine
 10
21.6280678263
 20
552.9088393036
 30
0.0
 11
22.0610805282
 21
552.8441345424
 31
0.0
  0
LINE
  5
310
330
69
100
AcDbEntity
  8
$DDT_AUDIT_GENERATED_(93)
  6
Continuous
 62
     7
100
AcDbLine
 10
22.0610805282
 20
552.8441345424
 30
0.0
 11
22.4940932301
 21
552.9088393036
 31
0.0
  0
LINE
  5
311
330
69
100
AcDbEntity
  8
$DDT_AUDIT_GENERATED_(93)
  6
Continuous
 62
     7
100
AcDbLine
 10
22.4940932301
 20
552.9088393036
 30
0.0
 11
22.4940932301
 21
553.0382488262
 31
0.0
  0
LINE
  5
312
330
69
100
AcDbEntity
  8
$DDT_AUDIT_GENERATED_(93)
  6
Continuous
 62
     7
100
AcDbLine
 10
21.5280678263
 20
553.3436829335
 30
0.0
 11
21.5280678263
 21
553.0830775998
 31
0.0
  0
LINE
  5
313
330
69
100
AcDbEntity
  8
$DDT_AUDIT_GENERATED_(93)
  6
Continuous
 62
     7
100
AcDbLine
 10
21.5280678263
 20
553.0830775998
 30
0.0
 11
21.9610805282
 21
553.1477823611
 31
0.0
  0
LINE
  5
314
330
69
100
AcDbEntity
  8
$DDT_AUDIT_GENERATED_(93)
  6
Continuous
 62
     7
100
AcDbLine
 10
21.9610805282
 20
553.1477823611
 30
0.0
 11
21.9610805282
 21
553.2789781723
 31
0.0
  0
LINE
  5
315
330
69
100
AcDbEntity
  8
$DDT_AUDIT_GENERATED_(93)
  6
Continuous
 62
     7
100
AcDbLine
 10
21.1482034416
 20
553.1398404481
 30
0.0
 11
21.5280678263
 21
553.0830775998
 31
0.0
  0
ELLIPSE
  5
316
330
69
100
AcDbEntity
  8
$DDT_AUDIT_GENERATED_(93)
  6
Continuous
 62
     7
100
AcDbEllipse
 10
28.9902458449
 20
553.213380276
 30
0.0
 11
-8.000000192276181
 21
-9.797062466843087E-9
 31
0.0
210
0.0
220
0.0
230
1.0
 40
0.2588190422
 41
0.1710836337726205
 42
0.19759550372363
  0
LINE
  5
317
330
69
100
AcDbEntity
  8
$DDT_AUDIT_GENERATED_(93)
  6
Continuous
 62
     7
100
AcDbLine
 10
21.1070388033
 20
553.0829294412
 30
0.0
 11
21.1070388033
 21
552.860868179
 31
0.0
  0
LINE
  5
318
330
69
100
AcDbEntity
  8
$DDT_AUDIT_GENERATED_(93)
  6
Continuous
 62
     7
100
AcDbLine
 10
21.4280678263
 20
552.9088393036
 30
0.0
 11
21.4280678263
 21
553.0382488262
 31
0.0
  0
LINE
  5
319
330
69
100
AcDbEntity
  8
$DDT_AUDIT_GENERATED_(93)
  6
Continuous
 62
     7
100
AcDbLine
 10
21.4280678263
 20
553.0382488262
 30
0.0
 11
21.1090440569
 21
553.0859203073
 31
0.0
  0
LINE
  5
31A
330
69
100
AcDbEntity
  8
$DDT_AUDIT_GENERATED_(93)
  6
Continuous
 62
     7
100
AcDbLine
 10
21.1070388033
 20
552.860868179
 30
0.0
 11
21.4280678263
 21
552.9088393036
 31
0.0
  0
ELLIPSE
  5
31B
330
69
100
AcDbEntity
  8
$DDT_AUDIT_GENERATED_(93)
  6
Continuous
 62
     7
100
AcDbEllipse
 10
28.9902456631
 20
553.2133802675
 30
0.0
 11
-8.000000010499818
 21
-8.590385347506668E-10
 31
0.0
210
0.0
220
0.0
230
1.0
 40
0.258819045
 41
0.2813080070034795
 42
0.3180851626219695
  0
LINE
  5
31C
330
69
100
AcDbEntity
  8
$DDT_AUDIT_GENERATED_(93)
  6
Continuous
 62
     7
100
AcDbLine
 10
21.3047005238
 20
552.8306329226
 30
0.0
 11
21.3047005238
 21
552.6385690924
 31
0.0
  0
LINE
  5
31D
330
69
100
AcDbEntity
  8
$DDT_AUDIT_GENERATED_(93)
  6
Continuous
 62
     7
100
AcDbLine
 10
21.5280678263
 20
552.86401053
 30
0.0
 11
21.5280678263
 21
552.6051914849
 31
0.0
  0
LINE
  5
31E
330
69
100
AcDbEntity
  8
$DDT_AUDIT_GENERATED_(93)
  6
Continuous
 62
     7
100
AcDbLine
 10
21.9610805282
 20
552.7993057687
 30
0.0
 11
21.5280678263
 21
552.86401053
 31
0.0
  0
LINE
  5
31F
330
69
100
AcDbEntity
  8
$DDT_AUDIT_GENERATED_(93)
  6
Continuous
 62
     7
100
AcDbLine
 10
21.5280678263
 20
552.86401053
 30
0.0
 11
21.1459141059
 21
552.806905588
 31
0.0
  0
LINE
  5
320
330
69
100
AcDbEntity
  8
$DDT_AUDIT_GENERATED_(93)
  6
Continuous
 62
     7
100
AcDbLine
 10
21.3047005238
 20
552.6385690924
 30
0.0
 11
21.5280678263
 21
552.6051914849
 31
0.0
  0
LINE
  5
321
330
69
100
AcDbEntity
  8
$DDT_AUDIT_GENERATED_(93)
  6
Continuous
 62
     7
100
AcDbLine
 10
21.5280678263
 20
552.6051914849
 30
0.0
 11
21.9610805282
 21
552.6698962462
 31
0.0
  0
LINE
  5
322
330
69
100
AcDbEntity
  8
$DDT_AUDIT_GENERATED_(93)
  6
Continuous
 62
     7
100
AcDbLine
 10
21.9610805282
 20
552.6698962462
 30
0.0
 11
21.9610805282
 21
552.7993057687
 31
0.0
  0
LINE
  5
323
330
69
100
AcDbEntity
  8
$DDT_AUDIT_GENERATED_(93)
  6
Continuous
 62
     7
100
AcDbLine
 10
22.5940932301
 20
552.8649036744
 30
0.0
 11
22.5940932301
 21
552.6060846293
 31
0.0
  0
LINE
  5
324
330
69
100
AcDbEntity
  8
$DDT_AUDIT_GENERATED_(93)
  6
Continuous
 62
     7
100
AcDbLine
 10
22.1610805282
 20
552.8001989131
 30
0.0
 11
22.1610805282
 21
552.6707893905
 31
0.0
  0
LINE
  5
325
330
69
100
AcDbEntity
  8
$DDT_AUDIT_GENERATED_(93)
  6
Continuous
 62
     7
100
AcDbLine
 10
22.1610805282
 20
552.6707893905
 30
0.0
 11
22.5940932301
 21
552.6060846293
 31
0.0
  0
LINE
  5
326
330
69
100
AcDbEntity
  8
$DDT_AUDIT_GENERATED_(93)
  6
Continuous
 62
     7
100
AcDbLine
 10
22.5940932301
 20
552.6060846293
 30
0.0
 11
23.0271059319
 21
552.6707893905
 31
0.0
  0
LINE
  5
327
330
69
100
AcDbEntity
  8
$DDT_AUDIT_GENERATED_(93)
  6
Continuous
 62
     7
100
AcDbLine
 10
23.0271059319
 20
552.6707893905
 30
0.0
 11
23.0271059319
 21
552.8001989131
 31
0.0
  0
LINE
  5
328
330
69
100
AcDbEntity
  8
$DDT_AUDIT_GENERATED_(93)
  6
Continuous
 62
     7
100
AcDbLine
 10
23.0271059319
 20
552.8001989131
 30
0.0
 11
22.5940932301
 21
552.8649036744
 31
0.0
  0
LINE
  5
329
330
69
100
AcDbEntity
  8
$DDT_AUDIT_GENERATED_(93)
  6
Continuous
 62
     7
100
AcDbLine
 10
22.5940932301
 20
552.8649036744
 30
0.0
 11
22.1610805282
 21
552.8001989131
 31
0.0
  0
LINE
  5
32A
330
69
100
AcDbEntity
  8
$DDT_AUDIT_GENERATED_(93)
  6
Continuous
 62
     7
100
AcDbLine
 10
22.0610805282
 20
552.6259606169
 30
0.0
 11
22.0610805282
 21
552.3671415718
 31
0.0
  0
LINE
  5
32B
330
69
100
AcDbEntity
  8
$DDT_AUDIT_GENERATED_(93)
  6
Continuous
 62
     7
100
AcDbLine
 10
22.4940932301
 20
552.5612558556
 30
0.0
 11
22.0610805282
 21
552.6259606169
 31
0.0
  0
LINE
  5
32C
330
69
100
AcDbEntity
  8
$DDT_AUDIT_GENERATED_(93)
  6
Continuous
 62
     7
100
AcDbLine
 10
22.0610805282
 20
552.6259606169
 30
0.0
 11
21.6280678263
 21
552.5612558556
 31
0.0
  0
LINE
  5
32D
330
69
100
AcDbEntity
  8
$DDT_AUDIT_GENERATED_(93)
  6
Continuous
 62
     7
100
AcDbLine
 10
21.6280678263
 20
552.5612558556
 30
0.0
 11
21.6280678263
 21
552.4318463331
 31
0.0
  0
LINE
  5
32E
330
69
100
AcDbEntity
  8
$DDT_AUDIT_GENERATED_(93)
  6
Continuous
 62
     7
100
AcDbLine
 10
21.6280678263
 20
552.4318463331
 30
0.0
 11
22.0610805282
 21
552.3671415718
 31
0.0
  0
LINE
  5
32F
330
69
100
AcDbEntity
  8
$DDT_AUDIT_GENERATED_(93)
  6
Continuous
 62
     7
100
AcDbLine
 10
22.0610805282
 20
552.3671415718
 30
0.0
 11
22.4940932301
 21
552.4318463331
 31
0.0
  0
LINE
  5
330
330
69
100
AcDbEntity
  8
$DDT_AUDIT_GENERATED_(93)
  6
Continuous
 62
     7
100
AcDbLine
 10
22.4940932301
 20
552.4318463331
 30
0.0
 11
22.4940932301
 21
552.5612558556
 31
0.0
  0
LINE
  5
331
330
69
100
AcDbEntity
  8
$DDT_AUDIT_GENERATED_(93)
  6
Continuous
 62
     7
100
AcDbLine
 10
24.1931313357
 20
552.6259606169
 30
0.0
 11
24.1931313357
 21
552.3671415718
 31
0.0
  0
LINE
  5
332
330
69
100
AcDbEntity
  8
$DDT_AUDIT_GENERATED_(93)
  6
Continuous
 62
     7
100
AcDbLine
 10
24.1931313357
 20
552.6259606169
 30
0.0
 11
23.7601186338
 21
552.5612558556
 31
0.0
  0
LINE
  5
333
330
69
100
AcDbEntity
  8
$DDT_AUDIT_GENERATED_(93)
  6
Continuous
 62
     7
100
AcDbLine
 10
23.7601186338
 20
552.5612558556
 30
0.0
 11
23.7601186338
 21
552.4318463331
 31
0.0
  0
LINE
  5
334
330
69
100
AcDbEntity
  8
$DDT_AUDIT_GENERATED_(93)
  6
Continuous
 62
     7
100
AcDbLine
 10
23.7601186338
 20
552.4318463331
 30
0.0
 11
24.1931313357
 21
552.3671415718
 31
0.0
  0
LINE
  5
335
330
69
100
AcDbEntity
  8
$DDT_AUDIT_GENERATED_(93)
  6
Continuous
 62
     7
100
AcDbLine
 10
24.1931313357
 20
552.3671415718
 30
0.0
 11
24.6261440376
 21
552.4318463331
 31
0.0
  0
LINE
  5
336
330
69
100
AcDbEntity
  8
$DDT_AUDIT_GENERATED_(93)
  6
Continuous
 62
     7
100
AcDbLine
 10
24.6261440376
 20
552.4318463331
 30
0.0
 11
24.6261440376
 21
552.5612558556
 31
0.0
  0
LINE
  5
337
330
69
100
AcDbEntity
  8
$DDT_AUDIT_GENERATED_(93)
  6
Continuous
 62
     7
100
AcDbLine
 10
24.6261440376
 20
552.5612558556
 30
0.0
 11
24.1931313357
 21
552.6259606169
 31
0.0
  0
LINE
  5
338
330
69
100
AcDbEntity
  8
$DDT_AUDIT_GENERATED_(93)
  6
Continuous
 62
     7
100
AcDbLine
 10
23.1271059319
 20
552.6259606169
 30
0.0
 11
23.1271059319
 21
552.3671415718
 31
0.0
  0
LINE
  5
339
330
69
100
AcDbEntity
  8
$DDT_AUDIT_GENERATED_(93)
  6
Continuous
 62
     7
100
AcDbLine
 10
23.5601186338
 20
552.4318463331
 30
0.0
 11
23.5601186338
 21
552.5612558556
 31
0.0
  0
LINE
  5
33A
330
69
100
AcDbEntity
  8
$DDT_AUDIT_GENERATED_(93)
  6
Continuous
 62
     7
100
AcDbLine
 10
23.5601186338
 20
552.5612558556
 30
0.0
 11
23.1271059319
 21
552.6259606169
 31
0.0
  0
LINE
  5
33B
330
69
100
AcDbEntity
  8
$DDT_AUDIT_GENERATED_(93)
  6
Continuous
 62
     7
100
AcDbLine
 10
23.1271059319
 20
552.6259606169
 30
0.0
 11
22.6940932301
 21
552.5612558556
 31
0.0
  0
LINE
  5
33C
330
69
100
AcDbEntity
  8
$DDT_AUDIT_GENERATED_(93)
  6
Continuous
 62
     7
100
AcDbLine
 10
22.6940932301
 20
552.5612558556
 30
0.0
 11
22.6940932301
 21
552.4318463331
 31
0.0
  0
LINE
  5
33D
330
69
100
AcDbEntity
  8
$DDT_AUDIT_GENERATED_(93)
  6
Continuous
 62
     7
100
AcDbLine
 10
22.6940932301
 20
552.4318463331
 30
0.0
 11
23.1271059319
 21
552.3671415718
 31
0.0
  0
LINE
  5
33E
330
69
100
AcDbEntity
  8
$DDT_AUDIT_GENERATED_(93)
  6
Continuous
 62
     7
100
AcDbLine
 10
23.1271059319
 20
552.3671415718
 30
0.0
 11
23.5601186338
 21
552.4318463331
 31
0.0
  0
LINE
  5
33F
330
69
100
AcDbEntity
  8
$DDT_AUDIT_GENERATED_(93)
  6
Continuous
 62
     7
100
AcDbLine
 10
22.5940932301
 20
552.3870175595
 30
0.0
 11
22.5940932301
 21
552.1281985144
 31
0.0
  0
LINE
  5
340
330
69
100
AcDbEntity
  8
$DDT_AUDIT_GENERATED_(93)
  6
Continuous
 62
     7
100
AcDbLine
 10
23.0271059319
 20
552.1929032757
 30
0.0
 11
23.0271059319
 21
552.3223127982
 31
0.0
  0
LINE
  5
341
330
69
100
AcDbEntity
  8
$DDT_AUDIT_GENERATED_(93)
  6
Continuous
 62
     7
100
AcDbLine
 10
23.0271059319
 20
552.3223127982
 30
0.0
 11
22.5940932301
 21
552.3870175595
 31
0.0
  0
LINE
  5
342
330
69
100
AcDbEntity
  8
$DDT_AUDIT_GENERATED_(93)
  6
Continuous
 62
     7
100
AcDbLine
 10
22.5940932301
 20
552.3870175595
 30
0.0
 11
22.1610805282
 21
552.3223127982
 31
0.0
  0
LINE
  5
343
330
69
100
AcDbEntity
  8
$DDT_AUDIT_GENERATED_(93)
  6
Continuous
 62
     7
100
AcDbLine
 10
22.1610805282
 20
552.3223127982
 30
0.0
 11
22.1610805282
 21
552.1929032757
 31
0.0
  0
LINE
  5
344
330
69
100
AcDbEntity
  8
$DDT_AUDIT_GENERATED_(93)
  6
Continuous
 62
     7
100
AcDbLine
 10
22.1610805282
 20
552.1929032757
 30
0.0
 11
22.5940932301
 21
552.1281985144
 31
0.0
  0
LINE
  5
345
330
69
100
AcDbEntity
  8
$DDT_AUDIT_GENERATED_(93)
  6
Continuous
 62
     7
100
AcDbLine
 10
22.5940932301
 20
552.1281985144
 30
0.0
 11
23.0271059319
 21
552.1929032757
 31
0.0
  0
LINE
  5
346
330
69
100
AcDbEntity
  8
$DDT_AUDIT_GENERATED_(93)
  6
Continuous
 62
     7
100
AcDbLine
 10
23.6601186338
 20
552.3870175595
 30
0.0
 11
23.6601186338
 21
552.1281985144
 31
0.0
  0
LINE
  5
347
330
69
100
AcDbEntity
  8
$DDT_AUDIT_GENERATED_(93)
  6
Continuous
 62
     7
100
AcDbLine
 10
23.2271059319
 20
552.3223127982
 30
0.0
 11
23.2271059319
 21
552.1929032757
 31
0.0
  0
LINE
  5
348
330
69
100
AcDbEntity
  8
$DDT_AUDIT_GENERATED_(93)
  6
Continuous
 62
     7
100
AcDbLine
 10
23.2271059319
 20
552.1929032757
 30
0.0
 11
23.6601186338
 21
552.1281985144
 31
0.0
  0
LINE
  5
349
330
69
100
AcDbEntity
  8
$DDT_AUDIT_GENERATED_(93)
  6
Continuous
 62
     7
100
AcDbLine
 10
23.6601186338
 20
552.1281985144
 30
0.0
 11
24.0931313357
 21
552.1929032757
 31
0.0
  0
LINE
  5
34A
330
69
100
AcDbEntity
  8
$DDT_AUDIT_GENERATED_(93)
  6
Continuous
 62
     7
100
AcDbLine
 10
24.0931313357
 20
552.1929032757
 30
0.0
 11
24.0931313357
 21
552.3223127982
 31
0.0
  0
LINE
  5
34B
330
69
100
AcDbEntity
  8
$DDT_AUDIT_GENERATED_(93)
  6
Continuous
 62
     7
100
AcDbLine
 10
24.0931313357
 20
552.3223127982
 30
0.0
 11
23.6601186338
 21
552.3870175595
 31
0.0
  0
LINE
  5
34C
330
69
100
AcDbEntity
  8
$DDT_AUDIT_GENERATED_(93)
  6
Continuous
 62
     7
100
AcDbLine
 10
23.6601186338
 20
552.3870175595
 30
0.0
 11
23.2271059319
 21
552.3223127982
 31
0.0
  0
LINE
  5
34D
330
69
100
AcDbEntity
  8
$DDT_AUDIT_GENERATED_(93)
  6
Continuous
 62
     7
100
AcDbLine
 10
24.7261440376
 20
552.3870175595
 30
0.0
 11
24.7261440376
 21
552.1281985144
 31
0.0
  0
LINE
  5
34E
330
69
100
AcDbEntity
  8
$DDT_AUDIT_GENERATED_(93)
  6
Continuous
 62
     7
100
AcDbLine
 10
24.2931313357
 20
552.3223127982
 30
0.0
 11
24.2931313357
 21
552.1929032757
 31
0.0
  0
LINE
  5
34F
330
69
100
AcDbEntity
  8
$DDT_AUDIT_GENERATED_(93)
  6
Continuous
 62
     7
100
AcDbLine
 10
24.2931313357
 20
552.1929032757
 30
0.0
 11
24.7261440376
 21
552.1281985144
 31
0.0
  0
LINE
  5
350
330
69
100
AcDbEntity
  8
$DDT_AUDIT_GENERATED_(93)
  6
Continuous
 62
     7
100
AcDbLine
 10
24.7261440376
 20
552.1281985144
 30
0.0
 11
25.1591567395
 21
552.1929032757
 31
0.0
  0
LINE
  5
351
330
69
100
AcDbEntity
  8
$DDT_AUDIT_GENERATED_(93)
  6
Continuous
 62
     7
100
AcDbLine
 10
25.1591567395
 20
552.1929032757
 30
0.0
 11
25.1591567395
 21
552.3223127982
 31
0.0
  0
LINE
  5
352
330
69
100
AcDbEntity
  8
$DDT_AUDIT_GENERATED_(93)
  6
Continuous
 62
     7
100
AcDbLine
 10
25.1591567395
 20
552.3223127982
 30
0.0
 11
24.7261440376
 21
552.3870175595
 31
0.0
  0
LINE
  5
353
330
69
100
AcDbEntity
  8
$DDT_AUDIT_GENERATED_(93)
  6
Continuous
 62
     7
100
AcDbLine
 10
24.7261440376
 20
552.3870175595
 30
0.0
 11
24.2931313357
 21
552.3223127982
 31
0.0
  0
LINE
  5
354
330
69
100
AcDbEntity
  8
$DDT_AUDIT_GENERATED_(93)
  6
Continuous
 62
     7
100
AcDbLine
 10
24.1931313357
 20
552.1480745021
 30
0.0
 11
24.1931313357
 21
551.889255457
 31
0.0
  0
LINE
  5
355
330
69
100
AcDbEntity
  8
$DDT_AUDIT_GENERATED_(93)
  6
Continuous
 62
     7
100
AcDbLine
 10
24.1931313357
 20
552.1480745021
 30
0.0
 11
23.7601186338
 21
552.0833697408
 31
0.0
  0
LINE
  5
356
330
69
100
AcDbEntity
  8
$DDT_AUDIT_GENERATED_(93)
  6
Continuous
 62
     7
100
AcDbLine
 10
23.7601186338
 20
552.0833697408
 30
0.0
 11
23.7601186338
 21
551.9539602182
 31
0.0
  0
LINE
  5
357
330
69
100
AcDbEntity
  8
$DDT_AUDIT_GENERATED_(93)
  6
Continuous
 62
     7
100
AcDbLine
 10
23.7601186338
 20
551.9539602182
 30
0.0
 11
24.1931313357
 21
551.889255457
 31
0.0
  0
LINE
  5
358
330
69
100
AcDbEntity
  8
$DDT_AUDIT_GENERATED_(93)
  6
Continuous
 62
     7
100
AcDbLine
 10
24.1931313357
 20
551.889255457
 30
0.0
 11
24.6261440376
 21
551.9539602182
 31
0.0
  0
LINE
  5
359
330
69
100
AcDbEntity
  8
$DDT_AUDIT_GENERATED_(93)
  6
Continuous
 62
     7
100
AcDbLine
 10
24.6261440376
 20
551.9539602182
 30
0.0
 11
24.6261440376
 21
552.0833697408
 31
0.0
  0
LINE
  5
35A
330
69
100
AcDbEntity
  8
$DDT_AUDIT_GENERATED_(93)
  6
Continuous
 62
     7
100
AcDbLine
 10
24.6261440376
 20
552.0833697408
 30
0.0
 11
24.1931313357
 21
552.1480745021
 31
0.0
  0
LINE
  5
35B
330
69
100
AcDbEntity
  8
$DDT_AUDIT_GENERATED_(93)
  6
Continuous
 62
     7
100
AcDbLine
 10
23.1271059319
 20
552.1480745021
 30
0.0
 11
23.1271059319
 21
551.889255457
 31
0.0
  0
LINE
  5
35C
330
69
100
AcDbEntity
  8
$DDT_AUDIT_GENERATED_(93)
  6
Continuous
 62
     7
100
AcDbLine
 10
23.5601186338
 20
551.9539602182
 30
0.0
 11
23.5601186338
 21
552.0833697408
 31
0.0
  0
LINE
  5
35D
330
69
100
AcDbEntity
  8
$DDT_AUDIT_GENERATED_(93)
  6
Continuous
 62
     7
100
AcDbLine
 10
23.5601186338
 20
552.0833697408
 30
0.0
 11
23.1271059319
 21
552.1480745021
 31
0.0
  0
LINE
  5
35E
330
69
100
AcDbEntity
  8
$DDT_AUDIT_GENERATED_(93)
  6
Continuous
 62
     7
100
AcDbLine
 10
23.1271059319
 20
552.1480745021
 30
0.0
 11
22.6940932301
 21
552.0833697408
 31
0.0
  0
LINE
  5
35F
330
69
100
AcDbEntity
  8
$DDT_AUDIT_GENERATED_(93)
  6
Continuous
 62
     7
100
AcDbLine
 10
22.6940932301
 20
552.0833697408
 30
0.0
 11
22.6940932301
 21
551.9539602182
 31
0.0
  0
LINE
  5
360
330
69
100
AcDbEntity
  8
$DDT_AUDIT_GENERATED_(93)
  6
Continuous
 62
     7
100
AcDbLine
 10
22.6940932301
 20
551.9539602182
 30
0.0
 11
23.1271059319
 21
551.889255457
 31
0.0
  0
LINE
  5
361
330
69
100
AcDbEntity
  8
$DDT_AUDIT_GENERATED_(93)
  6
Continuous
 62
     7
100
AcDbLine
 10
23.1271059319
 20
551.889255457
 30
0.0
 11
23.5601186338
 21
551.9539602182
 31
0.0
  0
ELLIPSE
  5
362
330
69
100
AcDbEntity
  8
$DDT_AUDIT_GENERATED_(93)
  6
Continuous
 62
     7
100
AcDbEllipse
 10
28.9902458501
 20
553.2133803264
 30
0.0
 11
-8.000000216058897
 21
-4.162812108909897E-8
 31
0.0
210
0.0
220
0.0
230
1.0
 40
0.2588190459
 41
0.8499963951511604
 42
0.8765119747881942
  0
LINE
  5
363
330
69
100
AcDbEntity
  8
$DDT_AUDIT_GENERATED_(93)
  6
Continuous
 62
     7
100
AcDbLine
 10
23.7103588826
 20
551.9016240822
 30
0.0
 11
23.7103588826
 21
551.657819762
 31
0.0
  0
LINE
  5
364
330
69
100
AcDbEntity
  8
$DDT_AUDIT_GENERATED_(93)
  6
Continuous
 62
     7
100
AcDbLine
 10
24.0931313357
 20
551.8444266834
 30
0.0
 11
23.6601186338
 21
551.9091314446
 31
0.0
  0
LINE
  5
365
330
69
100
AcDbEntity
  8
$DDT_AUDIT_GENERATED_(93)
  6
Continuous
 62
     7
100
AcDbLine
 10
23.6601186338
 20
551.9091314446
 30
0.0
 11
23.2271059319
 21
551.8444266834
 31
0.0
  0
LINE
  5
366
330
69
100
AcDbEntity
  8
$DDT_AUDIT_GENERATED_(93)
  6
Continuous
 62
     7
100
AcDbLine
 10
23.2271059319
 20
551.8444266834
 30
0.0
 11
23.2271059319
 21
551.7773142047
 31
0.0
  0
LINE
  5
367
330
69
100
AcDbEntity
  8
$DDT_AUDIT_GENERATED_(93)
  6
Continuous
 62
     7
100
AcDbLine
 10
23.7103588826
 20
551.657819762
 30
0.0
 11
24.0931313357
 21
551.7150171608
 31
0.0
  0
LINE
  5
368
330
69
100
AcDbEntity
  8
$DDT_AUDIT_GENERATED_(93)
  6
Continuous
 62
     7
100
AcDbLine
 10
24.0931313357
 20
551.7150171608
 30
0.0
 11
24.0931313357
 21
551.8444266834
 31
0.0
  0
LINE
  5
369
330
69
100
AcDbEntity
  8
$DDT_AUDIT_GENERATED_(93)
  6
Continuous
 62
     7
100
AcDbLine
 10
24.7261440376
 20
551.9091314446
 30
0.0
 11
24.7261440376
 21
551.6503123995
 31
0.0
  0
LINE
  5
36A
330
69
100
AcDbEntity
  8
$DDT_AUDIT_GENERATED_(93)
  6
Continuous
 62
     7
100
AcDbLine
 10
24.7261440376
 20
551.9091314446
 30
0.0
 11
24.2931313357
 21
551.8444266834
 31
0.0
  0
LINE
  5
36B
330
69
100
AcDbEntity
  8
$DDT_AUDIT_GENERATED_(93)
  6
Continuous
 62
     7
100
AcDbLine
 10
24.2931313357
 20
551.8444266834
 30
0.0
 11
24.2931313357
 21
551.7150171608
 31
0.0
  0
LINE
  5
36C
330
69
100
AcDbEntity
  8
$DDT_AUDIT_GENERATED_(93)
  6
Continuous
 62
     7
100
AcDbLine
 10
24.2931313357
 20
551.7150171608
 30
0.0
 11
24.7261440376
 21
551.6503123995
 31
0.0
  0
LINE
  5
36D
330
69
100
AcDbEntity
  8
$DDT_AUDIT_GENERATED_(93)
  6
Continuous
 62
     7
100
AcDbLine
 10
24.7261440376
 20
551.6503123995
 30
0.0
 11
25.1591567395
 21
551.7150171608
 31
0.0
  0
LINE
  5
36E
330
69
100
AcDbEntity
  8
$DDT_AUDIT_GENERATED_(93)
  6
Continuous
 62
     7
100
AcDbLine
 10
25.1591567395
 20
551.7150171608
 30
0.0
 11
25.1591567395
 21
551.8444266834
 31
0.0
  0
LINE
  5
36F
330
69
100
AcDbEntity
  8
$DDT_AUDIT_GENERATED_(93)
  6
Continuous
 62
     7
100
AcDbLine
 10
25.1591567395
 20
551.8444266834
 30
0.0
 11
24.7261440376
 21
551.9091314446
 31
0.0
  0
LINE
  5
370
330
69
100
AcDbEntity
  8
$DDT_AUDIT_GENERATED_(93)
  6
Continuous
 62
     7
100
AcDbLine
 10
25.2591567395
 20
552.1480745021
 30
0.0
 11
25.2591567395
 21
551.889255457
 31
0.0
  0
LINE
  5
371
330
69
100
AcDbEntity
  8
$DDT_AUDIT_GENERATED_(93)
  6
Continuous
 62
     7
100
AcDbLine
 10
24.8261440376
 20
552.0833697408
 30
0.0
 11
24.8261440376
 21
551.9539602182
 31
0.0
  0
LINE
  5
372
330
69
100
AcDbEntity
  8
$DDT_AUDIT_GENERATED_(93)
  6
Continuous
 62
     7
100
AcDbLine
 10
24.8261440376
 20
551.9539602182
 30
0.0
 11
25.2591567395
 21
551.889255457
 31
0.0
  0
LINE
  5
373
330
69
100
AcDbEntity
  8
$DDT_AUDIT_GENERATED_(93)
  6
Continuous
 62
     7
100
AcDbLine
 10
25.2591567395
 20
551.889255457
 30
0.0
 11
25.6921694413
 21
551.9539602182
 31
0.0
  0
LINE
  5
374
330
69
100
AcDbEntity
  8
$DDT_AUDIT_GENERATED_(93)
  6
Continuous
 62
     7
100
AcDbLine
 10
25.6921694413
 20
551.9539602182
 30
0.0
 11
25.6921694413
 21
552.0833697408
 31
0.0
  0
LINE
  5
375
330
69
100
AcDbEntity
  8
$DDT_AUDIT_GENERATED_(93)
  6
Continuous
 62
     7
100
AcDbLine
 10
25.6921694413
 20
552.0833697408
 30
0.0
 11
25.2591567395
 21
552.1480745021
 31
0.0
  0
LINE
  5
376
330
69
100
AcDbEntity
  8
$DDT_AUDIT_GENERATED_(93)
  6
Continuous
 62
     7
100
AcDbLine
 10
25.2591567395
 20
552.1480745021
 30
0.0
 11
24.8261440376
 21
552.0833697408
 31
0.0
  0
LINE
  5
377
330
69
100
AcDbEntity
  8
$DDT_AUDIT_GENERATED_(93)
  6
Continuous
 62
     7
100
AcDbLine
 10
25.7921694413
 20
551.9091314446
 30
0.0
 11
25.7921694413
 21
551.6503123995
 31
0.0
  0
LINE
  5
378
330
69
100
AcDbEntity
  8
$DDT_AUDIT_GENERATED_(93)
  6
Continuous
 62
     7
100
AcDbLine
 10
25.3591567395
 20
551.8444266834
 30
0.0
 11
25.3591567395
 21
551.7150171608
 31
0.0
  0
LINE
  5
379
330
69
100
AcDbEntity
  8
$DDT_AUDIT_GENERATED_(93)
  6
Continuous
 62
     7
100
AcDbLine
 10
25.3591567395
 20
551.7150171608
 30
0.0
 11
25.7921694413
 21
551.6503123995
 31
0.0
  0
LINE
  5
37A
330
69
100
AcDbEntity
  8
$DDT_AUDIT_GENERATED_(93)
  6
Continuous
 62
     7
100
AcDbLine
 10
25.7921694413
 20
551.6503123995
 30
0.0
 11
26.2251821432
 21
551.7150171608
 31
0.0
  0
LINE
  5
37B
330
69
100
AcDbEntity
  8
$DDT_AUDIT_GENERATED_(93)
  6
Continuous
 62
     7
100
AcDbLine
 10
26.2251821432
 20
551.7150171608
 30
0.0
 11
26.2251821432
 21
551.8444266834
 31
0.0
  0
LINE
  5
37C
330
69
100
AcDbEntity
  8
$DDT_AUDIT_GENERATED_(93)
  6
Continuous
 62
     7
100
AcDbLine
 10
26.2251821432
 20
551.8444266834
 30
0.0
 11
25.7921694413
 21
551.9091314446
 31
0.0
  0
LINE
  5
37D
330
69
100
AcDbEntity
  8
$DDT_AUDIT_GENERATED_(93)
  6
Continuous
 62
     7
100
AcDbLine
 10
25.7921694413
 20
551.9091314446
 30
0.0
 11
25.3591567395
 21
551.8444266834
 31
0.0
  0
LINE
  5
37E
330
69
100
AcDbEntity
  8
$DDT_AUDIT_GENERATED_(93)
  6
Continuous
 62
     7
100
AcDbLine
 10
25.2591567395
 20
551.6701883872
 30
0.0
 11
25.2591567395
 21
551.4113693421
 31
0.0
  0
LINE
  5
37F
330
69
100
AcDbEntity
  8
$DDT_AUDIT_GENERATED_(93)
  6
Continuous
 62
     7
100
AcDbLine
 10
25.6921694413
 20
551.6054836259
 30
0.0
 11
25.2591567395
 21
551.6701883872
 31
0.0
  0
LINE
  5
380
330
69
100
AcDbEntity
  8
$DDT_AUDIT_GENERATED_(93)
  6
Continuous
 62
     7
100
AcDbLine
 10
25.2591567395
 20
551.6701883872
 30
0.0
 11
24.8261440376
 21
551.6054836259
 31
0.0
  0
LINE
  5
381
330
69
100
AcDbEntity
  8
$DDT_AUDIT_GENERATED_(93)
  6
Continuous
 62
     7
100
AcDbLine
 10
24.8261440376
 20
551.6054836259
 30
0.0
 11
24.8261440376
 21
551.4760741034
 31
0.0
  0
LINE
  5
382
330
69
100
AcDbEntity
  8
$DDT_AUDIT_GENERATED_(93)
  6
Continuous
 62
     7
100
AcDbLine
 10
24.8261440376
 20
551.4760741034
 30
0.0
 11
25.2591567395
 21
551.4113693421
 31
0.0
  0
LINE
  5
383
330
69
100
AcDbEntity
  8
$DDT_AUDIT_GENERATED_(93)
  6
Continuous
 62
     7
100
AcDbLine
 10
25.2591567395
 20
551.4113693421
 30
0.0
 11
25.6921694413
 21
551.4760741034
 31
0.0
  0
LINE
  5
384
330
69
100
AcDbEntity
  8
$DDT_AUDIT_GENERATED_(93)
  6
Continuous
 62
     7
100
AcDbLine
 10
25.6921694413
 20
551.4760741034
 30
0.0
 11
25.6921694413
 21
551.6054836259
 31
0.0
  0
ELLIPSE
  5
385
330
69
100
AcDbEntity
  8
$DDT_AUDIT_GENERATED_(93)
  6
Continuous
 62
     7
100
AcDbEllipse
 10
28.9902457616
 20
553.2133803464
 30
0.0
 11
-8.000000181457976
 21
-2.849312105701607E-8
 31
0.0
210
0.0
220
0.0
230
1.0
 40
0.2588190492
 41
1.217883109542762
 42
1.244398689141923
  0
LINE
  5
386
330
69
100
AcDbEntity
  8
$DDT_AUDIT_GENERATED_(93)
  6
Continuous
 62
     7
100
AcDbLine
 10
25.7921694413
 20
551.4312453298
 30
0.0
 11
25.3657516338
 21
551.3675260386
 31
0.0
  0
LINE
  5
387
330
69
100
AcDbEntity
  8
$DDT_AUDIT_GENERATED_(93)
  6
Continuous
 62
     7
100
AcDbLine
 10
26.2251821432
 20
551.2704364728
 30
0.0
 11
26.2251821432
 21
551.3665405685
 31
0.0
  0
LINE
  5
388
330
69
100
AcDbEntity
  8
$DDT_AUDIT_GENERATED_(93)
  6
Continuous
 62
     7
100
AcDbLine
 10
26.2251821432
 20
551.3665405685
 30
0.0
 11
25.7921694413
 21
551.4312453298
 31
0.0
  0
ELLIPSE
  5
389
330
69
100
AcDbEntity
  8
$DDT_AUDIT_GENERATED_(93)
  6
Continuous
 62
     7
100
AcDbEllipse
 10
28.9902456531
 20
553.2133802669
 30
0.0
 11
-8.000000000529601
 21
-1.019670459179167E-10
 31
0.0
210
0.0
220
0.0
230
1.0
 40
0.2588190451
 41
0.9937955925155227
 42
1.100599509824703
  0
LINE
  5
38A
330
69
100
AcDbEntity
  8
$DDT_AUDIT_GENERATED_(93)
  6
Continuous
 62
     7
100
AcDbLine
 10
24.6261440376
 20
551.4780450436
 30
0.0
 11
24.6261440376
 21
551.6054836259
 31
0.0
  0
LINE
  5
38B
330
69
100
AcDbEntity
  8
$DDT_AUDIT_GENERATED_(93)
  6
Continuous
 62
     7
100
AcDbLine
 10
24.6261440376
 20
551.6054836259
 30
0.0
 11
24.1931313357
 21
551.6701883872
 31
0.0
  0
LINE
  5
38C
330
69
100
AcDbEntity
  8
$DDT_AUDIT_GENERATED_(93)
  6
Continuous
 62
     7
100
AcDbLine
 10
24.1931313357
 20
551.6701883872
 30
0.0
 11
23.8715607642
 21
551.6221363394
 31
0.0
  0
ELLIPSE
  5
38D
330
69
100
AcDbEntity
  8
$DDT_AUDIT_GENERATED_(93)
  6
Continuous
 62
     7
100
AcDbEllipse
 10
28.9902456529
 20
553.2133802667
 30
0.0
 11
-8.000000000231841
 21
-2.301284163230832E-11
 31
0.0
210
0.0
220
0.0
230
1.0
 40
0.2588190451
 41
0.3323683972954878
 42
0.424004529118042
  0
LINE
  5
38E
330
69
100
AcDbEntity
  8
$DDT_AUDIT_GENERATED_(93)
  6
Continuous
 62
     7
100
AcDbLine
 10
21.4280678263
 20
552.5603627113
 30
0.0
 11
21.3915574829
 21
552.5658184244
 31
0.0
  0
LINE
  5
38F
330
69
100
AcDbEntity
  8
$DDT_AUDIT_GENERATED_(93)
  6
Continuous
 62
     7
100
AcDbLine
 10
21.4280678263
 20
552.5377948071
 30
0.0
 11
21.4280678263
 21
552.5603627113
 31
0.0
  0
ELLIPSE
  5
390
330
69
100
AcDbEntity
  8
$DDT_AUDIT_GENERATED_(93)
  6
Continuous
 62
     7
100
AcDbEllipse
 10
28.9902456413
 20
553.213380265
 30
0.0
 11
-7.99999998851121
 21
1.574417679561790E-9
 31
0.0
210
0.0
220
0.0
230
1.0
 40
0.2588190452
 41
0.4977780790630955
 42
0.5494194729473441
  0
LINE
  5
391
330
69
100
AcDbEntity
  8
$DDT_AUDIT_GENERATED_(93)
  6
Continuous
 62
     7
100
AcDbLine
 10
21.9610805282
 20
552.3223127982
 30
0.0
 11
21.6986557741
 21
552.3615267312
 31
0.0
  0
LINE
  5
392
330
69
100
AcDbEntity
  8
$DDT_AUDIT_GENERATED_(93)
  6
Continuous
 62
     7
100
AcDbLine
 10
21.9610805282
 20
552.2247444432
 30
0.0
 11
21.9610805282
 21
552.3223127982
 31
0.0
  0
ELLIPSE
  5
393
330
69
100
AcDbEntity
  8
$DDT_AUDIT_GENERATED_(93)
  6
Continuous
 62
     7
100
AcDbEllipse
 10
28.9902456533
 20
553.2133802668
 30
0.0
 11
-8.000000000652809
 21
-1.091800261310283E-10
 31
0.0
210
0.0
220
0.0
230
1.0
 40
0.2588190451
 41
0.623193022045343
 42
0.7148291538667292
  0
LINE
  5
394
330
69
100
AcDbEntity
  8
$DDT_AUDIT_GENERATED_(93)
  6
Continuous
 62
     7
100
AcDbLine
 10
22.4940932301
 20
552.0833697408
 30
0.0
 11
22.1676231511
 21
552.1321539183
 31
0.0
  0
LINE
  5
395
330
69
100
AcDbEntity
  8
$DDT_AUDIT_GENERATED_(93)
  6
Continuous
 62
     7
100
AcDbLine
 10
22.4940932301
 20
552.0049418749
 30
0.0
 11
22.4940932301
 21
552.0833697408
 31
0.0
  0
ELLIPSE
  5
396
330
69
100
AcDbEntity
  8
$DDT_AUDIT_GENERATED_(93)
  6
Continuous
 62
     7
100
AcDbEllipse
 10
28.9902456228
 20
553.2133802595
 30
0.0
 11
-7.999999968655849
 21
5.644561207329701E-9
 31
0.0
210
0.0
220
0.0
230
1.0
 40
0.2588190452
 41
0.7296729470780366
 42
0.7664283105333882
  0
LINE
  5
397
330
69
100
AcDbEntity
  8
$DDT_AUDIT_GENERATED_(93)
  6
Continuous
 62
     7
100
AcDbLine
 10
23.0271059319
 20
551.8444266834
 30
0.0
 11
22.9486037337
 21
551.8561572076
 31
0.0
  0
LINE
  5
398
330
69
100
AcDbEntity
  8
$DDT_AUDIT_GENERATED_(93)
  6
Continuous
 62
     7
100
AcDbLine
 10
23.0271059319
 20
551.8330964629
 30
0.0
 11
23.0271059319
 21
551.8444266834
 31
0.0
  0
ELLIPSE
  5
399
330
69
100
AcDbEntity
  8
$DDT_AUDIT_GENERATED_(93)
  6
Continuous
 62
     7
100
AcDbEllipse
 10
28.9902456524
 20
553.2133802663
 30
0.0
 11
-7.999999999255252
 21
5.691280779984709E-11
 31
0.0
210
0.0
220
0.0
230
1.0
 40
0.2588190451
 41
1.379565948506702
 42
1.471202080341271
  0
LINE
  5
39A
330
69
100
AcDbEntity
  8
$DDT_AUDIT_GENERATED_(93)
  6
Continuous
 62
     7
100
AcDbLine
 10
27.391207547
 20
551.1923022723
 30
0.0
 11
27.3532958905
 21
551.1866371621
 31
0.0
  0
LINE
  5
39B
330
69
100
AcDbEntity
  8
$DDT_AUDIT_GENERATED_(93)
  6
Continuous
 62
     7
100
AcDbLine
 10
27.4697097453
 20
551.1805717481
 30
0.0
 11
27.391207547
 21
551.1923022723
 31
0.0
  0
LINE
  5
39C
330
69
100
AcDbEntity
  8
$DDT_AUDIT_GENERATED_(93)
  6
Continuous
 62
     7
100
AcDbLine
 10
29.5232583545
 20
554.0596189615
 30
0.0
 11
29.5232583545
 21
553.8007999164
 31
0.0
  0
LINE
  5
39D
330
69
100
AcDbEntity
  8
$DDT_AUDIT_GENERATED_(93)
  6
Continuous
 62
     7
100
AcDbLine
 10
29.0902456526
 20
553.8655046777
 30
0.0
 11
29.5232583545
 21
553.8007999164
 31
0.0
  0
LINE
  5
39E
330
69
100
AcDbEntity
  8
$DDT_AUDIT_GENERATED_(93)
  6
Continuous
 62
     7
100
AcDbLine
 10
29.5232583545
 20
553.8007999164
 30
0.0
 11
29.9562710564
 21
553.8655046777
 31
0.0
  0
LINE
  5
39F
330
69
100
AcDbEntity
  8
$DDT_AUDIT_GENERATED_(93)
  6
Continuous
 62
     7
100
AcDbLine
 10
29.9562710564
 20
553.8655046777
 30
0.0
 11
29.9562710564
 21
553.9949142002
 31
0.0
  0
LINE
  5
3A0
330
69
100
AcDbEntity
  8
$DDT_AUDIT_GENERATED_(93)
  6
Continuous
 62
     7
100
AcDbLine
 10
29.9562710564
 20
553.9949142002
 30
0.0
 11
29.5232583545
 21
554.0596189615
 31
0.0
  0
LINE
  5
3A1
330
69
100
AcDbEntity
  8
$DDT_AUDIT_GENERATED_(93)
  6
Continuous
 62
     7
100
AcDbLine
 10
29.5232583545
 20
554.0596189615
 30
0.0
 11
29.0902456526
 21
553.9949142002
 31
0.0
  0
LINE
  5
3A2
330
69
100
AcDbEntity
  8
$DDT_AUDIT_GENERATED_(93)
  6
Continuous
 62
     7
100
AcDbLine
 10
29.0902456526
 20
553.9949142002
 30
0.0
 11
29.0902456526
 21
553.8655046777
 31
0.0
  0
LINE
  5
3A3
330
69
100
AcDbEntity
  8
$DDT_AUDIT_GENERATED_(93)
  6
Continuous
 62
     7
100
AcDbLine
 10
28.9902456526
 20
553.8206759041
 30
0.0
 11
28.9902456526
 21
553.561856859
 31
0.0
  0
LINE
  5
3A4
330
69
100
AcDbEntity
  8
$DDT_AUDIT_GENERATED_(93)
  6
Continuous
 62
     7
100
AcDbLine
 10
29.4232583545
 20
553.6265616203
 30
0.0
 11
29.4232583545
 21
553.7559711428
 31
0.0
  0
LINE
  5
3A5
330
69
100
AcDbEntity
  8
$DDT_AUDIT_GENERATED_(93)
  6
Continuous
 62
     7
100
AcDbLine
 10
29.4232583545
 20
553.7559711428
 30
0.0
 11
28.9902456526
 21
553.8206759041
 31
0.0
  0
LINE
  5
3A6
330
69
100
AcDbEntity
  8
$DDT_AUDIT_GENERATED_(93)
  6
Continuous
 62
     7
100
AcDbLine
 10
28.9902456526
 20
553.561856859
 30
0.0
 11
29.4232583545
 21
553.6265616203
 31
0.0
  0
LINE
  5
3A7
330
69
100
AcDbEntity
  8
$DDT_AUDIT_GENERATED_(93)
  6
Continuous
 62
     7
100
AcDbLine
 10
29.5232583545
 20
553.5817328466
 30
0.0
 11
29.5232583545
 21
553.3229138015
 31
0.0
  0
LINE
  5
3A8
330
69
100
AcDbEntity
  8
$DDT_AUDIT_GENERATED_(93)
  6
Continuous
 62
     7
100
AcDbLine
 10
29.9562710564
 20
553.5170280854
 30
0.0
 11
29.5232583545
 21
553.5817328466
 31
0.0
  0
LINE
  5
3A9
330
69
100
AcDbEntity
  8
$DDT_AUDIT_GENERATED_(93)
  6
Continuous
 62
     7
100
AcDbLine
 10
29.5232583545
 20
553.5817328466
 30
0.0
 11
29.0902456526
 21
553.5170280854
 31
0.0
  0
LINE
  5
3AA
330
69
100
AcDbEntity
  8
$DDT_AUDIT_GENERATED_(93)
  6
Continuous
 62
     7
100
AcDbLine
 10
29.0902456526
 20
553.5170280854
 30
0.0
 11
29.0902456526
 21
553.3876185628
 31
0.0
  0
LINE
  5
3AB
330
69
100
AcDbEntity
  8
$DDT_AUDIT_GENERATED_(93)
  6
Continuous
 62
     7
100
AcDbLine
 10
29.0902456526
 20
553.3876185628
 30
0.0
 11
29.5232583545
 21
553.3229138015
 31
0.0
  0
LINE
  5
3AC
330
69
100
AcDbEntity
  8
$DDT_AUDIT_GENERATED_(93)
  6
Continuous
 62
     7
100
AcDbLine
 10
29.5232583545
 20
553.3229138015
 30
0.0
 11
29.9562710564
 21
553.3876185628
 31
0.0
  0
LINE
  5
3AD
330
69
100
AcDbEntity
  8
$DDT_AUDIT_GENERATED_(93)
  6
Continuous
 62
     7
100
AcDbLine
 10
29.9562710564
 20
553.3876185628
 30
0.0
 11
29.9562710564
 21
553.5170280854
 31
0.0
  0
LINE
  5
3AE
330
69
100
AcDbEntity
  8
$DDT_AUDIT_GENERATED_(93)
  6
Continuous
 62
     7
100
AcDbLine
 10
30.0562710564
 20
553.8206759041
 30
0.0
 11
30.0562710564
 21
553.561856859
 31
0.0
  0
LINE
  5
3AF
330
69
100
AcDbEntity
  8
$DDT_AUDIT_GENERATED_(93)
  6
Continuous
 62
     7
100
AcDbLine
 10
29.6232583545
 20
553.6265616203
 30
0.0
 11
30.0562710564
 21
553.561856859
 31
0.0
  0
LINE
  5
3B0
330
69
100
AcDbEntity
  8
$DDT_AUDIT_GENERATED_(93)
  6
Continuous
 62
     7
100
AcDbLine
 10
30.0562710564
 20
553.561856859
 30
0.0
 11
30.4892837583
 21
553.6265616203
 31
0.0
  0
LINE
  5
3B1
330
69
100
AcDbEntity
  8
$DDT_AUDIT_GENERATED_(93)
  6
Continuous
 62
     7
100
AcDbLine
 10
30.4892837583
 20
553.6265616203
 30
0.0
 11
30.4892837583
 21
553.7559711428
 31
0.0
  0
LINE
  5
3B2
330
69
100
AcDbEntity
  8
$DDT_AUDIT_GENERATED_(93)
  6
Continuous
 62
     7
100
AcDbLine
 10
30.4892837583
 20
553.7559711428
 30
0.0
 11
30.0562710564
 21
553.8206759041
 31
0.0
  0
LINE
  5
3B3
330
69
100
AcDbEntity
  8
$DDT_AUDIT_GENERATED_(93)
  6
Continuous
 62
     7
100
AcDbLine
 10
30.0562710564
 20
553.8206759041
 30
0.0
 11
29.6232583545
 21
553.7559711428
 31
0.0
  0
LINE
  5
3B4
330
69
100
AcDbEntity
  8
$DDT_AUDIT_GENERATED_(93)
  6
Continuous
 62
     7
100
AcDbLine
 10
29.6232583545
 20
553.7559711428
 30
0.0
 11
29.6232583545
 21
553.6265616203
 31
0.0
  0
LINE
  5
3B5
330
69
100
AcDbEntity
  8
$DDT_AUDIT_GENERATED_(93)
  6
Continuous
 62
     7
100
AcDbLine
 10
30.5892837583
 20
553.5817328466
 30
0.0
 11
30.5892837583
 21
553.3229138015
 31
0.0
  0
LINE
  5
3B6
330
69
100
AcDbEntity
  8
$DDT_AUDIT_GENERATED_(93)
  6
Continuous
 62
     7
100
AcDbLine
 10
30.5892837583
 20
553.5817328466
 30
0.0
 11
30.1562710564
 21
553.5170280854
 31
0.0
  0
LINE
  5
3B7
330
69
100
AcDbEntity
  8
$DDT_AUDIT_GENERATED_(93)
  6
Continuous
 62
     7
100
AcDbLine
 10
30.1562710564
 20
553.5170280854
 30
0.0
 11
30.1562710564
 21
553.3876185628
 31
0.0
  0
LINE
  5
3B8
330
69
100
AcDbEntity
  8
$DDT_AUDIT_GENERATED_(93)
  6
Continuous
 62
     7
100
AcDbLine
 10
30.1562710564
 20
553.3876185628
 30
0.0
 11
30.5892837583
 21
553.3229138015
 31
0.0
  0
LINE
  5
3B9
330
69
100
AcDbEntity
  8
$DDT_AUDIT_GENERATED_(93)
  6
Continuous
 62
     7
100
AcDbLine
 10
30.5892837583
 20
553.3229138015
 30
0.0
 11
31.0222964602
 21
553.3876185628
 31
0.0
  0
LINE
  5
3BA
330
69
100
AcDbEntity
  8
$DDT_AUDIT_GENERATED_(93)
  6
Continuous
 62
     7
100
AcDbLine
 10
31.0222964602
 20
553.3876185628
 30
0.0
 11
31.0222964602
 21
553.5170280854
 31
0.0
  0
LINE
  5
3BB
330
69
100
AcDbEntity
  8
$DDT_AUDIT_GENERATED_(93)
  6
Continuous
 62
     7
100
AcDbLine
 10
31.0222964602
 20
553.5170280854
 30
0.0
 11
30.5892837583
 21
553.5817328466
 31
0.0
  0
LINE
  5
3BC
330
69
100
AcDbEntity
  8
$DDT_AUDIT_GENERATED_(93)
  6
Continuous
 62
     7
100
AcDbLine
 10
30.4892837583
 20
553.2780850279
 30
0.0
 11
30.0562710564
 21
553.3427897892
 31
0.0
  0
LINE
  5
3BD
330
69
100
AcDbEntity
  8
$DDT_AUDIT_GENERATED_(93)
  6
Continuous
 62
     7
100
AcDbLine
 10
30.0562710564
 20
553.3427897892
 30
0.0
 11
29.6232583545
 21
553.2780850279
 31
0.0
  0
LINE
  5
3BE
330
69
100
AcDbEntity
  8
$DDT_AUDIT_GENERATED_(93)
  6
Continuous
 62
     7
100
AcDbLine
 10
29.5232583545
 20
554.796368906
 30
0.0
 11
29.5232583545
 21
554.7565721461
 31
0.0
  0
LINE
  5
3BF
330
69
100
AcDbEntity
  8
$DDT_AUDIT_GENERATED_(93)
  6
Continuous
 62
     7
100
AcDbLine
 10
29.2324984874
 20
554.8000201737
 30
0.0
 11
29.5232583545
 21
554.7565721461
 31
0.0
  0
LINE
  5
3C0
330
69
100
AcDbEntity
  8
$DDT_AUDIT_GENERATED_(93)
  6
Continuous
 62
     7
100
AcDbLine
 10
29.5232583545
 20
554.7565721461
 30
0.0
 11
29.7566421399
 21
554.7914465091
 31
0.0
  0
LINE
  5
3C1
330
69
100
AcDbEntity
  8
$DDT_AUDIT_GENERATED_(93)
  6
Continuous
 62
     7
100
AcDbLine
 10
28.9902456526
 20
554.7764481338
 30
0.0
 11
29.4232583545
 21
554.7117433725
 31
0.0
  0
LINE
  5
3C2
330
69
100
AcDbEntity
  8
$DDT_AUDIT_GENERATED_(93)
  6
Continuous
 62
     7
100
AcDbLine
 10
29.4232583545
 20
554.7117433725
 30
0.0
 11
29.4232583545
 21
554.58233385
 31
0.0
  0
LINE
  5
3C3
330
69
100
AcDbEntity
  8
$DDT_AUDIT_GENERATED_(93)
  6
Continuous
 62
     7
100
AcDbLine
 10
29.4232583545
 20
554.58233385
 30
0.0
 11
28.9902456526
 21
554.5176290887
 31
0.0
  0
LINE
  5
3C4
330
69
100
AcDbEntity
  8
$DDT_AUDIT_GENERATED_(93)
  6
Continuous
 62
     7
100
AcDbLine
 10
28.9902456526
 20
554.7764481338
 30
0.0
 11
28.9902456526
 21
554.5176290887
 31
0.0
  0
LINE
  5
3C5
330
69
100
AcDbEntity
  8
$DDT_AUDIT_GENERATED_(93)
  6
Continuous
 62
     7
100
AcDbLine
 10
29.5232583545
 20
554.5375050764
 30
0.0
 11
29.5232583545
 21
554.2786860313
 31
0.0
  0
LINE
  5
3C6
330
69
100
AcDbEntity
  8
$DDT_AUDIT_GENERATED_(93)
  6
Continuous
 62
     7
100
AcDbLine
 10
29.5232583545
 20
554.5375050764
 30
0.0
 11
29.0902456526
 21
554.4728003151
 31
0.0
  0
LINE
  5
3C7
330
69
100
AcDbEntity
  8
$DDT_AUDIT_GENERATED_(93)
  6
Continuous
 62
     7
100
AcDbLine
 10
29.0902456526
 20
554.4728003151
 30
0.0
 11
29.0902456526
 21
554.3433907925
 31
0.0
  0
LINE
  5
3C8
330
69
100
AcDbEntity
  8
$DDT_AUDIT_GENERATED_(93)
  6
Continuous
 62
     7
100
AcDbLine
 10
29.0902456526
 20
554.3433907925
 30
0.0
 11
29.5232583545
 21
554.2786860313
 31
0.0
  0
LINE
  5
3C9
330
69
100
AcDbEntity
  8
$DDT_AUDIT_GENERATED_(93)
  6
Continuous
 62
     7
100
AcDbLine
 10
29.5232583545
 20
554.2786860313
 30
0.0
 11
29.9562710564
 21
554.3433907925
 31
0.0
  0
LINE
  5
3CA
330
69
100
AcDbEntity
  8
$DDT_AUDIT_GENERATED_(93)
  6
Continuous
 62
     7
100
AcDbLine
 10
29.9562710564
 20
554.3433907925
 30
0.0
 11
29.9562710564
 21
554.4728003151
 31
0.0
  0
LINE
  5
3CB
330
69
100
AcDbEntity
  8
$DDT_AUDIT_GENERATED_(93)
  6
Continuous
 62
     7
100
AcDbLine
 10
29.9562710564
 20
554.4728003151
 30
0.0
 11
29.5232583545
 21
554.5375050764
 31
0.0
  0
LINE
  5
3CC
330
69
100
AcDbEntity
  8
$DDT_AUDIT_GENERATED_(93)
  6
Continuous
 62
     7
100
AcDbLine
 10
28.9902456526
 20
554.2985620189
 30
0.0
 11
29.4232583545
 21
554.2338572577
 31
0.0
  0
LINE
  5
3CD
330
69
100
AcDbEntity
  8
$DDT_AUDIT_GENERATED_(93)
  6
Continuous
 62
     7
100
AcDbLine
 10
29.4232583545
 20
554.2338572577
 30
0.0
 11
29.4232583545
 21
554.1044477351
 31
0.0
  0
LINE
  5
3CE
330
69
100
AcDbEntity
  8
$DDT_AUDIT_GENERATED_(93)
  6
Continuous
 62
     7
100
AcDbLine
 10
29.4232583545
 20
554.1044477351
 30
0.0
 11
28.9902456526
 21
554.0397429738
 31
0.0
  0
LINE
  5
3CF
330
69
100
AcDbEntity
  8
$DDT_AUDIT_GENERATED_(93)
  6
Continuous
 62
     7
100
AcDbLine
 10
28.9902456526
 20
554.2985620189
 30
0.0
 11
28.9902456526
 21
554.0397429738
 31
0.0
  0
LINE
  5
3D0
330
69
100
AcDbEntity
  8
$DDT_AUDIT_GENERATED_(93)
  6
Continuous
 62
     7
100
AcDbLine
 10
30.0562710564
 20
554.2985620189
 30
0.0
 11
30.0562710564
 21
554.0397429738
 31
0.0
  0
LINE
  5
3D1
330
69
100
AcDbEntity
  8
$DDT_AUDIT_GENERATED_(93)
  6
Continuous
 62
     7
100
AcDbLine
 10
30.0562710564
 20
554.2985620189
 30
0.0
 11
29.6232583545
 21
554.2338572577
 31
0.0
  0
LINE
  5
3D2
330
69
100
AcDbEntity
  8
$DDT_AUDIT_GENERATED_(93)
  6
Continuous
 62
     7
100
AcDbLine
 10
29.6232583545
 20
554.2338572577
 30
0.0
 11
29.6232583545
 21
554.1044477351
 31
0.0
  0
LINE
  5
3D3
330
69
100
AcDbEntity
  8
$DDT_AUDIT_GENERATED_(93)
  6
Continuous
 62
     7
100
AcDbLine
 10
29.6232583545
 20
554.1044477351
 30
0.0
 11
30.0562710564
 21
554.0397429738
 31
0.0
  0
LINE
  5
3D4
330
69
100
AcDbEntity
  8
$DDT_AUDIT_GENERATED_(93)
  6
Continuous
 62
     7
100
AcDbLine
 10
30.0562710564
 20
554.0397429738
 30
0.0
 11
30.4892837583
 21
554.1044477351
 31
0.0
  0
LINE
  5
3D5
330
69
100
AcDbEntity
  8
$DDT_AUDIT_GENERATED_(93)
  6
Continuous
 62
     7
100
AcDbLine
 10
30.4892837583
 20
554.1044477351
 30
0.0
 11
30.4892837583
 21
554.2338572577
 31
0.0
  0
LINE
  5
3D6
330
69
100
AcDbEntity
  8
$DDT_AUDIT_GENERATED_(93)
  6
Continuous
 62
     7
100
AcDbLine
 10
30.4892837583
 20
554.2338572577
 30
0.0
 11
30.0562710564
 21
554.2985620189
 31
0.0
  0
LINE
  5
3D7
330
69
100
AcDbEntity
  8
$DDT_AUDIT_GENERATED_(93)
  6
Continuous
 62
     7
100
AcDbLine
 10
30.5892837583
 20
554.0596189615
 30
0.0
 11
30.5892837583
 21
553.8007999164
 31
0.0
  0
LINE
  5
3D8
330
69
100
AcDbEntity
  8
$DDT_AUDIT_GENERATED_(93)
  6
Continuous
 62
     7
100
AcDbLine
 10
30.1562710564
 20
553.9949142002
 30
0.0
 11
30.1562710564
 21
553.8655046777
 31
0.0
  0
LINE
  5
3D9
330
69
100
AcDbEntity
  8
$DDT_AUDIT_GENERATED_(93)
  6
Continuous
 62
     7
100
AcDbLine
 10
30.1562710564
 20
553.8655046777
 30
0.0
 11
30.5892837583
 21
553.8007999164
 31
0.0
  0
LINE
  5
3DA
330
69
100
AcDbEntity
  8
$DDT_AUDIT_GENERATED_(93)
  6
Continuous
 62
     7
100
AcDbLine
 10
30.5892837583
 20
553.8007999164
 30
0.0
 11
31.0222964602
 21
553.8655046777
 31
0.0
  0
LINE
  5
3DB
330
69
100
AcDbEntity
  8
$DDT_AUDIT_GENERATED_(93)
  6
Continuous
 62
     7
100
AcDbLine
 10
31.0222964602
 20
553.8655046777
 30
0.0
 11
31.0222964602
 21
553.9949142002
 31
0.0
  0
LINE
  5
3DC
330
69
100
AcDbEntity
  8
$DDT_AUDIT_GENERATED_(93)
  6
Continuous
 62
     7
100
AcDbLine
 10
31.0222964602
 20
553.9949142002
 30
0.0
 11
30.5892837583
 21
554.0596189615
 31
0.0
  0
LINE
  5
3DD
330
69
100
AcDbEntity
  8
$DDT_AUDIT_GENERATED_(93)
  6
Continuous
 62
     7
100
AcDbLine
 10
30.5892837583
 20
554.0596189615
 30
0.0
 11
30.1562710564
 21
553.9949142002
 31
0.0
  0
LINE
  5
3DE
330
69
100
AcDbEntity
  8
$DDT_AUDIT_GENERATED_(93)
  6
Continuous
 62
     7
100
AcDbLine
 10
31.1222964602
 20
553.8206759041
 30
0.0
 11
31.1222964602
 21
553.561856859
 31
0.0
  0
LINE
  5
3DF
330
69
100
AcDbEntity
  8
$DDT_AUDIT_GENERATED_(93)
  6
Continuous
 62
     7
100
AcDbLine
 10
30.6892837583
 20
553.7559711428
 30
0.0
 11
30.6892837583
 21
553.6265616203
 31
0.0
  0
LINE
  5
3E0
330
69
100
AcDbEntity
  8
$DDT_AUDIT_GENERATED_(93)
  6
Continuous
 62
     7
100
AcDbLine
 10
30.6892837583
 20
553.6265616203
 30
0.0
 11
31.1222964602
 21
553.561856859
 31
0.0
  0
LINE
  5
3E1
330
69
100
AcDbEntity
  8
$DDT_AUDIT_GENERATED_(93)
  6
Continuous
 62
     7
100
AcDbLine
 10
31.1222964602
 20
553.561856859
 30
0.0
 11
31.555309162
 21
553.6265616203
 31
0.0
  0
LINE
  5
3E2
330
69
100
AcDbEntity
  8
$DDT_AUDIT_GENERATED_(93)
  6
Continuous
 62
     7
100
AcDbLine
 10
31.555309162
 20
553.6265616203
 30
0.0
 11
31.555309162
 21
553.7559711428
 31
0.0
  0
LINE
  5
3E3
330
69
100
AcDbEntity
  8
$DDT_AUDIT_GENERATED_(93)
  6
Continuous
 62
     7
100
AcDbLine
 10
31.555309162
 20
553.7559711428
 30
0.0
 11
31.1222964602
 21
553.8206759041
 31
0.0
  0
LINE
  5
3E4
330
69
100
AcDbEntity
  8
$DDT_AUDIT_GENERATED_(93)
  6
Continuous
 62
     7
100
AcDbLine
 10
31.1222964602
 20
553.8206759041
 30
0.0
 11
30.6892837583
 21
553.7559711428
 31
0.0
  0
LINE
  5
3E5
330
69
100
AcDbEntity
  8
$DDT_AUDIT_GENERATED_(93)
  6
Continuous
 62
     7
100
AcDbLine
 10
31.655309162
 20
553.5817328466
 30
0.0
 11
31.655309162
 21
553.3229138015
 31
0.0
  0
LINE
  5
3E6
330
69
100
AcDbEntity
  8
$DDT_AUDIT_GENERATED_(93)
  6
Continuous
 62
     7
100
AcDbLine
 10
31.2222964602
 20
553.5170280854
 30
0.0
 11
31.2222964602
 21
553.3876185628
 31
0.0
  0
LINE
  5
3E7
330
69
100
AcDbEntity
  8
$DDT_AUDIT_GENERATED_(93)
  6
Continuous
 62
     7
100
AcDbLine
 10
31.2222964602
 20
553.3876185628
 30
0.0
 11
31.655309162
 21
553.3229138015
 31
0.0
  0
LINE
  5
3E8
330
69
100
AcDbEntity
  8
$DDT_AUDIT_GENERATED_(93)
  6
Continuous
 62
     7
100
AcDbLine
 10
31.655309162
 20
553.3229138015
 30
0.0
 11
32.0883218639
 21
553.3876185628
 31
0.0
  0
LINE
  5
3E9
330
69
100
AcDbEntity
  8
$DDT_AUDIT_GENERATED_(93)
  6
Continuous
 62
     7
100
AcDbLine
 10
32.0883218639
 20
553.3876185628
 30
0.0
 11
32.0883218639
 21
553.5170280854
 31
0.0
  0
LINE
  5
3EA
330
69
100
AcDbEntity
  8
$DDT_AUDIT_GENERATED_(93)
  6
Continuous
 62
     7
100
AcDbLine
 10
32.0883218639
 20
553.5170280854
 30
0.0
 11
31.655309162
 21
553.5817328466
 31
0.0
  0
LINE
  5
3EB
330
69
100
AcDbEntity
  8
$DDT_AUDIT_GENERATED_(93)
  6
Continuous
 62
     7
100
AcDbLine
 10
31.655309162
 20
553.5817328466
 30
0.0
 11
31.2222964602
 21
553.5170280854
 31
0.0
  0
LINE
  5
3EC
330
69
100
AcDbEntity
  8
$DDT_AUDIT_GENERATED_(93)
  6
Continuous
 62
     7
100
AcDbLine
 10
31.1222964602
 20
553.3427897892
 30
0.0
 11
30.6892837583
 21
553.2780850279
 31
0.0
  0
LINE
  5
3ED
330
69
100
AcDbEntity
  8
$DDT_AUDIT_GENERATED_(93)
  6
Continuous
 62
     7
100
AcDbLine
 10
31.555309162
 20
553.2780850279
 30
0.0
 11
31.1222964602
 21
553.3427897892
 31
0.0
  0
LINE
  5
3EE
330
69
100
AcDbEntity
  8
$DDT_AUDIT_GENERATED_(93)
  6
Continuous
 62
     7
100
AcDbLine
 10
32.6213345658
 20
553.2780850279
 30
0.0
 11
32.1883218639
 21
553.3427897892
 31
0.0
  0
LINE
  5
3EF
330
69
100
AcDbEntity
  8
$DDT_AUDIT_GENERATED_(93)
  6
Continuous
 62
     7
100
AcDbLine
 10
32.1883218639
 20
553.3427897892
 30
0.0
 11
31.755309162
 21
553.2780850279
 31
0.0
  0
LINE
  5
3F0
330
69
100
AcDbEntity
  8
$DDT_AUDIT_GENERATED_(93)
  6
Continuous
 62
     7
100
AcDbLine
 10
33.6873599696
 20
553.2780850279
 30
0.0
 11
33.2543472677
 21
553.3427897892
 31
0.0
  0
LINE
  5
3F1
330
69
100
AcDbEntity
  8
$DDT_AUDIT_GENERATED_(93)
  6
Continuous
 62
     7
100
AcDbLine
 10
33.2543472677
 20
553.3427897892
 30
0.0
 11
32.8213345658
 21
553.2780850279
 31
0.0
  0
LINE
  5
3F2
330
69
100
AcDbEntity
  8
$DDT_AUDIT_GENERATED_(93)
  6
Continuous
 62
     7
100
AcDbLine
 10
32.7213345658
 20
553.5817328466
 30
0.0
 11
32.7213345658
 21
553.3229138015
 31
0.0
  0
LINE
  5
3F3
330
69
100
AcDbEntity
  8
$DDT_AUDIT_GENERATED_(93)
  6
Continuous
 62
     7
100
AcDbLine
 10
32.7213345658
 20
553.3229138015
 30
0.0
 11
33.1543472677
 21
553.3876185628
 31
0.0
  0
LINE
  5
3F4
330
69
100
AcDbEntity
  8
$DDT_AUDIT_GENERATED_(93)
  6
Continuous
 62
     7
100
AcDbLine
 10
33.1543472677
 20
553.3876185628
 30
0.0
 11
33.1543472677
 21
553.5170280854
 31
0.0
  0
LINE
  5
3F5
330
69
100
AcDbEntity
  8
$DDT_AUDIT_GENERATED_(93)
  6
Continuous
 62
     7
100
AcDbLine
 10
33.1543472677
 20
553.5170280854
 30
0.0
 11
32.7213345658
 21
553.5817328466
 31
0.0
  0
LINE
  5
3F6
330
69
100
AcDbEntity
  8
$DDT_AUDIT_GENERATED_(93)
  6
Continuous
 62
     7
100
AcDbLine
 10
32.7213345658
 20
553.5817328466
 30
0.0
 11
32.2883218639
 21
553.5170280854
 31
0.0
  0
LINE
  5
3F7
330
69
100
AcDbEntity
  8
$DDT_AUDIT_GENERATED_(93)
  6
Continuous
 62
     7
100
AcDbLine
 10
32.2883218639
 20
553.5170280854
 30
0.0
 11
32.2883218639
 21
553.3876185628
 31
0.0
  0
LINE
  5
3F8
330
69
100
AcDbEntity
  8
$DDT_AUDIT_GENERATED_(93)
  6
Continuous
 62
     7
100
AcDbLine
 10
32.2883218639
 20
553.3876185628
 30
0.0
 11
32.7213345658
 21
553.3229138015
 31
0.0
  0
LINE
  5
3F9
330
69
100
AcDbEntity
  8
$DDT_AUDIT_GENERATED_(93)
  6
Continuous
 62
     7
100
AcDbLine
 10
32.1883218639
 20
553.8206759041
 30
0.0
 11
32.1883218639
 21
553.561856859
 31
0.0
  0
LINE
  5
3FA
330
69
100
AcDbEntity
  8
$DDT_AUDIT_GENERATED_(93)
  6
Continuous
 62
     7
100
AcDbLine
 10
32.1883218639
 20
553.561856859
 30
0.0
 11
32.6213345658
 21
553.6265616203
 31
0.0
  0
LINE
  5
3FB
330
69
100
AcDbEntity
  8
$DDT_AUDIT_GENERATED_(93)
  6
Continuous
 62
     7
100
AcDbLine
 10
32.6213345658
 20
553.6265616203
 30
0.0
 11
32.6213345658
 21
553.7559711428
 31
0.0
  0
LINE
  5
3FC
330
69
100
AcDbEntity
  8
$DDT_AUDIT_GENERATED_(93)
  6
Continuous
 62
     7
100
AcDbLine
 10
32.6213345658
 20
553.7559711428
 30
0.0
 11
32.1883218639
 21
553.8206759041
 31
0.0
  0
LINE
  5
3FD
330
69
100
AcDbEntity
  8
$DDT_AUDIT_GENERATED_(93)
  6
Continuous
 62
     7
100
AcDbLine
 10
32.1883218639
 20
553.8206759041
 30
0.0
 11
31.755309162
 21
553.7559711428
 31
0.0
  0
LINE
  5
3FE
330
69
100
AcDbEntity
  8
$DDT_AUDIT_GENERATED_(93)
  6
Continuous
 62
     7
100
AcDbLine
 10
31.755309162
 20
553.7559711428
 30
0.0
 11
31.755309162
 21
553.6265616203
 31
0.0
  0
LINE
  5
3FF
330
69
100
AcDbEntity
  8
$DDT_AUDIT_GENERATED_(93)
  6
Continuous
 62
     7
100
AcDbLine
 10
31.755309162
 20
553.6265616203
 30
0.0
 11
32.1883218639
 21
553.561856859
 31
0.0
  0
LINE
  5
400
330
69
100
AcDbEntity
  8
$DDT_AUDIT_GENERATED_(93)
  6
Continuous
 62
     7
100
AcDbLine
 10
31.655309162
 20
554.0596189615
 30
0.0
 11
31.655309162
 21
553.8007999164
 31
0.0
  0
LINE
  5
401
330
69
100
AcDbEntity
  8
$DDT_AUDIT_GENERATED_(93)
  6
Continuous
 62
     7
100
AcDbLine
 10
31.655309162
 20
553.8007999164
 30
0.0
 11
32.0883218639
 21
553.8655046777
 31
0.0
  0
LINE
  5
402
330
69
100
AcDbEntity
  8
$DDT_AUDIT_GENERATED_(93)
  6
Continuous
 62
     7
100
AcDbLine
 10
32.0883218639
 20
553.8655046777
 30
0.0
 11
32.0883218639
 21
553.9949142002
 31
0.0
  0
LINE
  5
403
330
69
100
AcDbEntity
  8
$DDT_AUDIT_GENERATED_(93)
  6
Continuous
 62
     7
100
AcDbLine
 10
32.0883218639
 20
553.9949142002
 30
0.0
 11
31.655309162
 21
554.0596189615
 31
0.0
  0
LINE
  5
404
330
69
100
AcDbEntity
  8
$DDT_AUDIT_GENERATED_(93)
  6
Continuous
 62
     7
100
AcDbLine
 10
31.655309162
 20
554.0596189615
 30
0.0
 11
31.2222964602
 21
553.9949142002
 31
0.0
  0
LINE
  5
405
330
69
100
AcDbEntity
  8
$DDT_AUDIT_GENERATED_(93)
  6
Continuous
 62
     7
100
AcDbLine
 10
31.2222964602
 20
553.9949142002
 30
0.0
 11
31.2222964602
 21
553.8655046777
 31
0.0
  0
LINE
  5
406
330
69
100
AcDbEntity
  8
$DDT_AUDIT_GENERATED_(93)
  6
Continuous
 62
     7
100
AcDbLine
 10
31.2222964602
 20
553.8655046777
 30
0.0
 11
31.655309162
 21
553.8007999164
 31
0.0
  0
LINE
  5
407
330
69
100
AcDbEntity
  8
$DDT_AUDIT_GENERATED_(93)
  6
Continuous
 62
     7
100
AcDbLine
 10
31.1222964602
 20
554.2985620189
 30
0.0
 11
31.1222964602
 21
554.0397429738
 31
0.0
  0
LINE
  5
408
330
69
100
AcDbEntity
  8
$DDT_AUDIT_GENERATED_(93)
  6
Continuous
 62
     7
100
AcDbLine
 10
31.1222964602
 20
554.0397429738
 30
0.0
 11
31.555309162
 21
554.1044477351
 31
0.0
  0
LINE
  5
409
330
69
100
AcDbEntity
  8
$DDT_AUDIT_GENERATED_(93)
  6
Continuous
 62
     7
100
AcDbLine
 10
31.555309162
 20
554.1044477351
 30
0.0
 11
31.555309162
 21
554.2338572577
 31
0.0
  0
LINE
  5
40A
330
69
100
AcDbEntity
  8
$DDT_AUDIT_GENERATED_(93)
  6
Continuous
 62
     7
100
AcDbLine
 10
31.555309162
 20
554.2338572577
 30
0.0
 11
31.1222964602
 21
554.2985620189
 31
0.0
  0
LINE
  5
40B
330
69
100
AcDbEntity
  8
$DDT_AUDIT_GENERATED_(93)
  6
Continuous
 62
     7
100
AcDbLine
 10
31.1222964602
 20
554.2985620189
 30
0.0
 11
30.6892837583
 21
554.2338572577
 31
0.0
  0
LINE
  5
40C
330
69
100
AcDbEntity
  8
$DDT_AUDIT_GENERATED_(93)
  6
Continuous
 62
     7
100
AcDbLine
 10
30.6892837583
 20
554.2338572577
 30
0.0
 11
30.6892837583
 21
554.1044477351
 31
0.0
  0
LINE
  5
40D
330
69
100
AcDbEntity
  8
$DDT_AUDIT_GENERATED_(93)
  6
Continuous
 62
     7
100
AcDbLine
 10
30.6892837583
 20
554.1044477351
 30
0.0
 11
31.1222964602
 21
554.0397429738
 31
0.0
  0
LINE
  5
40E
330
69
100
AcDbEntity
  8
$DDT_AUDIT_GENERATED_(93)
  6
Continuous
 62
     7
100
AcDbLine
 10
30.5892837583
 20
554.5375050764
 30
0.0
 11
30.5892837583
 21
554.2786860313
 31
0.0
  0
LINE
  5
40F
330
69
100
AcDbEntity
  8
$DDT_AUDIT_GENERATED_(93)
  6
Continuous
 62
     7
100
AcDbLine
 10
30.5892837583
 20
554.2786860313
 30
0.0
 11
31.0222964602
 21
554.3433907925
 31
0.0
  0
LINE
  5
410
330
69
100
AcDbEntity
  8
$DDT_AUDIT_GENERATED_(93)
  6
Continuous
 62
     7
100
AcDbLine
 10
31.0222964602
 20
554.3433907925
 30
0.0
 11
31.0222964602
 21
554.4728003151
 31
0.0
  0
LINE
  5
411
330
69
100
AcDbEntity
  8
$DDT_AUDIT_GENERATED_(93)
  6
Continuous
 62
     7
100
AcDbLine
 10
31.0222964602
 20
554.4728003151
 30
0.0
 11
30.5892837583
 21
554.5375050764
 31
0.0
  0
LINE
  5
412
330
69
100
AcDbEntity
  8
$DDT_AUDIT_GENERATED_(93)
  6
Continuous
 62
     7
100
AcDbLine
 10
30.5892837583
 20
554.5375050764
 30
0.0
 11
30.1562710564
 21
554.4728003151
 31
0.0
  0
LINE
  5
413
330
69
100
AcDbEntity
  8
$DDT_AUDIT_GENERATED_(93)
  6
Continuous
 62
     7
100
AcDbLine
 10
30.1562710564
 20
554.4728003151
 30
0.0
 11
30.1562710564
 21
554.3433907925
 31
0.0
  0
LINE
  5
414
330
69
100
AcDbEntity
  8
$DDT_AUDIT_GENERATED_(93)
  6
Continuous
 62
     7
100
AcDbLine
 10
30.1562710564
 20
554.3433907925
 30
0.0
 11
30.5892837583
 21
554.2786860313
 31
0.0
  0
LINE
  5
415
330
69
100
AcDbEntity
  8
$DDT_AUDIT_GENERATED_(93)
  6
Continuous
 62
     7
100
AcDbLine
 10
30.0562710564
 20
554.7764481338
 30
0.0
 11
30.0562710564
 21
554.5176290887
 31
0.0
  0
LINE
  5
416
330
69
100
AcDbEntity
  8
$DDT_AUDIT_GENERATED_(93)
  6
Continuous
 62
     7
100
AcDbLine
 10
30.0562710564
 20
554.5176290887
 30
0.0
 11
30.4892837583
 21
554.58233385
 31
0.0
  0
LINE
  5
417
330
69
100
AcDbEntity
  8
$DDT_AUDIT_GENERATED_(93)
  6
Continuous
 62
     7
100
AcDbLine
 10
30.4892837583
 20
554.58233385
 30
0.0
 11
30.4892837583
 21
554.7117433725
 31
0.0
  0
LINE
  5
418
330
69
100
AcDbEntity
  8
$DDT_AUDIT_GENERATED_(93)
  6
Continuous
 62
     7
100
AcDbLine
 10
30.4892837583
 20
554.7117433725
 30
0.0
 11
30.0562710564
 21
554.7764481338
 31
0.0
  0
LINE
  5
419
330
69
100
AcDbEntity
  8
$DDT_AUDIT_GENERATED_(93)
  6
Continuous
 62
     7
100
AcDbLine
 10
30.0562710564
 20
554.7764481338
 30
0.0
 11
29.6232583545
 21
554.7117433725
 31
0.0
  0
LINE
  5
41A
330
69
100
AcDbEntity
  8
$DDT_AUDIT_GENERATED_(93)
  6
Continuous
 62
     7
100
AcDbLine
 10
29.6232583545
 20
554.7117433725
 30
0.0
 11
29.6232583545
 21
554.58233385
 31
0.0
  0
LINE
  5
41B
330
69
100
AcDbEntity
  8
$DDT_AUDIT_GENERATED_(93)
  6
Continuous
 62
     7
100
AcDbLine
 10
29.6232583545
 20
554.58233385
 30
0.0
 11
30.0562710564
 21
554.5176290887
 31
0.0
  0
LINE
  5
41C
330
69
100
AcDbEntity
  8
$DDT_AUDIT_GENERATED_(93)
  6
Continuous
 62
     7
100
AcDbLine
 10
30.5892837583
 20
554.7591868635
 30
0.0
 11
30.5892837583
 21
554.7565721461
 31
0.0
  0
LINE
  5
41D
330
69
100
AcDbEntity
  8
$DDT_AUDIT_GENERATED_(93)
  6
Continuous
 62
     7
100
AcDbLine
 10
30.5892837583
 20
554.7565721461
 30
0.0
 11
30.6021991607
 21
554.758502085
 31
0.0
  0
LINE
  5
41E
330
69
100
AcDbEntity
  8
$DDT_AUDIT_GENERATED_(93)
  6
Continuous
 62
     7
100
AcDbLine
 10
30.5623539734
 20
554.7605962436
 30
0.0
 11
30.5892837583
 21
554.7565721461
 31
0.0
  0
LINE
  5
41F
330
69
100
AcDbEntity
  8
$DDT_AUDIT_GENERATED_(93)
  6
Continuous
 62
     7
100
AcDbLine
 10
31.1222964602
 20
554.7260843833
 30
0.0
 11
31.1222964602
 21
554.5176290887
 31
0.0
  0
LINE
  5
420
330
69
100
AcDbEntity
  8
$DDT_AUDIT_GENERATED_(93)
  6
Continuous
 62
     7
100
AcDbLine
 10
30.8900254324
 20
554.7417400494
 30
0.0
 11
30.6892837583
 21
554.7117433725
 31
0.0
  0
LINE
  5
421
330
69
100
AcDbEntity
  8
$DDT_AUDIT_GENERATED_(93)
  6
Continuous
 62
     7
100
AcDbLine
 10
30.6892837583
 20
554.7117433725
 30
0.0
 11
30.6892837583
 21
554.58233385
 31
0.0
  0
LINE
  5
422
330
69
100
AcDbEntity
  8
$DDT_AUDIT_GENERATED_(93)
  6
Continuous
 62
     7
100
AcDbLine
 10
30.6892837583
 20
554.58233385
 30
0.0
 11
31.1222964602
 21
554.5176290887
 31
0.0
  0
LINE
  5
423
330
69
100
AcDbEntity
  8
$DDT_AUDIT_GENERATED_(93)
  6
Continuous
 62
     7
100
AcDbLine
 10
31.1222964602
 20
554.5176290887
 30
0.0
 11
31.555309162
 21
554.58233385
 31
0.0
  0
LINE
  5
424
330
69
100
AcDbEntity
  8
$DDT_AUDIT_GENERATED_(93)
  6
Continuous
 62
     7
100
AcDbLine
 10
31.555309162
 20
554.58233385
 30
0.0
 11
31.555309162
 21
554.6916518493
 31
0.0
  0
LINE
  5
425
330
69
100
AcDbEntity
  8
$DDT_AUDIT_GENERATED_(93)
  6
Continuous
 62
     7
100
AcDbLine
 10
31.655309162
 20
554.5375050764
 30
0.0
 11
31.655309162
 21
554.2786860313
 31
0.0
  0
LINE
  5
426
330
69
100
AcDbEntity
  8
$DDT_AUDIT_GENERATED_(93)
  6
Continuous
 62
     7
100
AcDbLine
 10
31.655309162
 20
554.5375050764
 30
0.0
 11
31.2222964602
 21
554.4728003151
 31
0.0
  0
LINE
  5
427
330
69
100
AcDbEntity
  8
$DDT_AUDIT_GENERATED_(93)
  6
Continuous
 62
     7
100
AcDbLine
 10
31.2222964602
 20
554.4728003151
 30
0.0
 11
31.2222964602
 21
554.3433907925
 31
0.0
  0
LINE
  5
428
330
69
100
AcDbEntity
  8
$DDT_AUDIT_GENERATED_(93)
  6
Continuous
 62
     7
100
AcDbLine
 10
31.2222964602
 20
554.3433907925
 30
0.0
 11
31.655309162
 21
554.2786860313
 31
0.0
  0
LINE
  5
429
330
69
100
AcDbEntity
  8
$DDT_AUDIT_GENERATED_(93)
  6
Continuous
 62
     7
100
AcDbLine
 10
31.655309162
 20
554.2786860313
 30
0.0
 11
32.0883218639
 21
554.3433907925
 31
0.0
  0
LINE
  5
42A
330
69
100
AcDbEntity
  8
$DDT_AUDIT_GENERATED_(93)
  6
Continuous
 62
     7
100
AcDbLine
 10
32.0883218639
 20
554.3433907925
 30
0.0
 11
32.0883218639
 21
554.4728003151
 31
0.0
  0
LINE
  5
42B
330
69
100
AcDbEntity
  8
$DDT_AUDIT_GENERATED_(93)
  6
Continuous
 62
     7
100
AcDbLine
 10
32.0883218639
 20
554.4728003151
 30
0.0
 11
31.655309162
 21
554.5375050764
 31
0.0
  0
LINE
  5
42C
330
69
100
AcDbEntity
  8
$DDT_AUDIT_GENERATED_(93)
  6
Continuous
 62
     7
100
AcDbLine
 10
32.1883218639
 20
554.2985620189
 30
0.0
 11
32.1883218639
 21
554.0397429738
 31
0.0
  0
LINE
  5
42D
330
69
100
AcDbEntity
  8
$DDT_AUDIT_GENERATED_(93)
  6
Continuous
 62
     7
100
AcDbLine
 10
31.755309162
 20
554.2338572577
 30
0.0
 11
31.755309162
 21
554.1044477351
 31
0.0
  0
LINE
  5
42E
330
69
100
AcDbEntity
  8
$DDT_AUDIT_GENERATED_(93)
  6
Continuous
 62
     7
100
AcDbLine
 10
31.755309162
 20
554.1044477351
 30
0.0
 11
32.1883218639
 21
554.0397429738
 31
0.0
  0
LINE
  5
42F
330
69
100
AcDbEntity
  8
$DDT_AUDIT_GENERATED_(93)
  6
Continuous
 62
     7
100
AcDbLine
 10
32.1883218639
 20
554.0397429738
 30
0.0
 11
32.6213345658
 21
554.1044477351
 31
0.0
  0
LINE
  5
430
330
69
100
AcDbEntity
  8
$DDT_AUDIT_GENERATED_(93)
  6
Continuous
 62
     7
100
AcDbLine
 10
32.6213345658
 20
554.1044477351
 30
0.0
 11
32.6213345658
 21
554.2338572577
 31
0.0
  0
LINE
  5
431
330
69
100
AcDbEntity
  8
$DDT_AUDIT_GENERATED_(93)
  6
Continuous
 62
     7
100
AcDbLine
 10
32.6213345658
 20
554.2338572577
 30
0.0
 11
32.1883218639
 21
554.2985620189
 31
0.0
  0
LINE
  5
432
330
69
100
AcDbEntity
  8
$DDT_AUDIT_GENERATED_(93)
  6
Continuous
 62
     7
100
AcDbLine
 10
32.1883218639
 20
554.2985620189
 30
0.0
 11
31.755309162
 21
554.2338572577
 31
0.0
  0
LINE
  5
433
330
69
100
AcDbEntity
  8
$DDT_AUDIT_GENERATED_(93)
  6
Continuous
 62
     7
100
AcDbLine
 10
32.7213345658
 20
554.0596189615
 30
0.0
 11
32.7213345658
 21
553.8007999164
 31
0.0
  0
LINE
  5
434
330
69
100
AcDbEntity
  8
$DDT_AUDIT_GENERATED_(93)
  6
Continuous
 62
     7
100
AcDbLine
 10
32.7213345658
 20
554.0596189615
 30
0.0
 11
32.2883218639
 21
553.9949142002
 31
0.0
  0
LINE
  5
435
330
69
100
AcDbEntity
  8
$DDT_AUDIT_GENERATED_(93)
  6
Continuous
 62
     7
100
AcDbLine
 10
32.2883218639
 20
553.9949142002
 30
0.0
 11
32.2883218639
 21
553.8655046777
 31
0.0
  0
LINE
  5
436
330
69
100
AcDbEntity
  8
$DDT_AUDIT_GENERATED_(93)
  6
Continuous
 62
     7
100
AcDbLine
 10
32.2883218639
 20
553.8655046777
 30
0.0
 11
32.7213345658
 21
553.8007999164
 31
0.0
  0
LINE
  5
437
330
69
100
AcDbEntity
  8
$DDT_AUDIT_GENERATED_(93)
  6
Continuous
 62
     7
100
AcDbLine
 10
32.7213345658
 20
553.8007999164
 30
0.0
 11
33.1543472677
 21
553.8655046777
 31
0.0
  0
LINE
  5
438
330
69
100
AcDbEntity
  8
$DDT_AUDIT_GENERATED_(93)
  6
Continuous
 62
     7
100
AcDbLine
 10
33.1543472677
 20
553.8655046777
 30
0.0
 11
33.1543472677
 21
553.9949142002
 31
0.0
  0
LINE
  5
439
330
69
100
AcDbEntity
  8
$DDT_AUDIT_GENERATED_(93)
  6
Continuous
 62
     7
100
AcDbLine
 10
33.1543472677
 20
553.9949142002
 30
0.0
 11
32.7213345658
 21
554.0596189615
 31
0.0
  0
LINE
  5
43A
330
69
100
AcDbEntity
  8
$DDT_AUDIT_GENERATED_(93)
  6
Continuous
 62
     7
100
AcDbLine
 10
33.2543472677
 20
553.8206759041
 30
0.0
 11
33.2543472677
 21
553.561856859
 31
0.0
  0
LINE
  5
43B
330
69
100
AcDbEntity
  8
$DDT_AUDIT_GENERATED_(93)
  6
Continuous
 62
     7
100
AcDbLine
 10
32.8213345658
 20
553.7559711428
 30
0.0
 11
32.8213345658
 21
553.6265616203
 31
0.0
  0
LINE
  5
43C
330
69
100
AcDbEntity
  8
$DDT_AUDIT_GENERATED_(93)
  6
Continuous
 62
     7
100
AcDbLine
 10
32.8213345658
 20
553.6265616203
 30
0.0
 11
33.2543472677
 21
553.561856859
 31
0.0
  0
LINE
  5
43D
330
69
100
AcDbEntity
  8
$DDT_AUDIT_GENERATED_(93)
  6
Continuous
 62
     7
100
AcDbLine
 10
33.2543472677
 20
553.561856859
 30
0.0
 11
33.6873599696
 21
553.6265616203
 31
0.0
  0
LINE
  5
43E
330
69
100
AcDbEntity
  8
$DDT_AUDIT_GENERATED_(93)
  6
Continuous
 62
     7
100
AcDbLine
 10
33.6873599696
 20
553.6265616203
 30
0.0
 11
33.6873599696
 21
553.7559711428
 31
0.0
  0
LINE
  5
43F
330
69
100
AcDbEntity
  8
$DDT_AUDIT_GENERATED_(93)
  6
Continuous
 62
     7
100
AcDbLine
 10
33.6873599696
 20
553.7559711428
 30
0.0
 11
33.2543472677
 21
553.8206759041
 31
0.0
  0
LINE
  5
440
330
69
100
AcDbEntity
  8
$DDT_AUDIT_GENERATED_(93)
  6
Continuous
 62
     7
100
AcDbLine
 10
33.2543472677
 20
553.8206759041
 30
0.0
 11
32.8213345658
 21
553.7559711428
 31
0.0
  0
LINE
  5
441
330
69
100
AcDbEntity
  8
$DDT_AUDIT_GENERATED_(93)
  6
Continuous
 62
     7
100
AcDbLine
 10
33.7873599696
 20
553.5817328466
 30
0.0
 11
33.7873599696
 21
553.3229138015
 31
0.0
  0
LINE
  5
442
330
69
100
AcDbEntity
  8
$DDT_AUDIT_GENERATED_(93)
  6
Continuous
 62
     7
100
AcDbLine
 10
33.7873599696
 20
553.5817328466
 30
0.0
 11
33.3543472677
 21
553.5170280854
 31
0.0
  0
LINE
  5
443
330
69
100
AcDbEntity
  8
$DDT_AUDIT_GENERATED_(93)
  6
Continuous
 62
     7
100
AcDbLine
 10
33.3543472677
 20
553.5170280854
 30
0.0
 11
33.3543472677
 21
553.3876185628
 31
0.0
  0
LINE
  5
444
330
69
100
AcDbEntity
  8
$DDT_AUDIT_GENERATED_(93)
  6
Continuous
 62
     7
100
AcDbLine
 10
33.3543472677
 20
553.3876185628
 30
0.0
 11
33.7873599696
 21
553.3229138015
 31
0.0
  0
LINE
  5
445
330
69
100
AcDbEntity
  8
$DDT_AUDIT_GENERATED_(93)
  6
Continuous
 62
     7
100
AcDbLine
 10
33.7873599696
 20
553.3229138015
 30
0.0
 11
34.2203726715
 21
553.3876185628
 31
0.0
  0
LINE
  5
446
330
69
100
AcDbEntity
  8
$DDT_AUDIT_GENERATED_(93)
  6
Continuous
 62
     7
100
AcDbLine
 10
34.2203726715
 20
553.3876185628
 30
0.0
 11
34.2203726715
 21
553.5170280854
 31
0.0
  0
LINE
  5
447
330
69
100
AcDbEntity
  8
$DDT_AUDIT_GENERATED_(93)
  6
Continuous
 62
     7
100
AcDbLine
 10
34.2203726715
 20
553.5170280854
 30
0.0
 11
33.7873599696
 21
553.5817328466
 31
0.0
  0
LINE
  5
448
330
69
100
AcDbEntity
  8
$DDT_AUDIT_GENERATED_(93)
  6
Continuous
 62
     7
100
AcDbLine
 10
34.7533853733
 20
553.2780850279
 30
0.0
 11
34.3203726715
 21
553.3427897892
 31
0.0
  0
LINE
  5
449
330
69
100
AcDbEntity
  8
$DDT_AUDIT_GENERATED_(93)
  6
Continuous
 62
     7
100
AcDbLine
 10
34.3203726715
 20
553.3427897892
 30
0.0
 11
33.8873599696
 21
553.2780850279
 31
0.0
  0
LINE
  5
44A
330
69
100
AcDbEntity
  8
$DDT_AUDIT_GENERATED_(93)
  6
Continuous
 62
     7
100
AcDbLine
 10
35.8194107771
 20
553.2789781723
 30
0.0
 11
35.3863980752
 21
553.3436829335
 31
0.0
  0
LINE
  5
44B
330
69
100
AcDbEntity
  8
$DDT_AUDIT_GENERATED_(93)
  6
Continuous
 62
     7
100
AcDbLine
 10
35.3863980752
 20
553.3436829335
 30
0.0
 11
34.9533853733
 21
553.2789781723
 31
0.0
  0
LINE
  5
44C
330
69
100
AcDbEntity
  8
$DDT_AUDIT_GENERATED_(93)
  6
Continuous
 62
     7
100
AcDbLine
 10
34.8533853733
 20
553.5817328466
 30
0.0
 11
34.8533853733
 21
553.3229138015
 31
0.0
  0
LINE
  5
44D
330
69
100
AcDbEntity
  8
$DDT_AUDIT_GENERATED_(93)
  6
Continuous
 62
     7
100
AcDbLine
 10
34.4203726715
 20
553.3876185628
 30
0.0
 11
34.8533853733
 21
553.3229138015
 31
0.0
  0
LINE
  5
44E
330
69
100
AcDbEntity
  8
$DDT_AUDIT_GENERATED_(93)
  6
Continuous
 62
     7
100
AcDbLine
 10
34.8533853733
 20
553.3229138015
 30
0.0
 11
35.2863980752
 21
553.3876185628
 31
0.0
  0
LINE
  5
44F
330
69
100
AcDbEntity
  8
$DDT_AUDIT_GENERATED_(93)
  6
Continuous
 62
     7
100
AcDbLine
 10
35.2863980752
 20
553.3876185628
 30
0.0
 11
35.2863980752
 21
553.5170280854
 31
0.0
  0
LINE
  5
450
330
69
100
AcDbEntity
  8
$DDT_AUDIT_GENERATED_(93)
  6
Continuous
 62
     7
100
AcDbLine
 10
35.2863980752
 20
553.5170280854
 30
0.0
 11
34.8533853733
 21
553.5817328466
 31
0.0
  0
LINE
  5
451
330
69
100
AcDbEntity
  8
$DDT_AUDIT_GENERATED_(93)
  6
Continuous
 62
     7
100
AcDbLine
 10
34.8533853733
 20
553.5817328466
 30
0.0
 11
34.4203726715
 21
553.5170280854
 31
0.0
  0
LINE
  5
452
330
69
100
AcDbEntity
  8
$DDT_AUDIT_GENERATED_(93)
  6
Continuous
 62
     7
100
AcDbLine
 10
34.4203726715
 20
553.5170280854
 30
0.0
 11
34.4203726715
 21
553.3876185628
 31
0.0
  0
LINE
  5
453
330
69
100
AcDbEntity
  8
$DDT_AUDIT_GENERATED_(93)
  6
Continuous
 62
     7
100
AcDbLine
 10
34.3203726715
 20
553.8206759041
 30
0.0
 11
34.3203726715
 21
553.561856859
 31
0.0
  0
LINE
  5
454
330
69
100
AcDbEntity
  8
$DDT_AUDIT_GENERATED_(93)
  6
Continuous
 62
     7
100
AcDbLine
 10
34.3203726715
 20
553.561856859
 30
0.0
 11
34.7533853733
 21
553.6265616203
 31
0.0
  0
LINE
  5
455
330
69
100
AcDbEntity
  8
$DDT_AUDIT_GENERATED_(93)
  6
Continuous
 62
     7
100
AcDbLine
 10
34.7533853733
 20
553.6265616203
 30
0.0
 11
34.7533853733
 21
553.7559711428
 31
0.0
  0
LINE
  5
456
330
69
100
AcDbEntity
  8
$DDT_AUDIT_GENERATED_(93)
  6
Continuous
 62
     7
100
AcDbLine
 10
34.7533853733
 20
553.7559711428
 30
0.0
 11
34.3203726715
 21
553.8206759041
 31
0.0
  0
LINE
  5
457
330
69
100
AcDbEntity
  8
$DDT_AUDIT_GENERATED_(93)
  6
Continuous
 62
     7
100
AcDbLine
 10
34.3203726715
 20
553.8206759041
 30
0.0
 11
33.8873599696
 21
553.7559711428
 31
0.0
  0
LINE
  5
458
330
69
100
AcDbEntity
  8
$DDT_AUDIT_GENERATED_(93)
  6
Continuous
 62
     7
100
AcDbLine
 10
33.8873599696
 20
553.7559711428
 30
0.0
 11
33.8873599696
 21
553.6265616203
 31
0.0
  0
LINE
  5
459
330
69
100
AcDbEntity
  8
$DDT_AUDIT_GENERATED_(93)
  6
Continuous
 62
     7
100
AcDbLine
 10
33.8873599696
 20
553.6265616203
 30
0.0
 11
34.3203726715
 21
553.561856859
 31
0.0
  0
LINE
  5
45A
330
69
100
AcDbEntity
  8
$DDT_AUDIT_GENERATED_(93)
  6
Continuous
 62
     7
100
AcDbLine
 10
35.9194107771
 20
553.582625991
 30
0.0
 11
35.9194107771
 21
553.3238069459
 31
0.0
  0
LINE
  5
45B
330
69
100
AcDbEntity
  8
$DDT_AUDIT_GENERATED_(93)
  6
Continuous
 62
     7
100
AcDbLine
 10
35.4863980752
 20
553.3885117072
 30
0.0
 11
35.9194107771
 21
553.3238069459
 31
0.0
  0
LINE
  5
45C
330
69
100
AcDbEntity
  8
$DDT_AUDIT_GENERATED_(93)
  6
Continuous
 62
     7
100
AcDbLine
 10
35.9194107771
 20
553.3238069459
 30
0.0
 11
36.352423479
 21
553.3885117072
 31
0.0
  0
LINE
  5
45D
330
69
100
AcDbEntity
  8
$DDT_AUDIT_GENERATED_(93)
  6
Continuous
 62
     7
100
AcDbLine
 10
36.352423479
 20
553.3885117072
 30
0.0
 11
36.352423479
 21
553.5179212297
 31
0.0
  0
LINE
  5
45E
330
69
100
AcDbEntity
  8
$DDT_AUDIT_GENERATED_(93)
  6
Continuous
 62
     7
100
AcDbLine
 10
36.352423479
 20
553.5179212297
 30
0.0
 11
35.9194107771
 21
553.582625991
 31
0.0
  0
LINE
  5
45F
330
69
100
AcDbEntity
  8
$DDT_AUDIT_GENERATED_(93)
  6
Continuous
 62
     7
100
AcDbLine
 10
35.9194107771
 20
553.582625991
 30
0.0
 11
35.4863980752
 21
553.5179212297
 31
0.0
  0
LINE
  5
460
330
69
100
AcDbEntity
  8
$DDT_AUDIT_GENERATED_(93)
  6
Continuous
 62
     7
100
AcDbLine
 10
35.4863980752
 20
553.5179212297
 30
0.0
 11
35.4863980752
 21
553.3885117072
 31
0.0
  0
LINE
  5
461
330
69
100
AcDbEntity
  8
$DDT_AUDIT_GENERATED_(93)
  6
Continuous
 62
     7
100
AcDbLine
 10
36.452423479
 20
553.3436829335
 30
0.0
 11
36.0194107771
 21
553.2789781723
 31
0.0
  0
LINE
  5
462
330
69
100
AcDbEntity
  8
$DDT_AUDIT_GENERATED_(93)
  6
Continuous
 62
     7
100
AcDbLine
 10
36.6689404581
 20
553.3113289648
 30
0.0
 11
36.452423479
 21
553.3436829335
 31
0.0
  0
LINE
  5
463
330
69
100
AcDbEntity
  8
$DDT_AUDIT_GENERATED_(93)
  6
Continuous
 62
     7
100
AcDbLine
 10
36.552423479
 20
553.406002813
 30
0.0
 11
36.552423479
 21
553.3885117072
 31
0.0
  0
LINE
  5
464
330
69
100
AcDbEntity
  8
$DDT_AUDIT_GENERATED_(93)
  6
Continuous
 62
     7
100
AcDbLine
 10
36.552423479
 20
553.3885117072
 30
0.0
 11
36.5809061976
 21
553.384255556
 31
0.0
  0
LINE
  5
465
330
69
100
AcDbEntity
  8
$DDT_AUDIT_GENERATED_(93)
  6
Continuous
 62
     7
100
AcDbLine
 10
36.0194107771
 20
553.6274547646
 30
0.0
 11
36.2676448632
 21
553.5903613324
 31
0.0
  0
LINE
  5
466
330
69
100
AcDbEntity
  8
$DDT_AUDIT_GENERATED_(93)
  6
Continuous
 62
     7
100
AcDbLine
 10
36.0194107771
 20
553.719053177
 30
0.0
 11
36.0194107771
 21
553.6274547646
 31
0.0
  0
LINE
  5
467
330
69
100
AcDbEntity
  8
$DDT_AUDIT_GENERATED_(93)
  6
Continuous
 62
     7
100
AcDbLine
 10
35.3863980752
 20
553.8206759041
 30
0.0
 11
35.3863980752
 21
553.561856859
 31
0.0
  0
LINE
  5
468
330
69
100
AcDbEntity
  8
$DDT_AUDIT_GENERATED_(93)
  6
Continuous
 62
     7
100
AcDbLine
 10
35.8194107771
 20
553.6265616203
 30
0.0
 11
35.8194107771
 21
553.7559711428
 31
0.0
  0
LINE
  5
469
330
69
100
AcDbEntity
  8
$DDT_AUDIT_GENERATED_(93)
  6
Continuous
 62
     7
100
AcDbLine
 10
35.8194107771
 20
553.7559711428
 30
0.0
 11
35.3863980752
 21
553.8206759041
 31
0.0
  0
LINE
  5
46A
330
69
100
AcDbEntity
  8
$DDT_AUDIT_GENERATED_(93)
  6
Continuous
 62
     7
100
AcDbLine
 10
35.3863980752
 20
553.8206759041
 30
0.0
 11
34.9533853733
 21
553.7559711428
 31
0.0
  0
LINE
  5
46B
330
69
100
AcDbEntity
  8
$DDT_AUDIT_GENERATED_(93)
  6
Continuous
 62
     7
100
AcDbLine
 10
34.9533853733
 20
553.7559711428
 30
0.0
 11
34.9533853733
 21
553.6265616203
 31
0.0
  0
LINE
  5
46C
330
69
100
AcDbEntity
  8
$DDT_AUDIT_GENERATED_(93)
  6
Continuous
 62
     7
100
AcDbLine
 10
34.9533853733
 20
553.6265616203
 30
0.0
 11
35.3863980752
 21
553.561856859
 31
0.0
  0
LINE
  5
46D
330
69
100
AcDbEntity
  8
$DDT_AUDIT_GENERATED_(93)
  6
Continuous
 62
     7
100
AcDbLine
 10
35.3863980752
 20
553.561856859
 30
0.0
 11
35.8194107771
 21
553.6265616203
 31
0.0
  0
LINE
  5
46E
330
69
100
AcDbEntity
  8
$DDT_AUDIT_GENERATED_(93)
  6
Continuous
 62
     7
100
AcDbLine
 10
35.4863980752
 20
553.8655046777
 30
0.0
 11
35.7941452405
 21
553.819518251
 31
0.0
  0
LINE
  5
46F
330
69
100
AcDbEntity
  8
$DDT_AUDIT_GENERATED_(93)
  6
Continuous
 62
     7
100
AcDbLine
 10
35.4863980752
 20
553.9388557453
 30
0.0
 11
35.4863980752
 21
553.8655046777
 31
0.0
  0
LINE
  5
470
330
69
100
AcDbEntity
  8
$DDT_AUDIT_GENERATED_(93)
  6
Continuous
 62
     7
100
AcDbLine
 10
34.8533853733
 20
554.0596189615
 30
0.0
 11
34.8533853733
 21
553.8007999164
 31
0.0
  0
LINE
  5
471
330
69
100
AcDbEntity
  8
$DDT_AUDIT_GENERATED_(93)
  6
Continuous
 62
     7
100
AcDbLine
 10
34.4203726715
 20
553.9949142002
 30
0.0
 11
34.4203726715
 21
553.8655046777
 31
0.0
  0
LINE
  5
472
330
69
100
AcDbEntity
  8
$DDT_AUDIT_GENERATED_(93)
  6
Continuous
 62
     7
100
AcDbLine
 10
34.4203726715
 20
553.8655046777
 30
0.0
 11
34.8533853733
 21
553.8007999164
 31
0.0
  0
LINE
  5
473
330
69
100
AcDbEntity
  8
$DDT_AUDIT_GENERATED_(93)
  6
Continuous
 62
     7
100
AcDbLine
 10
34.8533853733
 20
553.8007999164
 30
0.0
 11
35.2863980752
 21
553.8655046777
 31
0.0
  0
LINE
  5
474
330
69
100
AcDbEntity
  8
$DDT_AUDIT_GENERATED_(93)
  6
Continuous
 62
     7
100
AcDbLine
 10
35.2863980752
 20
553.8655046777
 30
0.0
 11
35.2863980752
 21
553.9949142002
 31
0.0
  0
LINE
  5
475
330
69
100
AcDbEntity
  8
$DDT_AUDIT_GENERATED_(93)
  6
Continuous
 62
     7
100
AcDbLine
 10
35.2863980752
 20
553.9949142002
 30
0.0
 11
34.8533853733
 21
554.0596189615
 31
0.0
  0
LINE
  5
476
330
69
100
AcDbEntity
  8
$DDT_AUDIT_GENERATED_(93)
  6
Continuous
 62
     7
100
AcDbLine
 10
34.8533853733
 20
554.0596189615
 30
0.0
 11
34.4203726715
 21
553.9949142002
 31
0.0
  0
LINE
  5
477
330
69
100
AcDbEntity
  8
$DDT_AUDIT_GENERATED_(93)
  6
Continuous
 62
     7
100
AcDbLine
 10
34.9533853733
 20
554.1107011573
 30
0.0
 11
34.9533853733
 21
554.1044477351
 31
0.0
  0
LINE
  5
478
330
69
100
AcDbEntity
  8
$DDT_AUDIT_GENERATED_(93)
  6
Continuous
 62
     7
100
AcDbLine
 10
34.9533853733
 20
554.1044477351
 30
0.0
 11
34.9973024564
 21
554.0978852385
 31
0.0
  0
LINE
  5
479
330
69
100
AcDbEntity
  8
$DDT_AUDIT_GENERATED_(93)
  6
Continuous
 62
     7
100
AcDbLine
 10
34.3203726715
 20
554.2744578071
 30
0.0
 11
34.3203726715
 21
554.0397429738
 31
0.0
  0
LINE
  5
47A
330
69
100
AcDbEntity
  8
$DDT_AUDIT_GENERATED_(93)
  6
Continuous
 62
     7
100
AcDbLine
 10
34.7533853733
 20
554.1044477351
 30
0.0
 11
34.7533853733
 21
554.1664834155
 31
0.0
  0
LINE
  5
47B
330
69
100
AcDbEntity
  8
$DDT_AUDIT_GENERATED_(93)
  6
Continuous
 62
     7
100
AcDbLine
 10
34.2566404901
 20
554.2890385672
 30
0.0
 11
33.8873599696
 21
554.2338572577
 31
0.0
  0
LINE
  5
47C
330
69
100
AcDbEntity
  8
$DDT_AUDIT_GENERATED_(93)
  6
Continuous
 62
     7
100
AcDbLine
 10
33.8873599696
 20
554.2338572577
 30
0.0
 11
33.8873599696
 21
554.1044477351
 31
0.0
  0
LINE
  5
47D
330
69
100
AcDbEntity
  8
$DDT_AUDIT_GENERATED_(93)
  6
Continuous
 62
     7
100
AcDbLine
 10
33.8873599696
 20
554.1044477351
 30
0.0
 11
34.3203726715
 21
554.0397429738
 31
0.0
  0
LINE
  5
47E
330
69
100
AcDbEntity
  8
$DDT_AUDIT_GENERATED_(93)
  6
Continuous
 62
     7
100
AcDbLine
 10
34.3203726715
 20
554.0397429738
 30
0.0
 11
34.7533853733
 21
554.1044477351
 31
0.0
  0
LINE
  5
47F
330
69
100
AcDbEntity
  8
$DDT_AUDIT_GENERATED_(93)
  6
Continuous
 62
     7
100
AcDbLine
 10
33.2543472677
 20
554.2985620189
 30
0.0
 11
33.2543472677
 21
554.0397429738
 31
0.0
  0
LINE
  5
480
330
69
100
AcDbEntity
  8
$DDT_AUDIT_GENERATED_(93)
  6
Continuous
 62
     7
100
AcDbLine
 10
33.6873599696
 20
554.1044477351
 30
0.0
 11
33.6873599696
 21
554.2338572577
 31
0.0
  0
LINE
  5
481
330
69
100
AcDbEntity
  8
$DDT_AUDIT_GENERATED_(93)
  6
Continuous
 62
     7
100
AcDbLine
 10
33.6873599696
 20
554.2338572577
 30
0.0
 11
33.2543472677
 21
554.2985620189
 31
0.0
  0
LINE
  5
482
330
69
100
AcDbEntity
  8
$DDT_AUDIT_GENERATED_(93)
  6
Continuous
 62
     7
100
AcDbLine
 10
33.2543472677
 20
554.2985620189
 30
0.0
 11
32.8213345658
 21
554.2338572577
 31
0.0
  0
LINE
  5
483
330
69
100
AcDbEntity
  8
$DDT_AUDIT_GENERATED_(93)
  6
Continuous
 62
     7
100
AcDbLine
 10
32.8213345658
 20
554.2338572577
 30
0.0
 11
32.8213345658
 21
554.1044477351
 31
0.0
  0
LINE
  5
484
330
69
100
AcDbEntity
  8
$DDT_AUDIT_GENERATED_(93)
  6
Continuous
 62
     7
100
AcDbLine
 10
32.8213345658
 20
554.1044477351
 30
0.0
 11
33.2543472677
 21
554.0397429738
 31
0.0
  0
LINE
  5
485
330
69
100
AcDbEntity
  8
$DDT_AUDIT_GENERATED_(93)
  6
Continuous
 62
     7
100
AcDbLine
 10
33.2543472677
 20
554.0397429738
 30
0.0
 11
33.6873599696
 21
554.1044477351
 31
0.0
  0
LINE
  5
486
330
69
100
AcDbEntity
  8
$DDT_AUDIT_GENERATED_(93)
  6
Continuous
 62
     7
100
AcDbLine
 10
33.7873599696
 20
554.3874191315
 30
0.0
 11
33.7873599696
 21
554.2786860313
 31
0.0
  0
LINE
  5
487
330
69
100
AcDbEntity
  8
$DDT_AUDIT_GENERATED_(93)
  6
Continuous
 62
     7
100
AcDbLine
 10
33.7873599696
 20
554.2786860313
 30
0.0
 11
34.0949992613
 21
554.3246563385
 31
0.0
  0
LINE
  5
488
330
69
100
AcDbEntity
  8
$DDT_AUDIT_GENERATED_(93)
  6
Continuous
 62
     7
100
AcDbLine
 10
33.3543472677
 20
554.4657525766
 30
0.0
 11
33.3543472677
 21
554.3433907925
 31
0.0
  0
LINE
  5
489
330
69
100
AcDbEntity
  8
$DDT_AUDIT_GENERATED_(93)
  6
Continuous
 62
     7
100
AcDbLine
 10
33.3543472677
 20
554.3433907925
 30
0.0
 11
33.7873599696
 21
554.2786860313
 31
0.0
  0
LINE
  5
48A
330
69
100
AcDbEntity
  8
$DDT_AUDIT_GENERATED_(93)
  6
Continuous
 62
     7
100
AcDbLine
 10
32.7213345658
 20
554.5375050764
 30
0.0
 11
32.7213345658
 21
554.2786860313
 31
0.0
  0
LINE
  5
48B
330
69
100
AcDbEntity
  8
$DDT_AUDIT_GENERATED_(93)
  6
Continuous
 62
     7
100
AcDbLine
 10
33.1543472677
 20
554.3433907925
 30
0.0
 11
33.1543472677
 21
554.4728003151
 31
0.0
  0
LINE
  5
48C
330
69
100
AcDbEntity
  8
$DDT_AUDIT_GENERATED_(93)
  6
Continuous
 62
     7
100
AcDbLine
 10
33.1543472677
 20
554.4728003151
 30
0.0
 11
32.7213345658
 21
554.5375050764
 31
0.0
  0
LINE
  5
48D
330
69
100
AcDbEntity
  8
$DDT_AUDIT_GENERATED_(93)
  6
Continuous
 62
     7
100
AcDbLine
 10
32.7213345658
 20
554.5375050764
 30
0.0
 11
32.2883218639
 21
554.4728003151
 31
0.0
  0
LINE
  5
48E
330
69
100
AcDbEntity
  8
$DDT_AUDIT_GENERATED_(93)
  6
Continuous
 62
     7
100
AcDbLine
 10
32.2883218639
 20
554.4728003151
 30
0.0
 11
32.2883218639
 21
554.3433907925
 31
0.0
  0
LINE
  5
48F
330
69
100
AcDbEntity
  8
$DDT_AUDIT_GENERATED_(93)
  6
Continuous
 62
     7
100
AcDbLine
 10
32.2883218639
 20
554.3433907925
 30
0.0
 11
32.7213345658
 21
554.2786860313
 31
0.0
  0
LINE
  5
490
330
69
100
AcDbEntity
  8
$DDT_AUDIT_GENERATED_(93)
  6
Continuous
 62
     7
100
AcDbLine
 10
32.7213345658
 20
554.2786860313
 30
0.0
 11
33.1543472677
 21
554.3433907925
 31
0.0
  0
LINE
  5
491
330
69
100
AcDbEntity
  8
$DDT_AUDIT_GENERATED_(93)
  6
Continuous
 62
     7
100
AcDbLine
 10
32.1883218639
 20
554.6283271676
 30
0.0
 11
32.1883218639
 21
554.5176290887
 31
0.0
  0
LINE
  5
492
330
69
100
AcDbEntity
  8
$DDT_AUDIT_GENERATED_(93)
  6
Continuous
 62
     7
100
AcDbLine
 10
31.755309162
 20
554.6733611474
 30
0.0
 11
31.755309162
 21
554.58233385
 31
0.0
  0
LINE
  5
493
330
69
100
AcDbEntity
  8
$DDT_AUDIT_GENERATED_(93)
  6
Continuous
 62
     7
100
AcDbLine
 10
31.755309162
 20
554.58233385
 30
0.0
 11
32.1883218639
 21
554.5176290887
 31
0.0
  0
LINE
  5
494
330
69
100
AcDbEntity
  8
$DDT_AUDIT_GENERATED_(93)
  6
Continuous
 62
     7
100
AcDbLine
 10
32.1883218639
 20
554.5176290887
 30
0.0
 11
32.5966439205
 21
554.5786443455
 31
0.0
  0
LINE
  5
495
330
69
100
AcDbEntity
  8
$DDT_AUDIT_GENERATED_(93)
  6
Continuous
 62
     7
100
AcDbLine
 10
28.4572329508
 20
554.0596189615
 30
0.0
 11
28.4572329508
 21
553.8007999164
 31
0.0
  0
LINE
  5
496
330
69
100
AcDbEntity
  8
$DDT_AUDIT_GENERATED_(93)
  6
Continuous
 62
     7
100
AcDbLine
 10
28.0242202489
 20
553.8655046777
 30
0.0
 11
28.4572329508
 21
553.8007999164
 31
0.0
  0
LINE
  5
497
330
69
100
AcDbEntity
  8
$DDT_AUDIT_GENERATED_(93)
  6
Continuous
 62
     7
100
AcDbLine
 10
28.4572329508
 20
553.8007999164
 30
0.0
 11
28.8902456526
 21
553.8655046777
 31
0.0
  0
LINE
  5
498
330
69
100
AcDbEntity
  8
$DDT_AUDIT_GENERATED_(93)
  6
Continuous
 62
     7
100
AcDbLine
 10
28.8902456526
 20
553.8655046777
 30
0.0
 11
28.8902456526
 21
553.9949142002
 31
0.0
  0
LINE
  5
499
330
69
100
AcDbEntity
  8
$DDT_AUDIT_GENERATED_(93)
  6
Continuous
 62
     7
100
AcDbLine
 10
28.8902456526
 20
553.9949142002
 30
0.0
 11
28.4572329508
 21
554.0596189615
 31
0.0
  0
LINE
  5
49A
330
69
100
AcDbEntity
  8
$DDT_AUDIT_GENERATED_(93)
  6
Continuous
 62
     7
100
AcDbLine
 10
28.4572329508
 20
554.0596189615
 30
0.0
 11
28.0242202489
 21
553.9949142002
 31
0.0
  0
LINE
  5
49B
330
69
100
AcDbEntity
  8
$DDT_AUDIT_GENERATED_(93)
  6
Continuous
 62
     7
100
AcDbLine
 10
28.0242202489
 20
553.9949142002
 30
0.0
 11
28.0242202489
 21
553.8655046777
 31
0.0
  0
LINE
  5
49C
330
69
100
AcDbEntity
  8
$DDT_AUDIT_GENERATED_(93)
  6
Continuous
 62
     7
100
AcDbLine
 10
28.9902456526
 20
553.8206759041
 30
0.0
 11
28.5572329508
 21
553.7559711428
 31
0.0
  0
LINE
  5
49D
330
69
100
AcDbEntity
  8
$DDT_AUDIT_GENERATED_(93)
  6
Continuous
 62
     7
100
AcDbLine
 10
28.5572329508
 20
553.7559711428
 30
0.0
 11
28.5572329508
 21
553.6265616203
 31
0.0
  0
LINE
  5
49E
330
69
100
AcDbEntity
  8
$DDT_AUDIT_GENERATED_(93)
  6
Continuous
 62
     7
100
AcDbLine
 10
28.5572329508
 20
553.6265616203
 30
0.0
 11
28.9902456526
 21
553.561856859
 31
0.0
  0
LINE
  5
49F
330
69
100
AcDbEntity
  8
$DDT_AUDIT_GENERATED_(93)
  6
Continuous
 62
     7
100
AcDbLine
 10
28.4572329508
 20
553.5817328466
 30
0.0
 11
28.4572329508
 21
553.3229138015
 31
0.0
  0
LINE
  5
4A0
330
69
100
AcDbEntity
  8
$DDT_AUDIT_GENERATED_(93)
  6
Continuous
 62
     7
100
AcDbLine
 10
28.8902456526
 20
553.5170280854
 30
0.0
 11
28.4572329508
 21
553.5817328466
 31
0.0
  0
LINE
  5
4A1
330
69
100
AcDbEntity
  8
$DDT_AUDIT_GENERATED_(93)
  6
Continuous
 62
     7
100
AcDbLine
 10
28.4572329508
 20
553.5817328466
 30
0.0
 11
28.0242202489
 21
553.5170280854
 31
0.0
  0
LINE
  5
4A2
330
69
100
AcDbEntity
  8
$DDT_AUDIT_GENERATED_(93)
  6
Continuous
 62
     7
100
AcDbLine
 10
28.0242202489
 20
553.5170280854
 30
0.0
 11
28.0242202489
 21
553.3876185628
 31
0.0
  0
LINE
  5
4A3
330
69
100
AcDbEntity
  8
$DDT_AUDIT_GENERATED_(93)
  6
Continuous
 62
     7
100
AcDbLine
 10
28.0242202489
 20
553.3876185628
 30
0.0
 11
28.4572329508
 21
553.3229138015
 31
0.0
  0
LINE
  5
4A4
330
69
100
AcDbEntity
  8
$DDT_AUDIT_GENERATED_(93)
  6
Continuous
 62
     7
100
AcDbLine
 10
28.4572329508
 20
553.3229138015
 30
0.0
 11
28.8902456526
 21
553.3876185628
 31
0.0
  0
LINE
  5
4A5
330
69
100
AcDbEntity
  8
$DDT_AUDIT_GENERATED_(93)
  6
Continuous
 62
     7
100
AcDbLine
 10
28.8902456526
 20
553.3876185628
 30
0.0
 11
28.8902456526
 21
553.5170280854
 31
0.0
  0
LINE
  5
4A6
330
69
100
AcDbEntity
  8
$DDT_AUDIT_GENERATED_(93)
  6
Continuous
 62
     7
100
AcDbLine
 10
27.9242202489
 20
553.8206759041
 30
0.0
 11
27.9242202489
 21
553.561856859
 31
0.0
  0
LINE
  5
4A7
330
69
100
AcDbEntity
  8
$DDT_AUDIT_GENERATED_(93)
  6
Continuous
 62
     7
100
AcDbLine
 10
27.491207547
 20
553.6265616203
 30
0.0
 11
27.9242202489
 21
553.561856859
 31
0.0
  0
LINE
  5
4A8
330
69
100
AcDbEntity
  8
$DDT_AUDIT_GENERATED_(93)
  6
Continuous
 62
     7
100
AcDbLine
 10
27.9242202489
 20
553.561856859
 30
0.0
 11
28.3572329508
 21
553.6265616203
 31
0.0
  0
LINE
  5
4A9
330
69
100
AcDbEntity
  8
$DDT_AUDIT_GENERATED_(93)
  6
Continuous
 62
     7
100
AcDbLine
 10
28.3572329508
 20
553.6265616203
 30
0.0
 11
28.3572329508
 21
553.7559711428
 31
0.0
  0
LINE
  5
4AA
330
69
100
AcDbEntity
  8
$DDT_AUDIT_GENERATED_(93)
  6
Continuous
 62
     7
100
AcDbLine
 10
28.3572329508
 20
553.7559711428
 30
0.0
 11
27.9242202489
 21
553.8206759041
 31
0.0
  0
LINE
  5
4AB
330
69
100
AcDbEntity
  8
$DDT_AUDIT_GENERATED_(93)
  6
Continuous
 62
     7
100
AcDbLine
 10
27.9242202489
 20
553.8206759041
 30
0.0
 11
27.491207547
 21
553.7559711428
 31
0.0
  0
LINE
  5
4AC
330
69
100
AcDbEntity
  8
$DDT_AUDIT_GENERATED_(93)
  6
Continuous
 62
     7
100
AcDbLine
 10
27.491207547
 20
553.7559711428
 30
0.0
 11
27.491207547
 21
553.6265616203
 31
0.0
  0
LINE
  5
4AD
330
69
100
AcDbEntity
  8
$DDT_AUDIT_GENERATED_(93)
  6
Continuous
 62
     7
100
AcDbLine
 10
27.391207547
 20
553.5817328466
 30
0.0
 11
27.391207547
 21
553.3229138015
 31
0.0
  0
LINE
  5
4AE
330
69
100
AcDbEntity
  8
$DDT_AUDIT_GENERATED_(93)
  6
Continuous
 62
     7
100
AcDbLine
 10
27.8242202489
 20
553.3876185628
 30
0.0
 11
27.8242202489
 21
553.5170280854
 31
0.0
  0
LINE
  5
4AF
330
69
100
AcDbEntity
  8
$DDT_AUDIT_GENERATED_(93)
  6
Continuous
 62
     7
100
AcDbLine
 10
27.8242202489
 20
553.5170280854
 30
0.0
 11
27.391207547
 21
553.5817328466
 31
0.0
  0
LINE
  5
4B0
330
69
100
AcDbEntity
  8
$DDT_AUDIT_GENERATED_(93)
  6
Continuous
 62
     7
100
AcDbLine
 10
27.391207547
 20
553.5817328466
 30
0.0
 11
26.9581948451
 21
553.5170280854
 31
0.0
  0
LINE
  5
4B1
330
69
100
AcDbEntity
  8
$DDT_AUDIT_GENERATED_(93)
  6
Continuous
 62
     7
100
AcDbLine
 10
26.9581948451
 20
553.5170280854
 30
0.0
 11
26.9581948451
 21
553.3876185628
 31
0.0
  0
LINE
  5
4B2
330
69
100
AcDbEntity
  8
$DDT_AUDIT_GENERATED_(93)
  6
Continuous
 62
     7
100
AcDbLine
 10
26.9581948451
 20
553.3876185628
 30
0.0
 11
27.391207547
 21
553.3229138015
 31
0.0
  0
LINE
  5
4B3
330
69
100
AcDbEntity
  8
$DDT_AUDIT_GENERATED_(93)
  6
Continuous
 62
     7
100
AcDbLine
 10
27.391207547
 20
553.3229138015
 30
0.0
 11
27.8242202489
 21
553.3876185628
 31
0.0
  0
LINE
  5
4B4
330
69
100
AcDbEntity
  8
$DDT_AUDIT_GENERATED_(93)
  6
Continuous
 62
     7
100
AcDbLine
 10
28.3572329508
 20
553.2780850279
 30
0.0
 11
27.9242202489
 21
553.3427897892
 31
0.0
  0
LINE
  5
4B5
330
69
100
AcDbEntity
  8
$DDT_AUDIT_GENERATED_(93)
  6
Continuous
 62
     7
100
AcDbLine
 10
27.9242202489
 20
553.3427897892
 30
0.0
 11
27.491207547
 21
553.2780850279
 31
0.0
  0
LINE
  5
4B6
330
69
100
AcDbEntity
  8
$DDT_AUDIT_GENERATED_(93)
  6
Continuous
 62
     7
100
AcDbLine
 10
28.4572329508
 20
554.796368906
 30
0.0
 11
28.4572329508
 21
554.7565721461
 31
0.0
  0
LINE
  5
4B7
330
69
100
AcDbEntity
  8
$DDT_AUDIT_GENERATED_(93)
  6
Continuous
 62
     7
100
AcDbLine
 10
28.2238491654
 20
554.7914465091
 30
0.0
 11
28.4572329508
 21
554.7565721461
 31
0.0
  0
LINE
  5
4B8
330
69
100
AcDbEntity
  8
$DDT_AUDIT_GENERATED_(93)
  6
Continuous
 62
     7
100
AcDbLine
 10
28.4572329508
 20
554.7565721461
 30
0.0
 11
28.7479928179
 21
554.8000201737
 31
0.0
  0
LINE
  5
4B9
330
69
100
AcDbEntity
  8
$DDT_AUDIT_GENERATED_(93)
  6
Continuous
 62
     7
100
AcDbLine
 10
28.5572329508
 20
554.58233385
 30
0.0
 11
28.5572329508
 21
554.7117433725
 31
0.0
  0
LINE
  5
4BA
330
69
100
AcDbEntity
  8
$DDT_AUDIT_GENERATED_(93)
  6
Continuous
 62
     7
100
AcDbLine
 10
28.5572329508
 20
554.7117433725
 30
0.0
 11
28.9902456526
 21
554.7764481338
 31
0.0
  0
LINE
  5
4BB
330
69
100
AcDbEntity
  8
$DDT_AUDIT_GENERATED_(93)
  6
Continuous
 62
     7
100
AcDbLine
 10
28.9902456526
 20
554.5176290887
 30
0.0
 11
28.5572329508
 21
554.58233385
 31
0.0
  0
LINE
  5
4BC
330
69
100
AcDbEntity
  8
$DDT_AUDIT_GENERATED_(93)
  6
Continuous
 62
     7
100
AcDbLine
 10
28.4572329508
 20
554.5375050764
 30
0.0
 11
28.4572329508
 21
554.2786860313
 31
0.0
  0
LINE
  5
4BD
330
69
100
AcDbEntity
  8
$DDT_AUDIT_GENERATED_(93)
  6
Continuous
 62
     7
100
AcDbLine
 10
28.8902456526
 20
554.3433907925
 30
0.0
 11
28.8902456526
 21
554.4728003151
 31
0.0
  0
LINE
  5
4BE
330
69
100
AcDbEntity
  8
$DDT_AUDIT_GENERATED_(93)
  6
Continuous
 62
     7
100
AcDbLine
 10
28.8902456526
 20
554.4728003151
 30
0.0
 11
28.4572329508
 21
554.5375050764
 31
0.0
  0
LINE
  5
4BF
330
69
100
AcDbEntity
  8
$DDT_AUDIT_GENERATED_(93)
  6
Continuous
 62
     7
100
AcDbLine
 10
28.4572329508
 20
554.5375050764
 30
0.0
 11
28.0242202489
 21
554.4728003151
 31
0.0
  0
LINE
  5
4C0
330
69
100
AcDbEntity
  8
$DDT_AUDIT_GENERATED_(93)
  6
Continuous
 62
     7
100
AcDbLine
 10
28.0242202489
 20
554.4728003151
 30
0.0
 11
28.0242202489
 21
554.3433907925
 31
0.0
  0
LINE
  5
4C1
330
69
100
AcDbEntity
  8
$DDT_AUDIT_GENERATED_(93)
  6
Continuous
 62
     7
100
AcDbLine
 10
28.0242202489
 20
554.3433907925
 30
0.0
 11
28.4572329508
 21
554.2786860313
 31
0.0
  0
LINE
  5
4C2
330
69
100
AcDbEntity
  8
$DDT_AUDIT_GENERATED_(93)
  6
Continuous
 62
     7
100
AcDbLine
 10
28.4572329508
 20
554.2786860313
 30
0.0
 11
28.8902456526
 21
554.3433907925
 31
0.0
  0
LINE
  5
4C3
330
69
100
AcDbEntity
  8
$DDT_AUDIT_GENERATED_(93)
  6
Continuous
 62
     7
100
AcDbLine
 10
28.5572329508
 20
554.1044477351
 30
0.0
 11
28.5572329508
 21
554.2338572577
 31
0.0
  0
LINE
  5
4C4
330
69
100
AcDbEntity
  8
$DDT_AUDIT_GENERATED_(93)
  6
Continuous
 62
     7
100
AcDbLine
 10
28.5572329508
 20
554.2338572577
 30
0.0
 11
28.9902456526
 21
554.2985620189
 31
0.0
  0
LINE
  5
4C5
330
69
100
AcDbEntity
  8
$DDT_AUDIT_GENERATED_(93)
  6
Continuous
 62
     7
100
AcDbLine
 10
28.9902456526
 20
554.0397429738
 30
0.0
 11
28.5572329508
 21
554.1044477351
 31
0.0
  0
LINE
  5
4C6
330
69
100
AcDbEntity
  8
$DDT_AUDIT_GENERATED_(93)
  6
Continuous
 62
     7
100
AcDbLine
 10
27.9242202489
 20
554.2985620189
 30
0.0
 11
27.9242202489
 21
554.0397429738
 31
0.0
  0
LINE
  5
4C7
330
69
100
AcDbEntity
  8
$DDT_AUDIT_GENERATED_(93)
  6
Continuous
 62
     7
100
AcDbLine
 10
28.3572329508
 20
554.1044477351
 30
0.0
 11
28.3572329508
 21
554.2338572577
 31
0.0
  0
LINE
  5
4C8
330
69
100
AcDbEntity
  8
$DDT_AUDIT_GENERATED_(93)
  6
Continuous
 62
     7
100
AcDbLine
 10
28.3572329508
 20
554.2338572577
 30
0.0
 11
27.9242202489
 21
554.2985620189
 31
0.0
  0
LINE
  5
4C9
330
69
100
AcDbEntity
  8
$DDT_AUDIT_GENERATED_(93)
  6
Continuous
 62
     7
100
AcDbLine
 10
27.9242202489
 20
554.2985620189
 30
0.0
 11
27.491207547
 21
554.2338572577
 31
0.0
  0
LINE
  5
4CA
330
69
100
AcDbEntity
  8
$DDT_AUDIT_GENERATED_(93)
  6
Continuous
 62
     7
100
AcDbLine
 10
27.491207547
 20
554.2338572577
 30
0.0
 11
27.491207547
 21
554.1044477351
 31
0.0
  0
LINE
  5
4CB
330
69
100
AcDbEntity
  8
$DDT_AUDIT_GENERATED_(93)
  6
Continuous
 62
     7
100
AcDbLine
 10
27.491207547
 20
554.1044477351
 30
0.0
 11
27.9242202489
 21
554.0397429738
 31
0.0
  0
LINE
  5
4CC
330
69
100
AcDbEntity
  8
$DDT_AUDIT_GENERATED_(93)
  6
Continuous
 62
     7
100
AcDbLine
 10
27.9242202489
 20
554.0397429738
 30
0.0
 11
28.3572329508
 21
554.1044477351
 31
0.0
  0
LINE
  5
4CD
330
69
100
AcDbEntity
  8
$DDT_AUDIT_GENERATED_(93)
  6
Continuous
 62
     7
100
AcDbLine
 10
27.391207547
 20
554.0596189615
 30
0.0
 11
27.391207547
 21
553.8007999164
 31
0.0
  0
LINE
  5
4CE
330
69
100
AcDbEntity
  8
$DDT_AUDIT_GENERATED_(93)
  6
Continuous
 62
     7
100
AcDbLine
 10
27.391207547
 20
553.8007999164
 30
0.0
 11
27.8242202489
 21
553.8655046777
 31
0.0
  0
LINE
  5
4CF
330
69
100
AcDbEntity
  8
$DDT_AUDIT_GENERATED_(93)
  6
Continuous
 62
     7
100
AcDbLine
 10
27.8242202489
 20
553.8655046777
 30
0.0
 11
27.8242202489
 21
553.9949142002
 31
0.0
  0
LINE
  5
4D0
330
69
100
AcDbEntity
  8
$DDT_AUDIT_GENERATED_(93)
  6
Continuous
 62
     7
100
AcDbLine
 10
27.8242202489
 20
553.9949142002
 30
0.0
 11
27.391207547
 21
554.0596189615
 31
0.0
  0
LINE
  5
4D1
330
69
100
AcDbEntity
  8
$DDT_AUDIT_GENERATED_(93)
  6
Continuous
 62
     7
100
AcDbLine
 10
27.391207547
 20
554.0596189615
 30
0.0
 11
26.9581948451
 21
553.9949142002
 31
0.0
  0
LINE
  5
4D2
330
69
100
AcDbEntity
  8
$DDT_AUDIT_GENERATED_(93)
  6
Continuous
 62
     7
100
AcDbLine
 10
26.9581948451
 20
553.9949142002
 30
0.0
 11
26.9581948451
 21
553.8655046777
 31
0.0
  0
LINE
  5
4D3
330
69
100
AcDbEntity
  8
$DDT_AUDIT_GENERATED_(93)
  6
Continuous
 62
     7
100
AcDbLine
 10
26.9581948451
 20
553.8655046777
 30
0.0
 11
27.391207547
 21
553.8007999164
 31
0.0
  0
LINE
  5
4D4
330
69
100
AcDbEntity
  8
$DDT_AUDIT_GENERATED_(93)
  6
Continuous
 62
     7
100
AcDbLine
 10
26.8581948451
 20
553.8206759041
 30
0.0
 11
26.8581948451
 21
553.561856859
 31
0.0
  0
LINE
  5
4D5
330
69
100
AcDbEntity
  8
$DDT_AUDIT_GENERATED_(93)
  6
Continuous
 62
     7
100
AcDbLine
 10
26.8581948451
 20
553.561856859
 30
0.0
 11
27.291207547
 21
553.6265616203
 31
0.0
  0
LINE
  5
4D6
330
69
100
AcDbEntity
  8
$DDT_AUDIT_GENERATED_(93)
  6
Continuous
 62
     7
100
AcDbLine
 10
27.291207547
 20
553.6265616203
 30
0.0
 11
27.291207547
 21
553.7559711428
 31
0.0
  0
LINE
  5
4D7
330
69
100
AcDbEntity
  8
$DDT_AUDIT_GENERATED_(93)
  6
Continuous
 62
     7
100
AcDbLine
 10
27.291207547
 20
553.7559711428
 30
0.0
 11
26.8581948451
 21
553.8206759041
 31
0.0
  0
LINE
  5
4D8
330
69
100
AcDbEntity
  8
$DDT_AUDIT_GENERATED_(93)
  6
Continuous
 62
     7
100
AcDbLine
 10
26.8581948451
 20
553.8206759041
 30
0.0
 11
26.4251821432
 21
553.7559711428
 31
0.0
  0
LINE
  5
4D9
330
69
100
AcDbEntity
  8
$DDT_AUDIT_GENERATED_(93)
  6
Continuous
 62
     7
100
AcDbLine
 10
26.4251821432
 20
553.7559711428
 30
0.0
 11
26.4251821432
 21
553.6265616203
 31
0.0
  0
LINE
  5
4DA
330
69
100
AcDbEntity
  8
$DDT_AUDIT_GENERATED_(93)
  6
Continuous
 62
     7
100
AcDbLine
 10
26.4251821432
 20
553.6265616203
 30
0.0
 11
26.8581948451
 21
553.561856859
 31
0.0
  0
LINE
  5
4DB
330
69
100
AcDbEntity
  8
$DDT_AUDIT_GENERATED_(93)
  6
Continuous
 62
     7
100
AcDbLine
 10
26.3251821432
 20
553.5817328466
 30
0.0
 11
26.3251821432
 21
553.3229138015
 31
0.0
  0
LINE
  5
4DC
330
69
100
AcDbEntity
  8
$DDT_AUDIT_GENERATED_(93)
  6
Continuous
 62
     7
100
AcDbLine
 10
26.3251821432
 20
553.3229138015
 30
0.0
 11
26.7581948451
 21
553.3876185628
 31
0.0
  0
LINE
  5
4DD
330
69
100
AcDbEntity
  8
$DDT_AUDIT_GENERATED_(93)
  6
Continuous
 62
     7
100
AcDbLine
 10
26.7581948451
 20
553.3876185628
 30
0.0
 11
26.7581948451
 21
553.5170280854
 31
0.0
  0
LINE
  5
4DE
330
69
100
AcDbEntity
  8
$DDT_AUDIT_GENERATED_(93)
  6
Continuous
 62
     7
100
AcDbLine
 10
26.7581948451
 20
553.5170280854
 30
0.0
 11
26.3251821432
 21
553.5817328466
 31
0.0
  0
LINE
  5
4DF
330
69
100
AcDbEntity
  8
$DDT_AUDIT_GENERATED_(93)
  6
Continuous
 62
     7
100
AcDbLine
 10
26.3251821432
 20
553.5817328466
 30
0.0
 11
25.8921694413
 21
553.5170280854
 31
0.0
  0
LINE
  5
4E0
330
69
100
AcDbEntity
  8
$DDT_AUDIT_GENERATED_(93)
  6
Continuous
 62
     7
100
AcDbLine
 10
25.8921694413
 20
553.5170280854
 30
0.0
 11
25.8921694413
 21
553.3876185628
 31
0.0
  0
LINE
  5
4E1
330
69
100
AcDbEntity
  8
$DDT_AUDIT_GENERATED_(93)
  6
Continuous
 62
     7
100
AcDbLine
 10
25.8921694413
 20
553.3876185628
 30
0.0
 11
26.3251821432
 21
553.3229138015
 31
0.0
  0
LINE
  5
4E2
330
69
100
AcDbEntity
  8
$DDT_AUDIT_GENERATED_(93)
  6
Continuous
 62
     7
100
AcDbLine
 10
27.291207547
 20
553.2780850279
 30
0.0
 11
26.8581948451
 21
553.3427897892
 31
0.0
  0
LINE
  5
4E3
330
69
100
AcDbEntity
  8
$DDT_AUDIT_GENERATED_(93)
  6
Continuous
 62
     7
100
AcDbLine
 10
26.8581948451
 20
553.3427897892
 30
0.0
 11
26.4251821432
 21
553.2780850279
 31
0.0
  0
LINE
  5
4E4
330
69
100
AcDbEntity
  8
$DDT_AUDIT_GENERATED_(93)
  6
Continuous
 62
     7
100
AcDbLine
 10
26.2251821432
 20
553.2780850279
 30
0.0
 11
25.7921694413
 21
553.3427897892
 31
0.0
  0
LINE
  5
4E5
330
69
100
AcDbEntity
  8
$DDT_AUDIT_GENERATED_(93)
  6
Continuous
 62
     7
100
AcDbLine
 10
25.7921694413
 20
553.3427897892
 30
0.0
 11
25.3591567395
 21
553.2780850279
 31
0.0
  0
LINE
  5
4E6
330
69
100
AcDbEntity
  8
$DDT_AUDIT_GENERATED_(93)
  6
Continuous
 62
     7
100
AcDbLine
 10
25.1591567395
 20
553.2780850279
 30
0.0
 11
24.7261440376
 21
553.3427897892
 31
0.0
  0
LINE
  5
4E7
330
69
100
AcDbEntity
  8
$DDT_AUDIT_GENERATED_(93)
  6
Continuous
 62
     7
100
AcDbLine
 10
24.7261440376
 20
553.3427897892
 30
0.0
 11
24.2931313357
 21
553.2780850279
 31
0.0
  0
LINE
  5
4E8
330
69
100
AcDbEntity
  8
$DDT_AUDIT_GENERATED_(93)
  6
Continuous
 62
     7
100
AcDbLine
 10
25.2591567395
 20
553.5817328466
 30
0.0
 11
25.2591567395
 21
553.3229138015
 31
0.0
  0
LINE
  5
4E9
330
69
100
AcDbEntity
  8
$DDT_AUDIT_GENERATED_(93)
  6
Continuous
 62
     7
100
AcDbLine
 10
24.8261440376
 20
553.5170280854
 30
0.0
 11
24.8261440376
 21
553.3876185628
 31
0.0
  0
LINE
  5
4EA
330
69
100
AcDbEntity
  8
$DDT_AUDIT_GENERATED_(93)
  6
Continuous
 62
     7
100
AcDbLine
 10
24.8261440376
 20
553.3876185628
 30
0.0
 11
25.2591567395
 21
553.3229138015
 31
0.0
  0
LINE
  5
4EB
330
69
100
AcDbEntity
  8
$DDT_AUDIT_GENERATED_(93)
  6
Continuous
 62
     7
100
AcDbLine
 10
25.2591567395
 20
553.3229138015
 30
0.0
 11
25.6921694413
 21
553.3876185628
 31
0.0
  0
LINE
  5
4EC
330
69
100
AcDbEntity
  8
$DDT_AUDIT_GENERATED_(93)
  6
Continuous
 62
     7
100
AcDbLine
 10
25.6921694413
 20
553.3876185628
 30
0.0
 11
25.6921694413
 21
553.5170280854
 31
0.0
  0
LINE
  5
4ED
330
69
100
AcDbEntity
  8
$DDT_AUDIT_GENERATED_(93)
  6
Continuous
 62
     7
100
AcDbLine
 10
25.6921694413
 20
553.5170280854
 30
0.0
 11
25.2591567395
 21
553.5817328466
 31
0.0
  0
LINE
  5
4EE
330
69
100
AcDbEntity
  8
$DDT_AUDIT_GENERATED_(93)
  6
Continuous
 62
     7
100
AcDbLine
 10
25.2591567395
 20
553.5817328466
 30
0.0
 11
24.8261440376
 21
553.5170280854
 31
0.0
  0
LINE
  5
4EF
330
69
100
AcDbEntity
  8
$DDT_AUDIT_GENERATED_(93)
  6
Continuous
 62
     7
100
AcDbLine
 10
25.7921694413
 20
553.8206759041
 30
0.0
 11
25.7921694413
 21
553.561856859
 31
0.0
  0
LINE
  5
4F0
330
69
100
AcDbEntity
  8
$DDT_AUDIT_GENERATED_(93)
  6
Continuous
 62
     7
100
AcDbLine
 10
25.3591567395
 20
553.7559711428
 30
0.0
 11
25.3591567395
 21
553.6265616203
 31
0.0
  0
LINE
  5
4F1
330
69
100
AcDbEntity
  8
$DDT_AUDIT_GENERATED_(93)
  6
Continuous
 62
     7
100
AcDbLine
 10
25.3591567395
 20
553.6265616203
 30
0.0
 11
25.7921694413
 21
553.561856859
 31
0.0
  0
LINE
  5
4F2
330
69
100
AcDbEntity
  8
$DDT_AUDIT_GENERATED_(93)
  6
Continuous
 62
     7
100
AcDbLine
 10
25.7921694413
 20
553.561856859
 30
0.0
 11
26.2251821432
 21
553.6265616203
 31
0.0
  0
LINE
  5
4F3
330
69
100
AcDbEntity
  8
$DDT_AUDIT_GENERATED_(93)
  6
Continuous
 62
     7
100
AcDbLine
 10
26.2251821432
 20
553.6265616203
 30
0.0
 11
26.2251821432
 21
553.7559711428
 31
0.0
  0
LINE
  5
4F4
330
69
100
AcDbEntity
  8
$DDT_AUDIT_GENERATED_(93)
  6
Continuous
 62
     7
100
AcDbLine
 10
26.2251821432
 20
553.7559711428
 30
0.0
 11
25.7921694413
 21
553.8206759041
 31
0.0
  0
LINE
  5
4F5
330
69
100
AcDbEntity
  8
$DDT_AUDIT_GENERATED_(93)
  6
Continuous
 62
     7
100
AcDbLine
 10
25.7921694413
 20
553.8206759041
 30
0.0
 11
25.3591567395
 21
553.7559711428
 31
0.0
  0
LINE
  5
4F6
330
69
100
AcDbEntity
  8
$DDT_AUDIT_GENERATED_(93)
  6
Continuous
 62
     7
100
AcDbLine
 10
26.3251821432
 20
554.0596189615
 30
0.0
 11
26.3251821432
 21
553.8007999164
 31
0.0
  0
LINE
  5
4F7
330
69
100
AcDbEntity
  8
$DDT_AUDIT_GENERATED_(93)
  6
Continuous
 62
     7
100
AcDbLine
 10
25.8921694413
 20
553.9949142002
 30
0.0
 11
25.8921694413
 21
553.8655046777
 31
0.0
  0
LINE
  5
4F8
330
69
100
AcDbEntity
  8
$DDT_AUDIT_GENERATED_(93)
  6
Continuous
 62
     7
100
AcDbLine
 10
25.8921694413
 20
553.8655046777
 30
0.0
 11
26.3251821432
 21
553.8007999164
 31
0.0
  0
LINE
  5
4F9
330
69
100
AcDbEntity
  8
$DDT_AUDIT_GENERATED_(93)
  6
Continuous
 62
     7
100
AcDbLine
 10
26.3251821432
 20
553.8007999164
 30
0.0
 11
26.7581948451
 21
553.8655046777
 31
0.0
  0
LINE
  5
4FA
330
69
100
AcDbEntity
  8
$DDT_AUDIT_GENERATED_(93)
  6
Continuous
 62
     7
100
AcDbLine
 10
26.7581948451
 20
553.8655046777
 30
0.0
 11
26.7581948451
 21
553.9949142002
 31
0.0
  0
LINE
  5
4FB
330
69
100
AcDbEntity
  8
$DDT_AUDIT_GENERATED_(93)
  6
Continuous
 62
     7
100
AcDbLine
 10
26.7581948451
 20
553.9949142002
 30
0.0
 11
26.3251821432
 21
554.0596189615
 31
0.0
  0
LINE
  5
4FC
330
69
100
AcDbEntity
  8
$DDT_AUDIT_GENERATED_(93)
  6
Continuous
 62
     7
100
AcDbLine
 10
26.3251821432
 20
554.0596189615
 30
0.0
 11
25.8921694413
 21
553.9949142002
 31
0.0
  0
LINE
  5
4FD
330
69
100
AcDbEntity
  8
$DDT_AUDIT_GENERATED_(93)
  6
Continuous
 62
     7
100
AcDbLine
 10
26.8581948451
 20
554.2985620189
 30
0.0
 11
26.8581948451
 21
554.0397429738
 31
0.0
  0
LINE
  5
4FE
330
69
100
AcDbEntity
  8
$DDT_AUDIT_GENERATED_(93)
  6
Continuous
 62
     7
100
AcDbLine
 10
26.4251821432
 20
554.2338572577
 30
0.0
 11
26.4251821432
 21
554.1044477351
 31
0.0
  0
LINE
  5
4FF
330
69
100
AcDbEntity
  8
$DDT_AUDIT_GENERATED_(93)
  6
Continuous
 62
     7
100
AcDbLine
 10
26.4251821432
 20
554.1044477351
 30
0.0
 11
26.8581948451
 21
554.0397429738
 31
0.0
  0
LINE
  5
500
330
69
100
AcDbEntity
  8
$DDT_AUDIT_GENERATED_(93)
  6
Continuous
 62
     7
100
AcDbLine
 10
26.8581948451
 20
554.0397429738
 30
0.0
 11
27.291207547
 21
554.1044477351
 31
0.0
  0
LINE
  5
501
330
69
100
AcDbEntity
  8
$DDT_AUDIT_GENERATED_(93)
  6
Continuous
 62
     7
100
AcDbLine
 10
27.291207547
 20
554.1044477351
 30
0.0
 11
27.291207547
 21
554.2338572577
 31
0.0
  0
LINE
  5
502
330
69
100
AcDbEntity
  8
$DDT_AUDIT_GENERATED_(93)
  6
Continuous
 62
     7
100
AcDbLine
 10
27.291207547
 20
554.2338572577
 30
0.0
 11
26.8581948451
 21
554.2985620189
 31
0.0
  0
LINE
  5
503
330
69
100
AcDbEntity
  8
$DDT_AUDIT_GENERATED_(93)
  6
Continuous
 62
     7
100
AcDbLine
 10
26.8581948451
 20
554.2985620189
 30
0.0
 11
26.4251821432
 21
554.2338572577
 31
0.0
  0
LINE
  5
504
330
69
100
AcDbEntity
  8
$DDT_AUDIT_GENERATED_(93)
  6
Continuous
 62
     7
100
AcDbLine
 10
27.391207547
 20
554.5375050764
 30
0.0
 11
27.391207547
 21
554.2786860313
 31
0.0
  0
LINE
  5
505
330
69
100
AcDbEntity
  8
$DDT_AUDIT_GENERATED_(93)
  6
Continuous
 62
     7
100
AcDbLine
 10
26.9581948451
 20
554.4728003151
 30
0.0
 11
26.9581948451
 21
554.3433907925
 31
0.0
  0
LINE
  5
506
330
69
100
AcDbEntity
  8
$DDT_AUDIT_GENERATED_(93)
  6
Continuous
 62
     7
100
AcDbLine
 10
26.9581948451
 20
554.3433907925
 30
0.0
 11
27.391207547
 21
554.2786860313
 31
0.0
  0
LINE
  5
507
330
69
100
AcDbEntity
  8
$DDT_AUDIT_GENERATED_(93)
  6
Continuous
 62
     7
100
AcDbLine
 10
27.391207547
 20
554.2786860313
 30
0.0
 11
27.8242202489
 21
554.3433907925
 31
0.0
  0
LINE
  5
508
330
69
100
AcDbEntity
  8
$DDT_AUDIT_GENERATED_(93)
  6
Continuous
 62
     7
100
AcDbLine
 10
27.8242202489
 20
554.3433907925
 30
0.0
 11
27.8242202489
 21
554.4728003151
 31
0.0
  0
LINE
  5
509
330
69
100
AcDbEntity
  8
$DDT_AUDIT_GENERATED_(93)
  6
Continuous
 62
     7
100
AcDbLine
 10
27.8242202489
 20
554.4728003151
 30
0.0
 11
27.391207547
 21
554.5375050764
 31
0.0
  0
LINE
  5
50A
330
69
100
AcDbEntity
  8
$DDT_AUDIT_GENERATED_(93)
  6
Continuous
 62
     7
100
AcDbLine
 10
27.391207547
 20
554.5375050764
 30
0.0
 11
26.9581948451
 21
554.4728003151
 31
0.0
  0
LINE
  5
50B
330
69
100
AcDbEntity
  8
$DDT_AUDIT_GENERATED_(93)
  6
Continuous
 62
     7
100
AcDbLine
 10
27.9242202489
 20
554.7764481338
 30
0.0
 11
27.9242202489
 21
554.5176290887
 31
0.0
  0
LINE
  5
50C
330
69
100
AcDbEntity
  8
$DDT_AUDIT_GENERATED_(93)
  6
Continuous
 62
     7
100
AcDbLine
 10
27.491207547
 20
554.7117433725
 30
0.0
 11
27.491207547
 21
554.58233385
 31
0.0
  0
LINE
  5
50D
330
69
100
AcDbEntity
  8
$DDT_AUDIT_GENERATED_(93)
  6
Continuous
 62
     7
100
AcDbLine
 10
27.491207547
 20
554.58233385
 30
0.0
 11
27.9242202489
 21
554.5176290887
 31
0.0
  0
LINE
  5
50E
330
69
100
AcDbEntity
  8
$DDT_AUDIT_GENERATED_(93)
  6
Continuous
 62
     7
100
AcDbLine
 10
27.9242202489
 20
554.5176290887
 30
0.0
 11
28.3572329508
 21
554.58233385
 31
0.0
  0
LINE
  5
50F
330
69
100
AcDbEntity
  8
$DDT_AUDIT_GENERATED_(93)
  6
Continuous
 62
     7
100
AcDbLine
 10
28.3572329508
 20
554.58233385
 30
0.0
 11
28.3572329508
 21
554.7117433725
 31
0.0
  0
LINE
  5
510
330
69
100
AcDbEntity
  8
$DDT_AUDIT_GENERATED_(93)
  6
Continuous
 62
     7
100
AcDbLine
 10
28.3572329508
 20
554.7117433725
 30
0.0
 11
27.9242202489
 21
554.7764481338
 31
0.0
  0
LINE
  5
511
330
69
100
AcDbEntity
  8
$DDT_AUDIT_GENERATED_(93)
  6
Continuous
 62
     7
100
AcDbLine
 10
27.9242202489
 20
554.7764481338
 30
0.0
 11
27.491207547
 21
554.7117433725
 31
0.0
  0
LINE
  5
512
330
69
100
AcDbEntity
  8
$DDT_AUDIT_GENERATED_(93)
  6
Continuous
 62
     7
100
AcDbLine
 10
27.391207547
 20
554.7591868635
 30
0.0
 11
27.391207547
 21
554.7565721461
 31
0.0
  0
LINE
  5
513
330
69
100
AcDbEntity
  8
$DDT_AUDIT_GENERATED_(93)
  6
Continuous
 62
     7
100
AcDbLine
 10
27.3782921446
 20
554.758502085
 30
0.0
 11
27.391207547
 21
554.7565721461
 31
0.0
  0
LINE
  5
514
330
69
100
AcDbEntity
  8
$DDT_AUDIT_GENERATED_(93)
  6
Continuous
 62
     7
100
AcDbLine
 10
27.391207547
 20
554.7565721461
 30
0.0
 11
27.4181373319
 21
554.7605962436
 31
0.0
  0
LINE
  5
515
330
69
100
AcDbEntity
  8
$DDT_AUDIT_GENERATED_(93)
  6
Continuous
 62
     7
100
AcDbLine
 10
26.8581948451
 20
554.7260843833
 30
0.0
 11
26.8581948451
 21
554.5176290887
 31
0.0
  0
LINE
  5
516
330
69
100
AcDbEntity
  8
$DDT_AUDIT_GENERATED_(93)
  6
Continuous
 62
     7
100
AcDbLine
 10
27.291207547
 20
554.58233385
 30
0.0
 11
27.291207547
 21
554.7117433725
 31
0.0
  0
LINE
  5
517
330
69
100
AcDbEntity
  8
$DDT_AUDIT_GENERATED_(93)
  6
Continuous
 62
     7
100
AcDbLine
 10
27.291207547
 20
554.7117433725
 30
0.0
 11
27.0904658729
 21
554.7417400494
 31
0.0
  0
LINE
  5
518
330
69
100
AcDbEntity
  8
$DDT_AUDIT_GENERATED_(93)
  6
Continuous
 62
     7
100
AcDbLine
 10
26.4251821432
 20
554.6916518493
 30
0.0
 11
26.4251821432
 21
554.58233385
 31
0.0
  0
LINE
  5
519
330
69
100
AcDbEntity
  8
$DDT_AUDIT_GENERATED_(93)
  6
Continuous
 62
     7
100
AcDbLine
 10
26.4251821432
 20
554.58233385
 30
0.0
 11
26.8581948451
 21
554.5176290887
 31
0.0
  0
LINE
  5
51A
330
69
100
AcDbEntity
  8
$DDT_AUDIT_GENERATED_(93)
  6
Continuous
 62
     7
100
AcDbLine
 10
26.8581948451
 20
554.5176290887
 30
0.0
 11
27.291207547
 21
554.58233385
 31
0.0
  0
LINE
  5
51B
330
69
100
AcDbEntity
  8
$DDT_AUDIT_GENERATED_(93)
  6
Continuous
 62
     7
100
AcDbLine
 10
26.3251821432
 20
554.5375050764
 30
0.0
 11
26.3251821432
 21
554.2786860313
 31
0.0
  0
LINE
  5
51C
330
69
100
AcDbEntity
  8
$DDT_AUDIT_GENERATED_(93)
  6
Continuous
 62
     7
100
AcDbLine
 10
26.7581948451
 20
554.3433907925
 30
0.0
 11
26.7581948451
 21
554.4728003151
 31
0.0
  0
LINE
  5
51D
330
69
100
AcDbEntity
  8
$DDT_AUDIT_GENERATED_(93)
  6
Continuous
 62
     7
100
AcDbLine
 10
26.7581948451
 20
554.4728003151
 30
0.0
 11
26.3251821432
 21
554.5375050764
 31
0.0
  0
LINE
  5
51E
330
69
100
AcDbEntity
  8
$DDT_AUDIT_GENERATED_(93)
  6
Continuous
 62
     7
100
AcDbLine
 10
26.3251821432
 20
554.5375050764
 30
0.0
 11
25.8921694413
 21
554.4728003151
 31
0.0
  0
LINE
  5
51F
330
69
100
AcDbEntity
  8
$DDT_AUDIT_GENERATED_(93)
  6
Continuous
 62
     7
100
AcDbLine
 10
25.8921694413
 20
554.4728003151
 30
0.0
 11
25.8921694413
 21
554.3433907925
 31
0.0
  0
LINE
  5
520
330
69
100
AcDbEntity
  8
$DDT_AUDIT_GENERATED_(93)
  6
Continuous
 62
     7
100
AcDbLine
 10
25.8921694413
 20
554.3433907925
 30
0.0
 11
26.3251821432
 21
554.2786860313
 31
0.0
  0
LINE
  5
521
330
69
100
AcDbEntity
  8
$DDT_AUDIT_GENERATED_(93)
  6
Continuous
 62
     7
100
AcDbLine
 10
26.3251821432
 20
554.2786860313
 30
0.0
 11
26.7581948451
 21
554.3433907925
 31
0.0
  0
LINE
  5
522
330
69
100
AcDbEntity
  8
$DDT_AUDIT_GENERATED_(93)
  6
Continuous
 62
     7
100
AcDbLine
 10
25.7921694413
 20
554.2985620189
 30
0.0
 11
25.7921694413
 21
554.0397429738
 31
0.0
  0
LINE
  5
523
330
69
100
AcDbEntity
  8
$DDT_AUDIT_GENERATED_(93)
  6
Continuous
 62
     7
100
AcDbLine
 10
25.7921694413
 20
554.0397429738
 30
0.0
 11
26.2251821432
 21
554.1044477351
 31
0.0
  0
LINE
  5
524
330
69
100
AcDbEntity
  8
$DDT_AUDIT_GENERATED_(93)
  6
Continuous
 62
     7
100
AcDbLine
 10
26.2251821432
 20
554.1044477351
 30
0.0
 11
26.2251821432
 21
554.2338572577
 31
0.0
  0
LINE
  5
525
330
69
100
AcDbEntity
  8
$DDT_AUDIT_GENERATED_(93)
  6
Continuous
 62
     7
100
AcDbLine
 10
26.2251821432
 20
554.2338572577
 30
0.0
 11
25.7921694413
 21
554.2985620189
 31
0.0
  0
LINE
  5
526
330
69
100
AcDbEntity
  8
$DDT_AUDIT_GENERATED_(93)
  6
Continuous
 62
     7
100
AcDbLine
 10
25.7921694413
 20
554.2985620189
 30
0.0
 11
25.3591567395
 21
554.2338572577
 31
0.0
  0
LINE
  5
527
330
69
100
AcDbEntity
  8
$DDT_AUDIT_GENERATED_(93)
  6
Continuous
 62
     7
100
AcDbLine
 10
25.3591567395
 20
554.2338572577
 30
0.0
 11
25.3591567395
 21
554.1044477351
 31
0.0
  0
LINE
  5
528
330
69
100
AcDbEntity
  8
$DDT_AUDIT_GENERATED_(93)
  6
Continuous
 62
     7
100
AcDbLine
 10
25.3591567395
 20
554.1044477351
 30
0.0
 11
25.7921694413
 21
554.0397429738
 31
0.0
  0
LINE
  5
529
330
69
100
AcDbEntity
  8
$DDT_AUDIT_GENERATED_(93)
  6
Continuous
 62
     7
100
AcDbLine
 10
25.2591567395
 20
554.0596189615
 30
0.0
 11
25.2591567395
 21
553.8007999164
 31
0.0
  0
LINE
  5
52A
330
69
100
AcDbEntity
  8
$DDT_AUDIT_GENERATED_(93)
  6
Continuous
 62
     7
100
AcDbLine
 10
25.6921694413
 20
553.8655046777
 30
0.0
 11
25.6921694413
 21
553.9949142002
 31
0.0
  0
LINE
  5
52B
330
69
100
AcDbEntity
  8
$DDT_AUDIT_GENERATED_(93)
  6
Continuous
 62
     7
100
AcDbLine
 10
25.6921694413
 20
553.9949142002
 30
0.0
 11
25.2591567395
 21
554.0596189615
 31
0.0
  0
LINE
  5
52C
330
69
100
AcDbEntity
  8
$DDT_AUDIT_GENERATED_(93)
  6
Continuous
 62
     7
100
AcDbLine
 10
25.2591567395
 20
554.0596189615
 30
0.0
 11
24.8261440376
 21
553.9949142002
 31
0.0
  0
LINE
  5
52D
330
69
100
AcDbEntity
  8
$DDT_AUDIT_GENERATED_(93)
  6
Continuous
 62
     7
100
AcDbLine
 10
24.8261440376
 20
553.9949142002
 30
0.0
 11
24.8261440376
 21
553.8655046777
 31
0.0
  0
LINE
  5
52E
330
69
100
AcDbEntity
  8
$DDT_AUDIT_GENERATED_(93)
  6
Continuous
 62
     7
100
AcDbLine
 10
24.8261440376
 20
553.8655046777
 30
0.0
 11
25.2591567395
 21
553.8007999164
 31
0.0
  0
LINE
  5
52F
330
69
100
AcDbEntity
  8
$DDT_AUDIT_GENERATED_(93)
  6
Continuous
 62
     7
100
AcDbLine
 10
25.2591567395
 20
553.8007999164
 30
0.0
 11
25.6921694413
 21
553.8655046777
 31
0.0
  0
LINE
  5
530
330
69
100
AcDbEntity
  8
$DDT_AUDIT_GENERATED_(93)
  6
Continuous
 62
     7
100
AcDbLine
 10
24.7261440376
 20
553.8206759041
 30
0.0
 11
24.7261440376
 21
553.561856859
 31
0.0
  0
LINE
  5
531
330
69
100
AcDbEntity
  8
$DDT_AUDIT_GENERATED_(93)
  6
Continuous
 62
     7
100
AcDbLine
 10
24.7261440376
 20
553.561856859
 30
0.0
 11
25.1591567395
 21
553.6265616203
 31
0.0
  0
LINE
  5
532
330
69
100
AcDbEntity
  8
$DDT_AUDIT_GENERATED_(93)
  6
Continuous
 62
     7
100
AcDbLine
 10
25.1591567395
 20
553.6265616203
 30
0.0
 11
25.1591567395
 21
553.7559711428
 31
0.0
  0
LINE
  5
533
330
69
100
AcDbEntity
  8
$DDT_AUDIT_GENERATED_(93)
  6
Continuous
 62
     7
100
AcDbLine
 10
25.1591567395
 20
553.7559711428
 30
0.0
 11
24.7261440376
 21
553.8206759041
 31
0.0
  0
LINE
  5
534
330
69
100
AcDbEntity
  8
$DDT_AUDIT_GENERATED_(93)
  6
Continuous
 62
     7
100
AcDbLine
 10
24.7261440376
 20
553.8206759041
 30
0.0
 11
24.2931313357
 21
553.7559711428
 31
0.0
  0
LINE
  5
535
330
69
100
AcDbEntity
  8
$DDT_AUDIT_GENERATED_(93)
  6
Continuous
 62
     7
100
AcDbLine
 10
24.2931313357
 20
553.7559711428
 30
0.0
 11
24.2931313357
 21
553.6265616203
 31
0.0
  0
LINE
  5
536
330
69
100
AcDbEntity
  8
$DDT_AUDIT_GENERATED_(93)
  6
Continuous
 62
     7
100
AcDbLine
 10
24.2931313357
 20
553.6265616203
 30
0.0
 11
24.7261440376
 21
553.561856859
 31
0.0
  0
LINE
  5
537
330
69
100
AcDbEntity
  8
$DDT_AUDIT_GENERATED_(93)
  6
Continuous
 62
     7
100
AcDbLine
 10
24.1931313357
 20
553.5817328466
 30
0.0
 11
24.1931313357
 21
553.3229138015
 31
0.0
  0
LINE
  5
538
330
69
100
AcDbEntity
  8
$DDT_AUDIT_GENERATED_(93)
  6
Continuous
 62
     7
100
AcDbLine
 10
24.6261440376
 20
553.3876185628
 30
0.0
 11
24.6261440376
 21
553.5170280854
 31
0.0
  0
LINE
  5
539
330
69
100
AcDbEntity
  8
$DDT_AUDIT_GENERATED_(93)
  6
Continuous
 62
     7
100
AcDbLine
 10
24.6261440376
 20
553.5170280854
 30
0.0
 11
24.1931313357
 21
553.5817328466
 31
0.0
  0
LINE
  5
53A
330
69
100
AcDbEntity
  8
$DDT_AUDIT_GENERATED_(93)
  6
Continuous
 62
     7
100
AcDbLine
 10
24.1931313357
 20
553.5817328466
 30
0.0
 11
23.7601186338
 21
553.5170280854
 31
0.0
  0
LINE
  5
53B
330
69
100
AcDbEntity
  8
$DDT_AUDIT_GENERATED_(93)
  6
Continuous
 62
     7
100
AcDbLine
 10
23.7601186338
 20
553.5170280854
 30
0.0
 11
23.7601186338
 21
553.3876185628
 31
0.0
  0
LINE
  5
53C
330
69
100
AcDbEntity
  8
$DDT_AUDIT_GENERATED_(93)
  6
Continuous
 62
     7
100
AcDbLine
 10
23.7601186338
 20
553.3876185628
 30
0.0
 11
24.1931313357
 21
553.3229138015
 31
0.0
  0
LINE
  5
53D
330
69
100
AcDbEntity
  8
$DDT_AUDIT_GENERATED_(93)
  6
Continuous
 62
     7
100
AcDbLine
 10
24.1931313357
 20
553.3229138015
 30
0.0
 11
24.6261440376
 21
553.3876185628
 31
0.0
  0
LINE
  5
53E
330
69
100
AcDbEntity
  8
$DDT_AUDIT_GENERATED_(93)
  6
Continuous
 62
     7
100
AcDbLine
 10
24.0931313357
 20
553.2780850279
 30
0.0
 11
23.6601186338
 21
553.3427897892
 31
0.0
  0
LINE
  5
53F
330
69
100
AcDbEntity
  8
$DDT_AUDIT_GENERATED_(93)
  6
Continuous
 62
     7
100
AcDbLine
 10
23.6601186338
 20
553.3427897892
 30
0.0
 11
23.2271059319
 21
553.2780850279
 31
0.0
  0
LINE
  5
540
330
69
100
AcDbEntity
  8
$DDT_AUDIT_GENERATED_(93)
  6
Continuous
 62
     7
100
AcDbLine
 10
23.0271059319
 20
553.2789781723
 30
0.0
 11
22.5940932301
 21
553.3436829335
 31
0.0
  0
LINE
  5
541
330
69
100
AcDbEntity
  8
$DDT_AUDIT_GENERATED_(93)
  6
Continuous
 62
     7
100
AcDbLine
 10
22.5940932301
 20
553.3436829335
 30
0.0
 11
22.1610805282
 21
553.2789781723
 31
0.0
  0
LINE
  5
542
330
69
100
AcDbEntity
  8
$DDT_AUDIT_GENERATED_(93)
  6
Continuous
 62
     7
100
AcDbLine
 10
23.1271059319
 20
553.5817328466
 30
0.0
 11
23.1271059319
 21
553.3229138015
 31
0.0
  0
LINE
  5
543
330
69
100
AcDbEntity
  8
$DDT_AUDIT_GENERATED_(93)
  6
Continuous
 62
     7
100
AcDbLine
 10
22.6940932301
 20
553.3876185628
 30
0.0
 11
23.1271059319
 21
553.3229138015
 31
0.0
  0
LINE
  5
544
330
69
100
AcDbEntity
  8
$DDT_AUDIT_GENERATED_(93)
  6
Continuous
 62
     7
100
AcDbLine
 10
23.1271059319
 20
553.3229138015
 30
0.0
 11
23.5601186338
 21
553.3876185628
 31
0.0
  0
LINE
  5
545
330
69
100
AcDbEntity
  8
$DDT_AUDIT_GENERATED_(93)
  6
Continuous
 62
     7
100
AcDbLine
 10
23.5601186338
 20
553.3876185628
 30
0.0
 11
23.5601186338
 21
553.5170280854
 31
0.0
  0
LINE
  5
546
330
69
100
AcDbEntity
  8
$DDT_AUDIT_GENERATED_(93)
  6
Continuous
 62
     7
100
AcDbLine
 10
23.5601186338
 20
553.5170280854
 30
0.0
 11
23.1271059319
 21
553.5817328466
 31
0.0
  0
LINE
  5
547
330
69
100
AcDbEntity
  8
$DDT_AUDIT_GENERATED_(93)
  6
Continuous
 62
     7
100
AcDbLine
 10
23.1271059319
 20
553.5817328466
 30
0.0
 11
22.6940932301
 21
553.5170280854
 31
0.0
  0
LINE
  5
548
330
69
100
AcDbEntity
  8
$DDT_AUDIT_GENERATED_(93)
  6
Continuous
 62
     7
100
AcDbLine
 10
22.6940932301
 20
553.5170280854
 30
0.0
 11
22.6940932301
 21
553.3876185628
 31
0.0
  0
LINE
  5
549
330
69
100
AcDbEntity
  8
$DDT_AUDIT_GENERATED_(93)
  6
Continuous
 62
     7
100
AcDbLine
 10
23.6601186338
 20
553.8206759041
 30
0.0
 11
23.6601186338
 21
553.561856859
 31
0.0
  0
LINE
  5
54A
330
69
100
AcDbEntity
  8
$DDT_AUDIT_GENERATED_(93)
  6
Continuous
 62
     7
100
AcDbLine
 10
23.2271059319
 20
553.7559711428
 30
0.0
 11
23.2271059319
 21
553.6265616203
 31
0.0
  0
LINE
  5
54B
330
69
100
AcDbEntity
  8
$DDT_AUDIT_GENERATED_(93)
  6
Continuous
 62
     7
100
AcDbLine
 10
23.2271059319
 20
553.6265616203
 30
0.0
 11
23.6601186338
 21
553.561856859
 31
0.0
  0
LINE
  5
54C
330
69
100
AcDbEntity
  8
$DDT_AUDIT_GENERATED_(93)
  6
Continuous
 62
     7
100
AcDbLine
 10
23.6601186338
 20
553.561856859
 30
0.0
 11
24.0931313357
 21
553.6265616203
 31
0.0
  0
LINE
  5
54D
330
69
100
AcDbEntity
  8
$DDT_AUDIT_GENERATED_(93)
  6
Continuous
 62
     7
100
AcDbLine
 10
24.0931313357
 20
553.6265616203
 30
0.0
 11
24.0931313357
 21
553.7559711428
 31
0.0
  0
LINE
  5
54E
330
69
100
AcDbEntity
  8
$DDT_AUDIT_GENERATED_(93)
  6
Continuous
 62
     7
100
AcDbLine
 10
24.0931313357
 20
553.7559711428
 30
0.0
 11
23.6601186338
 21
553.8206759041
 31
0.0
  0
LINE
  5
54F
330
69
100
AcDbEntity
  8
$DDT_AUDIT_GENERATED_(93)
  6
Continuous
 62
     7
100
AcDbLine
 10
23.6601186338
 20
553.8206759041
 30
0.0
 11
23.2271059319
 21
553.7559711428
 31
0.0
  0
LINE
  5
550
330
69
100
AcDbEntity
  8
$DDT_AUDIT_GENERATED_(93)
  6
Continuous
 62
     7
100
AcDbLine
 10
22.0610805282
 20
553.582625991
 30
0.0
 11
22.0610805282
 21
553.3238069459
 31
0.0
  0
LINE
  5
551
330
69
100
AcDbEntity
  8
$DDT_AUDIT_GENERATED_(93)
  6
Continuous
 62
     7
100
AcDbLine
 10
21.6280678263
 20
553.3885117072
 30
0.0
 11
22.0610805282
 21
553.3238069459
 31
0.0
  0
LINE
  5
552
330
69
100
AcDbEntity
  8
$DDT_AUDIT_GENERATED_(93)
  6
Continuous
 62
     7
100
AcDbLine
 10
22.0610805282
 20
553.3238069459
 30
0.0
 11
22.4940932301
 21
553.3885117072
 31
0.0
  0
LINE
  5
553
330
69
100
AcDbEntity
  8
$DDT_AUDIT_GENERATED_(93)
  6
Continuous
 62
     7
100
AcDbLine
 10
22.4940932301
 20
553.3885117072
 30
0.0
 11
22.4940932301
 21
553.5179212297
 31
0.0
  0
LINE
  5
554
330
69
100
AcDbEntity
  8
$DDT_AUDIT_GENERATED_(93)
  6
Continuous
 62
     7
100
AcDbLine
 10
22.4940932301
 20
553.5179212297
 30
0.0
 11
22.0610805282
 21
553.582625991
 31
0.0
  0
LINE
  5
555
330
69
100
AcDbEntity
  8
$DDT_AUDIT_GENERATED_(93)
  6
Continuous
 62
     7
100
AcDbLine
 10
22.0610805282
 20
553.582625991
 30
0.0
 11
21.6280678263
 21
553.5179212297
 31
0.0
  0
LINE
  5
556
330
69
100
AcDbEntity
  8
$DDT_AUDIT_GENERATED_(93)
  6
Continuous
 62
     7
100
AcDbLine
 10
21.6280678263
 20
553.5179212297
 30
0.0
 11
21.6280678263
 21
553.3885117072
 31
0.0
  0
LINE
  5
557
330
69
100
AcDbEntity
  8
$DDT_AUDIT_GENERATED_(93)
  6
Continuous
 62
     7
100
AcDbLine
 10
21.9610805282
 20
553.2789781723
 30
0.0
 11
21.5280678263
 21
553.3436829335
 31
0.0
  0
LINE
  5
558
330
69
100
AcDbEntity
  8
$DDT_AUDIT_GENERATED_(93)
  6
Continuous
 62
     7
100
AcDbLine
 10
21.5280678263
 20
553.3436829335
 30
0.0
 11
21.3115508472
 21
553.3113289648
 31
0.0
  0
LINE
  5
559
330
69
100
AcDbEntity
  8
$DDT_AUDIT_GENERATED_(93)
  6
Continuous
 62
     7
100
AcDbLine
 10
21.3995851077
 20
553.384255556
 30
0.0
 11
21.4280678263
 21
553.3885117072
 31
0.0
  0
LINE
  5
55A
330
69
100
AcDbEntity
  8
$DDT_AUDIT_GENERATED_(93)
  6
Continuous
 62
     7
100
AcDbLine
 10
21.4280678263
 20
553.3885117072
 30
0.0
 11
21.4280678263
 21
553.406002813
 31
0.0
  0
LINE
  5
55B
330
69
100
AcDbEntity
  8
$DDT_AUDIT_GENERATED_(93)
  6
Continuous
 62
     7
100
AcDbLine
 10
21.7128464421
 20
553.5903613324
 30
0.0
 11
21.9610805282
 21
553.6274547646
 31
0.0
  0
LINE
  5
55C
330
69
100
AcDbEntity
  8
$DDT_AUDIT_GENERATED_(93)
  6
Continuous
 62
     7
100
AcDbLine
 10
21.9610805282
 20
553.6274547646
 30
0.0
 11
21.9610805282
 21
553.719053177
 31
0.0
  0
LINE
  5
55D
330
69
100
AcDbEntity
  8
$DDT_AUDIT_GENERATED_(93)
  6
Continuous
 62
     7
100
AcDbLine
 10
22.5940932301
 20
553.8206759041
 30
0.0
 11
22.5940932301
 21
553.561856859
 31
0.0
  0
LINE
  5
55E
330
69
100
AcDbEntity
  8
$DDT_AUDIT_GENERATED_(93)
  6
Continuous
 62
     7
100
AcDbLine
 10
22.5940932301
 20
553.8206759041
 30
0.0
 11
22.1610805282
 21
553.7559711428
 31
0.0
  0
LINE
  5
55F
330
69
100
AcDbEntity
  8
$DDT_AUDIT_GENERATED_(93)
  6
Continuous
 62
     7
100
AcDbLine
 10
22.1610805282
 20
553.7559711428
 30
0.0
 11
22.1610805282
 21
553.6265616203
 31
0.0
  0
LINE
  5
560
330
69
100
AcDbEntity
  8
$DDT_AUDIT_GENERATED_(93)
  6
Continuous
 62
     7
100
AcDbLine
 10
22.1610805282
 20
553.6265616203
 30
0.0
 11
22.5940932301
 21
553.561856859
 31
0.0
  0
LINE
  5
561
330
69
100
AcDbEntity
  8
$DDT_AUDIT_GENERATED_(93)
  6
Continuous
 62
     7
100
AcDbLine
 10
22.5940932301
 20
553.561856859
 30
0.0
 11
23.0271059319
 21
553.6265616203
 31
0.0
  0
LINE
  5
562
330
69
100
AcDbEntity
  8
$DDT_AUDIT_GENERATED_(93)
  6
Continuous
 62
     7
100
AcDbLine
 10
23.0271059319
 20
553.6265616203
 30
0.0
 11
23.0271059319
 21
553.7559711428
 31
0.0
  0
LINE
  5
563
330
69
100
AcDbEntity
  8
$DDT_AUDIT_GENERATED_(93)
  6
Continuous
 62
     7
100
AcDbLine
 10
23.0271059319
 20
553.7559711428
 30
0.0
 11
22.5940932301
 21
553.8206759041
 31
0.0
  0
LINE
  5
564
330
69
100
AcDbEntity
  8
$DDT_AUDIT_GENERATED_(93)
  6
Continuous
 62
     7
100
AcDbLine
 10
22.1863460648
 20
553.819518251
 30
0.0
 11
22.4940932301
 21
553.8655046777
 31
0.0
  0
LINE
  5
565
330
69
100
AcDbEntity
  8
$DDT_AUDIT_GENERATED_(93)
  6
Continuous
 62
     7
100
AcDbLine
 10
22.4940932301
 20
553.8655046777
 30
0.0
 11
22.4940932301
 21
553.9388557453
 31
0.0
  0
LINE
  5
566
330
69
100
AcDbEntity
  8
$DDT_AUDIT_GENERATED_(93)
  6
Continuous
 62
     7
100
AcDbLine
 10
23.1271059319
 20
554.0596189615
 30
0.0
 11
23.1271059319
 21
553.8007999164
 31
0.0
  0
LINE
  5
567
330
69
100
AcDbEntity
  8
$DDT_AUDIT_GENERATED_(93)
  6
Continuous
 62
     7
100
AcDbLine
 10
23.1271059319
 20
553.8007999164
 30
0.0
 11
23.5601186338
 21
553.8655046777
 31
0.0
  0
LINE
  5
568
330
69
100
AcDbEntity
  8
$DDT_AUDIT_GENERATED_(93)
  6
Continuous
 62
     7
100
AcDbLine
 10
23.5601186338
 20
553.8655046777
 30
0.0
 11
23.5601186338
 21
553.9949142002
 31
0.0
  0
LINE
  5
569
330
69
100
AcDbEntity
  8
$DDT_AUDIT_GENERATED_(93)
  6
Continuous
 62
     7
100
AcDbLine
 10
23.5601186338
 20
553.9949142002
 30
0.0
 11
23.1271059319
 21
554.0596189615
 31
0.0
  0
LINE
  5
56A
330
69
100
AcDbEntity
  8
$DDT_AUDIT_GENERATED_(93)
  6
Continuous
 62
     7
100
AcDbLine
 10
23.1271059319
 20
554.0596189615
 30
0.0
 11
22.6940932301
 21
553.9949142002
 31
0.0
  0
LINE
  5
56B
330
69
100
AcDbEntity
  8
$DDT_AUDIT_GENERATED_(93)
  6
Continuous
 62
     7
100
AcDbLine
 10
22.6940932301
 20
553.9949142002
 30
0.0
 11
22.6940932301
 21
553.8655046777
 31
0.0
  0
LINE
  5
56C
330
69
100
AcDbEntity
  8
$DDT_AUDIT_GENERATED_(93)
  6
Continuous
 62
     7
100
AcDbLine
 10
22.6940932301
 20
553.8655046777
 30
0.0
 11
23.1271059319
 21
553.8007999164
 31
0.0
  0
LINE
  5
56D
330
69
100
AcDbEntity
  8
$DDT_AUDIT_GENERATED_(93)
  6
Continuous
 62
     7
100
AcDbLine
 10
22.9831888489
 20
554.0978852385
 30
0.0
 11
23.0271059319
 21
554.1044477351
 31
0.0
  0
LINE
  5
56E
330
69
100
AcDbEntity
  8
$DDT_AUDIT_GENERATED_(93)
  6
Continuous
 62
     7
100
AcDbLine
 10
23.0271059319
 20
554.1044477351
 30
0.0
 11
23.0271059319
 21
554.1107011573
 31
0.0
  0
LINE
  5
56F
330
69
100
AcDbEntity
  8
$DDT_AUDIT_GENERATED_(93)
  6
Continuous
 62
     7
100
AcDbLine
 10
23.6601186338
 20
554.2744578071
 30
0.0
 11
23.6601186338
 21
554.0397429738
 31
0.0
  0
LINE
  5
570
330
69
100
AcDbEntity
  8
$DDT_AUDIT_GENERATED_(93)
  6
Continuous
 62
     7
100
AcDbLine
 10
23.2271059319
 20
554.1664834155
 30
0.0
 11
23.2271059319
 21
554.1044477351
 31
0.0
  0
LINE
  5
571
330
69
100
AcDbEntity
  8
$DDT_AUDIT_GENERATED_(93)
  6
Continuous
 62
     7
100
AcDbLine
 10
23.2271059319
 20
554.1044477351
 30
0.0
 11
23.6601186338
 21
554.0397429738
 31
0.0
  0
LINE
  5
572
330
69
100
AcDbEntity
  8
$DDT_AUDIT_GENERATED_(93)
  6
Continuous
 62
     7
100
AcDbLine
 10
23.6601186338
 20
554.0397429738
 30
0.0
 11
24.0931313357
 21
554.1044477351
 31
0.0
  0
LINE
  5
573
330
69
100
AcDbEntity
  8
$DDT_AUDIT_GENERATED_(93)
  6
Continuous
 62
     7
100
AcDbLine
 10
24.0931313357
 20
554.1044477351
 30
0.0
 11
24.0931313357
 21
554.2338572577
 31
0.0
  0
LINE
  5
574
330
69
100
AcDbEntity
  8
$DDT_AUDIT_GENERATED_(93)
  6
Continuous
 62
     7
100
AcDbLine
 10
24.0931313357
 20
554.2338572577
 30
0.0
 11
23.7238508152
 21
554.2890385672
 31
0.0
  0
LINE
  5
575
330
69
100
AcDbEntity
  8
$DDT_AUDIT_GENERATED_(93)
  6
Continuous
 62
     7
100
AcDbLine
 10
24.7261440376
 20
554.2985620189
 30
0.0
 11
24.7261440376
 21
554.0397429738
 31
0.0
  0
LINE
  5
576
330
69
100
AcDbEntity
  8
$DDT_AUDIT_GENERATED_(93)
  6
Continuous
 62
     7
100
AcDbLine
 10
24.7261440376
 20
554.2985620189
 30
0.0
 11
24.2931313357
 21
554.2338572577
 31
0.0
  0
LINE
  5
577
330
69
100
AcDbEntity
  8
$DDT_AUDIT_GENERATED_(93)
  6
Continuous
 62
     7
100
AcDbLine
 10
24.2931313357
 20
554.2338572577
 30
0.0
 11
24.2931313357
 21
554.1044477351
 31
0.0
  0
LINE
  5
578
330
69
100
AcDbEntity
  8
$DDT_AUDIT_GENERATED_(93)
  6
Continuous
 62
     7
100
AcDbLine
 10
24.2931313357
 20
554.1044477351
 30
0.0
 11
24.7261440376
 21
554.0397429738
 31
0.0
  0
LINE
  5
579
330
69
100
AcDbEntity
  8
$DDT_AUDIT_GENERATED_(93)
  6
Continuous
 62
     7
100
AcDbLine
 10
24.7261440376
 20
554.0397429738
 30
0.0
 11
25.1591567395
 21
554.1044477351
 31
0.0
  0
LINE
  5
57A
330
69
100
AcDbEntity
  8
$DDT_AUDIT_GENERATED_(93)
  6
Continuous
 62
     7
100
AcDbLine
 10
25.1591567395
 20
554.1044477351
 30
0.0
 11
25.1591567395
 21
554.2338572577
 31
0.0
  0
LINE
  5
57B
330
69
100
AcDbEntity
  8
$DDT_AUDIT_GENERATED_(93)
  6
Continuous
 62
     7
100
AcDbLine
 10
25.1591567395
 20
554.2338572577
 30
0.0
 11
24.7261440376
 21
554.2985620189
 31
0.0
  0
LINE
  5
57C
330
69
100
AcDbEntity
  8
$DDT_AUDIT_GENERATED_(93)
  6
Continuous
 62
     7
100
AcDbLine
 10
24.1931313357
 20
554.3874191315
 30
0.0
 11
24.1931313357
 21
554.2786860313
 31
0.0
  0
LINE
  5
57D
330
69
100
AcDbEntity
  8
$DDT_AUDIT_GENERATED_(93)
  6
Continuous
 62
     7
100
AcDbLine
 10
23.885492044
 20
554.3246563385
 30
0.0
 11
24.1931313357
 21
554.2786860313
 31
0.0
  0
LINE
  5
57E
330
69
100
AcDbEntity
  8
$DDT_AUDIT_GENERATED_(93)
  6
Continuous
 62
     7
100
AcDbLine
 10
24.1931313357
 20
554.2786860313
 30
0.0
 11
24.6261440376
 21
554.3433907925
 31
0.0
  0
LINE
  5
57F
330
69
100
AcDbEntity
  8
$DDT_AUDIT_GENERATED_(93)
  6
Continuous
 62
     7
100
AcDbLine
 10
24.6261440376
 20
554.3433907925
 30
0.0
 11
24.6261440376
 21
554.4657525766
 31
0.0
  0
LINE
  5
580
330
69
100
AcDbEntity
  8
$DDT_AUDIT_GENERATED_(93)
  6
Continuous
 62
     7
100
AcDbLine
 10
25.2591567395
 20
554.5375050764
 30
0.0
 11
25.2591567395
 21
554.2786860313
 31
0.0
  0
LINE
  5
581
330
69
100
AcDbEntity
  8
$DDT_AUDIT_GENERATED_(93)
  6
Continuous
 62
     7
100
AcDbLine
 10
25.2591567395
 20
554.5375050764
 30
0.0
 11
24.8261440376
 21
554.4728003151
 31
0.0
  0
LINE
  5
582
330
69
100
AcDbEntity
  8
$DDT_AUDIT_GENERATED_(93)
  6
Continuous
 62
     7
100
AcDbLine
 10
24.8261440376
 20
554.4728003151
 30
0.0
 11
24.8261440376
 21
554.3433907925
 31
0.0
  0
LINE
  5
583
330
69
100
AcDbEntity
  8
$DDT_AUDIT_GENERATED_(93)
  6
Continuous
 62
     7
100
AcDbLine
 10
24.8261440376
 20
554.3433907925
 30
0.0
 11
25.2591567395
 21
554.2786860313
 31
0.0
  0
LINE
  5
584
330
69
100
AcDbEntity
  8
$DDT_AUDIT_GENERATED_(93)
  6
Continuous
 62
     7
100
AcDbLine
 10
25.2591567395
 20
554.2786860313
 30
0.0
 11
25.6921694413
 21
554.3433907925
 31
0.0
  0
LINE
  5
585
330
69
100
AcDbEntity
  8
$DDT_AUDIT_GENERATED_(93)
  6
Continuous
 62
     7
100
AcDbLine
 10
25.6921694413
 20
554.3433907925
 30
0.0
 11
25.6921694413
 21
554.4728003151
 31
0.0
  0
LINE
  5
586
330
69
100
AcDbEntity
  8
$DDT_AUDIT_GENERATED_(93)
  6
Continuous
 62
     7
100
AcDbLine
 10
25.6921694413
 20
554.4728003151
 30
0.0
 11
25.2591567395
 21
554.5375050764
 31
0.0
  0
LINE
  5
587
330
69
100
AcDbEntity
  8
$DDT_AUDIT_GENERATED_(93)
  6
Continuous
 62
     7
100
AcDbLine
 10
25.7921694413
 20
554.6283271676
 30
0.0
 11
25.7921694413
 21
554.5176290887
 31
0.0
  0
LINE
  5
588
330
69
100
AcDbEntity
  8
$DDT_AUDIT_GENERATED_(93)
  6
Continuous
 62
     7
100
AcDbLine
 10
25.3838473847
 20
554.5786443455
 30
0.0
 11
25.7921694413
 21
554.5176290887
 31
0.0
  0
LINE
  5
589
330
69
100
AcDbEntity
  8
$DDT_AUDIT_GENERATED_(93)
  6
Continuous
 62
     7
100
AcDbLine
 10
25.7921694413
 20
554.5176290887
 30
0.0
 11
26.2251821432
 21
554.58233385
 31
0.0
  0
LINE
  5
58A
330
69
100
AcDbEntity
  8
$DDT_AUDIT_GENERATED_(93)
  6
Continuous
 62
     7
100
AcDbLine
 10
26.2251821432
 20
554.58233385
 30
0.0
 11
26.2251821432
 21
554.6733611474
 31
0.0
  0
LINE
  5
58B
330
69
100
AcDbEntity
  8
$DDT_AUDIT_GENERATED_(93)
  6
Continuous
 62
     7
100
AcDbLine
 10
38.2402456526
 20
552.9236025188
 30
0.0
 11
38.2402456526
 21
553.2332132032
 31
0.0
  0
LINE
  5
58C
330
69
100
AcDbEntity
  8
$DDT_AUDIT_GENERATED_(93)
  6
Continuous
 62
     7
100
AcDbLine
 10
19.7402456526
 20
553.2332132032
 30
0.0
 11
19.7402456526
 21
552.9236025188
 31
0.0
  0
ARC
  5
58D
330
69
100
AcDbEntity
  8
$DDT_AUDIT_GENERATED_(93)
  6
Continuous
 62
     7
100
AcDbCircle
 10
21.8318730737
 20
553.224308555
 30
0.0
 40
2.091646375769366
100
AcDbArc
 50
167.8834566831
 51
179.7560771713
  0
ARC
  5
58E
330
69
100
AcDbEntity
  8
$DDT_AUDIT_GENERATED_(93)
  6
Continuous
 62
     7
100
AcDbCircle
 10
36.621941452
 20
553.2795743507
 30
0.0
 40
1.615648945853195
100
AcDbArc
 50
358.4225703429
 51
13.7232970669
  0
ARC
  5
58F
330
69
100
AcDbEntity
  8
$DDT_AUDIT_GENERATED_(93)
  6
Continuous
 62
     7
100
AcDbCircle
 10
18.3550570744
 20
554.1212275692
 30
0.0
 40
1.476440923703324
100
AcDbArc
 50
358.4976388588
 51
2.4194402922
  0
ARC
  5
590
330
69
100
AcDbEntity
  8
$DDT_AUDIT_GENERATED_(93)
  6
Continuous
 62
     7
100
AcDbCircle
 10
39.9567054891
 20
554.0821199292
 30
0.0
 40
1.807870606276831
100
AcDbArc
 50
176.7662687247
 51
193.3493657829
  0
ARC
  5
591
330
69
100
AcDbEntity
  8
$DDT_AUDIT_GENERATED_(93)
  6
Continuous
 62
     7
100
AcDbCircle
 10
18.0959420205
 20
554.0678672399
 30
0.0
 40
1.735110298924884
100
AcDbArc
 50
346.5959949574
 51
0.4837953757
  0
LINE
  5
592
330
69
100
AcDbEntity
  8
$DDT_AUDIT_GENERATED_(93)
  6
Continuous
 62
     7
100
AcDbLine
 10
37.2402456526
 20
552.7304173535
 30
0.0
 11
37.2402456526
 21
553.2133802667
 31
0.0
  0
LINE
  5
593
330
69
100
AcDbEntity
  8
$DDT_AUDIT_GENERATED_(93)
  6
Continuous
 62
     7
100
AcDbLine
 10
20.7402456526
 20
553.2133802667
 30
0.0
 11
20.7402456526
 21
552.7304173535
 31
0.0
  0
SPLINE
  5
594
330
69
100
AcDbEntity
  8
$DDT_AUDIT_GENERATED_(93)
  6
Continuous
 62
     7
100
AcDbSpline
210
0.0
220
0.0
230
1.0
 70
     8
 71
     3
 72
    57
 73
    53
 74
     0
 42
0.0000000004973244
 43
0.0000000001
 40
0.0
 40
0.0
 40
0.0
 40
0.0
 40
0.0161323084193559
 40
0.0340504376820684
 40
0.0524006099192268
 40
0.0715584591023359
 40
0.0915595610426195
 40
0.1121344198549042
 40
0.1329414080042213
 40
0.153736694117207
 40
0.1744441966444786
 40
0.1950585861796372
 40
0.2155918701090483
 40
0.2360591459456514
 40
0.2564740242773143
 40
0.2768476197695555
 40
0.2971886915210073
 40
0.3175040698005997
 40
0.3377990876448538
 40
0.3580779412184333
 40
0.3783439711054698
 40
0.3985998763851999
 40
0.4188478765776557
 40
0.4390898348019323
 40
0.4593273527396766
 40
0.4795618454964582
 40
0.4997946025075795
 40
0.5200268392371145
 40
0.5402595367671775
 40
0.5604937040985807
 40
0.5807305842438103
 40
0.6009715142483326
 40
0.6212179790395782
 40
0.641471675668291
 40
0.6617345928896146
 40
0.6820091126025023
 40
0.7022981417519406
 40
0.7226052859657528
 40
0.7429350791298011
 40
0.7632932850015185
 40
0.7836872837589558
 40
0.8041265364746119
 40
0.8246230518752414
 40
0.8451915754636272
 40
0.8658486493788542
 40
0.8866081667537807
 40
0.9074673348536326
 40
0.9283508705233326
 40
0.9489966674821853
 40
0.9690015285584107
 40
0.9880560669088656
 40
1.0
 40
1.0
 40
1.0
 40
1.0
 10
19.74203525825888
 20
552.9102986137921
 30
0.0
 10
19.74504208583568
 20
552.8532721214303
 30
0.0
 10
19.75164931175301
 20
552.7519328424062
 30
0.0
 10
19.80624088222817
 20
552.5854616853915
 30
0.0
 10
19.89396305700143
 20
552.422554428499
 30
0.0
 10
20.01809786172976
 20
552.2615936541721
 30
0.0
 10
20.17915459208129
 20
552.1035779576029
 30
0.0
 10
20.3779220126999
 20
551.9488801689301
 30
0.0
 10
20.61283250357003
 20
551.7991155030356
 30
0.0
 10
20.88153034738851
 20
551.6553946132649
 30
0.0
 10
21.18182468813788
 20
551.5182773235819
 30
0.0
 10
21.51215118825965
 20
551.3879173648439
 30
0.0
 10
21.87119515677649
 20
551.2644148999376
 30
0.0
 10
22.25764845904384
 20
551.1479213844854
 30
0.0
 10
22.67012558628558
 20
551.0386438027035
 30
0.0
 10
23.1071323155516
 20
550.9368282438476
 30
0.0
 10
23.56705849222563
 20
550.842742104831
 30
0.0
 10
24.0481815529348
 20
550.7566591884064
 30
0.0
 10
24.54867449462039
 20
550.6788483292365
 30
0.0
 10
25.06661563001276
 20
550.6095649175562
 30
0.0
 10
25.59999898959908
 20
550.5490446146099
 30
0.0
 10
26.14674491180273
 20
550.4974986728166
 30
0.0
 10
26.70471064855479
 20
550.455110434084
 30
0.0
 10
27.27170093327535
 20
550.422032707617
 30
0.0
 10
27.84547850387981
 20
550.3983858230606
 30
0.0
 10
28.42377458807297
 20
550.3842562211329
 30
0.0
 10
29.0042993593742
 20
550.3796954903188
 30
0.0
 10
29.58475039524486
 20
550.3847197741551
 30
0.0
 10
30.16282324102868
 20
550.399309372794
 30
0.0
 10
30.73622362924647
 20
550.4234087633608
 30
0.0
 10
31.3026797942641
 20
550.4569272038113
 30
0.0
 10
31.8599525419189
 20
550.4997396866869
 30
0.0
 10
32.40584381412051
 20
550.5516880893874
 30
0.0
 10
32.9382070388196
 20
550.6125828397517
 30
0.0
 10
33.45495750285038
 20
550.6822051594698
 30
0.0
 10
33.95408277686343
 20
550.760310050352
 30
0.0
 10
34.4336532286137
 20
550.8466302758064
 30
0.0
 10
34.89183265494325
 20
550.9408817227369
 30
0.0
 10
35.32688902772306
 20
551.0427707399285
 30
0.0
 10
35.73720523072826
 20
551.152004356847
 30
0.0
 10
36.12128938930964
 20
551.2683048235021
 30
0.0
 10
36.47778360788704
 20
551.3914304297194
 30
0.0
 10
36.80546851731533
 20
551.5212061065168
 30
0.0
 10
37.10325615924879
 20
551.6575652326524
 30
0.0
 10
37.370158962745
 20
551.8006116495858
 30
0.0
 10
37.60519131347226
 20
551.9506626946688
 30
0.0
 10
37.80712721111726
 20
552.1082801174604
 30
0.0
 10
37.97393189096719
 20
552.2736555458275
 30
0.0
 10
38.1031284003948
 20
552.4469515580341
 30
0.0
 10
38.19117773278901
 20
552.6241846336641
 30
0.0
 10
38.23429092341244
 20
552.7886815013395
 30
0.0
 10
38.23870608970857
 20
552.8813807876188
 30
0.0
 10
38.24024565263809
 20
552.923602518777
 30
0.0
  0
ELLIPSE
  5
596
330
69
100
AcDbEntity
  8
$DDT_AUDIT_GENERATED_(595)
  6
Continuous
 62
     7
100
AcDbEllipse
 10
28.9902456526
 20
553.116787684
 30
0.0
 11
10.05000000000001
 21
0.0
 31
0.0
210
0.0
220
0.0
230
1.0
 40
0.2588190451
 41
5.530965727417406
 42
6.283185307179586
  0
ELLIPSE
  5
597
330
69
100
AcDbEntity
  8
$DDT_AUDIT_GENERATED_(595)
  6
Continuous
 62
     7
100
AcDbEllipse
 10
28.9902456526
 20
553.116787684
 30
0.0
 11
10.05000000000001
 21
0.0
 31
0.0
210
0.0
220
0.0
230
1.0
 40
0.2588190451
 41
0.0
 42
3.88799294931452
  0
ELLIPSE
  5
598
330
69
100
AcDbEntity
  8
$DDT_AUDIT_GENERATED_(595)
  6
Continuous
 62
     7
100
AcDbEllipse
 10
28.9902456526
 20
553.116787684
 30
0.0
 11
10.75000000000001
 21
-3.469446951953614E-15
 31
0.0
210
0.0
220
0.0
230
1.0
 40
0.2588190451
 41
0.0
 42
6.283185307179586
  0
LINE
  5
599
330
69
100
AcDbEntity
  8
$DDT_AUDIT_GENERATED_(595)
  6
Continuous
 62
     7
100
AcDbLine
 10
17.9902456526
 20
554.092946677
 30
0.0
 11
17.9902456526
 21
552.7540739805
 31
0.0
  0
ELLIPSE
  5
59A
330
69
100
AcDbEntity
  8
$DDT_AUDIT_GENERATED_(595)
  6
Continuous
 62
     7
100
AcDbEllipse
 10
28.9902456526
 20
556.0145651629
 30
0.0
 11
11.80000000000021
 21
-6.938893903907228E-15
 31
0.0
210
0.0
220
0.0
230
1.0
 40
0.2588190451
 41
2.771250021498077
 42
3.511935285681504
  0
LINE
  5
59B
330
69
100
AcDbEntity
  8
$DDT_AUDIT_GENERATED_(595)
  6
Continuous
 62
     7
100
AcDbLine
 10
17.9902456526
 20
557.119937642
 30
0.0
 11
17.9902456526
 21
555.3653991115
 31
0.0
  0
LINE
  5
59C
330
69
100
AcDbEntity
  8
$DDT_AUDIT_GENERATED_(595)
  6
Continuous
 62
     7
100
AcDbLine
 10
17.9902456526
 20
555.3653991115
 30
0.0
 11
17.9902456526
 21
554.092946677
 31
0.0
  0
LINE
  5
59D
330
69
100
AcDbEntity
  8
$DDT_AUDIT_GENERATED_(595)
  6
Continuous
 62
     7
100
AcDbLine
 10
17.9902456526
 20
552.7015215996
 30
0.0
 11
17.9902456526
 21
552.7540739805
 31
0.0
  0
LINE
  5
59E
330
69
100
AcDbEntity
  8
$DDT_AUDIT_GENERATED_(595)
  6
Continuous
 62
     7
100
AcDbLine
 10
39.9902456526
 20
552.7540739805
 30
0.0
 11
39.9902456526
 21
554.092946677
 31
0.0
  0
ELLIPSE
  5
59F
330
69
100
AcDbEntity
  8
$DDT_AUDIT_GENERATED_(595)
  6
Continuous
 62
     7
100
AcDbEllipse
 10
28.9902456526
 20
556.0145651629
 30
0.0
 11
-11.80000000000018
 21
0.0
 31
0.0
210
0.0
220
0.0
230
1.0
 40
0.2588190451
 41
2.771250021498082
 42
3.511935285681513
  0
LINE
  5
5A0
330
69
100
AcDbEntity
  8
$DDT_AUDIT_GENERATED_(595)
  6
Continuous
 62
     7
100
AcDbLine
 10
39.9902456526
 20
552.7540739805
 30
0.0
 11
39.9902456526
 21
552.7009849497
 31
0.0
  0
LINE
  5
5A1
330
69
100
AcDbEntity
  8
$DDT_AUDIT_GENERATED_(595)
  6
Continuous
 62
     7
100
AcDbLine
 10
39.9902456526
 20
554.092946677
 30
0.0
 11
39.9902456526
 21
555.3653991115
 31
0.0
  0
LINE
  5
5A2
330
69
100
AcDbEntity
  8
$DDT_AUDIT_GENERATED_(595)
  6
Continuous
 62
     7
100
AcDbLine
 10
39.9902456526
 20
555.3653991115
 30
0.0
 11
39.9902456526
 21
557.119937642
 31
0.0
  0
LINE
  5
5A3
330
69
100
AcDbEntity
  8
$DDT_AUDIT_GENERATED_(595)
  6
Continuous
 62
     7
100
AcDbLine
 10
18.9809094398
 20
552.0661731222
 30
0.0
 11
19.468089521
 21
551.8255155628
 31
0.0
  0
LINE
  5
5A4
330
69
100
AcDbEntity
  8
$DDT_AUDIT_GENERATED_(595)
  6
Continuous
 62
     7
100
AcDbLine
 10
38.5124017843
 20
551.8255155628
 30
0.0
 11
38.9995818655
 21
552.0661731222
 31
0.0
  0
ARC
  5
5A5
330
69
100
AcDbEntity
  8
$DDT_AUDIT_GENERATED_(595)
  6
Continuous
 62
     7
100
AcDbCircle
 10
37.0595613589
 20
556.1834646631
 30
0.0
 40
4.55026180594535
100
AcDbArc
 50
294.6165141112
 51
310.1200259499
  0
ARC
  5
5A6
330
69
100
AcDbEntity
  8
$DDT_AUDIT_GENERATED_(595)
  6
Continuous
 62
     7
100
AcDbCircle
 10
20.9228586092
 20
556.1784132456
 30
0.0
 40
4.546623209385221
100
AcDbArc
 50
229.8286071296
 51
245.1250229277
  0
LINE
  5
5A7
330
69
100
AcDbEntity
  8
$DDT_AUDIT_GENERATED_(595)
  6
Continuous
 62
     7
100
AcDbLine
 10
17.1902456526
 20
560.246950993
 30
0.0
 11
17.1902456526
 21
556.0145651629
 31
0.0
  0
LINE
  5
5A8
330
69
100
AcDbEntity
  8
$DDT_AUDIT_GENERATED_(595)
  6
Continuous
 62
     7
100
AcDbLine
 10
40.7902456526
 20
556.0145651629
 30
0.0
 11
40.7902456526
 21
560.2450210904
 31
0.0
  0
ENDBLK
  5
5AA
330
69
100
AcDbEntity
  8
0
100
AcDbBlockEnd
  0
BLOCK
  5
5D5
330
5AB
100
AcDbEntity
  8
0
100
AcDbBlockBegin
  2
SE1
 70
     0
 10
0.0
 20
0.0
 30
0.0
  3
SE1
  1

  0
LINE
  5
5AD
330
5AB
100
AcDbEntity
  8
$DDT_AUDIT_GENERATED_(6B)
  6
Continuous
 62
     7
100
AcDbLine
 10
216.0019633325
 20
435.863136307
 30
0.0
 11
216.0024381128
 21
410.5631363159
 31
0.0
  0
LINE
  5
5AE
330
5AB
100
AcDbEntity
  8
$DDT_AUDIT_GENERATED_(6B)
  6
Continuous
 62
     7
100
AcDbLine
 10
215.9993716964
 20
573.9657658345
 30
0.0
 11
381.001036728
 21
574.1142398424
 31
0.0
  0
LINE
  5
5AF
330
5AB
100
AcDbEntity
  8
$DDT_AUDIT_GENERATED_(6B)
  6
Continuous
 62
     7
100
AcDbLine
 10
405.2075121978
 20
574.1360216374
 30
0.0
 11
381.001036728
 21
574.1142398424
 31
0.0
  0
LINE
  5
5B0
330
5AB
100
AcDbEntity
  8
$DDT_AUDIT_GENERATED_(6B)
  6
Continuous
 62
     7
100
AcDbLine
 10
215.9993776693
 20
573.6474812749
 30
0.0
 11
216.0019633325
 21
435.863136307
 31
0.0
  0
LINE
  5
5B1
330
5AB
100
AcDbEntity
  8
$DDT_AUDIT_GENERATED_(6B)
  6
Continuous
 62
     7
100
AcDbLine
 10
215.9993776693
 20
573.6474812749
 30
0.0
 11
215.9993716964
 21
573.9657658345
 31
0.0
  0
ARC
  5
5B2
330
5AB
100
AcDbEntity
  8
$DDT_AUDIT_GENERATED_(6B)
  6
Continuous
 62
     7
100
AcDbCircle
 10
389.1093840587
 20
534.2828550267
 30
0.0
 40
26.26198369137809
100
AcDbArc
 50
107.981966459
 51
127.638883295
  0
ARC
  5
5B3
330
5AB
100
AcDbEntity
  8
$DDT_AUDIT_GENERATED_(6B)
  6
Continuous
 62
     7
100
AcDbCircle
 10
396.2415515834
 20
484.3998239298
 30
0.0
 40
76.39763694450467
100
AcDbArc
 50
89.5028458825
 51
101.5064794202
  0
ARC
  5
5B4
330
5AB
100
AcDbEntity
  8
$DDT_AUDIT_GENERATED_(6B)
  6
Continuous
 62
     7
100
AcDbCircle
 10
269.7820660577
 20
537.4122789955
 30
0.0
 40
3.637679160181311
100
AcDbArc
 50
99.922072148
 51
110.6002689417
  0
ARC
  5
5B5
330
5AB
100
AcDbEntity
  8
$DDT_AUDIT_GENERATED_(6B)
  6
Continuous
 62
     7
100
AcDbCircle
 10
275.8168905807
 20
505.7653761283
 30
0.0
 40
35.85819180299801
100
AcDbArc
 50
93.7019075742
 51
100.7075645664
  0
ARC
  5
5B6
330
5AB
100
AcDbEntity
  8
$DDT_AUDIT_GENERATED_(6B)
  6
Continuous
 62
     7
100
AcDbCircle
 10
283.9446745404
 20
484.7134604801
 30
0.0
 40
28.44692650330765
100
AcDbArc
 50
170.0382918191
 51
179.7576802133
  0
LINE
  5
5B7
330
5AB
100
AcDbEntity
  8
$DDT_AUDIT_GENERATED_(6B)
  6
Continuous
 62
     7
100
AcDbLine
 10
257.4412585447
 20
497.9984588276
 30
0.0
 11
255.9266256972
 21
489.6344935527
 31
0.0
  0
ARC
  5
5B8
330
5AB
100
AcDbEntity
  8
$DDT_AUDIT_GENERATED_(6B)
  6
Continuous
 62
     7
100
AcDbCircle
 10
284.3210772872
 20
493.0198600646
 30
0.0
 40
27.33699144508156
100
AcDbArc
 50
159.3908796364
 51
169.5067618706
  0
LINE
  5
5B9
330
5AB
100
AcDbEntity
  8
$DDT_AUDIT_GENERATED_(6B)
  6
Continuous
 62
     7
100
AcDbLine
 10
258.7305655285
 20
502.625609918
 30
0.0
 11
264.9586393975
 21
536.9046739044
 31
0.0
  0
LINE
  5
5BA
330
5AB
100
AcDbEntity
  8
$DDT_AUDIT_GENERATED_(6B)
  6
Continuous
 62
     7
100
AcDbLine
 10
246.59762832
 20
435.846386408
 30
0.0
 11
255.5008240566
 21
484.8492427868
 31
0.0
  0
SPLINE
  5
5BB
330
5AB
100
AcDbEntity
  8
$DDT_AUDIT_GENERATED_(6B)
  6
Continuous
 62
     7
100
AcDbSpline
210
0.0
220
0.0
230
1.0
 70
     8
 71
     3
 72
    23
 73
    19
 74
     0
 42
0.0000000002358994
 43
0.0000000001
 40
0.0
 40
0.0
 40
0.0
 40
0.0
 40
0.0637005739080826
 40
0.1169945819882674
 40
0.160716838970503
 40
0.1966267330801715
 40
0.2326430681615087
 40
0.2701332397471866
 40
0.3490109066606749
 40
0.4306330565300047
 40
0.5104964503336239
 40
0.5888513035307947
 40
0.6665602357835143
 40
0.7450432468133347
 40
0.8051467002555772
 40
0.8670126773217762
 40
0.9316852865936203
 40
1.0
 40
1.0
 40
1.0
 40
1.0
 10
216.0019633325467
 20
410.5631363069981
 30
0.0
 10
216.9675110574932
 20
410.7766434710985
 30
0.0
 10
218.4571510079312
 20
411.1101972255987
 30
0.0
 10
220.6901741216571
 20
411.7036281713792
 30
0.0
 10
222.4803919208802
 20
412.236345812533
 30
0.0
 10
224.0334279596648
 20
412.7442050755057
 30
0.0
 10
225.4879401522527
 20
413.2619446973243
 30
0.0
 10
227.4930815670642
 20
414.0402647534148
 30
0.0
 10
230.0484134876463
 20
415.1762897920237
 30
0.0
 10
233.0362854321675
 20
416.7907831056953
 30
0.0
 10
235.8608406092883
 20
418.6653294023181
 30
0.0
 10
238.4377194097783
 20
420.7838125705882
 30
0.0
 10
240.7454631905644
 20
423.1678844232003
 30
0.0
 10
242.5855717788773
 20
425.6128231257759
 30
0.0
 10
244.0197530813502
 20
428.0606694184514
 30
0.0
 10
245.1118758376005
 20
430.4477297182494
 30
0.0
 10
246.0200801791145
 20
433.1053035048539
 30
0.0
 10
246.38404201049
 20
434.8076168399035
 30
0.0
 10
246.5976283200085
 20
435.8463864079677
 30
0.0
  0
ARC
  5
5BC
330
5AB
100
AcDbEntity
  8
$DDT_AUDIT_GENERATED_(6B)
  6
Continuous
 62
     7
100
AcDbCircle
 10
383.7113178895
 20
579.2998704791
 30
0.0
 40
22.7213178534497
100
AcDbArc
 50
305.388380148
 51
345.1667366295
  0
LINE
  5
5BD
330
5AB
100
AcDbEntity
  8
$DDT_AUDIT_GENERATED_(6B)
  6
Continuous
 62
     7
100
AcDbLine
 10
273.4980470247
 20
541.5482074817
 30
0.0
 11
373.0997061571
 21
555.0828861167
 31
0.0
  0
ARC
  5
5BE
330
5AB
100
AcDbEntity
  8
$DDT_AUDIT_GENERATED_(6B)
  6
Continuous
 62
     7
100
AcDbCircle
 10
269.8510486869
 20
536.0219489821
 30
0.0
 40
4.970862616062571
100
AcDbArc
 50
105.4233506477
 51
169.774705498
  0
ARC
  5
5BF
330
5AB
100
AcDbEntity
  8
$DDT_AUDIT_GENERATED_(6B)
  6
Continuous
 62
     7
100
AcDbCircle
 10
405.2079619025
 20
573.6360218385
 30
0.0
 40
0.5000000010368814
100
AcDbArc
 50
341.9298988268
 51
90.051698922
  0
LINE
  5
5C0
330
5AB
100
AcDbEntity
  8
$DDT_AUDIT_GENERATED_(85)
  6
Continuous
 62
     7
100
AcDbLine
 10
255.5022121517
 20
485.1781043988
 30
0.0
 11
258.6085288087
 21
502.2710608808
 31
0.0
  0
LINE
  5
5C1
330
5AB
100
AcDbEntity
  8
$DDT_AUDIT_GENERATED_(93)
  6
Continuous
 62
     7
100
AcDbLine
 10
395.1247266768
 20
555.0727297117
 30
0.0
 11
377.641469221
 21
550.3881049953
 31
0.0
  0
LINE
  5
5C2
330
5AB
100
AcDbEntity
  8
$DDT_AUDIT_GENERATED_(93)
  6
Continuous
 62
     7
100
AcDbLine
 10
395.2661480331
 20
555.317678686
 30
0.0
 11
395.2143842241
 21
555.5108638512
 31
0.0
  0
LINE
  5
5C3
330
5AB
100
AcDbEntity
  8
$DDT_AUDIT_GENERATED_(93)
  6
Continuous
 62
     7
100
AcDbLine
 10
377.3447564377
 20
550.7227115168
 30
0.0
 11
377.3965202467
 21
550.5295263516
 31
0.0
  0
ARC
  5
5C4
330
5AB
100
AcDbEntity
  8
$DDT_AUDIT_GENERATED_(93)
  6
Continuous
 62
     7
100
AcDbCircle
 10
377.589705412
 20
550.5812901606
 30
0.0
 40
0.2000000000000061
100
AcDbArc
 50
195.0
 51
285.0
  0
ARC
  5
5C5
330
5AB
100
AcDbEntity
  8
$DDT_AUDIT_GENERATED_(93)
  6
Continuous
 62
     7
100
AcDbCircle
 10
395.0729628678
 20
555.265914877
 30
0.0
 40
0.1999999999999981
100
AcDbArc
 50
285.0
 51
15.0
  0
LINE
  5
5C6
330
5AB
100
AcDbEntity
  8
$DDT_AUDIT_GENERATED_(595)
  6
Continuous
 62
     7
100
AcDbLine
 10
375.8958676983
 20
550.3344829492
 30
0.0
 11
396.6632729635
 21
555.8990924189
 31
0.0
  0
SPLINE
  5
5C7
330
5AB
100
AcDbEntity
  8
$DDT_AUDIT_GENERATED_(595)
  6
Continuous
 62
     7
100
AcDbSpline
210
0.0
220
0.0
230
1.0
 70
     8
 71
     3
 72
    10
 73
     6
 74
     0
 42
0.0000000019260148
 43
0.0000000001
 40
0.0
 40
0.0
 40
0.0
 40
0.0
 40
0.5
 40
0.5
 40
1.0
 40
1.0
 40
1.0
 40
1.0
 10
388.6957547099848
 20
554.0929466769759
 30
0.0
 10
387.8925906421131
 20
553.7598030866347
 30
0.0
 10
387.0752164157548
 20
553.4794201266691
 30
0.0
 10
385.4096413666005
 20
553.0331096972898
 30
0.0
 10
384.5614401285574
 20
552.8671837696394
 30
0.0
 10
383.6990137818761
 20
552.7540739805016
 30
0.0
  0
LINE
  5
5C8
330
5AB
100
AcDbEntity
  8
$DDT_AUDIT_GENERATED_(595)
  6
Continuous
 62
     7
100
AcDbLine
 10
389.6284194488
 20
557.119937642
 30
0.0
 11
381.3778069424
 21
554.9091926838
 31
0.0
  0
LINE
  5
5C9
330
5AB
100
AcDbEntity
  8
$DDT_AUDIT_GENERATED_(595)
  6
Continuous
 62
     7
100
AcDbLine
 10
389.6284194488
 20
557.119937642
 30
0.0
 11
390.0985466311
 21
555.3653991115
 31
0.0
  0
SPLINE
  5
5CA
330
5AB
100
AcDbEntity
  8
$DDT_AUDIT_GENERATED_(595)
  6
Continuous
 62
     7
100
AcDbSpline
210
0.0
220
0.0
230
1.0
 70
     8
 71
     3
 72
    14
 73
    10
 74
     0
 42
0.0000000049321089
 43
0.0000000001
 40
0.0
 40
0.0
 40
0.0
 40
0.0
 40
0.1250000000000002
 40
0.1250000000000002
 40
0.2500000000000006
 40
0.2500000000000006
 40
0.5000000000000002
 40
0.5000000000000002
 40
1.0
 40
1.0
 40
1.0
 40
1.0
 10
390.0985466310671
 20
555.3653991115468
 30
0.0
 10
390.1203498836803
 20
555.284028265024
 30
0.0
 10
390.1110895702744
 20
555.1944416767332
 30
0.0
 10
390.0545832626214
 20
555.0351925849916
 30
0.0
 10
390.0088817043329
 20
554.9618496486501
 30
0.0
 10
389.8525782668638
 20
554.7635163914191
 30
0.0
 10
389.720384774641
 20
554.6541716449059
 30
0.0
 10
389.3100140211943
 20
554.3667956634004
 30
0.0
 10
389.0048936588612
 20
554.2211741008146
 30
0.0
 10
388.6957547099848
 20
554.0929466769759
 30
0.0
  0
SPLINE
  5
5CB
330
5AB
100
AcDbEntity
  8
$DDT_AUDIT_GENERATED_(595)
  6
Continuous
 62
     7
100
AcDbSpline
210
0.0
220
0.0
230
1.0
 70
     8
 71
     3
 72
    18
 73
    14
 74
     0
 42
0.0000000049401632
 43
0.0000000001
 40
0.0
 40
0.0
 40
0.0
 40
0.0
 40
0.25
 40
0.25
 40
0.5
 40
0.5
 40
0.625
 40
0.625
 40
0.75
 40
0.75
 40
0.875
 40
0.875
 40
1.0
 40
1.0
 40
1.0
 40
1.0
 10
383.6990137818761
 20
552.7540739805016
 30
0.0
 10
383.5325994870833
 20
552.7322482491029
 30
0.0
 10
383.3656806639255
 20
552.7155518192343
 30
0.0
 10
383.0301993144743
 20
552.6988697127398
 30
0.0
 10
382.8617291511583
 20
552.6987139438836
 30
0.0
 10
382.6120404747718
 20
552.7207709887577
 30
0.0
 10
382.5291751427841
 20
552.7318707218793
 30
0.0
 10
382.3645500732484
 20
552.7654452097935
 30
0.0
 10
382.2823219247626
 20
552.788069894584
 30
0.0
 10
382.1269110483127
 20
552.850264685709
 30
0.0
 10
382.0516183973839
 20
552.8902491165769
 30
0.0
 10
381.922146623878
 20
553.0006600671078
 30
0.0
 10
381.8701281123193
 20
553.0718250640256
 30
0.0
 10
381.8479341247099
 20
553.1546541534062
 30
0.0
  0
LINE
  5
5CC
330
5AB
100
AcDbEntity
  8
$DDT_AUDIT_GENERATED_(595)
  6
Continuous
 62
     7
100
AcDbLine
 10
381.8479341247
 20
553.1546541534
 30
0.0
 11
381.3778069424
 21
554.9091926838
 31
0.0
  0
LINE
  5
5CD
330
5AB
100
AcDbEntity
  8
$DDT_AUDIT_GENERATED_(595)
  6
Continuous
 62
     7
100
AcDbLine
 10
375.2824224089
 20
550.4988551191
 30
0.0
 11
375.8958676983
 21
550.3344829492
 31
0.0
  0
LINE
  5
5CE
330
5AB
100
AcDbEntity
  8
$DDT_AUDIT_GENERATED_(595)
  6
Continuous
 62
     7
100
AcDbLine
 10
396.6632729635
 20
555.8990924189
 30
0.0
 11
397.112346083
 21
556.3481655384
 31
0.0
  0
ARC
  5
5CF
330
5AB
100
AcDbEntity
  8
$DDT_AUDIT_GENERATED_(595)
  6
Continuous
 62
     7
100
AcDbCircle
 10
375.541241454
 20
551.4647809454
 30
0.0
 40
1.000000000000003
100
AcDbArc
 50
195.0
 51
255.0
  0
ARC
  5
5D0
330
5AB
100
AcDbEntity
  8
$DDT_AUDIT_GENERATED_(595)
  6
Continuous
 62
     7
100
AcDbCircle
 10
396.4052393018
 20
557.0552723196
 30
0.0
 40
0.9999999999999966
100
AcDbArc
 50
315.0
 51
15.0
  0
LINE
  5
5D1
330
5AB
100
AcDbEntity
  8
$DDT_AUDIT_GENERATED_(595)
  6
Continuous
 62
     7
100
AcDbLine
 10
373.462669626
 20
555.3584133094
 30
0.0
 11
374.5753156277
 21
551.2059619003
 31
0.0
  0
LINE
  5
5D2
330
5AB
100
AcDbEntity
  8
$DDT_AUDIT_GENERATED_(595)
  6
Continuous
 62
     7
100
AcDbLine
 10
397.3711651281
 20
557.3140913647
 30
0.0
 11
396.4466399697
 21
560.7644662285
 31
0.0
  0
LINE
  5
5D4
330
5AB
100
AcDbEntity
  8
DV2_Standard
  6
Continuous
 62
     7
100
AcDbLine
 10
223.5441778318
 20
568.872367208
 30
0.0
 11
266.1803454998
 21
539.3738757803
 31
0.0
  0
ENDBLK
  5
5D6
330
5AB
100
AcDbEntity
  8
0
100
AcDbBlockEnd
  0
BLOCK
  5
5E7
330
5D7
100
AcDbEntity
  8
0
100
AcDbBlockBegin
  2
SE2
 70
     0
 10
0.0
 20
0.0
 30
0.0
  3
SE2
  1

  0
ARC
  5
5D9
330
5D7
100
AcDbEntity
  8
$DDT_AUDIT_GENERATED_(6B)
  6
Continuous
 62
     7
100
AcDbCircle
 10
139.120857382
 20
290.0392961224
 30
0.0
 40
132.7708573820404
100
AcDbArc
 50
177.6983707069
 51
180.5655971522
  0
LINE
  5
5DA
330
5D7
100
AcDbEntity
  8
$DDT_AUDIT_GENERATED_(6B)
  6
Continuous
 62
     7
100
AcDbLine
 10
51.0244370725
 20
296.063187976
 30
0.0
 11
6.9560581453
 21
296.063187976
 31
0.0
  0
LINE
  5
5DB
330
5D7
100
AcDbEntity
  8
$DDT_AUDIT_GENERATED_(6B)
  6
Continuous
 62
     7
100
AcDbLine
 10
6.4902476089
 20
296.0631820031
 30
0.0
 11
6.9560581453
 21
296.063187976
 31
0.0
  0
LINE
  5
5DC
330
5D7
100
AcDbEntity
  8
$DDT_AUDIT_GENERATED_(6B)
  6
Continuous
 62
     7
100
AcDbLine
 10
51.0244370725
 20
296.063187976
 30
0.0
 11
51.4902476089
 21
296.0631820031
 31
0.0
  0
ARC
  5
5DD
330
5D7
100
AcDbEntity
  8
$DDT_AUDIT_GENERATED_(6B)
  6
Continuous
 62
     7
100
AcDbCircle
 10
-81.1406786126
 20
290.0392861312
 30
0.0
 40
132.771173976404
100
AcDbArc
 50
359.4343960272
 51
2.3016281169
  0
ARC
  5
5DE
330
5D7
100
AcDbEntity
  8
$DDT_AUDIT_GENERATED_(6B)
  6
Continuous
 62
     7
100
AcDbCircle
 10
92.2535233851
 20
291.6085758776
 30
0.0
 40
85.87888557493861
100
AcDbArc
 50
177.0266879886
 51
177.4887535318
  0
ARC
  5
5DF
330
5D7
100
AcDbEntity
  8
$DDT_AUDIT_GENERATED_(6B)
  6
Continuous
 62
     7
100
AcDbCircle
 10
-34.2728700044
 20
291.6085834534
 30
0.0
 40
85.87872723206664
100
AcDbArc
 50
2.5112460422
 51
2.9733124373
  0
ARC
  5
5E0
330
5D7
100
AcDbEntity
  8
$DDT_AUDIT_GENERATED_(6B)
  6
Continuous
 62
     7
100
AcDbCircle
 10
119102.5300821393
 20
274.8049892575
 30
0.0
 40
119096.0747454969
100
AcDbArc
 50
179.990105731
 51
180.0346144186
  0
ARC
  5
5E1
330
5D7
100
AcDbEntity
  8
$DDT_AUDIT_GENERATED_(6B)
  6
Continuous
 62
     7
100
AcDbCircle
 10
-116435.2513685989
 20
273.4556253668
 30
0.0
 40
116486.7768130051
100
AcDbArc
 50
359.9689710706
 51
0.0107796052
  0
ARC
  5
5E2
330
5D7
100
AcDbEntity
  8
$DDT_AUDIT_GENERATED_(6B)
  6
Continuous
 62
     7
100
AcDbCircle
 10
4527.643101232
 20
258.3752853677
 30
0.0
 40
4476.122469265867
100
AcDbArc
 50
179.6114640952
 51
180.0305855348
  0
ARC
  5
5E3
330
5D7
100
AcDbEntity
  8
$DDT_AUDIT_GENERATED_(6B)
  6
Continuous
 62
     7
100
AcDbCircle
 10
-4529.112264649
 20
258.1911621041
 30
0.0
 40
4535.572015001208
100
AcDbArc
 50
359.9721856897
 51
0.3857694945
  0
SPLINE
  5
5E4
330
5D7
100
AcDbEntity
  8
$DDT_AUDIT_GENERATED_(6B)
  6
Continuous
 62
     7
100
AcDbSpline
210
0.0
220
0.0
230
1.0
 70
     8
 71
     3
 72
     8
 73
     4
 74
     0
 42
0.0000000001393416
 43
0.0000000001
 40
0.0
 40
0.0
 40
0.0
 40
0.0
 40
1.0
 40
1.0
 40
1.0
 40
1.0
 10
6.477546311668338
 20
202.8268822067504
 30
0.0
 10
6.479242922752356
 20
185.6701734036215
 30
0.0
 10
6.495174681050007
 20
161.7481542716438
 30
0.0
 10
6.525341586561296
 20
131.0608248108172
 30
0.0
  0
SPLINE
  5
5E5
330
5D7
100
AcDbEntity
  8
$DDT_AUDIT_GENERATED_(6B)
  6
Continuous
 62
     7
100
AcDbSpline
210
0.0
220
0.0
230
1.0
 70
     8
 71
     3
 72
    88
 73
    84
 74
     0
 42
0.0000000001336576
 43
0.0000000001
 40
0.0
 40
0.0
 40
0.0
 40
0.0
 40
0.0077033849365209
 40
0.0215866554266724
 40
0.0364888838685035
 40
0.0509731869149658
 40
0.0652726000487272
 40
0.0794055979965336
 40
0.0933574744288034
 40
0.1069119008149613
 40
0.1202177640074492
 40
0.1333126411140202
 40
0.1462309223902589
 40
0.1590249461550553
 40
0.1715650831140058
 40
0.18406207194779
 40
0.19647706238743
 40
0.2087513179090365
 40
0.2208324279472532
 40
0.2327046615346687
 40
0.2446656210967447
 40
0.2565610822179085
 40
0.2684217526486507
 40
0.2802785099619284
 40
0.292157041004257
 40
0.3040035376548799
 40
0.3157808119036722
 40
0.3276395131841559
 40
0.3395440241484196
 40
0.3514563769150485
 40
0.3633313212566954
 40
0.3752191999697072
 40
0.3871899399082444
 40
0.3992575820468599
 40
0.411378676401507
 40
0.4235058231553802
 40
0.4355761160376894
 40
0.447652177160355
 40
0.4598418558582903
 40
0.4720310607384371
 40
0.4842423470901782
 40
0.4965017779722299
 40
0.5088022708246432
 40
0.5210480742424045
 40
0.5332518586733311
 40
0.5454362747640493
 40
0.5576182848796947
 40
0.5698126830500345
 40
0.5820565654271048
 40
0.5941515952889346
 40
0.6063061699364473
 40
0.6184573748675677
 40
0.6305344682189211
 40
0.6424870225040379
 40
0.6542902756069429
 40
0.6660679548506395
 40
0.6779040264464548
 40
0.6897875413010192
 40
0.7017068267276981
 40
0.7136494574457604
 40
0.7256025570094449
 40
0.7375496909907665
 40
0.7494772225237843
 40
0.7613730810692517
 40
0.7732261354635303
 40
0.7850223873738741
 40
0.7968046181207156
 40
0.80876831421407
 40
0.8208814783826581
 40
0.8331505710984822
 40
0.8455795400401442
 40
0.8581699661274231
 40
0.8709208864040279
 40
0.8838286346444951
 40
0.8968867060403505
 40
0.9100856563393814
 40
0.923409290656832
 40
0.9368864838718322
 40
0.9508596031617628
 40
0.9650109543454496
 40
0.9793424140066942
 40
0.993812607288282
 40
1.0
 40
1.0
 40
1.0
 40
1.0
 10
6.520384053942715
 20
131.0607701442381
 30
0.0
 10
6.521747900620372
 20
130.8494992104713
 30
0.0
 10
6.525835018133155
 20
130.3469047338093
 30
0.0
 10
6.553495324440495
 20
129.415124676488
 30
0.0
 10
6.621805646456848
 20
128.3456490872153
 30
0.0
 10
6.728605117884659
 20
127.2594798816287
 30
0.0
 10
6.870707694224001
 20
126.199209175848
 30
0.0
 10
7.047972781049738
 20
125.1570546444058
 30
0.0
 10
7.2587686637091
 20
124.1402844649324
 30
0.0
 10
7.502292983448032
 20
123.1520315884051
 30
0.0
 10
7.776881861846552
 20
122.1941747874975
 30
0.0
 10
8.082918117281194
 20
121.2625707899338
 30
0.0
 10
8.42028347380211
 20
120.3554521221785
 30
0.0
 10
8.78774538706839
 20
119.4750558446511
 30
0.0
 10
9.186015088010208
 20
118.6197416532688
 30
0.0
 10
9.613500939449917
 20
117.7892688654107
 30
0.0
 10
10.07060742208757
 20
116.9823298038156
 30
0.0
 10
10.55449587345289
 20
116.2033322088138
 30
0.0
 10
11.06266215387488
 20
115.4562566041575
 30
0.0
 10
11.59651385700333
 20
114.737037146269
 30
0.0
 10
12.15640998471451
 20
114.0438304847925
 30
0.0
 10
12.74450689847343
 20
113.3747614955562
 30
0.0
 10
13.35820260252647
 20
112.732680084983
 30
0.0
 10
13.99790359217478
 20
112.117117926843
 30
0.0
 10
14.66231136887107
 20
111.5288343166737
 30
0.0
 10
15.34944004519497
 20
110.9703899366158
 30
0.0
 10
16.05876651203139
 20
110.4412752147633
 30
0.0
 10
16.79039209567072
 20
109.9408817666931
 30
0.0
 10
17.54478638890894
 20
109.4691378767466
 30
0.0
 10
18.31828743213818
 20
109.0285971505135
 30
0.0
 10
19.10902598935515
 20
108.6206997766277
 30
0.0
 10
19.91730469063966
 20
108.2453150876866
 30
0.0
 10
20.74457488196017
 20
107.9011828651294
 30
0.0
 10
21.59051307295282
 20
107.5886937534412
 30
0.0
 10
22.45207621903007
 20
107.3093767660295
 30
0.0
 10
23.32429640166686
 20
107.0650928010247
 30
0.0
 10
24.20467688972314
 20
106.8569459980474
 30
0.0
 10
25.09414348601579
 20
106.6835820965524
 30
0.0
 10
25.99280732576047
 20
106.5456926441827
 30
0.0
 10
26.89966220300185
 20
106.443891279266
 30
0.0
 10
27.81162128330696
 20
106.3786476864608
 30
0.0
 10
28.72823371601772
 20
106.3500000000001
 30
0.0
 10
29.64612186311077
 20
106.3578031121691
 30
0.0
 10
30.56157641412582
 20
106.40233739641
 30
0.0
 10
31.47161431792488
 20
106.4834153104131
 30
0.0
 10
32.37607078035627
 20
106.6008901451196
 30
0.0
 10
33.27481085117583
 20
106.7547585605758
 30
0.0
 10
34.16811158730945
 20
106.9448530492993
 30
0.0
 10
35.0507767454701
 20
107.1708794970914
 30
0.0
 10
35.92249420816276
 20
107.4325315432193
 30
0.0
 10
36.78078298494681
 20
107.728322900226
 30
0.0
 10
37.62597116924711
 20
108.0584826828465
 30
0.0
 10
38.45235041447145
 20
108.4208819282869
 30
0.0
 10
39.25525748723445
 20
108.8133278020415
 30
0.0
 10
40.03425168961842
 20
109.2358796757219
 30
0.0
 10
40.79250956011904
 20
109.6889459870096
 30
0.0
 10
41.53309685523371
 20
110.1740179031839
 30
0.0
 10
42.2559562785718
 20
110.6912237167196
 30
0.0
 10
42.95903272474931
 20
111.2393496530418
 30
0.0
 10
43.64030366412783
 20
111.8170398411608
 30
0.0
 10
44.29773622226384
 20
112.4227470411649
 30
0.0
 10
44.92937020142482
 20
113.054780187327
 30
0.0
 10
45.53336952491102
 20
113.7113370427691
 30
0.0
 10
46.10807631440399
 20
114.3906118665714
 30
0.0
 10
46.65198937282922
 20
115.0906523257749
 30
0.0
 10
47.16430031128155
 20
115.8106593725254
 30
0.0
 10
47.6482569753454
 20
116.5532983247402
 30
0.0
 10
48.10606357317087
 20
117.3215491103121
 30
0.0
 10
48.53879363078658
 20
118.1180377949889
 30
0.0
 10
48.9451001027012
 20
118.9412780752608
 30
0.0
 10
49.32408726656124
 20
119.7904912706341
 30
0.0
 10
49.67481297355745
 20
120.664715968822
 30
0.0
 10
49.99630035983372
 20
121.5627966588727
 30
0.0
 10
50.28756543524364
 20
122.4833654152735
 30
0.0
 10
50.54758749196061
 20
123.4248284272551
 30
0.0
 10
50.77548360758904
 20
124.3852567231264
 30
0.0
 10
50.97011161294076
 20
125.36357420517
 30
0.0
 10
51.13429410862992
 20
126.3671737740288
 30
0.0
 10
51.26692574497297
 20
127.3955924514488
 30
0.0
 10
51.3665213735049
 20
128.4516633049531
 30
0.0
 10
51.43146833146147
 20
129.5131972263813
 30
0.0
 10
51.45547150899735
 20
130.4087397052694
 30
0.0
 10
51.45974092742112
 20
130.8910600940951
 30
0.0
 10
51.46099690079602
 20
131.0607527265325
 30
0.0
  0
SPLINE
  5
5E6
330
5D7
100
AcDbEntity
  8
$DDT_AUDIT_GENERATED_(6B)
  6
Continuous
 62
     7
100
AcDbSpline
210
0.0
220
0.0
230
1.0
 70
     8
 71
     3
 72
    10
 73
     6
 74
     0
 42
0.0000000001261514
 43
0.0000000001
 40
0.0
 40
0.0
 40
0.0
 40
0.0
 40
0.1582765681447976
 40
0.8898686350645281
 40
1.0
 40
1.0
 40
1.0
 40
1.0
 10
51.45544613491602
 20
131.0608161816412
 30
0.0
 10
51.46033524468482
 20
135.6612185932743
 30
0.0
 10
51.48344847291335
 20
157.7039341930421
 30
0.0
 10
51.50203219406744
 20
186.2005738765269
 30
0.0
 10
51.50710972663771
 20
207.1296076593587
 30
0.0
 10
51.50785675847867
 20
210.3306428795664
 30
0.0
  0
ENDBLK
  5
5E8
330
5D7
100
AcDbEntity
  8
0
100
AcDbBlockEnd
  0
ENDSEC
  0
SECTION
  2
ENTITIES
  0
INSERT
  5
5F
330
1F
100
AcDbEntity
  8
Default
100
AcDbBlockReference
  2
SEANNOT_GROUP
 10
0.0
 20
0.0
 30
0.0
  0
INSERT
  5
65
330
1F
100
AcDbEntity
  8
Default
100
AcDbBlockReference
  2
SEANNOT_GROUP1
 10
0.0
 20
0.0
 30
0.0
  0
INSERT
  5
6A
330
1F
100
AcDbEntity
  8
Default
100
AcDbBlockReference
  2
SE
 10
0.0
 20
0.0
 30
0.0
  0
INSERT
  5
5AC
330
1F
100
AcDbEntity
  8
Default
100
AcDbBlockReference
  2
SE1
 10
0.0
 20
0.0
 30
0.0
  0
INSERT
  5
5D8
330
1F
100
AcDbEntity
  8
Default
100
AcDbBlockReference
  2
SE2
 10
0.0
 20
0.0
 30
0.0
  0
TEXT
  5
5EA
330
1F
100
AcDbEntity
  8
Default
  6
Continuous
 62
     7
100
AcDbText
 10
5.9362635081
 20
53.4225120485
 30
0.0
 40
10.0
  1
Grohe AG^J
  7
SEACAD_seiso_ttf
 11
5.9362635081
 21
63.4225120485
 31
0.0
100
AcDbText
 73
     3
  0
TEXT
  5
5EB
330
1F
100
AcDbEntity
  8
Default
  6
Continuous
 62
     7
100
AcDbText
 10
5.9362635081
 20
37.0588756849
 30
0.0
 40
10.0
  1
 
  7
SEACAD_seiso_ttf
 11
5.9362635081
 21
47.0588756849
 31
0.0
100
AcDbText
 73
     3
  0
TEXT
  5
5EC
330
1F
100
AcDbEntity
  8
Default
  6
Continuous
 62
     7
100
AcDbText
 10
5.9362635081
 20
20.6952393213
 30
0.0
 40
10.0
  1
ecn: 
  7
SEACAD_seiso_ttf
 11
5.9362635081
 21
30.6952393213
 31
0.0
100
AcDbText
 73
     3
  0
TEXT
  5
5ED
330
1F
100
AcDbEntity
  8
Default
  6
Continuous
 62
     7
100
AcDbText
 10
5.9362635081
 20
4.3316029576
 30
0.0
 40
10.0
  1
unit: mm
  7
SEACAD_seiso_ttf
 11
5.9362635081
 21
14.3316029576
 31
0.0
100
AcDbText
 73
     3
  0
LINE
  5
5EE
330
1F
100
AcDbEntity
  8
Default
  6
Continuous
 62
     7
100
AcDbLine
 10
0.0
 20
0.0
 30
0.0
 11
100.0
 21
0.0
 31
0.0
  0
LINE
  5
5EF
330
1F
100
AcDbEntity
  8
Default
  6
Continuous
 62
     7
100
AcDbLine
 10
0.0
 20
0.0
 30
0.0
 11
0.0
 21
100.0
 31
0.0
  0
TEXT
  5
5F0
330
1F
100
AcDbEntity
  8
Default
  6
Continuous
 62
     7
100
AcDbText
 10
24.3923665681
 20
-18.2375342018
 30
0.0
 40
10.0
  1
100 mm
  7
SEACAD_seiso_ttf
 11
24.3923665681
 21
-8.2375342018
 31
0.0
100
AcDbText
 73
     3
  0
TEXT
  5
5F1
330
1F
100
AcDbEntity
  8
Default
  6
Continuous
 62
     7
100
AcDbText
 10
-7.6150308803
 20
24.6231930421
 30
0.0
 40
10.0
  1
100 mm
 50
90.0
  7
SEACAD_seiso_ttf
 11
-17.6150308803
 21
24.6231930421
 31
0.0
100
AcDbText
 73
     3
  0
TEXT
  5
5F2
330
1F
100
AcDbEntity
  8
Default
  6
Continuous
 62
     7
100
AcDbText
 10
28.4878128572
 20
20.0907663715
 30
0.0
 40
10.0
  1
220035
  7
SEACAD_seiso_ttf
 11
28.4878128572
 21
30.0907663715
 31
0.0
100
AcDbText
 73
     3
  0
TEXT
  5
5F3
330
1F
100
AcDbEntity
  8
Default
  6
Continuous
 62
     7
100
AcDbText
 10
5.9012241913
 20
36.7242780188
 30
0.0
 40
10.0
  1
36274000
  7
SEACAD_seiso_ttf
 11
5.9012241913
 21
46.7242780188
 31
0.0
100
AcDbText
 73
     3
  0
ENDSEC
  0
SECTION
  2
OBJECTS
  0
DICTIONARY
  5
C
330
0
100
AcDbDictionary
281
     1
  3
ACAD_GROUP
350
D
  3
ACAD_LAYOUT
350
1A
  3
ACAD_MLEADERSTYLE
350
5F7
  3
ACAD_MLINESTYLE
350
17
  3
ACAD_PLOTSETTINGS
350
19
  3
ACAD_PLOTSTYLENAME
350
E
  3
ACAD_SCALELIST
350
3B
  3
ACAD_TABLESTYLE
350
5F6
  3
ACAD_VISUALSTYLE
350
2A
  3
AcDbVariableDictionary
350
5F4
  0
DICTIONARY
  5
D
102
{ACAD_REACTORS
330
C
102
}
330
C
100
AcDbDictionary
281
     1
  0
DICTIONARY
  5
1A
102
{ACAD_REACTORS
330
C
102
}
330
C
100
AcDbDictionary
281
     1
  3
Layout1
350
1E
  3
Model
350
22
  0
DICTIONARY
  5
5F7
102
{ACAD_REACTORS
330
C
102
}
330
C
100
AcDbDictionary
281
     1
  0
DICTIONARY
  5
17
102
{ACAD_REACTORS
330
C
102
}
330
C
100
AcDbDictionary
281
     1
  3
Standard
350
18
  0
DICTIONARY
  5
19
102
{ACAD_REACTORS
330
C
102
}
330
C
100
AcDbDictionary
281
     1
  0
ACDBDICTIONARYWDFLT
  5
E
102
{ACAD_REACTORS
330
C
102
}
330
C
100
AcDbDictionary
281
     1
  3
Normal
350
F
100
AcDbDictionaryWithDefault
340
F
  0
DICTIONARY
  5
3B
102
{ACAD_REACTORS
330
C
102
}
330
C
100
AcDbDictionary
281
     1
  3
A0
350
3C
  3
A1
350
3D
  3
A2
350
3E
  3
A3
350
3F
  3
A4
350
40
  3
A5
350
41
  3
A6
350
42
  3
A7
350
43
  3
A8
350
44
  3
A9
350
45
  3
B0
350
46
  3
B1
350
47
  3
B2
350
48
  3
B3
350
49
  3
B4
350
4A
  3
B5
350
4B
  3
B6
350
4C
  3
B7
350
4D
  3
B8
350
4E
  3
B9
350
4F
  3
C0
350
50
  3
C1
350
51
  3
C2
350
52
  3
C3
350
53
  3
C4
350
54
  3
C5
350
55
  3
C6
350
56
  3
C7
350
57
  3
C8
350
58
  3
C9
350
59
  3
D0
350
5A
  3
D1
350
5B
  3
D2
350
5C
  0
DICTIONARY
  5
5F6
102
{ACAD_REACTORS
330
C
102
}
330
C
100
AcDbDictionary
281
     1
  0
DICTIONARY
  5
2A
102
{ACAD_REACTORS
330
C
102
}
330
C
100
AcDbDictionary
281
     1
  3
2dWireframe
350
2F
  3
3D Hidden
350
31
  3
3dWireframe
350
30
  3
Basic
350
32
  3
Brighten
350
36
  3
ColorChange
350
3A
  3
Conceptual
350
34
  3
Dim
350
35
  3
Facepattern
350
39
  3
Flat
350
2B
  3
FlatWithEdges
350
2C
  3
Gouraud
350
2D
  3
GouraudWithEdges
350
2E
  3
Linepattern
350
38
  3
Realistic
350
33
  3
Thicken
350
37
  0
DICTIONARY
  5
5F4
102
{ACAD_REACTORS
330
C
102
}
330
C
100
AcDbDictionary
281
     1
  3
CANNOSCALE
350
5F5
  3
PSOLHEIGHT
350
5F9
  3
PSOLWIDTH
350
5F8
  0
LAYOUT
  5
1E
102
{ACAD_REACTORS
330
1A
102
}
330
1A
100
AcDbPlotSettings
  1

  2
none_device
  4

  6

 40
0.0
 41
0.0
 42
0.0
 43
0.0
 44
0.0
 45
0.0
 46
0.0
 47
0.0
 48
0.0
 49
0.0
140
0.0
141
0.0
142
1.0
143
1.0
 70
   688
 72
     0
 73
     0
 74
     5
  7

 75
    16
147
1.0
148
0.0
149
0.0
100
AcDbLayout
  1
Layout1
 70
     1
 71
     1
 10
0.0
 20
0.0
 11
1682.0
 21
2378.0
 12
0.0
 22
0.0
 32
0.0
 14
0.0
 24
0.0
 34
0.0
 15
1682.0
 25
2378.0
 35
0.0
146
0.0
 13
0.0
 23
0.0
 33
0.0
 16
1.0
 26
0.0
 36
0.0
 17
0.0
 27
1.0
 37
0.0
 76
     0
330
1B
  0
LAYOUT
  5
22
102
{ACAD_REACTORS
330
1A
102
}
330
1A
100
AcDbPlotSettings
  1

  2
none_device
  4

  6

 40
0.0
 41
0.0
 42
0.0
 43
0.0
 44
0.0
 45
0.0
 46
0.0
 47
0.0
 48
0.0
 49
0.0
140
0.0
141
0.0
142
1.0
143
1.0
 70
  1712
 72
     0
 73
     0
 74
     0
  7

 75
     0
147
1.0
148
0.0
149
0.0
100
AcDbLayout
  1
Model
 70
     1
 71
     0
 10
0.0
 20
0.0
 11
1682.0
 21
2378.0
 12
0.0
 22
0.0
 32
0.0
 14
0.0
 24
0.0
 34
0.0
 15
1682.0
 25
2378.0
 35
0.0
146
0.0
 13
0.0
 23
0.0
 33
0.0
 16
1.0
 26
0.0
 36
0.0
 17
0.0
 27
1.0
 37
0.0
 76
     0
330
1F
331
29
  0
MLINESTYLE
  5
18
102
{ACAD_REACTORS
330
17
102
}
330
17
100
AcDbMlineStyle
  2
Standard
 70
     0
  3

 62
   256
 51
90.0
 52
90.0
 71
     2
 49
0.5
 62
   256
  6
BYLAYER
 49
-0.5
 62
   256
  6
BYLAYER
  0
ACDBPLACEHOLDER
  5
F
102
{ACAD_REACTORS
330
E
102
}
330
E
  0
SCALE
  5
3C
102
{ACAD_REACTORS
330
3B
102
}
330
3B
100
AcDbScale
 70
     0
300
1:1
140
1.0
141
1.0
290
     1
  0
SCALE
  5
3D
102
{ACAD_REACTORS
330
3B
102
}
330
3B
100
AcDbScale
 70
     0
300
1:2
140
1.0
141
2.0
290
     0
  0
SCALE
  5
3E
102
{ACAD_REACTORS
330
3B
102
}
330
3B
100
AcDbScale
 70
     0
300
1:4
140
1.0
141
4.0
290
     0
  0
SCALE
  5
3F
102
{ACAD_REACTORS
330
3B
102
}
330
3B
100
AcDbScale
 70
     0
300
1:5
140
1.0
141
5.0
290
     0
  0
SCALE
  5
40
102
{ACAD_REACTORS
330
3B
102
}
330
3B
100
AcDbScale
 70
     0
300
1:8
140
1.0
141
8.0
290
     0
  0
SCALE
  5
41
102
{ACAD_REACTORS
330
3B
102
}
330
3B
100
AcDbScale
 70
     0
300
1:10
140
1.0
141
10.0
290
     0
  0
SCALE
  5
42
102
{ACAD_REACTORS
330
3B
102
}
330
3B
100
AcDbScale
 70
     0
300
1:16
140
1.0
141
16.0
290
     0
  0
SCALE
  5
43
102
{ACAD_REACTORS
330
3B
102
}
330
3B
100
AcDbScale
 70
     0
300
1:20
140
1.0
141
20.0
290
     0
  0
SCALE
  5
44
102
{ACAD_REACTORS
330
3B
102
}
330
3B
100
AcDbScale
 70
     0
300
1:30
140
1.0
141
30.0
290
     0
  0
SCALE
  5
45
102
{ACAD_REACTORS
330
3B
102
}
330
3B
100
AcDbScale
 70
     0
300
1:40
140
1.0
141
40.0
290
     0
  0
SCALE
  5
46
102
{ACAD_REACTORS
330
3B
102
}
330
3B
100
AcDbScale
 70
     0
300
1:50
140
1.0
141
50.0
290
     0
  0
SCALE
  5
47
102
{ACAD_REACTORS
330
3B
102
}
330
3B
100
AcDbScale
 70
     0
300
1:100
140
1.0
141
100.0
290
     0
  0
SCALE
  5
48
102
{ACAD_REACTORS
330
3B
102
}
330
3B
100
AcDbScale
 70
     0
300
2:1
140
2.0
141
1.0
290
     0
  0
SCALE
  5
49
102
{ACAD_REACTORS
330
3B
102
}
330
3B
100
AcDbScale
 70
     0
300
4:1
140
4.0
141
1.0
290
     0
  0
SCALE
  5
4A
102
{ACAD_REACTORS
330
3B
102
}
330
3B
100
AcDbScale
 70
     0
300
8:1
140
8.0
141
1.0
290
     0
  0
SCALE
  5
4B
102
{ACAD_REACTORS
330
3B
102
}
330
3B
100
AcDbScale
 70
     0
300
10:1
140
10.0
141
1.0
290
     0
  0
SCALE
  5
4C
102
{ACAD_REACTORS
330
3B
102
}
330
3B
100
AcDbScale
 70
     0
300
100:1
140
100.0
141
1.0
290
     0
  0
SCALE
  5
4D
102
{ACAD_REACTORS
330
3B
102
}
330
3B
100
AcDbScale
 70
     0
300
1/128" = 1'-0"
140
0.0078125
141
12.0
290
     0
  0
SCALE
  5
4E
102
{ACAD_REACTORS
330
3B
102
}
330
3B
100
AcDbScale
 70
     0
300
1/64" = 1'-0"
140
0.015625
141
12.0
290
     0
  0
SCALE
  5
4F
102
{ACAD_REACTORS
330
3B
102
}
330
3B
100
AcDbScale
 70
     0
300
1/32" = 1'-0"
140
0.03125
141
12.0
290
     0
  0
SCALE
  5
50
102
{ACAD_REACTORS
330
3B
102
}
330
3B
100
AcDbScale
 70
     0
300
1/16" = 1'-0"
140
0.0625
141
12.0
290
     0
  0
SCALE
  5
51
102
{ACAD_REACTORS
330
3B
102
}
330
3B
100
AcDbScale
 70
     0
300
3/32" = 1'-0"
140
0.09375
141
12.0
290
     0
  0
SCALE
  5
52
102
{ACAD_REACTORS
330
3B
102
}
330
3B
100
AcDbScale
 70
     0
300
1/8" = 1'-0"
140
0.125
141
12.0
290
     0
  0
SCALE
  5
53
102
{ACAD_REACTORS
330
3B
102
}
330
3B
100
AcDbScale
 70
     0
300
3/16" = 1'-0"
140
0.1875
141
12.0
290
     0
  0
SCALE
  5
54
102
{ACAD_REACTORS
330
3B
102
}
330
3B
100
AcDbScale
 70
     0
300
1/4" = 1'-0"
140
0.25
141
12.0
290
     0
  0
SCALE
  5
55
102
{ACAD_REACTORS
330
3B
102
}
330
3B
100
AcDbScale
 70
     0
300
3/8" = 1'-0"
140
0.375
141
12.0
290
     0
  0
SCALE
  5
56
102
{ACAD_REACTORS
330
3B
102
}
330
3B
100
AcDbScale
 70
     0
300
1/2" = 1'-0"
140
0.5
141
12.0
290
     0
  0
SCALE
  5
57
102
{ACAD_REACTORS
330
3B
102
}
330
3B
100
AcDbScale
 70
     0
300
3/4" = 1'-0"
140
0.75
141
12.0
290
     0
  0
SCALE
  5
58
102
{ACAD_REACTORS
330
3B
102
}
330
3B
100
AcDbScale
 70
     0
300
1" = 1'-0"
140
1.0
141
12.0
290
     0
  0
SCALE
  5
59
102
{ACAD_REACTORS
330
3B
102
}
330
3B
100
AcDbScale
 70
     0
300
1-1/2" = 1'-0"
140
1.5
141
12.0
290
     0
  0
SCALE
  5
5A
102
{ACAD_REACTORS
330
3B
102
}
330
3B
100
AcDbScale
 70
     0
300
3" = 1'-0"
140
3.0
141
12.0
290
     0
  0
SCALE
  5
5B
102
{ACAD_REACTORS
330
3B
102
}
330
3B
100
AcDbScale
 70
     0
300
6" = 1'-0"
140
6.0
141
12.0
290
     0
  0
SCALE
  5
5C
102
{ACAD_REACTORS
330
3B
102
}
330
3B
100
AcDbScale
 70
     0
300
1'-0" = 1'-0"
140
12.0
141
12.0
290
     0
  0
VISUALSTYLE
  5
2F
102
{ACAD_REACTORS
330
2A
102
}
330
2A
100
AcDbVisualStyle
  2
2dWireframe
 70
     4
 71
     0
 72
     2
 73
     0
 90
        0
 40
-0.6
 41
-30.0
 62
     5
 63
     7
 74
     1
 91
        4
 64
     7
 65
   257
 75
     1
175
     1
 42
1.0
 92
        0
 66
   257
 43
1.0
 76
     1
 77
     6
 78
     2
 67
     7
 79
     5
170
     0
171
     0
290
     0
174
     0
 93
        1
 44
0.0
173
     0
291
     0
 45
0.0
1001
ACAD
1000
AcDbSavedByObjectVersion
1070
     0
  0
VISUALSTYLE
  5
31
102
{ACAD_REACTORS
330
2A
102
}
330
2A
100
AcDbVisualStyle
  2
3D Hidden
 70
     6
 71
     1
 72
     2
 73
     2
 90
        0
 40
-0.6
 41
-30.0
 62
     5
 63
     7
 74
     2
 91
        2
 64
     7
 65
   257
 75
     2
175
     1
 42
40.0
 92
        0
 66
   257
 43
1.0
 76
     1
 77
     6
 78
     2
 67
     7
 79
     3
170
     0
171
     0
290
     0
174
     0
 93
        1
 44
0.0
173
     0
291
     0
 45
0.0
1001
ACAD
1000
AcDbSavedByObjectVersion
1070
     0
  0
VISUALSTYLE
  5
30
102
{ACAD_REACTORS
330
2A
102
}
330
2A
100
AcDbVisualStyle
  2
3dWireframe
 70
     5
 71
     0
 72
     2
 73
     0
 90
        0
 40
-0.6
 41
-30.0
 62
     5
 63
     7
 74
     1
 91
        4
 64
     7
 65
   257
 75
     1
175
     1
 42
1.0
 92
        0
 66
   257
 43
1.0
 76
     1
 77
     6
 78
     2
 67
     7
 79
     5
170
     0
171
     0
290
     0
174
     0
 93
        1
 44
0.0
173
     0
291
     0
 45
0.0
1001
ACAD
1000
AcDbSavedByObjectVersion
1070
     0
  0
VISUALSTYLE
  5
32
102
{ACAD_REACTORS
330
2A
102
}
330
2A
100
AcDbVisualStyle
  2
Basic
 70
     7
 71
     1
 72
     0
 73
     1
 90
        0
 40
-0.6
 41
-30.0
 62
     5
 63
     7
 74
     0
 91
        4
 64
     7
 65
   257
 75
     1
175
     1
 42
1.0
 92
        8
 66
     7
 43
1.0
 76
     1
 77
     6
 78
     2
 67
     7
 79
     5
170
     0
171
     0
290
     0
174
     0
 93
        1
 44
0.0
173
     0
291
     1
 45
0.0
1001
ACAD
1000
AcDbSavedByObjectVersion
1070
     0
  0
VISUALSTYLE
  5
36
102
{ACAD_REACTORS
330
2A
102
}
330
2A
100
AcDbVisualStyle
  2
Brighten
 70
    12
 71
     2
 72
     2
 73
     0
 90
        0
 40
-0.6
 41
-30.0
 62
     5
 63
     7
 74
     1
 91
        4
 64
     7
 65
   257
 75
     1
175
     1
 42
1.0
 92
        8
 66
     7
 43
1.0
 76
     1
 77
     6
 78
     2
 67
     7
 79
     5
170
     0
171
     0
290
     0
174
     0
 93
        1
 44
50.0
173
     0
291
     1
 45
0.0
1001
ACAD
1000
AcDbSavedByObjectVersion
1070
     0
  0
VISUALSTYLE
  5
3A
102
{ACAD_REACTORS
330
2A
102
}
330
2A
100
AcDbVisualStyle
  2
ColorChange
 70
    16
 71
     2
 72
     2
 73
     3
 90
        0
 40
-0.6
 41
-30.0
 62
     5
 63
     8
 74
     1
 91
        4
 64
     7
 65
   257
 75
     1
175
     1
 42
1.0
 92
        8
 66
     8
 43
1.0
 76
     1
 77
     6
 78
     2
 67
     7
 79
     5
170
     0
171
     0
290
     0
174
     0
 93
        1
 44
0.0
173
     0
291
     1
 45
0.0
1001
ACAD
1000
AcDbSavedByObjectVersion
1070
     0
  0
VISUALSTYLE
  5
34
102
{ACAD_REACTORS
330
2A
102
}
330
2A
100
AcDbVisualStyle
  2
Conceptual
 70
     9
 71
     3
 72
     2
 73
     0
 90
        0
 40
-0.6
 41
-30.0
 62
     5
 63
     7
 74
     2
 91
        2
 64
     7
 65
   257
 75
     1
175
     1
 42
40.0
 92
        8
 66
     7
 43
1.0
 76
     1
 77
     6
 78
     2
 67
     7
 79
     3
170
     0
171
     0
290
     0
174
     0
 93
        1
 44
0.0
173
     0
291
     0
 45
0.0
1001
ACAD
1000
AcDbSavedByObjectVersion
1070
     0
  0
VISUALSTYLE
  5
35
102
{ACAD_REACTORS
330
2A
102
}
330
2A
100
AcDbVisualStyle
  2
Dim
 70
    11
 71
     2
 72
     2
 73
     0
 90
        0
 40
-0.6
 41
-30.0
 62
     5
 63
     7
 74
     1
 91
        4
 64
     7
 65
   257
 75
     1
175
     1
 42
1.0
 92
        8
 66
     7
 43
1.0
 76
     1
 77
     6
 78
     2
 67
     7
 79
     5
170
     0
171
     0
290
     0
174
     0
 93
        1
 44
-50.0
173
     0
291
     1
 45
0.0
1001
ACAD
1000
AcDbSavedByObjectVersion
1070
     0
  0
VISUALSTYLE
  5
39
102
{ACAD_REACTORS
330
2A
102
}
330
2A
100
AcDbVisualStyle
  2
Facepattern
 70
    15
 71
     2
 72
     2
 73
     0
 90
        0
 40
-0.6
 41
-30.0
 62
     5
 63
     7
 74
     1
 91
        4
 64
     7
 65
   257
 75
     1
175
     1
 42
1.0
 92
        8
 66
     7
 43
1.0
 76
     1
 77
     6
 78
     2
 67
     7
 79
     5
170
     0
171
     0
290
     0
174
     0
 93
        1
 44
0.0
173
     0
291
     1
 45
0.0
1001
ACAD
1000
AcDbSavedByObjectVersion
1070
     0
  0
VISUALSTYLE
  5
2B
102
{ACAD_REACTORS
330
2A
102
}
330
2A
100
AcDbVisualStyle
  2
Flat
 70
     0
 71
     2
 72
     1
 73
     1
 90
        2
 40
-0.6
 41
30.0
 62
     5
 63
     7
 74
     0
 91
        4
 64
     7
 65
   257
 75
     1
175
     1
 42
1.0
 92
        8
 66
     7
 43
1.0
 76
     1
 77
     6
 78
     2
 67
     7
 79
     5
170
     0
171
     0
290
     0
174
     0
 93
       13
 44
0.0
173
     0
291
     1
 45
0.0
1001
ACAD
1000
AcDbSavedByObjectVersion
1070
     0
  0
VISUALSTYLE
  5
2C
102
{ACAD_REACTORS
330
2A
102
}
330
2A
100
AcDbVisualStyle
  2
FlatWithEdges
 70
     1
 71
     2
 72
     1
 73
     1
 90
        2
 40
-0.6
 41
30.0
 62
     5
 63
     7
 74
     1
 91
        4
 64
     7
 65
   257
 75
     1
175
     1
 42
1.0
 92
        0
 66
   257
 43
1.0
 76
     1
 77
     6
 78
     2
 67
     7
 79
     5
170
     0
171
     0
290
     0
174
     0
 93
       13
 44
0.0
173
     0
291
     1
 45
0.0
1001
ACAD
1000
AcDbSavedByObjectVersion
1070
     0
  0
VISUALSTYLE
  5
2D
102
{ACAD_REACTORS
330
2A
102
}
330
2A
100
AcDbVisualStyle
  2
Gouraud
 70
     2
 71
     2
 72
     2
 73
     1
 90
        2
 40
-0.6
 41
30.0
 62
     5
 63
     7
 74
     0
 91
        4
 64
     7
 65
   257
 75
     1
175
     1
 42
1.0
 92
        0
 66
     7
 43
1.0
 76
     1
 77
     6
 78
     2
 67
     7
 79
     5
170
     0
171
     0
290
     0
174
     0
 93
       13
 44
0.0
173
     0
291
     1
 45
0.0
1001
ACAD
1000
AcDbSavedByObjectVersion
1070
     0
  0
VISUALSTYLE
  5
2E
102
{ACAD_REACTORS
330
2A
102
}
330
2A
100
AcDbVisualStyle
  2
GouraudWithEdges
 70
     3
 71
     2
 72
     2
 73
     1
 90
        2
 40
-0.6
 41
30.0
 62
     5
 63
     7
 74
     1
 91
        4
 64
     7
 65
   257
 75
     1
175
     1
 42
1.0
 92
        0
 66
   257
 43
1.0
 76
     1
 77
     6
 78
     2
 67
     7
 79
     5
170
     0
171
     0
290
     0
174
     0
 93
       13
 44
0.0
173
     0
291
     1
 45
0.0
1001
ACAD
1000
AcDbSavedByObjectVersion
1070
     0
  0
VISUALSTYLE
  5
38
102
{ACAD_REACTORS
330
2A
102
}
330
2A
100
AcDbVisualStyle
  2
Linepattern
 70
    14
 71
     2
 72
     2
 73
     0
 90
        0
 40
-0.6
 41
-30.0
 62
     5
 63
     7
 74
     1
 91
        4
 64
     7
 65
   257
 75
     7
175
     7
 42
1.0
 92
        8
 66
     7
 43
1.0
 76
     1
 77
     6
 78
     2
 67
     7
 79
     5
170
     0
171
     0
290
     0
174
     0
 93
        1
 44
0.0
173
     0
291
     1
 45
0.0
1001
ACAD
1000
AcDbSavedByObjectVersion
1070
     0
  0
VISUALSTYLE
  5
33
102
{ACAD_REACTORS
330
2A
102
}
330
2A
100
AcDbVisualStyle
  2
Realistic
 70
     8
 71
     2
 72
     2
 73
     0
 90
        0
 40
-0.6
 41
-30.0
 62
     5
 63
     7
 74
     1
 91
        0
 64
     7
 65
   257
 75
     1
175
     1
 42
1.0
 92
        8
 66
     8
 43
1.0
 76
     1
 77
     6
 78
     2
 67
     7
 79
     5
170
     0
171
     0
290
     0
174
     0
 93
       13
 44
0.0
173
     0
291
     0
 45
0.0
1001
ACAD
1000
AcDbSavedByObjectVersion
1070
     0
  0
VISUALSTYLE
  5
37
102
{ACAD_REACTORS
330
2A
102
}
330
2A
100
AcDbVisualStyle
  2
Thicken
 70
    13
 71
     2
 72
     2
 73
     0
 90
        0
 40
-0.6
 41
-30.0
 62
     5
 63
     7
 74
     1
 91
        4
 64
     7
 65
   257
 75
     1
175
     1
 42
1.0
 92
       12
 66
     7
 43
1.0
 76
     1
 77
     6
 78
     2
 67
     7
 79
     5
170
     0
171
     0
290
     0
174
     0
 93
        1
 44
0.0
173
     0
291
     1
 45
0.0
1001
ACAD
1000
AcDbSavedByObjectVersion
1070
     0
  0
DICTIONARYVAR
  5
5F5
102
{ACAD_REACTORS
330
5F4
102
}
330
5F4
100
DictionaryVariables
280
     0
  1
1:1
  0
DICTIONARYVAR
  5
5F9
102
{ACAD_REACTORS
330
5F4
102
}
330
5F4
100
DictionaryVariables
280
     0
  1
80.000000
  0
DICTIONARYVAR
  5
5F8
102
{ACAD_REACTORS
330
5F4
102
}
330
5F4
100
DictionaryVariables
280
     0
  1
5.000000
  0
ENDSEC
  0
EOF
