  0
SECTION
  2
HEADER
  9
$ACADVER
  1
AC1015
  9
$ACADMAINTVER
 70
     6
  9
$DWGCODEPAGE
  3
ANSI_1252
  9
$INSBASE
 10
0.0
 20
0.0
 30
0.0
  9
$EXTMIN
 10
0.0
 20
0.0
 30
0.0
  9
$EXTMAX
 10
1682.0
 20
2378.0
 30
0.0
  9
$LIMMIN
 10
0.0
 20
0.0
  9
$LIMMAX
 10
1682.0
 20
2378.0
  9
$ORTHOMODE
 70
     0
  9
$REGENMODE
 70
     1
  9
$FILLMODE
 70
     1
  9
$QTEXTMODE
 70
     0
  9
$MIRRTEXT
 70
     1
  9
$LTSCALE
 40
1.0
  9
$ATTMODE
 70
     1
  9
$TEXTSIZE
 40
2.5
  9
$TRACEWID
 40
1.0
  9
$TEXTSTYLE
  7
Standard
  9
$CLAYER
  8
0
  9
$CELTYPE
  6
ByLayer
  9
$CECOLOR
 62
   256
  9
$CELTSCALE
 40
1.0
  9
$DISPSILH
 70
     0
  9
$DIMSCALE
 40
1.0
  9
$DIMASZ
 40
2.5
  9
$DIMEXO
 40
0.625
  9
$DIMDLI
 40
3.75
  9
$DIMRND
 40
0.0
  9
$DIMDLE
 40
0.0
  9
$DIMEXE
 40
1.25
  9
$DIMTP
 40
0.0
  9
$DIMTM
 40
0.0
  9
$DIMTXT
 40
2.5
  9
$DIMCEN
 40
2.5
  9
$DIMTSZ
 40
0.0
  9
$DIMTOL
 70
     0
  9
$DIMLIM
 70
     0
  9
$DIMTIH
 70
     0
  9
$DIMTOH
 70
     0
  9
$DIMSE1
 70
     0
  9
$DIMSE2
 70
     0
  9
$DIMTAD
 70
     1
  9
$DIMZIN
 70
     8
  9
$DIMBLK
  1

  9
$DIMASO
 70
     1
  9
$DIMSHO
 70
     1
  9
$DIMPOST
  1

  9
$DIMAPOST
  1

  9
$DIMALT
 70
     0
  9
$DIMALTD
 70
     3
  9
$DIMALTF
 40
0.0393700787
  9
$DIMLFAC
 40
1.0
  9
$DIMTOFL
 70
     1
  9
$DIMTVP
 40
0.0
  9
$DIMTIX
 70
     0
  9
$DIMSOXD
 70
     0
  9
$DIMSAH
 70
     0
  9
$DIMBLK1
  1

  9
$DIMBLK2
  1

  9
$DIMSTYLE
  2
ISO-25
  9
$DIMCLRD
 70
     0
  9
$DIMCLRE
 70
     0
  9
$DIMCLRT
 70
     0
  9
$DIMTFAC
 40
1.0
  9
$DIMGAP
 40
0.625
  9
$DIMJUST
 70
     0
  9
$DIMSD1
 70
     0
  9
$DIMSD2
 70
     0
  9
$DIMTOLJ
 70
     0
  9
$DIMTZIN
 70
     8
  9
$DIMALTZ
 70
     0
  9
$DIMALTTZ
 70
     0
  9
$DIMUPT
 70
     0
  9
$DIMDEC
 70
     2
  9
$DIMTDEC
 70
     2
  9
$DIMALTU
 70
     2
  9
$DIMALTTD
 70
     3
  9
$DIMTXSTY
  7
Standard
  9
$DIMAUNIT
 70
     0
  9
$DIMADEC
 70
     0
  9
$DIMALTRND
 40
0.0
  9
$DIMAZIN
 70
     0
  9
$DIMDSEP
 70
    44
  9
$DIMATFIT
 70
     3
  9
$DIMFRAC
 70
     0
  9
$DIMLDRBLK
  1

  9
$DIMLUNIT
 70
     2
  9
$DIMLWD
 70
    -2
  9
$DIMLWE
 70
    -2
  9
$DIMTMOVE
 70
     0
  9
$LUNITS
 70
     2
  9
$LUPREC
 70
     4
  9
$SKETCHINC
 40
1.0
  9
$FILLETRAD
 40
10.0
  9
$AUNITS
 70
     0
  9
$AUPREC
 70
     0
  9
$MENU
  1
.
  9
$ELEVATION
 40
0.0
  9
$PELEVATION
 40
0.0
  9
$THICKNESS
 40
0.0
  9
$LIMCHECK
 70
     0
  9
$CHAMFERA
 40
10.0
  9
$CHAMFERB
 40
10.0
  9
$CHAMFERC
 40
20.0
  9
$CHAMFERD
 40
0.0
  9
$SKPOLY
 70
     0
  9
$TDCREATE
 40
2455491.572990833
  9
$TDUCREATE
 40
2455491.4896575
  9
$TDUPDATE
 40
2455491.572990845
  9
$TDUUPDATE
 40
2455491.489657511
  9
$TDINDWG
 40
0.0000000116
  9
$TDUSRTIMER
 40
0.0000000116
  9
$USRTIMER
 70
     1
  9
$ANGBASE
 50
0.0
  9
$ANGDIR
 70
     0
  9
$PDMODE
 70
     0
  9
$PDSIZE
 40
0.0
  9
$PLINEWID
 40
0.0
  9
$SPLFRAME
 70
     0
  9
$SPLINETYPE
 70
     6
  9
$SPLINESEGS
 70
     8
  9
$HANDSEED
  5
1D6
  9
$SURFTAB1
 70
     6
  9
$SURFTAB2
 70
     6
  9
$SURFTYPE
 70
     6
  9
$SURFU
 70
     6
  9
$SURFV
 70
     6
  9
$UCSBASE
  2

  9
$UCSNAME
  2

  9
$UCSORG
 10
0.0
 20
0.0
 30
0.0
  9
$UCSXDIR
 10
1.0
 20
0.0
 30
0.0
  9
$UCSYDIR
 10
0.0
 20
1.0
 30
0.0
  9
$UCSORTHOREF
  2

  9
$UCSORTHOVIEW
 70
     0
  9
$UCSORGTOP
 10
0.0
 20
0.0
 30
0.0
  9
$UCSORGBOTTOM
 10
0.0
 20
0.0
 30
0.0
  9
$UCSORGLEFT
 10
0.0
 20
0.0
 30
0.0
  9
$UCSORGRIGHT
 10
0.0
 20
0.0
 30
0.0
  9
$UCSORGFRONT
 10
0.0
 20
0.0
 30
0.0
  9
$UCSORGBACK
 10
0.0
 20
0.0
 30
0.0
  9
$PUCSBASE
  2

  9
$PUCSNAME
  2

  9
$PUCSORG
 10
0.0
 20
0.0
 30
0.0
  9
$PUCSXDIR
 10
1.0
 20
0.0
 30
0.0
  9
$PUCSYDIR
 10
0.0
 20
1.0
 30
0.0
  9
$PUCSORTHOREF
  2

  9
$PUCSORTHOVIEW
 70
     0
  9
$PUCSORGTOP
 10
0.0
 20
0.0
 30
0.0
  9
$PUCSORGBOTTOM
 10
0.0
 20
0.0
 30
0.0
  9
$PUCSORGLEFT
 10
0.0
 20
0.0
 30
0.0
  9
$PUCSORGRIGHT
 10
0.0
 20
0.0
 30
0.0
  9
$PUCSORGFRONT
 10
0.0
 20
0.0
 30
0.0
  9
$PUCSORGBACK
 10
0.0
 20
0.0
 30
0.0
  9
$USERI1
 70
     0
  9
$USERI2
 70
     0
  9
$USERI3
 70
     0
  9
$USERI4
 70
     0
  9
$USERI5
 70
     0
  9
$USERR1
 40
0.0
  9
$USERR2
 40
0.0
  9
$USERR3
 40
0.0
  9
$USERR4
 40
0.0
  9
$USERR5
 40
0.0
  9
$WORLDVIEW
 70
     1
  9
$SHADEDGE
 70
     3
  9
$SHADEDIF
 70
    70
  9
$TILEMODE
 70
     1
  9
$MAXACTVP
 70
    64
  9
$PINSBASE
 10
0.0
 20
0.0
 30
0.0
  9
$PLIMCHECK
 70
     0
  9
$PEXTMIN
 10
0.0
 20
0.0
 30
0.0
  9
$PEXTMAX
 10
1682.0
 20
2378.0
 30
0.0
  9
$PLIMMIN
 10
0.0
 20
0.0
  9
$PLIMMAX
 10
1682.0
 20
2378.0
  9
$UNITMODE
 70
     0
  9
$VISRETAIN
 70
     1
  9
$PLINEGEN
 70
     0
  9
$PSLTSCALE
 70
     1
  9
$TREEDEPTH
 70
  3020
  9
$CMLSTYLE
  2
Standard
  9
$CMLJUST
 70
     0
  9
$CMLSCALE
 40
20.0
  9
$PROXYGRAPHICS
 70
     1
  9
$MEASUREMENT
 70
     1
  9
$CELWEIGHT
370
    -1
  9
$ENDCAPS
280
     0
  9
$JOINSTYLE
280
     0
  9
$LWDISPLAY
290
     0
  9
$INSUNITS
 70
     4
  9
$HYPERLINKBASE
  1

  9
$STYLESHEET
  1

  9
$XEDIT
290
     1
  9
$CEPSNTYPE
380
     0
  9
$PSTYLEMODE
290
     1
  9
$FINGERPRINTGUID
  2
{B1EB3EBF-7052-444D-8765-F561DE62472E}
  9
$VERSIONGUID
  2
{FAEB1C32-E019-11D5-929B-00C0DF256EC4}
  9
$EXTNAMES
290
     1
  9
$PSVPSCALE
 40
0.0
  9
$OLESTARTUP
290
     0
  0
ENDSEC
  0
SECTION
  2
CLASSES
  0
CLASS
  1
ACDBDICTIONARYWDFLT
  2
AcDbDictionaryWithDefault
  3
ObjectDBX Classes
 90
        0
280
     0
281
     0
  0
CLASS
  1
VISUALSTYLE
  2
AcDbVisualStyle
  3
ObjectDBX Classes
 90
     4095
280
     0
281
     0
  0
CLASS
  1
SCALE
  2
AcDbScale
  3
ObjectDBX Classes
 90
     1153
280
     0
281
     0
  0
CLASS
  1
DICTIONARYVAR
  2
AcDbDictionaryVar
  3
ObjectDBX Classes
 90
        0
280
     0
281
     0
  0
CLASS
  1
ACDBPLACEHOLDER
  2
AcDbPlaceHolder
  3
ObjectDBX Classes
 90
        0
280
     0
281
     0
  0
CLASS
  1
LAYOUT
  2
AcDbLayout
  3
ObjectDBX Classes
 90
        0
280
     0
281
     0
  0
ENDSEC
  0
SECTION
  2
TABLES
  0
TABLE
  2
VPORT
  5
8
330
0
100
AcDbSymbolTable
 70
     1
  0
VPORT
  5
29
330
8
100
AcDbSymbolTableRecord
100
AcDbViewportTableRecord
  2
*Active
 70
     0
 10
0.0
 20
0.0
 11
1.0
 21
1.0
 12
344.1869158879
 22
148.5
 13
0.0
 23
0.0
 14
10.0
 24
10.0
 15
10.0
 25
10.0
 16
0.0
 26
0.0
 36
1.0
 17
0.0
 27
0.0
 37
0.0
 40
297.0
 41
1.9729729729
 42
50.0
 43
0.0
 44
0.0
 50
0.0
 51
0.0
 71
     0
 72
   100
 73
     1
 74
     3
 75
     0
 76
     0
 77
     0
 78
     0
281
     0
 65
     1
110
0.0
120
0.0
130
0.0
111
1.0
121
0.0
131
0.0
112
0.0
122
1.0
132
0.0
 79
     0
146
0.0
  0
ENDTAB
  0
TABLE
  2
LTYPE
  5
5
330
0
100
AcDbSymbolTable
 70
     2
  0
LTYPE
  5
14
330
5
100
AcDbSymbolTableRecord
100
AcDbLinetypeTableRecord
  2
ByBlock
 70
     0
  3

 72
    65
 73
     0
 40
0.0
  0
LTYPE
  5
15
330
5
100
AcDbSymbolTableRecord
100
AcDbLinetypeTableRecord
  2
ByLayer
 70
     0
  3

 72
    65
 73
     0
 40
0.0
  0
LTYPE
  5
16
330
5
100
AcDbSymbolTableRecord
100
AcDbLinetypeTableRecord
  2
Continuous
 70
     0
  3
Solid line
 72
    65
 73
     0
 40
0.0
  0
LTYPE
  5
60
330
5
100
AcDbSymbolTableRecord
100
AcDbLinetypeTableRecord
  2
CENTER2
 70
     0
  3
Center (.5x) ___ _ ___ _ ___ _ ___ _ ___ _ ___
 72
    65
 73
     4
 40
28.575
 49
19.05
 74
     4
 75
     0
340
0
 46
0.0
 50
0.0
 44
0.0
 45
0.0
 49
-3.175
 74
     4
 75
     0
340
0
 46
0.0
 50
0.0
 44
0.0
 45
0.0
 49
3.175
 74
     4
 75
     0
340
0
 46
0.0
 50
0.0
 44
0.0
 45
0.0
 49
-3.175
 74
     4
 75
     0
340
0
 46
0.0
 50
0.0
 44
0.0
 45
0.0
  0
ENDTAB
  0
TABLE
  2
LAYER
  5
2
330
0
100
AcDbSymbolTable
 70
    12
  0
LAYER
  5
10
330
2
100
AcDbSymbolTableRecord
100
AcDbLayerTableRecord
  2
0
 70
     0
 62
     7
  6
Continuous
370
    -3
390
F
  0
LAYER
  5
5D
330
2
100
AcDbSymbolTableRecord
100
AcDbLayerTableRecord
  2
Default
 70
     0
 62
     7
  6
Continuous
370
    -3
390
F
  0
LAYER
  5
87
330
2
100
AcDbSymbolTableRecord
100
AcDbLayerTableRecord
  2
$DDT_AUDIT_GENERATED_(87)
 70
     0
 62
     7
  6
Continuous
370
    -3
390
F
  0
LAYER
  5
90
330
2
100
AcDbSymbolTableRecord
100
AcDbLayerTableRecord
  2
$DDT_AUDIT_GENERATED_(90)
 70
     0
 62
     7
  6
Continuous
370
    -3
390
F
  0
LAYER
  5
9B
330
2
100
AcDbSymbolTableRecord
100
AcDbLayerTableRecord
  2
$DDT_AUDIT_GENERATED_(9B)
 70
     0
 62
     7
  6
Continuous
370
    -3
390
F
  0
LAYER
  5
AB
330
2
100
AcDbSymbolTableRecord
100
AcDbLayerTableRecord
  2
$DDT_AUDIT_GENERATED_(AB)
 70
     0
 62
     7
  6
Continuous
370
    -3
390
F
  0
LAYER
  5
C2
330
2
100
AcDbSymbolTableRecord
100
AcDbLayerTableRecord
  2
$DDT_AUDIT_GENERATED_(C2)
 70
     0
 62
     7
  6
Continuous
370
    -3
390
F
  0
LAYER
  5
DA
330
2
100
AcDbSymbolTableRecord
100
AcDbLayerTableRecord
  2
08919XX1_ELEMENT
 70
     0
 62
     7
  6
Continuous
370
    -3
390
F
  0
LAYER
  5
E9
330
2
100
AcDbSymbolTableRecord
100
AcDbLayerTableRecord
  2
$DDT_AUDIT_GENERATED_(E9)
 70
     0
 62
     7
  6
Continuous
370
    -3
390
F
  0
LAYER
  5
156
330
2
100
AcDbSymbolTableRecord
100
AcDbLayerTableRecord
  2
$DDT_AUDIT_GENERATED_(156)
 70
     0
 62
     7
  6
Continuous
370
    -3
390
F
  0
LAYER
  5
194
330
2
100
AcDbSymbolTableRecord
100
AcDbLayerTableRecord
  2
$DDT_AUDIT_GENERATED_(194)
 70
     0
 62
     7
  6
Continuous
370
    -3
390
F
  0
LAYER
  5
1BA
330
2
100
AcDbSymbolTableRecord
100
AcDbLayerTableRecord
  2
$DDT_AUDIT_GENERATED_(1BA)
 70
     0
 62
     7
  6
Continuous
370
    -3
390
F
  0
ENDTAB
  0
TABLE
  2
STYLE
  5
3
330
0
100
AcDbSymbolTable
 70
     2
  0
STYLE
  5
11
330
3
100
AcDbSymbolTableRecord
100
AcDbTextStyleTableRecord
  2
Standard
 70
     0
 40
0.0
 41
1.0
 50
0.0
 71
     0
 42
2.5
  3
txt
  4

  0
STYLE
  5
1C5
330
3
100
AcDbSymbolTableRecord
100
AcDbTextStyleTableRecord
  2
SEACAD_seiso_ttf
 70
     0
 40
0.0
 41
1.0
 50
0.0
 71
     0
 42
0.2
  3
seiso.ttf
  4

  0
ENDTAB
  0
TABLE
  2
VIEW
  5
6
330
0
100
AcDbSymbolTable
 70
     0
  0
ENDTAB
  0
TABLE
  2
UCS
  5
7
330
0
100
AcDbSymbolTable
 70
     0
  0
ENDTAB
  0
TABLE
  2
APPID
  5
9
330
0
100
AcDbSymbolTable
 70
     1
  0
APPID
  5
12
330
9
100
AcDbSymbolTableRecord
100
AcDbRegAppTableRecord
  2
ACAD
 70
     0
  0
ENDTAB
  0
TABLE
  2
DIMSTYLE
  5
A
330
0
100
AcDbSymbolTable
 70
     1
100
AcDbDimStyleTable
  0
DIMSTYLE
105
27
330
A
100
AcDbSymbolTableRecord
100
AcDbDimStyleTableRecord
  2
ISO-25
 70
     0
 41
2.5
 42
0.625
 43
3.75
 44
1.25
 73
     0
 74
     0
 77
     1
 78
     8
140
2.5
141
2.5
143
0.0393700787
147
0.625
171
     3
172
     1
271
     2
272
     2
274
     3
278
    44
283
     0
284
     8
340
11
  0
ENDTAB
  0
TABLE
  2
BLOCK_RECORD
  5
1
330
0
100
AcDbSymbolTable
 70
     9
  0
BLOCK_RECORD
  5
1F
330
1
100
AcDbSymbolTableRecord
100
AcDbBlockTableRecord
  2
*Model_Space
340
22
  0
BLOCK_RECORD
  5
1B
330
1
100
AcDbSymbolTableRecord
100
AcDbBlockTableRecord
  2
*Paper_Space
340
1E
  0
BLOCK_RECORD
  5
5E
330
1
100
AcDbSymbolTableRecord
100
AcDbBlockTableRecord
  2
SEANNOT_GROUP
340
0
102
{BLKREFS
331
5F
102
}
  0
BLOCK_RECORD
  5
65
330
1
100
AcDbSymbolTableRecord
100
AcDbBlockTableRecord
  2
SEANNOT_GROUP1
340
0
102
{BLKREFS
331
66
102
}
  0
BLOCK_RECORD
  5
6B
330
1
100
AcDbSymbolTableRecord
100
AcDbBlockTableRecord
  2
SEANNOT_GROUP2
340
0
102
{BLKREFS
331
6C
102
}
  0
BLOCK_RECORD
  5
71
330
1
100
AcDbSymbolTableRecord
100
AcDbBlockTableRecord
  2
SEANNOT_GROUP3
340
0
102
{BLKREFS
331
72
102
}
  0
BLOCK_RECORD
  5
7B
330
1
100
AcDbSymbolTableRecord
100
AcDbBlockTableRecord
  2
SEANNOT_GROUP4
340
0
102
{BLKREFS
331
7C
102
}
  0
BLOCK_RECORD
  5
85
330
1
100
AcDbSymbolTableRecord
100
AcDbBlockTableRecord
  2
SE
340
0
102
{BLKREFS
331
86
102
}
  0
BLOCK_RECORD
  5
FA
330
1
100
AcDbSymbolTableRecord
100
AcDbBlockTableRecord
  2
SE1
340
0
102
{BLKREFS
331
FB
102
}
  0
BLOCK_RECORD
  5
145
330
1
100
AcDbSymbolTableRecord
100
AcDbBlockTableRecord
  2
SE2
340
0
102
{BLKREFS
331
146
102
}
  0
ENDTAB
  0
ENDSEC
  0
SECTION
  2
BLOCKS
  0
BLOCK
  5
20
330
1F
100
AcDbEntity
  8
0
100
AcDbBlockBegin
  2
*Model_Space
 70
     0
 10
0.0
 20
0.0
 30
0.0
  3
*Model_Space
  1

  0
ENDBLK
  5
21
330
1F
100
AcDbEntity
  8
0
100
AcDbBlockEnd
  0
BLOCK
  5
1C
330
1B
100
AcDbEntity
 67
     1
  8
0
100
AcDbBlockBegin
  2
*Paper_Space
 70
     0
 10
0.0
 20
0.0
 30
0.0
  3
*Paper_Space
  1

  0
ENDBLK
  5
1D
330
1B
100
AcDbEntity
 67
     1
  8
0
100
AcDbBlockEnd
  0
BLOCK
  5
63
330
5E
100
AcDbEntity
  8
0
100
AcDbBlockBegin
  2
SEANNOT_GROUP
 70
     0
 10
0.0
 20
0.0
 30
0.0
  3
SEANNOT_GROUP
  1

  0
LINE
  5
61
330
5E
100
AcDbEntity
  8
Default
  6
CENTER2
 62
     7
100
AcDbLine
 10
328.8100820604
 20
1267.1837664927
 30
0.0
 11
288.8100829545
 21
1267.1837664927
 31
0.0
  0
LINE
  5
62
330
5E
100
AcDbEntity
  8
Default
  6
CENTER2
 62
     7
100
AcDbLine
 10
308.8100825074
 20
1287.1837660457
 30
0.0
 11
308.8100825074
 21
1247.1837669397
 31
0.0
  0
ENDBLK
  5
64
330
5E
100
AcDbEntity
  8
0
100
AcDbBlockEnd
  0
BLOCK
  5
69
330
65
100
AcDbEntity
  8
0
100
AcDbBlockBegin
  2
SEANNOT_GROUP1
 70
     0
 10
0.0
 20
0.0
 30
0.0
  3
SEANNOT_GROUP1
  1

  0
LINE
  5
67
330
65
100
AcDbEntity
  8
Default
  6
CENTER2
 62
     7
100
AcDbLine
 10
328.8100820604
 20
367.1837664927
 30
0.0
 11
288.8100829545
 21
367.1837664927
 31
0.0
  0
LINE
  5
68
330
65
100
AcDbEntity
  8
Default
  6
CENTER2
 62
     7
100
AcDbLine
 10
308.8100825074
 20
387.1837660457
 30
0.0
 11
308.8100825074
 21
347.1837669397
 31
0.0
  0
ENDBLK
  5
6A
330
65
100
AcDbEntity
  8
0
100
AcDbBlockEnd
  0
BLOCK
  5
6F
330
6B
100
AcDbEntity
  8
0
100
AcDbBlockBegin
  2
SEANNOT_GROUP2
 70
     0
 10
0.0
 20
0.0
 30
0.0
  3
SEANNOT_GROUP2
  1

  0
LINE
  5
6D
330
6B
100
AcDbEntity
  8
Default
  6
CENTER2
 62
     7
100
AcDbLine
 10
141.8148188968
 20
189.35
 30
0.0
 11
101.8148197908
 21
189.35
 31
0.0
  0
LINE
  5
6E
330
6B
100
AcDbEntity
  8
Default
  6
CENTER2
 62
     7
100
AcDbLine
 10
121.8148193438
 20
209.349999553
 30
0.0
 11
121.8148193438
 21
169.350000447
 31
0.0
  0
ENDBLK
  5
70
330
6B
100
AcDbEntity
  8
0
100
AcDbBlockEnd
  0
BLOCK
  5
79
330
71
100
AcDbEntity
  8
0
100
AcDbBlockBegin
  2
SEANNOT_GROUP3
 70
     0
 10
0.0
 20
0.0
 30
0.0
  3
SEANNOT_GROUP3
  1

  0
LINE
  5
73
330
71
100
AcDbEntity
  8
Default
  6
CENTER2
 62
     7
100
AcDbLine
 10
142.8148188968
 20
369.3984695972
 30
0.0
 11
102.8148197908
 21
369.3984695972
 31
0.0
  0
LINE
  5
74
330
71
100
AcDbEntity
  8
Default
  6
CENTER2
 62
     7
100
AcDbLine
 10
122.8148193438
 20
389.3984691502
 30
0.0
 11
122.8148193438
 21
349.3984700443
 31
0.0
  0
LINE
  5
75
330
71
100
AcDbEntity
  8
Default
  6
CENTER2
 62
     7
100
AcDbLine
 10
147.814818785
 20
369.3984695972
 30
0.0
 11
130.8148193438
 21
369.3984695972
 31
0.0
  0
LINE
  5
76
330
71
100
AcDbEntity
  8
Default
  6
CENTER2
 62
     7
100
AcDbLine
 10
122.8148193438
 20
394.3984690384
 30
0.0
 11
122.8148193438
 21
377.3984695972
 31
0.0
  0
LINE
  5
77
330
71
100
AcDbEntity
  8
Default
  6
CENTER2
 62
     7
100
AcDbLine
 10
97.8148199026
 20
369.3984695972
 30
0.0
 11
114.8148193438
 21
369.3984695972
 31
0.0
  0
LINE
  5
78
330
71
100
AcDbEntity
  8
Default
  6
CENTER2
 62
     7
100
AcDbLine
 10
122.8148193438
 20
344.398470156
 30
0.0
 11
122.8148193438
 21
361.3984695972
 31
0.0
  0
ENDBLK
  5
7A
330
71
100
AcDbEntity
  8
0
100
AcDbBlockEnd
  0
BLOCK
  5
83
330
7B
100
AcDbEntity
  8
0
100
AcDbBlockBegin
  2
SEANNOT_GROUP4
 70
     0
 10
0.0
 20
0.0
 30
0.0
  3
SEANNOT_GROUP4
  1

  0
LINE
  5
7D
330
7B
100
AcDbEntity
  8
Default
  6
CENTER2
 62
     7
100
AcDbLine
 10
142.8148188968
 20
1269.3984695972
 30
0.0
 11
102.8148197908
 21
1269.3984695972
 31
0.0
  0
LINE
  5
7E
330
7B
100
AcDbEntity
  8
Default
  6
CENTER2
 62
     7
100
AcDbLine
 10
122.8148193438
 20
1289.3984691502
 30
0.0
 11
122.8148193438
 21
1249.3984700443
 31
0.0
  0
LINE
  5
7F
330
7B
100
AcDbEntity
  8
Default
  6
CENTER2
 62
     7
100
AcDbLine
 10
147.814818785
 20
1269.3984695972
 30
0.0
 11
130.8148193438
 21
1269.3984695972
 31
0.0
  0
LINE
  5
80
330
7B
100
AcDbEntity
  8
Default
  6
CENTER2
 62
     7
100
AcDbLine
 10
122.8148193438
 20
1294.3984690384
 30
0.0
 11
122.8148193438
 21
1277.3984695972
 31
0.0
  0
LINE
  5
81
330
7B
100
AcDbEntity
  8
Default
  6
CENTER2
 62
     7
100
AcDbLine
 10
97.8148199026
 20
1269.3984695972
 30
0.0
 11
114.8148193438
 21
1269.3984695972
 31
0.0
  0
LINE
  5
82
330
7B
100
AcDbEntity
  8
Default
  6
CENTER2
 62
     7
100
AcDbLine
 10
122.8148193438
 20
1244.398470156
 30
0.0
 11
122.8148193438
 21
1261.3984695972
 31
0.0
  0
ENDBLK
  5
84
330
7B
100
AcDbEntity
  8
0
100
AcDbBlockEnd
  0
BLOCK
  5
F8
330
85
100
AcDbEntity
  8
0
100
AcDbBlockBegin
  2
SE
 70
     0
 10
0.0
 20
0.0
 30
0.0
  3
SE
  1

  0
LINE
  5
88
330
85
100
AcDbEntity
  8
$DDT_AUDIT_GENERATED_(87)
  6
Continuous
 62
     7
100
AcDbLine
 10
136.8148193438
 20
1243.1837664927
 30
0.0
 11
106.8148193438
 21
1243.1837664927
 31
0.0
  0
LINE
  5
89
330
85
100
AcDbEntity
  8
$DDT_AUDIT_GENERATED_(87)
  6
Continuous
 62
     7
100
AcDbLine
 10
106.8148193438
 20
1291.1837664927
 30
0.0
 11
136.8148193438
 21
1291.1837664927
 31
0.0
  0
LINE
  5
8A
330
85
100
AcDbEntity
  8
$DDT_AUDIT_GENERATED_(87)
  6
Continuous
 62
     7
100
AcDbLine
 10
137.3148193438
 20
1243.6837664927
 30
0.0
 11
137.3148193438
 21
1290.6837664927
 31
0.0
  0
LINE
  5
8B
330
85
100
AcDbEntity
  8
$DDT_AUDIT_GENERATED_(87)
  6
Continuous
 62
     7
100
AcDbLine
 10
106.3148193438
 20
1290.6837664927
 30
0.0
 11
106.3148193438
 21
1243.6837664927
 31
0.0
  0
ARC
  5
8C
330
85
100
AcDbEntity
  8
$DDT_AUDIT_GENERATED_(87)
  6
Continuous
 62
     7
100
AcDbCircle
 10
136.8148193438
 20
1243.6837664927
 30
0.0
 40
0.5000000000000004
100
AcDbArc
 50
270.0
 51
0.0
  0
ARC
  5
8D
330
85
100
AcDbEntity
  8
$DDT_AUDIT_GENERATED_(87)
  6
Continuous
 62
     7
100
AcDbCircle
 10
106.8148193438
 20
1243.6837664927
 30
0.0
 40
0.5000000000000004
100
AcDbArc
 50
180.0
 51
270.0
  0
ARC
  5
8E
330
85
100
AcDbEntity
  8
$DDT_AUDIT_GENERATED_(87)
  6
Continuous
 62
     7
100
AcDbCircle
 10
136.8148193438
 20
1290.6837664927
 30
0.0
 40
0.5000000000000004
100
AcDbArc
 50
0.0
 51
90.0
  0
ARC
  5
8F
330
85
100
AcDbEntity
  8
$DDT_AUDIT_GENERATED_(87)
  6
Continuous
 62
     7
100
AcDbCircle
 10
106.8148193438
 20
1290.6837664927
 30
0.0
 40
0.5000000000000004
100
AcDbArc
 50
90.0
 51
180.0
  0
LINE
  5
91
330
85
100
AcDbEntity
  8
$DDT_AUDIT_GENERATED_(90)
  6
Continuous
 62
     7
100
AcDbLine
 10
109.4648193438
 20
1317.2087664927
 30
0.0
 11
134.1648193438
 21
1317.2087664927
 31
0.0
  0
LINE
  5
92
330
85
100
AcDbEntity
  8
$DDT_AUDIT_GENERATED_(90)
  6
Continuous
 62
     7
100
AcDbLine
 10
109.4648193438
 20
317.2087664927
 30
0.0
 11
134.1648193438
 21
317.2087664927
 31
0.0
  0
LINE
  5
93
330
85
100
AcDbEntity
  8
$DDT_AUDIT_GENERATED_(90)
  6
Continuous
 62
     7
100
AcDbLine
 10
134.1648193438
 20
317.2087664927
 30
0.0
 11
134.1648193438
 21
343.1837664927
 31
0.0
  0
LINE
  5
94
330
85
100
AcDbEntity
  8
$DDT_AUDIT_GENERATED_(90)
  6
Continuous
 62
     7
100
AcDbLine
 10
134.1648193438
 20
391.1837664927
 30
0.0
 11
134.1648193438
 21
950.1539102928
 31
0.0
  0
LINE
  5
95
330
85
100
AcDbEntity
  8
$DDT_AUDIT_GENERATED_(90)
  6
Continuous
 62
     7
100
AcDbLine
 10
134.1648193438
 20
984.2635331063
 30
0.0
 11
134.1648193438
 21
1243.1837664927
 31
0.0
  0
LINE
  5
96
330
85
100
AcDbEntity
  8
$DDT_AUDIT_GENERATED_(90)
  6
Continuous
 62
     7
100
AcDbLine
 10
134.1648193438
 20
1291.1837664927
 30
0.0
 11
134.1648193438
 21
1317.2087664927
 31
0.0
  0
LINE
  5
97
330
85
100
AcDbEntity
  8
$DDT_AUDIT_GENERATED_(90)
  6
Continuous
 62
     7
100
AcDbLine
 10
109.4648193438
 20
1317.2087664927
 30
0.0
 11
109.4648193438
 21
1291.1837664927
 31
0.0
  0
LINE
  5
98
330
85
100
AcDbEntity
  8
$DDT_AUDIT_GENERATED_(90)
  6
Continuous
 62
     7
100
AcDbLine
 10
109.4648193438
 20
1243.1837664927
 30
0.0
 11
109.4648193438
 21
984.2636226926
 31
0.0
  0
LINE
  5
99
330
85
100
AcDbEntity
  8
$DDT_AUDIT_GENERATED_(90)
  6
Continuous
 62
     7
100
AcDbLine
 10
109.4648193438
 20
950.1539998791
 30
0.0
 11
109.4648193438
 21
391.1837664927
 31
0.0
  0
LINE
  5
9A
330
85
100
AcDbEntity
  8
$DDT_AUDIT_GENERATED_(90)
  6
Continuous
 62
     7
100
AcDbLine
 10
109.4648193438
 20
343.1837664927
 30
0.0
 11
109.4648193438
 21
317.2087664927
 31
0.0
  0
LINE
  5
9C
330
85
100
AcDbEntity
  8
$DDT_AUDIT_GENERATED_(9B)
  6
Continuous
 62
     7
100
AcDbLine
 10
137.8148193438
 20
985.2087664927
 30
0.0
 11
137.8148193438
 21
949.2087664927
 31
0.0
  0
LINE
  5
9D
330
85
100
AcDbEntity
  8
$DDT_AUDIT_GENERATED_(9B)
  6
Continuous
 62
     7
100
AcDbLine
 10
105.8148193438
 20
985.2087664927
 30
0.0
 11
105.8148193438
 21
949.2087664927
 31
0.0
  0
SPLINE
  5
9E
330
85
100
AcDbEntity
  8
$DDT_AUDIT_GENERATED_(9B)
  6
Continuous
 62
     7
100
AcDbSpline
210
0.0
220
0.0
230
1.0
 70
     8
 71
     3
 72
    28
 73
    24
 74
     0
 42
0.000000000160218
 43
0.0000000001
 40
0.5004827516810774
 40
0.5004827516810774
 40
0.5004827516810774
 40
0.5004827516810774
 40
0.5625000000000001
 40
0.5625000000000001
 40
0.625
 40
0.625
 40
0.6875
 40
0.6875
 40
0.71875
 40
0.71875
 40
0.75
 40
0.75
 40
0.78125
 40
0.78125
 40
0.8125
 40
0.8125
 40
0.8749999999999999
 40
0.8749999999999999
 40
0.9374999999999999
 40
0.9374999999999999
 40
0.9687499999999999
 40
0.9687499999999999
 40
1.0
 40
1.0
 40
1.0
 40
1.0
 10
107.964822293211
 20
985.2087633805588
 30
0.0
 10
107.9650658013746
 20
985.2085044232425
 30
0.0
 10
108.3697154007331
 20
984.8925909984366
 30
0.0
 10
109.8083537051622
 20
983.824976683658
 30
0.0
 10
110.8381198308623
 20
983.0763937275142
 30
0.0
 10
113.3028771634726
 20
981.4827575795325
 30
0.0
 10
114.7378948239892
 20
980.6282703812349
 30
0.0
 10
117.1868580600787
 20
979.580153101824
 30
0.0
 10
118.0642354205554
 20
979.2696904281033
 30
0.0
 10
119.8819869866509
 20
978.8335179881583
 30
0.0
 10
120.8480896148443
 20
978.7069626072088
 30
0.0
 10
122.749199048445
 20
978.7042879228635
 30
0.0
 10
123.7104390961617
 20
978.8271343706004
 30
0.0
 10
125.533811110216
 20
979.2596584787478
 30
0.0
 10
126.3958356778281
 20
979.5621117456373
 30
0.0
 10
128.8724035912187
 20
980.616029768688
 30
0.0
 10
130.2932800247871
 20
981.462326469497
 30
0.0
 10
132.7747875635652
 20
983.0643831590874
 30
0.0
 10
133.79198595476
 20
983.8036318347996
 30
0.0
 10
134.8883885849098
 20
984.6166841345733
 30
0.0
 10
135.1723445409246
 20
984.8321894600966
 30
0.0
 10
135.5627083383715
 20
985.1298716344878
 30
0.0
 10
135.6648193437902
 20
985.2087664927011
 30
0.0
 10
135.6648193437902
 20
985.2087664927011
 30
0.0
  0
SPLINE
  5
9F
330
85
100
AcDbEntity
  8
$DDT_AUDIT_GENERATED_(9B)
  6
Continuous
 62
     7
100
AcDbSpline
210
0.0
220
0.0
230
1.0
 70
     8
 71
     3
 72
    18
 73
    14
 74
     0
 42
0.0000000001605047
 43
0.0000000001
 40
0.0
 40
0.0
 40
0.0
 40
0.0
 40
0.03125
 40
0.03125
 40
0.0625
 40
0.0625
 40
0.125
 40
0.125
 40
0.1875000000000001
 40
0.1875000000000001
 40
0.2500000000000001
 40
0.2500000000000001
 40
0.2502055573218053
 40
0.2502055573218053
 40
0.2502055573218053
 40
0.2502055573218053
 10
121.8148193437902
 20
955.7119190987413
 30
0.0
 10
120.8475795164234
 20
955.7119190987413
 30
0.0
 10
119.913492992949
 20
955.5891435416894
 30
0.0
 10
118.098806666641
 20
955.1584824359658
 30
0.0
 10
117.2200580126688
 20
954.849684181841
 30
0.0
 10
114.7782995980079
 20
953.8102424829693
 30
0.0
 10
113.3298610966747
 20
952.9508826809506
 30
0.0
 10
110.8667503216598
 20
951.3609606620059
 30
0.0
 10
109.8365312271419
 20
950.6130500503085
 30
0.0
 10
108.3789329575678
 20
949.5321870437709
 30
0.0
 10
107.9673784007425
 20
949.2107355441387
 30
0.0
 10
107.9648233648739
 20
949.2087695867021
 30
0.0
 10
107.964819379552
 20
949.2087665722436
 30
0.0
 10
107.9648197816361
 20
949.208766984624
 30
0.0
  0
SPLINE
  5
A0
330
85
100
AcDbEntity
  8
$DDT_AUDIT_GENERATED_(9B)
  6
Continuous
 62
     7
100
AcDbSpline
210
0.0
220
0.0
230
1.0
 70
     8
 71
     3
 72
    14
 73
    10
 74
     0
 42
0.0000000001599297
 43
0.0000000001
 40
0.750205821561986
 40
0.750205821561986
 40
0.750205821561986
 40
0.750205821561986
 40
0.8125
 40
0.8125
 40
0.875
 40
0.875
 40
0.9375
 40
0.9375
 40
1.0
 40
1.0
 40
1.0
 40
1.0
 10
135.6648188901955
 20
949.2087669985196
 30
0.0
 10
135.6646618119103
 20
949.2089193930424
 30
0.0
 10
135.2622171057381
 20
949.5233328396273
 30
0.0
 10
133.8123257419444
 20
950.5991109179195
 30
0.0
 10
132.7792507915034
 20
951.3497449690374
 30
0.0
 10
130.310628147712
 20
952.9445254000519
 30
0.0
 10
128.8644769369206
 20
953.8035534225653
 30
0.0
 10
125.6033352004163
 20
955.19398735735
 30
0.0
 10
123.7492989985239
 20
955.7119190987413
 30
0.0
 10
121.8148193437902
 20
955.7119190987413
 30
0.0
  0
LINE
  5
A1
330
85
100
AcDbEntity
  8
$DDT_AUDIT_GENERATED_(9B)
  6
Continuous
 62
     7
100
AcDbLine
 10
137.8148193438
 20
954.2087664927
 30
0.0
 11
138.4648193438
 21
954.2087664927
 31
0.0
  0
LINE
  5
A2
330
85
100
AcDbEntity
  8
$DDT_AUDIT_GENERATED_(9B)
  6
Continuous
 62
     7
100
AcDbLine
 10
138.4648193438
 20
980.2087664927
 30
0.0
 11
137.8148193438
 21
980.2087664927
 31
0.0
  0
LINE
  5
A3
330
85
100
AcDbEntity
  8
$DDT_AUDIT_GENERATED_(9B)
  6
Continuous
 62
     7
100
AcDbLine
 10
135.6376321325
 20
949.2087664927
 30
0.0
 11
137.8148193438
 21
949.2087664927
 31
0.0
  0
LINE
  5
A4
330
85
100
AcDbEntity
  8
$DDT_AUDIT_GENERATED_(9B)
  6
Continuous
 62
     7
100
AcDbLine
 10
105.8148193438
 20
949.2087664927
 30
0.0
 11
107.9968260983
 21
949.2087664927
 31
0.0
  0
LINE
  5
A5
330
85
100
AcDbEntity
  8
$DDT_AUDIT_GENERATED_(9B)
  6
Continuous
 62
     7
100
AcDbLine
 10
107.9750238819
 20
985.2087664927
 30
0.0
 11
105.8148193438
 21
985.2087664927
 31
0.0
  0
LINE
  5
A6
330
85
100
AcDbEntity
  8
$DDT_AUDIT_GENERATED_(9B)
  6
Continuous
 62
     7
100
AcDbLine
 10
137.8148193438
 20
985.2087664927
 30
0.0
 11
135.6648193438
 21
985.2087664927
 31
0.0
  0
LINE
  5
A7
330
85
100
AcDbEntity
  8
$DDT_AUDIT_GENERATED_(9B)
  6
Continuous
 62
     7
100
AcDbLine
 10
104.5648193438
 20
957.7087664927
 30
0.0
 11
105.3148193438
 21
957.7087664927
 31
0.0
  0
LINE
  5
A8
330
85
100
AcDbEntity
  8
$DDT_AUDIT_GENERATED_(9B)
  6
Continuous
 62
     7
100
AcDbLine
 10
105.3148193438
 20
976.7087664927
 30
0.0
 11
104.5648193438
 21
976.7087664927
 31
0.0
  0
ARC
  5
A9
330
85
100
AcDbEntity
  8
$DDT_AUDIT_GENERATED_(9B)
  6
Continuous
 62
     7
100
AcDbCircle
 10
105.3148193438
 20
957.2087664927
 30
0.0
 40
0.5000000000000004
100
AcDbArc
 50
0.0
 51
90.0
  0
ARC
  5
AA
330
85
100
AcDbEntity
  8
$DDT_AUDIT_GENERATED_(9B)
  6
Continuous
 62
     7
100
AcDbCircle
 10
105.3148193438
 20
977.2087664927
 30
0.0
 40
0.5000000000000004
100
AcDbArc
 50
270.0
 51
0.0
  0
LINE
  5
AC
330
85
100
AcDbEntity
  8
$DDT_AUDIT_GENERATED_(AB)
  6
Continuous
 62
     7
100
AcDbLine
 10
138.4648193438
 20
985.2087664927
 30
0.0
 11
138.4648193438
 21
949.2087664927
 31
0.0
  0
LINE
  5
AD
330
85
100
AcDbEntity
  8
$DDT_AUDIT_GENERATED_(AB)
  6
Continuous
 62
     7
100
AcDbLine
 10
186.3571181486
 20
984.2087664927
 30
0.0
 11
160.2148193438
 21
984.2087664927
 31
0.0
  0
LINE
  5
AE
330
85
100
AcDbEntity
  8
$DDT_AUDIT_GENERATED_(AB)
  6
Continuous
 62
     7
100
AcDbLine
 10
186.6100825074
 20
950.2087664927
 30
0.0
 11
160.2148193438
 21
950.2087664927
 31
0.0
  0
LINE
  5
AF
330
85
100
AcDbEntity
  8
$DDT_AUDIT_GENERATED_(AB)
  6
Continuous
 62
     7
100
AcDbLine
 10
147.1329619884
 20
955.7087664927
 30
0.0
 11
158.7235403848
 21
955.7087664927
 31
0.0
  0
LINE
  5
B0
330
85
100
AcDbEntity
  8
$DDT_AUDIT_GENERATED_(AB)
  6
Continuous
 62
     7
100
AcDbLine
 10
158.7148193438
 20
978.7087664927
 30
0.0
 11
147.1329619884
 21
978.7087664927
 31
0.0
  0
ARC
  5
B1
330
85
100
AcDbEntity
  8
$DDT_AUDIT_GENERATED_(AB)
  6
Continuous
 62
     7
100
AcDbCircle
 10
-353.7110756121
 20
967.2087664927
 30
0.0
 40
499.9999999999999
100
AcDbArc
 50
1.4296837746
 51
2.0077705264
  0
ARC
  5
B2
330
85
100
AcDbEntity
  8
$DDT_AUDIT_GENERATED_(AB)
  6
Continuous
 62
     7
100
AcDbCircle
 10
-353.7110756121
 20
967.2087664927
 30
0.0
 40
500.0
100
AcDbArc
 50
357.9922294736
 51
358.5703162254
  0
LINE
  5
B3
330
85
100
AcDbEntity
  8
$DDT_AUDIT_GENERATED_(AB)
  6
Continuous
 62
     7
100
AcDbLine
 10
138.4648193438
 20
949.2087664927
 30
0.0
 11
145.4822737025
 21
949.2087664927
 31
0.0
  0
LINE
  5
B4
330
85
100
AcDbEntity
  8
$DDT_AUDIT_GENERATED_(AB)
  6
Continuous
 62
     7
100
AcDbLine
 10
145.4822737025
 20
985.2087664927
 30
0.0
 11
138.4648193438
 21
985.2087664927
 31
0.0
  0
LINE
  5
B5
330
85
100
AcDbEntity
  8
$DDT_AUDIT_GENERATED_(AB)
  6
Continuous
 62
     7
100
AcDbLine
 10
159.7148193438
 20
954.7123053081
 30
0.0
 11
159.7148193438
 21
950.7087664927
 31
0.0
  0
LINE
  5
B6
330
85
100
AcDbEntity
  8
$DDT_AUDIT_GENERATED_(AB)
  6
Continuous
 62
     7
100
AcDbLine
 10
159.7148193438
 20
983.7087664927
 30
0.0
 11
159.7148193438
 21
979.7087664927
 31
0.0
  0
ARC
  5
B7
330
85
100
AcDbEntity
  8
$DDT_AUDIT_GENERATED_(AB)
  6
Continuous
 62
     7
100
AcDbCircle
 10
160.2148193438
 20
950.7087664927
 30
0.0
 40
0.5000000000000004
100
AcDbArc
 50
180.0
 51
270.0
  0
ARC
  5
B8
330
85
100
AcDbEntity
  8
$DDT_AUDIT_GENERATED_(AB)
  6
Continuous
 62
     7
100
AcDbCircle
 10
186.6100825074
 20
950.7087664927
 30
0.0
 40
0.5000000000000004
100
AcDbArc
 50
270.0
 51
0.4280045362
  0
LINE
  5
B9
330
85
100
AcDbEntity
  8
$DDT_AUDIT_GENERATED_(AB)
  6
Continuous
 62
     7
100
AcDbLine
 10
187.1100685381
 20
950.7124999869
 30
0.0
 11
186.8571026282
 21
983.7126966929
 31
0.0
  0
ARC
  5
BA
330
85
100
AcDbEntity
  8
$DDT_AUDIT_GENERATED_(AB)
  6
Continuous
 62
     7
100
AcDbCircle
 10
186.3571181486
 20
983.7087664927
 30
0.0
 40
0.5000000000000034
100
AcDbArc
 50
0.4506438542
 51
90.0
  0
ARC
  5
BB
330
85
100
AcDbEntity
  8
$DDT_AUDIT_GENERATED_(AB)
  6
Continuous
 62
     7
100
AcDbCircle
 10
160.2148193438
 20
983.7087664927
 30
0.0
 40
0.5000000000000004
100
AcDbArc
 50
90.0
 51
180.0
  0
ARC
  5
BC
330
85
100
AcDbEntity
  8
$DDT_AUDIT_GENERATED_(AB)
  6
Continuous
 62
     7
100
AcDbCircle
 10
145.4822737025
 20
949.7087664927
 30
0.0
 40
0.5000000000000004
100
AcDbArc
 50
270.0
 51
357.9922294737
  0
ARC
  5
BD
330
85
100
AcDbEntity
  8
$DDT_AUDIT_GENERATED_(AB)
  6
Continuous
 62
     7
100
AcDbCircle
 10
145.4822737025
 20
984.7087664927
 30
0.0
 40
0.5000000000000286
100
AcDbArc
 50
2.0077705263
 51
90.0
  0
ARC
  5
BE
330
85
100
AcDbEntity
  8
$DDT_AUDIT_GENERATED_(AB)
  6
Continuous
 62
     7
100
AcDbCircle
 10
158.719011709
 20
954.7155372557
 30
0.0
 40
0.9922649140113436
100
AcDbArc
 50
359.7183108953
 51
89.6194582197
  0
ARC
  5
BF
330
85
100
AcDbEntity
  8
$DDT_AUDIT_GENERATED_(AB)
  6
Continuous
 62
     7
100
AcDbCircle
 10
158.7286723649
 20
979.6944500267
 30
0.0
 40
0.9809205358334266
100
AcDbArc
 50
269.0924039124
 51
0.649082344
  0
ARC
  5
C0
330
85
100
AcDbEntity
  8
$DDT_AUDIT_GENERATED_(AB)
  6
Continuous
 62
     7
100
AcDbCircle
 10
147.1329619884
 20
954.7087664927
 30
0.0
 40
1.000000000000043
100
AcDbArc
 50
90.0
 51
178.5703162255
  0
ARC
  5
C1
330
85
100
AcDbEntity
  8
$DDT_AUDIT_GENERATED_(AB)
  6
Continuous
 62
     7
100
AcDbCircle
 10
147.1329619884
 20
979.7087664927
 30
0.0
 40
1.000000000000001
100
AcDbArc
 50
181.4296837745
 51
270.0
  0
LINE
  5
C3
330
85
100
AcDbEntity
  8
$DDT_AUDIT_GENERATED_(C2)
  6
Continuous
 62
     7
100
AcDbLine
 10
104.5648193438
 20
949.7087664927
 30
0.0
 11
104.5648193438
 21
984.7087664927
 31
0.0
  0
LINE
  5
C4
330
85
100
AcDbEntity
  8
$DDT_AUDIT_GENERATED_(C2)
  6
Continuous
 62
     7
100
AcDbLine
 10
97.0648193438
 20
984.7087664927
 30
0.0
 11
97.0648193438
 21
949.7087664927
 31
0.0
  0
LINE
  5
C5
330
85
100
AcDbEntity
  8
$DDT_AUDIT_GENERATED_(C2)
  6
Continuous
 62
     7
100
AcDbLine
 10
87.8648193438
 20
989.2087664927
 30
0.0
 11
80.8648193438
 21
989.2087664927
 31
0.0
  0
LINE
  5
C6
330
85
100
AcDbEntity
  8
$DDT_AUDIT_GENERATED_(C2)
  6
Continuous
 62
     7
100
AcDbLine
 10
78.1648193438
 20
980.2087664927
 30
0.0
 11
78.1648193438
 21
954.2087664927
 31
0.0
  0
LINE
  5
C7
330
85
100
AcDbEntity
  8
$DDT_AUDIT_GENERATED_(C2)
  6
Continuous
 62
     7
100
AcDbLine
 10
78.6648193438
 20
953.7087664927
 30
0.0
 11
96.5648193438
 21
953.7087664927
 31
0.0
  0
LINE
  5
C8
330
85
100
AcDbEntity
  8
$DDT_AUDIT_GENERATED_(C2)
  6
Continuous
 62
     7
100
AcDbLine
 10
79.8685293033
 20
980.7087664927
 30
0.0
 11
78.6648193438
 21
980.7087664927
 31
0.0
  0
LINE
  5
C9
330
85
100
AcDbEntity
  8
$DDT_AUDIT_GENERATED_(C2)
  6
Continuous
 62
     7
100
AcDbLine
 10
96.5648193438
 20
980.7087664927
 30
0.0
 11
88.8648193438
 21
980.7087664927
 31
0.0
  0
LINE
  5
CA
330
85
100
AcDbEntity
  8
$DDT_AUDIT_GENERATED_(C2)
  6
Continuous
 62
     7
100
AcDbLine
 10
80.3648193438
 20
988.7087664927
 30
0.0
 11
80.3648193438
 21
981.2081081534
 31
0.0
  0
LINE
  5
CB
330
85
100
AcDbEntity
  8
$DDT_AUDIT_GENERATED_(C2)
  6
Continuous
 62
     7
100
AcDbLine
 10
88.3648193438
 20
981.2087664927
 30
0.0
 11
88.3648193438
 21
988.7087664927
 31
0.0
  0
LINE
  5
CC
330
85
100
AcDbEntity
  8
$DDT_AUDIT_GENERATED_(C2)
  6
Continuous
 62
     7
100
AcDbLine
 10
97.5648193438
 20
949.2087664927
 30
0.0
 11
104.0648193438
 21
949.2087664927
 31
0.0
  0
LINE
  5
CD
330
85
100
AcDbEntity
  8
$DDT_AUDIT_GENERATED_(C2)
  6
Continuous
 62
     7
100
AcDbLine
 10
104.0648193438
 20
985.2087664927
 30
0.0
 11
97.5648193438
 21
985.2087664927
 31
0.0
  0
ARC
  5
CE
330
85
100
AcDbEntity
  8
$DDT_AUDIT_GENERATED_(C2)
  6
Continuous
 62
     7
100
AcDbCircle
 10
79.8648193438
 20
981.2087664927
 30
0.0
 40
0.5000000000000163
100
AcDbArc
 50
270.452771592
 51
359.982659785
  0
ARC
  5
CF
330
85
100
AcDbEntity
  8
$DDT_AUDIT_GENERATED_(C2)
  6
Continuous
 62
     7
100
AcDbCircle
 10
88.8553758677
 20
981.1951765543
 30
0.0
 40
0.4836861844988676
100
AcDbArc
 50
178.3436788118
 51
270.9342574462
  0
ARC
  5
D0
330
85
100
AcDbEntity
  8
$DDT_AUDIT_GENERATED_(C2)
  6
Continuous
 62
     7
100
AcDbCircle
 10
104.0648193438
 20
984.7087664927
 30
0.0
 40
0.5000000000000004
100
AcDbArc
 50
0.0
 51
90.0
  0
ARC
  5
D1
330
85
100
AcDbEntity
  8
$DDT_AUDIT_GENERATED_(C2)
  6
Continuous
 62
     7
100
AcDbCircle
 10
104.0648193438
 20
949.7087664927
 30
0.0
 40
0.5000000000000004
100
AcDbArc
 50
270.0
 51
0.0
  0
ARC
  5
D2
330
85
100
AcDbEntity
  8
$DDT_AUDIT_GENERATED_(C2)
  6
Continuous
 62
     7
100
AcDbCircle
 10
97.5648193438
 20
949.7087664927
 30
0.0
 40
0.5000000000000004
100
AcDbArc
 50
180.0
 51
270.0
  0
ARC
  5
D3
330
85
100
AcDbEntity
  8
$DDT_AUDIT_GENERATED_(C2)
  6
Continuous
 62
     7
100
AcDbCircle
 10
97.5648193438
 20
984.7087664927
 30
0.0
 40
0.5000000000000004
100
AcDbArc
 50
90.0
 51
180.0
  0
ARC
  5
D4
330
85
100
AcDbEntity
  8
$DDT_AUDIT_GENERATED_(C2)
  6
Continuous
 62
     7
100
AcDbCircle
 10
96.5648193438
 20
953.2087664927
 30
0.0
 40
0.5000000000000004
100
AcDbArc
 50
0.0
 51
90.0
  0
ARC
  5
D5
330
85
100
AcDbEntity
  8
$DDT_AUDIT_GENERATED_(C2)
  6
Continuous
 62
     7
100
AcDbCircle
 10
96.5648193438
 20
981.2087664927
 30
0.0
 40
0.5000000000000004
100
AcDbArc
 50
270.0
 51
0.0
  0
ARC
  5
D6
330
85
100
AcDbEntity
  8
$DDT_AUDIT_GENERATED_(C2)
  6
Continuous
 62
     7
100
AcDbCircle
 10
87.8648193438
 20
988.7087664927
 30
0.0
 40
0.5000000000000004
100
AcDbArc
 50
0.0
 51
90.0
  0
ARC
  5
D7
330
85
100
AcDbEntity
  8
$DDT_AUDIT_GENERATED_(C2)
  6
Continuous
 62
     7
100
AcDbCircle
 10
80.8648193438
 20
988.7087664927
 30
0.0
 40
0.5000000000000004
100
AcDbArc
 50
90.0
 51
180.0
  0
ARC
  5
D8
330
85
100
AcDbEntity
  8
$DDT_AUDIT_GENERATED_(C2)
  6
Continuous
 62
     7
100
AcDbCircle
 10
78.6648193438
 20
980.2087664927
 30
0.0
 40
0.5000000000000004
100
AcDbArc
 50
90.0
 51
180.0
  0
ARC
  5
D9
330
85
100
AcDbEntity
  8
$DDT_AUDIT_GENERATED_(C2)
  6
Continuous
 62
     7
100
AcDbCircle
 10
78.6648193438
 20
954.2087664927
 30
0.0
 40
0.5000000000000004
100
AcDbArc
 50
180.0
 51
270.0
  0
SPLINE
  5
DB
330
85
100
AcDbEntity
  8
08919XX1_ELEMENT
  6
Continuous
 62
     7
100
AcDbSpline
210
0.0
220
0.0
230
1.0
 70
     8
 71
     3
 72
    22
 73
    18
 74
     0
 42
0.000000000214219
 43
0.0000000001
 40
0.2009397673916495
 40
0.2009397673916495
 40
0.2009397673916495
 40
0.2009397673916495
 40
0.2499999999999999
 40
0.2499999999999999
 40
0.3749999999999999
 40
0.3749999999999999
 40
0.4374999999999999
 40
0.4374999999999999
 40
0.5
 40
0.5
 40
0.6250000000000001
 40
0.6250000000000001
 40
0.6875000000000001
 40
0.6875000000000001
 40
0.75
 40
0.75
 40
0.7996033660873396
 40
0.7996033660873396
 40
0.7996033660873396
 40
0.7996033660873396
 10
109.2650570347225
 20
984.4083877347542
 30
0.0
 10
109.2654727915073
 20
984.4077232471225
 30
0.0
 10
109.4180012201869
 20
984.2960969778807
 30
0.0
 10
110.4580545555376
 20
983.5502065842289
 30
0.0
 10
112.0735536062205
 20
982.3812751292613
 30
0.0
 10
115.1874420345552
 20
980.6810879347577
 30
0.0
 10
116.3677486440879
 20
980.1136415776224
 30
0.0
 10
118.9418185283303
 20
979.2553160167556
 30
0.0
 10
120.3639450205359
 20
978.9704424814403
 30
0.0
 10
124.717062081203
 20
978.970503437374
 30
0.0
 10
127.3880911935164
 20
980.1066803747595
 30
0.0
 10
130.5098781969343
 20
981.809481520026
 30
0.0
 10
131.4322516436187
 20
982.391492676316
 30
0.0
 10
132.9341565943375
 20
983.3846692871743
 30
0.0
 10
133.5308318296114
 20
983.8079669863512
 30
0.0
 10
134.2065452021795
 20
984.2923525598558
 30
0.0
 10
134.3626245915553
 20
984.4066128516624
 30
0.0
 10
134.3640698000204
 20
984.4080284821823
 30
0.0
  0
SPLINE
  5
DC
330
85
100
AcDbEntity
  8
08919XX1_ELEMENT
  6
Continuous
 62
     7
100
AcDbSpline
210
0.0
220
0.0
230
1.0
 70
     8
 71
     3
 72
    22
 73
    18
 74
     0
 42
0.0000000002142256
 43
0.0000000001
 40
0.2007597358443211
 40
0.2007597358443211
 40
0.2007597358443211
 40
0.2007597358443211
 40
0.2500000000000001
 40
0.2500000000000001
 40
0.375
 40
0.375
 40
0.4375
 40
0.4375
 40
0.5
 40
0.5
 40
0.625
 40
0.625
 40
0.6874999999999999
 40
0.6874999999999999
 40
0.7499999999999999
 40
0.7499999999999999
 40
0.7994270417158523
 40
0.7994270417158523
 40
0.7994270417158523
 40
0.7994270417158523
 10
134.3645885009456
 20
950.0091368109426
 30
0.0
 10
134.364175141729
 20
950.0098019421447
 30
0.0
 10
134.2102024855448
 20
950.1224986796184
 30
0.0
 10
133.1639135224231
 20
950.8727415200784
 30
0.0
 10
131.5440535324155
 20
952.0445405432354
 30
0.0
 10
128.4234271782234
 20
953.7458262418991
 30
0.0
 10
127.2405000047671
 20
954.3132014675689
 30
0.0
 10
124.6614087442989
 20
955.1688056166184
 30
0.0
 10
123.2326536134606
 20
955.4508330010664
 30
0.0
 10
118.8865155125685
 20
955.4394229580024
 30
0.0
 10
116.2203389627802
 20
954.3009923706738
 30
0.0
 10
113.1055936058163
 20
952.5994597511773
 30
0.0
 10
112.1853135391071
 20
952.0183212411596
 30
0.0
 10
110.6876990645595
 20
951.0274485424808
 30
0.0
 10
110.0928947921727
 20
950.6053706773407
 30
0.0
 10
109.4217042830015
 20
950.1241503608851
 30
0.0
 10
109.2670322104698
 20
950.0109341687108
 30
0.0
 10
109.2655866879801
 20
950.0095207018481
 30
0.0
  0
LINE
  5
DD
330
85
100
AcDbEntity
  8
08919XX1_ELEMENT
  6
Continuous
 62
     7
100
AcDbLine
 10
134.3347109862
 20
950.0087664927
 30
0.0
 11
134.6059630176
 21
950.0087664927
 31
0.0
  0
LINE
  5
DE
330
85
100
AcDbEntity
  8
08919XX1_ELEMENT
  6
Continuous
 62
     7
100
AcDbLine
 10
109.0225385983
 20
950.0087664927
 30
0.0
 11
109.2949277014
 21
950.0087664927
 31
0.0
  0
LINE
  5
DF
330
85
100
AcDbEntity
  8
08919XX1_ELEMENT
  6
Continuous
 62
     7
100
AcDbLine
 10
109.2949277014
 20
984.4087664927
 30
0.0
 11
109.0238015196
 21
984.4087664927
 31
0.0
  0
LINE
  5
E0
330
85
100
AcDbEntity
  8
08919XX1_ELEMENT
  6
Continuous
 62
     7
100
AcDbLine
 10
134.6057126099
 20
984.4087664927
 30
0.0
 11
134.3347109862
 21
984.4087664927
 31
0.0
  0
LINE
  5
E1
330
85
100
AcDbEntity
  8
$DDT_AUDIT_GENERATED_(87)
  6
Continuous
 62
     7
100
AcDbLine
 10
136.8148193438
 20
343.1837664927
 30
0.0
 11
106.8148193438
 21
343.1837664927
 31
0.0
  0
LINE
  5
E2
330
85
100
AcDbEntity
  8
$DDT_AUDIT_GENERATED_(87)
  6
Continuous
 62
     7
100
AcDbLine
 10
106.8148193438
 20
391.1837664927
 30
0.0
 11
136.8148193438
 21
391.1837664927
 31
0.0
  0
LINE
  5
E3
330
85
100
AcDbEntity
  8
$DDT_AUDIT_GENERATED_(87)
  6
Continuous
 62
     7
100
AcDbLine
 10
137.3148193438
 20
343.6837664927
 30
0.0
 11
137.3148193438
 21
390.6837664927
 31
0.0
  0
LINE
  5
E4
330
85
100
AcDbEntity
  8
$DDT_AUDIT_GENERATED_(87)
  6
Continuous
 62
     7
100
AcDbLine
 10
106.3148193438
 20
390.6837664927
 30
0.0
 11
106.3148193438
 21
343.6837664927
 31
0.0
  0
ARC
  5
E5
330
85
100
AcDbEntity
  8
$DDT_AUDIT_GENERATED_(87)
  6
Continuous
 62
     7
100
AcDbCircle
 10
136.8148193438
 20
343.6837664927
 30
0.0
 40
0.500000000000056
100
AcDbArc
 50
270.0
 51
0.0
  0
ARC
  5
E6
330
85
100
AcDbEntity
  8
$DDT_AUDIT_GENERATED_(87)
  6
Continuous
 62
     7
100
AcDbCircle
 10
106.8148193438
 20
343.6837664927
 30
0.0
 40
0.5000000000000004
100
AcDbArc
 50
180.0
 51
270.0
  0
ARC
  5
E7
330
85
100
AcDbEntity
  8
$DDT_AUDIT_GENERATED_(87)
  6
Continuous
 62
     7
100
AcDbCircle
 10
136.8148193438
 20
390.6837664927
 30
0.0
 40
0.5000000000000004
100
AcDbArc
 50
0.0
 51
90.0
  0
ARC
  5
E8
330
85
100
AcDbEntity
  8
$DDT_AUDIT_GENERATED_(87)
  6
Continuous
 62
     7
100
AcDbCircle
 10
106.8148193438
 20
390.6837664927
 30
0.0
 40
0.500000000000056
100
AcDbArc
 50
90.0
 51
180.0
  0
ARC
  5
EA
330
85
100
AcDbEntity
  8
$DDT_AUDIT_GENERATED_(E9)
  6
Continuous
 62
     7
100
AcDbCircle
 10
121.8148193438
 20
1298.3675329854
 30
0.0
 40
24.99999999999996
100
AcDbArc
 50
62.2168909071
 51
117.7831090929
  0
LINE
  5
EB
330
85
100
AcDbEntity
  8
$DDT_AUDIT_GENERATED_(E9)
  6
Continuous
 62
     7
100
AcDbLine
 10
134.0513836492
 20
1317.7218549669
 30
0.0
 11
134.0014969221
 21
1319.6269522168
 31
0.0
  0
LINE
  5
EC
330
85
100
AcDbEntity
  8
$DDT_AUDIT_GENERATED_(E9)
  6
Continuous
 62
     7
100
AcDbLine
 10
109.6281417655
 20
1319.6269522168
 30
0.0
 11
109.5782550383
 21
1317.7218549669
 31
0.0
  0
ARC
  5
ED
330
85
100
AcDbEntity
  8
$DDT_AUDIT_GENERATED_(E9)
  6
Continuous
 62
     7
100
AcDbCircle
 10
133.0018395971
 20
1319.6007752685
 30
0.0
 40
1.0
100
AcDbArc
 50
1.5
 51
62.2168909071
  0
ARC
  5
EE
330
85
100
AcDbEntity
  8
$DDT_AUDIT_GENERATED_(E9)
  6
Continuous
 62
     7
100
AcDbCircle
 10
110.6277990905
 20
1319.6007752685
 30
0.0
 40
1.000000000000078
100
AcDbArc
 50
117.7831090929
 51
178.5
  0
ARC
  5
EF
330
85
100
AcDbEntity
  8
$DDT_AUDIT_GENERATED_(E9)
  6
Continuous
 62
     7
100
AcDbCircle
 10
133.5515549868
 20
1317.7087664927
 30
0.0
 40
0.5000000000000004
100
AcDbArc
 50
270.0
 51
1.5
  0
ARC
  5
F0
330
85
100
AcDbEntity
  8
$DDT_AUDIT_GENERATED_(E9)
  6
Continuous
 62
     7
100
AcDbCircle
 10
110.0780837008
 20
1317.7087664927
 30
0.0
 40
0.4999999999999999
100
AcDbArc
 50
178.5
 51
270.0
  0
ARC
  5
F1
330
85
100
AcDbEntity
  8
$DDT_AUDIT_GENERATED_(E9)
  6
Continuous
 62
     7
100
AcDbCircle
 10
121.8148193438
 20
336.05
 30
0.0
 40
25.00000000000001
100
AcDbArc
 50
242.2168909071
 51
297.7831090929
  0
LINE
  5
F2
330
85
100
AcDbEntity
  8
$DDT_AUDIT_GENERATED_(E9)
  6
Continuous
 62
     7
100
AcDbLine
 10
109.5782550383
 20
316.6956780185
 30
0.0
 11
109.6281417655
 21
314.7905807686
 31
0.0
  0
LINE
  5
F3
330
85
100
AcDbEntity
  8
$DDT_AUDIT_GENERATED_(E9)
  6
Continuous
 62
     7
100
AcDbLine
 10
134.0014969221
 20
314.7905807686
 30
0.0
 11
134.0513836492
 21
316.6956780185
 31
0.0
  0
ARC
  5
F4
330
85
100
AcDbEntity
  8
$DDT_AUDIT_GENERATED_(E9)
  6
Continuous
 62
     7
100
AcDbCircle
 10
110.6277990905
 20
314.8167577169
 30
0.0
 40
1.0
100
AcDbArc
 50
181.5
 51
242.2168909071
  0
ARC
  5
F5
330
85
100
AcDbEntity
  8
$DDT_AUDIT_GENERATED_(E9)
  6
Continuous
 62
     7
100
AcDbCircle
 10
133.0018395971
 20
314.8167577169
 30
0.0
 40
1.000000000000127
100
AcDbArc
 50
297.7831090929
 51
358.5
  0
ARC
  5
F6
330
85
100
AcDbEntity
  8
$DDT_AUDIT_GENERATED_(E9)
  6
Continuous
 62
     7
100
AcDbCircle
 10
110.0780837008
 20
316.7087664927
 30
0.0
 40
0.4999999999999449
100
AcDbArc
 50
90.0
 51
181.5
  0
ARC
  5
F7
330
85
100
AcDbEntity
  8
$DDT_AUDIT_GENERATED_(E9)
  6
Continuous
 62
     7
100
AcDbCircle
 10
133.5515549868
 20
316.7087664927
 30
0.0
 40
0.5000000000000013
100
AcDbArc
 50
358.5
 51
90.0
  0
ENDBLK
  5
F9
330
85
100
AcDbEntity
  8
0
100
AcDbBlockEnd
  0
BLOCK
  5
143
330
FA
100
AcDbEntity
  8
0
100
AcDbBlockBegin
  2
SE1
 70
     0
 10
0.0
 20
0.0
 30
0.0
  3
SE1
  1

  0
LINE
  5
FC
330
FA
100
AcDbEntity
  8
$DDT_AUDIT_GENERATED_(87)
  6
Continuous
 62
     7
100
AcDbLine
 10
364.5602675631
 20
1243.1837664927
 30
0.0
 11
388.8100825074
 21
1243.1837664927
 31
0.0
  0
LINE
  5
FD
330
FA
100
AcDbEntity
  8
$DDT_AUDIT_GENERATED_(87)
  6
Continuous
 62
     7
100
AcDbLine
 10
364.5602675631
 20
1243.1837664927
 30
0.0
 11
359.3187057612
 21
1243.1837664927
 31
0.0
  0
LINE
  5
FE
330
FA
100
AcDbEntity
  8
$DDT_AUDIT_GENERATED_(87)
  6
Continuous
 62
     7
100
AcDbLine
 10
359.3187057612
 20
1243.1837664927
 30
0.0
 11
308.8100825074
 21
1243.1837664927
 31
0.0
  0
LINE
  5
FF
330
FA
100
AcDbEntity
  8
$DDT_AUDIT_GENERATED_(87)
  6
Continuous
 62
     7
100
AcDbLine
 10
308.8100825074
 20
1243.1837664927
 30
0.0
 11
308.8100825074
 21
1243.6837664927
 31
0.0
  0
LINE
  5
100
330
FA
100
AcDbEntity
  8
$DDT_AUDIT_GENERATED_(87)
  6
Continuous
 62
     7
100
AcDbLine
 10
308.8100825074
 20
1291.1837664927
 30
0.0
 11
359.3187057612
 21
1291.1837664927
 31
0.0
  0
LINE
  5
101
330
FA
100
AcDbEntity
  8
$DDT_AUDIT_GENERATED_(87)
  6
Continuous
 62
     7
100
AcDbLine
 10
359.3187057612
 20
1291.1837664927
 30
0.0
 11
364.5602675631
 21
1291.1837664927
 31
0.0
  0
LINE
  5
102
330
FA
100
AcDbEntity
  8
$DDT_AUDIT_GENERATED_(87)
  6
Continuous
 62
     7
100
AcDbLine
 10
364.5602675631
 20
1291.1837664927
 30
0.0
 11
388.8100825074
 21
1291.1837664927
 31
0.0
  0
LINE
  5
103
330
FA
100
AcDbEntity
  8
$DDT_AUDIT_GENERATED_(87)
  6
Continuous
 62
     7
100
AcDbLine
 10
308.8100825074
 20
1290.6837664927
 30
0.0
 11
308.8100825074
 21
1243.6837664927
 31
0.0
  0
LINE
  5
104
330
FA
100
AcDbEntity
  8
$DDT_AUDIT_GENERATED_(87)
  6
Continuous
 62
     7
100
AcDbLine
 10
308.8100825074
 20
1290.6837664927
 30
0.0
 11
308.8100825074
 21
1291.1837664927
 31
0.0
  0
LINE
  5
105
330
FA
100
AcDbEntity
  8
$DDT_AUDIT_GENERATED_(87)
  6
Continuous
 62
     7
100
AcDbLine
 10
389.3100825074
 20
1243.6837664927
 30
0.0
 11
389.3100825074
 21
1290.6837664927
 31
0.0
  0
ARC
  5
106
330
FA
100
AcDbEntity
  8
$DDT_AUDIT_GENERATED_(87)
  6
Continuous
 62
     7
100
AcDbCircle
 10
388.8100825074
 20
1243.6837664927
 30
0.0
 40
0.5000000000000004
100
AcDbArc
 50
270.0
 51
0.0
  0
ARC
  5
107
330
FA
100
AcDbEntity
  8
$DDT_AUDIT_GENERATED_(87)
  6
Continuous
 62
     7
100
AcDbCircle
 10
388.8100825074
 20
1290.6837664927
 30
0.0
 40
0.5000000000000004
100
AcDbArc
 50
0.0
 51
90.0
  0
LINE
  5
108
330
FA
100
AcDbEntity
  8
$DDT_AUDIT_GENERATED_(90)
  6
Continuous
 62
     7
100
AcDbLine
 10
361.4600825074
 20
1317.2087664927
 30
0.0
 11
386.1600825074
 21
1317.2087664927
 31
0.0
  0
LINE
  5
109
330
FA
100
AcDbEntity
  8
$DDT_AUDIT_GENERATED_(90)
  6
Continuous
 62
     7
100
AcDbLine
 10
361.4600825074
 20
317.2087664927
 30
0.0
 11
386.1600825074
 21
317.2087664927
 31
0.0
  0
LINE
  5
10A
330
FA
100
AcDbEntity
  8
$DDT_AUDIT_GENERATED_(90)
  6
Continuous
 62
     7
100
AcDbLine
 10
386.1600825074
 20
317.2087664927
 30
0.0
 11
386.1600825074
 21
343.1837664927
 31
0.0
  0
LINE
  5
10B
330
FA
100
AcDbEntity
  8
$DDT_AUDIT_GENERATED_(90)
  6
Continuous
 62
     7
100
AcDbLine
 10
386.1600825074
 20
391.1837664927
 30
0.0
 11
386.1600825074
 21
954.1138247212
 31
0.0
  0
LINE
  5
10C
330
FA
100
AcDbEntity
  8
$DDT_AUDIT_GENERATED_(90)
  6
Continuous
 62
     7
100
AcDbLine
 10
386.1600825074
 20
980.3037082642
 30
0.0
 11
386.1600825074
 21
1243.1837664927
 31
0.0
  0
LINE
  5
10D
330
FA
100
AcDbEntity
  8
$DDT_AUDIT_GENERATED_(90)
  6
Continuous
 62
     7
100
AcDbLine
 10
386.1600825074
 20
1291.1837664927
 30
0.0
 11
386.1600825074
 21
1317.2087664927
 31
0.0
  0
LINE
  5
10E
330
FA
100
AcDbEntity
  8
$DDT_AUDIT_GENERATED_(90)
  6
Continuous
 62
     7
100
AcDbLine
 10
361.4600825074
 20
1317.2087664927
 30
0.0
 11
361.4600825074
 21
1291.1837664927
 31
0.0
  0
LINE
  5
10F
330
FA
100
AcDbEntity
  8
$DDT_AUDIT_GENERATED_(90)
  6
Continuous
 62
     7
100
AcDbLine
 10
361.4600825074
 20
1243.1837664927
 30
0.0
 11
361.4600825074
 21
980.3037082642
 31
0.0
  0
LINE
  5
110
330
FA
100
AcDbEntity
  8
$DDT_AUDIT_GENERATED_(90)
  6
Continuous
 62
     7
100
AcDbLine
 10
361.4600825074
 20
954.1138247212
 30
0.0
 11
361.4600825074
 21
391.1837664927
 31
0.0
  0
LINE
  5
111
330
FA
100
AcDbEntity
  8
$DDT_AUDIT_GENERATED_(90)
  6
Continuous
 62
     7
100
AcDbLine
 10
361.4600825074
 20
343.1837664927
 30
0.0
 11
361.4600825074
 21
317.2087664927
 31
0.0
  0
LINE
  5
112
330
FA
100
AcDbEntity
  8
$DDT_AUDIT_GENERATED_(AB)
  6
Continuous
 62
     7
100
AcDbLine
 10
358.8100825074
 20
984.2087664927
 30
0.0
 11
361.4600825074
 21
984.2087664927
 31
0.0
  0
LINE
  5
113
330
FA
100
AcDbEntity
  8
$DDT_AUDIT_GENERATED_(AB)
  6
Continuous
 62
     7
100
AcDbLine
 10
386.1600825074
 20
984.2087664927
 30
0.0
 11
388.8100825074
 21
984.2087664927
 31
0.0
  0
LINE
  5
114
330
FA
100
AcDbEntity
  8
$DDT_AUDIT_GENERATED_(AB)
  6
Continuous
 62
     7
100
AcDbLine
 10
388.8100825074
 20
950.2087664927
 30
0.0
 11
386.1600825074
 21
950.2087664927
 31
0.0
  0
LINE
  5
115
330
FA
100
AcDbEntity
  8
$DDT_AUDIT_GENERATED_(AB)
  6
Continuous
 62
     7
100
AcDbLine
 10
361.4600825074
 20
950.2087664927
 30
0.0
 11
358.8100825074
 21
950.2087664927
 31
0.0
  0
LINE
  5
116
330
FA
100
AcDbEntity
  8
$DDT_AUDIT_GENERATED_(AB)
  6
Continuous
 62
     7
100
AcDbLine
 10
389.3100825074
 20
950.7087664927
 30
0.0
 11
389.3100825074
 21
958.0572638838
 31
0.0
  0
LINE
  5
117
330
FA
100
AcDbEntity
  8
$DDT_AUDIT_GENERATED_(AB)
  6
Continuous
 62
     7
100
AcDbLine
 10
389.3100825074
 20
976.3602691016
 30
0.0
 11
389.3100825074
 21
983.7087664927
 31
0.0
  0
LINE
  5
118
330
FA
100
AcDbEntity
  8
$DDT_AUDIT_GENERATED_(AB)
  6
Continuous
 62
     7
100
AcDbLine
 10
358.3100825074
 20
983.7087664927
 30
0.0
 11
358.3100825074
 21
976.3602691016
 31
0.0
  0
LINE
  5
119
330
FA
100
AcDbEntity
  8
$DDT_AUDIT_GENERATED_(AB)
  6
Continuous
 62
     7
100
AcDbLine
 10
358.3100825074
 20
958.0572638838
 30
0.0
 11
358.3100825074
 21
950.7087664927
 31
0.0
  0
ARC
  5
11A
330
FA
100
AcDbEntity
  8
$DDT_AUDIT_GENERATED_(AB)
  6
Continuous
 62
     7
100
AcDbCircle
 10
388.8100825074
 20
950.7087664927
 30
0.0
 40
0.5000000000000004
100
AcDbArc
 50
270.0
 51
0.0
  0
ARC
  5
11B
330
FA
100
AcDbEntity
  8
$DDT_AUDIT_GENERATED_(AB)
  6
Continuous
 62
     7
100
AcDbCircle
 10
358.8100825074
 20
950.7087664927
 30
0.0
 40
0.5000000000000004
100
AcDbArc
 50
180.0
 51
270.0
  0
ARC
  5
11C
330
FA
100
AcDbEntity
  8
$DDT_AUDIT_GENERATED_(AB)
  6
Continuous
 62
     7
100
AcDbCircle
 10
388.8100825074
 20
983.7087664927
 30
0.0
 40
0.5000000000000004
100
AcDbArc
 50
0.0
 51
90.0
  0
ARC
  5
11D
330
FA
100
AcDbEntity
  8
$DDT_AUDIT_GENERATED_(AB)
  6
Continuous
 62
     7
100
AcDbCircle
 10
358.8100825074
 20
983.7087664927
 30
0.0
 40
0.5000000000000004
100
AcDbArc
 50
90.0
 51
180.0
  0
ARC
  5
11E
330
FA
100
AcDbEntity
  8
$DDT_AUDIT_GENERATED_(C2)
  6
Continuous
 62
     7
100
AcDbCircle
 10
373.8100825074
 20
967.2087664927
 30
0.0
 40
13.49999999999988
100
AcDbArc
 50
71.2506596112
 51
71.2569171929
  0
ARC
  5
11F
330
FA
100
AcDbEntity
  8
$DDT_AUDIT_GENERATED_(C2)
  6
Continuous
 62
     7
100
AcDbCircle
 10
373.8100825074
 20
967.2087664927
 30
0.0
 40
18.0
100
AcDbArc
 50
102.8395884069
 51
0.0
  0
ARC
  5
120
330
FA
100
AcDbEntity
  8
$DDT_AUDIT_GENERATED_(C2)
  6
Continuous
 62
     7
100
AcDbCircle
 10
373.8100825074
 20
967.2087664927
 30
0.0
 40
18.0
100
AcDbArc
 50
0.0
 51
77.1604115931
  0
LINE
  5
121
330
FA
100
AcDbEntity
  8
$DDT_AUDIT_GENERATED_(C2)
  6
Continuous
 62
     7
100
AcDbLine
 10
377.3100825074
 20
989.2087664927
 30
0.0
 11
370.3100825074
 21
989.2087664927
 31
0.0
  0
CIRCLE
  5
122
330
FA
100
AcDbEntity
  8
$DDT_AUDIT_GENERATED_(C2)
  6
Continuous
 62
     7
100
AcDbCircle
 10
373.8100825074
 20
967.2087664927
 30
0.0
 40
13.5
  0
LINE
  5
123
330
FA
100
AcDbEntity
  8
$DDT_AUDIT_GENERATED_(C2)
  6
Continuous
 62
     7
100
AcDbLine
 10
369.8100825074
 20
988.7087664927
 30
0.0
 11
369.8100825074
 21
980.4713495978
 31
0.0
  0
LINE
  5
124
330
FA
100
AcDbEntity
  8
$DDT_AUDIT_GENERATED_(C2)
  6
Continuous
 62
     7
100
AcDbLine
 10
377.8100825074
 20
980.4706667484
 30
0.0
 11
377.8100825074
 21
988.7087664927
 31
0.0
  0
ARC
  5
125
330
FA
100
AcDbEntity
  8
$DDT_AUDIT_GENERATED_(C2)
  6
Continuous
 62
     7
100
AcDbCircle
 10
369.3270142836
 20
980.4547089412
 30
0.0
 40
0.4801527687516261
100
AcDbArc
 50
302.709467416
 51
2.1826398536
  0
ARC
  5
126
330
FA
100
AcDbEntity
  8
$DDT_AUDIT_GENERATED_(C2)
  6
Continuous
 62
     7
100
AcDbCircle
 10
378.280766426
 20
980.4436846749
 30
0.0
 40
0.4642802822328889
100
AcDbArc
 50
176.8019548195
 51
237.8648464996
  0
ARC
  5
127
330
FA
100
AcDbEntity
  8
$DDT_AUDIT_GENERATED_(C2)
  6
Continuous
 62
     7
100
AcDbCircle
 10
377.3100825074
 20
988.7087664927
 30
0.0
 40
0.5000000000000004
100
AcDbArc
 50
0.0
 51
90.0
  0
ARC
  5
128
330
FA
100
AcDbEntity
  8
$DDT_AUDIT_GENERATED_(C2)
  6
Continuous
 62
     7
100
AcDbCircle
 10
370.3100825074
 20
988.7087664927
 30
0.0
 40
0.5000000000000004
100
AcDbArc
 50
90.0
 51
180.0
  0
LINE
  5
129
330
FA
100
AcDbEntity
  8
$DDT_AUDIT_GENERATED_(87)
  6
Continuous
 62
     7
100
AcDbLine
 10
364.5602675631
 20
343.1837664927
 30
0.0
 11
388.8100825074
 21
343.1837664927
 31
0.0
  0
LINE
  5
12A
330
FA
100
AcDbEntity
  8
$DDT_AUDIT_GENERATED_(87)
  6
Continuous
 62
     7
100
AcDbLine
 10
364.5602675631
 20
343.1837664927
 30
0.0
 11
359.3187057612
 21
343.1837664927
 31
0.0
  0
LINE
  5
12B
330
FA
100
AcDbEntity
  8
$DDT_AUDIT_GENERATED_(87)
  6
Continuous
 62
     7
100
AcDbLine
 10
359.3187057612
 20
343.1837664927
 30
0.0
 11
308.8100825074
 21
343.1837664927
 31
0.0
  0
LINE
  5
12C
330
FA
100
AcDbEntity
  8
$DDT_AUDIT_GENERATED_(87)
  6
Continuous
 62
     7
100
AcDbLine
 10
308.8100825074
 20
343.1837664927
 30
0.0
 11
308.8100825074
 21
343.6837664927
 31
0.0
  0
LINE
  5
12D
330
FA
100
AcDbEntity
  8
$DDT_AUDIT_GENERATED_(87)
  6
Continuous
 62
     7
100
AcDbLine
 10
308.8100825074
 20
391.1837664927
 30
0.0
 11
359.3187057612
 21
391.1837664927
 31
0.0
  0
LINE
  5
12E
330
FA
100
AcDbEntity
  8
$DDT_AUDIT_GENERATED_(87)
  6
Continuous
 62
     7
100
AcDbLine
 10
359.3187057612
 20
391.1837664927
 30
0.0
 11
364.5602675631
 21
391.1837664927
 31
0.0
  0
LINE
  5
12F
330
FA
100
AcDbEntity
  8
$DDT_AUDIT_GENERATED_(87)
  6
Continuous
 62
     7
100
AcDbLine
 10
364.5602675631
 20
391.1837664927
 30
0.0
 11
388.8100825074
 21
391.1837664927
 31
0.0
  0
LINE
  5
130
330
FA
100
AcDbEntity
  8
$DDT_AUDIT_GENERATED_(87)
  6
Continuous
 62
     7
100
AcDbLine
 10
308.8100825074
 20
390.6837664927
 30
0.0
 11
308.8100825074
 21
343.6837664927
 31
0.0
  0
LINE
  5
131
330
FA
100
AcDbEntity
  8
$DDT_AUDIT_GENERATED_(87)
  6
Continuous
 62
     7
100
AcDbLine
 10
308.8100825074
 20
390.6837664927
 30
0.0
 11
308.8100825074
 21
391.1837664927
 31
0.0
  0
LINE
  5
132
330
FA
100
AcDbEntity
  8
$DDT_AUDIT_GENERATED_(87)
  6
Continuous
 62
     7
100
AcDbLine
 10
389.3100825074
 20
343.6837664927
 30
0.0
 11
389.3100825074
 21
390.6837664927
 31
0.0
  0
ARC
  5
133
330
FA
100
AcDbEntity
  8
$DDT_AUDIT_GENERATED_(87)
  6
Continuous
 62
     7
100
AcDbCircle
 10
388.8100825074
 20
343.6837664927
 30
0.0
 40
0.500000000000056
100
AcDbArc
 50
270.0
 51
0.0
  0
ARC
  5
134
330
FA
100
AcDbEntity
  8
$DDT_AUDIT_GENERATED_(87)
  6
Continuous
 62
     7
100
AcDbCircle
 10
388.8100825074
 20
390.6837664927
 30
0.0
 40
0.5000000000000004
100
AcDbArc
 50
0.0
 51
90.0
  0
ARC
  5
135
330
FA
100
AcDbEntity
  8
$DDT_AUDIT_GENERATED_(E9)
  6
Continuous
 62
     7
100
AcDbCircle
 10
373.8100825074
 20
1298.3675329854
 30
0.0
 40
24.99999999999996
100
AcDbArc
 50
62.2168909071
 51
117.7831090929
  0
LINE
  5
136
330
FA
100
AcDbEntity
  8
$DDT_AUDIT_GENERATED_(E9)
  6
Continuous
 62
     7
100
AcDbLine
 10
386.0466468129
 20
1317.7218549669
 30
0.0
 11
385.9967600857
 21
1319.6269522168
 31
0.0
  0
LINE
  5
137
330
FA
100
AcDbEntity
  8
$DDT_AUDIT_GENERATED_(E9)
  6
Continuous
 62
     7
100
AcDbLine
 10
361.6234049291
 20
1319.6269522168
 30
0.0
 11
361.573518202
 21
1317.7218549669
 31
0.0
  0
ARC
  5
138
330
FA
100
AcDbEntity
  8
$DDT_AUDIT_GENERATED_(E9)
  6
Continuous
 62
     7
100
AcDbCircle
 10
384.9971027607
 20
1319.6007752685
 30
0.0
 40
0.99999999999999
100
AcDbArc
 50
1.5
 51
62.2168909071
  0
ARC
  5
139
330
FA
100
AcDbEntity
  8
$DDT_AUDIT_GENERATED_(E9)
  6
Continuous
 62
     7
100
AcDbCircle
 10
362.6230622541
 20
1319.6007752685
 30
0.0
 40
1.000000000000081
100
AcDbArc
 50
117.7831090929
 51
178.5
  0
ARC
  5
13A
330
FA
100
AcDbEntity
  8
$DDT_AUDIT_GENERATED_(E9)
  6
Continuous
 62
     7
100
AcDbCircle
 10
385.5468181504
 20
1317.7087664927
 30
0.0
 40
0.5000000000000004
100
AcDbArc
 50
270.0
 51
1.5
  0
ARC
  5
13B
330
FA
100
AcDbEntity
  8
$DDT_AUDIT_GENERATED_(E9)
  6
Continuous
 62
     7
100
AcDbCircle
 10
362.0733468645
 20
1317.7087664927
 30
0.0
 40
0.5000000000000034
100
AcDbArc
 50
178.5
 51
270.0
  0
ARC
  5
13C
330
FA
100
AcDbEntity
  8
$DDT_AUDIT_GENERATED_(E9)
  6
Continuous
 62
     7
100
AcDbCircle
 10
373.8100825074
 20
336.05
 30
0.0
 40
25.00000000000001
100
AcDbArc
 50
242.2168909071
 51
297.7831090929
  0
LINE
  5
13D
330
FA
100
AcDbEntity
  8
$DDT_AUDIT_GENERATED_(E9)
  6
Continuous
 62
     7
100
AcDbLine
 10
361.573518202
 20
316.6956780185
 30
0.0
 11
361.6234049291
 21
314.7905807686
 31
0.0
  0
LINE
  5
13E
330
FA
100
AcDbEntity
  8
$DDT_AUDIT_GENERATED_(E9)
  6
Continuous
 62
     7
100
AcDbLine
 10
385.9967600857
 20
314.7905807686
 30
0.0
 11
386.0466468129
 21
316.6956780185
 31
0.0
  0
ARC
  5
13F
330
FA
100
AcDbEntity
  8
$DDT_AUDIT_GENERATED_(E9)
  6
Continuous
 62
     7
100
AcDbCircle
 10
362.6230622541
 20
314.8167577169
 30
0.0
 40
1.000000000000011
100
AcDbArc
 50
181.5
 51
242.2168909071
  0
ARC
  5
140
330
FA
100
AcDbEntity
  8
$DDT_AUDIT_GENERATED_(E9)
  6
Continuous
 62
     7
100
AcDbCircle
 10
384.9971027607
 20
314.8167577169
 30
0.0
 40
1.000000000000126
100
AcDbArc
 50
297.7831090929
 51
358.5
  0
ARC
  5
141
330
FA
100
AcDbEntity
  8
$DDT_AUDIT_GENERATED_(E9)
  6
Continuous
 62
     7
100
AcDbCircle
 10
362.0733468645
 20
316.7087664927
 30
0.0
 40
0.4999999999999449
100
AcDbArc
 50
90.0
 51
181.5
  0
ARC
  5
142
330
FA
100
AcDbEntity
  8
$DDT_AUDIT_GENERATED_(E9)
  6
Continuous
 62
     7
100
AcDbCircle
 10
385.5468181504
 20
316.7087664927
 30
0.0
 40
0.5000000000000049
100
AcDbArc
 50
358.5
 51
90.0
  0
ENDBLK
  5
144
330
FA
100
AcDbEntity
  8
0
100
AcDbBlockEnd
  0
BLOCK
  5
1C3
330
145
100
AcDbEntity
  8
0
100
AcDbBlockBegin
  2
SE2
 70
     0
 10
0.0
 20
0.0
 30
0.0
  3
SE2
  1

  0
CIRCLE
  5
147
330
145
100
AcDbEntity
  8
$DDT_AUDIT_GENERATED_(87)
  6
Continuous
 62
     7
100
AcDbCircle
 10
121.8148193438
 20
124.35
 30
0.0
 40
13.0
  0
LINE
  5
148
330
145
100
AcDbEntity
  8
$DDT_AUDIT_GENERATED_(87)
  6
Continuous
 62
     7
100
AcDbLine
 10
131.8148193438
 20
189.35
 30
0.0
 11
111.8148193438
 21
189.35
 31
0.0
  0
LINE
  5
149
330
145
100
AcDbEntity
  8
$DDT_AUDIT_GENERATED_(87)
  6
Continuous
 62
     7
100
AcDbLine
 10
111.3148193438
 20
189.35
 30
0.0
 11
111.8148193438
 21
189.35
 31
0.0
  0
LINE
  5
14A
330
145
100
AcDbEntity
  8
$DDT_AUDIT_GENERATED_(87)
  6
Continuous
 62
     7
100
AcDbLine
 10
131.8148193438
 20
189.35
 30
0.0
 11
132.3148193438
 21
189.35
 31
0.0
  0
LINE
  5
14B
330
145
100
AcDbEntity
  8
$DDT_AUDIT_GENERATED_(87)
  6
Continuous
 62
     7
100
AcDbLine
 10
132.3148193438
 20
189.35
 30
0.0
 11
132.3148193438
 21
165.35
 31
0.0
  0
ARC
  5
14C
330
145
100
AcDbEntity
  8
$DDT_AUDIT_GENERATED_(87)
  6
Continuous
 62
     7
100
AcDbCircle
 10
131.3148193438
 20
165.35
 30
0.0
 40
0.9999999999999991
100
AcDbArc
 50
270.0
 51
0.0
  0
LINE
  5
14D
330
145
100
AcDbEntity
  8
$DDT_AUDIT_GENERATED_(87)
  6
Continuous
 62
     7
100
AcDbLine
 10
131.3148193438
 20
164.35
 30
0.0
 11
122.8148193438
 21
164.35
 31
0.0
  0
ARC
  5
14E
330
145
100
AcDbEntity
  8
$DDT_AUDIT_GENERATED_(87)
  6
Continuous
 62
     7
100
AcDbCircle
 10
122.8148193438
 20
155.85
 30
0.0
 40
8.499999999999996
100
AcDbArc
 50
90.0
 51
270.0
  0
LINE
  5
14F
330
145
100
AcDbEntity
  8
$DDT_AUDIT_GENERATED_(87)
  6
Continuous
 62
     7
100
AcDbLine
 10
122.8148193438
 20
147.35
 30
0.0
 11
131.3148193438
 21
147.35
 31
0.0
  0
ARC
  5
150
330
145
100
AcDbEntity
  8
$DDT_AUDIT_GENERATED_(87)
  6
Continuous
 62
     7
100
AcDbCircle
 10
131.3148193438
 20
146.35
 30
0.0
 40
1.000000000000001
100
AcDbArc
 50
0.0
 51
90.0
  0
LINE
  5
151
330
145
100
AcDbEntity
  8
$DDT_AUDIT_GENERATED_(87)
  6
Continuous
 62
     7
100
AcDbLine
 10
132.3148193438
 20
146.35
 30
0.0
 11
132.3148193438
 21
138.8413767462
 31
0.0
  0
ARC
  5
152
330
145
100
AcDbEntity
  8
$DDT_AUDIT_GENERATED_(87)
  6
Continuous
 62
     7
100
AcDbCircle
 10
140.3148193438
 20
138.8413767462
 30
0.0
 40
8.0
100
AcDbArc
 50
180.0
 51
218.0722254136
  0
ARC
  5
153
330
145
100
AcDbEntity
  8
$DDT_AUDIT_GENERATED_(87)
  6
Continuous
 62
     7
100
AcDbCircle
 10
121.8148193438
 20
124.35
 30
0.0
 40
15.5
100
AcDbArc
 50
141.9277745864
 51
38.0722254136
  0
ARC
  5
154
330
145
100
AcDbEntity
  8
$DDT_AUDIT_GENERATED_(87)
  6
Continuous
 62
     7
100
AcDbCircle
 10
103.3148193438
 20
138.8413767462
 30
0.0
 40
8.000000000000005
100
AcDbArc
 50
321.9277745864
 51
0.0
  0
LINE
  5
155
330
145
100
AcDbEntity
  8
$DDT_AUDIT_GENERATED_(87)
  6
Continuous
 62
     7
100
AcDbLine
 10
111.3148193438
 20
138.8413767462
 30
0.0
 11
111.3148193438
 21
189.35
 31
0.0
  0
LINE
  5
157
330
145
100
AcDbEntity
  8
$DDT_AUDIT_GENERATED_(156)
  6
Continuous
 62
     7
100
AcDbLine
 10
127.9465549716
 20
135.0702760314
 30
0.0
 11
127.9192940341
 21
135.1720152354
 31
0.0
  0
LINE
  5
158
330
145
100
AcDbEntity
  8
$DDT_AUDIT_GENERATED_(156)
  6
Continuous
 62
     7
100
AcDbLine
 10
109.8986476229
 20
121.1054119649
 30
0.0
 11
109.8459835356
 21
121.01419509
 31
0.0
  0
ARC
  5
159
330
145
100
AcDbEntity
  8
$DDT_AUDIT_GENERATED_(156)
  6
Continuous
 62
     7
100
AcDbCircle
 10
121.8148193438
 20
124.35
 30
0.0
 40
12.425
100
AcDbArc
 50
195.5735551306
 51
239.4264448694
  0
LINE
  5
15A
330
145
100
AcDbEntity
  8
$DDT_AUDIT_GENERATED_(156)
  6
Continuous
 62
     7
100
AcDbLine
 10
115.4949165749
 20
113.6523622237
 30
0.0
 11
115.5966557789
 21
113.6796231613
 31
0.0
  0
LINE
  5
15B
330
145
100
AcDbEntity
  8
$DDT_AUDIT_GENERATED_(156)
  6
Continuous
 62
     7
100
AcDbLine
 10
115.683083716
 20
113.6297239686
 30
0.0
 11
115.7103446535
 21
113.5279847646
 31
0.0
  0
ARC
  5
15C
330
145
100
AcDbEntity
  8
$DDT_AUDIT_GENERATED_(156)
  6
Continuous
 62
     7
100
AcDbCircle
 10
121.8148193438
 20
124.35
 30
0.0
 40
12.425
100
AcDbArc
 50
240.5735551306
 51
284.4264448694
  0
LINE
  5
15D
330
145
100
AcDbEntity
  8
$DDT_AUDIT_GENERATED_(156)
  6
Continuous
 62
     7
100
AcDbLine
 10
124.9103454538
 20
112.3167816814
 30
0.0
 11
124.963009541
 21
112.4079985563
 31
0.0
  0
LINE
  5
15E
330
145
100
AcDbEntity
  8
$DDT_AUDIT_GENERATED_(156)
  6
Continuous
 62
     7
100
AcDbLine
 10
125.0594073789
 20
112.4338282791
 30
0.0
 11
125.1506242538
 21
112.3811641918
 31
0.0
  0
ARC
  5
15F
330
145
100
AcDbEntity
  8
$DDT_AUDIT_GENERATED_(156)
  6
Continuous
 62
     7
100
AcDbCircle
 10
121.8148193438
 20
124.35
 30
0.0
 40
12.42500000000001
100
AcDbArc
 50
285.5735551306
 51
329.4264448694
  0
LINE
  5
160
330
145
100
AcDbEntity
  8
$DDT_AUDIT_GENERATED_(156)
  6
Continuous
 62
     7
100
AcDbLine
 10
132.51245712
 20
118.0300972311
 30
0.0
 11
132.4851961825
 21
118.1318364351
 31
0.0
  0
LINE
  5
161
330
145
100
AcDbEntity
  8
$DDT_AUDIT_GENERATED_(156)
  6
Continuous
 62
     7
100
AcDbLine
 10
132.5350953752
 20
118.2182643722
 30
0.0
 11
132.6368345792
 21
118.2455253097
 31
0.0
  0
ARC
  5
162
330
145
100
AcDbEntity
  8
$DDT_AUDIT_GENERATED_(156)
  6
Continuous
 62
     7
100
AcDbCircle
 10
121.8148193438
 20
124.35
 30
0.0
 40
12.425
100
AcDbArc
 50
330.5735551306
 51
14.4264448694
  0
LINE
  5
163
330
145
100
AcDbEntity
  8
$DDT_AUDIT_GENERATED_(156)
  6
Continuous
 62
     7
100
AcDbLine
 10
133.8480376624
 20
127.44552611
 30
0.0
 11
133.7568207875
 21
127.4981901972
 31
0.0
  0
LINE
  5
164
330
145
100
AcDbEntity
  8
$DDT_AUDIT_GENERATED_(156)
  6
Continuous
 62
     7
100
AcDbLine
 10
133.7309910647
 20
127.5945880351
 30
0.0
 11
133.7836551519
 21
127.68580491
 31
0.0
  0
ARC
  5
165
330
145
100
AcDbEntity
  8
$DDT_AUDIT_GENERATED_(156)
  6
Continuous
 62
     7
100
AcDbCircle
 10
121.8148193438
 20
124.35
 30
0.0
 40
12.425
100
AcDbArc
 50
15.5735551306
 51
59.4264448694
  0
LINE
  5
166
330
145
100
AcDbEntity
  8
$DDT_AUDIT_GENERATED_(156)
  6
Continuous
 62
     7
100
AcDbLine
 10
128.1347221127
 20
135.0476377763
 30
0.0
 11
128.0329829087
 21
135.0203768387
 31
0.0
  0
ARC
  5
167
330
145
100
AcDbEntity
  8
$DDT_AUDIT_GENERATED_(156)
  6
Continuous
 62
     7
100
AcDbCircle
 10
121.8148193438
 20
124.35
 30
0.0
 40
12.425
100
AcDbArc
 50
60.5735551306
 51
149.4264448694
  0
LINE
  5
168
330
145
100
AcDbEntity
  8
$DDT_AUDIT_GENERATED_(156)
  6
Continuous
 62
     7
100
AcDbLine
 10
111.1171815675
 20
130.6699027689
 30
0.0
 11
111.1444425051
 21
130.5681635649
 31
0.0
  0
LINE
  5
169
330
145
100
AcDbEntity
  8
$DDT_AUDIT_GENERATED_(156)
  6
Continuous
 62
     7
100
AcDbLine
 10
111.0945433123
 20
130.4817356278
 30
0.0
 11
110.9928041084
 21
130.4544746903
 31
0.0
  0
ARC
  5
16A
330
145
100
AcDbEntity
  8
$DDT_AUDIT_GENERATED_(156)
  6
Continuous
 62
     7
100
AcDbCircle
 10
121.8148193438
 20
124.35
 30
0.0
 40
12.425
100
AcDbArc
 50
150.5735551306
 51
194.4264448694
  0
LINE
  5
16B
330
145
100
AcDbEntity
  8
$DDT_AUDIT_GENERATED_(156)
  6
Continuous
 62
     7
100
AcDbLine
 10
109.7816010252
 20
121.25447389
 30
0.0
 11
109.8728179001
 21
121.2018098028
 31
0.0
  0
CIRCLE
  5
16C
330
145
100
AcDbEntity
  8
$DDT_AUDIT_GENERATED_(90)
  6
Continuous
 62
     7
100
AcDbCircle
 10
121.8148193438
 20
124.35
 30
0.0
 40
12.35
  0
LINE
  5
16D
330
145
100
AcDbEntity
  8
$DDT_AUDIT_GENERATED_(9B)
  6
Continuous
 62
     7
100
AcDbLine
 10
137.8148193438
 20
142.35
 30
0.0
 11
137.8148193438
 21
106.35
 31
0.0
  0
LINE
  5
16E
330
145
100
AcDbEntity
  8
$DDT_AUDIT_GENERATED_(9B)
  6
Continuous
 62
     7
100
AcDbLine
 10
105.8148193438
 20
142.35
 30
0.0
 11
105.8148193438
 21
106.35
 31
0.0
  0
LINE
  5
16F
330
145
100
AcDbEntity
  8
$DDT_AUDIT_GENERATED_(9B)
  6
Continuous
 62
     7
100
AcDbLine
 10
137.8148193438
 20
111.35
 30
0.0
 11
138.4648193438
 21
111.35
 31
0.0
  0
LINE
  5
170
330
145
100
AcDbEntity
  8
$DDT_AUDIT_GENERATED_(9B)
  6
Continuous
 62
     7
100
AcDbLine
 10
138.4648193438
 20
137.35
 30
0.0
 11
137.8148193438
 21
137.35
 31
0.0
  0
LINE
  5
171
330
145
100
AcDbEntity
  8
$DDT_AUDIT_GENERATED_(9B)
  6
Continuous
 62
     7
100
AcDbLine
 10
105.8148193438
 20
106.35
 30
0.0
 11
137.8148193438
 21
106.35
 31
0.0
  0
LINE
  5
172
330
145
100
AcDbEntity
  8
$DDT_AUDIT_GENERATED_(9B)
  6
Continuous
 62
     7
100
AcDbLine
 10
137.8148193438
 20
142.35
 30
0.0
 11
132.3148193438
 21
142.35
 31
0.0
  0
LINE
  5
173
330
145
100
AcDbEntity
  8
$DDT_AUDIT_GENERATED_(9B)
  6
Continuous
 62
     7
100
AcDbLine
 10
111.3148193438
 20
142.35
 30
0.0
 11
105.8148193438
 21
142.35
 31
0.0
  0
LINE
  5
174
330
145
100
AcDbEntity
  8
$DDT_AUDIT_GENERATED_(9B)
  6
Continuous
 62
     7
100
AcDbLine
 10
104.5648193438
 20
114.85
 30
0.0
 11
105.3148193438
 21
114.85
 31
0.0
  0
LINE
  5
175
330
145
100
AcDbEntity
  8
$DDT_AUDIT_GENERATED_(9B)
  6
Continuous
 62
     7
100
AcDbLine
 10
105.3148193438
 20
133.85
 30
0.0
 11
104.5648193438
 21
133.85
 31
0.0
  0
ARC
  5
176
330
145
100
AcDbEntity
  8
$DDT_AUDIT_GENERATED_(9B)
  6
Continuous
 62
     7
100
AcDbCircle
 10
105.3148193438
 20
114.35
 30
0.0
 40
0.5000000000000004
100
AcDbArc
 50
0.0
 51
90.0
  0
ARC
  5
177
330
145
100
AcDbEntity
  8
$DDT_AUDIT_GENERATED_(9B)
  6
Continuous
 62
     7
100
AcDbCircle
 10
105.3148193438
 20
134.35
 30
0.0
 40
0.5000000000000004
100
AcDbArc
 50
270.0
 51
0.0
  0
LINE
  5
178
330
145
100
AcDbEntity
  8
$DDT_AUDIT_GENERATED_(AB)
  6
Continuous
 62
     7
100
AcDbLine
 10
138.4648193438
 20
142.35
 30
0.0
 11
138.4648193438
 21
106.35
 31
0.0
  0
ARC
  5
179
330
145
100
AcDbEntity
  8
$DDT_AUDIT_GENERATED_(AB)
  6
Continuous
 62
     7
100
AcDbCircle
 10
175.2148193438
 20
124.35
 30
0.0
 40
15.4999999999564
100
AcDbArc
 50
317.9721867777
 51
319.4363665247
  0
ARC
  5
17A
330
145
100
AcDbEntity
  8
$DDT_AUDIT_GENERATED_(AB)
  6
Continuous
 62
     7
100
AcDbCircle
 10
175.2148193438
 20
124.35
 30
0.0
 40
15.50000000004979
100
AcDbArc
 50
40.5636334753
 51
42.0278132223
  0
ARC
  5
17B
330
145
100
AcDbEntity
  8
$DDT_AUDIT_GENERATED_(AB)
  6
Continuous
 62
     7
100
AcDbCircle
 10
175.2148193438
 20
124.35
 30
0.0
 40
15.5
100
AcDbArc
 50
42.0278132223
 51
317.9721867777
  0
LINE
  5
17C
330
145
100
AcDbEntity
  8
$DDT_AUDIT_GENERATED_(AB)
  6
Continuous
 62
     7
100
AcDbLine
 10
182.4504028443
 20
133.6044015116
 30
0.0
 11
186.6100825074
 21
133.6044015116
 31
0.0
  0
LINE
  5
17D
330
145
100
AcDbEntity
  8
$DDT_AUDIT_GENERATED_(AB)
  6
Continuous
 62
     7
100
AcDbLine
 10
186.6100825074
 20
115.0955984884
 30
0.0
 11
182.4504028443
 21
115.0955984884
 31
0.0
  0
LINE
  5
17E
330
145
100
AcDbEntity
  8
$DDT_AUDIT_GENERATED_(AB)
  6
Continuous
 62
     7
100
AcDbLine
 10
182.1529284855
 20
114.9966465069
 30
0.0
 11
182.1525202478
 21
114.9971968574
 31
0.0
  0
LINE
  5
17F
330
145
100
AcDbEntity
  8
$DDT_AUDIT_GENERATED_(AB)
  6
Continuous
 62
     7
100
AcDbLine
 10
182.1525202478
 20
133.7028031426
 30
0.0
 11
182.1529284855
 21
133.7033534931
 31
0.0
  0
LINE
  5
180
330
145
100
AcDbEntity
  8
$DDT_AUDIT_GENERATED_(AB)
  6
Continuous
 62
     7
100
AcDbLine
 10
147.1329619884
 20
112.85
 30
0.0
 11
164.4204902939
 21
112.85
 31
0.0
  0
LINE
  5
181
330
145
100
AcDbEntity
  8
$DDT_AUDIT_GENERATED_(AB)
  6
Continuous
 62
     7
100
AcDbLine
 10
164.4210229663
 20
135.85
 30
0.0
 11
147.1329619884
 21
135.85
 31
0.0
  0
ARC
  5
182
330
145
100
AcDbEntity
  8
$DDT_AUDIT_GENERATED_(AB)
  6
Continuous
 62
     7
100
AcDbCircle
 10
-353.7110756121
 20
124.35
 30
0.0
 40
500.0
100
AcDbArc
 50
357.9922294736
 51
358.5703162254
  0
ARC
  5
183
330
145
100
AcDbEntity
  8
$DDT_AUDIT_GENERATED_(AB)
  6
Continuous
 62
     7
100
AcDbCircle
 10
-353.7110756121
 20
124.35
 30
0.0
 40
499.9999999999999
100
AcDbArc
 50
1.4296837746
 51
2.0077705264
  0
LINE
  5
184
330
145
100
AcDbEntity
  8
$DDT_AUDIT_GENERATED_(AB)
  6
Continuous
 62
     7
100
AcDbLine
 10
138.4648193438
 20
106.35
 30
0.0
 11
145.4822737025
 21
106.35
 31
0.0
  0
LINE
  5
185
330
145
100
AcDbEntity
  8
$DDT_AUDIT_GENERATED_(AB)
  6
Continuous
 62
     7
100
AcDbLine
 10
145.4822737025
 20
142.35
 30
0.0
 11
138.4648193438
 21
142.35
 31
0.0
  0
ARC
  5
186
330
145
100
AcDbEntity
  8
$DDT_AUDIT_GENERATED_(AB)
  6
Continuous
 62
     7
100
AcDbCircle
 10
175.2148193438
 20
124.35
 30
0.0
 40
11.6450255670171
100
AcDbArc
 50
305.2788862822
 51
306.5672002125
  0
ARC
  5
187
330
145
100
AcDbEntity
  8
$DDT_AUDIT_GENERATED_(AB)
  6
Continuous
 62
     7
100
AcDbCircle
 10
175.2148193438
 20
124.35
 30
0.0
 40
11.6450255670171
100
AcDbArc
 50
53.4327997875
 51
54.7211137183
  0
ARC
  5
188
330
145
100
AcDbEntity
  8
$DDT_AUDIT_GENERATED_(AB)
  6
Continuous
 62
     7
100
AcDbCircle
 10
182.4504028443
 20
114.5956175269
 30
0.0
 40
0.5000000000000004
100
AcDbArc
 50
90.0
 51
126.5672002125
  0
ARC
  5
189
330
145
100
AcDbEntity
  8
$DDT_AUDIT_GENERATED_(AB)
  6
Continuous
 62
     7
100
AcDbCircle
 10
182.4504028443
 20
134.1043824731
 30
0.0
 40
0.5000000000000028
100
AcDbArc
 50
233.4327997875
 51
270.0
  0
ARC
  5
18A
330
145
100
AcDbEntity
  8
$DDT_AUDIT_GENERATED_(AB)
  6
Continuous
 62
     7
100
AcDbCircle
 10
186.6100825074
 20
114.5956175269
 30
0.0
 40
0.5000000000000088
100
AcDbArc
 50
319.4363665247
 51
0.0
  0
ARC
  5
18B
330
145
100
AcDbEntity
  8
$DDT_AUDIT_GENERATED_(AB)
  6
Continuous
 62
     7
100
AcDbCircle
 10
186.6100825074
 20
114.5956175269
 30
0.0
 40
0.5000000000000004
100
AcDbArc
 50
0.0
 51
90.0
  0
ARC
  5
18C
330
145
100
AcDbEntity
  8
$DDT_AUDIT_GENERATED_(AB)
  6
Continuous
 62
     7
100
AcDbCircle
 10
186.6100825074
 20
134.1043824731
 30
0.0
 40
0.5000000000000004
100
AcDbArc
 50
270.0
 51
0.0
  0
ARC
  5
18D
330
145
100
AcDbEntity
  8
$DDT_AUDIT_GENERATED_(AB)
  6
Continuous
 62
     7
100
AcDbCircle
 10
186.6100825074
 20
134.1043824731
 30
0.0
 40
0.5000000000000004
100
AcDbArc
 50
0.0
 51
40.5636334753
  0
ARC
  5
18E
330
145
100
AcDbEntity
  8
$DDT_AUDIT_GENERATED_(AB)
  6
Continuous
 62
     7
100
AcDbCircle
 10
145.4822737025
 20
106.85
 30
0.0
 40
0.5000000000000004
100
AcDbArc
 50
270.0
 51
357.9922294737
  0
ARC
  5
18F
330
145
100
AcDbEntity
  8
$DDT_AUDIT_GENERATED_(AB)
  6
Continuous
 62
     7
100
AcDbCircle
 10
145.4822737025
 20
141.85
 30
0.0
 40
0.5000000000000284
100
AcDbArc
 50
2.0077705263
 51
90.0
  0
ARC
  5
190
330
145
100
AcDbEntity
  8
$DDT_AUDIT_GENERATED_(AB)
  6
Continuous
 62
     7
100
AcDbCircle
 10
164.4804367945
 20
136.7652675591
 30
0.0
 40
0.9096562050649074
100
AcDbArc
 50
266.3053048483
 51
306.0925390559
  0
ARC
  5
191
330
145
100
AcDbEntity
  8
$DDT_AUDIT_GENERATED_(AB)
  6
Continuous
 62
     7
100
AcDbCircle
 10
164.4650864435
 20
111.9015273585
 30
0.0
 40
0.9452458699799721
100
AcDbArc
 50
55.6333149195
 51
92.6631309721
  0
ARC
  5
192
330
145
100
AcDbEntity
  8
$DDT_AUDIT_GENERATED_(AB)
  6
Continuous
 62
     7
100
AcDbCircle
 10
147.1329619884
 20
111.85
 30
0.0
 40
1.000000000000044
100
AcDbArc
 50
90.0
 51
178.5703162255
  0
ARC
  5
193
330
145
100
AcDbEntity
  8
$DDT_AUDIT_GENERATED_(AB)
  6
Continuous
 62
     7
100
AcDbCircle
 10
147.1329619884
 20
136.85
 30
0.0
 40
1.000000000000001
100
AcDbArc
 50
181.4296837745
 51
270.0
  0
ARC
  5
195
330
145
100
AcDbEntity
  8
$DDT_AUDIT_GENERATED_(194)
  6
Continuous
 62
     7
100
AcDbCircle
 10
175.2148193438
 20
124.35
 30
0.0
 40
13.37500000000001
100
AcDbArc
 50
54.1910391926
 51
305.8089608074
  0
ELLIPSE
  5
196
330
145
100
AcDbEntity
  8
$DDT_AUDIT_GENERATED_(194)
  6
Continuous
 62
     7
100
AcDbEllipse
 10
180.8338581176
 20
133.8604722413
 30
0.0
 11
1.2
 21
0.0
 31
0.0
210
0.0
220
0.0
230
1.0
 40
0.0087268678
 41
-1.218100449945632
 42
-0.0719821701390462
  0
LINE
  5
197
330
145
100
AcDbEntity
  8
$DDT_AUDIT_GENERATED_(194)
  6
Continuous
 62
     7
100
AcDbLine
 10
184.2372172095
 20
134.1267612319
 30
0.0
 11
182.0307506001
 21
133.8597190775
 31
0.0
  0
ARC
  5
198
330
145
100
AcDbEntity
  8
$DDT_AUDIT_GENERATED_(194)
  6
Continuous
 62
     7
100
AcDbCircle
 10
179.8184719991
 20
130.3591673686
 30
0.0
 40
5.812279029449043
100
AcDbArc
 50
40.4974596714
 51
56.3362250408
  0
ARC
  5
199
330
145
100
AcDbEntity
  8
$DDT_AUDIT_GENERATED_(194)
  6
Continuous
 62
     7
100
AcDbCircle
 10
179.6394243152
 20
118.5425587361
 30
0.0
 40
6.079539859294343
100
AcDbArc
 50
304.0143800062
 51
319.1527491023
  0
ELLIPSE
  5
19A
330
145
100
AcDbEntity
  8
$DDT_AUDIT_GENERATED_(194)
  6
Continuous
 62
     7
100
AcDbEllipse
 10
183.0403247271
 20
114.5724856043
 30
0.0
 11
-1.2
 21
0.0
 31
0.0
210
0.0
220
0.0
230
1.0
 40
0.0087268678
 41
1.943310460738021
 42
3.213574823728182
  0
LINE
  5
19B
330
145
100
AcDbEntity
  8
$DDT_AUDIT_GENERATED_(194)
  6
Continuous
 62
     7
100
AcDbLine
 10
182.0307506001
 20
114.8402809225
 30
0.0
 11
184.2372172095
 21
114.5732387681
 31
0.0
  0
ELLIPSE
  5
19C
330
145
100
AcDbEntity
  8
$DDT_AUDIT_GENERATED_(194)
  6
Continuous
 62
     7
100
AcDbEllipse
 10
183.0403247271
 20
134.1275143957
 30
0.0
 11
-1.199999999999993
 21
2.081668171172169E-14
 31
0.0
210
0.0
220
0.0
230
1.0
 40
0.0087268678
 41
3.069610483450826
 42
4.339874846441131
  0
ARC
  5
19D
330
145
100
AcDbEntity
  8
$DDT_AUDIT_GENERATED_(194)
  6
Continuous
 62
     7
100
AcDbCircle
 10
156.3805812823
 20
122.454300237
 30
0.0
 40
29.50782436605493
100
AcDbArc
 50
23.3238515214
 51
25.380598894
  0
ARC
  5
19E
330
145
100
AcDbEntity
  8
$DDT_AUDIT_GENERATED_(194)
  6
Continuous
 62
     7
100
AcDbCircle
 10
183.5860594944
 20
-32.406875768
 30
0.0
 40
166.5441798283525
100
AcDbArc
 50
90.0374937818
 51
90.5395767672
  0
ARC
  5
19F
330
145
100
AcDbEntity
  8
$DDT_AUDIT_GENERATED_(194)
  6
Continuous
 62
     7
100
AcDbCircle
 10
156.3805812807
 20
126.2456997637
 30
0.0
 40
29.50782436782147
100
AcDbArc
 50
334.6194011061
 51
336.6761484786
  0
ELLIPSE
  5
1A0
330
145
100
AcDbEntity
  8
$DDT_AUDIT_GENERATED_(194)
  6
Continuous
 62
     7
100
AcDbEllipse
 10
180.8338581176
 20
114.8395277587
 30
0.0
 11
1.2
 21
-2.775557561562891E-14
 31
0.0
210
0.0
220
0.0
230
1.0
 40
0.0087268678
 41
0.071982170138389
 42
1.218100449945253
  0
ARC
  5
1A1
330
145
100
AcDbEntity
  8
$DDT_AUDIT_GENERATED_(194)
  6
Continuous
 62
     7
100
AcDbCircle
 10
181.1437517907
 20
-102.3801557813
 30
0.0
 40
217.2295363549104
100
AcDbArc
 50
89.9724054621
 51
90.5586677413
  0
ARC
  5
1A2
330
145
100
AcDbEntity
  8
$DDT_AUDIT_GENERATED_(194)
  6
Continuous
 62
     7
100
AcDbCircle
 10
182.0084545685
 20
134.7730861615
 30
0.0
 40
0.643233250819404
100
AcDbArc
 50
241.4182452958
 51
270.820977776
  0
ARC
  5
1A3
330
145
100
AcDbEntity
  8
$DDT_AUDIT_GENERATED_(194)
  6
Continuous
 62
     7
100
AcDbCircle
 10
181.1436435208
 20
351.0567941716
 30
0.0
 40
217.2061748001004
100
AcDbArc
 50
269.4413007308
 51
270.0276260658
  0
ARC
  5
1A4
330
145
100
AcDbEntity
  8
$DDT_AUDIT_GENERATED_(194)
  6
Continuous
 62
     7
100
AcDbCircle
 10
179.0320900358
 20
134.1799013798
 30
0.0
 40
0.3190202191437676
100
AcDbArc
 50
260.4798978307
 51
268.8466877264
  0
ARC
  5
1A5
330
145
100
AcDbEntity
  8
$DDT_AUDIT_GENERATED_(194)
  6
Continuous
 62
     7
100
AcDbCircle
 10
179.0320900358
 20
134.1799013798
 30
0.0
 40
0.3190202191437676
100
AcDbArc
 50
242.2925284101
 51
248.5539970817
  0
ARC
  5
1A6
330
145
100
AcDbEntity
  8
$DDT_AUDIT_GENERATED_(194)
  6
Continuous
 62
     7
100
AcDbCircle
 10
179.0320900358
 20
114.5200986202
 30
0.0
 40
0.3190202191523391
100
AcDbArc
 50
91.1533122739
 51
117.7074715895
  0
ARC
  5
1A7
330
145
100
AcDbEntity
  8
$DDT_AUDIT_GENERATED_(194)
  6
Continuous
 62
     7
100
AcDbCircle
 10
183.5854641152
 20
280.9886495697
 30
0.0
 40
166.4259532665769
100
AcDbArc
 50
269.4602448955
 51
269.9626845555
  0
ARC
  5
1A8
330
145
100
AcDbEntity
  8
$DDT_AUDIT_GENERATED_(194)
  6
Continuous
 62
     7
100
AcDbCircle
 10
182.0084545685
 20
113.9269138385
 30
0.0
 40
0.6432332508540255
100
AcDbArc
 50
89.1790222236
 51
118.5817547034
  0
ARC
  5
1A9
330
145
100
AcDbEntity
  8
$DDT_AUDIT_GENERATED_(194)
  6
Continuous
 62
     7
100
AcDbCircle
 10
175.2148193438
 20
124.35
 30
0.0
 40
10.22609931771878
100
AcDbArc
 50
68.7864576435
 51
291.2129934666
  0
LINE
  5
1AA
330
145
100
AcDbEntity
  8
$DDT_AUDIT_GENERATED_(C2)
  6
Continuous
 62
     7
100
AcDbLine
 10
104.5648193438
 20
106.85
 30
0.0
 11
104.5648193438
 21
141.85
 31
0.0
  0
LINE
  5
1AB
330
145
100
AcDbEntity
  8
$DDT_AUDIT_GENERATED_(C2)
  6
Continuous
 62
     7
100
AcDbLine
 10
97.0648193438
 20
141.85
 30
0.0
 11
97.0648193438
 21
106.85
 31
0.0
  0
CIRCLE
  5
1AC
330
145
100
AcDbEntity
  8
$DDT_AUDIT_GENERATED_(C2)
  6
Continuous
 62
     7
100
AcDbCircle
 10
84.3648193438
 20
124.35
 30
0.0
 40
4.0
  0
LINE
  5
1AD
330
145
100
AcDbEntity
  8
$DDT_AUDIT_GENERATED_(C2)
  6
Continuous
 62
     7
100
AcDbLine
 10
78.1648193438
 20
137.35
 30
0.0
 11
78.1648193438
 21
111.35
 31
0.0
  0
LINE
  5
1AE
330
145
100
AcDbEntity
  8
$DDT_AUDIT_GENERATED_(C2)
  6
Continuous
 62
     7
100
AcDbLine
 10
78.6648193438
 20
110.85
 30
0.0
 11
96.5648193438
 21
110.85
 31
0.0
  0
LINE
  5
1AF
330
145
100
AcDbEntity
  8
$DDT_AUDIT_GENERATED_(C2)
  6
Continuous
 62
     7
100
AcDbLine
 10
96.5648193438
 20
137.85
 30
0.0
 11
78.6648193438
 21
137.85
 31
0.0
  0
LINE
  5
1B0
330
145
100
AcDbEntity
  8
$DDT_AUDIT_GENERATED_(C2)
  6
Continuous
 62
     7
100
AcDbLine
 10
97.5648193438
 20
106.35
 30
0.0
 11
104.0648193438
 21
106.35
 31
0.0
  0
LINE
  5
1B1
330
145
100
AcDbEntity
  8
$DDT_AUDIT_GENERATED_(C2)
  6
Continuous
 62
     7
100
AcDbLine
 10
104.0648193438
 20
142.35
 30
0.0
 11
97.5648193438
 21
142.35
 31
0.0
  0
ARC
  5
1B2
330
145
100
AcDbEntity
  8
$DDT_AUDIT_GENERATED_(C2)
  6
Continuous
 62
     7
100
AcDbCircle
 10
104.0648193438
 20
141.85
 30
0.0
 40
0.5000000000000004
100
AcDbArc
 50
0.0
 51
90.0
  0
ARC
  5
1B3
330
145
100
AcDbEntity
  8
$DDT_AUDIT_GENERATED_(C2)
  6
Continuous
 62
     7
100
AcDbCircle
 10
104.0648193438
 20
106.85
 30
0.0
 40
0.5000000000000004
100
AcDbArc
 50
270.0
 51
0.0
  0
ARC
  5
1B4
330
145
100
AcDbEntity
  8
$DDT_AUDIT_GENERATED_(C2)
  6
Continuous
 62
     7
100
AcDbCircle
 10
97.5648193438
 20
106.85
 30
0.0
 40
0.5000000000000004
100
AcDbArc
 50
180.0
 51
270.0
  0
ARC
  5
1B5
330
145
100
AcDbEntity
  8
$DDT_AUDIT_GENERATED_(C2)
  6
Continuous
 62
     7
100
AcDbCircle
 10
97.5648193438
 20
141.85
 30
0.0
 40
0.5000000000000004
100
AcDbArc
 50
90.0
 51
180.0
  0
ARC
  5
1B6
330
145
100
AcDbEntity
  8
$DDT_AUDIT_GENERATED_(C2)
  6
Continuous
 62
     7
100
AcDbCircle
 10
96.5648193438
 20
110.35
 30
0.0
 40
0.5000000000000004
100
AcDbArc
 50
0.0
 51
90.0
  0
ARC
  5
1B7
330
145
100
AcDbEntity
  8
$DDT_AUDIT_GENERATED_(C2)
  6
Continuous
 62
     7
100
AcDbCircle
 10
96.5648193438
 20
138.35
 30
0.0
 40
0.5000000000000004
100
AcDbArc
 50
270.0
 51
0.0
  0
ARC
  5
1B8
330
145
100
AcDbEntity
  8
$DDT_AUDIT_GENERATED_(C2)
  6
Continuous
 62
     7
100
AcDbCircle
 10
78.6648193438
 20
137.35
 30
0.0
 40
0.5000000000000004
100
AcDbArc
 50
90.0
 51
180.0
  0
ARC
  5
1B9
330
145
100
AcDbEntity
  8
$DDT_AUDIT_GENERATED_(C2)
  6
Continuous
 62
     7
100
AcDbCircle
 10
78.6648193438
 20
111.35
 30
0.0
 40
0.5000000000000004
100
AcDbArc
 50
180.0
 51
270.0
  0
LINE
  5
1BB
330
145
100
AcDbEntity
  8
$DDT_AUDIT_GENERATED_(1BA)
  6
Continuous
 62
     7
100
AcDbLine
 10
129.8558177921
 20
162.0890918306
 30
0.0
 11
129.8679810149
 21
163.4828591192
 31
0.0
  0
LINE
  5
1BC
330
145
100
AcDbEntity
  8
$DDT_AUDIT_GENERATED_(1BA)
  6
Continuous
 62
     7
100
AcDbLine
 10
129.8755484387
 20
164.35
 30
0.0
 11
129.8679810149
 21
163.4828591192
 31
0.0
  0
LINE
  5
1BD
330
145
100
AcDbEntity
  8
$DDT_AUDIT_GENERATED_(1BA)
  6
Continuous
 62
     7
100
AcDbLine
 10
127.3418427303
 20
163.4828591192
 30
0.0
 11
127.3342753065
 21
164.35
 31
0.0
  0
LINE
  5
1BE
330
145
100
AcDbEntity
  8
$DDT_AUDIT_GENERATED_(1BA)
  6
Continuous
 62
     7
100
AcDbLine
 10
127.3418427303
 20
163.4828591192
 30
0.0
 11
127.3540059532
 21
162.0890918306
 31
0.0
  0
LINE
  5
1BF
330
145
100
AcDbEntity
  8
$DDT_AUDIT_GENERATED_(1BA)
  6
Continuous
 62
     7
100
AcDbLine
 10
128.603958357
 20
160.85
 30
0.0
 11
128.6058653882
 21
160.85
 31
0.0
  0
ARC
  5
1C0
330
145
100
AcDbEntity
  8
$DDT_AUDIT_GENERATED_(1BA)
  6
Continuous
 62
     7
100
AcDbCircle
 10
128.6058653882
 20
162.1
 30
0.0
 40
1.249999999999999
100
AcDbArc
 50
270.1708200153
 51
359.5
  0
ARC
  5
1C1
330
145
100
AcDbEntity
  8
$DDT_AUDIT_GENERATED_(1BA)
  6
Continuous
 62
     7
100
AcDbCircle
 10
128.603958357
 20
162.1
 30
0.0
 40
1.249999999999999
100
AcDbArc
 50
180.5
 51
270.178771763
  0
CIRCLE
  5
1C2
330
145
100
AcDbEntity
  8
$DDT_AUDIT_GENERATED_(E9)
  6
Continuous
 62
     7
100
AcDbCircle
 10
121.8148193438
 20
124.35
 30
0.0
 40
12.23673564296996
  0
ENDBLK
  5
1C4
330
145
100
AcDbEntity
  8
0
100
AcDbBlockEnd
  0
ENDSEC
  0
SECTION
  2
ENTITIES
  0
INSERT
  5
5F
330
1F
100
AcDbEntity
  8
Default
100
AcDbBlockReference
  2
SEANNOT_GROUP
 10
0.0
 20
0.0
 30
0.0
  0
INSERT
  5
66
330
1F
100
AcDbEntity
  8
Default
100
AcDbBlockReference
  2
SEANNOT_GROUP1
 10
0.0
 20
0.0
 30
0.0
  0
INSERT
  5
6C
330
1F
100
AcDbEntity
  8
Default
100
AcDbBlockReference
  2
SEANNOT_GROUP2
 10
0.0
 20
0.0
 30
0.0
  0
INSERT
  5
72
330
1F
100
AcDbEntity
  8
Default
100
AcDbBlockReference
  2
SEANNOT_GROUP3
 10
0.0
 20
0.0
 30
0.0
  0
INSERT
  5
7C
330
1F
100
AcDbEntity
  8
Default
100
AcDbBlockReference
  2
SEANNOT_GROUP4
 10
0.0
 20
0.0
 30
0.0
  0
INSERT
  5
86
330
1F
100
AcDbEntity
  8
Default
100
AcDbBlockReference
  2
SE
 10
0.0
 20
0.0
 30
0.0
  0
INSERT
  5
FB
330
1F
100
AcDbEntity
  8
Default
100
AcDbBlockReference
  2
SE1
 10
0.0
 20
0.0
 30
0.0
  0
INSERT
  5
146
330
1F
100
AcDbEntity
  8
Default
100
AcDbBlockReference
  2
SE2
 10
0.0
 20
0.0
 30
0.0
  0
TEXT
  5
1C6
330
1F
100
AcDbEntity
  8
Default
  6
Continuous
 62
     7
100
AcDbText
 10
5.9362635081
 20
53.4225120485
 30
0.0
 40
10.0
  1
Grohe AG^J
  7
SEACAD_seiso_ttf
 11
5.9362635081
 21
63.4225120485
 31
0.0
100
AcDbText
 73
     3
  0
TEXT
  5
1C7
330
1F
100
AcDbEntity
  8
Default
  6
Continuous
 62
     7
100
AcDbText
 10
5.9362635081
 20
37.0588756849
 30
0.0
 40
10.0
  1
 
  7
SEACAD_seiso_ttf
 11
5.9362635081
 21
47.0588756849
 31
0.0
100
AcDbText
 73
     3
  0
TEXT
  5
1C8
330
1F
100
AcDbEntity
  8
Default
  6
Continuous
 62
     7
100
AcDbText
 10
5.9362635081
 20
20.6952393213
 30
0.0
 40
10.0
  1
ecn: 
  7
SEACAD_seiso_ttf
 11
5.9362635081
 21
30.6952393213
 31
0.0
100
AcDbText
 73
     3
  0
TEXT
  5
1C9
330
1F
100
AcDbEntity
  8
Default
  6
Continuous
 62
     7
100
AcDbText
 10
5.9362635081
 20
4.3316029576
 30
0.0
 40
10.0
  1
unit: mm
  7
SEACAD_seiso_ttf
 11
5.9362635081
 21
14.3316029576
 31
0.0
100
AcDbText
 73
     3
  0
LINE
  5
1CA
330
1F
100
AcDbEntity
  8
Default
  6
Continuous
 62
     7
100
AcDbLine
 10
0.0
 20
0.0
 30
0.0
 11
100.0
 21
0.0
 31
0.0
  0
LINE
  5
1CB
330
1F
100
AcDbEntity
  8
Default
  6
Continuous
 62
     7
100
AcDbLine
 10
0.0
 20
0.0
 30
0.0
 11
0.0
 21
100.0
 31
0.0
  0
TEXT
  5
1CC
330
1F
100
AcDbEntity
  8
Default
  6
Continuous
 62
     7
100
AcDbText
 10
24.3923665681
 20
-18.2375342018
 30
0.0
 40
10.0
  1
100 mm
  7
SEACAD_seiso_ttf
 11
24.3923665681
 21
-8.2375342018
 31
0.0
100
AcDbText
 73
     3
  0
TEXT
  5
1CD
330
1F
100
AcDbEntity
  8
Default
  6
Continuous
 62
     7
100
AcDbText
 10
-7.6150308803
 20
24.6231930421
 30
0.0
 40
10.0
  1
100 mm
 50
90.0
  7
SEACAD_seiso_ttf
 11
-17.6150308803
 21
24.6231930421
 31
0.0
100
AcDbText
 73
     3
  0
TEXT
  5
1CE
330
1F
100
AcDbEntity
  8
Default
  6
Continuous
 62
     7
100
AcDbText
 10
28.4878128572
 20
20.0907663715
 30
0.0
 40
10.0
  1
216874
  7
SEACAD_seiso_ttf
 11
28.4878128572
 21
30.0907663715
 31
0.0
100
AcDbText
 73
     3
  0
TEXT
  5
1CF
330
1F
100
AcDbEntity
  8
Default
  6
Continuous
 62
     7
100
AcDbText
 10
5.9012241913
 20
36.7242780188
 30
0.0
 40
10.0
  1
28819001
  7
SEACAD_seiso_ttf
 11
5.9012241913
 21
46.7242780188
 31
0.0
100
AcDbText
 73
     3
  0
ENDSEC
  0
SECTION
  2
OBJECTS
  0
DICTIONARY
  5
C
330
0
100
AcDbDictionary
281
     1
  3
ACAD_GROUP
350
D
  3
ACAD_LAYOUT
350
1A
  3
ACAD_MLEADERSTYLE
350
1D3
  3
ACAD_MLINESTYLE
350
17
  3
ACAD_PLOTSETTINGS
350
19
  3
ACAD_PLOTSTYLENAME
350
E
  3
ACAD_SCALELIST
350
3B
  3
ACAD_TABLESTYLE
350
1D2
  3
ACAD_VISUALSTYLE
350
2A
  3
AcDbVariableDictionary
350
1D0
  0
DICTIONARY
  5
D
102
{ACAD_REACTORS
330
C
102
}
330
C
100
AcDbDictionary
281
     1
  0
DICTIONARY
  5
1A
102
{ACAD_REACTORS
330
C
102
}
330
C
100
AcDbDictionary
281
     1
  3
Layout1
350
1E
  3
Model
350
22
  0
DICTIONARY
  5
1D3
102
{ACAD_REACTORS
330
C
102
}
330
C
100
AcDbDictionary
281
     1
  0
DICTIONARY
  5
17
102
{ACAD_REACTORS
330
C
102
}
330
C
100
AcDbDictionary
281
     1
  3
Standard
350
18
  0
DICTIONARY
  5
19
102
{ACAD_REACTORS
330
C
102
}
330
C
100
AcDbDictionary
281
     1
  0
ACDBDICTIONARYWDFLT
  5
E
102
{ACAD_REACTORS
330
C
102
}
330
C
100
AcDbDictionary
281
     1
  3
Normal
350
F
100
AcDbDictionaryWithDefault
340
F
  0
DICTIONARY
  5
3B
102
{ACAD_REACTORS
330
C
102
}
330
C
100
AcDbDictionary
281
     1
  3
A0
350
3C
  3
A1
350
3D
  3
A2
350
3E
  3
A3
350
3F
  3
A4
350
40
  3
A5
350
41
  3
A6
350
42
  3
A7
350
43
  3
A8
350
44
  3
A9
350
45
  3
B0
350
46
  3
B1
350
47
  3
B2
350
48
  3
B3
350
49
  3
B4
350
4A
  3
B5
350
4B
  3
B6
350
4C
  3
B7
350
4D
  3
B8
350
4E
  3
B9
350
4F
  3
C0
350
50
  3
C1
350
51
  3
C2
350
52
  3
C3
350
53
  3
C4
350
54
  3
C5
350
55
  3
C6
350
56
  3
C7
350
57
  3
C8
350
58
  3
C9
350
59
  3
D0
350
5A
  3
D1
350
5B
  3
D2
350
5C
  0
DICTIONARY
  5
1D2
102
{ACAD_REACTORS
330
C
102
}
330
C
100
AcDbDictionary
281
     1
  0
DICTIONARY
  5
2A
102
{ACAD_REACTORS
330
C
102
}
330
C
100
AcDbDictionary
281
     1
  3
2dWireframe
350
2F
  3
3D Hidden
350
31
  3
3dWireframe
350
30
  3
Basic
350
32
  3
Brighten
350
36
  3
ColorChange
350
3A
  3
Conceptual
350
34
  3
Dim
350
35
  3
Facepattern
350
39
  3
Flat
350
2B
  3
FlatWithEdges
350
2C
  3
Gouraud
350
2D
  3
GouraudWithEdges
350
2E
  3
Linepattern
350
38
  3
Realistic
350
33
  3
Thicken
350
37
  0
DICTIONARY
  5
1D0
102
{ACAD_REACTORS
330
C
102
}
330
C
100
AcDbDictionary
281
     1
  3
CANNOSCALE
350
1D1
  3
PSOLHEIGHT
350
1D5
  3
PSOLWIDTH
350
1D4
  0
LAYOUT
  5
1E
102
{ACAD_REACTORS
330
1A
102
}
330
1A
100
AcDbPlotSettings
  1

  2
none_device
  4

  6

 40
0.0
 41
0.0
 42
0.0
 43
0.0
 44
0.0
 45
0.0
 46
0.0
 47
0.0
 48
0.0
 49
0.0
140
0.0
141
0.0
142
1.0
143
1.0
 70
   688
 72
     0
 73
     0
 74
     5
  7

 75
    16
147
1.0
148
0.0
149
0.0
100
AcDbLayout
  1
Layout1
 70
     1
 71
     1
 10
0.0
 20
0.0
 11
1682.0
 21
2378.0
 12
0.0
 22
0.0
 32
0.0
 14
0.0
 24
0.0
 34
0.0
 15
1682.0
 25
2378.0
 35
0.0
146
0.0
 13
0.0
 23
0.0
 33
0.0
 16
1.0
 26
0.0
 36
0.0
 17
0.0
 27
1.0
 37
0.0
 76
     0
330
1B
  0
LAYOUT
  5
22
102
{ACAD_REACTORS
330
1A
102
}
330
1A
100
AcDbPlotSettings
  1

  2
none_device
  4

  6

 40
0.0
 41
0.0
 42
0.0
 43
0.0
 44
0.0
 45
0.0
 46
0.0
 47
0.0
 48
0.0
 49
0.0
140
0.0
141
0.0
142
1.0
143
1.0
 70
  1712
 72
     0
 73
     0
 74
     0
  7

 75
     0
147
1.0
148
0.0
149
0.0
100
AcDbLayout
  1
Model
 70
     1
 71
     0
 10
0.0
 20
0.0
 11
1682.0
 21
2378.0
 12
0.0
 22
0.0
 32
0.0
 14
0.0
 24
0.0
 34
0.0
 15
1682.0
 25
2378.0
 35
0.0
146
0.0
 13
0.0
 23
0.0
 33
0.0
 16
1.0
 26
0.0
 36
0.0
 17
0.0
 27
1.0
 37
0.0
 76
     0
330
1F
331
29
  0
MLINESTYLE
  5
18
102
{ACAD_REACTORS
330
17
102
}
330
17
100
AcDbMlineStyle
  2
Standard
 70
     0
  3

 62
   256
 51
90.0
 52
90.0
 71
     2
 49
0.5
 62
   256
  6
BYLAYER
 49
-0.5
 62
   256
  6
BYLAYER
  0
ACDBPLACEHOLDER
  5
F
102
{ACAD_REACTORS
330
E
102
}
330
E
  0
SCALE
  5
3C
102
{ACAD_REACTORS
330
3B
102
}
330
3B
100
AcDbScale
 70
     0
300
1:1
140
1.0
141
1.0
290
     1
  0
SCALE
  5
3D
102
{ACAD_REACTORS
330
3B
102
}
330
3B
100
AcDbScale
 70
     0
300
1:2
140
1.0
141
2.0
290
     0
  0
SCALE
  5
3E
102
{ACAD_REACTORS
330
3B
102
}
330
3B
100
AcDbScale
 70
     0
300
1:4
140
1.0
141
4.0
290
     0
  0
SCALE
  5
3F
102
{ACAD_REACTORS
330
3B
102
}
330
3B
100
AcDbScale
 70
     0
300
1:5
140
1.0
141
5.0
290
     0
  0
SCALE
  5
40
102
{ACAD_REACTORS
330
3B
102
}
330
3B
100
AcDbScale
 70
     0
300
1:8
140
1.0
141
8.0
290
     0
  0
SCALE
  5
41
102
{ACAD_REACTORS
330
3B
102
}
330
3B
100
AcDbScale
 70
     0
300
1:10
140
1.0
141
10.0
290
     0
  0
SCALE
  5
42
102
{ACAD_REACTORS
330
3B
102
}
330
3B
100
AcDbScale
 70
     0
300
1:16
140
1.0
141
16.0
290
     0
  0
SCALE
  5
43
102
{ACAD_REACTORS
330
3B
102
}
330
3B
100
AcDbScale
 70
     0
300
1:20
140
1.0
141
20.0
290
     0
  0
SCALE
  5
44
102
{ACAD_REACTORS
330
3B
102
}
330
3B
100
AcDbScale
 70
     0
300
1:30
140
1.0
141
30.0
290
     0
  0
SCALE
  5
45
102
{ACAD_REACTORS
330
3B
102
}
330
3B
100
AcDbScale
 70
     0
300
1:40
140
1.0
141
40.0
290
     0
  0
SCALE
  5
46
102
{ACAD_REACTORS
330
3B
102
}
330
3B
100
AcDbScale
 70
     0
300
1:50
140
1.0
141
50.0
290
     0
  0
SCALE
  5
47
102
{ACAD_REACTORS
330
3B
102
}
330
3B
100
AcDbScale
 70
     0
300
1:100
140
1.0
141
100.0
290
     0
  0
SCALE
  5
48
102
{ACAD_REACTORS
330
3B
102
}
330
3B
100
AcDbScale
 70
     0
300
2:1
140
2.0
141
1.0
290
     0
  0
SCALE
  5
49
102
{ACAD_REACTORS
330
3B
102
}
330
3B
100
AcDbScale
 70
     0
300
4:1
140
4.0
141
1.0
290
     0
  0
SCALE
  5
4A
102
{ACAD_REACTORS
330
3B
102
}
330
3B
100
AcDbScale
 70
     0
300
8:1
140
8.0
141
1.0
290
     0
  0
SCALE
  5
4B
102
{ACAD_REACTORS
330
3B
102
}
330
3B
100
AcDbScale
 70
     0
300
10:1
140
10.0
141
1.0
290
     0
  0
SCALE
  5
4C
102
{ACAD_REACTORS
330
3B
102
}
330
3B
100
AcDbScale
 70
     0
300
100:1
140
100.0
141
1.0
290
     0
  0
SCALE
  5
4D
102
{ACAD_REACTORS
330
3B
102
}
330
3B
100
AcDbScale
 70
     0
300
1/128" = 1'-0"
140
0.0078125
141
12.0
290
     0
  0
SCALE
  5
4E
102
{ACAD_REACTORS
330
3B
102
}
330
3B
100
AcDbScale
 70
     0
300
1/64" = 1'-0"
140
0.015625
141
12.0
290
     0
  0
SCALE
  5
4F
102
{ACAD_REACTORS
330
3B
102
}
330
3B
100
AcDbScale
 70
     0
300
1/32" = 1'-0"
140
0.03125
141
12.0
290
     0
  0
SCALE
  5
50
102
{ACAD_REACTORS
330
3B
102
}
330
3B
100
AcDbScale
 70
     0
300
1/16" = 1'-0"
140
0.0625
141
12.0
290
     0
  0
SCALE
  5
51
102
{ACAD_REACTORS
330
3B
102
}
330
3B
100
AcDbScale
 70
     0
300
3/32" = 1'-0"
140
0.09375
141
12.0
290
     0
  0
SCALE
  5
52
102
{ACAD_REACTORS
330
3B
102
}
330
3B
100
AcDbScale
 70
     0
300
1/8" = 1'-0"
140
0.125
141
12.0
290
     0
  0
SCALE
  5
53
102
{ACAD_REACTORS
330
3B
102
}
330
3B
100
AcDbScale
 70
     0
300
3/16" = 1'-0"
140
0.1875
141
12.0
290
     0
  0
SCALE
  5
54
102
{ACAD_REACTORS
330
3B
102
}
330
3B
100
AcDbScale
 70
     0
300
1/4" = 1'-0"
140
0.25
141
12.0
290
     0
  0
SCALE
  5
55
102
{ACAD_REACTORS
330
3B
102
}
330
3B
100
AcDbScale
 70
     0
300
3/8" = 1'-0"
140
0.375
141
12.0
290
     0
  0
SCALE
  5
56
102
{ACAD_REACTORS
330
3B
102
}
330
3B
100
AcDbScale
 70
     0
300
1/2" = 1'-0"
140
0.5
141
12.0
290
     0
  0
SCALE
  5
57
102
{ACAD_REACTORS
330
3B
102
}
330
3B
100
AcDbScale
 70
     0
300
3/4" = 1'-0"
140
0.75
141
12.0
290
     0
  0
SCALE
  5
58
102
{ACAD_REACTORS
330
3B
102
}
330
3B
100
AcDbScale
 70
     0
300
1" = 1'-0"
140
1.0
141
12.0
290
     0
  0
SCALE
  5
59
102
{ACAD_REACTORS
330
3B
102
}
330
3B
100
AcDbScale
 70
     0
300
1-1/2" = 1'-0"
140
1.5
141
12.0
290
     0
  0
SCALE
  5
5A
102
{ACAD_REACTORS
330
3B
102
}
330
3B
100
AcDbScale
 70
     0
300
3" = 1'-0"
140
3.0
141
12.0
290
     0
  0
SCALE
  5
5B
102
{ACAD_REACTORS
330
3B
102
}
330
3B
100
AcDbScale
 70
     0
300
6" = 1'-0"
140
6.0
141
12.0
290
     0
  0
SCALE
  5
5C
102
{ACAD_REACTORS
330
3B
102
}
330
3B
100
AcDbScale
 70
     0
300
1'-0" = 1'-0"
140
12.0
141
12.0
290
     0
  0
VISUALSTYLE
  5
2F
102
{ACAD_REACTORS
330
2A
102
}
330
2A
100
AcDbVisualStyle
  2
2dWireframe
 70
     4
 71
     0
 72
     2
 73
     0
 90
        0
 40
-0.6
 41
-30.0
 62
     5
 63
     7
 74
     1
 91
        4
 64
     7
 65
   257
 75
     1
175
     1
 42
1.0
 92
        0
 66
   257
 43
1.0
 76
     1
 77
     6
 78
     2
 67
     7
 79
     5
170
     0
171
     0
290
     0
174
     0
 93
        1
 44
0.0
173
     0
291
     0
 45
0.0
1001
ACAD
1000
AcDbSavedByObjectVersion
1070
     0
  0
VISUALSTYLE
  5
31
102
{ACAD_REACTORS
330
2A
102
}
330
2A
100
AcDbVisualStyle
  2
3D Hidden
 70
     6
 71
     1
 72
     2
 73
     2
 90
        0
 40
-0.6
 41
-30.0
 62
     5
 63
     7
 74
     2
 91
        2
 64
     7
 65
   257
 75
     2
175
     1
 42
40.0
 92
        0
 66
   257
 43
1.0
 76
     1
 77
     6
 78
     2
 67
     7
 79
     3
170
     0
171
     0
290
     0
174
     0
 93
        1
 44
0.0
173
     0
291
     0
 45
0.0
1001
ACAD
1000
AcDbSavedByObjectVersion
1070
     0
  0
VISUALSTYLE
  5
30
102
{ACAD_REACTORS
330
2A
102
}
330
2A
100
AcDbVisualStyle
  2
3dWireframe
 70
     5
 71
     0
 72
     2
 73
     0
 90
        0
 40
-0.6
 41
-30.0
 62
     5
 63
     7
 74
     1
 91
        4
 64
     7
 65
   257
 75
     1
175
     1
 42
1.0
 92
        0
 66
   257
 43
1.0
 76
     1
 77
     6
 78
     2
 67
     7
 79
     5
170
     0
171
     0
290
     0
174
     0
 93
        1
 44
0.0
173
     0
291
     0
 45
0.0
1001
ACAD
1000
AcDbSavedByObjectVersion
1070
     0
  0
VISUALSTYLE
  5
32
102
{ACAD_REACTORS
330
2A
102
}
330
2A
100
AcDbVisualStyle
  2
Basic
 70
     7
 71
     1
 72
     0
 73
     1
 90
        0
 40
-0.6
 41
-30.0
 62
     5
 63
     7
 74
     0
 91
        4
 64
     7
 65
   257
 75
     1
175
     1
 42
1.0
 92
        8
 66
     7
 43
1.0
 76
     1
 77
     6
 78
     2
 67
     7
 79
     5
170
     0
171
     0
290
     0
174
     0
 93
        1
 44
0.0
173
     0
291
     1
 45
0.0
1001
ACAD
1000
AcDbSavedByObjectVersion
1070
     0
  0
VISUALSTYLE
  5
36
102
{ACAD_REACTORS
330
2A
102
}
330
2A
100
AcDbVisualStyle
  2
Brighten
 70
    12
 71
     2
 72
     2
 73
     0
 90
        0
 40
-0.6
 41
-30.0
 62
     5
 63
     7
 74
     1
 91
        4
 64
     7
 65
   257
 75
     1
175
     1
 42
1.0
 92
        8
 66
     7
 43
1.0
 76
     1
 77
     6
 78
     2
 67
     7
 79
     5
170
     0
171
     0
290
     0
174
     0
 93
        1
 44
50.0
173
     0
291
     1
 45
0.0
1001
ACAD
1000
AcDbSavedByObjectVersion
1070
     0
  0
VISUALSTYLE
  5
3A
102
{ACAD_REACTORS
330
2A
102
}
330
2A
100
AcDbVisualStyle
  2
ColorChange
 70
    16
 71
     2
 72
     2
 73
     3
 90
        0
 40
-0.6
 41
-30.0
 62
     5
 63
     8
 74
     1
 91
        4
 64
     7
 65
   257
 75
     1
175
     1
 42
1.0
 92
        8
 66
     8
 43
1.0
 76
     1
 77
     6
 78
     2
 67
     7
 79
     5
170
     0
171
     0
290
     0
174
     0
 93
        1
 44
0.0
173
     0
291
     1
 45
0.0
1001
ACAD
1000
AcDbSavedByObjectVersion
1070
     0
  0
VISUALSTYLE
  5
34
102
{ACAD_REACTORS
330
2A
102
}
330
2A
100
AcDbVisualStyle
  2
Conceptual
 70
     9
 71
     3
 72
     2
 73
     0
 90
        0
 40
-0.6
 41
-30.0
 62
     5
 63
     7
 74
     2
 91
        2
 64
     7
 65
   257
 75
     1
175
     1
 42
40.0
 92
        8
 66
     7
 43
1.0
 76
     1
 77
     6
 78
     2
 67
     7
 79
     3
170
     0
171
     0
290
     0
174
     0
 93
        1
 44
0.0
173
     0
291
     0
 45
0.0
1001
ACAD
1000
AcDbSavedByObjectVersion
1070
     0
  0
VISUALSTYLE
  5
35
102
{ACAD_REACTORS
330
2A
102
}
330
2A
100
AcDbVisualStyle
  2
Dim
 70
    11
 71
     2
 72
     2
 73
     0
 90
        0
 40
-0.6
 41
-30.0
 62
     5
 63
     7
 74
     1
 91
        4
 64
     7
 65
   257
 75
     1
175
     1
 42
1.0
 92
        8
 66
     7
 43
1.0
 76
     1
 77
     6
 78
     2
 67
     7
 79
     5
170
     0
171
     0
290
     0
174
     0
 93
        1
 44
-50.0
173
     0
291
     1
 45
0.0
1001
ACAD
1000
AcDbSavedByObjectVersion
1070
     0
  0
VISUALSTYLE
  5
39
102
{ACAD_REACTORS
330
2A
102
}
330
2A
100
AcDbVisualStyle
  2
Facepattern
 70
    15
 71
     2
 72
     2
 73
     0
 90
        0
 40
-0.6
 41
-30.0
 62
     5
 63
     7
 74
     1
 91
        4
 64
     7
 65
   257
 75
     1
175
     1
 42
1.0
 92
        8
 66
     7
 43
1.0
 76
     1
 77
     6
 78
     2
 67
     7
 79
     5
170
     0
171
     0
290
     0
174
     0
 93
        1
 44
0.0
173
     0
291
     1
 45
0.0
1001
ACAD
1000
AcDbSavedByObjectVersion
1070
     0
  0
VISUALSTYLE
  5
2B
102
{ACAD_REACTORS
330
2A
102
}
330
2A
100
AcDbVisualStyle
  2
Flat
 70
     0
 71
     2
 72
     1
 73
     1
 90
        2
 40
-0.6
 41
30.0
 62
     5
 63
     7
 74
     0
 91
        4
 64
     7
 65
   257
 75
     1
175
     1
 42
1.0
 92
        8
 66
     7
 43
1.0
 76
     1
 77
     6
 78
     2
 67
     7
 79
     5
170
     0
171
     0
290
     0
174
     0
 93
       13
 44
0.0
173
     0
291
     1
 45
0.0
1001
ACAD
1000
AcDbSavedByObjectVersion
1070
     0
  0
VISUALSTYLE
  5
2C
102
{ACAD_REACTORS
330
2A
102
}
330
2A
100
AcDbVisualStyle
  2
FlatWithEdges
 70
     1
 71
     2
 72
     1
 73
     1
 90
        2
 40
-0.6
 41
30.0
 62
     5
 63
     7
 74
     1
 91
        4
 64
     7
 65
   257
 75
     1
175
     1
 42
1.0
 92
        0
 66
   257
 43
1.0
 76
     1
 77
     6
 78
     2
 67
     7
 79
     5
170
     0
171
     0
290
     0
174
     0
 93
       13
 44
0.0
173
     0
291
     1
 45
0.0
1001
ACAD
1000
AcDbSavedByObjectVersion
1070
     0
  0
VISUALSTYLE
  5
2D
102
{ACAD_REACTORS
330
2A
102
}
330
2A
100
AcDbVisualStyle
  2
Gouraud
 70
     2
 71
     2
 72
     2
 73
     1
 90
        2
 40
-0.6
 41
30.0
 62
     5
 63
     7
 74
     0
 91
        4
 64
     7
 65
   257
 75
     1
175
     1
 42
1.0
 92
        0
 66
     7
 43
1.0
 76
     1
 77
     6
 78
     2
 67
     7
 79
     5
170
     0
171
     0
290
     0
174
     0
 93
       13
 44
0.0
173
     0
291
     1
 45
0.0
1001
ACAD
1000
AcDbSavedByObjectVersion
1070
     0
  0
VISUALSTYLE
  5
2E
102
{ACAD_REACTORS
330
2A
102
}
330
2A
100
AcDbVisualStyle
  2
GouraudWithEdges
 70
     3
 71
     2
 72
     2
 73
     1
 90
        2
 40
-0.6
 41
30.0
 62
     5
 63
     7
 74
     1
 91
        4
 64
     7
 65
   257
 75
     1
175
     1
 42
1.0
 92
        0
 66
   257
 43
1.0
 76
     1
 77
     6
 78
     2
 67
     7
 79
     5
170
     0
171
     0
290
     0
174
     0
 93
       13
 44
0.0
173
     0
291
     1
 45
0.0
1001
ACAD
1000
AcDbSavedByObjectVersion
1070
     0
  0
VISUALSTYLE
  5
38
102
{ACAD_REACTORS
330
2A
102
}
330
2A
100
AcDbVisualStyle
  2
Linepattern
 70
    14
 71
     2
 72
     2
 73
     0
 90
        0
 40
-0.6
 41
-30.0
 62
     5
 63
     7
 74
     1
 91
        4
 64
     7
 65
   257
 75
     7
175
     7
 42
1.0
 92
        8
 66
     7
 43
1.0
 76
     1
 77
     6
 78
     2
 67
     7
 79
     5
170
     0
171
     0
290
     0
174
     0
 93
        1
 44
0.0
173
     0
291
     1
 45
0.0
1001
ACAD
1000
AcDbSavedByObjectVersion
1070
     0
  0
VISUALSTYLE
  5
33
102
{ACAD_REACTORS
330
2A
102
}
330
2A
100
AcDbVisualStyle
  2
Realistic
 70
     8
 71
     2
 72
     2
 73
     0
 90
        0
 40
-0.6
 41
-30.0
 62
     5
 63
     7
 74
     1
 91
        0
 64
     7
 65
   257
 75
     1
175
     1
 42
1.0
 92
        8
 66
     8
 43
1.0
 76
     1
 77
     6
 78
     2
 67
     7
 79
     5
170
     0
171
     0
290
     0
174
     0
 93
       13
 44
0.0
173
     0
291
     0
 45
0.0
1001
ACAD
1000
AcDbSavedByObjectVersion
1070
     0
  0
VISUALSTYLE
  5
37
102
{ACAD_REACTORS
330
2A
102
}
330
2A
100
AcDbVisualStyle
  2
Thicken
 70
    13
 71
     2
 72
     2
 73
     0
 90
        0
 40
-0.6
 41
-30.0
 62
     5
 63
     7
 74
     1
 91
        4
 64
     7
 65
   257
 75
     1
175
     1
 42
1.0
 92
       12
 66
     7
 43
1.0
 76
     1
 77
     6
 78
     2
 67
     7
 79
     5
170
     0
171
     0
290
     0
174
     0
 93
        1
 44
0.0
173
     0
291
     1
 45
0.0
1001
ACAD
1000
AcDbSavedByObjectVersion
1070
     0
  0
DICTIONARYVAR
  5
1D1
102
{ACAD_REACTORS
330
1D0
102
}
330
1D0
100
DictionaryVariables
280
     0
  1
1:1
  0
DICTIONARYVAR
  5
1D5
102
{ACAD_REACTORS
330
1D0
102
}
330
1D0
100
DictionaryVariables
280
     0
  1
80.000000
  0
DICTIONARYVAR
  5
1D4
102
{ACAD_REACTORS
330
1D0
102
}
330
1D0
100
DictionaryVariables
280
     0
  1
5.000000
  0
ENDSEC
  0
EOF
