  0
SECTION
  2
HEADER
  9
$ACADVER
  1
AC1015
  9
$ACADMAINTVER
 70
     6
  9
$DWGCODEPAGE
  3
ANSI_1252
  9
$INSBASE
 10
0.0
 20
0.0
 30
0.0
  9
$EXTMIN
 10
0.0
 20
0.0
 30
0.0
  9
$EXTMAX
 10
1682.0
 20
2378.0
 30
0.0
  9
$LIMMIN
 10
0.0
 20
0.0
  9
$LIMMAX
 10
1682.0
 20
2378.0
  9
$ORTHOMODE
 70
     0
  9
$REGENMODE
 70
     1
  9
$FILLMODE
 70
     1
  9
$QTEXTMODE
 70
     0
  9
$MIRRTEXT
 70
     1
  9
$LTSCALE
 40
1.0
  9
$ATTMODE
 70
     1
  9
$TEXTSIZE
 40
2.5
  9
$TRACEWID
 40
1.0
  9
$TEXTSTYLE
  7
Standard
  9
$CLAYER
  8
0
  9
$CELTYPE
  6
ByLayer
  9
$CECOLOR
 62
   256
  9
$CELTSCALE
 40
1.0
  9
$DISPSILH
 70
     0
  9
$DIMSCALE
 40
1.0
  9
$DIMASZ
 40
2.5
  9
$DIMEXO
 40
0.625
  9
$DIMDLI
 40
3.75
  9
$DIMRND
 40
0.0
  9
$DIMDLE
 40
0.0
  9
$DIMEXE
 40
1.25
  9
$DIMTP
 40
0.0
  9
$DIMTM
 40
0.0
  9
$DIMTXT
 40
2.5
  9
$DIMCEN
 40
2.5
  9
$DIMTSZ
 40
0.0
  9
$DIMTOL
 70
     0
  9
$DIMLIM
 70
     0
  9
$DIMTIH
 70
     0
  9
$DIMTOH
 70
     0
  9
$DIMSE1
 70
     0
  9
$DIMSE2
 70
     0
  9
$DIMTAD
 70
     1
  9
$DIMZIN
 70
     8
  9
$DIMBLK
  1

  9
$DIMASO
 70
     1
  9
$DIMSHO
 70
     1
  9
$DIMPOST
  1

  9
$DIMAPOST
  1

  9
$DIMALT
 70
     0
  9
$DIMALTD
 70
     3
  9
$DIMALTF
 40
0.0393700787
  9
$DIMLFAC
 40
1.0
  9
$DIMTOFL
 70
     1
  9
$DIMTVP
 40
0.0
  9
$DIMTIX
 70
     0
  9
$DIMSOXD
 70
     0
  9
$DIMSAH
 70
     0
  9
$DIMBLK1
  1

  9
$DIMBLK2
  1

  9
$DIMSTYLE
  2
ISO-25
  9
$DIMCLRD
 70
     0
  9
$DIMCLRE
 70
     0
  9
$DIMCLRT
 70
     0
  9
$DIMTFAC
 40
1.0
  9
$DIMGAP
 40
0.625
  9
$DIMJUST
 70
     0
  9
$DIMSD1
 70
     0
  9
$DIMSD2
 70
     0
  9
$DIMTOLJ
 70
     0
  9
$DIMTZIN
 70
     8
  9
$DIMALTZ
 70
     0
  9
$DIMALTTZ
 70
     0
  9
$DIMUPT
 70
     0
  9
$DIMDEC
 70
     2
  9
$DIMTDEC
 70
     2
  9
$DIMALTU
 70
     2
  9
$DIMALTTD
 70
     3
  9
$DIMTXSTY
  7
Standard
  9
$DIMAUNIT
 70
     0
  9
$DIMADEC
 70
     0
  9
$DIMALTRND
 40
0.0
  9
$DIMAZIN
 70
     0
  9
$DIMDSEP
 70
    44
  9
$DIMATFIT
 70
     3
  9
$DIMFRAC
 70
     0
  9
$DIMLDRBLK
  1

  9
$DIMLUNIT
 70
     2
  9
$DIMLWD
 70
    -2
  9
$DIMLWE
 70
    -2
  9
$DIMTMOVE
 70
     0
  9
$LUNITS
 70
     2
  9
$LUPREC
 70
     4
  9
$SKETCHINC
 40
1.0
  9
$FILLETRAD
 40
10.0
  9
$AUNITS
 70
     0
  9
$AUPREC
 70
     0
  9
$MENU
  1
.
  9
$ELEVATION
 40
0.0
  9
$PELEVATION
 40
0.0
  9
$THICKNESS
 40
0.0
  9
$LIMCHECK
 70
     0
  9
$CHAMFERA
 40
10.0
  9
$CHAMFERB
 40
10.0
  9
$CHAMFERC
 40
20.0
  9
$CHAMFERD
 40
0.0
  9
$SKPOLY
 70
     0
  9
$TDCREATE
 40
2455488.575412338
  9
$TDUCREATE
 40
2455488.492079005
  9
$TDUPDATE
 40
2455488.575412349
  9
$TDUUPDATE
 40
2455488.492079016
  9
$TDINDWG
 40
0.0000000116
  9
$TDUSRTIMER
 40
0.0000000116
  9
$USRTIMER
 70
     1
  9
$ANGBASE
 50
0.0
  9
$ANGDIR
 70
     0
  9
$PDMODE
 70
     0
  9
$PDSIZE
 40
0.0
  9
$PLINEWID
 40
0.0
  9
$SPLFRAME
 70
     0
  9
$SPLINETYPE
 70
     6
  9
$SPLINESEGS
 70
     8
  9
$HANDSEED
  5
297
  9
$SURFTAB1
 70
     6
  9
$SURFTAB2
 70
     6
  9
$SURFTYPE
 70
     6
  9
$SURFU
 70
     6
  9
$SURFV
 70
     6
  9
$UCSBASE
  2

  9
$UCSNAME
  2

  9
$UCSORG
 10
0.0
 20
0.0
 30
0.0
  9
$UCSXDIR
 10
1.0
 20
0.0
 30
0.0
  9
$UCSYDIR
 10
0.0
 20
1.0
 30
0.0
  9
$UCSORTHOREF
  2

  9
$UCSORTHOVIEW
 70
     0
  9
$UCSORGTOP
 10
0.0
 20
0.0
 30
0.0
  9
$UCSORGBOTTOM
 10
0.0
 20
0.0
 30
0.0
  9
$UCSORGLEFT
 10
0.0
 20
0.0
 30
0.0
  9
$UCSORGRIGHT
 10
0.0
 20
0.0
 30
0.0
  9
$UCSORGFRONT
 10
0.0
 20
0.0
 30
0.0
  9
$UCSORGBACK
 10
0.0
 20
0.0
 30
0.0
  9
$PUCSBASE
  2

  9
$PUCSNAME
  2

  9
$PUCSORG
 10
0.0
 20
0.0
 30
0.0
  9
$PUCSXDIR
 10
1.0
 20
0.0
 30
0.0
  9
$PUCSYDIR
 10
0.0
 20
1.0
 30
0.0
  9
$PUCSORTHOREF
  2

  9
$PUCSORTHOVIEW
 70
     0
  9
$PUCSORGTOP
 10
0.0
 20
0.0
 30
0.0
  9
$PUCSORGBOTTOM
 10
0.0
 20
0.0
 30
0.0
  9
$PUCSORGLEFT
 10
0.0
 20
0.0
 30
0.0
  9
$PUCSORGRIGHT
 10
0.0
 20
0.0
 30
0.0
  9
$PUCSORGFRONT
 10
0.0
 20
0.0
 30
0.0
  9
$PUCSORGBACK
 10
0.0
 20
0.0
 30
0.0
  9
$USERI1
 70
     0
  9
$USERI2
 70
     0
  9
$USERI3
 70
     0
  9
$USERI4
 70
     0
  9
$USERI5
 70
     0
  9
$USERR1
 40
0.0
  9
$USERR2
 40
0.0
  9
$USERR3
 40
0.0
  9
$USERR4
 40
0.0
  9
$USERR5
 40
0.0
  9
$WORLDVIEW
 70
     1
  9
$SHADEDGE
 70
     3
  9
$SHADEDIF
 70
    70
  9
$TILEMODE
 70
     1
  9
$MAXACTVP
 70
    64
  9
$PINSBASE
 10
0.0
 20
0.0
 30
0.0
  9
$PLIMCHECK
 70
     0
  9
$PEXTMIN
 10
0.0
 20
0.0
 30
0.0
  9
$PEXTMAX
 10
1682.0
 20
2378.0
 30
0.0
  9
$PLIMMIN
 10
0.0
 20
0.0
  9
$PLIMMAX
 10
1682.0
 20
2378.0
  9
$UNITMODE
 70
     0
  9
$VISRETAIN
 70
     1
  9
$PLINEGEN
 70
     0
  9
$PSLTSCALE
 70
     1
  9
$TREEDEPTH
 70
  3020
  9
$CMLSTYLE
  2
Standard
  9
$CMLJUST
 70
     0
  9
$CMLSCALE
 40
20.0
  9
$PROXYGRAPHICS
 70
     1
  9
$MEASUREMENT
 70
     1
  9
$CELWEIGHT
370
    -1
  9
$ENDCAPS
280
     0
  9
$JOINSTYLE
280
     0
  9
$LWDISPLAY
290
     0
  9
$INSUNITS
 70
     4
  9
$HYPERLINKBASE
  1

  9
$STYLESHEET
  1

  9
$XEDIT
290
     1
  9
$CEPSNTYPE
380
     0
  9
$PSTYLEMODE
290
     1
  9
$FINGERPRINTGUID
  2
{C069206E-3091-4ED1-9335-7FCBA415CD45}
  9
$VERSIONGUID
  2
{FAEB1C32-E019-11D5-929B-00C0DF256EC4}
  9
$EXTNAMES
290
     1
  9
$PSVPSCALE
 40
0.0
  9
$OLESTARTUP
290
     0
  0
ENDSEC
  0
SECTION
  2
CLASSES
  0
CLASS
  1
ACDBDICTIONARYWDFLT
  2
AcDbDictionaryWithDefault
  3
ObjectDBX Classes
 90
        0
280
     0
281
     0
  0
CLASS
  1
VISUALSTYLE
  2
AcDbVisualStyle
  3
ObjectDBX Classes
 90
     4095
280
     0
281
     0
  0
CLASS
  1
SCALE
  2
AcDbScale
  3
ObjectDBX Classes
 90
     1153
280
     0
281
     0
  0
CLASS
  1
DICTIONARYVAR
  2
AcDbDictionaryVar
  3
ObjectDBX Classes
 90
        0
280
     0
281
     0
  0
CLASS
  1
ACDBPLACEHOLDER
  2
AcDbPlaceHolder
  3
ObjectDBX Classes
 90
        0
280
     0
281
     0
  0
CLASS
  1
LAYOUT
  2
AcDbLayout
  3
ObjectDBX Classes
 90
        0
280
     0
281
     0
  0
ENDSEC
  0
SECTION
  2
TABLES
  0
TABLE
  2
VPORT
  5
8
330
0
100
AcDbSymbolTable
 70
     1
  0
VPORT
  5
29
330
8
100
AcDbSymbolTableRecord
100
AcDbViewportTableRecord
  2
*Active
 70
     0
 10
0.0
 20
0.0
 11
1.0
 21
1.0
 12
344.1869158879
 22
148.5
 13
0.0
 23
0.0
 14
10.0
 24
10.0
 15
10.0
 25
10.0
 16
0.0
 26
0.0
 36
1.0
 17
0.0
 27
0.0
 37
0.0
 40
297.0
 41
1.9729729729
 42
50.0
 43
0.0
 44
0.0
 50
0.0
 51
0.0
 71
     0
 72
   100
 73
     1
 74
     3
 75
     0
 76
     0
 77
     0
 78
     0
281
     0
 65
     1
110
0.0
120
0.0
130
0.0
111
1.0
121
0.0
131
0.0
112
0.0
122
1.0
132
0.0
 79
     0
146
0.0
  0
ENDTAB
  0
TABLE
  2
LTYPE
  5
5
330
0
100
AcDbSymbolTable
 70
     2
  0
LTYPE
  5
14
330
5
100
AcDbSymbolTableRecord
100
AcDbLinetypeTableRecord
  2
ByBlock
 70
     0
  3

 72
    65
 73
     0
 40
0.0
  0
LTYPE
  5
15
330
5
100
AcDbSymbolTableRecord
100
AcDbLinetypeTableRecord
  2
ByLayer
 70
     0
  3

 72
    65
 73
     0
 40
0.0
  0
LTYPE
  5
16
330
5
100
AcDbSymbolTableRecord
100
AcDbLinetypeTableRecord
  2
Continuous
 70
     0
  3
Solid line
 72
    65
 73
     0
 40
0.0
  0
LTYPE
  5
60
330
5
100
AcDbSymbolTableRecord
100
AcDbLinetypeTableRecord
  2
CENTER2
 70
     0
  3
Center (.5x) ___ _ ___ _ ___ _ ___ _ ___ _ ___
 72
    65
 73
     4
 40
28.575
 49
19.05
 74
     4
 75
     0
340
0
 46
0.0
 50
0.0
 44
0.0
 45
0.0
 49
-3.175
 74
     4
 75
     0
340
0
 46
0.0
 50
0.0
 44
0.0
 45
0.0
 49
3.175
 74
     4
 75
     0
340
0
 46
0.0
 50
0.0
 44
0.0
 45
0.0
 49
-3.175
 74
     4
 75
     0
340
0
 46
0.0
 50
0.0
 44
0.0
 45
0.0
  0
ENDTAB
  0
TABLE
  2
LAYER
  5
2
330
0
100
AcDbSymbolTable
 70
    14
  0
LAYER
  5
10
330
2
100
AcDbSymbolTableRecord
100
AcDbLayerTableRecord
  2
0
 70
     0
 62
     7
  6
Continuous
370
    -3
390
F
  0
LAYER
  5
5D
330
2
100
AcDbSymbolTableRecord
100
AcDbLayerTableRecord
  2
Default
 70
     0
 62
     7
  6
Continuous
370
    -3
390
F
  0
LAYER
  5
87
330
2
100
AcDbSymbolTableRecord
100
AcDbLayerTableRecord
  2
$DDT_AUDIT_GENERATED_(87)
 70
     0
 62
     7
  6
Continuous
370
    -3
390
F
  0
LAYER
  5
8C
330
2
100
AcDbSymbolTableRecord
100
AcDbLayerTableRecord
  2
$DDT_AUDIT_GENERATED_(8C)
 70
     0
 62
     7
  6
Continuous
370
    -3
390
F
  0
LAYER
  5
91
330
2
100
AcDbSymbolTableRecord
100
AcDbLayerTableRecord
  2
$DDT_AUDIT_GENERATED_(91)
 70
     0
 62
     7
  6
Continuous
370
    -3
390
F
  0
LAYER
  5
94
330
2
100
AcDbSymbolTableRecord
100
AcDbLayerTableRecord
  2
$DDT_AUDIT_GENERATED_(94)
 70
     0
 62
     7
  6
Continuous
370
    -3
390
F
  0
LAYER
  5
9B
330
2
100
AcDbSymbolTableRecord
100
AcDbLayerTableRecord
  2
$DDT_AUDIT_GENERATED_(9B)
 70
     0
 62
     7
  6
Continuous
370
    -3
390
F
  0
LAYER
  5
A7
330
2
100
AcDbSymbolTableRecord
100
AcDbLayerTableRecord
  2
$DDT_AUDIT_GENERATED_(A7)
 70
     0
 62
     7
  6
Continuous
370
    -3
390
F
  0
LAYER
  5
AF
330
2
100
AcDbSymbolTableRecord
100
AcDbLayerTableRecord
  2
$DDT_AUDIT_GENERATED_(AF)
 70
     0
 62
     7
  6
Continuous
370
    -3
390
F
  0
LAYER
  5
DF
330
2
100
AcDbSymbolTableRecord
100
AcDbLayerTableRecord
  2
$DDT_AUDIT_GENERATED_(DF)
 70
     0
 62
     7
  6
Continuous
370
    -3
390
F
  0
LAYER
  5
E2
330
2
100
AcDbSymbolTableRecord
100
AcDbLayerTableRecord
  2
02636038_GEHÄUSE
 70
     0
 62
     7
  6
Continuous
370
    -3
390
F
  0
LAYER
  5
F6
330
2
100
AcDbSymbolTableRecord
100
AcDbLayerTableRecord
  2
$DDT_AUDIT_GENERATED_(F6)
 70
     0
 62
     7
  6
Continuous
370
    -3
390
F
  0
LAYER
  5
199
330
2
100
AcDbSymbolTableRecord
100
AcDbLayerTableRecord
  2
$DDT_AUDIT_GENERATED_(199)
 70
     0
 62
     7
  6
Continuous
370
    -3
390
F
  0
LAYER
  5
222
330
2
100
AcDbSymbolTableRecord
100
AcDbLayerTableRecord
  2
$DDT_AUDIT_GENERATED_(222)
 70
     0
 62
     7
  6
Continuous
370
    -3
390
F
  0
ENDTAB
  0
TABLE
  2
STYLE
  5
3
330
0
100
AcDbSymbolTable
 70
     2
  0
STYLE
  5
11
330
3
100
AcDbSymbolTableRecord
100
AcDbTextStyleTableRecord
  2
Standard
 70
     0
 40
0.0
 41
1.0
 50
0.0
 71
     0
 42
2.5
  3
txt
  4

  0
STYLE
  5
286
330
3
100
AcDbSymbolTableRecord
100
AcDbTextStyleTableRecord
  2
SEACAD_seiso_ttf
 70
     0
 40
0.0
 41
1.0
 50
0.0
 71
     0
 42
0.2
  3
seiso.ttf
  4

  0
ENDTAB
  0
TABLE
  2
VIEW
  5
6
330
0
100
AcDbSymbolTable
 70
     0
  0
ENDTAB
  0
TABLE
  2
UCS
  5
7
330
0
100
AcDbSymbolTable
 70
     0
  0
ENDTAB
  0
TABLE
  2
APPID
  5
9
330
0
100
AcDbSymbolTable
 70
     1
  0
APPID
  5
12
330
9
100
AcDbSymbolTableRecord
100
AcDbRegAppTableRecord
  2
ACAD
 70
     0
  0
ENDTAB
  0
TABLE
  2
DIMSTYLE
  5
A
330
0
100
AcDbSymbolTable
 70
     1
100
AcDbDimStyleTable
  0
DIMSTYLE
105
27
330
A
100
AcDbSymbolTableRecord
100
AcDbDimStyleTableRecord
  2
ISO-25
 70
     0
 41
2.5
 42
0.625
 43
3.75
 44
1.25
 73
     0
 74
     0
 77
     1
 78
     8
140
2.5
141
2.5
143
0.0393700787
147
0.625
171
     3
172
     1
271
     2
272
     2
274
     3
278
    44
283
     0
284
     8
340
11
  0
ENDTAB
  0
TABLE
  2
BLOCK_RECORD
  5
1
330
0
100
AcDbSymbolTable
 70
     9
  0
BLOCK_RECORD
  5
1F
330
1
100
AcDbSymbolTableRecord
100
AcDbBlockTableRecord
  2
*Model_Space
340
22
  0
BLOCK_RECORD
  5
1B
330
1
100
AcDbSymbolTableRecord
100
AcDbBlockTableRecord
  2
*Paper_Space
340
1E
  0
BLOCK_RECORD
  5
5E
330
1
100
AcDbSymbolTableRecord
100
AcDbBlockTableRecord
  2
SEANNOT_GROUP
340
0
102
{BLKREFS
331
5F
102
}
  0
BLOCK_RECORD
  5
65
330
1
100
AcDbSymbolTableRecord
100
AcDbBlockTableRecord
  2
SEANNOT_GROUP1
340
0
102
{BLKREFS
331
66
102
}
  0
BLOCK_RECORD
  5
6F
330
1
100
AcDbSymbolTableRecord
100
AcDbBlockTableRecord
  2
SEANNOT_GROUP2
340
0
102
{BLKREFS
331
70
102
}
  0
BLOCK_RECORD
  5
79
330
1
100
AcDbSymbolTableRecord
100
AcDbBlockTableRecord
  2
SEANNOT_GROUP3
340
0
102
{BLKREFS
331
7A
102
}
  0
BLOCK_RECORD
  5
7F
330
1
100
AcDbSymbolTableRecord
100
AcDbBlockTableRecord
  2
SEANNOT_GROUP4
340
0
102
{BLKREFS
331
80
102
}
  0
BLOCK_RECORD
  5
85
330
1
100
AcDbSymbolTableRecord
100
AcDbBlockTableRecord
  2
SE
340
0
102
{BLKREFS
331
86
102
}
  0
BLOCK_RECORD
  5
1AD
330
1
100
AcDbSymbolTableRecord
100
AcDbBlockTableRecord
  2
SE1
340
0
102
{BLKREFS
331
1AE
102
}
  0
BLOCK_RECORD
  5
210
330
1
100
AcDbSymbolTableRecord
100
AcDbBlockTableRecord
  2
SE2
340
0
102
{BLKREFS
331
211
102
}
  0
ENDTAB
  0
ENDSEC
  0
SECTION
  2
BLOCKS
  0
BLOCK
  5
20
330
1F
100
AcDbEntity
  8
0
100
AcDbBlockBegin
  2
*Model_Space
 70
     0
 10
0.0
 20
0.0
 30
0.0
  3
*Model_Space
  1

  0
ENDBLK
  5
21
330
1F
100
AcDbEntity
  8
0
100
AcDbBlockEnd
  0
BLOCK
  5
1C
330
1B
100
AcDbEntity
 67
     1
  8
0
100
AcDbBlockBegin
  2
*Paper_Space
 70
     0
 10
0.0
 20
0.0
 30
0.0
  3
*Paper_Space
  1

  0
ENDBLK
  5
1D
330
1B
100
AcDbEntity
 67
     1
  8
0
100
AcDbBlockEnd
  0
BLOCK
  5
63
330
5E
100
AcDbEntity
  8
0
100
AcDbBlockBegin
  2
SEANNOT_GROUP
 70
     0
 10
0.0
 20
0.0
 30
0.0
  3
SEANNOT_GROUP
  1

  0
LINE
  5
61
330
5E
100
AcDbEntity
  8
Default
  6
CENTER2
 62
     7
100
AcDbLine
 10
398.5242350395
 20
558.7014393246
 30
0.0
 11
358.5242359336
 21
558.7014393246
 31
0.0
  0
LINE
  5
62
330
5E
100
AcDbEntity
  8
Default
  6
CENTER2
 62
     7
100
AcDbLine
 10
378.5242354865
 20
578.7014388776
 30
0.0
 11
378.5242354865
 21
538.7014397717
 31
0.0
  0
ENDBLK
  5
64
330
5E
100
AcDbEntity
  8
0
100
AcDbBlockEnd
  0
BLOCK
  5
6D
330
65
100
AcDbEntity
  8
0
100
AcDbBlockBegin
  2
SEANNOT_GROUP1
 70
     0
 10
0.0
 20
0.0
 30
0.0
  3
SEANNOT_GROUP1
  1

  0
LINE
  5
67
330
65
100
AcDbEntity
  8
Default
  6
CENTER2
 62
     7
100
AcDbLine
 10
199.5020148581
 20
558.7014209255
 30
0.0
 11
159.5020157521
 21
558.7014209255
 31
0.0
  0
LINE
  5
68
330
65
100
AcDbEntity
  8
Default
  6
CENTER2
 62
     7
100
AcDbLine
 10
179.5020153051
 20
578.7014204784
 30
0.0
 11
179.5020153051
 21
538.7014213725
 31
0.0
  0
LINE
  5
69
330
65
100
AcDbEntity
  8
Default
  6
CENTER2
 62
     7
100
AcDbLine
 10
204.5020147463
 20
558.7014209255
 30
0.0
 11
213.0020153051
 21
558.7014209255
 31
0.0
  0
LINE
  5
6A
330
65
100
AcDbEntity
  8
Default
  6
CENTER2
 62
     7
100
AcDbLine
 10
179.5020153051
 20
583.7014203667
 30
0.0
 11
179.5020153051
 21
592.2014209255
 31
0.0
  0
LINE
  5
6B
330
65
100
AcDbEntity
  8
Default
  6
CENTER2
 62
     7
100
AcDbLine
 10
154.5020158639
 20
558.7014209255
 30
0.0
 11
146.0020153051
 21
558.7014209255
 31
0.0
  0
LINE
  5
6C
330
65
100
AcDbEntity
  8
Default
  6
CENTER2
 62
     7
100
AcDbLine
 10
179.5020153051
 20
533.7014214843
 30
0.0
 11
179.5020153051
 21
525.2014209255
 31
0.0
  0
ENDBLK
  5
6E
330
65
100
AcDbEntity
  8
0
100
AcDbBlockEnd
  0
BLOCK
  5
77
330
6F
100
AcDbEntity
  8
0
100
AcDbBlockBegin
  2
SEANNOT_GROUP2
 70
     0
 10
0.0
 20
0.0
 30
0.0
  3
SEANNOT_GROUP2
  1

  0
LINE
  5
71
330
6F
100
AcDbEntity
  8
Default
  6
CENTER2
 62
     7
100
AcDbLine
 10
90.2050241587
 20
559.4752564814
 30
0.0
 11
50.2050250528
 21
559.4752564814
 31
0.0
  0
LINE
  5
72
330
6F
100
AcDbEntity
  8
Default
  6
CENTER2
 62
     7
100
AcDbLine
 10
70.2050246058
 20
579.4752560344
 30
0.0
 11
70.2050246058
 21
539.4752569284
 31
0.0
  0
LINE
  5
73
330
6F
100
AcDbEntity
  8
Default
  6
CENTER2
 62
     7
100
AcDbLine
 10
95.205024047
 20
559.4752564814
 30
0.0
 11
95.5840917208
 21
559.4752564814
 31
0.0
  0
LINE
  5
74
330
6F
100
AcDbEntity
  8
Default
  6
CENTER2
 62
     7
100
AcDbLine
 10
70.2050246058
 20
584.4752559226
 30
0.0
 11
70.2050246058
 21
584.8543235964
 31
0.0
  0
LINE
  5
75
330
6F
100
AcDbEntity
  8
Default
  6
CENTER2
 62
     7
100
AcDbLine
 10
45.2050251646
 20
559.4752564814
 30
0.0
 11
44.8259574908
 21
559.4752564814
 31
0.0
  0
LINE
  5
76
330
6F
100
AcDbEntity
  8
Default
  6
CENTER2
 62
     7
100
AcDbLine
 10
70.2050246058
 20
534.4752570402
 30
0.0
 11
70.2050246058
 21
534.0961893664
 31
0.0
  0
ENDBLK
  5
78
330
6F
100
AcDbEntity
  8
0
100
AcDbBlockEnd
  0
BLOCK
  5
7D
330
79
100
AcDbEntity
  8
0
100
AcDbBlockBegin
  2
SEANNOT_GROUP3
 70
     0
 10
0.0
 20
0.0
 30
0.0
  3
SEANNOT_GROUP3
  1

  0
LINE
  5
7B
330
79
100
AcDbEntity
  8
Default
  6
CENTER2
 62
     7
100
AcDbLine
 10
89.5020372182
 20
346.7054338412
 30
0.0
 11
49.5020381123
 21
346.7054338412
 31
0.0
  0
LINE
  5
7C
330
79
100
AcDbEntity
  8
Default
  6
CENTER2
 62
     7
100
AcDbLine
 10
69.5020376653
 20
366.7054333942
 30
0.0
 11
69.5020376653
 21
326.7054342882
 31
0.0
  0
ENDBLK
  5
7E
330
79
100
AcDbEntity
  8
0
100
AcDbBlockEnd
  0
BLOCK
  5
83
330
7F
100
AcDbEntity
  8
0
100
AcDbBlockBegin
  2
SEANNOT_GROUP4
 70
     0
 10
0.0
 20
0.0
 30
0.0
  3
SEANNOT_GROUP4
  1

  0
LINE
  5
81
330
7F
100
AcDbEntity
  8
Default
  6
CENTER2
 62
     7
100
AcDbLine
 10
199.5020148581
 20
346.7054338114
 30
0.0
 11
159.5020157521
 21
346.7054338114
 31
0.0
  0
LINE
  5
82
330
7F
100
AcDbEntity
  8
Default
  6
CENTER2
 62
     7
100
AcDbLine
 10
179.5020153051
 20
366.7054333644
 30
0.0
 11
179.5020153051
 21
326.7054342584
 31
0.0
  0
ENDBLK
  5
84
330
7F
100
AcDbEntity
  8
0
100
AcDbBlockEnd
  0
BLOCK
  5
1AB
330
85
100
AcDbEntity
  8
0
100
AcDbBlockBegin
  2
SE
 70
     0
 10
0.0
 20
0.0
 30
0.0
  3
SE
  1

  0
ARC
  5
88
330
85
100
AcDbEntity
  8
$DDT_AUDIT_GENERATED_(87)
  6
Continuous
 62
     7
100
AcDbCircle
 10
179.5020153051
 20
558.7014209255
 30
0.0
 40
20.80000000000001
100
AcDbArc
 50
0.0
 51
69.0499174938
  0
ARC
  5
89
330
85
100
AcDbEntity
  8
$DDT_AUDIT_GENERATED_(87)
  6
Continuous
 62
     7
100
AcDbCircle
 10
179.5020153051
 20
558.7014209255
 30
0.0
 40
20.80000000000001
100
AcDbArc
 50
70.749616355
 51
154.8938364483
  0
ARC
  5
8A
330
85
100
AcDbEntity
  8
$DDT_AUDIT_GENERATED_(87)
  6
Continuous
 62
     7
100
AcDbCircle
 10
179.5020153051
 20
558.7014209255
 30
0.0
 40
20.80000000000001
100
AcDbArc
 50
159.2983676092
 51
212.8472153381
  0
ARC
  5
8B
330
85
100
AcDbEntity
  8
$DDT_AUDIT_GENERATED_(87)
  6
Continuous
 62
     7
100
AcDbCircle
 10
179.5020153051
 20
558.7014209255
 30
0.0
 40
20.80000000000001
100
AcDbArc
 50
327.2168246614
 51
0.0
  0
ARC
  5
8D
330
85
100
AcDbEntity
  8
$DDT_AUDIT_GENERATED_(8C)
  6
Continuous
 62
     7
100
AcDbCircle
 10
179.5020153051
 20
558.7014209255
 30
0.0
 40
25.35000000000001
100
AcDbArc
 50
313.5724222446
 51
0.0
  0
ARC
  5
8E
330
85
100
AcDbEntity
  8
$DDT_AUDIT_GENERATED_(8C)
  6
Continuous
 62
     7
100
AcDbCircle
 10
179.5020153051
 20
558.7014209255
 30
0.0
 40
25.35000000000001
100
AcDbArc
 50
0.0
 51
226.4275777555
  0
ARC
  5
8F
330
85
100
AcDbEntity
  8
$DDT_AUDIT_GENERATED_(8C)
  6
Continuous
 62
     7
100
AcDbCircle
 10
179.5020153051
 20
558.7014209255
 30
0.0
 40
30.0
100
AcDbArc
 50
305.6219138666
 51
0.0
  0
ARC
  5
90
330
85
100
AcDbEntity
  8
$DDT_AUDIT_GENERATED_(8C)
  6
Continuous
 62
     7
100
AcDbCircle
 10
179.5020153051
 20
558.7014209255
 30
0.0
 40
30.0
100
AcDbArc
 50
0.0
 51
234.3780861335
  0
ARC
  5
92
330
85
100
AcDbEntity
  8
$DDT_AUDIT_GENERATED_(91)
  6
Continuous
 62
     7
100
AcDbCircle
 10
179.5020153051
 20
558.7014209255
 30
0.0
 40
25.2
100
AcDbArc
 50
0.0
 51
226.1022361018
  0
ARC
  5
93
330
85
100
AcDbEntity
  8
$DDT_AUDIT_GENERATED_(91)
  6
Continuous
 62
     7
100
AcDbCircle
 10
179.5020153051
 20
558.7014209255
 30
0.0
 40
25.2
100
AcDbArc
 50
313.8977638984
 51
0.0
  0
LINE
  5
95
330
85
100
AcDbEntity
  8
$DDT_AUDIT_GENERATED_(94)
  6
Continuous
 62
     7
100
AcDbLine
 10
196.9750327112
 20
487.7959383109
 30
0.0
 11
196.9750327104
 21
552.8659383108
 31
0.0
  0
LINE
  5
96
330
85
100
AcDbEntity
  8
$DDT_AUDIT_GENERATED_(94)
  6
Continuous
 62
     7
100
AcDbLine
 10
162.0289978992
 20
552.8659383109
 30
0.0
 11
162.0289978991
 21
487.7959383109
 31
0.0
  0
ARC
  5
97
330
85
100
AcDbEntity
  8
$DDT_AUDIT_GENERATED_(94)
  6
Continuous
 62
     7
100
AcDbCircle
 10
179.5020153051
 20
552.8659383109
 30
0.0
 40
17.47301740523021
100
AcDbArc
 50
0.0
 51
180.0
  0
CIRCLE
  5
98
330
85
100
AcDbEntity
  8
$DDT_AUDIT_GENERATED_(94)
  6
Continuous
 62
     7
100
AcDbCircle
 10
179.5020153051
 20
552.8659383109
 30
0.0
 40
10.45
  0
ARC
  5
99
330
85
100
AcDbEntity
  8
$DDT_AUDIT_GENERATED_(94)
  6
Continuous
 62
     7
100
AcDbCircle
 10
179.5020153051
 20
487.7959383109
 30
0.0
 40
17.47332201491
100
AcDbArc
 50
180.0
 51
270.0
  0
ARC
  5
9A
330
85
100
AcDbEntity
  8
$DDT_AUDIT_GENERATED_(94)
  6
Continuous
 62
     7
100
AcDbCircle
 10
179.5020153051
 20
487.7959383109
 30
0.0
 40
17.47332201491
100
AcDbArc
 50
270.0
 51
0.0
  0
ARC
  5
9C
330
85
100
AcDbEntity
  8
$DDT_AUDIT_GENERATED_(9B)
  6
Continuous
 62
     7
100
AcDbCircle
 10
179.5020153125
 20
552.8659383108
 30
0.0
 40
10.35
100
AcDbArc
 50
89.999947004
 51
179.9999469583
  0
ARC
  5
9D
330
85
100
AcDbEntity
  8
$DDT_AUDIT_GENERATED_(9B)
  6
Continuous
 62
     7
100
AcDbCircle
 10
179.5020153125
 20
552.8659383108
 30
0.0
 40
10.34999999999999
100
AcDbArc
 50
284.0895939777
 51
0.0
  0
ARC
  5
9E
330
85
100
AcDbEntity
  8
$DDT_AUDIT_GENERATED_(9B)
  6
Continuous
 62
     7
100
AcDbCircle
 10
179.5020153125
 20
552.8659383108
 30
0.0
 40
10.35
100
AcDbArc
 50
0.0000530417
 51
89.999947004
  0
ARC
  5
9F
330
85
100
AcDbEntity
  8
$DDT_AUDIT_GENERATED_(9B)
  6
Continuous
 62
     7
100
AcDbCircle
 10
179.5020153125
 20
552.8659383108
 30
0.0
 40
10.35000000000001
100
AcDbArc
 50
179.9999469583
 51
255.9104059614
  0
ELLIPSE
  5
A0
330
85
100
AcDbEntity
  8
$DDT_AUDIT_GENERATED_(9B)
  6
Continuous
 62
     7
100
AcDbEllipse
 10
181.7675646569
 20
543.0464001529
 30
0.0
 11
0.01966037620812749
 21
0.1990313282057704
 31
0.0
210
0.0
220
0.0
230
0.9999999999999999
 40
0.0886961997
 41
3.13844231521619
 42
3.189804567127864
  0
SPLINE
  5
A1
330
85
100
AcDbEntity
  8
$DDT_AUDIT_GENERATED_(9B)
  6
Continuous
 62
     7
100
AcDbSpline
210
0.0
220
0.0
230
1.0
 70
     8
 71
     3
 72
    12
 73
     8
 74
     0
 42
0.000000036066022
 43
0.0000000001
 40
0.0
 40
0.0
 40
0.0
 40
0.0
 40
0.0547468018752673
 40
0.2672746797192253
 40
0.5139573355444462
 40
0.9614844449024208
 40
1.0
 40
1.0
 40
1.0
 40
1.0
 10
176.98316690916
 20
542.8286056777988
 30
0.0
 10
176.9885538503318
 20
542.8267643330965
 30
0.0
 10
177.0111238459447
 20
542.8190982548297
 30
0.0
 10
177.0605451468792
 20
542.8183939380201
 30
0.0
 10
177.1383023948349
 20
542.8259586026587
 30
0.0
 10
177.2073372072857
 20
542.8439624710242
 30
0.0
 10
177.2519961842256
 20
542.8464891880798
 30
0.0
 10
177.2561041199866
 20
542.8467306859887
 30
0.0
  0
LINE
  5
A2
330
85
100
AcDbEntity
  8
$DDT_AUDIT_GENERATED_(9B)
  6
Continuous
 62
     7
100
AcDbLine
 10
177.2568310931
 20
542.8431754162
 30
0.0
 11
177.2956027043
 21
542.847326207
 31
0.0
  0
ARC
  5
A3
330
85
100
AcDbEntity
  8
$DDT_AUDIT_GENERATED_(9B)
  6
Continuous
 62
     7
100
AcDbCircle
 10
179.3005010753
 20
594.9919409982
 30
0.0
 40
52.18025034032509
100
AcDbArc
 50
267.7974998221
 51
270.2212685679
  0
ARC
  5
A4
330
85
100
AcDbEntity
  8
$DDT_AUDIT_GENERATED_(9B)
  6
Continuous
 62
     7
100
AcDbCircle
 10
179.6722799245
 20
595.6340273209
 30
0.0
 40
52.82209731232199
100
AcDbArc
 50
269.8153094497
 51
272.2095101383
  0
ARC
  5
A5
330
85
100
AcDbEntity
  8
$DDT_AUDIT_GENERATED_(9B)
  6
Continuous
 62
     7
100
AcDbCircle
 10
181.7374108795
 20
542.690287374
 30
0.0
 40
0.157011062401169
100
AcDbArc
 50
83.391966302
 51
100.3196447537
  0
SPLINE
  5
A6
330
85
100
AcDbEntity
  8
$DDT_AUDIT_GENERATED_(9B)
  6
Continuous
 62
     7
100
AcDbSpline
210
0.0
220
0.0
230
1.0
 70
     8
 71
     3
 72
    10
 73
     6
 74
     0
 42
0.0000000327360802
 43
0.0000000001
 40
0.0
 40
0.0
 40
0.0
 40
0.0
 40
0.1676580484345212
 40
0.7976186216810917
 40
1.0
 40
1.0
 40
1.0
 40
1.0
 10
181.7302614801725
 20
542.8487840006081
 30
0.0
 10
181.7494880399522
 20
542.8466499000663
 30
0.0
 10
181.8279810541583
 20
542.8397145527357
 30
0.0
 10
181.9274950893118
 20
542.8076924203259
 30
0.0
 10
182.0056738152988
 20
542.8257662695455
 30
0.0
 10
182.027700343022
 20
542.8305962961927
 30
0.0
  0
SPLINE
  5
A8
330
85
100
AcDbEntity
  8
$DDT_AUDIT_GENERATED_(A7)
  6
Continuous
 62
     7
100
AcDbSpline
210
0.0
220
0.0
230
1.0
 70
    11
 71
     3
 72
    38
 73
    34
 74
     0
 42
0.0000000000641555
 43
0.0000000001
 40
0.0
 40
0.0
 40
0.0
 40
0.0
 40
0.0625
 40
0.0625
 40
0.125
 40
0.125
 40
0.1875
 40
0.1875
 40
0.25
 40
0.25
 40
0.3125
 40
0.3125
 40
0.375
 40
0.375
 40
0.4375
 40
0.4375
 40
0.5
 40
0.5
 40
0.5625
 40
0.5625
 40
0.625
 40
0.625
 40
0.6875
 40
0.6875
 40
0.75
 40
0.75
 40
0.8125
 40
0.8125
 40
0.875
 40
0.875
 40
0.9375
 40
0.9375
 40
1.0
 40
1.0
 40
1.0
 40
1.0
 10
69.50201530510829
 20
583.3514209254643
 30
0.0
 10
72.72869275973294
 20
583.3514209254644
 30
0.0
 10
75.95410065456483
 20
582.7098474053383
 30
0.0
 10
81.91622317125153
 20
580.2402553983969
 30
0.0
 10
84.65059195249069
 20
578.4132085905796
 30
0.0
 10
89.21380297022448
 20
573.8499975728462
 30
0.0
 10
91.04084977804195
 20
571.115628791607
 30
0.0
 10
93.51044178498373
 20
565.1535062749205
 30
0.0
 10
94.15201530510987
 20
561.9280983800886
 30
0.0
 10
94.15201530511006
 20
555.4747434708394
 30
0.0
 10
93.5104417849841
 20
552.2493355760075
 30
0.0
 10
91.04084977804264
 20
546.2872130593208
 30
0.0
 10
89.21380297022534
 20
543.5528442780816
 30
0.0
 10
84.65059195249182
 20
538.9896332603479
 30
0.0
 10
81.91622317125278
 20
537.1625864525304
 30
0.0
 10
75.9541006545662
 20
534.6929944455886
 30
0.0
 10
72.72869275973436
 20
534.0514209254625
 30
0.0
 10
66.27533785048509
 20
534.0514209254624
 30
0.0
 10
63.0499299556532
 20
534.6929944455883
 30
0.0
 10
57.08780743896648
 20
537.1625864525297
 30
0.0
 10
54.35343865772736
 20
538.989633260347
 30
0.0
 10
49.79022763999357
 20
543.5528442780804
 30
0.0
 10
47.96318083217609
 20
546.2872130593195
 30
0.0
 10
45.49358882523428
 20
552.249335576006
 30
0.0
 10
44.85201530510814
 20
555.4747434708379
 30
0.0
 10
44.85201530510798
 20
561.9280983800872
 30
0.0
 10
45.49358882523392
 20
565.1535062749191
 30
0.0
 10
47.96318083217536
 20
571.1156287916058
 30
0.0
 10
49.79022763999265
 20
573.8499975728449
 30
0.0
 10
54.35343865772619
 20
578.4132085905787
 30
0.0
 10
57.08780743896523
 20
580.2402553983962
 30
0.0
 10
63.04992995565181
 20
582.709847405338
 30
0.0
 10
66.27533785048365
 20
583.3514209254643
 30
0.0
 10
69.50201530510829
 20
583.3514209254643
 30
0.0
  0
ARC
  5
A9
330
85
100
AcDbEntity
  8
$DDT_AUDIT_GENERATED_(A7)
  6
Continuous
 62
     7
100
AcDbCircle
 10
69.5020153051
 20
558.7014209255
 30
0.0
 40
20.90000000000001
100
AcDbArc
 50
0.0
 51
3.0616117478
  0
ARC
  5
AA
330
85
100
AcDbEntity
  8
$DDT_AUDIT_GENERATED_(A7)
  6
Continuous
 62
     7
100
AcDbCircle
 10
69.5020153051
 20
558.7014209255
 30
0.0
 40
20.90000000000001
100
AcDbArc
 50
20.131240246
 51
182.1073996995
  0
ARC
  5
AB
330
85
100
AcDbEntity
  8
$DDT_AUDIT_GENERATED_(A7)
  6
Continuous
 62
     7
100
AcDbCircle
 10
69.5020153051
 20
558.7014209255
 30
0.0
 40
20.90000000000001
100
AcDbArc
 50
183.9322317466
 51
213.0523768828
  0
ARC
  5
AC
330
85
100
AcDbEntity
  8
$DDT_AUDIT_GENERATED_(A7)
  6
Continuous
 62
     7
100
AcDbCircle
 10
69.5020153051
 20
558.7014209255
 30
0.0
 40
20.90000000000001
100
AcDbArc
 50
245.9562320087
 51
283.5473940596
  0
ARC
  5
AD
330
85
100
AcDbEntity
  8
$DDT_AUDIT_GENERATED_(A7)
  6
Continuous
 62
     7
100
AcDbCircle
 10
69.5020153051
 20
558.7014209255
 30
0.0
 40
20.90000000000001
100
AcDbArc
 50
300.8020997101
 51
303.7704198055
  0
ARC
  5
AE
330
85
100
AcDbEntity
  8
$DDT_AUDIT_GENERATED_(A7)
  6
Continuous
 62
     7
100
AcDbCircle
 10
69.5020153051
 20
558.7014209255
 30
0.0
 40
20.90000000000001
100
AcDbArc
 50
323.5728551687
 51
0.0
  0
ARC
  5
B0
330
85
100
AcDbEntity
  8
$DDT_AUDIT_GENERATED_(AF)
  6
Continuous
 62
     7
100
AcDbCircle
 10
65.198781666
 20
1720.7619516492
 30
0.0
 40
1169.212928152793
100
AcDbArc
 50
269.6143880307
 51
270.2108753904
  0
ARC
  5
B1
330
85
100
AcDbEntity
  8
$DDT_AUDIT_GENERATED_(AF)
  6
Continuous
 62
     7
100
AcDbCircle
 10
69.1706626635
 20
601.1055984609
 30
0.0
 40
50.94328127279231
100
AcDbArc
 50
256.4704441671
 51
256.4723609261
  0
ARC
  5
B2
330
85
100
AcDbEntity
  8
$DDT_AUDIT_GENERATED_(AF)
  6
Continuous
 62
     7
100
AcDbCircle
 10
69.1706626635
 20
601.1055984609
 30
0.0
 40
50.94328127279231
100
AcDbArc
 50
256.5047577055
 51
257.6795061115
  0
ARC
  5
B3
330
85
100
AcDbEntity
  8
$DDT_AUDIT_GENERATED_(AF)
  6
Continuous
 62
     7
100
AcDbCircle
 10
69.8177212339
 20
601.2413406265
 30
0.0
 40
51.07892227964322
100
AcDbArc
 50
282.3103110261
 51
283.4251745519
  0
ARC
  5
B4
330
85
100
AcDbEntity
  8
$DDT_AUDIT_GENERATED_(AF)
  6
Continuous
 62
     7
100
AcDbCircle
 10
69.8177212339
 20
601.2413406265
 30
0.0
 40
51.07892227964322
100
AcDbArc
 50
283.5074399012
 51
283.5109973973
  0
ARC
  5
B5
330
85
100
AcDbEntity
  8
$DDT_AUDIT_GENERATED_(AF)
  6
Continuous
 62
     7
100
AcDbCircle
 10
73.7266931783
 20
1771.3644787529
 30
0.0
 40
1219.814852082296
100
AcDbArc
 50
269.8015632084
 51
270.3769298935
  0
SPLINE
  5
B6
330
85
100
AcDbEntity
  8
$DDT_AUDIT_GENERATED_(AF)
  6
Continuous
 62
     7
100
AcDbSpline
210
0.0
220
0.0
230
1.0
 70
     8
 71
     5
 72
    12
 73
     6
 74
     0
 42
0.0000000011013963
 43
0.0000000001
 40
0.0
 40
0.0
 40
0.0
 40
0.0
 40
0.0
 40
0.0
 40
0.6879784938749365
 40
0.6879784938749365
 40
0.6879784938749365
 40
0.6879784938749365
 40
0.6879784938749365
 40
0.6879784938749365
 10
48.66458867438077
 20
557.9469544146284
 30
0.0
 10
48.69144846926721
 20
557.1661261960185
 30
0.0
 10
48.75858949638208
 20
556.2793295955549
 30
0.0
 10
49.29889416515443
 20
555.3093221963651
 30
0.0
 10
50.44870186765152
 20
554.3319025854082
 30
0.0
 10
52.18137281262186
 20
553.423514043773
 30
0.0
  0
SPLINE
  5
B7
330
85
100
AcDbEntity
  8
$DDT_AUDIT_GENERATED_(AF)
  6
Continuous
 62
     7
100
AcDbSpline
210
0.0
220
0.0
230
1.0
 70
     8
 71
     5
 72
    12
 73
     6
 74
     0
 42
0.0000000005149095
 43
0.0000000001
 40
0.9039050812906169
 40
0.9039050812906169
 40
0.9039050812906169
 40
0.9039050812906169
 40
0.9039050812906169
 40
0.9039050812906169
 40
1.0
 40
1.0
 40
1.0
 40
1.0
 40
1.0
 40
1.0
 10
55.45884220028606
 20
552.0895005719194
 30
0.0
 10
55.79823110067217
 20
551.9809751348171
 30
0.0
 10
56.14764304590408
 20
551.875172832747
 30
0.0
 10
56.50676250863057
 20
551.7722890163136
 30
0.0
 10
56.87522788278334
 20
551.6725130220889
 30
0.0
 10
57.25263858453072
 20
551.5760253869502
 30
0.0
  0
LINE
  5
B8
330
85
100
AcDbEntity
  8
$DDT_AUDIT_GENERATED_(AF)
  6
Continuous
 62
     7
100
AcDbLine
 10
48.7657671974
 20
557.9469544115
 30
0.0
 11
48.7316842961
 21
557.9469544125
 31
0.0
  0
SPLINE
  5
B9
330
85
100
AcDbEntity
  8
$DDT_AUDIT_GENERATED_(AF)
  6
Continuous
 62
     7
100
AcDbSpline
210
0.0
220
0.0
230
1.0
 70
     8
 71
     5
 72
    12
 73
     6
 74
     0
 42
0.0000000008355486
 43
0.0000000001
 40
0.0
 40
0.0
 40
0.0
 40
0.0
 40
0.0
 40
0.0
 40
1.0
 40
1.0
 40
1.0
 40
1.0
 40
1.0
 40
1.0
 10
81.75139185110727
 20
551.5760226787326
 30
0.0
 10
85.67887882009104
 20
552.5801064978251
 30
0.0
 10
88.63765093269443
 20
553.9402994492254
 30
0.0
 10
90.17627467826897
 20
555.4531453525226
 30
0.0
 10
90.30042111288749
 20
556.8119930231982
 30
0.0
 10
90.33948530475462
 20
557.9469531078757
 30
0.0
  0
SPLINE
  5
BA
330
85
100
AcDbEntity
  8
$DDT_AUDIT_GENERATED_(AF)
  6
Continuous
 62
     7
100
AcDbSpline
210
0.0
220
0.0
230
1.0
 70
     8
 71
     5
 72
    12
 73
     6
 74
     0
 42
0.0000000012439824
 43
0.0000000001
 40
0.0
 40
0.0
 40
0.0
 40
0.0
 40
0.0
 40
0.0
 40
1.0
 40
1.0
 40
1.0
 40
1.0
 40
1.0
 40
1.0
 10
49.91688119060077
 20
565.8125829839285
 30
0.0
 10
49.36541774490728
 20
564.3024698730195
 30
0.0
 10
48.96084816228126
 20
562.7428162908855
 30
0.0
 10
48.70814697084526
 20
561.1514707132014
 30
0.0
 10
48.60955685879127
 20
559.5467575512114
 30
0.0
 10
48.66458867438077
 20
557.9469544146284
 30
0.0
  0
LINE
  5
BB
330
85
100
AcDbEntity
  8
$DDT_AUDIT_GENERATED_(AF)
  6
Continuous
 62
     7
100
AcDbLine
 10
89.0871664966
 20
565.812581613
 30
0.0
 11
50.0120201977
 21
565.8125829806
 31
0.0
  0
ARC
  5
BC
330
85
100
AcDbEntity
  8
$DDT_AUDIT_GENERATED_(AF)
  6
Continuous
 62
     7
100
AcDbCircle
 10
69.5100527637
 20
558.6631218096
 30
0.0
 40
20.84174075247754
100
AcDbArc
 50
358.0308015564
 51
3.1701661695
  0
LINE
  5
BD
330
85
100
AcDbEntity
  8
$DDT_AUDIT_GENERATED_(AF)
  6
Continuous
 62
     7
100
AcDbLine
 10
89.0871849403
 20
565.8125653734
 30
0.0
 11
89.0871581769
 21
565.8125785754
 31
0.0
  0
ARC
  5
BE
330
85
100
AcDbEntity
  8
$DDT_AUDIT_GENERATED_(AF)
  6
Continuous
 62
     7
100
AcDbCircle
 10
69.5111035225
 20
558.6633022254
 30
0.0
 40
20.84068124698991
100
AcDbArc
 50
3.1700269402
 51
20.0623921606
  0
ARC
  5
BF
330
85
100
AcDbEntity
  8
$DDT_AUDIT_GENERATED_(AF)
  6
Continuous
 62
     7
100
AcDbCircle
 10
70.7278197792
 20
591.7806492725
 30
0.0
 40
41.63533176618782
100
AcDbArc
 50
287.357317411
 51
291.1945744761
  0
SPLINE
  5
C0
330
85
100
AcDbEntity
  8
$DDT_AUDIT_GENERATED_(AF)
  6
Continuous
 62
     7
100
AcDbSpline
210
0.0
220
0.0
230
1.0
 70
     8
 71
     3
 72
    14
 73
    10
 74
     0
 42
0.0000000015180593
 43
0.0000000001
 40
0.0
 40
0.0
 40
0.0
 40
0.0
 40
0.124998568921772
 40
0.124998568921772
 40
0.1874985598037206
 40
0.1874985598037206
 40
0.2499985506856692
 40
0.2499985506856692
 40
0.2912665032040131
 40
0.2912665032040131
 40
0.2912665032040131
 40
0.2912665032040131
 10
86.36428971344957
 20
553.1930659836329
 30
0.0
 10
86.611849991315
 20
553.3122399599735
 30
0.0
 10
86.8560457016057
 20
553.4376305429234
 30
0.0
 10
87.21625590110558
 20
553.6368788925412
 30
0.0
 10
87.3353073461378
 20
553.7051640955343
 30
0.0
 10
87.57111476405505
 20
553.845946503752
 30
0.0
 10
87.687963887443
 20
553.9185090042824
 30
0.0
 10
87.87894709225695
 20
554.0423786155502
 30
0.0
 10
87.9541593004618
 20
554.0925509787916
 30
0.0
 10
88.02856368554096
 20
554.1437157877435
 30
0.0
  0
ARC
  5
C1
330
85
100
AcDbEntity
  8
$DDT_AUDIT_GENERATED_(AF)
  6
Continuous
 62
     7
100
AcDbCircle
 10
69.4930159005
 20
558.6632610196
 30
0.0
 40
20.84076006703791
100
AcDbArc
 50
159.9375829308
 51
181.9696712771
  0
LINE
  5
C2
330
85
100
AcDbEntity
  8
$DDT_AUDIT_GENERATED_(AF)
  6
Continuous
 62
     7
100
AcDbLine
 10
49.9169415508
 20
565.8125609422
 30
0.0
 11
49.9169054162
 21
565.8125435537
 31
0.0
  0
ARC
  5
C3
330
85
100
AcDbEntity
  8
$DDT_AUDIT_GENERATED_(AF)
  6
Continuous
 62
     7
100
AcDbCircle
 10
84.9453190732
 20
560.8833664339
 30
0.0
 40
6.438327605875386
100
AcDbArc
 50
49.9608368767
 51
77.2677166917
  0
LINE
  5
C4
330
85
100
AcDbEntity
  8
$DDT_AUDIT_GENERATED_(AF)
  6
Continuous
 62
     7
100
AcDbLine
 10
86.3642996579
 20
567.163378891
 30
0.0
 11
52.7217474146
 21
567.163378891
 31
0.0
  0
ARC
  5
C5
330
85
100
AcDbEntity
  8
$DDT_AUDIT_GENERATED_(AF)
  6
Continuous
 62
     7
100
AcDbCircle
 10
69.4972859713
 20
558.6672656165
 30
0.0
 40
20.8546135859652
100
AcDbArc
 50
299.7149238053
 51
358.0211468378
  0
ARC
  5
C6
330
85
100
AcDbEntity
  8
$DDT_AUDIT_GENERATED_(AF)
  6
Continuous
 62
     7
100
AcDbCircle
 10
69.4972859713
 20
558.6672656165
 30
0.0
 40
20.8546135859652
100
AcDbArc
 50
288.5193351979
 51
290.2179256839
  0
ARC
  5
C7
330
85
100
AcDbEntity
  8
$DDT_AUDIT_GENERATED_(AF)
  6
Continuous
 62
     7
100
AcDbCircle
 10
69.5067763076
 20
558.6672748348
 30
0.0
 40
20.85464586278845
100
AcDbArc
 50
245.9693314303
 51
251.4805542076
  0
ARC
  5
C8
330
85
100
AcDbEntity
  8
$DDT_AUDIT_GENERATED_(AF)
  6
Continuous
 62
     7
100
AcDbCircle
 10
69.5067763076
 20
558.6672748348
 30
0.0
 40
20.85464586278845
100
AcDbArc
 50
203.0301134183
 51
213.1022193607
  0
ARC
  5
C9
330
85
100
AcDbEntity
  8
$DDT_AUDIT_GENERATED_(AF)
  6
Continuous
 62
     7
100
AcDbCircle
 10
69.5067763076
 20
558.6672748348
 30
0.0
 40
20.85464586278845
100
AcDbArc
 50
181.9788631959
 51
182.0394812217
  0
ARC
  5
CA
330
85
100
AcDbEntity
  8
$DDT_AUDIT_GENERATED_(AF)
  6
Continuous
 62
     7
100
AcDbCircle
 10
70.4237878245
 20
556.6234620854
 30
0.0
 40
18.11609090927079
100
AcDbArc
 50
190.912455643
 51
190.9281218729
  0
ARC
  5
CB
330
85
100
AcDbEntity
  8
$DDT_AUDIT_GENERATED_(AF)
  6
Continuous
 62
     7
100
AcDbCircle
 10
54.0677673134
 20
560.8652393739
 30
0.0
 40
6.457996786160543
100
AcDbArc
 50
126.425275715
 51
129.9972533725
  0
ARC
  5
CC
330
85
100
AcDbEntity
  8
$DDT_AUDIT_GENERATED_(AF)
  6
Continuous
 62
     7
100
AcDbCircle
 10
69.4951266186
 20
558.6566965499
 30
0.0
 40
20.85795385718049
100
AcDbArc
 50
20.0745965141
 51
72.7867690407
  0
ARC
  5
CD
330
85
100
AcDbEntity
  8
$DDT_AUDIT_GENERATED_(AF)
  6
Continuous
 62
     7
100
AcDbCircle
 10
54.0615373951
 20
560.8776924994
 30
0.0
 40
6.444470381576774
100
AcDbArc
 50
126.4468388991
 51
130.0260659041
  0
ARC
  5
CE
330
85
100
AcDbEntity
  8
$DDT_AUDIT_GENERATED_(AF)
  6
Continuous
 62
     7
100
AcDbCircle
 10
69.5089040704
 20
558.6566964943
 30
0.0
 40
20.85795392383739
100
AcDbArc
 50
107.2132298143
 51
159.9254034166
  0
SPLINE
  5
CF
330
85
100
AcDbEntity
  8
$DDT_AUDIT_GENERATED_(AF)
  6
Continuous
 62
     7
100
AcDbSpline
210
0.0
220
0.0
230
1.0
 70
     8
 71
     3
 72
    27
 73
    23
 74
     0
 42
0.0000000004106794
 43
0.0000000001
 40
0.0988172070079827
 40
0.0988172070079827
 40
0.0988172070079827
 40
0.0988172070079827
 40
0.1250413488506792
 40
0.2500912294563281
 40
0.3126166682492416
 40
0.3751403456790336
 40
0.4376626954109418
 40
0.5001848000530869
 40
0.5627044732677193
 40
0.6252174517395418
 40
0.6877169707292515
 40
0.750189226771767
 40
0.781440581323582
 40
0.8126840976056656
 40
0.843925475300116
 40
0.8751665464787602
 40
0.9063820287541071
 40
0.9375819764410525
 40
0.9687556021448595
 40
0.9843732474983337
 40
0.9921989279119307
 40
1.0
 40
1.0
 40
1.0
 40
1.0
 10
86.3704644902298
 20
567.1636497231068
 30
0.0
 10
86.37146658091984
 20
567.1637865628842
 30
0.0
 10
86.37829394253129
 20
567.1648325424397
 30
0.0
 10
86.39874238277983
 20
567.1689582254877
 30
0.0
 10
86.43141588549587
 20
567.202909447422
 30
0.0
 10
86.44777647651378
 20
567.2569896466053
 30
0.0
 10
86.4461557245925
 20
567.3615866020101
 30
0.0
 10
86.40426308511249
 20
567.5533898830166
 30
0.0
 10
86.27520136974539
 20
567.8925011741727
 30
0.0
 10
85.99529178875959
 20
568.4753963943435
 30
0.0
 10
85.45938153993181
 20
569.4421988292912
 30
0.0
 10
84.64734524630964
 20
570.7067907934364
 30
0.0
 10
83.64138296325403
 20
572.0229654473272
 30
0.0
 10
82.66030239218978
 20
573.1460999648986
 30
0.0
 10
81.39929625933968
 20
574.3703064101061
 30
0.0
 10
79.80010492859041
 20
575.6357627523888
 30
0.0
 10
77.80390979396469
 20
576.8526122631883
 30
0.0
 10
75.38249725397766
 20
577.8980698768263
 30
0.0
 10
73.03112428993187
 20
578.5021152188039
 30
0.0
 10
71.28286103527071
 20
578.7207778809487
 30
0.0
 10
70.26747636596764
 20
578.7868210180036
 30
0.0
 10
69.75690098147575
 20
578.7929306688826
 30
0.0
 10
69.50201530510829
 20
578.7959806837171
 30
0.0
  0
SPLINE
  5
D0
330
85
100
AcDbEntity
  8
$DDT_AUDIT_GENERATED_(AF)
  6
Continuous
 62
     7
100
AcDbSpline
210
0.0
220
0.0
230
1.0
 70
     8
 71
     3
 72
    26
 73
    22
 74
     0
 42
0.0000000003984939
 43
0.0000000001
 40
0.0
 40
0.0
 40
0.0
 40
0.0
 40
0.0077995393946525
 40
0.0156267445558021
 40
0.031244390035342
 40
0.0624180159907827
 40
0.0936179639295742
 40
0.1248334464568925
 40
0.1560745178877149
 40
0.1873158958343457
 40
0.2185594123686272
 40
0.2498107671727031
 40
0.3122830237194949
 40
0.374782543213701
 40
0.4372955221901284
 40
0.4998151959094199
 40
0.5623373010562436
 40
0.6248596512928324
 40
0.6873833292273157
 40
0.7499087685249347
 40
0.8742928244642926
 40
0.8742928244642926
 40
0.8742928244642926
 40
0.8742928244642926
 10
69.50201530510829
 20
578.7959806837171
 30
0.0
 10
69.24718002874367
 20
578.7929285175005
 30
0.0
 10
68.73660554914207
 20
578.7868133587212
 30
0.0
 10
67.7212173717375
 20
578.7207896249035
 30
0.0
 10
65.97290704295902
 20
578.5021111740116
 30
0.0
 10
63.62153311062279
 20
577.8980712515339
 30
0.0
 10
61.20012088212258
 20
576.8526118945113
 30
0.0
 10
59.20392566395642
 20
575.6357628512856
 30
0.0
 10
57.60473435561254
 20
574.3703063836005
 30
0.0
 10
56.34372821675974
 20
573.1460999719899
 30
0.0
 10
55.36264764729452
 20
572.0229654454688
 30
0.0
 10
54.35668536371528
 20
570.706790794509
 30
0.0
 10
53.5446490703498
 20
569.4421988289267
 30
0.0
 10
53.00873882143951
 20
568.4753963944412
 30
0.0
 10
52.72882924047583
 20
567.8925011741464
 30
0.0
 10
52.59976752510277
 20
567.5533898830237
 30
0.0
 10
52.55787488562434
 20
567.3615866020082
 30
0.0
 10
52.55625413370264
 20
567.2569896466059
 30
0.0
 10
52.57261472472065
 20
567.2029094474218
 30
0.0
 10
52.60520124245423
 20
567.1690486120763
 30
0.0
 10
52.62310106387059
 20
567.1653645611492
 30
0.0
 10
52.62985920037217
 20
567.1642237162946
 30
0.0
  0
SPLINE
  5
D1
330
85
100
AcDbEntity
  8
$DDT_AUDIT_GENERATED_(AF)
  6
Continuous
 62
     7
100
AcDbSpline
210
0.0
220
0.0
230
1.0
 70
     8
 71
     3
 72
     8
 73
     4
 74
     0
 42
0.0000001588467197
 43
0.0000000001
 40
0.9011847321658485
 40
0.9011847321658485
 40
0.9011847321658485
 40
0.9011847321658485
 40
1.0
 40
1.0
 40
1.0
 40
1.0
 10
52.63356634237736
 20
567.1636496927388
 30
0.0
 10
52.63734222212521
 20
567.1631340911671
 30
0.0
 10
52.63854155944736
 20
567.1632501195458
 30
0.0
 10
52.63974089677166
 20
567.1633661479244
 30
0.0
  0
ARC
  5
D2
330
85
100
AcDbEntity
  8
$DDT_AUDIT_GENERATED_(AF)
  6
Continuous
 62
     7
100
AcDbCircle
 10
69.4992920954
 20
558.750583888
 30
0.0
 40
20.93299937264106
100
AcDbArc
 50
270.0074531509
 51
288.4416940178
  0
ARC
  5
D3
330
85
100
AcDbEntity
  8
$DDT_AUDIT_GENERATED_(AF)
  6
Continuous
 62
     7
100
AcDbCircle
 10
69.5027408528
 20
558.7385453395
 30
0.0
 40
20.9209606596199
100
AcDbArc
 50
251.553030287
 51
269.9980124028
  0
ARC
  5
D4
330
85
100
AcDbEntity
  8
$DDT_AUDIT_GENERATED_(AF)
  6
Continuous
 62
     7
100
AcDbCircle
 10
69.5051236847
 20
558.4865302514
 30
0.0
 40
21.01944898861469
100
AcDbArc
 50
90.0084729639
 51
107.0661208619
  0
ARC
  5
D5
330
85
100
AcDbEntity
  8
$DDT_AUDIT_GENERATED_(AF)
  6
Continuous
 62
     7
100
AcDbCircle
 10
69.4910709343
 20
558.4343306808
 30
0.0
 40
21.07165117154043
100
AcDbArc
 50
72.9551637973
 51
89.9702412366
  0
SPLINE
  5
D6
330
85
100
AcDbEntity
  8
$DDT_AUDIT_GENERATED_(AF)
  6
Continuous
 62
     7
100
AcDbSpline
210
0.0
220
0.0
230
1.0
 70
     8
 71
     3
 72
    18
 73
    14
 74
     0
 42
0.0000000008701144
 43
0.0000000001
 40
0.0
 40
0.0
 40
0.0
 40
0.0
 40
0.0433207483497084
 40
0.0964297971593365
 40
0.1626316359431194
 40
0.2026853923040991
 40
0.2488958378562931
 40
0.3225461337588424
 40
0.4133764802226093
 40
0.5250806437805982
 40
0.6609988883270236
 40
0.8237750910568377
 40
1.0
 40
1.0
 40
1.0
 40
1.0
 10
48.73163459820422
 20
557.9469544146284
 30
0.0
 10
48.73817551437919
 20
557.7645343267185
 30
0.0
 10
48.75464208314599
 20
557.4213526362183
 30
0.0
 10
48.85773818545595
 20
556.7913186607135
 30
0.0
 10
49.0775478224255
 20
556.2202622181364
 30
0.0
 10
49.37600392910639
 20
555.7167261717476
 30
0.0
 10
49.74932335221226
 20
555.2303845701076
 30
0.0
 10
50.32446323875379
 20
554.6616519430984
 30
0.0
 10
51.16999640592478
 20
554.0254755769224
 30
0.0
 10
52.2895309317875
 20
553.3699874919114
 30
0.0
 10
53.70839136312956
 20
552.7155835364705
 30
0.0
 10
55.44739431399898
 20
552.080335756535
 30
0.0
 10
56.60437420803603
 20
551.764413810828
 30
0.0
 10
57.31990689443005
 20
551.574392117167
 30
0.0
  0
ARC
  5
D7
330
85
100
AcDbEntity
  8
$DDT_AUDIT_GENERATED_(AF)
  6
Continuous
 62
     7
100
AcDbCircle
 10
69.68670376
 20
558.6637942581
 30
0.0
 40
20.93332231032273
100
AcDbArc
 50
160.0315391793
 51
181.9624180243
  0
LINE
  5
D8
330
85
100
AcDbEntity
  8
$DDT_AUDIT_GENERATED_(AF)
  6
Continuous
 62
     7
100
AcDbLine
 10
90.3199657911
 20
559.8147851277
 30
0.0
 11
90.3199618707
 21
559.8148559535
 31
0.0
  0
LINE
  5
D9
330
85
100
AcDbEntity
  8
$DDT_AUDIT_GENERATED_(AF)
  6
Continuous
 62
     7
100
AcDbLine
 10
85.7927542595
 20
552.9299686583
 30
0.0
 11
86.3114125424
 21
553.168480649
 31
0.0
  0
ARC
  5
DA
330
85
100
AcDbEntity
  8
$DDT_AUDIT_GENERATED_(AF)
  6
Continuous
 62
     7
100
AcDbCircle
 10
54.1548104415
 20
560.8951766941
 30
0.0
 40
6.429990727326181
100
AcDbArc
 50
102.8796480688
 51
130.1142637057
  0
ARC
  5
DB
330
85
100
AcDbEntity
  8
$DDT_AUDIT_GENERATED_(AF)
  6
Continuous
 62
     7
100
AcDbCircle
 10
68.8977050936
 20
560.1000791675
 30
0.0
 40
22.38954744510347
100
AcDbArc
 50
284.8233214511
 51
301.1604247731
  0
ARC
  5
DC
330
85
100
AcDbEntity
  8
$DDT_AUDIT_GENERATED_(AF)
  6
Continuous
 62
     7
100
AcDbCircle
 10
70.2050246058
 20
559.4752564814
 30
0.0
 40
21.87906711500404
100
AcDbArc
 50
213.9488816741
 51
245.165901608
  0
LINE
  5
DD
330
85
100
AcDbEntity
  8
$DDT_AUDIT_GENERATED_(AF)
  6
Continuous
 62
     7
100
AcDbLine
 10
51.9917106889
 20
547.347315403
 30
0.0
 11
52.0555476152
 21
547.2568252077
 31
0.0
  0
ARC
  5
DE
330
85
100
AcDbEntity
  8
$DDT_AUDIT_GENERATED_(AF)
  6
Continuous
 62
     7
100
AcDbCircle
 10
68.2091180269
 20
558.1023772281
 30
0.0
 40
19.4384115625281
100
AcDbArc
 50
183.7841556618
 51
203.018064594
  0
CIRCLE
  5
E0
330
85
100
AcDbEntity
  8
$DDT_AUDIT_GENERATED_(DF)
  6
Continuous
 62
     7
100
AcDbCircle
 10
69.5020153051
 20
558.7014209255
 30
0.0
 40
24.7499999999987
  0
SPLINE
  5
E1
330
85
100
AcDbEntity
  8
$DDT_AUDIT_GENERATED_(DF)
  6
Continuous
 62
     7
100
AcDbSpline
210
0.0
220
0.0
230
1.0
 70
    11
 71
     3
 72
    38
 73
    34
 74
     0
 42
0.0000000000527144
 43
0.0000000001
 40
0.0
 40
0.0
 40
0.0
 40
0.0
 40
0.0625
 40
0.0625
 40
0.125
 40
0.125
 40
0.1875
 40
0.1875
 40
0.25
 40
0.25
 40
0.3125
 40
0.3125
 40
0.375
 40
0.375
 40
0.4375
 40
0.4375
 40
0.5
 40
0.5
 40
0.5625
 40
0.5625
 40
0.625
 40
0.625
 40
0.6875
 40
0.6875
 40
0.75
 40
0.75
 40
0.8125
 40
0.8125
 40
0.875
 40
0.875
 40
0.9375
 40
0.9375
 40
1.0
 40
1.0
 40
1.0
 40
1.0
 10
39.50200943844072
 20
558.7014164705374
 30
0.0
 10
39.50200644684588
 20
562.6284109824057
 30
0.0
 10
40.28282389104705
 20
566.5538609844554
 30
0.0
 10
43.28840984066191
 20
573.8100029817216
 30
0.0
 10
45.51199577634902
 20
577.1378399949142
 30
0.0
 10
51.06560044364399
 20
582.6914531237171
 30
0.0
 10
54.39343406896539
 20
584.9150441297118
 30
0.0
 10
61.64957148689651
 20
587.9206411348194
 30
0.0
 10
65.57502029928393
 20
588.701464559856
 30
0.0
 10
73.42900932302065
 20
588.7014705430457
 30
0.0
 10
77.35445932507025
 20
587.9206530988446
 30
0.0
 10
84.61060132233645
 20
584.9150671492297
 30
0.0
 10
87.93843833552901
 20
582.6914812135426
 30
0.0
 10
93.49205146433192
 20
577.1378765462476
 30
0.0
 10
95.71564247032656
 20
573.8100429209263
 30
0.0
 10
98.7212394754343
 20
566.5539055029951
 30
0.0
 10
99.50206290047097
 20
562.6284566906077
 30
0.0
 10
99.50206888366063
 20
554.774467666871
 30
0.0
 10
98.72125143945948
 20
550.8490176648214
 30
0.0
 10
95.71566548984461
 20
543.5928756675552
 30
0.0
 10
93.49207955415751
 20
540.2650386543626
 30
0.0
 10
87.93847488686252
 20
534.7114255255598
 30
0.0
 10
84.61064126154113
 20
532.487834519565
 30
0.0
 10
77.35450384361003
 20
529.4822375144573
 30
0.0
 10
73.42905503122259
 20
528.7014140894206
 30
0.0
 10
65.57506600748587
 20
528.701408106231
 30
0.0
 10
61.64961600543629
 20
529.4822255504321
 30
0.0
 10
54.39347400817006
 20
532.487811500047
 30
0.0
 10
51.0656369949775
 20
534.7113974357342
 30
0.0
 10
45.5120238661746
 20
540.2650021030291
 30
0.0
 10
43.28843286017996
 20
543.5928357283505
 30
0.0
 10
40.28283585507221
 20
550.8489731462815
 30
0.0
 10
39.50201243003552
 20
554.774421958669
 30
0.0
 10
39.50200943844072
 20
558.7014164705374
 30
0.0
  0
ELLIPSE
  5
E3
330
85
100
AcDbEntity
  8
02636038_GEHÄUSE
  6
Continuous
 62
     7
100
AcDbEllipse
 10
69.5020153051
 20
542.073242717
 30
0.0
 11
-10.05000000000002
 21
0.0
 31
0.0
210
0.0
220
0.0
230
1.0
 40
0.0871557427
 41
2.680400008976485
 42
6.283185307179586
  0
ELLIPSE
  5
E4
330
85
100
AcDbEntity
  8
02636038_GEHÄUSE
  6
Continuous
 62
     7
100
AcDbEllipse
 10
69.5020153051
 20
542.073242717
 30
0.0
 11
-10.05000000000002
 21
0.0
 31
0.0
210
0.0
220
0.0
230
1.0
 40
0.0871557427
 41
0.0
 42
0.4611926446133028
  0
ELLIPSE
  5
E5
330
85
100
AcDbEntity
  8
02636038_GEHÄUSE
  6
Continuous
 62
     7
100
AcDbEllipse
 10
69.5020153051
 20
542.073242717
 30
0.0
 11
-10.75000000000001
 21
-3.469446951953614E-15
 31
0.0
210
0.0
220
0.0
230
1.0
 40
0.0871557427
 41
2.542056094214121
 42
6.283185307179586
  0
ELLIPSE
  5
E6
330
85
100
AcDbEntity
  8
02636038_GEHÄUSE
  6
Continuous
 62
     7
100
AcDbEllipse
 10
69.5020153051
 20
542.073242717
 30
0.0
 11
-10.75000000000001
 21
-3.469446951953614E-15
 31
0.0
210
0.0
220
0.0
230
1.0
 40
0.0871557427
 41
0.0
 42
0.5995365593451982
  0
ELLIPSE
  5
E7
330
85
100
AcDbEntity
  8
02636038_GEHÄUSE
  6
Continuous
 62
     7
100
AcDbEllipse
 10
69.5020153051
 20
550.5408976508
 30
0.0
 11
11.8
 21
0.0
 31
0.0
210
0.0
220
0.0
230
1.0
 40
0.0871557427
 41
0.0
 42
3.141592653589793
  0
LINE
  5
E8
330
85
100
AcDbEntity
  8
02636038_GEHÄUSE
  6
Continuous
 62
     7
100
AcDbLine
 10
80.5020153051
 20
542.1440789727
 30
0.0
 11
80.5020153051
 21
542.6150056471
 31
0.0
  0
ELLIPSE
  5
E9
330
85
100
AcDbEntity
  8
02636038_GEHÄUSE
  6
Continuous
 62
     7
100
AcDbEllipse
 10
69.5020153051
 20
545.0618268113
 30
0.0
 11
-11.79999999999993
 21
-6.938893903907228E-15
 31
0.0
210
0.0
220
0.0
230
1.0
 40
0.0871557427
 41
2.771250021498083
 42
3.511935285681517
  0
LINE
  5
EA
330
85
100
AcDbEntity
  8
02636038_GEHÄUSE
  6
Continuous
 62
     7
100
AcDbLine
 10
80.5020153051
 20
542.6150056471
 30
0.0
 11
80.5020153051
 21
543.6245344092
 31
0.0
  0
LINE
  5
EB
330
85
100
AcDbEntity
  8
02636038_GEHÄUSE
  6
Continuous
 62
     7
100
AcDbLine
 10
80.5020153051
 20
543.6245344092
 30
0.0
 11
80.5020153051
 21
545.4340542854
 31
0.0
  0
LINE
  5
EC
330
85
100
AcDbEntity
  8
02636038_GEHÄUSE
  6
Continuous
 62
     7
100
AcDbLine
 10
58.5020153051
 20
542.6150056471
 30
0.0
 11
58.5020153051
 21
542.1440789727
 31
0.0
  0
ELLIPSE
  5
ED
330
85
100
AcDbEntity
  8
02636038_GEHÄUSE
  6
Continuous
 62
     7
100
AcDbEllipse
 10
69.5020153051
 20
545.0618268113
 30
0.0
 11
11.80000000000071
 21
0.0
 31
0.0
210
0.0
220
0.0
230
1.0
 40
0.0871557427
 41
2.771250021498088
 42
3.511935285681499
  0
LINE
  5
EE
330
85
100
AcDbEntity
  8
02636038_GEHÄUSE
  6
Continuous
 62
     7
100
AcDbLine
 10
58.5020153051
 20
545.4340542854
 30
0.0
 11
58.5020153051
 21
543.6245344092
 31
0.0
  0
LINE
  5
EF
330
85
100
AcDbEntity
  8
02636038_GEHÄUSE
  6
Continuous
 62
     7
100
AcDbLine
 10
58.5020153051
 20
543.6245344092
 30
0.0
 11
58.5020153051
 21
542.6150056471
 31
0.0
  0
LINE
  5
F0
330
85
100
AcDbEntity
  8
02636038_GEHÄUSE
  6
Continuous
 62
     7
100
AcDbLine
 10
58.3020153051
 20
551.5655541574
 30
0.0
 11
58.3020153051
 21
550.8646668652
 31
0.0
  0
LINE
  5
F1
330
85
100
AcDbEntity
  8
02636038_GEHÄUSE
  6
Continuous
 62
     7
100
AcDbLine
 10
80.7020153051
 20
550.8646668652
 30
0.0
 11
80.7020153051
 21
551.5655771551
 31
0.0
  0
LINE
  5
F2
330
85
100
AcDbEntity
  8
02636038_GEHÄUSE
  6
Continuous
 62
     7
100
AcDbLine
 10
58.5020153051
 20
542.1439699696
 30
0.0
 11
58.8761571482
 21
541.9312660808
 31
0.0
  0
LINE
  5
F3
330
85
100
AcDbEntity
  8
02636038_GEHÄUSE
  6
Continuous
 62
     7
100
AcDbLine
 10
80.127873462
 20
541.9312660808
 30
0.0
 11
80.5020153051
 21
542.1439699696
 31
0.0
  0
LINE
  5
F4
330
85
100
AcDbEntity
  8
02636038_GEHÄUSE
  6
Continuous
 62
     7
100
AcDbLine
 10
57.7020153051
 20
550.5408976508
 30
0.0
 11
57.7020153051
 21
545.0618268113
 31
0.0
  0
LINE
  5
F5
330
85
100
AcDbEntity
  8
02636038_GEHÄUSE
  6
Continuous
 62
     7
100
AcDbLine
 10
81.3020153051
 20
545.0618268113
 30
0.0
 11
81.3020153051
 21
550.5408976508
 31
0.0
  0
ELLIPSE
  5
F7
330
85
100
AcDbEntity
  8
$DDT_AUDIT_GENERATED_(F6)
  6
Continuous
 62
     7
100
AcDbEllipse
 10
69.5020153051
 20
541.6747648378
 30
0.0
 11
-9.000000000000007
 21
-3.469446951953614E-15
 31
0.0
210
0.0
220
0.0
230
1.0
 40
0.0871557427
 41
0.0
 42
6.283185307179586
  0
ELLIPSE
  5
F8
330
85
100
AcDbEntity
  8
$DDT_AUDIT_GENERATED_(F6)
  6
Continuous
 62
     7
100
AcDbEllipse
 10
69.5020153051
 20
541.6747648378
 30
0.0
 11
5.250000000000004
 21
0.0
 31
0.0
210
0.0
220
0.0
230
1.0
 40
0.0871557427
 41
0.0
 42
6.283185307179586
  0
ELLIPSE
  5
F9
330
85
100
AcDbEntity
  8
$DDT_AUDIT_GENERATED_(F6)
  6
Continuous
 62
     7
100
AcDbEllipse
 10
69.5020153051
 20
541.6747648378
 30
0.0
 11
6.250000000000005
 21
0.0
 31
0.0
210
0.0
220
0.0
230
1.0
 40
0.0871557427
 41
0.0
 42
6.283185307179586
  0
ELLIPSE
  5
FA
330
85
100
AcDbEntity
  8
$DDT_AUDIT_GENERATED_(F6)
  6
Continuous
 62
     7
100
AcDbEllipse
 10
69.5020153051
 20
541.6747648378
 30
0.0
 11
-2.750000000000003
 21
0.0
 31
0.0
210
0.0
220
0.0
230
1.0
 40
0.0871557427
 41
0.0
 42
6.283185307179586
  0
ELLIPSE
  5
FB
330
85
100
AcDbEntity
  8
$DDT_AUDIT_GENERATED_(F6)
  6
Continuous
 62
     7
100
AcDbEllipse
 10
69.5020153051
 20
541.6747648378
 30
0.0
 11
2.149999999999999
 21
0.0
 31
0.0
210
0.0
220
0.0
230
1.0
 40
0.0871557427
 41
0.0
 42
6.283185307179586
  0
ELLIPSE
  5
FC
330
85
100
AcDbEntity
  8
$DDT_AUDIT_GENERATED_(F6)
  6
Continuous
 62
     7
100
AcDbEllipse
 10
69.5020153051
 20
541.8740037774
 30
0.0
 11
-0.5196299438963575
 21
0.0
 31
0.0
210
0.0
220
0.0
230
1.0
 40
0.0871557427
 41
0.3764406433434015
 42
2.765152010364528
  0
ELLIPSE
  5
FD
330
85
100
AcDbEntity
  8
$DDT_AUDIT_GENERATED_(F6)
  6
Continuous
 62
     7
100
AcDbEllipse
 10
69.5020153051
 20
541.6747648378
 30
0.0
 11
8.699999999999999
 21
0.0
 31
0.0
210
0.0
220
0.0
230
1.0
 40
0.0871557427
 41
0.0
 42
6.283185307179586
  0
ARC
  5
FE
330
85
100
AcDbEntity
  8
$DDT_AUDIT_GENERATED_(F6)
  6
Continuous
 62
     7
100
AcDbCircle
 10
63.3002850509
 20
541.8740037774
 30
0.0
 40
0.0482631654113347
100
AcDbArc
 50
169.5961993009
 51
180.0
  0
ELLIPSE
  5
FF
330
85
100
AcDbEntity
  8
$DDT_AUDIT_GENERATED_(F6)
  6
Continuous
 62
     7
100
AcDbEllipse
 10
69.5020153051
 20
541.8740037774
 30
0.0
 11
-8.500000000027001
 21
-4.475586568020162E-13
 31
0.0
210
0.0
220
0.0
230
1.0
 40
0.0871557427
 41
0.0459694514182161
 42
0.2500344105106643
  0
LINE
  5
100
330
85
100
AcDbEntity
  8
$DDT_AUDIT_GENERATED_(F6)
  6
Continuous
 62
     7
100
AcDbLine
 10
63.2528153563
 20
541.8827193517
 30
0.0
 11
63.2528153563
 21
542.0109202601
 31
0.0
  0
LINE
  5
101
330
85
100
AcDbEntity
  8
$DDT_AUDIT_GENERATED_(F6)
  6
Continuous
 62
     7
100
AcDbLine
 10
63.2528153563
 20
541.8827193517
 30
0.0
 11
61.1355970702
 21
541.8827193517
 31
0.0
  0
LINE
  5
102
330
85
100
AcDbEntity
  8
$DDT_AUDIT_GENERATED_(F6)
  6
Continuous
 62
     7
100
AcDbLine
 10
63.2520153051
 20
541.8652882031
 30
0.0
 11
61.0811270939
 21
541.8652882031
 31
0.0
  0
ELLIPSE
  5
103
330
85
100
AcDbEntity
  8
$DDT_AUDIT_GENERATED_(F6)
  6
Continuous
 62
     7
100
AcDbEllipse
 10
69.5020153087
 20
541.8740037773
 30
0.0
 11
-6.250000003633335
 21
9.225606389939855E-11
 31
0.0
210
0.0
220
0.0
230
1.0
 40
0.0871557427
 41
-0.2778000704636865
 42
-0.245798704982743
  0
LINE
  5
104
330
85
100
AcDbEntity
  8
$DDT_AUDIT_GENERATED_(F6)
  6
Continuous
 62
     7
100
AcDbLine
 10
63.4916335854
 20
542.0233891167
 30
0.0
 11
63.4916335854
 21
542.1663786501
 31
0.0
  0
LINE
  5
105
330
85
100
AcDbEntity
  8
$DDT_AUDIT_GENERATED_(F6)
  6
Continuous
 62
     7
100
AcDbLine
 10
63.4916335854
 20
542.0233891167
 30
0.0
 11
61.9969805753
 21
542.0582942131
 31
0.0
  0
LINE
  5
106
330
85
100
AcDbEntity
  8
$DDT_AUDIT_GENERATED_(F6)
  6
Continuous
 62
     7
100
AcDbLine
 10
63.4398697764
 20
542.0065519201
 30
0.0
 11
61.8945213957
 21
542.0426409213
 31
0.0
  0
ELLIPSE
  5
107
330
85
100
AcDbEntity
  8
$DDT_AUDIT_GENERATED_(F6)
  6
Continuous
 62
     7
100
AcDbEllipse
 10
69.5020153317
 20
541.874003776
 30
0.0
 11
-6.250000026879976
 21
1.171483049455802E-9
 31
0.0
210
0.0
220
0.0
230
1.0
 40
0.0871557426
 41
-0.5395994572231881
 42
-0.5075980918111833
  0
LINE
  5
108
330
85
100
AcDbEntity
  8
$DDT_AUDIT_GENERATED_(F6)
  6
Continuous
 62
     7
100
AcDbLine
 10
64.1400493961
 20
542.1538785177
 30
0.0
 11
64.1400493961
 21
542.2718886805
 31
0.0
  0
LINE
  5
109
330
85
100
AcDbEntity
  8
$DDT_AUDIT_GENERATED_(F6)
  6
Continuous
 62
     7
100
AcDbLine
 10
64.1400493961
 20
542.1538785177
 30
0.0
 11
63.2259111073
 21
542.1998774001
 31
0.0
  0
LINE
  5
10A
330
85
100
AcDbEntity
  8
$DDT_AUDIT_GENERATED_(F6)
  6
Continuous
 62
     7
100
AcDbLine
 10
64.0400493961
 20
542.1387827002
 30
0.0
 11
63.0854322687
 21
542.1868184532
 31
0.0
  0
ELLIPSE
  5
10B
330
85
100
AcDbEntity
  8
$DDT_AUDIT_GENERATED_(F6)
  6
Continuous
 62
     7
100
AcDbEllipse
 10
69.5020152895
 20
541.8740037788
 30
0.0
 11
-6.249999983449925
 21
-9.740298845262174E-10
 31
0.0
210
0.0
220
0.0
230
1.0
 40
0.0871557427
 41
-0.8013988470676292
 42
-0.7693974815204321
  0
LINE
  5
10C
330
85
100
AcDbEntity
  8
$DDT_AUDIT_GENERATED_(F6)
  6
Continuous
 62
     7
100
AcDbLine
 10
65.1538743224
 20
542.2652949176
 30
0.0
 11
65.1538743224
 21
542.3315264153
 31
0.0
  0
LINE
  5
10D
330
85
100
AcDbEntity
  8
$DDT_AUDIT_GENERATED_(F6)
  6
Continuous
 62
     7
100
AcDbLine
 10
65.1538743224
 20
542.2652949176
 30
0.0
 11
64.6848196992
 21
542.3061757217
 31
0.0
  0
LINE
  5
10E
330
85
100
AcDbEntity
  8
$DDT_AUDIT_GENERATED_(F6)
  6
Continuous
 62
     7
100
AcDbLine
 10
65.0124529662
 20
542.2529692343
 30
0.0
 11
64.516654833
 21
542.2961808889
 31
0.0
  0
ELLIPSE
  5
10F
330
85
100
AcDbEntity
  8
$DDT_AUDIT_GENERATED_(F6)
  6
Continuous
 62
     7
100
AcDbEllipse
 10
69.5020152735
 20
541.8740037821
 30
0.0
 11
-6.24999996054508
 21
-2.400867699092757E-9
 31
0.0
210
0.0
220
0.0
230
1.0
 40
0.0871557425
 41
-1.063198236257663
 42
-1.031196870605758
  0
LINE
  5
110
330
85
100
AcDbEntity
  8
$DDT_AUDIT_GENERATED_(F6)
  6
Continuous
 62
     7
100
AcDbLine
 10
66.4640178711
 20
542.350045473
 30
0.0
 11
66.4640178711
 21
542.38528768
 31
0.0
  0
LINE
  5
111
330
85
100
AcDbEntity
  8
$DDT_AUDIT_GENERATED_(F6)
  6
Continuous
 62
     7
100
AcDbLine
 10
66.4640178711
 20
542.350045473
 30
0.0
 11
66.2731166635
 21
542.3788635709
 31
0.0
  0
LINE
  5
112
330
85
100
AcDbEntity
  8
$DDT_AUDIT_GENERATED_(F6)
  6
Continuous
 62
     7
100
AcDbLine
 10
66.2908127903
 20
542.3413298988
 30
0.0
 11
66.0866578104
 21
542.3721487619
 31
0.0
  0
ELLIPSE
  5
113
330
85
100
AcDbEntity
  8
$DDT_AUDIT_GENERATED_(F6)
  6
Continuous
 62
     7
100
AcDbEllipse
 10
69.5020152895
 20
541.8740037824
 30
0.0
 11
-6.249999968079123
 21
-1.319160058965707E-9
 31
0.0
210
0.0
220
0.0
230
1.0
 40
0.0871557424
 41
-1.324997623046599
 42
-1.292996257403079
  0
LINE
  5
114
330
85
100
AcDbEntity
  8
$DDT_AUDIT_GENERATED_(F6)
  6
Continuous
 62
     7
100
AcDbLine
 10
67.9811959243
 20
542.4023545736
 30
0.0
 11
67.9811959243
 21
542.4213447579
 31
0.0
  0
LINE
  5
115
330
85
100
AcDbEntity
  8
$DDT_AUDIT_GENERATED_(F6)
  6
Continuous
 62
     7
100
AcDbLine
 10
67.9811959243
 20
542.4023545736
 30
0.0
 11
67.9255120934
 21
542.4204668344
 31
0.0
  0
LINE
  5
116
330
85
100
AcDbEntity
  8
$DDT_AUDIT_GENERATED_(F6)
  6
Continuous
 62
     7
100
AcDbLine
 10
67.7880107591
 20
542.3978430604
 30
0.0
 11
67.7287982097
 21
542.4171031062
 31
0.0
  0
ARC
  5
117
330
85
100
AcDbEntity
  8
$DDT_AUDIT_GENERATED_(F6)
  6
Continuous
 62
     7
100
AcDbCircle
 10
69.5020153051
 20
470.7171292123
 30
0.0
 40
71.70159796167242
100
AcDbArc
 50
89.9200913233
 51
90.0799086767
  0
LINE
  5
118
330
85
100
AcDbEntity
  8
$DDT_AUDIT_GENERATED_(F6)
  6
Continuous
 62
     7
100
AcDbLine
 10
69.6020153051
 20
542.4186574405
 30
0.0
 11
69.6020153051
 21
542.4329697085
 31
0.0
  0
LINE
  5
119
330
85
100
AcDbEntity
  8
$DDT_AUDIT_GENERATED_(F6)
  6
Continuous
 62
     7
100
AcDbLine
 10
69.4020153051
 20
542.4186574405
 30
0.0
 11
69.4020153051
 21
542.4329697085
 31
0.0
  0
ELLIPSE
  5
11A
330
85
100
AcDbEntity
  8
$DDT_AUDIT_GENERATED_(F6)
  6
Continuous
 62
     7
100
AcDbEllipse
 10
69.502015297
 20
541.8740037747
 30
0.0
 11
6.250000016813667
 21
6.908223992851958E-10
 31
0.0
210
0.0
220
0.0
230
1.0
 40
0.0871557429
 41
1.292996255655059
 42
1.324997621064921
  0
LINE
  5
11B
330
85
100
AcDbEntity
  8
$DDT_AUDIT_GENERATED_(F6)
  6
Continuous
 62
     7
100
AcDbLine
 10
71.2160198511
 20
542.3978430604
 30
0.0
 11
71.2752324006
 21
542.4171031062
 31
0.0
  0
LINE
  5
11C
330
85
100
AcDbEntity
  8
$DDT_AUDIT_GENERATED_(F6)
  6
Continuous
 62
     7
100
AcDbLine
 10
71.0228346859
 20
542.4023545736
 30
0.0
 11
71.0785185168
 21
542.4204668344
 31
0.0
  0
LINE
  5
11D
330
85
100
AcDbEntity
  8
$DDT_AUDIT_GENERATED_(F6)
  6
Continuous
 62
     7
100
AcDbLine
 10
71.0228346859
 20
542.4023545736
 30
0.0
 11
71.0228346859
 21
542.4213447579
 31
0.0
  0
ELLIPSE
  5
11E
330
85
100
AcDbEntity
  8
$DDT_AUDIT_GENERATED_(F6)
  6
Continuous
 62
     7
100
AcDbEllipse
 10
69.5020152762
 20
541.874003773
 30
0.0
 11
6.250000036092524
 21
2.193772941083694E-9
 31
0.0
210
0.0
220
0.0
230
1.0
 40
0.0871557429
 41
1.03119686649599
 42
1.063198231838715
  0
LINE
  5
11F
330
85
100
AcDbEntity
  8
$DDT_AUDIT_GENERATED_(F6)
  6
Continuous
 62
     7
100
AcDbLine
 10
72.7132178199
 20
542.3413298988
 30
0.0
 11
72.9173727998
 21
542.3721487619
 31
0.0
  0
LINE
  5
120
330
85
100
AcDbEntity
  8
$DDT_AUDIT_GENERATED_(F6)
  6
Continuous
 62
     7
100
AcDbLine
 10
72.5400127391
 20
542.350045473
 30
0.0
 11
72.7309139467
 21
542.3788635709
 31
0.0
  0
LINE
  5
121
330
85
100
AcDbEntity
  8
$DDT_AUDIT_GENERATED_(F6)
  6
Continuous
 62
     7
100
AcDbLine
 10
72.5400127391
 20
542.350045473
 30
0.0
 11
72.5400127391
 21
542.38528768
 31
0.0
  0
ELLIPSE
  5
122
330
85
100
AcDbEntity
  8
$DDT_AUDIT_GENERATED_(F6)
  6
Continuous
 62
     7
100
AcDbEllipse
 10
69.5020153007
 20
541.874003777
 30
0.0
 11
6.250000004618269
 21
2.756406214388107E-10
 31
0.0
210
0.0
220
0.0
230
1.0
 40
0.0871557427
 41
0.7693974804053867
 42
0.8013988458803246
  0
LINE
  5
123
330
85
100
AcDbEntity
  8
$DDT_AUDIT_GENERATED_(F6)
  6
Continuous
 62
     7
100
AcDbLine
 10
73.991577644
 20
542.2529692343
 30
0.0
 11
74.4873757772
 21
542.2961808889
 31
0.0
  0
LINE
  5
124
330
85
100
AcDbEntity
  8
$DDT_AUDIT_GENERATED_(F6)
  6
Continuous
 62
     7
100
AcDbLine
 10
73.8501562878
 20
542.2652949176
 30
0.0
 11
74.319210911
 21
542.3061757217
 31
0.0
  0
LINE
  5
125
330
85
100
AcDbEntity
  8
$DDT_AUDIT_GENERATED_(F6)
  6
Continuous
 62
     7
100
AcDbLine
 10
73.8501562878
 20
542.2652949176
 30
0.0
 11
73.8501562878
 21
542.3315264153
 31
0.0
  0
ELLIPSE
  5
126
330
85
100
AcDbEntity
  8
$DDT_AUDIT_GENERATED_(F6)
  6
Continuous
 62
     7
100
AcDbEllipse
 10
69.5020152548
 20
541.8740037749
 30
0.0
 11
6.250000050857143
 21
2.207740934512259E-9
 31
0.0
210
0.0
220
0.0
230
1.0
 40
0.0871557425
 41
0.5075980908823653
 42
0.5395994562242121
  0
LINE
  5
127
330
85
100
AcDbEntity
  8
$DDT_AUDIT_GENERATED_(F6)
  6
Continuous
 62
     7
100
AcDbLine
 10
74.9639812141
 20
542.1387827002
 30
0.0
 11
75.9185983415
 21
542.1868184532
 31
0.0
  0
LINE
  5
128
330
85
100
AcDbEntity
  8
$DDT_AUDIT_GENERATED_(F6)
  6
Continuous
 62
     7
100
AcDbLine
 10
74.8639812141
 20
542.1538785177
 30
0.0
 11
75.7781195029
 21
542.1998774001
 31
0.0
  0
LINE
  5
129
330
85
100
AcDbEntity
  8
$DDT_AUDIT_GENERATED_(F6)
  6
Continuous
 62
     7
100
AcDbLine
 10
74.8639812141
 20
542.1538785177
 30
0.0
 11
74.8639812141
 21
542.2718886805
 31
0.0
  0
ELLIPSE
  5
12A
330
85
100
AcDbEntity
  8
$DDT_AUDIT_GENERATED_(F6)
  6
Continuous
 62
     7
100
AcDbEllipse
 10
69.5020152991
 20
541.8740037772
 30
0.0
 11
6.250000006027031
 21
1.335043187111751E-10
 31
0.0
210
0.0
220
0.0
230
1.0
 40
0.0871557427
 41
0.2457987049345414
 42
0.2778000704092941
  0
LINE
  5
12B
330
85
100
AcDbEntity
  8
$DDT_AUDIT_GENERATED_(F6)
  6
Continuous
 62
     7
100
AcDbLine
 10
75.5641608338
 20
542.0065519201
 30
0.0
 11
77.1095092145
 21
542.0426409213
 31
0.0
  0
LINE
  5
12C
330
85
100
AcDbEntity
  8
$DDT_AUDIT_GENERATED_(F6)
  6
Continuous
 62
     7
100
AcDbLine
 10
75.5123970248
 20
542.0233891167
 30
0.0
 11
77.0070500349
 21
542.0582942131
 31
0.0
  0
LINE
  5
12D
330
85
100
AcDbEntity
  8
$DDT_AUDIT_GENERATED_(F6)
  6
Continuous
 62
     7
100
AcDbLine
 10
75.5123970248
 20
542.0233891167
 30
0.0
 11
75.5123970248
 21
542.1663786501
 31
0.0
  0
ARC
  5
12E
330
85
100
AcDbEntity
  8
$DDT_AUDIT_GENERATED_(F6)
  6
Continuous
 62
     7
100
AcDbCircle
 10
75.7037455594
 20
541.8740037774
 30
0.0
 40
0.0482631654113074
100
AcDbArc
 50
0.0
 51
10.4038006991
  0
LINE
  5
12F
330
85
100
AcDbEntity
  8
$DDT_AUDIT_GENERATED_(F6)
  6
Continuous
 62
     7
100
AcDbLine
 10
75.7520153051
 20
541.8652882031
 30
0.0
 11
77.9229035164
 21
541.8652882031
 31
0.0
  0
LINE
  5
130
330
85
100
AcDbEntity
  8
$DDT_AUDIT_GENERATED_(F6)
  6
Continuous
 62
     7
100
AcDbLine
 10
75.7512152539
 20
541.8827193517
 30
0.0
 11
77.8684335401
 21
541.8827193517
 31
0.0
  0
LINE
  5
131
330
85
100
AcDbEntity
  8
$DDT_AUDIT_GENERATED_(F6)
  6
Continuous
 62
     7
100
AcDbLine
 10
75.7512152539
 20
541.8827193517
 30
0.0
 11
75.7512152539
 21
542.0109202601
 31
0.0
  0
ELLIPSE
  5
132
330
85
100
AcDbEntity
  8
$DDT_AUDIT_GENERATED_(F6)
  6
Continuous
 62
     7
100
AcDbEllipse
 10
69.5020158268
 20
541.8740037652
 30
0.0
 11
8.499999478017163
 21
1.187288461990121E-8
 31
0.0
210
0.0
220
0.0
230
1.0
 40
0.0871557451
 41
-0.2735643735244082
 42
-0.2500344182006344
  0
ELLIPSE
  5
133
330
85
100
AcDbEntity
  8
$DDT_AUDIT_GENERATED_(F6)
  6
Continuous
 62
     7
100
AcDbEllipse
 10
69.5020153051
 20
541.8740037774
 30
0.0
 11
8.500000000037561
 21
-4.614364446098307E-13
 31
0.0
210
0.0
220
0.0
230
1.0
 40
0.0871557427
 41
-0.2500344105104926
 42
-0.045969451120043
  0
LINE
  5
134
330
85
100
AcDbEntity
  8
$DDT_AUDIT_GENERATED_(F6)
  6
Continuous
 62
     7
100
AcDbLine
 10
77.7376985218
 20
541.6906963333
 30
0.0
 11
77.7376985218
 21
541.8652882031
 31
0.0
  0
LINE
  5
135
330
85
100
AcDbEntity
  8
$DDT_AUDIT_GENERATED_(F6)
  6
Continuous
 62
     7
100
AcDbLine
 10
75.7520153051
 20
541.7190225579
 30
0.0
 11
77.6859347127
 21
541.6738591368
 31
0.0
  0
LINE
  5
136
330
85
100
AcDbEntity
  8
$DDT_AUDIT_GENERATED_(F6)
  6
Continuous
 62
     7
100
AcDbLine
 10
75.7520153051
 20
541.7370686108
 30
0.0
 11
77.7376985218
 21
541.6906963333
 31
0.0
  0
ELLIPSE
  5
137
330
85
100
AcDbEntity
  8
$DDT_AUDIT_GENERATED_(F6)
  6
Continuous
 62
     7
100
AcDbEllipse
 10
69.502015655
 20
541.8740037598
 30
0.0
 11
8.499999646512352
 21
1.535982799283353E-8
 31
0.0
210
0.0
220
0.0
230
1.0
 40
0.0871557438
 41
-0.5353637636183661
 42
-0.5118338084831793
  0
ELLIPSE
  5
138
330
85
100
AcDbEntity
  8
$DDT_AUDIT_GENERATED_(F6)
  6
Continuous
 62
     7
100
AcDbEllipse
 10
69.5020153051
 20
541.8740037774
 30
0.0
 11
8.500000000007461
 21
-2.012279232133096E-13
 31
0.0
210
0.0
220
0.0
230
1.0
 40
0.0871557427
 41
-0.5118337983099943
 42
-0.2735643650871253
  0
LINE
  5
139
330
85
100
AcDbEntity
  8
$DDT_AUDIT_GENERATED_(F6)
  6
Continuous
 62
     7
100
AcDbLine
 10
76.9127217929
 20
541.5111654144
 30
0.0
 11
76.9127217929
 21
541.6919162185
 31
0.0
  0
LINE
  5
13A
330
85
100
AcDbEntity
  8
$DDT_AUDIT_GENERATED_(F6)
  6
Continuous
 62
     7
100
AcDbLine
 10
75.6039406599
 20
541.556894728
 30
0.0
 11
76.8127217929
 21
541.4960695969
 31
0.0
  0
LINE
  5
13B
330
85
100
AcDbEntity
  8
$DDT_AUDIT_GENERATED_(F6)
  6
Continuous
 62
     7
100
AcDbLine
 10
75.6460887068
 20
541.5749016206
 30
0.0
 11
76.9127217929
 21
541.5111654144
 31
0.0
  0
ELLIPSE
  5
13C
330
85
100
AcDbEntity
  8
$DDT_AUDIT_GENERATED_(F6)
  6
Continuous
 62
     7
100
AcDbEllipse
 10
69.5020156399
 20
541.8740037482
 30
0.0
 11
8.499999644896935
 21
2.078846816910840E-8
 31
0.0
210
0.0
220
0.0
230
1.0
 40
0.0871557427
 41
-0.7971631551517318
 42
-0.7736331999202122
  0
ELLIPSE
  5
13D
330
85
100
AcDbEntity
  8
$DDT_AUDIT_GENERATED_(F6)
  6
Continuous
 62
     7
100
AcDbEllipse
 10
69.5020153051
 20
541.8740037774
 30
0.0
 11
8.500000000004157
 21
-2.532696274926138E-13
 31
0.0
210
0.0
220
0.0
230
1.0
 40
0.0871557427
 41
-0.773633186109163
 42
-0.5353637528862656
  0
LINE
  5
13E
330
85
100
AcDbEntity
  8
$DDT_AUDIT_GENERATED_(F6)
  6
Continuous
 62
     7
100
AcDbLine
 10
75.5827176638
 20
541.3563613302
 30
0.0
 11
75.5827176638
 21
541.548838849
 31
0.0
  0
LINE
  5
13F
330
85
100
AcDbEntity
  8
$DDT_AUDIT_GENERATED_(F6)
  6
Continuous
 62
     7
100
AcDbLine
 10
74.8616673643
 20
541.3945536379
 30
0.0
 11
75.4412963075
 21
541.3440356469
 31
0.0
  0
LINE
  5
140
330
85
100
AcDbEntity
  8
$DDT_AUDIT_GENERATED_(F6)
  6
Continuous
 62
     7
100
AcDbLine
 10
74.965218676
 20
541.4101799132
 30
0.0
 11
75.5827176638
 21
541.3563613302
 31
0.0
  0
ELLIPSE
  5
141
330
85
100
AcDbEntity
  8
$DDT_AUDIT_GENERATED_(F6)
  6
Continuous
 62
     7
100
AcDbEllipse
 10
69.5020155492
 20
541.8740037405
 30
0.0
 11
8.499999694909514
 21
1.856537840128070E-8
 31
0.0
210
0.0
220
0.0
230
1.0
 40
0.0871557415
 41
-1.058962541444908
 42
-1.035432586193037
  0
ELLIPSE
  5
142
330
85
100
AcDbEntity
  8
$DDT_AUDIT_GENERATED_(F6)
  6
Continuous
 62
     7
100
AcDbEllipse
 10
69.5020153051
 20
541.8740037774
 30
0.0
 11
8.499999999967645
 21
1.998401444325282E-12
 31
0.0
210
0.0
220
0.0
230
1.0
 40
0.0871557427
 41
-1.035432573910212
 42
-0.7971631406865747
  0
LINE
  5
143
330
85
100
AcDbEntity
  8
$DDT_AUDIT_GENERATED_(F6)
  6
Continuous
 62
     7
100
AcDbLine
 10
73.8383237177
 20
541.2368337234
 30
0.0
 11
73.8383237177
 21
541.2824775333
 31
0.0
  0
LINE
  5
144
330
85
100
AcDbEntity
  8
$DDT_AUDIT_GENERATED_(F6)
  6
Continuous
 62
     7
100
AcDbLine
 10
73.4864626805
 20
541.2550877262
 30
0.0
 11
73.6651186369
 21
541.2281181492
 31
0.0
  0
LINE
  5
145
330
85
100
AcDbEntity
  8
$DDT_AUDIT_GENERATED_(F6)
  6
Continuous
 62
     7
100
AcDbLine
 10
73.6410634106
 20
541.2666117793
 30
0.0
 11
73.8383237177
 21
541.2368337234
 31
0.0
  0
ELLIPSE
  5
146
330
85
100
AcDbEntity
  8
$DDT_AUDIT_GENERATED_(F6)
  6
Continuous
 62
     7
100
AcDbEllipse
 10
69.5020154408
 20
541.8740037332
 30
0.0
 11
8.499999719959572
 21
1.151398421050942E-8
 31
0.0
210
0.0
220
0.0
230
1.0
 40
0.0871557404
 41
-1.320761924461047
 42
-1.297231969157963
  0
ELLIPSE
  5
147
330
85
100
AcDbEntity
  8
$DDT_AUDIT_GENERATED_(F6)
  6
Continuous
 62
     7
100
AcDbEllipse
 10
69.5020153051
 20
541.8740037774
 30
0.0
 11
8.500000000002213
 21
-9.020562075079397E-14
 31
0.0
210
0.0
220
0.0
230
1.0
 40
0.0871557427
 41
-1.297231961707617
 42
-1.05896252848469
  0
LINE
  5
148
330
85
100
AcDbEntity
  8
$DDT_AUDIT_GENERATED_(F6)
  6
Continuous
 62
     7
100
AcDbLine
 10
71.7984175193
 20
541.1607282028
 30
0.0
 11
71.7984175193
 21
541.1681429898
 31
0.0
  0
LINE
  5
149
330
85
100
AcDbEntity
  8
$DDT_AUDIT_GENERATED_(F6)
  6
Continuous
 62
     7
100
AcDbLine
 10
71.589531403
 20
541.1613237326
 30
0.0
 11
71.6052323541
 21
541.1562166896
 31
0.0
  0
LINE
  5
14A
330
85
100
AcDbEntity
  8
$DDT_AUDIT_GENERATED_(F6)
  6
Continuous
 62
     7
100
AcDbLine
 10
71.7777935433
 20
541.1674365565
 30
0.0
 11
71.7984175193
 21
541.1607282028
 31
0.0
  0
ELLIPSE
  5
14B
330
85
100
AcDbEntity
  8
$DDT_AUDIT_GENERATED_(F6)
  6
Continuous
 62
     7
100
AcDbEllipse
 10
69.5020153051
 20
541.8740037774
 30
0.0
 11
8.500000000006821
 21
-1.491862189340054E-13
 31
0.0
210
0.0
220
0.0
230
1.0
 40
0.0871557427
 41
-1.418666911718558
 42
-1.320761916283837
  0
ELLIPSE
  5
14C
330
85
100
AcDbEntity
  8
$DDT_AUDIT_GENERATED_(F6)
  6
Continuous
 62
     7
100
AcDbEllipse
 10
69.5020152003
 20
541.8740037432
 30
0.0
 11
-8.499999783725814
 21
8.894648906299096E-9
 31
0.0
210
0.0
220
0.0
230
1.0
 40
0.0871557409
 41
1.297231967464415
 42
1.320761922601732
  0
ELLIPSE
  5
14D
330
85
100
AcDbEntity
  8
$DDT_AUDIT_GENERATED_(F6)
  6
Continuous
 62
     7
100
AcDbEllipse
 10
69.5020153051
 20
541.8740037774
 30
0.0
 11
-8.500000000011374
 21
-2.046973701652632E-13
 31
0.0
210
0.0
220
0.0
230
1.0
 40
0.0871557427
 41
1.320761916283941
 42
1.41866691146054
  0
LINE
  5
14E
330
85
100
AcDbEntity
  8
$DDT_AUDIT_GENERATED_(F6)
  6
Continuous
 62
     7
100
AcDbLine
 10
67.2056130909
 20
541.1607282028
 30
0.0
 11
67.2056130909
 21
541.1681429898
 31
0.0
  0
LINE
  5
14F
330
85
100
AcDbEntity
  8
$DDT_AUDIT_GENERATED_(F6)
  6
Continuous
 62
     7
100
AcDbLine
 10
67.2262370669
 20
541.1674365565
 30
0.0
 11
67.2056130909
 21
541.1607282028
 31
0.0
  0
LINE
  5
150
330
85
100
AcDbEntity
  8
$DDT_AUDIT_GENERATED_(F6)
  6
Continuous
 62
     7
100
AcDbLine
 10
67.4144992073
 20
541.1613237326
 30
0.0
 11
67.3987982561
 21
541.1562166896
 31
0.0
  0
ELLIPSE
  5
151
330
85
100
AcDbEntity
  8
$DDT_AUDIT_GENERATED_(F6)
  6
Continuous
 62
     7
100
AcDbEllipse
 10
69.5020150345
 20
541.8740037366
 30
0.0
 11
-8.499999661941802
 21
2.057126691212829E-8
 31
0.0
210
0.0
220
0.0
230
1.0
 40
0.0871557414
 41
1.035432587547554
 42
1.058962542871956
  0
ELLIPSE
  5
152
330
85
100
AcDbEntity
  8
$DDT_AUDIT_GENERATED_(F6)
  6
Continuous
 62
     7
100
AcDbEllipse
 10
69.5020153051
 20
541.8740037774
 30
0.0
 11
-8.499999999993305
 21
3.816391647148976E-13
 31
0.0
210
0.0
220
0.0
230
1.0
 40
0.0871557427
 41
1.058962528484927
 42
1.297231961708041
  0
LINE
  5
153
330
85
100
AcDbEntity
  8
$DDT_AUDIT_GENERATED_(F6)
  6
Continuous
 62
     7
100
AcDbLine
 10
65.1657068926
 20
541.2368337234
 30
0.0
 11
65.1657068926
 21
541.2824775333
 31
0.0
  0
LINE
  5
154
330
85
100
AcDbEntity
  8
$DDT_AUDIT_GENERATED_(F6)
  6
Continuous
 62
     7
100
AcDbLine
 10
65.3629671996
 20
541.2666117793
 30
0.0
 11
65.1657068926
 21
541.2368337234
 31
0.0
  0
LINE
  5
155
330
85
100
AcDbEntity
  8
$DDT_AUDIT_GENERATED_(F6)
  6
Continuous
 62
     7
100
AcDbLine
 10
65.5175679298
 20
541.2550877262
 30
0.0
 11
65.3389119733
 21
541.2281181492
 31
0.0
  0
ELLIPSE
  5
156
330
85
100
AcDbEntity
  8
$DDT_AUDIT_GENERATED_(F6)
  6
Continuous
 62
     7
100
AcDbEllipse
 10
69.5020149719
 20
541.8740037484
 30
0.0
 11
-8.499999646604472
 21
2.068914484176787E-8
 31
0.0
210
0.0
220
0.0
230
1.0
 40
0.0871557427
 41
0.7736331998547846
 42
0.7971631550831169
  0
ELLIPSE
  5
157
330
85
100
AcDbEntity
  8
$DDT_AUDIT_GENERATED_(F6)
  6
Continuous
 62
     7
100
AcDbEllipse
 10
69.5020153051
 20
541.8740037774
 30
0.0
 11
-8.500000000014662
 21
-8.777700788442644E-13
 31
0.0
210
0.0
220
0.0
230
1.0
 40
0.0871557427
 41
0.7971631406850668
 42
1.035432573907733
  0
LINE
  5
158
330
85
100
AcDbEntity
  8
$DDT_AUDIT_GENERATED_(F6)
  6
Continuous
 62
     7
100
AcDbLine
 10
63.4213129465
 20
541.3563613302
 30
0.0
 11
63.4213129465
 21
541.548838849
 31
0.0
  0
LINE
  5
159
330
85
100
AcDbEntity
  8
$DDT_AUDIT_GENERATED_(F6)
  6
Continuous
 62
     7
100
AcDbLine
 10
64.0388119342
 20
541.4101799132
 30
0.0
 11
63.4213129465
 21
541.3563613302
 31
0.0
  0
LINE
  5
15A
330
85
100
AcDbEntity
  8
$DDT_AUDIT_GENERATED_(F6)
  6
Continuous
 62
     7
100
AcDbLine
 10
64.1423632459
 20
541.3945536379
 30
0.0
 11
63.5627343027
 21
541.3440356469
 31
0.0
  0
ELLIPSE
  5
15B
330
85
100
AcDbEntity
  8
$DDT_AUDIT_GENERATED_(F6)
  6
Continuous
 62
     7
100
AcDbEllipse
 10
69.502014896
 20
541.8740037568
 30
0.0
 11
-8.499999586675786
 21
1.797067702979938E-8
 31
0.0
210
0.0
220
0.0
230
1.0
 40
0.087155744
 41
0.5118338101990457
 42
0.5353637654290826
  0
ELLIPSE
  5
15C
330
85
100
AcDbEntity
  8
$DDT_AUDIT_GENERATED_(F6)
  6
Continuous
 62
     7
100
AcDbEllipse
 10
69.5020153051
 20
541.8740037774
 30
0.0
 11
-8.500000000021032
 21
-1.127570259384925E-12
 31
0.0
210
0.0
220
0.0
230
1.0
 40
0.0871557427
 41
0.53536375288584
 42
0.7736331861084436
  0
LINE
  5
15D
330
85
100
AcDbEntity
  8
$DDT_AUDIT_GENERATED_(F6)
  6
Continuous
 62
     7
100
AcDbLine
 10
62.0913088173
 20
541.5111654144
 30
0.0
 11
62.0913088173
 21
541.6919162185
 31
0.0
  0
LINE
  5
15E
330
85
100
AcDbEntity
  8
$DDT_AUDIT_GENERATED_(F6)
  6
Continuous
 62
     7
100
AcDbLine
 10
63.3579419035
 20
541.5749016206
 30
0.0
 11
62.0913088173
 21
541.5111654144
 31
0.0
  0
LINE
  5
15F
330
85
100
AcDbEntity
  8
$DDT_AUDIT_GENERATED_(F6)
  6
Continuous
 62
     7
100
AcDbLine
 10
63.4000899503
 20
541.556894728
 30
0.0
 11
62.1913088173
 21
541.4960695969
 31
0.0
  0
ELLIPSE
  5
160
330
85
100
AcDbEntity
  8
$DDT_AUDIT_GENERATED_(F6)
  6
Continuous
 62
     7
100
AcDbEllipse
 10
69.5020153308
 20
541.874003778
 30
0.0
 11
-8.500000025724777
 21
-6.066293301021375E-10
 31
0.0
210
0.0
220
0.0
230
1.0
 40
0.0871557426
 41
0.2500344101330317
 42
0.2735643646722589
  0
ELLIPSE
  5
161
330
85
100
AcDbEntity
  8
$DDT_AUDIT_GENERATED_(F6)
  6
Continuous
 62
     7
100
AcDbEllipse
 10
69.5020153051
 20
541.8740037774
 30
0.0
 11
-8.500000000024418
 21
-7.736866702856560E-13
 31
0.0
210
0.0
220
0.0
230
1.0
 40
0.0871557427
 41
0.2735643650868647
 42
0.5118337983094641
  0
LINE
  5
162
330
85
100
AcDbEntity
  8
$DDT_AUDIT_GENERATED_(F6)
  6
Continuous
 62
     7
100
AcDbLine
 10
61.2663320885
 20
541.6906963333
 30
0.0
 11
61.2663320885
 21
541.8652882031
 31
0.0
  0
LINE
  5
163
330
85
100
AcDbEntity
  8
$DDT_AUDIT_GENERATED_(F6)
  6
Continuous
 62
     7
100
AcDbLine
 10
63.2520153051
 20
541.7370686108
 30
0.0
 11
61.2663320885
 21
541.6906963333
 31
0.0
  0
LINE
  5
164
330
85
100
AcDbEntity
  8
$DDT_AUDIT_GENERATED_(F6)
  6
Continuous
 62
     7
100
AcDbLine
 10
63.2520153051
 20
541.7190225579
 30
0.0
 11
61.3180958975
 21
541.6738591368
 31
0.0
  0
LINE
  5
165
330
85
100
AcDbEntity
  8
$DDT_AUDIT_GENERATED_(F6)
  6
Continuous
 62
     7
100
AcDbLine
 10
66.7575891356
 20
541.9944898453
 30
0.0
 11
66.7575891356
 21
541.8892560324
 31
0.0
  0
ELLIPSE
  5
166
330
85
100
AcDbEntity
  8
$DDT_AUDIT_GENERATED_(F6)
  6
Continuous
 62
     7
100
AcDbEllipse
 10
69.5020153051
 20
541.8740037774
 30
0.0
 11
2.749999999944436
 21
0.0
 31
0.0
210
0.0
220
0.0
230
1.0
 40
0.0871557427
 41
3.077913261332156
 42
3.141592653589793
  0
LINE
  5
167
330
85
100
AcDbEntity
  8
$DDT_AUDIT_GENERATED_(F6)
  6
Continuous
 62
     7
100
AcDbLine
 10
66.7575891356
 20
541.8892560324
 30
0.0
 11
64.8645669212
 21
541.8892560324
 31
0.0
  0
LINE
  5
168
330
85
100
AcDbEntity
  8
$DDT_AUDIT_GENERATED_(F6)
  6
Continuous
 62
     7
100
AcDbLine
 10
66.7520153051
 20
541.8587515224
 30
0.0
 11
64.6951311963
 21
541.8587515224
 31
0.0
  0
LINE
  5
169
330
85
100
AcDbEntity
  8
$DDT_AUDIT_GENERATED_(F6)
  6
Continuous
 62
     7
100
AcDbLine
 10
67.2127725235
 20
542.0865410659
 30
0.0
 11
67.2127725235
 21
542.0068088683
 31
0.0
  0
ELLIPSE
  5
16A
330
85
100
AcDbEntity
  8
$DDT_AUDIT_GENERATED_(F6)
  6
Continuous
 62
     7
100
AcDbEllipse
 10
69.5020153052
 20
541.8740037774
 30
0.0
 11
-2.75000000008499
 21
3.694961003830599E-12
 31
0.0
210
0.0
220
0.0
230
1.0
 40
0.0871557427
 41
-0.5872781678462973
 42
-0.4599193833344577
  0
LINE
  5
16B
330
85
100
AcDbEntity
  8
$DDT_AUDIT_GENERATED_(F6)
  6
Continuous
 62
     7
100
AcDbLine
 10
67.2127725235
 20
542.0068088683
 30
0.0
 11
66.4333421867
 21
542.0460293286
 31
0.0
  0
LINE
  5
16C
330
85
100
AcDbEntity
  8
$DDT_AUDIT_GENERATED_(F6)
  6
Continuous
 62
     7
100
AcDbLine
 10
67.0377725235
 20
541.9803911877
 30
0.0
 11
66.1348375191
 21
542.0258263277
 31
0.0
  0
LINE
  5
16D
330
85
100
AcDbEntity
  8
$DDT_AUDIT_GENERATED_(F6)
  6
Continuous
 62
     7
100
AcDbLine
 10
68.281356666
 20
542.1197927838
 30
0.0
 11
68.281356666
 21
542.0887766873
 31
0.0
  0
ELLIPSE
  5
16E
330
85
100
AcDbEntity
  8
$DDT_AUDIT_GENERATED_(F6)
  6
Continuous
 62
     7
100
AcDbEllipse
 10
69.5020153052
 20
541.8740037774
 30
0.0
 11
-2.750000000053932
 21
3.053113317719180E-12
 31
0.0
210
0.0
220
0.0
230
1.0
 40
0.0871557427
 41
-1.110876943446297
 42
-0.9835181589342898
  0
LINE
  5
16F
330
85
100
AcDbEntity
  8
$DDT_AUDIT_GENERATED_(F6)
  6
Continuous
 62
     7
100
AcDbLine
 10
68.281356666
 20
542.0887766873
 30
0.0
 11
68.1025083084
 21
542.1157753089
 31
0.0
  0
LINE
  5
170
330
85
100
AcDbEntity
  8
$DDT_AUDIT_GENERATED_(F6)
  6
Continuous
 62
     7
100
AcDbLine
 10
67.9782477747
 20
542.0735244323
 30
0.0
 11
67.7603389239
 21
542.1064195547
 31
0.0
  0
ARC
  5
171
330
85
100
AcDbEntity
  8
$DDT_AUDIT_GENERATED_(F6)
  6
Continuous
 62
     7
100
AcDbCircle
 10
69.5020153051
 20
510.6244373855
 30
0.0
 40
31.48924517398532
100
AcDbArc
 50
89.6815797593
 51
90.3184202407
  0
LINE
  5
172
330
85
100
AcDbEntity
  8
$DDT_AUDIT_GENERATED_(F6)
  6
Continuous
 62
     7
100
AcDbLine
 10
69.6770153051
 20
542.1131962786
 30
0.0
 11
69.6770153051
 21
542.1320782123
 31
0.0
  0
LINE
  5
173
330
85
100
AcDbEntity
  8
$DDT_AUDIT_GENERATED_(F6)
  6
Continuous
 62
     7
100
AcDbLine
 10
69.3270153051
 20
542.1131962786
 30
0.0
 11
69.3270153051
 21
542.1320782123
 31
0.0
  0
ELLIPSE
  5
174
330
85
100
AcDbEntity
  8
$DDT_AUDIT_GENERATED_(F6)
  6
Continuous
 62
     7
100
AcDbEllipse
 10
69.5020153051
 20
541.8740037774
 30
0.0
 11
2.75000000000998
 21
5.065392549852277E-13
 31
0.0
210
0.0
220
0.0
230
1.0
 40
0.0871557427
 41
0.9835181589383823
 42
1.110876943452054
  0
LINE
  5
175
330
85
100
AcDbEntity
  8
$DDT_AUDIT_GENERATED_(F6)
  6
Continuous
 62
     7
100
AcDbLine
 10
70.7226739442
 20
542.1197927838
 30
0.0
 11
70.7226739442
 21
542.0887766873
 31
0.0
  0
LINE
  5
176
330
85
100
AcDbEntity
  8
$DDT_AUDIT_GENERATED_(F6)
  6
Continuous
 62
     7
100
AcDbLine
 10
71.0257828355
 20
542.0735244323
 30
0.0
 11
71.2436916863
 21
542.1064195547
 31
0.0
  0
LINE
  5
177
330
85
100
AcDbEntity
  8
$DDT_AUDIT_GENERATED_(F6)
  6
Continuous
 62
     7
100
AcDbLine
 10
70.7226739442
 20
542.0887766873
 30
0.0
 11
70.9015223018
 21
542.1157753089
 31
0.0
  0
ELLIPSE
  5
178
330
85
100
AcDbEntity
  8
$DDT_AUDIT_GENERATED_(F6)
  6
Continuous
 62
     7
100
AcDbEllipse
 10
69.502015305
 20
541.8740037774
 30
0.0
 11
2.750000000113884
 21
5.339478859056613E-12
 31
0.0
210
0.0
220
0.0
230
1.0
 40
0.0871557427
 41
0.4599193833324837
 42
0.5872781678434713
  0
LINE
  5
179
330
85
100
AcDbEntity
  8
$DDT_AUDIT_GENERATED_(F6)
  6
Continuous
 62
     7
100
AcDbLine
 10
71.7912580867
 20
542.0865410659
 30
0.0
 11
71.7912580867
 21
542.0068088683
 31
0.0
  0
LINE
  5
17A
330
85
100
AcDbEntity
  8
$DDT_AUDIT_GENERATED_(F6)
  6
Continuous
 62
     7
100
AcDbLine
 10
71.9662580867
 20
541.9803911877
 30
0.0
 11
72.8691930912
 21
542.0258263277
 31
0.0
  0
LINE
  5
17B
330
85
100
AcDbEntity
  8
$DDT_AUDIT_GENERATED_(F6)
  6
Continuous
 62
     7
100
AcDbLine
 10
71.7912580867
 20
542.0068088683
 30
0.0
 11
72.5706884235
 21
542.0460293286
 31
0.0
  0
ELLIPSE
  5
17C
330
85
100
AcDbEntity
  8
$DDT_AUDIT_GENERATED_(F6)
  6
Continuous
 62
     7
100
AcDbEllipse
 10
69.502015305
 20
541.8740037774
 30
0.0
 11
-2.7500000000934
 21
0.0
 31
0.0
210
0.0
220
0.0
230
1.0
 40
0.0871557427
 41
3.141592653589793
 42
3.205272045845742
  0
LINE
  5
17D
330
85
100
AcDbEntity
  8
$DDT_AUDIT_GENERATED_(F6)
  6
Continuous
 62
     7
100
AcDbLine
 10
72.2464414746
 20
541.9944898453
 30
0.0
 11
72.2464414746
 21
541.8892560324
 31
0.0
  0
LINE
  5
17E
330
85
100
AcDbEntity
  8
$DDT_AUDIT_GENERATED_(F6)
  6
Continuous
 62
     7
100
AcDbLine
 10
72.2520153051
 20
541.8587515224
 30
0.0
 11
74.3088994139
 21
541.8587515224
 31
0.0
  0
LINE
  5
17F
330
85
100
AcDbEntity
  8
$DDT_AUDIT_GENERATED_(F6)
  6
Continuous
 62
     7
100
AcDbLine
 10
72.2464414746
 20
541.8892560324
 30
0.0
 11
74.139463689
 21
541.8892560324
 31
0.0
  0
ELLIPSE
  5
180
330
85
100
AcDbEntity
  8
$DDT_AUDIT_GENERATED_(F6)
  6
Continuous
 62
     7
100
AcDbEllipse
 10
69.5020153057
 20
541.8740037774
 30
0.0
 11
5.249999999375462
 21
2.577105195911145E-11
 31
0.0
210
0.0
220
0.0
230
1.0
 40
0.0871557428
 41
-0.5569382848918956
 42
-0.4902592663647605
  0
LINE
  5
181
330
85
100
AcDbEntity
  8
$DDT_AUDIT_GENERATED_(F6)
  6
Continuous
 62
     7
100
AcDbLine
 10
72.2520153051
 20
541.7180136636
 30
0.0
 11
73.9586220655
 21
541.6321382498
 31
0.0
  0
LINE
  5
182
330
85
100
AcDbEntity
  8
$DDT_AUDIT_GENERATED_(F6)
  6
Continuous
 62
     7
100
AcDbLine
 10
72.2520153051
 20
541.7532372377
 30
0.0
 11
74.1336220655
 21
541.6585559304
 31
0.0
  0
LINE
  5
183
330
85
100
AcDbEntity
  8
$DDT_AUDIT_GENERATED_(F6)
  6
Continuous
 62
     7
100
AcDbLine
 10
74.1336220655
 20
541.8587515224
 30
0.0
 11
74.1336220655
 21
541.6585559304
 31
0.0
  0
ELLIPSE
  5
184
330
85
100
AcDbEntity
  8
$DDT_AUDIT_GENERATED_(F6)
  6
Continuous
 62
     7
100
AcDbEllipse
 10
69.5020153054
 20
541.8740037773
 30
0.0
 11
5.249999999639016
 21
2.232936058277346E-11
 31
0.0
210
0.0
220
0.0
230
1.0
 40
0.0871557427
 41
-1.080537060483302
 42
-1.013858041956949
  0
LINE
  5
185
330
85
100
AcDbEntity
  8
$DDT_AUDIT_GENERATED_(F6)
  6
Continuous
 62
     7
100
AcDbLine
 10
71.627331442
 20
541.5226654229
 30
0.0
 11
71.9740021208
 21
541.4703326501
 31
0.0
  0
LINE
  5
186
330
85
100
AcDbEntity
  8
$DDT_AUDIT_GENERATED_(F6)
  6
Continuous
 62
     7
100
AcDbLine
 10
71.8502306743
 20
541.5500259816
 30
0.0
 11
72.2771110121
 21
541.485584905
 31
0.0
  0
LINE
  5
187
330
85
100
AcDbEntity
  8
$DDT_AUDIT_GENERATED_(F6)
  6
Continuous
 62
     7
100
AcDbLine
 10
72.2771110121
 20
541.7167508629
 30
0.0
 11
72.2771110121
 21
541.485584905
 31
0.0
  0
ARC
  5
188
330
85
100
AcDbEntity
  8
$DDT_AUDIT_GENERATED_(F6)
  6
Continuous
 62
     7
100
AcDbCircle
 10
69.5020153051
 20
601.6202106447
 30
0.0
 40
60.20377458685013
100
AcDbArc
 50
269.8334527095
 51
270.1665472905
  0
LINE
  5
189
330
85
100
AcDbEntity
  8
$DDT_AUDIT_GENERATED_(F6)
  6
Continuous
 62
     7
100
AcDbLine
 10
69.3270153051
 20
541.4355723365
 30
0.0
 11
69.3270153051
 21
541.4166904029
 31
0.0
  0
LINE
  5
18A
330
85
100
AcDbEntity
  8
$DDT_AUDIT_GENERATED_(F6)
  6
Continuous
 62
     7
100
AcDbLine
 10
69.6770153051
 20
541.4355723365
 30
0.0
 11
69.6770153051
 21
541.4166904029
 31
0.0
  0
ELLIPSE
  5
18B
330
85
100
AcDbEntity
  8
$DDT_AUDIT_GENERATED_(F6)
  6
Continuous
 62
     7
100
AcDbEllipse
 10
69.5020153048
 20
541.8740037773
 30
0.0
 11
-5.249999999557012
 21
2.618391614639393E-11
 31
0.0
210
0.0
220
0.0
230
1.0
 40
0.0871557427
 41
1.013858041961891
 42
1.080537060489027
  0
LINE
  5
18C
330
85
100
AcDbEntity
  8
$DDT_AUDIT_GENERATED_(F6)
  6
Continuous
 62
     7
100
AcDbLine
 10
67.1537999359
 20
541.5500259816
 30
0.0
 11
66.7269195981
 21
541.485584905
 31
0.0
  0
LINE
  5
18D
330
85
100
AcDbEntity
  8
$DDT_AUDIT_GENERATED_(F6)
  6
Continuous
 62
     7
100
AcDbLine
 10
67.3766991682
 20
541.5226654229
 30
0.0
 11
67.0300284894
 21
541.4703326501
 31
0.0
  0
LINE
  5
18E
330
85
100
AcDbEntity
  8
$DDT_AUDIT_GENERATED_(F6)
  6
Continuous
 62
     7
100
AcDbLine
 10
66.7269195981
 20
541.7167508629
 30
0.0
 11
66.7269195981
 21
541.485584905
 31
0.0
  0
ELLIPSE
  5
18F
330
85
100
AcDbEntity
  8
$DDT_AUDIT_GENERATED_(F6)
  6
Continuous
 62
     7
100
AcDbEllipse
 10
69.5020153045
 20
541.8740037774
 30
0.0
 11
-5.249999999402719
 21
2.587860481462201E-11
 31
0.0
210
0.0
220
0.0
230
1.0
 40
0.0871557428
 41
0.4902592663634407
 42
0.556938284890377
  0
LINE
  5
190
330
85
100
AcDbEntity
  8
$DDT_AUDIT_GENERATED_(F6)
  6
Continuous
 62
     7
100
AcDbLine
 10
66.7520153051
 20
541.7532372377
 30
0.0
 11
64.8704085447
 21
541.6585559304
 31
0.0
  0
LINE
  5
191
330
85
100
AcDbEntity
  8
$DDT_AUDIT_GENERATED_(F6)
  6
Continuous
 62
     7
100
AcDbLine
 10
66.7520153051
 20
541.7180136636
 30
0.0
 11
65.0454085447
 21
541.6321382498
 31
0.0
  0
LINE
  5
192
330
85
100
AcDbEntity
  8
$DDT_AUDIT_GENERATED_(F6)
  6
Continuous
 62
     7
100
AcDbLine
 10
64.8704085447
 20
541.8587515224
 30
0.0
 11
64.8704085447
 21
541.6585559304
 31
0.0
  0
LINE
  5
193
330
85
100
AcDbEntity
  8
$DDT_AUDIT_GENERATED_(F6)
  6
Continuous
 62
     7
100
AcDbLine
 10
60.5020153051
 20
542.4630394078
 30
0.0
 11
60.5020153051
 21
541.6747648378
 31
0.0
  0
LINE
  5
194
330
85
100
AcDbEntity
  8
$DDT_AUDIT_GENERATED_(F6)
  6
Continuous
 62
     7
100
AcDbLine
 10
78.5020153051
 20
541.6747648378
 30
0.0
 11
78.5020153051
 21
542.4630394078
 31
0.0
  0
LINE
  5
195
330
85
100
AcDbEntity
  8
$DDT_AUDIT_GENERATED_(F6)
  6
Continuous
 62
     7
100
AcDbLine
 10
63.2520153051
 20
541.8740037774
 30
0.0
 11
63.2520153051
 21
541.6747648378
 31
0.0
  0
LINE
  5
196
330
85
100
AcDbEntity
  8
$DDT_AUDIT_GENERATED_(F6)
  6
Continuous
 62
     7
100
AcDbLine
 10
75.7520153051
 20
541.6747648378
 30
0.0
 11
75.7520153051
 21
541.8740037774
 31
0.0
  0
LINE
  5
197
330
85
100
AcDbEntity
  8
$DDT_AUDIT_GENERATED_(F6)
  6
Continuous
 62
     7
100
AcDbLine
 10
66.7520153051
 20
541.8740037774
 30
0.0
 11
66.7520153051
 21
541.6747648378
 31
0.0
  0
LINE
  5
198
330
85
100
AcDbEntity
  8
$DDT_AUDIT_GENERATED_(F6)
  6
Continuous
 62
     7
100
AcDbLine
 10
72.2520153051
 20
541.6747648378
 30
0.0
 11
72.2520153051
 21
541.8740037774
 31
0.0
  0
ARC
  5
19A
330
85
100
AcDbEntity
  8
$DDT_AUDIT_GENERATED_(199)
  6
Continuous
 62
     7
100
AcDbCircle
 10
179.5075960924
 20
558.7060009475
 30
0.0
 40
20.74281523403579
100
AcDbArc
 50
22.4942396952
 51
45.0018850492
  0
ARC
  5
19B
330
85
100
AcDbEntity
  8
$DDT_AUDIT_GENERATED_(199)
  6
Continuous
 62
     7
100
AcDbCircle
 10
179.4907290925
 20
558.6921585486
 30
0.0
 40
20.73547000240969
100
AcDbArc
 50
202.4886292179
 51
212.4654931727
  0
ARC
  5
19C
330
85
100
AcDbEntity
  8
$DDT_AUDIT_GENERATED_(199)
  6
Continuous
 62
     7
100
AcDbCircle
 10
179.512616727
 20
558.7031652705
 30
0.0
 40
20.73926197963638
100
AcDbArc
 50
1.7523653851
 51
20.5920252191
  0
ARC
  5
19D
330
85
100
AcDbEntity
  8
$DDT_AUDIT_GENERATED_(199)
  6
Continuous
 62
     7
100
AcDbCircle
 10
179.4726342972
 20
558.7078766336
 30
0.0
 40
20.77940336441495
100
AcDbArc
 50
337.5144920913
 51
357.0801523552
  0
ARC
  5
19E
330
85
100
AcDbEntity
  8
$DDT_AUDIT_GENERATED_(199)
  6
Continuous
 62
     7
100
AcDbCircle
 10
179.5099710097
 20
558.6959410683
 30
0.0
 40
20.74034062810559
100
AcDbArc
 50
327.5306361623
 51
335.1533811259
  0
ARC
  5
19F
330
85
100
AcDbEntity
  8
$DDT_AUDIT_GENERATED_(199)
  6
Continuous
 62
     7
100
AcDbCircle
 10
179.5119624835
 20
558.6949160667
 30
0.0
 40
20.76146813377762
100
AcDbArc
 50
135.0067183674
 51
155.1370024661
  0
ARC
  5
1A0
330
85
100
AcDbEntity
  8
$DDT_AUDIT_GENERATED_(199)
  6
Continuous
 62
     7
100
AcDbCircle
 10
179.5347683639
 20
558.6942117695
 30
0.0
 40
20.7828082635175
100
AcDbArc
 50
157.5162471182
 51
177.07857251
  0
LINE
  5
1A1
330
85
100
AcDbEntity
  8
$DDT_AUDIT_GENERATED_(199)
  6
Continuous
 62
     7
100
AcDbLine
 10
158.7787015606
 20
559.7534510799
 30
0.0
 11
158.7520153052
 21
558.7013471059
 31
0.0
  0
ARC
  5
1A2
330
85
100
AcDbEntity
  8
$DDT_AUDIT_GENERATED_(199)
  6
Continuous
 62
     7
100
AcDbCircle
 10
179.5135331514
 20
558.7048248929
 30
0.0
 40
20.76138502874898
100
AcDbArc
 50
181.7712434802
 51
200.5888235929
  0
LINE
  5
1A3
330
85
100
AcDbEntity
  8
$DDT_AUDIT_GENERATED_(199)
  6
Continuous
 62
     7
100
AcDbLine
 10
200.2253286621
 20
557.6493831374
 30
0.0
 11
200.2520153051
 21
558.7014164735
 31
0.0
  0
ARC
  5
1A4
330
85
100
AcDbEntity
  8
$DDT_AUDIT_GENERATED_(199)
  6
Continuous
 62
     7
100
AcDbCircle
 10
179.4956727573
 20
558.689349177
 30
0.0
 40
20.76302126406366
100
AcDbArc
 50
45.0111096629
 51
67.4962879919
  0
ARC
  5
1A5
330
85
100
AcDbEntity
  8
$DDT_AUDIT_GENERATED_(199)
  6
Continuous
 62
     7
100
AcDbCircle
 10
179.4850674507
 20
558.6101377785
 30
0.0
 40
20.84180901109556
100
AcDbArc
 50
72.8140823745
 51
86.8443314649
  0
LINE
  5
1A6
330
85
100
AcDbEntity
  8
$DDT_AUDIT_GENERATED_(199)
  6
Continuous
 62
     7
100
AcDbLine
 10
180.4755517114
 20
579.4285704368
 30
0.0
 11
179.502081502
 21
579.4514209254
 31
0.0
  0
ARC
  5
1A7
330
85
100
AcDbEntity
  8
$DDT_AUDIT_GENERATED_(199)
  6
Continuous
 62
     7
100
AcDbCircle
 10
179.5080398104
 20
558.6721608416
 30
0.0
 40
20.77912781286815
100
AcDbArc
 50
90.0164291734
 51
112.4843228975
  0
ARC
  5
1A8
330
85
100
AcDbEntity
  8
$DDT_AUDIT_GENERATED_(199)
  6
Continuous
 62
     7
100
AcDbCircle
 10
179.513915449
 20
558.6833991868
 30
0.0
 40
20.77099306102343
100
AcDbArc
 50
114.8697741953
 51
134.9880606816
  0
ARC
  5
1A9
330
85
100
AcDbEntity
  8
$DDT_AUDIT_GENERATED_(199)
  6
Continuous
 62
     7
100
AcDbCircle
 10
179.4996972721
 20
558.7017482533
 30
0.0
 40
15.2506311588851
100
AcDbArc
 50
44.9919956319
 51
167.8066390226
  0
ARC
  5
1AA
330
85
100
AcDbEntity
  8
$DDT_AUDIT_GENERATED_(199)
  6
Continuous
 62
     7
100
AcDbCircle
 10
179.5046320007
 20
558.7010593458
 30
0.0
 40
15.24969898263699
100
AcDbArc
 50
11.975393248
 51
45.0076343834
  0
ENDBLK
  5
1AC
330
85
100
AcDbEntity
  8
0
100
AcDbBlockEnd
  0
BLOCK
  5
20E
330
1AD
100
AcDbEntity
  8
0
100
AcDbBlockBegin
  2
SE1
 70
     0
 10
0.0
 20
0.0
 30
0.0
  3
SE1
  1

  0
SPLINE
  5
1AF
330
1AD
100
AcDbEntity
  8
$DDT_AUDIT_GENERATED_(87)
  6
Continuous
 62
     7
100
AcDbSpline
210
0.0
220
0.0
230
1.0
 70
     8
 71
     3
 72
     8
 73
     4
 74
     0
 42
0.0000000047588749
 43
0.0000000001
 40
0.3745241125070706
 40
0.3745241125070706
 40
0.3745241125070706
 40
0.3745241125070706
 40
0.3750000000000007
 40
0.3750000000000007
 40
0.3750000000000007
 40
0.3750000000000007
 10
415.2350369622107
 20
535.5317486447792
 30
0.0
 10
415.235037881561
 20
535.5316792976588
 30
0.0
 10
415.2350383447014
 20
535.5316446211095
 30
0.0
 10
415.2350383445737
 20
535.5316446285641
 30
0.0
  0
SPLINE
  5
1B0
330
1AD
100
AcDbEntity
  8
$DDT_AUDIT_GENERATED_(87)
  6
Continuous
 62
     7
100
AcDbSpline
210
0.0
220
0.0
230
1.0
 70
     8
 71
     3
 72
    10
 73
     6
 74
     0
 42
0.0000000057641965
 43
0.0000000001
 40
0.8745453884736459
 40
0.8745453884736459
 40
0.8745453884736459
 40
0.8745453884736459
 40
0.8750000000000002
 40
0.8750000000000002
 40
0.8751218081201809
 40
0.8751218081201809
 40
0.8751218081201809
 40
0.8751218081201809
 10
415.2350358356633
 20
581.8710450146439
 30
0.0
 10
415.2350371429436
 20
581.8711252864493
 30
0.0
 10
415.2350379438324
 20
581.8711737838087
 30
0.0
 10
415.2350383059681
 20
581.8711949697857
 30
0.0
 10
415.235038351993
 20
581.8711971500511
 30
0.0
 10
415.2350383676349
 20
581.8711970340023
 30
0.0
  0
SPLINE
  5
1B1
330
1AD
100
AcDbEntity
  8
$DDT_AUDIT_GENERATED_(87)
  6
Continuous
 62
     7
100
AcDbSpline
210
0.0
220
0.0
230
1.0
 70
     8
 71
     3
 72
     8
 73
     4
 74
     0
 42
0.0000000000989588
 43
0.0000000001
 40
0.0103843604587098
 40
0.0103843604587098
 40
0.0103843604587098
 40
0.0103843604587098
 40
0.0144298892040905
 40
0.0144298892040905
 40
0.0144298892040905
 40
0.0144298892040905
 10
415.7244091422766
 20
544.7497891770092
 30
0.0
 10
415.724298373646
 20
544.8847149852005
 30
0.0
 10
415.7241712845645
 20
545.0209867608851
 30
0.0
 10
415.7240319703759
 20
545.1585982748828
 30
0.0
  0
SPLINE
  5
1B2
330
1AD
100
AcDbEntity
  8
$DDT_AUDIT_GENERATED_(87)
  6
Continuous
 62
     7
100
AcDbSpline
210
0.0
220
0.0
230
1.0
 70
     8
 71
     3
 72
    16
 73
    12
 74
     0
 42
0.0000000001771298
 43
0.0000000001
 40
0.2304960010983499
 40
0.2304960010983499
 40
0.2304960010983499
 40
0.2304960010983499
 40
0.2500000000000004
 40
0.2500000000000004
 40
0.2812500000000004
 40
0.2812500000000004
 40
0.3125000000000004
 40
0.3125000000000004
 40
0.3437500000000004
 40
0.3437500000000004
 40
0.3746160198851984
 40
0.3746160198851984
 40
0.3746160198851984
 40
0.3746160198851984
 10
415.7234633740673
 20
571.7271633438277
 30
0.0
 10
415.7242488739366
 20
572.4060810996646
 30
0.0
 10
415.7248666141345
 20
573.050299030512
 30
0.0
 10
415.724876081198
 20
574.6374067724558
 30
0.0
 10
415.7232660331736
 20
575.5316871900671
 30
0.0
 10
415.7206363206734
 20
577.0666950748341
 30
0.0
 10
415.7196306017101
 20
577.7174140464341
 30
0.0
 10
415.7196226353197
 20
578.7815466055566
 30
0.0
 10
415.7206399648003
 20
579.1875756617753
 30
0.0
 10
415.7232473547749
 20
579.7223084885333
 30
0.0
 10
415.7248281241325
 20
579.8599875648504
 30
0.0
 10
415.7248694404673
 20
579.8635480925323
 30
0.0
  0
SPLINE
  5
1B3
330
1AD
100
AcDbEntity
  8
$DDT_AUDIT_GENERATED_(87)
  6
Continuous
 62
     7
100
AcDbSpline
210
0.0
220
0.0
230
1.0
 70
     8
 71
     3
 72
    10
 73
     6
 74
     0
 42
0.0000000002014736
 43
0.0000000001
 40
0.8751205531697982
 40
0.8751205531697982
 40
0.8751205531697982
 40
0.8751205531697982
 40
0.9375000000000002
 40
0.9375000000000002
 40
1.0
 40
1.0
 40
1.0
 40
1.0
 10
415.7248702823806
 20
537.5392230436946
 30
0.0
 10
415.7248761003867
 20
537.5392244409935
 30
0.0
 10
415.7196466356236
 20
538.0909394113696
 30
0.0
 10
415.7196067056001
 20
540.1929039956991
 30
0.0
 10
415.7248702675652
 20
541.7603830046609
 30
0.0
 10
415.7248702675652
 20
543.7374871832179
 30
0.0
  0
LINE
  5
1B4
330
1AD
100
AcDbEntity
  8
$DDT_AUDIT_GENERATED_(87)
  6
Continuous
 62
     7
100
AcDbLine
 10
384.2242355164
 20
533.8087696331
 30
0.0
 11
413.3241254875
 21
534.0627205256
 31
0.0
  0
LINE
  5
1B5
330
1AD
100
AcDbEntity
  8
$DDT_AUDIT_GENERATED_(87)
  6
Continuous
 62
     7
100
AcDbLine
 10
413.3241286282
 20
583.340121298
 30
0.0
 11
384.2242355164
 21
583.5940722179
 31
0.0
  0
ARC
  5
1B6
330
1AD
100
AcDbEntity
  8
$DDT_AUDIT_GENERATED_(87)
  6
Continuous
 62
     7
100
AcDbCircle
 10
413.3197308218
 20
581.3456552781
 30
0.0
 40
1.972977512478899
100
AcDbArc
 50
14.9690479957
 51
89.8745441416
  0
ARC
  5
1B7
330
1AD
100
AcDbEntity
  8
$DDT_AUDIT_GENERATED_(87)
  6
Continuous
 62
     7
100
AcDbCircle
 10
413.3248928056
 20
536.0557679345
 30
0.0
 40
1.972987253476203
100
AcDbArc
 50
269.9749848949
 51
345.1997320244
  0
LINE
  5
1B8
330
1AD
100
AcDbEntity
  8
$DDT_AUDIT_GENERATED_(87)
  6
Continuous
 62
     7
100
AcDbLine
 10
415.2224688409
 20
535.4861162585
 30
0.0
 11
415.7283825506
 21
537.5558167866
 31
0.0
  0
LINE
  5
1B9
330
1AD
100
AcDbEntity
  8
$DDT_AUDIT_GENERATED_(87)
  6
Continuous
 62
     7
100
AcDbLine
 10
415.7283825506
 20
579.8470250644
 30
0.0
 11
415.2224688409
 21
581.9167255924
 31
0.0
  0
LINE
  5
1BA
330
1AD
100
AcDbEntity
  8
$DDT_AUDIT_GENERATED_(87)
  6
Continuous
 62
     7
100
AcDbLine
 10
415.7289776106
 20
543.869773915
 30
0.0
 11
415.7286103643
 21
544.8015774668
 31
0.0
  0
LINE
  5
1BB
330
1AD
100
AcDbEntity
  8
$DDT_AUDIT_GENERATED_(94)
  6
Continuous
 62
     7
100
AcDbLine
 10
434.0304898501
 20
487.7959383109
 30
0.0
 11
434.0304898501
 21
475.8459383109
 31
0.0
  0
LINE
  5
1BC
330
1AD
100
AcDbEntity
  8
$DDT_AUDIT_GENERATED_(94)
  6
Continuous
 62
     7
100
AcDbLine
 10
434.0304898501
 20
487.7959383109
 30
0.0
 11
434.0304898501
 21
548.7247556743
 31
0.0
  0
SPLINE
  5
1BD
330
1AD
100
AcDbEntity
  8
$DDT_AUDIT_GENERATED_(94)
  6
Continuous
 62
     7
100
AcDbSpline
210
0.0
220
0.0
230
1.0
 70
     8
 71
     3
 72
    26
 73
    22
 74
     0
 42
0.0000000003440185
 43
0.0000000001
 40
0.0964023753734314
 40
0.0964023753734314
 40
0.0964023753734314
 40
0.0964023753734314
 40
0.1100929324875326
 40
0.1751476748159103
 40
0.2402024171443908
 40
0.3052571594728713
 40
0.3377845306370088
 40
0.3703119018012491
 40
0.4353666441297295
 40
0.4678940152939698
 40
0.5004213864581072
 40
0.5329487576223475
 40
0.5654761287865878
 40
0.6305308711150683
 40
0.695585613443446
 40
0.7606403557719266
 40
0.7931677269361668
 40
0.825695098100407
 40
0.8907498404287848
 40
0.9558045827572652
 40
1.0
 40
1.0
 40
1.0
 40
1.0
 10
416.152128350254
 20
544.6870646324645
 30
0.0
 10
416.2568130111332
 20
544.6749329700937
 30
0.0
 10
416.8583214360984
 20
544.599781414075
 30
0.0
 10
417.9533823069809
 20
544.3998032685857
 30
0.0
 10
419.4238272084751
 20
543.9330838760399
 30
0.0
 10
420.5897348749905
 20
543.3479489923967
 30
0.0
 10
421.466119930463
 20
542.7399747285506
 30
0.0
 10
422.2968608414773
 20
542.0314142034058
 30
0.0
 10
423.0483265116747
 20
541.1620991265307
 30
0.0
 10
423.6970870388816
 20
540.1084930826371
 30
0.0
 10
424.1273699175024
 20
539.2223210845245
 30
0.0
 10
424.5033697944701
 20
538.2513394152135
 30
0.0
 10
424.9380231371198
 20
536.865129316336
 30
0.0
 10
425.3654237040552
 20
534.9972931622849
 30
0.0
 10
425.7212794970118
 20
532.6565940317149
 30
0.0
 10
425.9112659744147
 20
530.7209762660757
 30
0.0
 10
426.0137309261862
 20
529.2390121592322
 30
0.0
 10
426.0881123686786
 20
527.8269733484532
 30
0.0
 10
426.1371312248009
 20
526.2086929198325
 30
0.0
 10
426.1504956869902
 20
524.6539153025195
 30
0.0
 10
426.1504909361358
 20
523.7451921814136
 30
0.0
 10
426.150489850055
 20
523.3859383352753
 30
0.0
  0
LINE
  5
1BE
330
1AD
100
AcDbEntity
  8
$DDT_AUDIT_GENERATED_(94)
  6
Continuous
 62
     7
100
AcDbLine
 10
426.1504898501
 20
487.7959383109
 30
0.0
 11
426.1504898501
 21
523.3859383353
 31
0.0
  0
LINE
  5
1BF
330
1AD
100
AcDbEntity
  8
$DDT_AUDIT_GENERATED_(94)
  6
Continuous
 62
     7
100
AcDbLine
 10
431.36182354
 20
470.3229209048
 30
0.0
 11
432.5203798044
 21
470.3431435796
 31
0.0
  0
ARC
  5
1C0
330
1AD
100
AcDbEntity
  8
$DDT_AUDIT_GENERATED_(94)
  6
Continuous
 62
     7
100
AcDbCircle
 10
431.326918775
 20
472.3226162959
 30
0.0
 40
2.000000000003686
100
AcDbArc
 50
238.900781184
 51
270.9999986303
  0
SPLINE
  5
1C1
330
1AD
100
AcDbEntity
  8
$DDT_AUDIT_GENERATED_(94)
  6
Continuous
 62
     7
100
AcDbSpline
210
0.0
220
0.0
230
1.0
 70
     8
 71
     3
 72
    11
 73
     7
 74
     0
 42
0.000000001775666
 43
0.0000000001
 40
0.0
 40
0.0
 40
0.0
 40
0.0
 40
0.2861791977710567
 40
0.5582074734334898
 40
0.7720852717573844
 40
1.0
 40
1.0
 40
1.0
 40
1.0
 10
432.7683906288917
 20
470.4822682465377
 30
0.0
 10
433.0704903853052
 20
470.9870160314322
 30
0.0
 10
433.5549359479143
 20
471.8320784713672
 30
0.0
 10
433.9479932574497
 20
473.2586972090565
 30
0.0
 10
434.0271959581746
 20
474.6117588663158
 30
0.0
 10
434.0336032374359
 20
475.3774653874773
 30
0.0
 10
434.0304898500577
 20
475.8459383108554
 30
0.0
  0
ARC
  5
1C2
330
1AD
100
AcDbEntity
  8
$DDT_AUDIT_GENERATED_(94)
  6
Continuous
 62
     7
100
AcDbCircle
 10
432.5151440563
 20
470.6430978877
 30
0.0
 40
0.299999999999661
100
AcDbArc
 50
271.0000049929
 51
327.5815396891
  0
SPLINE
  5
1C3
330
1AD
100
AcDbEntity
  8
$DDT_AUDIT_GENERATED_(94)
  6
Continuous
 62
     7
100
AcDbSpline
210
0.0
220
0.0
230
1.0
 70
     8
 71
     3
 72
     9
 73
     5
 74
     0
 42
0.0000000017799855
 43
0.0000000001
 40
0.5869267409475604
 40
0.5869267409475604
 40
0.5869267409475604
 40
0.5869267409475604
 40
0.77386078392824
 40
1.0
 40
1.0
 40
1.0
 40
1.0
 10
433.7472697163126
 20
568.088768121427
 30
0.0
 10
433.6509083266164
 20
568.4295294840167
 30
0.0
 10
433.3695839224621
 20
569.1608703962345
 30
0.0
 10
433.0089550597931
 20
569.7817297088918
 30
0.0
 10
432.7683902693751
 20
570.1796089412758
 30
0.0
  0
SPLINE
  5
1C4
330
1AD
100
AcDbEntity
  8
$DDT_AUDIT_GENERATED_(94)
  6
Continuous
 62
     7
100
AcDbSpline
210
0.0
220
0.0
230
1.0
 70
     8
 71
     3
 72
    15
 73
    11
 74
     0
 42
0.0000000005450989
 43
0.0000000001
 40
0.0
 40
0.0
 40
0.0
 40
0.0
 40
0.186958737813361
 40
0.3568654737656288
 40
0.5108492777793419
 40
0.650690991062144
 40
0.7509048358380671
 40
0.8419439596402956
 40
0.9242403806916962
 40
1.0
 40
1.0
 40
1.0
 40
1.0
 10
426.1504898500552
 20
487.7959383108554
 30
0.0
 10
426.1497401744977
 20
486.5415178698061
 30
0.0
 10
426.1582945010232
 20
484.5268044928938
 30
0.0
 10
426.2582119545928
 20
481.3524957002522
 30
0.0
 10
426.509204985605
 20
478.5458987190489
 30
0.0
 10
426.9462368151164
 20
476.1753873856769
 30
0.0
 10
427.5505070994807
 20
474.239763237444
 30
0.0
 10
428.258519161186
 20
472.7348679707468
 30
0.0
 10
429.1578349322055
 20
471.4502450759908
 30
0.0
 10
429.8828896682288
 20
470.9091960051624
 30
0.0
 10
430.2938754664174
 20
470.6100680418289
 30
0.0
  0
ARC
  5
1C5
330
1AD
100
AcDbEntity
  8
$DDT_AUDIT_GENERATED_(94)
  6
Continuous
 62
     7
100
AcDbCircle
 10
431.326918775
 20
568.3392603258
 30
0.0
 40
2.000000000003751
100
AcDbArc
 50
89.0000010829
 51
121.0992160405
  0
LINE
  5
1C6
330
1AD
100
AcDbEntity
  8
$DDT_AUDIT_GENERATED_(94)
  6
Continuous
 62
     7
100
AcDbLine
 10
432.5203798073
 20
570.318733042
 30
0.0
 11
431.36182355
 21
570.3389557167
 31
0.0
  0
ARC
  5
1C7
330
1AD
100
AcDbEntity
  8
$DDT_AUDIT_GENERATED_(94)
  6
Continuous
 62
     7
100
AcDbCircle
 10
432.5151440563
 20
570.018778734
 30
0.0
 40
0.2999999999998304
100
AcDbArc
 50
32.418445932
 51
88.9999944493
  0
SPLINE
  5
1C8
330
1AD
100
AcDbEntity
  8
$DDT_AUDIT_GENERATED_(94)
  6
Continuous
 62
     7
100
AcDbSpline
210
0.0
220
0.0
230
1.0
 70
     8
 71
     3
 72
     9
 73
     5
 74
     0
 42
0.0000000019561402
 43
0.0000000001
 40
0.0
 40
0.0
 40
0.0
 40
0.0
 40
0.2512357582228958
 40
0.4233398203766566
 40
0.4233398203766566
 40
0.4233398203766566
 40
0.4233398203766566
 10
430.3693537653147
 20
570.0963214371354
 30
0.0
 10
429.9823374529932
 20
569.8298131277514
 30
0.0
 10
429.4306301974959
 20
569.4396337005994
 30
0.0
 10
428.9633795549104
 20
568.8889716089983
 30
0.0
 10
428.7870719434041
 20
568.65079251665
 30
0.0
  0
SPLINE
  5
1C9
330
1AD
100
AcDbEntity
  8
$DDT_AUDIT_GENERATED_(9B)
  6
Continuous
 62
     7
100
AcDbSpline
210
0.0
220
0.0
230
1.0
 70
     8
 71
     3
 72
     8
 73
     4
 74
     0
 42
0.0000000013036521
 43
0.0000000001
 40
0.0
 40
0.0
 40
0.0
 40
0.0
 40
0.7826497995360477
 40
0.7826497995360477
 40
0.7826497995360477
 40
0.7826497995360477
 10
434.1664428564958
 20
542.955797956416
 30
0.0
 10
434.7062331321904
 20
544.8806863361998
 30
0.0
 10
435.0862959797799
 20
546.8498181685153
 30
0.0
 10
435.3047278857047
 20
548.8367485154694
 30
0.0
  0
ARC
  5
1CA
330
1AD
100
AcDbEntity
  8
$DDT_AUDIT_GENERATED_(9B)
  6
Continuous
 62
     7
100
AcDbCircle
 10
433.9738714072
 20
543.0098001507
 30
0.0
 40
0.2000000001982662
100
AcDbArc
 50
286.5295045978
 51
344.3350802883
  0
ARC
  5
1CB
330
1AD
100
AcDbEntity
  8
$DDT_AUDIT_GENERATED_(9B)
  6
Continuous
 62
     7
100
AcDbCircle
 10
433.8436973727
 20
543.1222448254
 30
0.0
 40
0.3032562924099668
100
AcDbArc
 50
308.1853731269
 51
316.2760305981
  0
SPLINE
  5
1CC
330
1AD
100
AcDbEntity
  8
$DDT_AUDIT_GENERATED_(A7)
  6
Continuous
 62
     7
100
AcDbSpline
210
0.0
220
0.0
230
1.0
 70
     8
 71
     3
 72
    34
 73
    30
 74
     0
 42
0.0000000001196034
 43
0.0000000001
 40
0.5000577694136749
 40
0.5000577694136749
 40
0.5000577694136749
 40
0.5000577694136749
 40
0.5312500000000006
 40
0.5312500000000006
 40
0.5625000000000007
 40
0.5625000000000007
 40
0.6250000000000007
 40
0.6250000000000007
 40
0.6562500000000006
 40
0.6562500000000006
 40
0.6875000000000006
 40
0.6875000000000006
 40
0.7187500000000004
 40
0.7187500000000004
 40
0.7500000000000004
 40
0.7500000000000004
 40
0.7812500000000003
 40
0.7812500000000003
 40
0.8125000000000003
 40
0.8125000000000003
 40
0.8437500000000002
 40
0.8437500000000002
 40
0.8750000000000002
 40
0.8750000000000002
 40
0.9062500000000001
 40
0.9062500000000001
 40
0.9375000000000001
 40
0.9375000000000001
 40
1.0
 40
1.0
 40
1.0
 40
1.0
 10
385.1780348429721
 20
579.6014209378288
 30
0.0
 10
385.1780348649501
 20
579.6014141719586
 30
0.0
 10
385.1780927177706
 20
579.469656361726
 30
0.0
 10
385.1782632406022
 20
578.9367988057872
 30
0.0
 10
385.1783719756936
 20
578.5357842963185
 30
0.0
 10
385.1785437687947
 20
576.9754947450821
 30
0.0
 10
385.1782731781766
 20
575.4194478228438
 30
0.0
 10
385.1778564549625
 20
572.5317076252154
 30
0.0
 10
385.1777297954177
 20
571.4579034413763
 30
0.0
 10
385.1775859063715
 20
569.1850405070597
 30
0.0
 10
385.177567803563
 20
567.9851724854541
 30
0.0
 10
385.1776414465215
 20
565.458295677962
 30
0.0
 10
385.1777355281425
 20
564.129112115465
 30
0.0
 10
385.1779313410321
 20
561.4574330484966
 30
0.0
 10
385.1780340761051
 20
560.1008394382523
 30
0.0
 10
385.178036289653
 20
557.3446751684714
 30
0.0
 10
385.1779338885058
 20
555.9806625607029
 30
0.0
 10
385.177738205199
 20
553.3097720101946
 30
0.0
 10
385.1776436014251
 20
551.98520135267
 30
0.0
 10
385.1775677918401
 20
549.4496115901081
 30
0.0
 10
385.1775849960396
 20
548.2484361178541
 30
0.0
 10
385.1777267506466
 20
545.9772223885807
 30
0.0
 10
385.1778527094818
 20
544.9002905949546
 30
0.0
 10
385.1781304821134
 20
542.9691096014528
 30
0.0
 10
385.1782836032959
 20
542.1035497863219
 30
0.0
 10
385.1784770965452
 20
540.5758546144726
 30
0.0
 10
385.1784871052482
 20
539.9233080774443
 30
0.0
 10
385.1783180374257
 20
538.3563848829739
 30
0.0
 10
385.1780348429234
 20
537.8014209254643
 30
0.0
 10
385.1780348429234
 20
537.8014209254643
 30
0.0
  0
LINE
  5
1CD
330
1AD
100
AcDbEntity
  8
$DDT_AUDIT_GENERATED_(A7)
  6
Continuous
 62
     7
100
AcDbLine
 10
385.1374057394
 20
579.5781038941
 30
0.0
 11
384.291783591
 21
583.3494508
 31
0.0
  0
LINE
  5
1CE
330
1AD
100
AcDbEntity
  8
$DDT_AUDIT_GENERATED_(A7)
  6
Continuous
 62
     7
100
AcDbLine
 10
384.2917836573
 20
534.0533910358
 30
0.0
 11
385.1343785141
 21
537.8112370991
 31
0.0
  0
LINE
  5
1CF
330
1AD
100
AcDbEntity
  8
$DDT_AUDIT_GENERATED_(A7)
  6
Continuous
 62
     7
100
AcDbLine
 10
384.3055488982
 20
583.3514209255
 30
0.0
 11
384.2242355164
 21
583.3514209255
 31
0.0
  0
LINE
  5
1D0
330
1AD
100
AcDbEntity
  8
$DDT_AUDIT_GENERATED_(A7)
  6
Continuous
 62
     7
100
AcDbLine
 10
384.2242354865
 20
534.0514209255
 30
0.0
 11
384.3055488982
 21
534.0514209255
 31
0.0
  0
ARC
  5
1D1
330
1AD
100
AcDbEntity
  8
$DDT_AUDIT_GENERATED_(AF)
  6
Continuous
 62
     7
100
AcDbCircle
 10
614.0510385041
 20
6889.0519419577
 30
0.0
 40
6337.496166801315
100
AcDbArc
 50
269.855158212
 51
269.9652243587
  0
ARC
  5
1D2
330
1AD
100
AcDbEntity
  8
$DDT_AUDIT_GENERATED_(AF)
  6
Continuous
 62
     7
100
AcDbCircle
 10
598.3080134099
 20
494.9251900141
 30
0.0
 40
56.6515171496112
100
AcDbArc
 50
90.2810951658
 51
102.8250195544
  0
LINE
  5
1D3
330
1AD
100
AcDbEntity
  8
$DDT_AUDIT_GENERATED_(AF)
  6
Continuous
 62
     7
100
AcDbLine
 10
585.7328326333
 20
550.1633944
 30
0.0
 11
540.4031339458
 21
550.1633661479
 31
0.0
  0
LINE
  5
1D4
330
1AD
100
AcDbEntity
  8
$DDT_AUDIT_GENERATED_(AF)
  6
Continuous
 62
     7
100
AcDbLine
 10
617.6152423525
 20
565.8125829839
 30
0.0
 11
598.0300933201
 21
565.8125829839
 31
0.0
  0
LINE
  5
1D5
330
1AD
100
AcDbEntity
  8
$DDT_AUDIT_GENERATED_(AF)
  6
Continuous
 62
     7
100
AcDbLine
 10
540.4031339458
 20
550.1633661479
 30
0.0
 11
490.6988988777
 21
550.1633661479
 31
0.0
  0
LINE
  5
1D6
330
1AD
100
AcDbEntity
  8
$DDT_AUDIT_GENERATED_(AF)
  6
Continuous
 62
     7
100
AcDbLine
 10
598.0300932877
 20
565.8125609422
 30
0.0
 11
540.4031339458
 21
565.8125435537
 31
0.0
  0
LINE
  5
1D7
330
1AD
100
AcDbEntity
  8
$DDT_AUDIT_GENERATED_(AF)
  6
Continuous
 62
     7
100
AcDbLine
 10
614.8923716804
 20
567.1633916387
 30
0.0
 11
598.0300934866
 21
567.163378891
 31
0.0
  0
SPLINE
  5
1D8
330
1AD
100
AcDbEntity
  8
$DDT_AUDIT_GENERATED_(AF)
  6
Continuous
 62
     7
100
AcDbSpline
210
0.0
220
0.0
230
1.0
 70
     8
 71
     5
 72
    12
 73
     6
 74
     0
 42
0.0000000001094097
 43
0.0000000001
 40
0.0
 40
0.0
 40
0.0
 40
0.0
 40
0.0
 40
0.0
 40
1.0
 40
1.0
 40
1.0
 40
1.0
 40
1.0
 40
1.0
 10
490.6988988776669
 20
550.1633661479244
 30
0.0
 10
462.6036291680589
 20
550.1633661479107
 30
0.0
 10
439.4788963020906
 20
550.1633661478862
 30
0.0
 10
420.5986550898768
 20
549.5589980784977
 30
0.0
 10
410.0189737360728
 20
543.8796150953796
 30
0.0
 10
402.4331328202568
 20
538.5308369232936
 30
0.0
  0
ARC
  5
1D9
330
1AD
100
AcDbEntity
  8
$DDT_AUDIT_GENERATED_(AF)
  6
Continuous
 62
     7
100
AcDbCircle
 10
400.0762567132
 20
541.8546322283
 30
0.0
 40
4.07461411835203
100
AcDbArc
 50
262.2137298433
 51
266.7590677787
  0
ARC
  5
1DA
330
1AD
100
AcDbEntity
  8
$DDT_AUDIT_GENERATED_(AF)
  6
Continuous
 62
     7
100
AcDbCircle
 10
400.0762567132
 20
541.8546322283
 30
0.0
 40
4.07461411835203
100
AcDbArc
 50
267.5758431533
 51
305.3401421655
  0
LINE
  5
1DB
330
1AD
100
AcDbEntity
  8
$DDT_AUDIT_GENERATED_(AF)
  6
Continuous
 62
     7
100
AcDbLine
 10
540.4031339458
 20
565.8125580492
 30
0.0
 11
490.6988989402
 21
565.8125594751
 31
0.0
  0
LINE
  5
1DC
330
1AD
100
AcDbEntity
  8
$DDT_AUDIT_GENERATED_(AF)
  6
Continuous
 62
     7
100
AcDbLine
 10
598.0300934635
 20
567.1633661479
 30
0.0
 11
540.4031336958
 21
567.1633661479
 31
0.0
  0
LINE
  5
1DD
330
1AD
100
AcDbEntity
  8
$DDT_AUDIT_GENERATED_(AF)
  6
Continuous
 62
     7
100
AcDbLine
 10
540.4031336958
 20
567.1633661479
 30
0.0
 11
490.6988988777
 21
567.1633661479
 31
0.0
  0
SPLINE
  5
1DE
330
1AD
100
AcDbEntity
  8
$DDT_AUDIT_GENERATED_(AF)
  6
Continuous
 62
     7
100
AcDbSpline
210
0.0
220
0.0
230
1.0
 70
     8
 71
     3
 72
    23
 73
    19
 74
     0
 42
0.0000000001066132
 43
0.0000000001
 40
0.0
 40
0.0
 40
0.0
 40
0.0
 40
0.1332657730622947
 40
0.2665271311184608
 40
0.3331572457381354
 40
0.3997926877429246
 40
0.4664245991858175
 40
0.5330537783771025
 40
0.5996803099347917
 40
0.6662970790584438
 40
0.7328928297942446
 40
0.7994498267669966
 40
0.8659562285657677
 40
0.8992497555527531
 40
0.9325350697397694
 40
0.9658083259308853
 40
0.9990669901696471
 40
1.0
 40
1.0
 40
1.0
 40
1.0
 10
490.6988989401669
 20
565.8125581752444
 30
0.0
 10
486.3563078893453
 20
565.812347136789
 30
0.0
 10
477.6712697798433
 20
565.8119264309731
 30
0.0
 10
466.8150098439351
 20
565.8199386737895
 30
0.0
 10
458.1300526396346
 20
565.8597623911892
 30
0.0
 10
451.6165548735861
 20
565.9292889066536
 30
0.0
 10
445.1041011071458
 20
566.0622329631115
 30
0.0
 10
438.5952044159287
 20
566.3063915874965
 30
0.0
 10
432.0977834943678
 20
566.7493201512876
 30
0.0
 10
425.634858449583
 20
567.5184781962232
 30
0.0
 10
419.2696978489867
 20
568.8003895515956
 30
0.0
 10
413.1533692305433
 20
570.7624486629088
 30
0.0
 10
408.4631663379949
 20
572.9468296176941
 30
0.0
 10
405.1302367233666
 20
574.8300640580989
 30
0.0
 10
402.8860755678912
 20
576.2345926818791
 30
0.0
 10
400.9703947279891
 20
577.5340746917343
 30
0.0
 10
399.9542940255147
 20
578.2652674856827
 30
0.0
 10
399.5353113611797
 20
578.5720303249468
 30
0.0
 10
399.5240572478486
 20
578.5804238411689
 30
0.0
  0
SPLINE
  5
1DF
330
1AD
100
AcDbEntity
  8
$DDT_AUDIT_GENERATED_(AF)
  6
Continuous
 62
     7
100
AcDbSpline
210
0.0
220
0.0
230
1.0
 70
     8
 71
     5
 72
    12
 73
     6
 74
     0
 42
0.0000000032396135
 43
0.0000000001
 40
0.0
 40
0.0
 40
0.0
 40
0.0
 40
0.0
 40
0.0
 40
1.0
 40
1.0
 40
1.0
 40
1.0
 40
1.0
 40
1.0
 10
402.433011828976
 20
578.7959806837171
 30
0.0
 10
402.1122712117606
 20
579.0221359270666
 30
0.0
 10
401.7236946509516
 20
579.2993051838448
 30
0.0
 10
401.1265164935223
 20
579.4365508315663
 30
0.0
 10
400.386247485073
 20
579.488678281867
 30
0.0
 10
399.524235516352
 20
579.505979010147
 30
0.0
  0
SPLINE
  5
1E0
330
1AD
100
AcDbEntity
  8
$DDT_AUDIT_GENERATED_(AF)
  6
Continuous
 62
     7
100
AcDbSpline
210
0.0
220
0.0
230
1.0
 70
     8
 71
     3
 72
    27
 73
    23
 74
     0
 42
0.0000000001104503
 43
0.0000000001
 40
0.0
 40
0.0
 40
0.0
 40
0.0
 40
0.0077995393946525
 40
0.0156267445558021
 40
0.031244390035342
 40
0.0624180159907827
 40
0.0936179639295742
 40
0.1248334464568925
 40
0.1560745178877149
 40
0.1873158958343457
 40
0.2185594123686272
 40
0.2498107671727031
 40
0.3122830237194949
 40
0.374782543213701
 40
0.4372955221901284
 40
0.4998151959094199
 40
0.5623373010562436
 40
0.6248596512928324
 40
0.6873833292273157
 40
0.7499087685249347
 40
0.8749586501399865
 40
1.0
 40
1.0
 40
1.0
 40
1.0
 10
402.433011828976
 20
578.7959806837171
 30
0.0
 10
402.4373386406298
 20
578.7929285175005
 30
0.0
 10
402.4460076115833
 20
578.7868133587212
 30
0.0
 10
402.5397534190632
 20
578.7207896249035
 30
0.0
 10
402.8514927209858
 20
578.5021111740116
 30
0.0
 10
403.725567471076
 20
577.8980712515339
 30
0.0
 10
405.3179103135764
 20
576.8526118945113
 30
0.0
 10
407.316867560778
 20
575.6357628512856
 30
0.0
 10
409.6135224789151
 20
574.3703063836005
 30
0.0
 10
412.1293334098132
 20
573.1460999719899
 30
0.0
 10
414.8096883341652
 20
572.0229654454688
 30
0.0
 10
418.5459463769465
 20
570.706790794509
 30
0.0
 10
423.4427663486748
 20
569.4421988289267
 30
0.0
 10
429.4746572925004
 20
568.4753963944412
 30
0.0
 10
435.5699049082829
 20
567.8925011741464
 30
0.0
 10
441.6868833737231
 20
567.5533898830237
 30
0.0
 10
447.8109944444262
 20
567.3615866020082
 30
0.0
 10
453.9371776302908
 20
567.2569896466059
 30
0.0
 10
460.0640221493894
 20
567.2029094474218
 30
0.0
 10
468.2334386937619
 20
567.1689582254878
 30
0.0
 10
478.4451102218251
 20
567.1629256691789
 30
0.0
 10
486.6143955562742
 20
567.1632193250152
 30
0.0
 10
490.6988988776669
 20
567.1633661479244
 30
0.0
  0
SPLINE
  5
1E1
330
1AD
100
AcDbEntity
  8
$DDT_AUDIT_GENERATED_(AF)
  6
Continuous
 62
     7
100
AcDbSpline
210
0.0
220
0.0
230
1.0
 70
     8
 71
     5
 72
    12
 73
     6
 74
     0
 42
0.0000000002519662
 43
0.0000000001
 40
0.0
 40
0.0
 40
0.0
 40
0.0
 40
0.0
 40
0.0
 40
1.0
 40
1.0
 40
1.0
 40
1.0
 40
1.0
 40
1.0
 10
399.5240572478486
 20
578.5804238411689
 30
0.0
 10
399.524235516352
 20
575.3463527269517
 30
0.0
 10
399.524235516352
 20
565.4737777788567
 30
0.0
 10
399.524235516352
 20
552.3698873357534
 30
0.0
 10
399.524235516352
 20
542.3569255312018
 30
0.0
 10
399.5242363502637
 20
538.8925678390503
 30
0.0
  0
LINE
  5
1E2
330
1AD
100
AcDbEntity
  8
$DDT_AUDIT_GENERATED_(AF)
  6
Continuous
 62
     7
100
AcDbLine
 10
399.5242355115
 20
537.8175846925
 30
0.0
 11
399.5242363503
 21
538.8925678391
 31
0.0
  0
SPLINE
  5
1E3
330
1AD
100
AcDbEntity
  8
$DDT_AUDIT_GENERATED_(AF)
  6
Continuous
 62
     7
100
AcDbSpline
210
0.0
220
0.0
230
1.0
 70
     8
 71
     3
 72
    12
 73
     8
 74
     0
 42
0.0000000108035939
 43
0.0000000001
 40
0.0
 40
0.0
 40
0.0
 40
0.0
 40
0.5
 40
0.5
 40
0.75
 40
0.75
 40
1.0
 40
1.0
 40
1.0
 40
1.0
 10
399.5240572478486
 20
578.5804238411689
 30
0.0
 10
399.524235516352
 20
578.8843734400709
 30
0.0
 10
399.524235516352
 20
579.1169200009139
 30
0.0
 10
399.524235516352
 20
579.3501147899245
 30
0.0
 10
399.524235516352
 20
579.4087279521107
 30
0.0
 10
399.524235516352
 20
579.4866062832501
 30
0.0
 10
399.5242355163519
 20
579.5060103544156
 30
0.0
 10
399.524235516352
 20
579.505979010147
 30
0.0
  0
ARC
  5
1E4
330
1AD
100
AcDbEntity
  8
$DDT_AUDIT_GENERATED_(AF)
  6
Continuous
 62
     7
100
AcDbCircle
 10
394.5242355125
 20
517.4194503393
 30
0.0
 40
20.76290785400991
100
AcDbArc
 50
80.9945112888
 51
99.0054903459
  0
SPLINE
  5
1E5
330
1AD
100
AcDbEntity
  8
$DDT_AUDIT_GENERATED_(AF)
  6
Continuous
 62
     7
100
AcDbSpline
210
0.0
220
0.0
230
1.0
 70
     8
 71
     3
 72
    17
 73
    13
 74
     0
 42
0.0000000008640035
 43
0.0000000001
 40
0.0
 40
0.0
 40
0.0
 40
0.0
 40
0.1487747962836658
 40
0.2914182135400789
 40
0.4171626152264022
 40
0.5264529015125873
 40
0.620277506863932
 40
0.7001329663324947
 40
0.7979318965521929
 40
0.8762740772869864
 40
0.9421965386070991
 40
1.0
 40
1.0
 40
1.0
 40
1.0
 10
610.2038085149384
 20
551.5600288886491
 30
0.0
 10
610.8126603832422
 20
551.719865799905
 30
0.0
 10
611.8158506687361
 20
551.9890371407625
 30
0.0
 10
613.3642777972073
 20
552.5211154392733
 30
0.0
 10
614.6982574098841
 20
553.0812918777397
 30
0.0
 10
615.8249694157208
 20
553.6628825691656
 30
0.0
 10
616.7425746681691
 20
554.251722668435
 30
0.0
 10
617.5543654203699
 20
554.9112044001776
 30
0.0
 10
618.2159166419539
 20
555.6538814360907
 30
0.0
 10
618.6528332950181
 20
556.4820086103837
 30
0.0
 10
618.8345034751981
 20
557.2603328924316
 30
0.0
 10
618.858318050293
 20
557.7025552854128
 30
0.0
 10
618.8675345860939
 20
557.9469544146284
 30
0.0
  0
SPLINE
  5
1E6
330
1AD
100
AcDbEntity
  8
$DDT_AUDIT_GENERATED_(AF)
  6
Continuous
 62
     7
100
AcDbSpline
210
0.0
220
0.0
230
1.0
 70
     8
 71
     3
 72
    10
 73
     6
 74
     0
 42
0.0000000012457827
 43
0.0000000001
 40
0.0
 40
0.0
 40
0.0
 40
0.0
 40
0.3329209227468397
 40
0.666124508951499
 40
1.0
 40
1.0
 40
1.0
 40
1.0
 10
618.8675348687523
 20
557.9469544146284
 30
0.0
 10
618.8698590764878
 20
558.9245561538037
 30
0.0
 10
618.858565756574
 20
560.5641823467972
 30
0.0
 10
618.4207955428901
 20
563.3170579515255
 30
0.0
 10
617.921828335385
 20
564.8813451081647
 30
0.0
 10
617.6152423525318
 20
565.8125829839285
 30
0.0
  0
ARC
  5
1E7
330
1AD
100
AcDbEntity
  8
$DDT_AUDIT_GENERATED_(AF)
  6
Continuous
 62
     7
100
AcDbCircle
 10
613.4573193745
 20
560.8510128813
 30
0.0
 40
6.473445813219633
100
AcDbArc
 50
50.0361298516
 51
77.192102353
  0
LINE
  5
1E8
330
1AD
100
AcDbEntity
  8
$DDT_AUDIT_GENERATED_(AF)
  6
Continuous
 62
     7
100
AcDbLine
 10
400.5374731308
 20
537.8563324011
 30
0.0
 11
400.6747813045
 21
537.8624003113
 31
0.0
  0
ARC
  5
1E9
330
1AD
100
AcDbEntity
  8
$DDT_AUDIT_GENERATED_(AF)
  6
Continuous
 62
     7
100
AcDbCircle
 10
399.6003067114
 20
542.0423943051
 30
0.0
 40
4.223582632021947
100
AcDbArc
 50
270.25662641
 51
272.0793310181
  0
LINE
  5
1EA
330
1AD
100
AcDbEntity
  8
$DDT_AUDIT_GENERATED_(AF)
  6
Continuous
 62
     7
100
AcDbLine
 10
399.9055612189
 20
537.8273341477
 30
0.0
 11
400.7760478637
 21
537.8717657777
 31
0.0
  0
ARC
  5
1EB
330
1AD
100
AcDbEntity
  8
$DDT_AUDIT_GENERATED_(AF)
  6
Continuous
 62
     7
100
AcDbCircle
 10
399.6262547371
 20
542.6260852718
 30
0.0
 40
4.806872627971913
100
AcDbArc
 50
268.7838794596
 51
273.3310850233
  0
LINE
  5
1EC
330
1AD
100
AcDbEntity
  8
$DDT_AUDIT_GENERATED_(AF)
  6
Continuous
 62
     7
100
AcDbLine
 10
399.5242355164
 20
579.4764209255
 30
0.0
 11
385.1780825583
 21
579.4764209255
 31
0.0
  0
LINE
  5
1ED
330
1AD
100
AcDbEntity
  8
$DDT_AUDIT_GENERATED_(AF)
  6
Continuous
 62
     7
100
AcDbLine
 10
397.7697325475
 20
537.9264209255
 30
0.0
 11
399.5242355164
 21
537.9264209255
 31
0.0
  0
LINE
  5
1EE
330
1AD
100
AcDbEntity
  8
$DDT_AUDIT_GENERATED_(AF)
  6
Continuous
 62
     7
100
AcDbLine
 10
385.1780829398
 20
537.9264209255
 30
0.0
 11
391.3147060553
 21
537.9264209255
 31
0.0
  0
LINE
  5
1EF
330
1AD
100
AcDbEntity
  8
$DDT_AUDIT_GENERATED_(DF)
  6
Continuous
 62
     7
100
AcDbLine
 10
384.2242354865
 20
587.7014177489
 30
0.0
 11
384.2242354865
 21
529.7014151922
 31
0.0
  0
LINE
  5
1F0
330
1AD
100
AcDbEntity
  8
$DDT_AUDIT_GENERATED_(DF)
  6
Continuous
 62
     7
100
AcDbLine
 10
378.5242354865
 20
528.7014110978
 30
0.0
 11
378.5242354865
 21
588.7014675515
 31
0.0
  0
SPLINE
  5
1F1
330
1AD
100
AcDbEntity
  8
$DDT_AUDIT_GENERATED_(DF)
  6
Continuous
 62
     7
100
AcDbSpline
210
0.0
220
0.0
230
1.0
 70
     8
 71
     3
 72
    13
 73
     9
 74
     0
 42
0.0000000063014675
 43
0.0000000001
 40
0.0
 40
0.0
 40
0.0
 40
0.0
 40
0.1294353584734466
 40
0.255030107198613
 40
0.4999999914569734
 40
0.7449698805863628
 40
0.8705646348008803
 40
1.0
 40
1.0
 40
1.0
 40
1.0
 10
383.224235471649
 20
528.7014151242871
 30
0.0
 10
383.2984148506111
 20
528.7050961340375
 30
0.0
 10
383.4223263173648
 20
528.7131694628853
 30
0.0
 10
383.6772718303589
 20
528.793240566325
 30
0.0
 10
383.9488615481176
 20
528.9767890830506
 30
0.0
 10
384.132410050687
 20
529.248378813003
 30
0.0
 10
384.2124811486759
 20
529.5033243368055
 30
0.0
 10
384.2205544770428
 20
529.6272358093775
 30
0.0
 10
384.22423548655
 20
529.7014151922156
 30
0.0
  0
SPLINE
  5
1F2
330
1AD
100
AcDbEntity
  8
$DDT_AUDIT_GENERATED_(DF)
  6
Continuous
 62
     7
100
AcDbSpline
210
0.0
220
0.0
230
1.0
 70
     8
 71
     3
 72
    13
 73
     9
 74
     0
 42
0.0000000063014675
 43
0.0000000001
 40
0.0
 40
0.0
 40
0.0
 40
0.0
 40
0.1294353651990124
 40
0.255030119413491
 40
0.5000000085429158
 40
0.7449698928013484
 40
0.87056464152654
 40
1.0
 40
1.0
 40
1.0
 40
1.0
 10
384.22423548655
 20
587.7014177488679
 30
0.0
 10
384.2205544770427
 20
587.7755971317061
 30
0.0
 10
384.2124811486758
 20
587.899508604278
 30
0.0
 10
384.132410050687
 20
588.1544541280803
 30
0.0
 10
383.9488615481175
 20
588.4260438580328
 30
0.0
 10
383.677271830359
 20
588.6095923747584
 30
0.0
 10
383.4223263173648
 20
588.6896634781983
 30
0.0
 10
383.2984148506111
 20
588.6977368070461
 30
0.0
 10
383.224235471649
 20
588.7014178167964
 30
0.0
  0
LINE
  5
1F3
330
1AD
100
AcDbEntity
  8
$DDT_AUDIT_GENERATED_(DF)
  6
Continuous
 62
     7
100
AcDbLine
 10
383.2292354716
 20
588.7014675515
 30
0.0
 11
378.5242354865
 21
588.7014675515
 31
0.0
  0
LINE
  5
1F4
330
1AD
100
AcDbEntity
  8
$DDT_AUDIT_GENERATED_(DF)
  6
Continuous
 62
     7
100
AcDbLine
 10
378.5242354865
 20
528.7014110978
 30
0.0
 11
383.2292354716
 21
528.7014110978
 31
0.0
  0
LINE
  5
1F5
330
1AD
100
AcDbEntity
  8
02636038_GEHÄUSE
  6
Continuous
 62
     7
100
AcDbLine
 10
609.4465152062
 20
543.0101669515
 30
0.0
 11
588.0283291972
 21
541.1363184825
 31
0.0
  0
LINE
  5
1F6
330
1AD
100
AcDbEntity
  8
02636038_GEHÄUSE
  6
Continuous
 62
     7
100
AcDbLine
 10
609.7516958258
 20
551.5693354152
 30
0.0
 11
586.2415009509
 21
549.5124598864
 31
0.0
  0
SPLINE
  5
1F7
330
1AD
100
AcDbEntity
  8
02636038_GEHÄUSE
  6
Continuous
 62
     7
100
AcDbSpline
210
0.0
220
0.0
230
1.0
 70
     8
 71
     3
 72
    10
 73
     6
 74
     0
 42
0.0000000019260148
 43
0.0000000001
 40
0.0
 40
0.0
 40
0.0
 40
0.0
 40
0.5
 40
0.5
 40
1.0
 40
1.0
 40
1.0
 40
1.0
 10
601.2864075411912
 20
542.6150056470833
 30
0.0
 10
600.4373060409512
 20
542.426326898575
 30
0.0
 10
599.5835075870641
 20
542.2921443593807
 30
0.0
 10
597.8657318469847
 20
542.1418787594167
 30
0.0
 10
597.0017546979017
 20
542.1257941078408
 30
0.0
 10
596.1330855315257
 20
542.164148391739
 30
0.0
  0
LINE
  5
1F8
330
1AD
100
AcDbEntity
  8
02636038_GEHÄUSE
  6
Continuous
 62
     7
100
AcDbLine
 10
602.7305344718
 20
545.4340542854
 30
0.0
 11
594.2213754751
 21
544.6895993371
 31
0.0
  0
LINE
  5
1F9
330
1AD
100
AcDbEntity
  8
02636038_GEHÄUSE
  6
Continuous
 62
     7
100
AcDbLine
 10
602.7305344718
 20
545.4340542854
 30
0.0
 11
602.8888469474
 21
543.6245344092
 31
0.0
  0
SPLINE
  5
1FA
330
1AD
100
AcDbEntity
  8
02636038_GEHÄUSE
  6
Continuous
 62
     7
100
AcDbSpline
210
0.0
220
0.0
230
1.0
 70
     8
 71
     3
 72
    14
 73
    10
 74
     0
 42
0.0000000049320844
 43
0.0000000001
 40
0.0
 40
0.0
 40
0.0
 40
0.0
 40
0.1249999999999997
 40
0.1249999999999997
 40
0.2499999999999994
 40
0.2499999999999994
 40
0.4999999999999996
 40
0.4999999999999996
 40
1.0
 40
1.0
 40
1.0
 40
1.0
 10
602.888846947367
 20
543.6245344092462
 30
0.0
 10
602.8962050875921
 20
543.5404304816212
 30
0.0
 10
602.8714772096326
 20
543.4539039229016
 30
0.0
 10
602.7881521513292
 20
543.3069027813443
 30
0.0
 10
602.7303901044355
 20
543.242603282916
 30
0.0
 10
602.5419849862452
 20
543.0744304398356
 30
0.0
 10
602.3928127349867
 20
542.9897167104021
 30
0.0
 10
601.9387456645724
 20
542.777981286751
 30
0.0
 10
601.6125143267035
 20
542.6874697990759
 30
0.0
 10
601.2864075411912
 20
542.6150056470833
 30
0.0
  0
SPLINE
  5
1FB
330
1AD
100
AcDbEntity
  8
02636038_GEHÄUSE
  6
Continuous
 62
     7
100
AcDbSpline
210
0.0
220
0.0
230
1.0
 70
     8
 71
     3
 72
    14
 73
    10
 74
     0
 42
0.0000000049319876
 43
0.0000000001
 40
0.0
 40
0.0
 40
0.0
 40
0.0
 40
0.4999999999999996
 40
0.4999999999999996
 40
0.7499999999999993
 40
0.7499999999999993
 40
0.8749999999999997
 40
0.8749999999999997
 40
1.0
 40
1.0
 40
1.0
 40
1.0
 10
596.1330855315257
 20
542.164148391739
 30
0.0
 10
595.7979177350763
 20
542.1789470300654
 30
0.0
 10
595.4635549638767
 20
542.2109938594347
 30
0.0
 10
594.9771890593609
 20
542.3413997251754
 30
0.0
 10
594.8169854310552
 20
542.3986692942988
 30
0.0
 10
594.6034951792274
 20
542.5304707304695
 30
0.0
 10
594.5349795228902
 20
542.5838055960674
 30
0.0
 10
594.4266481673259
 20
542.714565743811
 30
0.0
 10
594.3870809796148
 20
542.7955767541561
 30
0.0
 10
594.3796879507395
 20
542.8800794609017
 30
0.0
  0
LINE
  5
1FC
330
1AD
100
AcDbEntity
  8
02636038_GEHÄUSE
  6
Continuous
 62
     7
100
AcDbLine
 10
594.3796879507
 20
542.8800794609
 30
0.0
 11
594.2213754751
 21
544.6895993371
 31
0.0
  0
LINE
  5
1FD
330
1AD
100
AcDbEntity
  8
02636038_GEHÄUSE
  6
Continuous
 62
     7
100
AcDbLine
 10
586.7681367244
 20
550.3772133981
 30
0.0
 11
586.8392177697
 21
549.564753332
 31
0.0
  0
LINE
  5
1FE
330
1AD
100
AcDbEntity
  8
02636038_GEHÄUSE
  6
Continuous
 62
     7
100
AcDbLine
 10
587.4527464479
 20
541.4047171264
 30
0.0
 11
588.0283291972
 21
541.1363184825
 31
0.0
  0
LINE
  5
1FF
330
1AD
100
AcDbEntity
  8
02636038_GEHÄUSE
  6
Continuous
 62
     7
100
AcDbLine
 10
609.4465152062
 20
543.0101669515
 30
0.0
 11
609.9667466248
 21
543.3744369125
 31
0.0
  0
ARC
  5
200
330
1AD
100
AcDbEntity
  8
02636038_GEHÄUSE
  6
Continuous
 62
     7
100
AcDbCircle
 10
609.3931701884
 20
544.1935889567
 30
0.0
 40
0.999999999999992
100
AcDbArc
 50
305.0
 51
5.0
  0
ARC
  5
201
330
1AD
100
AcDbEntity
  8
02636038_GEHÄUSE
  6
Continuous
 62
     7
100
AcDbCircle
 10
587.8753647097
 20
542.3110249134
 30
0.0
 40
1.000000000000011
100
AcDbArc
 50
185.0
 51
245.0
  0
LINE
  5
202
330
1AD
100
AcDbEntity
  8
02636038_GEHÄUSE
  6
Continuous
 62
     7
100
AcDbLine
 10
586.2415009509
 20
549.5124598864
 30
0.0
 11
586.8791700116
 21
542.2238691707
 31
0.0
  0
LINE
  5
203
330
1AD
100
AcDbEntity
  8
02636038_GEHÄUSE
  6
Continuous
 62
     7
100
AcDbLine
 10
610.3893648865
 20
544.2807446995
 30
0.0
 11
609.7516958258
 21
551.5693354152
 31
0.0
  0
LINE
  5
204
330
1AD
100
AcDbEntity
  8
$DDT_AUDIT_GENERATED_(F6)
  6
Continuous
 62
     7
100
AcDbLine
 10
607.7380367816
 20
542.4591665225
 30
0.0
 11
589.806532216
 21
540.890363153
 31
0.0
  0
LINE
  5
205
330
1AD
100
AcDbEntity
  8
$DDT_AUDIT_GENERATED_(F6)
  6
Continuous
 62
     7
100
AcDbLine
 10
589.7716699189
 20
541.2888410323
 30
0.0
 11
589.806532216
 21
540.890363153
 31
0.0
  0
LINE
  5
206
330
1AD
100
AcDbEntity
  8
$DDT_AUDIT_GENERATED_(F6)
  6
Continuous
 62
     7
100
AcDbLine
 10
607.7380367816
 20
542.4591665225
 30
0.0
 11
607.7031744845
 21
542.8576444017
 31
0.0
  0
LINE
  5
207
330
1AD
100
AcDbEntity
  8
$DDT_AUDIT_GENERATED_(199)
  6
Continuous
 62
     7
100
AcDbLine
 10
416.1523483207
 20
540.6611649347
 30
0.0
 11
416.1523497046
 21
545.2723413033
 31
0.0
  0
LINE
  5
208
330
1AD
100
AcDbEntity
  8
$DDT_AUDIT_GENERATED_(199)
  6
Continuous
 62
     7
100
AcDbLine
 10
416.152348322
 20
576.7416791147
 30
0.0
 11
416.1523498753
 21
571.5648101306
 31
0.0
  0
ARC
  5
209
330
1AD
100
AcDbEntity
  8
$DDT_AUDIT_GENERATED_(199)
  6
Continuous
 62
     7
100
AcDbCircle
 10
415.5225569839
 20
538.2518928761
 30
0.0
 40
0.2999254762547723
100
AcDbArc
 50
311.8370014435
 51
350.0280631927
  0
ARC
  5
20A
330
1AD
100
AcDbEntity
  8
$DDT_AUDIT_GENERATED_(199)
  6
Continuous
 62
     7
100
AcDbCircle
 10
415.5225572637
 20
579.1509642338
 30
0.0
 40
0.2999255292959063
100
AcDbArc
 50
9.9719114099
 51
48.1365707567
  0
LINE
  5
20B
330
1AD
100
AcDbEntity
  8
$DDT_AUDIT_GENERATED_(199)
  6
Continuous
 62
     7
100
AcDbLine
 10
415.8179499356
 20
538.1994200311
 30
0.0
 11
416.1523575629
 21
540.6613927972
 31
0.0
  0
LINE
  5
20C
330
1AD
100
AcDbEntity
  8
$DDT_AUDIT_GENERATED_(199)
  6
Continuous
 62
     7
100
AcDbLine
 10
416.1523575629
 20
576.7414500521
 30
0.0
 11
415.8179499356
 21
579.2034228182
 31
0.0
  0
ARC
  5
20D
330
1AD
100
AcDbEntity
  8
$DDT_AUDIT_GENERATED_(199)
  6
Continuous
 62
     7
100
AcDbCircle
 10
-785.8189816333
 20
559.4949817872
 30
0.0
 40
1202.045763624052
100
AcDbArc
 50
0.5758283506
 51
0.5884404849
  0
ENDBLK
  5
20F
330
1AD
100
AcDbEntity
  8
0
100
AcDbBlockEnd
  0
BLOCK
  5
284
330
210
100
AcDbEntity
  8
0
100
AcDbBlockBegin
  2
SE2
 70
     0
 10
0.0
 20
0.0
 30
0.0
  3
SE2
  1

  0
SPLINE
  5
212
330
210
100
AcDbEntity
  8
$DDT_AUDIT_GENERATED_(87)
  6
Continuous
 62
     7
100
AcDbSpline
210
0.0
220
0.0
230
1.0
 70
     8
 71
     3
 72
     8
 73
     4
 74
     0
 42
0.0000000077677495
 43
0.0000000001
 40
0.1241615053124746
 40
0.1241615053124746
 40
0.1241615053124746
 40
0.1241615053124746
 40
0.1249382802601172
 40
0.1249382802601172
 40
0.1249382802601172
 40
0.1249382802601172
 10
156.3325174088061
 20
309.9946354548867
 30
0.0
 10
156.3323321912451
 20
309.9946324827896
 30
0.0
 10
156.3322393858765
 20
309.9946309772064
 30
0.0
 10
156.3322390404977
 20
309.9946309824189
 30
0.0
  0
SPLINE
  5
213
330
210
100
AcDbEntity
  8
$DDT_AUDIT_GENERATED_(87)
  6
Continuous
 62
     7
100
AcDbSpline
210
0.0
220
0.0
230
1.0
 70
     8
 71
     3
 72
    10
 73
     6
 74
     0
 42
0.0000000059612281
 43
0.0000000001
 40
0.6245349924210646
 40
0.6245349924210646
 40
0.6245349924210646
 40
0.6245349924210646
 40
0.6250000000000001
 40
0.6250000000000001
 40
0.6251311152280477
 40
0.6251311152280477
 40
0.6251311152280477
 40
0.6251311152280477
 10
202.6716313329772
 20
309.9946336431726
 30
0.0
 10
202.6717145106378
 20
309.9946322775301
 30
0.0
 10
202.671765322974
 20
309.9946314323948
 30
0.0
 10
202.6717889840379
 20
309.9946310280361
 30
0.0
 10
202.6717915299783
 20
309.9946309825644
 30
0.0
 10
202.6717914181845
 20
309.9946309803435
 30
0.0
  0
SPLINE
  5
214
330
210
100
AcDbEntity
  8
$DDT_AUDIT_GENERATED_(87)
  6
Continuous
 62
     7
100
AcDbSpline
210
0.0
220
0.0
230
1.0
 70
     8
 71
     3
 72
     8
 73
     4
 74
     0
 42
0.0000000056026196
 43
0.0000000001
 40
0.8751252072956051
 40
0.8751252072956051
 40
0.8751252072956051
 40
0.8751252072956051
 40
0.8756854692517257
 40
0.8756854692517257
 40
0.8756854692517257
 40
0.8756854692517257
 10
154.863316096361
 20
311.9053993507793
 30
0.0
 10
154.863315481732
 20
311.9053993307115
 30
0.0
 10
154.863365012755
 20
311.9054000279423
 30
0.0
 10
154.8634647047221
 20
311.9054014274964
 30
0.0
  0
SPLINE
  5
215
330
210
100
AcDbEntity
  8
$DDT_AUDIT_GENERATED_(87)
  6
Continuous
 62
     7
100
AcDbSpline
210
0.0
220
0.0
230
1.0
 70
     8
 71
     3
 72
    38
 73
    34
 74
     0
 42
0.0000000001181793
 43
0.0000000001
 40
0.1249538836082702
 40
0.1249538836082702
 40
0.1249538836082702
 40
0.1249538836082702
 40
0.1250000000000005
 40
0.1250000000000005
 40
0.1875000000000006
 40
0.1875000000000006
 40
0.2187500000000007
 40
0.2187500000000007
 40
0.2500000000000008
 40
0.2500000000000008
 40
0.2812500000000009
 40
0.2812500000000009
 40
0.3125000000000009
 40
0.3125000000000009
 40
0.343750000000001
 40
0.343750000000001
 40
0.3750000000000011
 40
0.3750000000000011
 40
0.4062500000000011
 40
0.4062500000000011
 40
0.4375000000000011
 40
0.4375000000000011
 40
0.4687500000000011
 40
0.4687500000000011
 40
0.5000000000000011
 40
0.5000000000000011
 40
0.5625000000000011
 40
0.5625000000000011
 40
0.5937500000000011
 40
0.5937500000000011
 40
0.6250000000000011
 40
0.6250000000000011
 40
0.6251414945929342
 40
0.6251414945929342
 40
0.6251414945929342
 40
0.6251414945929342
 10
158.3398172791254
 20
309.5047990599073
 30
0.0
 10
158.3398172811667
 20
309.5047990602698
 30
0.0
 10
158.3398175827733
 20
309.5047990641343
 30
0.0
 10
158.3406329511469
 20
309.5048090629225
 30
0.0
 10
158.8952574021853
 20
309.5100418859053
 30
0.0
 10
160.4774423896077
 20
309.5100431405228
 30
0.0
 10
161.1366978304243
 20
309.5090330945621
 30
0.0
 10
162.6811176733516
 20
309.5063872312493
 30
0.0
 10
163.5563955977871
 20
309.5048049045704
 30
0.0
 10
165.5094630994854
 20
309.504793246544
 30
0.0
 10
166.5987726775208
 20
309.5064032945684
 30
0.0
 10
168.896615801378
 20
309.5090330070686
 30
0.0
 10
170.1120136714224
 20
309.5100387260318
 30
0.0
 10
172.6778892312585
 20
309.5100466924222
 30
0.0
 10
174.0187595129757
 20
309.5090293629416
 30
0.0
 10
176.722502961038
 20
309.5064058549688
 30
0.0
 10
178.1031548966219
 20
309.5048018292415
 30
0.0
 10
180.8940336665501
 20
309.5047962978935
 30
0.0
 10
182.2678156314898
 20
309.5063914854974
 30
0.0
 10
184.9735286065799
 20
309.5090190232776
 30
0.0
 10
186.3197591723278
 20
309.5100423297472
 30
0.0
 10
188.879656805134
 20
309.5100431149244
 30
0.0
 10
190.0952749250144
 20
309.509045302353
 30
0.0
 10
192.3982017543421
 20
309.5064129545274
 30
0.0
 10
193.486531955712
 20
309.5048031048072
 30
0.0
 10
196.414064777503
 20
309.5047909930967
 30
0.0
 10
197.9926472829055
 20
309.5100322821641
 30
0.0
 10
199.5771022740692
 20
309.5100479081323
 30
0.0
 10
199.9846725597441
 20
309.5090446013094
 30
0.0
 10
200.5279805839147
 20
309.5063990235236
 30
0.0
 10
200.6629828256505
 20
309.5048141192881
 30
0.0
 10
200.6642105897575
 20
309.5047990940583
 30
0.0
 10
200.6642132896807
 20
309.5047990595741
 30
0.0
 10
200.6642131560542
 20
309.5047990581535
 30
0.0
  0
LINE
  5
216
330
210
100
AcDbEntity
  8
$DDT_AUDIT_GENERATED_(87)
  6
Continuous
 62
     7
100
AcDbLine
 10
154.6093640127
 20
341.0054338114
 30
0.0
 11
154.8633149548
 21
311.9055381545
 31
0.0
  0
LINE
  5
217
330
210
100
AcDbEntity
  8
$DDT_AUDIT_GENERATED_(87)
  6
Continuous
 62
     7
100
AcDbLine
 10
204.1407146052
 20
311.9054178158
 30
0.0
 11
204.3946665975
 21
341.0054338114
 31
0.0
  0
ARC
  5
218
330
210
100
AcDbEntity
  8
$DDT_AUDIT_GENERATED_(87)
  6
Continuous
 62
     7
100
AcDbCircle
 10
202.1551248539
 20
311.8940944402
 30
0.0
 40
1.957228462427407
100
AcDbArc
 50
284.7501162985
 51
0.3447406981
  0
ARC
  5
219
330
210
100
AcDbEntity
  8
$DDT_AUDIT_GENERATED_(87)
  6
Continuous
 62
     7
100
AcDbCircle
 10
156.8732126171
 20
311.9161543368
 30
0.0
 40
1.985334833191201
100
AcDbArc
 50
180.272076497
 51
254.9021587356
  0
LINE
  5
21A
330
210
100
AcDbEntity
  8
$DDT_AUDIT_GENERATED_(87)
  6
Continuous
 62
     7
100
AcDbLine
 10
156.2867106382
 20
310.0072004868
 30
0.0
 11
158.3564111662
 21
309.5012867772
 31
0.0
  0
LINE
  5
21B
330
210
100
AcDbEntity
  8
$DDT_AUDIT_GENERATED_(87)
  6
Continuous
 62
     7
100
AcDbLine
 10
200.647619444
 20
309.5012867772
 30
0.0
 11
202.717319972
 21
310.0072004868
 31
0.0
  0
LINE
  5
21C
330
210
100
AcDbEntity
  8
$DDT_AUDIT_GENERATED_(8C)
  6
Continuous
 62
     7
100
AcDbLine
 10
209.5020153051
 20
346.7054338114
 30
0.0
 11
149.5020153051
 21
346.7054338114
 31
0.0
  0
LINE
  5
21D
330
210
100
AcDbEntity
  8
$DDT_AUDIT_GENERATED_(8C)
  6
Continuous
 62
     7
100
AcDbLine
 10
150.5020153051
 20
341.0054338114
 30
0.0
 11
208.5020153051
 21
341.0054338114
 31
0.0
  0
LINE
  5
21E
330
210
100
AcDbEntity
  8
$DDT_AUDIT_GENERATED_(8C)
  6
Continuous
 62
     7
100
AcDbLine
 10
149.5020153051
 20
346.7054338114
 30
0.0
 11
149.5020153051
 21
342.0054338114
 31
0.0
  0
LINE
  5
21F
330
210
100
AcDbEntity
  8
$DDT_AUDIT_GENERATED_(8C)
  6
Continuous
 62
     7
100
AcDbLine
 10
209.5020153051
 20
342.0054338114
 30
0.0
 11
209.5020153051
 21
346.7054338114
 31
0.0
  0
ARC
  5
220
330
210
100
AcDbEntity
  8
$DDT_AUDIT_GENERATED_(8C)
  6
Continuous
 62
     7
100
AcDbCircle
 10
208.5020153051
 20
342.0054338114
 30
0.0
 40
1.000000000000001
100
AcDbArc
 50
270.0
 51
0.0
  0
ARC
  5
221
330
210
100
AcDbEntity
  8
$DDT_AUDIT_GENERATED_(8C)
  6
Continuous
 62
     7
100
AcDbCircle
 10
150.5020153051
 20
342.0054338114
 30
0.0
 40
1.000000000000004
100
AcDbArc
 50
180.0
 51
270.0
  0
SPLINE
  5
223
330
210
100
AcDbEntity
  8
$DDT_AUDIT_GENERATED_(222)
  6
Continuous
 62
     7
100
AcDbSpline
210
0.0
220
0.0
230
1.0
 70
     8
 71
     3
 72
     8
 73
     4
 74
     0
 42
0.0000000016536701
 43
0.0000000001
 40
0.0
 40
0.0
 40
0.0
 40
0.0
 40
0.022970327655132
 40
0.022970327655132
 40
0.022970327655132
 40
0.022970327655132
 10
174.4271494718635
 20
307.1682054873738
 30
0.0
 10
174.4275673164877
 20
307.1219123989954
 30
0.0
 10
174.4279852782842
 20
307.0756125714258
 30
0.0
 10
174.4284033572528
 20
307.0293060046648
 30
0.0
  0
SPLINE
  5
224
330
210
100
AcDbEntity
  8
$DDT_AUDIT_GENERATED_(222)
  6
Continuous
 62
     7
100
AcDbSpline
210
0.0
220
0.0
230
1.0
 70
     8
 71
     3
 72
     8
 73
     4
 74
     0
 42
0.0000000015266196
 43
0.0000000001
 40
0.858878611702176
 40
0.858878611702176
 40
0.858878611702176
 40
0.858878611702176
 40
1.0
 40
1.0
 40
1.0
 40
1.0
 10
184.5685290601018
 20
306.2434226156822
 30
0.0
 10
184.5712817049978
 20
306.5479402650183
 30
0.0
 10
184.5740647180445
 20
306.8560624949866
 30
0.0
 10
184.5768780992418
 20
307.1677893055874
 30
0.0
  0
SPLINE
  5
225
330
210
100
AcDbEntity
  8
$DDT_AUDIT_GENERATED_(222)
  6
Continuous
 62
     7
100
AcDbSpline
210
0.0
220
0.0
230
1.0
 70
     8
 71
     3
 72
    11
 73
     7
 74
     0
 42
0.000000004779265
 43
0.0000000001
 40
0.7964994155492361
 40
0.7964994155492361
 40
0.7964994155492361
 40
0.7964994155492361
 40
0.8114088654397495
 40
0.8753724252329094
 40
0.9518176374438228
 40
1.0
 40
1.0
 40
1.0
 40
1.0
 10
174.3512917558546
 20
307.223797817394
 30
0.0
 10
174.3578965032835
 20
307.2182355460089
 30
0.0
 10
174.3934787444451
 20
307.1865833345167
 30
0.0
 10
174.4606605486421
 20
307.1038312092919
 30
0.0
 10
174.5171943436536
 20
306.9747216708974
 30
0.0
 10
174.5153746931349
 20
306.8906353517797
 30
0.0
 10
174.5140072647376
 20
306.8527590142432
 30
0.0
  0
SPLINE
  5
226
330
210
100
AcDbEntity
  8
$DDT_AUDIT_GENERATED_(222)
  6
Continuous
 62
     7
100
AcDbSpline
210
0.0
220
0.0
230
1.0
 70
     8
 71
     3
 72
    15
 73
    11
 74
     0
 42
0.000000008871317
 43
0.0000000001
 40
0.0
 40
0.0
 40
0.0
 40
0.0
 40
0.0161860102155427
 40
0.1172064196413263
 40
0.2010422170459744
 40
0.2704654070193595
 40
0.323807215654584
 40
0.3701811187322606
 40
0.4245618293567436
 40
0.4246542567952006
 40
0.4246542567952006
 40
0.4246542567952006
 40
0.4246542567952006
 10
184.4881532718544
 20
306.8967490966111
 30
0.0
 10
184.4874522373283
 20
306.9055237097266
 30
0.0
 10
184.4831992678852
 20
306.9602767536637
 30
0.0
 10
184.5232820256132
 20
307.0592979593118
 30
0.0
 10
184.5865115074528
 20
307.1623150548326
 30
0.0
 10
184.653954525379
 20
307.2274175129972
 30
0.0
 10
184.7018298363428
 20
307.2604871807517
 30
0.0
 10
184.7279119821346
 20
307.2746540072314
 30
0.0
 10
184.7330890280922
 20
307.2768515911533
 30
0.0
 10
184.7331171011599
 20
307.2768660045188
 30
0.0
 10
184.733117140827
 20
307.2768660256011
 30
0.0
  0
ARC
  5
227
330
210
100
AcDbEntity
  8
$DDT_AUDIT_GENERATED_(222)
  6
Continuous
 62
     7
100
AcDbCircle
 10
179.5020153051
 20
327.0792632705
 30
0.0
 40
20.50000000000001
100
AcDbArc
 50
241.6978166957
 51
265.3932791571
  0
ARC
  5
228
330
210
100
AcDbEntity
  8
$DDT_AUDIT_GENERATED_(222)
  6
Continuous
 62
     7
100
AcDbCircle
 10
179.5020153051
 20
327.0792632705
 30
0.0
 40
20.50000000000001
100
AcDbArc
 50
265.7280615203
 51
270.0
  0
ARC
  5
229
330
210
100
AcDbEntity
  8
$DDT_AUDIT_GENERATED_(222)
  6
Continuous
 62
     7
100
AcDbCircle
 10
179.5020153051
 20
327.0792632705
 30
0.0
 40
20.5
100
AcDbArc
 50
270.0
 51
274.2655742318
  0
ARC
  5
22A
330
210
100
AcDbEntity
  8
$DDT_AUDIT_GENERATED_(222)
  6
Continuous
 62
     7
100
AcDbCircle
 10
179.5020153051
 20
327.0792632705
 30
0.0
 40
20.5
100
AcDbArc
 50
274.5082388389
 51
298.573132829
  0
ARC
  5
22B
330
210
100
AcDbEntity
  8
$DDT_AUDIT_GENERATED_(94)
  6
Continuous
 62
     7
100
AcDbCircle
 10
194.97533732
 20
293.9027505528
 30
0.0
 40
2.000000000007136
100
AcDbArc
 50
359.0000000001
 51
31.0992071971
  0
LINE
  5
22C
330
210
100
AcDbEntity
  8
$DDT_AUDIT_GENERATED_(94)
  6
Continuous
 62
     7
100
AcDbLine
 10
196.9750327104
 20
293.8678457399
 30
0.0
 11
196.9548100368
 21
292.7092895495
 31
0.0
  0
ARC
  5
22D
330
210
100
AcDbEntity
  8
$DDT_AUDIT_GENERATED_(94)
  6
Continuous
 62
     7
100
AcDbCircle
 10
196.6548557283
 20
292.7145252714
 30
0.0
 40
0.2999999999995811
100
AcDbArc
 50
302.4185883894
 51
359.0000000002
  0
SPLINE
  5
22E
330
210
100
AcDbEntity
  8
$DDT_AUDIT_GENERATED_(94)
  6
Continuous
 62
     7
100
AcDbSpline
210
0.0
220
0.0
230
1.0
 70
     8
 71
     3
 72
    11
 73
     7
 74
     0
 42
0.0000000017769805
 43
0.0000000001
 40
0.0
 40
0.0
 40
0.0
 40
0.0
 40
0.3976674467889
 40
0.4887881534628
 40
0.6777827098620001
 40
1.0
 40
1.0
 40
1.0
 40
1.0
 10
196.8156859355492
 20
292.4612790583671
 30
0.0
 10
196.1591539288392
 20
292.0443323350771
 30
0.0
 10
195.3213353176792
 20
291.6260953371872
 30
0.0
 10
194.1304958255292
 20
291.3297646080171
 30
0.0
 10
193.0632519056091
 20
291.2010220250371
 30
0.0
 10
192.1041412427592
 20
291.1991794776872
 30
0.0
 10
191.4520153051292
 20
291.1991794776872
 30
0.0
  0
ARC
  5
22F
330
210
100
AcDbEntity
  8
$DDT_AUDIT_GENERATED_(94)
  6
Continuous
 62
     7
100
AcDbCircle
 10
162.349174882
 20
292.7145252714
 30
0.0
 40
0.2999999999995694
100
AcDbArc
 50
180.9999999998
 51
237.5814116106
  0
SPLINE
  5
230
330
210
100
AcDbEntity
  8
$DDT_AUDIT_GENERATED_(94)
  6
Continuous
 62
     7
100
AcDbSpline
210
0.0
220
0.0
230
1.0
 70
     8
 71
     3
 72
    11
 73
     7
 74
     0
 42
0.0000000017769805
 43
0.0000000001
 40
0.0
 40
0.0
 40
0.0
 40
0.0
 40
0.397667446789
 40
0.4887881534628
 40
0.6777827098620001
 40
1.0
 40
1.0
 40
1.0
 40
1.0
 10
162.1883446747092
 20
292.4612790583671
 30
0.0
 10
162.8448766814192
 20
292.0443323350771
 30
0.0
 10
163.6826952925792
 20
291.6260953371871
 30
0.0
 10
164.8735347847291
 20
291.3297646080171
 30
0.0
 10
165.9407787046492
 20
291.2010220250371
 30
0.0
 10
166.8998893674992
 20
291.1991794776872
 30
0.0
 10
167.5520153051292
 20
291.1991794776872
 30
0.0
  0
LINE
  5
231
330
210
100
AcDbEntity
  8
$DDT_AUDIT_GENERATED_(94)
  6
Continuous
 62
     7
100
AcDbLine
 10
191.4520153051
 20
291.1991794777
 30
0.0
 11
167.5520153051
 21
291.1991794777
 31
0.0
  0
SPLINE
  5
232
330
210
100
AcDbEntity
  8
$DDT_AUDIT_GENERATED_(94)
  6
Continuous
 62
     7
100
AcDbSpline
210
0.0
220
0.0
230
1.0
 70
     8
 71
     3
 72
    20
 73
    16
 74
     0
 42
0.000000001014199
 43
0.0000000001
 40
0.0207318799315284
 40
0.0207318799315284
 40
0.0207318799315284
 40
0.0207318799315284
 40
0.0734959147431508
 40
0.1385969788100373
 40
0.1953023606978474
 40
0.243613259785716
 40
0.2835204884313925
 40
0.3150221331831748
 40
0.3381188357945252
 40
0.3528092051706385
 40
0.359091302097291
 40
0.4494299015244492
 40
0.5397771957266345
 40
0.5670149311272132
 40
0.5866256419050716
 40
0.5866256419050716
 40
0.5866256419050716
 40
0.5866256419050716
 10
177.76223960024
 20
306.6498562607151
 30
0.0
 10
177.5531013812069
 20
306.6610024447426
 30
0.0
 10
177.087648696625
 20
306.6874816908446
 30
0.0
 10
176.4184791678434
 20
306.7452454231733
 30
0.0
 10
175.7882795069305
 20
306.8142286092839
 30
0.0
 10
175.2714528506992
 20
306.8832215686949
 30
0.0
 10
174.860002646039
 20
306.9468776711005
 30
0.0
 10
174.5461412766188
 20
307.0012523527365
 30
0.0
 10
174.3225530472851
 20
307.0433544036878
 30
0.0
 10
174.1833221282152
 20
307.0711030828523
 30
0.0
 10
173.8359443818845
 20
307.1425280078005
 30
0.0
 10
173.285205306723
 20
307.2730228254067
 30
0.0
 10
172.7496069614856
 20
307.4384548961506
 30
0.0
 10
172.4347042029053
 20
307.5544397552028
 30
0.0
 10
172.3320572585944
 20
307.5951091744385
 30
0.0
 10
172.2899594584706
 20
307.6123141477591
 30
0.0
  0
ARC
  5
233
330
210
100
AcDbEntity
  8
$DDT_AUDIT_GENERATED_(94)
  6
Continuous
 62
     7
100
AcDbCircle
 10
179.4982828872
 20
340.5239562765
 30
0.0
 40
33.91973021866855
100
AcDbArc
 50
267.4835564952
 51
270.0063046431
  0
ARC
  5
234
330
210
100
AcDbEntity
  8
$DDT_AUDIT_GENERATED_(94)
  6
Continuous
 62
     7
100
AcDbCircle
 10
179.5057329885
 20
340.5246592933
 30
0.0
 40
33.92043323378889
100
AcDbArc
 50
269.993720376
 51
272.5164213478
  0
SPLINE
  5
235
330
210
100
AcDbEntity
  8
$DDT_AUDIT_GENERATED_(94)
  6
Continuous
 62
     7
100
AcDbSpline
210
0.0
220
0.0
230
1.0
 70
     8
 71
     3
 72
    13
 73
     9
 74
     0
 42
0.0000000010066556
 43
0.0000000001
 40
0.4266945112956864
 40
0.4266945112956864
 40
0.4266945112956864
 40
0.4266945112956864
 40
0.471205276559707
 40
0.5252867557660276
 40
0.6217285147919613
 40
0.7478377812232652
 40
0.8739261302273635
 40
0.9789395581112164
 40
0.9789395581112164
 40
0.9789395581112164
 40
0.9789395581112164
 10
186.6288407031907
 20
307.5781927709514
 30
0.0
 10
186.530595100381
 20
307.5396703342074
 30
0.0
 10
186.3026297205466
 20
307.4562411165453
 30
0.0
 10
185.8083764212234
 20
307.3003076002963
 30
0.0
 10
185.0184623565657
 20
307.100103440397
 30
0.0
 10
183.8738090076952
 20
306.8928913355107
 30
0.0
 10
182.5680851352428
 20
306.7327098699505
 30
0.0
 10
181.6597807361017
 20
306.6757130739371
 30
0.0
 10
181.2448521242031
 20
306.6514217627212
 30
0.0
  0
SPLINE
  5
236
330
210
100
AcDbEntity
  8
$DDT_AUDIT_GENERATED_(94)
  6
Continuous
 62
     7
100
AcDbSpline
210
0.0
220
0.0
230
1.0
 70
     8
 71
     3
 72
     9
 73
     5
 74
     0
 42
0.0000000007560643
 43
0.0000000001
 40
0.9261737245779933
 40
0.9261737245779933
 40
0.9261737245779933
 40
0.9261737245779933
 40
0.9513076147806833
 40
1.0
 40
1.0
 40
1.0
 40
1.0
 10
191.7826484751252
 20
298.0817269367328
 30
0.0
 10
191.8874723103676
 20
298.0450656404016
 30
0.0
 10
192.1965327531056
 20
297.9412382002303
 30
0.0
 10
192.5041222465931
 20
297.8362621187284
 30
0.0
 10
192.7069840267792
 20
297.7669968094071
 30
0.0
  0
SPLINE
  5
237
330
210
100
AcDbEntity
  8
$DDT_AUDIT_GENERATED_(94)
  6
Continuous
 62
     7
100
AcDbSpline
210
0.0
220
0.0
230
1.0
 70
     8
 71
     3
 72
     9
 73
     5
 74
     0
 42
0.0000000007562192
 43
0.0000000001
 40
0.9241160511974129
 40
0.9241160511974129
 40
0.9241160511974129
 40
0.9241160511974129
 40
0.9315665326429801
 40
1.0
 40
1.0
 40
1.0
 40
1.0
 10
167.2467899169781
 20
298.090793002584
 30
0.0
 10
167.2158153874584
 20
298.0797983807925
 30
0.0
 10
166.9000589836355
 20
297.9687670387119
 30
0.0
 10
166.582980087411
 20
297.8626712361259
 30
0.0
 10
166.2970329057292
 20
297.7669919339271
 30
0.0
  0
LINE
  5
238
330
210
100
AcDbEntity
  8
$DDT_AUDIT_GENERATED_(94)
  6
Continuous
 62
     7
100
AcDbLine
 10
166.2804241313
 20
297.7610568247
 30
0.0
 11
166.2970329828
 21
297.7669917179
 31
0.0
  0
SPLINE
  5
239
330
210
100
AcDbEntity
  8
$DDT_AUDIT_GENERATED_(94)
  6
Continuous
 62
     7
100
AcDbSpline
210
0.0
220
0.0
230
1.0
 70
    12
 71
     3
 72
     8
 73
     4
 74
     0
 42
0.0000000739377909
 43
0.0000000001
 40
0.6630394984947201
 40
0.6630394984947201
 40
0.6630394984947201
 40
0.6630394984947201
 40
1.0
 40
1.0
 40
1.0
 40
1.0
 10
177.9804540276108
 20
306.6253310966492
 30
0.0
 41
1.052290447136856
 10
177.9906388448484
 20
306.6445734759668
 30
0.0
 41
1.100136387734652
 10
178.0003724722022
 20
306.6474989699228
 30
0.0
 41
1.180816729600309
 10
178.0089996265592
 20
306.6369361437912
 30
0.0
 41
1.294331472733829
  0
SPLINE
  5
23A
330
210
100
AcDbEntity
  8
$DDT_AUDIT_GENERATED_(94)
  6
Continuous
 62
     7
100
AcDbSpline
210
0.0
220
0.0
230
1.0
 70
    12
 71
     3
 72
     8
 73
     4
 74
     0
 42
0.0000000729566333
 43
0.0000000001
 40
0.6865692917658753
 40
0.6865692917658753
 40
0.6865692917658753
 40
0.6865692917658753
 40
1.0
 40
1.0
 40
1.0
 40
1.0
 10
181.0225645783544
 20
306.6271898014327
 30
0.0
 41
1.029877894949159
 10
181.0127916005534
 20
306.6446393430012
 30
0.0
 41
1.063353293756992
 10
181.0034178868777
 20
306.6471917333308
 30
0.0
 41
1.124958242703454
 10
180.9950340109351
 20
306.6369362474222
 30
0.0
 41
1.214692741788544
  0
LINE
  5
23B
330
210
100
AcDbEntity
  8
$DDT_AUDIT_GENERATED_(94)
  6
Continuous
 62
     7
100
AcDbLine
 10
192.7069839504
 20
297.7669965953
 30
0.0
 11
192.7236064789
 21
297.7610568247
 31
0.0
  0
ARC
  5
23C
330
210
100
AcDbEntity
  8
$DDT_AUDIT_GENERATED_(94)
  6
Continuous
 62
     7
100
AcDbCircle
 10
190.6873400189
 20
290.7142169018
 30
0.0
 40
7.336774398006193
100
AcDbArc
 50
35.127617014
 51
73.8819369476
  0
ARC
  5
23D
330
210
100
AcDbEntity
  8
$DDT_AUDIT_GENERATED_(94)
  6
Continuous
 62
     7
100
AcDbCircle
 10
168.3166903785
 20
290.714217144
 30
0.0
 40
7.336774106242128
100
AcDbArc
 50
106.1180619806
 51
144.8723811718
  0
ARC
  5
23E
330
210
100
AcDbEntity
  8
$DDT_AUDIT_GENERATED_(94)
  6
Continuous
 62
     7
100
AcDbCircle
 10
164.0286932902
 20
293.9027505528
 30
0.0
 40
2.00000000000751
100
AcDbArc
 50
148.9007839595
 51
180.9999989171
  0
LINE
  5
23F
330
210
100
AcDbEntity
  8
$DDT_AUDIT_GENERATED_(94)
  6
Continuous
 62
     7
100
AcDbLine
 10
162.0289978992
 20
293.8678457777
 30
0.0
 11
162.0492205734
 21
292.7092895495
 31
0.0
  0
ARC
  5
240
330
210
100
AcDbEntity
  8
$DDT_AUDIT_GENERATED_(94)
  6
Continuous
 62
     7
100
AcDbCircle
 10
165.361772258
 20
307.8879596313
 30
0.0
 40
7.649787709214463
100
AcDbArc
 50
355.6245660644
 51
358.5699228983
  0
ARC
  5
241
330
210
100
AcDbEntity
  8
$DDT_AUDIT_GENERATED_(94)
  6
Continuous
 62
     7
100
AcDbCircle
 10
193.6423001456
 20
307.8879612919
 30
0.0
 40
7.649829507427774
100
AcDbArc
 50
181.7733323155
 51
184.3754224558
  0
SPLINE
  5
242
330
210
100
AcDbEntity
  8
$DDT_AUDIT_GENERATED_(94)
  6
Continuous
 62
     7
100
AcDbSpline
210
0.0
220
0.0
230
1.0
 70
     8
 71
     3
 72
    18
 73
    14
 74
     0
 42
0.000000000820818
 43
0.0000000001
 40
0.0154738890448023
 40
0.0154738890448023
 40
0.0154738890448023
 40
0.0154738890448023
 40
0.1477213367836373
 40
0.2708140150857989
 40
0.3688138102771716
 40
0.441823253917695
 40
0.5225849061587846
 40
0.5750293409338105
 40
0.6365603829742705
 40
0.7081813007619051
 40
0.7911701250537608
 40
0.8874605454485165
 40
1.0
 40
1.0
 40
1.0
 40
1.0
 10
170.5163661967115
 20
308.7262291155441
 30
0.0
 10
170.4936450959727
 20
308.1085693090232
 30
0.0
 10
170.4538729915322
 20
307.0682147042521
 30
0.0
 10
170.3845849126382
 20
305.4899435220324
 30
0.0
 10
170.3100473317085
 20
304.2073997132379
 30
0.0
 10
170.2119212585258
 20
303.102036329944
 30
0.0
 10
170.1076565097782
 20
302.2109436254855
 30
0.0
 10
169.9714242033688
 20
301.4071143203836
 30
0.0
 10
169.7931591698777
 20
300.6686968563571
 30
0.0
 10
169.4876615220859
 20
299.864295620787
 30
0.0
 10
168.9565270920271
 20
299.0736777645599
 30
0.0
 10
168.1229395864299
 20
298.4219512991108
 30
0.0
 10
167.5434396329044
 20
298.1952996766843
 30
0.0
 10
167.1703049231101
 20
298.0636766362653
 30
0.0
  0
LINE
  5
243
330
210
100
AcDbEntity
  8
$DDT_AUDIT_GENERATED_(94)
  6
Continuous
 62
     7
100
AcDbLine
 10
177.9804669144
 20
306.6253523803
 30
0.0
 11
177.7295376013
 21
306.6443890282
 31
0.0
  0
LINE
  5
244
330
210
100
AcDbEntity
  8
$DDT_AUDIT_GENERATED_(94)
  6
Continuous
 62
     7
100
AcDbLine
 10
181.2766433591
 20
306.642822052
 30
0.0
 11
180.9503258476
 21
306.6221786719
 31
0.0
  0
SPLINE
  5
245
330
210
100
AcDbEntity
  8
$DDT_AUDIT_GENERATED_(94)
  6
Continuous
 62
     7
100
AcDbSpline
210
0.0
220
0.0
230
1.0
 70
     8
 71
     3
 72
    19
 73
    15
 74
     0
 42
0.0000000008230395
 43
0.0000000001
 40
0.0
 40
0.0
 40
0.0
 40
0.0
 40
0.1008041203033842
 40
0.1849171182644121
 40
0.2551492356664209
 40
0.3134975886780604
 40
0.3616842217170152
 40
0.4012752910572871
 40
0.4342255524310414
 40
0.4703110318296986
 40
0.56289783174414
 40
0.6823287310570925
 40
0.8282351249055988
 40
0.9845686962158433
 40
0.9845686962158433
 40
0.9845686962158433
 40
0.9845686962158433
 10
191.833553172894
 20
298.063736358574
 30
0.0
 10
191.5415114610315
 20
298.1657703796462
 30
0.0
 10
191.0918808340354
 20
298.3378084708544
 30
0.0
 10
190.4003023880062
 20
298.7839719358291
 30
0.0
 10
189.894241033082
 20
299.3244208614416
 30
0.0
 10
189.5457467124878
 20
299.8978633660597
 30
0.0
 10
189.3181396376965
 20
300.4453492971967
 30
0.0
 10
189.166628031593
 20
300.9412364291479
 30
0.0
 10
189.0492723361673
 20
301.4137605628913
 30
0.0
 10
188.9098074348163
 20
302.1217343053243
 30
0.0
 10
188.7702726175303
 20
303.22337754846
 30
0.0
 10
188.650093524476
 20
304.8094715671592
 30
0.0
 10
188.5637240892367
 20
306.7249116395811
 30
0.0
 10
188.514812281083
 20
307.9766206374329
 30
0.0
 10
188.4876868557928
 20
308.7224884764112
 30
0.0
  0
LINE
  5
246
330
210
100
AcDbEntity
  8
$DDT_AUDIT_GENERATED_(9B)
  6
Continuous
 62
     7
100
AcDbLine
 10
175.4186786348
 20
289.930934556
 30
0.0
 11
174.7835469574
 21
290.0072950757
 31
0.0
  0
LINE
  5
247
330
210
100
AcDbEntity
  8
$DDT_AUDIT_GENERATED_(9B)
  6
Continuous
 62
     7
100
AcDbLine
 10
178.9399693039
 20
289.7084036168
 30
0.0
 11
177.6615603834
 21
289.7500893745
 31
0.0
  0
LINE
  5
248
330
210
100
AcDbEntity
  8
$DDT_AUDIT_GENERATED_(9B)
  6
Continuous
 62
     7
100
AcDbLine
 10
173.0709592581
 20
290.2694359308
 30
0.0
 11
169.3691637235
 21
291.1264504848
 31
0.0
  0
LINE
  5
249
330
210
100
AcDbEntity
  8
$DDT_AUDIT_GENERATED_(9B)
  6
Continuous
 62
     7
100
AcDbLine
 10
180.9372636242
 20
289.732067697
 30
0.0
 11
180.0392629305
 21
289.7080340646
 31
0.0
  0
LINE
  5
24A
330
210
100
AcDbEntity
  8
$DDT_AUDIT_GENERATED_(9B)
  6
Continuous
 62
     7
100
AcDbLine
 10
184.269911141
 20
290.0137075068
 30
0.0
 11
183.2026257676
 21
289.8903089235
 31
0.0
  0
LINE
  5
24B
330
210
100
AcDbEntity
  8
$DDT_AUDIT_GENERATED_(9B)
  6
Continuous
 62
     7
100
AcDbLine
 10
174.7835469574
 20
290.0072950757
 30
0.0
 11
173.0709592581
 21
290.2694359308
 31
0.0
  0
LINE
  5
24C
330
210
100
AcDbEntity
  8
$DDT_AUDIT_GENERATED_(9B)
  6
Continuous
 62
     7
100
AcDbLine
 10
177.0659024345
 20
289.7846975844
 30
0.0
 11
175.4186786348
 21
289.930934556
 31
0.0
  0
LINE
  5
24D
330
210
100
AcDbEntity
  8
$DDT_AUDIT_GENERATED_(9B)
  6
Continuous
 62
     7
100
AcDbLine
 10
180.9372636242
 20
289.732067697
 30
0.0
 11
183.2026257676
 21
289.8903089235
 31
0.0
  0
LINE
  5
24E
330
210
100
AcDbEntity
  8
$DDT_AUDIT_GENERATED_(9B)
  6
Continuous
 62
     7
100
AcDbLine
 10
177.6615603834
 20
289.7500893745
 30
0.0
 11
177.0659024345
 21
289.7846975844
 31
0.0
  0
LINE
  5
24F
330
210
100
AcDbEntity
  8
$DDT_AUDIT_GENERATED_(9B)
  6
Continuous
 62
     7
100
AcDbLine
 10
189.6348669016
 20
291.1264504891
 30
0.0
 11
185.2550797964
 21
290.1557704596
 31
0.0
  0
ARC
  5
250
330
210
100
AcDbEntity
  8
$DDT_AUDIT_GENERATED_(9B)
  6
Continuous
 62
     7
100
AcDbCircle
 10
184.5684394194
 20
979.3099216722
 30
0.0
 40
688.2021205264119
100
AcDbArc
 50
269.578194643
 51
270.4218056374
  0
SPLINE
  5
251
330
210
100
AcDbEntity
  8
$DDT_AUDIT_GENERATED_(9B)
  6
Continuous
 62
     7
100
AcDbSpline
210
0.0
220
0.0
230
1.0
 70
     8
 71
     3
 72
    12
 73
     8
 74
     0
 42
0.0000000009661679
 43
0.0000000001
 40
0.0
 40
0.0
 40
0.0
 40
0.0
 40
0.2499999999999999
 40
0.2499999999999999
 40
0.4999999999999999
 40
0.4999999999999999
 40
1.0
 40
1.0
 40
1.0
 40
1.0
 10
169.1520153124941
 20
291.414782956935
 30
0.0
 10
169.1520165777805
 20
291.4147397796405
 30
0.0
 10
169.4209073727912
 20
291.4110217907672
 30
0.0
 10
170.4587809425204
 20
291.4026309120277
 30
0.0
 10
171.2268350375291
 20
291.3987850934489
 30
0.0
 10
174.0888803259633
 20
291.3987670425468
 30
0.0
 10
176.768494515596
 20
291.4146980001228
 30
0.0
 10
179.502024885771
 20
291.4147829365634
 30
0.0
  0
LINE
  5
252
330
210
100
AcDbEntity
  8
$DDT_AUDIT_GENERATED_(9B)
  6
Continuous
 62
     7
100
AcDbLine
 10
179.5020153051
 20
289.7041296958
 30
0.0
 11
180.0392629305
 21
289.7080340646
 31
0.0
  0
SPLINE
  5
253
330
210
100
AcDbEntity
  8
$DDT_AUDIT_GENERATED_(9B)
  6
Continuous
 62
     7
100
AcDbSpline
210
0.0
220
0.0
230
1.0
 70
     8
 71
     3
 72
     8
 73
     4
 74
     0
 42
0.0000000100460204
 43
0.0000000001
 40
0.0
 40
0.0
 40
0.0
 40
0.0
 40
1.0
 40
1.0
 40
1.0
 40
1.0
 10
184.2699116260942
 20
290.0137075700826
 30
0.0
 10
184.5989218115796
 20
290.0566178463819
 30
0.0
 10
184.9273516787042
 20
290.1039750658779
 30
0.0
 10
185.2550797964092
 20
290.155770459583
 30
0.0
  0
LINE
  5
254
330
210
100
AcDbEntity
  8
$DDT_AUDIT_GENERATED_(9B)
  6
Continuous
 62
     7
100
AcDbLine
 10
179.5020153051
 20
289.7041296958
 30
0.0
 11
178.9399693039
 21
289.7084036168
 31
0.0
  0
ARC
  5
255
330
210
100
AcDbEntity
  8
$DDT_AUDIT_GENERATED_(9B)
  6
Continuous
 62
     7
100
AcDbCircle
 10
179.4776025855
 20
326.3642428214
 30
0.0
 40
35.15898051420208
100
AcDbArc
 50
264.8682873637
 51
270.0
  0
SPLINE
  5
256
330
210
100
AcDbEntity
  8
$DDT_AUDIT_GENERATED_(A7)
  6
Continuous
 62
     7
100
AcDbSpline
210
0.0
220
0.0
230
1.0
 70
     8
 71
     3
 72
    38
 73
    34
 74
     0
 42
0.0000000001196352
 43
0.0000000001
 40
0.2500839805415786
 40
0.2500839805415786
 40
0.2500839805415786
 40
0.2500839805415786
 40
0.2812500000000005
 40
0.2812500000000005
 40
0.3125000000000006
 40
0.3125000000000006
 40
0.3437500000000006
 40
0.3437500000000006
 40
0.3750000000000007
 40
0.3750000000000007
 40
0.4062500000000007
 40
0.4062500000000007
 40
0.4375000000000007
 40
0.4375000000000007
 40
0.4687500000000007
 40
0.4687500000000007
 40
0.5000000000000007
 40
0.5000000000000007
 40
0.5312500000000008
 40
0.5312500000000008
 40
0.5625000000000007
 40
0.5625000000000007
 40
0.6250000000000007
 40
0.6250000000000007
 40
0.6562500000000007
 40
0.6562500000000007
 40
0.6875000000000006
 40
0.6875000000000006
 40
0.7187500000000006
 40
0.7187500000000006
 40
0.7500000000000004
 40
0.7500000000000004
 40
0.7501590103733042
 40
0.7501590103733042
 40
0.7501590103733042
 40
0.7501590103733042
 10
90.40201523997538
 20
340.0516341362531
 30
0.0
 10
90.40200629152761
 20
340.0516341218992
 30
0.0
 10
90.26641136160853
 20
340.0517368210675
 30
0.0
 10
89.73405452748293
 20
340.0519329887147
 30
0.0
 10
89.33962477622697
 20
340.052025849304
 30
0.0
 10
88.29355461312639
 20
340.0521014605675
 30
0.0
 10
87.63919168655991
 20
340.0520835903744
 30
0.0
 10
86.12652404228211
 20
340.0519410442118
 30
0.0
 10
85.2630085598157
 20
340.0518175653413
 30
0.0
 10
83.31325332416075
 20
340.0515366833601
 30
0.0
 10
82.2554294716666
 20
340.0513833530388
 30
0.0
 10
79.99228246994998
 20
340.0511923202815
 30
0.0
 10
78.77134537151463
 20
340.0511821055659
 30
0.0
 10
76.23860588711722
 20
340.0512964914182
 30
0.0
 10
74.93583901291711
 20
340.0514039083804
 30
0.0
 10
72.25841150463468
 20
340.0515743649552
 30
0.0
 10
70.87333320083627
 20
340.0516342916031
 30
0.0
 10
68.14547323992744
 20
340.0516346769901
 30
0.0
 10
66.78993991768954
 20
340.0515767677332
 30
0.0
 10
64.09600799462186
 20
340.0514060871397
 30
0.0
 10
62.77439149818417
 20
340.0512973520483
 30
0.0
 10
59.00059655841245
 20
340.0511255589472
 30
0.0
 10
56.66673288683721
 20
340.0513961495653
 30
0.0
 10
53.7733823598311
 20
340.0518128727794
 30
0.0
 10
52.89022828926086
 20
340.0519395323242
 30
0.0
 10
51.36991574363898
 20
340.0520834213704
 30
0.0
 10
50.72719442373254
 20
340.0521015241789
 30
0.0
 10
49.67711717839864
 20
340.0520278812204
 30
0.0
 10
49.27318039362675
 20
340.0519337995994
 30
0.0
 10
48.73979021463006
 20
340.0517379867097
 30
0.0
 10
48.60343305233771
 20
340.0516352516368
 30
0.0
 10
48.60201903749278
 20
340.0516341392312
 30
0.0
 10
48.60201539976487
 20
340.0516341362795
 30
0.0
 10
48.60201528202268
 20
340.0516341359935
 30
0.0
  0
LINE
  5
257
330
210
100
AcDbEntity
  8
$DDT_AUDIT_GENERATED_(A7)
  6
Continuous
 62
     7
100
AcDbLine
 10
90.3754801676
 20
340.0913498136
 30
0.0
 11
94.1501211142
 21
340.9375337743
 31
0.0
  0
LINE
  5
258
330
210
100
AcDbEntity
  8
$DDT_AUDIT_GENERATED_(A7)
  6
Continuous
 62
     7
100
AcDbLine
 10
44.853909496
 20
340.9375337743
 30
0.0
 11
48.6198074858
 21
340.0933097748
 31
0.0
  0
LINE
  5
259
330
210
100
AcDbEntity
  8
$DDT_AUDIT_GENERATED_(A7)
  6
Continuous
 62
     7
100
AcDbLine
 10
94.1520153051
 20
340.9241204296
 30
0.0
 11
94.1520153051
 21
341.0054338412
 31
0.0
  0
LINE
  5
25A
330
210
100
AcDbEntity
  8
$DDT_AUDIT_GENERATED_(A7)
  6
Continuous
 62
     7
100
AcDbLine
 10
44.8520153051
 20
341.0054338412
 30
0.0
 11
44.8520153051
 21
340.9241204296
 31
0.0
  0
ARC
  5
25B
330
210
100
AcDbEntity
  8
$DDT_AUDIT_GENERATED_(AF)
  6
Continuous
 62
     7
100
AcDbCircle
 10
69.5020238436
 20
127.1995697464
 30
0.0
 40
19.58514265301362
100
AcDbArc
 50
179.9999816829
 51
359.999993057
  0
LINE
  5
25C
330
210
100
AcDbEntity
  8
$DDT_AUDIT_GENERATED_(AF)
  6
Continuous
 62
     7
100
AcDbLine
 10
89.0871849403
 20
184.8265354532
 30
0.0
 11
89.0871581769
 21
127.1995673731
 31
0.0
  0
LINE
  5
25D
330
210
100
AcDbEntity
  8
$DDT_AUDIT_GENERATED_(AF)
  6
Continuous
 62
     7
100
AcDbLine
 10
49.9169415508
 20
127.1995760401
 30
0.0
 11
49.9169054162
 21
184.8265353819
 31
0.0
  0
ARC
  5
25E
330
210
100
AcDbEntity
  8
$DDT_AUDIT_GENERATED_(AF)
  6
Continuous
 62
     7
100
AcDbCircle
 10
69.5020257239
 20
127.1995715815
 30
0.0
 40
16.86227393406448
100
AcDbArc
 50
179.999985526
 51
359.9999858179
  0
LINE
  5
25F
330
210
100
AcDbEntity
  8
$DDT_AUDIT_GENERATED_(AF)
  6
Continuous
 62
     7
100
AcDbLine
 10
86.3642996581
 20
127.1995674308
 30
0.0
 11
86.3642897134
 21
184.8265356319
 31
0.0
  0
LINE
  5
260
330
210
100
AcDbEntity
  8
$DDT_AUDIT_GENERATED_(AF)
  6
Continuous
 62
     7
100
AcDbLine
 10
89.0871671321
 20
184.8265354522
 30
0.0
 11
89.087165952
 21
234.5307703876
 31
0.0
  0
LINE
  5
261
330
210
100
AcDbEntity
  8
$DDT_AUDIT_GENERATED_(AF)
  6
Continuous
 62
     7
100
AcDbLine
 10
49.9168635134
 20
184.8265353819
 30
0.0
 11
49.9168640341
 21
234.5307703876
 31
0.0
  0
LINE
  5
262
330
210
100
AcDbEntity
  8
$DDT_AUDIT_GENERATED_(AF)
  6
Continuous
 62
     7
100
AcDbLine
 10
52.6397517897
 20
127.1995758642
 30
0.0
 11
52.6397408968
 21
184.8265356319
 31
0.0
  0
LINE
  5
263
330
210
100
AcDbEntity
  8
$DDT_AUDIT_GENERATED_(AF)
  6
Continuous
 62
     7
100
AcDbLine
 10
86.3642897134
 20
234.5307704501
 30
0.0
 11
86.3642897134
 21
184.8265356319
 31
0.0
  0
SPLINE
  5
264
330
210
100
AcDbEntity
  8
$DDT_AUDIT_GENERATED_(AF)
  6
Continuous
 62
     7
100
AcDbSpline
210
0.0
220
0.0
230
1.0
 70
     8
 71
     3
 72
    23
 73
    19
 74
     0
 42
0.0000000001044112
 43
0.0000000001
 40
0.0
 40
0.0
 40
0.0
 40
0.0
 40
0.0009330098367787
 40
0.0341916740753266
 40
0.0674649302662284
 40
0.1007502444530306
 40
0.1340437714398018
 40
0.2005501732381451
 40
0.2671071702104691
 40
0.3337029209458416
 40
0.4003196900690653
 40
0.4669462216263259
 40
0.5335754008171825
 40
0.6002073122596467
 40
0.6668427542640074
 40
0.7334728688832535
 40
0.8667342269385625
 40
1.0
 40
1.0
 40
1.0
 40
1.0
 10
75.66759250901258
 20
325.7056132596256
 30
0.0
 10
75.69455903110035
 20
325.6943576969044
 30
0.0
 10
76.68029844075367
 20
325.2753800936807
 30
0.0
 10
78.51015657532203
 20
324.2592724201423
 30
0.0
 10
80.81624720699972
 20
322.3435943432842
 30
0.0
 10
82.72901845995885
 20
320.0994324514522
 30
0.0
 10
84.78938441396012
 20
316.766503077927
 30
0.0
 10
86.55621574679971
 20
312.0763000672255
 30
0.0
 10
87.74954308417634
 20
305.9599714867942
 30
0.0
 10
88.3870165187621
 20
299.5948108760036
 30
0.0
 10
88.72242788810294
 20
293.1318858339519
 30
0.0
 10
88.9006932168286
 20
286.6344649116584
 30
0.0
 10
88.99445932902199
 20
280.1255682206376
 30
0.0
 10
89.04422374946797
 20
273.6131144541446
 30
0.0
 10
89.06987886732672
 20
267.0996166881103
 30
0.0
 10
89.0844742798566
 20
258.4146594838052
 30
0.0
 10
89.08739174649779
 20
247.5583995478992
 30
0.0
 10
89.08723949079075
 20
238.8733614383968
 30
0.0
 10
89.08716446445823
 20
234.5307703875749
 30
0.0
  0
LINE
  5
265
330
210
100
AcDbEntity
  8
$DDT_AUDIT_GENERATED_(AF)
  6
Continuous
 62
     7
100
AcDbLine
 10
52.6397408968
 20
184.8265356319
 30
0.0
 11
52.6397408968
 21
234.5307704501
 31
0.0
  0
SPLINE
  5
266
330
210
100
AcDbEntity
  8
$DDT_AUDIT_GENERATED_(AF)
  6
Continuous
 62
     7
100
AcDbSpline
210
0.0
220
0.0
230
1.0
 70
     8
 71
     3
 72
    23
 73
    19
 74
     0
 42
0.0000000001044112
 43
0.0000000001
 40
0.0
 40
0.0
 40
0.0
 40
0.0
 40
0.1332657730622947
 40
0.2665271311184608
 40
0.3331572457381354
 40
0.3997926877429246
 40
0.4664245991858175
 40
0.5330537783771025
 40
0.5996803099347917
 40
0.6662970790584438
 40
0.7328928297942446
 40
0.7994498267669966
 40
0.8659562285657677
 40
0.8992497555527531
 40
0.9325350697397694
 40
0.9658083259308853
 40
0.9990669901696471
 40
1.0
 40
1.0
 40
1.0
 40
1.0
 10
49.91686620672505
 20
234.5307703875749
 30
0.0
 10
49.91679111942577
 20
238.8733614383967
 30
0.0
 10
49.91663886371887
 20
247.5583995478987
 30
0.0
 10
49.91955633035923
 20
258.4146594838069
 30
0.0
 10
49.93415174289088
 20
267.0996166881073
 30
0.0
 10
49.95980686074418
 20
273.6131144541558
 30
0.0
 10
50.0095712812106
 20
280.1255682205962
 30
0.0
 10
50.10333739332771
 20
286.6344649118132
 30
0.0
 10
50.28160272233801
 20
293.1318858333742
 30
0.0
 10
50.61701409061679
 20
299.5948108781589
 30
0.0
 10
51.25448752916416
 20
305.9599714787552
 30
0.0
 10
52.44781485176893
 20
312.0763000971987
 30
0.0
 10
54.21464623052381
 20
316.766502989747
 30
0.0
 10
56.27501209083042
 20
320.0994326043754
 30
0.0
 10
58.18778362994387
 20
322.3435937598507
 30
0.0
 10
60.49387318787961
 20
324.2592745997528
 30
0.0
 10
62.32373403124947
 20
325.2753753022272
 30
0.0
 10
63.30947147389269
 20
325.6943579665622
 30
0.0
 10
63.33643855844159
 20
325.7056120798933
 30
0.0
  0
SPLINE
  5
267
330
210
100
AcDbEntity
  8
$DDT_AUDIT_GENERATED_(AF)
  6
Continuous
 62
     7
100
AcDbSpline
210
0.0
220
0.0
230
1.0
 70
     8
 71
     3
 72
    27
 73
    23
 74
     0
 42
0.0000000001037552
 43
0.0000000001
 40
0.0
 40
0.0
 40
0.0
 40
0.0
 40
0.1250413488506792
 40
0.2500912294563281
 40
0.3126166682492416
 40
0.3751403456790336
 40
0.4376626954109418
 40
0.5001848000530869
 40
0.5627044732677193
 40
0.6252174517395418
 40
0.6877169707292515
 40
0.750189226771767
 40
0.781440581323582
 40
0.8126840976056656
 40
0.843925475300116
 40
0.8751665464787602
 40
0.9063820287541071
 40
0.9375819764410525
 40
0.9687556021448595
 40
0.9843732474983337
 40
0.9921989279119307
 40
1.0
 40
1.0
 40
1.0
 40
1.0
 10
86.36428971344483
 20
234.530770450075
 30
0.0
 10
86.36580736108425
 20
238.6152737714678
 30
0.0
 10
86.3688427599076
 20
246.7845591059169
 30
0.0
 10
86.39874238277982
 20
256.99623063398
 30
0.0
 10
86.43141588549584
 20
265.1656471783528
 30
0.0
 10
86.44777647651375
 20
271.2924916974504
 30
0.0
 10
86.44615572459249
 20
277.4186748833184
 30
0.0
 10
86.40426308511246
 20
283.5427859540088
 30
0.0
 10
86.27520136974536
 20
289.6597644194961
 30
0.0
 10
85.99529178875956
 20
295.7550120351029
 30
0.0
 10
85.45938153993178
 20
301.7869029795843
 30
0.0
 10
84.64734524630961
 20
306.6837229492736
 30
0.0
 10
83.641382963254
 20
310.4199809962138
 30
0.0
 10
82.66030239218975
 20
313.100335907866
 30
0.0
 10
81.39929625933965
 20
315.6161468864388
 30
0.0
 10
79.80010492859039
 20
317.9128016266275
 30
0.0
 10
77.80390979396466
 20
319.9117595373249
 30
0.0
 10
75.38249725397763
 20
321.5040999059315
 30
0.0
 10
73.03112428993184
 20
322.3781823463881
 30
0.0
 10
71.28286103527068
 20
322.6898992038601
 30
0.0
 10
70.26747636596761
 20
322.7836725944133
 30
0.0
 10
69.75690098147572
 20
322.7923337437149
 30
0.0
 10
69.50201530510826
 20
322.7966574987659
 30
0.0
  0
SPLINE
  5
268
330
210
100
AcDbEntity
  8
$DDT_AUDIT_GENERATED_(AF)
  6
Continuous
 62
     7
100
AcDbSpline
210
0.0
220
0.0
230
1.0
 70
     8
 71
     3
 72
    27
 73
    23
 74
     0
 42
0.0000000001037552
 43
0.0000000001
 40
0.0
 40
0.0
 40
0.0
 40
0.0
 40
0.0077995393946525
 40
0.0156267445558021
 40
0.031244390035342
 40
0.0624180159907827
 40
0.0936179639295742
 40
0.1248334464568925
 40
0.1560745178877149
 40
0.1873158958343457
 40
0.2185594123686272
 40
0.2498107671727031
 40
0.3122830237194949
 40
0.374782543213701
 40
0.4372955221901284
 40
0.4998151959094199
 40
0.5623373010562436
 40
0.6248596512928324
 40
0.6873833292273157
 40
0.7499087685249347
 40
0.8749586501399865
 40
1.0
 40
1.0
 40
1.0
 40
1.0
 10
69.50201530510826
 20
322.7966574987659
 30
0.0
 10
69.24718002874364
 20
322.7923306871121
 30
0.0
 10
68.73660554914204
 20
322.7836617161586
 30
0.0
 10
67.72121737173748
 20
322.6899159086787
 30
0.0
 10
65.972907042959
 20
322.378176606756
 30
0.0
 10
63.62153311062276
 20
321.5041018566659
 30
0.0
 10
61.20012088212255
 20
319.9117590141656
 30
0.0
 10
59.2039256639564
 20
317.9128017669639
 30
0.0
 10
57.60473435561251
 20
315.6161468488268
 30
0.0
 10
56.34372821675971
 20
313.1003359179288
 30
0.0
 10
55.36264764729449
 20
310.4199809935767
 30
0.0
 10
54.35668536371526
 20
306.6837229507954
 30
0.0
 10
53.54464907034977
 20
301.7869029790672
 30
0.0
 10
53.00873882143949
 20
295.7550120352415
 30
0.0
 10
52.7288292404758
 20
289.6597644194591
 30
0.0
 10
52.59976752510274
 20
283.5427859540188
 30
0.0
 10
52.55787488562432
 20
277.4186748833157
 30
0.0
 10
52.55625413370262
 20
271.2924916974511
 30
0.0
 10
52.57261472472062
 20
265.1656471783526
 30
0.0
 10
52.60528822743664
 20
256.99623063398
 30
0.0
 10
52.63518785030887
 20
246.7845591059168
 30
0.0
 10
52.63822324913221
 20
238.6152737714678
 30
0.0
 10
52.63974089677163
 20
234.530770450075
 30
0.0
  0
SPLINE
  5
269
330
210
100
AcDbEntity
  8
$DDT_AUDIT_GENERATED_(AF)
  6
Continuous
 62
     7
100
AcDbSpline
210
0.0
220
0.0
230
1.0
 70
     8
 71
     5
 72
    12
 73
     6
 74
     0
 42
0.0000000003434772
 43
0.0000000001
 40
0.0
 40
0.0
 40
0.0
 40
0.0
 40
0.0
 40
0.0
 40
0.5043852871684072
 40
0.5043852871684072
 40
0.5043852871684072
 40
0.5043852871684072
 40
0.5043852871684072
 40
0.5043852871684072
 10
63.33643855844159
 20
325.7056120798933
 30
0.0
 10
58.06982561323312
 20
325.705522163883
 30
0.0
 10
53.51260861745953
 20
325.7054776001854
 30
0.0
 10
50.27211825133845
 20
325.7054555137613
 30
0.0
 10
48.65200823239291
 20
325.7054445674045
 30
0.0
 10
48.65225800430355
 20
325.7054391150062
 30
0.0
  0
SPLINE
  5
26A
330
210
100
AcDbEntity
  8
$DDT_AUDIT_GENERATED_(AF)
  6
Continuous
 62
     7
100
AcDbSpline
210
0.0
220
0.0
230
1.0
 70
     8
 71
     3
 72
    12
 73
     8
 74
     0
 42
0.0000000016219083
 43
0.0000000001
 40
0.0
 40
0.0
 40
0.0
 40
0.0
 40
0.5
 40
0.5
 40
0.75
 40
0.75
 40
1.0
 40
1.0
 40
1.0
 40
1.0
 10
63.33643855844159
 20
325.7056120798933
 30
0.0
 10
64.3364990512324
 20
325.7054338113899
 30
0.0
 10
65.35099549100765
 20
325.7054338113899
 30
0.0
 10
66.89623533570303
 20
325.7054338113899
 30
0.0
 10
67.41617223690888
 20
325.7054338113899
 30
0.0
 10
68.45758798563307
 20
325.7054338113899
 30
0.0
 10
68.97930142723544
 20
325.70543381139
 30
0.0
 10
69.50201530510823
 20
325.7054338113899
 30
0.0
  0
SPLINE
  5
26B
330
210
100
AcDbEntity
  8
$DDT_AUDIT_GENERATED_(AF)
  6
Continuous
 62
     7
100
AcDbSpline
210
0.0
220
0.0
230
1.0
 70
     8
 71
     3
 72
    12
 73
     8
 74
     0
 42
0.0000000016219082
 43
0.0000000001
 40
0.0
 40
0.0
 40
0.0
 40
0.0
 40
0.5000000000000001
 40
0.5000000000000001
 40
0.75
 40
0.75
 40
1.0
 40
1.0
 40
1.0
 40
1.0
 10
69.50201530510823
 20
325.7054338113899
 30
0.0
 10
70.54743316913027
 20
325.7054338129964
 30
0.0
 10
71.58524001453338
 20
325.7054338113899
 30
0.0
 10
73.13051539082599
 20
325.7054338113899
 30
0.0
 10
73.644606631186
 20
325.7054338113899
 30
0.0
 10
74.66293685293046
 20
325.7054338113899
 30
0.0
 10
75.16742909570618
 20
325.7054338113898
 30
0.0
 10
75.66759250901258
 20
325.7056132596256
 30
0.0
  0
SPLINE
  5
26C
330
210
100
AcDbEntity
  8
$DDT_AUDIT_GENERATED_(AF)
  6
Continuous
 62
     7
100
AcDbSpline
210
0.0
220
0.0
230
1.0
 70
     8
 71
     5
 72
    12
 73
     6
 74
     0
 42
0.0000000003434762
 43
0.0000000001
 40
0.4956269818375642
 40
0.4956269818375642
 40
0.4956269818375642
 40
0.4956269818375642
 40
0.4956269818375642
 40
0.4956269818375642
 40
1.0
 40
1.0
 40
1.0
 40
1.0
 40
1.0
 40
1.0
 10
90.35177249363191
 20
325.7054391345665
 30
0.0
 10
90.35186630167841
 20
325.705444639657
 30
0.0
 10
88.7316782455773
 20
325.705455659004
 30
0.0
 10
85.49120256004204
 20
325.7054778921501
 30
0.0
 10
80.93407836366623
 20
325.7055227507773
 30
0.0
 10
75.66759250901258
 20
325.7056132596256
 30
0.0
  0
ARC
  5
26D
330
210
100
AcDbEntity
  8
$DDT_AUDIT_GENERATED_(AF)
  6
Continuous
 62
     7
100
AcDbCircle
 10
69.5020257071
 20
127.1997556574
 30
0.0
 40
20.84975565743483
100
AcDbArc
 50
180.0004939499
 51
359.9994819018
  0
LINE
  5
26E
330
210
100
AcDbEntity
  8
$DDT_AUDIT_GENERATED_(AF)
  6
Continuous
 62
     7
100
AcDbLine
 10
90.3518213263
 20
127.1964423731
 30
0.0
 11
90.351817406
 21
184.8296604532
 31
0.0
  0
LINE
  5
26F
330
210
100
AcDbEntity
  8
$DDT_AUDIT_GENERATED_(AF)
  6
Continuous
 62
     7
100
AcDbLine
 10
48.652265558
 20
184.8296603819
 30
0.0
 11
48.6522694783
 21
127.1969412437
 31
0.0
  0
LINE
  5
270
330
210
100
AcDbEntity
  8
$DDT_AUDIT_GENERATED_(AF)
  6
Continuous
 62
     7
100
AcDbLine
 10
90.3517821514
 20
184.8234103819
 30
0.0
 11
90.3517821514
 21
234.5339980896
 31
0.0
  0
LINE
  5
271
330
210
100
AcDbEntity
  8
$DDT_AUDIT_GENERATED_(AF)
  6
Continuous
 62
     7
100
AcDbLine
 10
48.6522471388
 20
234.5340642052
 30
0.0
 11
48.6522471388
 21
184.8234103819
 31
0.0
  0
LINE
  5
272
330
210
100
AcDbEntity
  8
$DDT_AUDIT_GENERATED_(AF)
  6
Continuous
 62
     7
100
AcDbLine
 10
90.3517709794
 20
234.5340259318
 30
0.0
 11
90.3517709794
 21
325.7054338114
 31
0.0
  0
LINE
  5
273
330
210
100
AcDbEntity
  8
$DDT_AUDIT_GENERATED_(AF)
  6
Continuous
 62
     7
100
AcDbLine
 10
48.6522596308
 20
325.7054338114
 30
0.0
 11
48.6522596308
 21
234.5340914806
 31
0.0
  0
LINE
  5
274
330
210
100
AcDbEntity
  8
$DDT_AUDIT_GENERATED_(AF)
  6
Continuous
 62
     7
100
AcDbLine
 10
90.2770153051
 20
325.7054338114
 30
0.0
 11
90.2770153051
 21
340.0517111587
 31
0.0
  0
LINE
  5
275
330
210
100
AcDbEntity
  8
$DDT_AUDIT_GENERATED_(AF)
  6
Continuous
 62
     7
100
AcDbLine
 10
48.7270153051
 20
340.0517075574
 30
0.0
 11
48.7270153051
 21
325.7054338114
 31
0.0
  0
LINE
  5
276
330
210
100
AcDbEntity
  8
$DDT_AUDIT_GENERATED_(DF)
  6
Continuous
 62
     7
100
AcDbLine
 10
98.5020165833
 20
341.0054338412
 30
0.0
 11
40.50201532
 21
341.0054338412
 31
0.0
  0
LINE
  5
277
330
210
100
AcDbEntity
  8
$DDT_AUDIT_GENERATED_(DF)
  6
Continuous
 62
     7
100
AcDbLine
 10
99.5020658921
 20
346.7054338412
 30
0.0
 11
39.5020094384
 21
346.7054338412
 31
0.0
  0
SPLINE
  5
278
330
210
100
AcDbEntity
  8
$DDT_AUDIT_GENERATED_(DF)
  6
Continuous
 62
     7
100
AcDbSpline
210
0.0
220
0.0
230
1.0
 70
     8
 71
     3
 72
    13
 73
     9
 74
     0
 42
0.0000000063014676
 43
0.0000000001
 40
0.0
 40
0.0
 40
0.0
 40
0.0
 40
0.1294353618362306
 40
0.2550301133060685
 40
0.5000000000000063
 40
0.7449698866939319
 40
0.8705646381637783
 40
1.0
 40
1.0
 40
1.0
 40
1.0
 10
39.5020153051094
 20
342.005433856093
 30
0.0
 10
39.50569631464064
 20
341.9312544771595
 30
0.0
 10
39.51376964303387
 20
341.807343010782
 30
0.0
 10
39.59384074162529
 20
341.5523974991436
 30
0.0
 10
39.77738924640635
 20
341.2808077824888
 30
0.0
 10
40.04897896306088
 20
341.0972592777078
 30
0.0
 10
40.30392447469956
 20
341.0171881791165
 30
0.0
 10
40.42783594107703
 20
341.0091148507232
 30
0.0
 10
40.50201532001039
 20
341.005433841192
 30
0.0
  0
SPLINE
  5
279
330
210
100
AcDbEntity
  8
$DDT_AUDIT_GENERATED_(DF)
  6
Continuous
 62
     7
100
AcDbSpline
210
0.0
220
0.0
230
1.0
 70
     8
 71
     3
 72
    13
 73
     9
 74
     0
 42
0.0000000063014675
 43
0.0000000001
 40
0.0
 40
0.0
 40
0.0
 40
0.0
 40
0.1294353651929584
 40
0.2550301194024532
 40
0.500000008527378
 40
0.744969892790194
 40
0.8705646415203914
 40
1.0
 40
1.0
 40
1.0
 40
1.0
 10
98.50201658331771
 20
341.005433841192
 30
0.0
 10
98.57619596614876
 20
341.0091148506993
 30
0.0
 10
98.70010743870937
 20
341.0171881790662
 30
0.0
 10
98.95505296248963
 20
341.097259277056
 30
0.0
 10
99.22664269241758
 20
341.2808077796296
 30
0.0
 10
99.41019120912125
 20
341.5523974973863
 30
0.0
 10
99.49026231255208
 20
341.8073430103778
 30
0.0
 10
99.49833564139905
 20
341.9312544771308
 30
0.0
 10
99.50201665114905
 20
342.005433856093
 30
0.0
  0
LINE
  5
27A
330
210
100
AcDbEntity
  8
$DDT_AUDIT_GENERATED_(DF)
  6
Continuous
 62
     7
100
AcDbLine
 10
99.5020658921
 20
342.0004338561
 30
0.0
 11
99.5020658921
 21
346.7054338412
 31
0.0
  0
LINE
  5
27B
330
210
100
AcDbEntity
  8
$DDT_AUDIT_GENERATED_(DF)
  6
Continuous
 62
     7
100
AcDbLine
 10
39.5020094384
 20
346.7054338412
 30
0.0
 11
39.5020094384
 21
342.0004338561
 31
0.0
  0
ARC
  5
27C
330
210
100
AcDbEntity
  8
$DDT_AUDIT_GENERATED_(199)
  6
Continuous
 62
     7
100
AcDbCircle
 10
199.9515434292
 20
309.7071123464
 30
0.0
 40
0.2999254781716766
100
AcDbArc
 50
279.9719358123
 51
318.1480081993
  0
LINE
  5
27D
330
210
100
AcDbEntity
  8
$DDT_AUDIT_GENERATED_(199)
  6
Continuous
 62
     7
100
AcDbLine
 10
197.5420434332
 20
309.0773117649
 30
0.0
 11
200.0040161992
 21
309.4117193922
 31
0.0
  0
LINE
  5
27E
330
210
100
AcDbEntity
  8
$DDT_AUDIT_GENERATED_(199)
  6
Continuous
 62
     7
100
AcDbLine
 10
159.0000134121
 20
309.4117193922
 30
0.0
 11
161.4619861782
 21
309.0773117649
 31
0.0
  0
ARC
  5
27F
330
210
100
AcDbEntity
  8
$DDT_AUDIT_GENERATED_(199)
  6
Continuous
 62
     7
100
AcDbCircle
 10
176.0088166127
 20
4672.6372019391
 30
0.0
 40
4363.571107572046
100
AcDbArc
 50
269.883212121
 51
269.9185781144
  0
ARC
  5
280
330
210
100
AcDbEntity
  8
$DDT_AUDIT_GENERATED_(199)
  6
Continuous
 62
     7
100
AcDbCircle
 10
176.0088166127
 20
4672.6372019391
 30
0.0
 40
4363.571107572046
100
AcDbArc
 50
270.174565877
 51
270.2720829811
  0
ARC
  5
281
330
210
100
AcDbEntity
  8
$DDT_AUDIT_GENERATED_(199)
  6
Continuous
 62
     7
100
AcDbCircle
 10
193.0392093151
 20
462.8981800584
 30
0.0
 40
153.8273164589083
100
AcDbArc
 50
269.5718101872
 51
271.3765691886
  0
ARC
  5
282
330
210
100
AcDbEntity
  8
$DDT_AUDIT_GENERATED_(199)
  6
Continuous
 62
     7
100
AcDbCircle
 10
181.3965270481
 20
3493.6213297757
 30
0.0
 40
3184.563457862027
100
AcDbArc
 50
269.9796368754
 51
270.1887890938
  0
ARC
  5
283
330
210
100
AcDbEntity
  8
$DDT_AUDIT_GENERATED_(199)
  6
Continuous
 62
     7
100
AcDbCircle
 10
165.9648187688
 20
462.8988263619
 30
0.0
 40
153.827962764015
100
AcDbArc
 50
268.62343718
 51
270.4281889592
  0
ENDBLK
  5
285
330
210
100
AcDbEntity
  8
0
100
AcDbBlockEnd
  0
ENDSEC
  0
SECTION
  2
ENTITIES
  0
INSERT
  5
5F
330
1F
100
AcDbEntity
  8
Default
100
AcDbBlockReference
  2
SEANNOT_GROUP
 10
0.0
 20
0.0
 30
0.0
  0
INSERT
  5
66
330
1F
100
AcDbEntity
  8
Default
100
AcDbBlockReference
  2
SEANNOT_GROUP1
 10
0.0
 20
0.0
 30
0.0
  0
INSERT
  5
70
330
1F
100
AcDbEntity
  8
Default
100
AcDbBlockReference
  2
SEANNOT_GROUP2
 10
0.0
 20
0.0
 30
0.0
  0
INSERT
  5
7A
330
1F
100
AcDbEntity
  8
Default
100
AcDbBlockReference
  2
SEANNOT_GROUP3
 10
0.0
 20
0.0
 30
0.0
  0
INSERT
  5
80
330
1F
100
AcDbEntity
  8
Default
100
AcDbBlockReference
  2
SEANNOT_GROUP4
 10
0.0
 20
0.0
 30
0.0
  0
INSERT
  5
86
330
1F
100
AcDbEntity
  8
Default
100
AcDbBlockReference
  2
SE
 10
0.0
 20
0.0
 30
0.0
  0
INSERT
  5
1AE
330
1F
100
AcDbEntity
  8
Default
100
AcDbBlockReference
  2
SE1
 10
0.0
 20
0.0
 30
0.0
  0
INSERT
  5
211
330
1F
100
AcDbEntity
  8
Default
100
AcDbBlockReference
  2
SE2
 10
0.0
 20
0.0
 30
0.0
  0
TEXT
  5
287
330
1F
100
AcDbEntity
  8
Default
  6
Continuous
 62
     7
100
AcDbText
 10
5.9362635081
 20
53.4225120485
 30
0.0
 40
10.0
  1
Grohe AG^J
  7
SEACAD_seiso_ttf
 11
5.9362635081
 21
63.4225120485
 31
0.0
100
AcDbText
 73
     3
  0
TEXT
  5
288
330
1F
100
AcDbEntity
  8
Default
  6
Continuous
 62
     7
100
AcDbText
 10
5.9362635081
 20
37.0588756849
 30
0.0
 40
10.0
  1
 
  7
SEACAD_seiso_ttf
 11
5.9362635081
 21
47.0588756849
 31
0.0
100
AcDbText
 73
     3
  0
TEXT
  5
289
330
1F
100
AcDbEntity
  8
Default
  6
Continuous
 62
     7
100
AcDbText
 10
5.9362635081
 20
20.6952393213
 30
0.0
 40
10.0
  1
ecn: 
  7
SEACAD_seiso_ttf
 11
5.9362635081
 21
30.6952393213
 31
0.0
100
AcDbText
 73
     3
  0
TEXT
  5
28A
330
1F
100
AcDbEntity
  8
Default
  6
Continuous
 62
     7
100
AcDbText
 10
5.9362635081
 20
4.3316029576
 30
0.0
 40
10.0
  1
unit: mm
  7
SEACAD_seiso_ttf
 11
5.9362635081
 21
14.3316029576
 31
0.0
100
AcDbText
 73
     3
  0
LINE
  5
28B
330
1F
100
AcDbEntity
  8
Default
  6
Continuous
 62
     7
100
AcDbLine
 10
0.0
 20
0.0
 30
0.0
 11
100.0
 21
0.0
 31
0.0
  0
LINE
  5
28C
330
1F
100
AcDbEntity
  8
Default
  6
Continuous
 62
     7
100
AcDbLine
 10
0.0
 20
0.0
 30
0.0
 11
0.0
 21
100.0
 31
0.0
  0
TEXT
  5
28D
330
1F
100
AcDbEntity
  8
Default
  6
Continuous
 62
     7
100
AcDbText
 10
24.3923665681
 20
-18.2375342018
 30
0.0
 40
10.0
  1
100 mm
  7
SEACAD_seiso_ttf
 11
24.3923665681
 21
-8.2375342018
 31
0.0
100
AcDbText
 73
     3
  0
TEXT
  5
28E
330
1F
100
AcDbEntity
  8
Default
  6
Continuous
 62
     7
100
AcDbText
 10
-7.6150308803
 20
24.6231930421
 30
0.0
 40
10.0
  1
100 mm
 50
90.0
  7
SEACAD_seiso_ttf
 11
-17.6150308803
 21
24.6231930421
 31
0.0
100
AcDbText
 73
     3
  0
TEXT
  5
28F
330
1F
100
AcDbEntity
  8
Default
  6
Continuous
 62
     7
100
AcDbText
 10
28.4878128572
 20
20.0907663715
 30
0.0
 40
10.0
  1
217300
  7
SEACAD_seiso_ttf
 11
28.4878128572
 21
30.0907663715
 31
0.0
100
AcDbText
 73
     3
  0
TEXT
  5
290
330
1F
100
AcDbEntity
  8
Default
  6
Continuous
 62
     7
100
AcDbText
 10
5.9012241913
 20
36.7242780188
 30
0.0
 40
10.0
  1
19388000
  7
SEACAD_seiso_ttf
 11
5.9012241913
 21
46.7242780188
 31
0.0
100
AcDbText
 73
     3
  0
ENDSEC
  0
SECTION
  2
OBJECTS
  0
DICTIONARY
  5
C
330
0
100
AcDbDictionary
281
     1
  3
ACAD_GROUP
350
D
  3
ACAD_LAYOUT
350
1A
  3
ACAD_MLEADERSTYLE
350
294
  3
ACAD_MLINESTYLE
350
17
  3
ACAD_PLOTSETTINGS
350
19
  3
ACAD_PLOTSTYLENAME
350
E
  3
ACAD_SCALELIST
350
3B
  3
ACAD_TABLESTYLE
350
293
  3
ACAD_VISUALSTYLE
350
2A
  3
AcDbVariableDictionary
350
291
  0
DICTIONARY
  5
D
102
{ACAD_REACTORS
330
C
102
}
330
C
100
AcDbDictionary
281
     1
  0
DICTIONARY
  5
1A
102
{ACAD_REACTORS
330
C
102
}
330
C
100
AcDbDictionary
281
     1
  3
Layout1
350
1E
  3
Model
350
22
  0
DICTIONARY
  5
294
102
{ACAD_REACTORS
330
C
102
}
330
C
100
AcDbDictionary
281
     1
  0
DICTIONARY
  5
17
102
{ACAD_REACTORS
330
C
102
}
330
C
100
AcDbDictionary
281
     1
  3
Standard
350
18
  0
DICTIONARY
  5
19
102
{ACAD_REACTORS
330
C
102
}
330
C
100
AcDbDictionary
281
     1
  0
ACDBDICTIONARYWDFLT
  5
E
102
{ACAD_REACTORS
330
C
102
}
330
C
100
AcDbDictionary
281
     1
  3
Normal
350
F
100
AcDbDictionaryWithDefault
340
F
  0
DICTIONARY
  5
3B
102
{ACAD_REACTORS
330
C
102
}
330
C
100
AcDbDictionary
281
     1
  3
A0
350
3C
  3
A1
350
3D
  3
A2
350
3E
  3
A3
350
3F
  3
A4
350
40
  3
A5
350
41
  3
A6
350
42
  3
A7
350
43
  3
A8
350
44
  3
A9
350
45
  3
B0
350
46
  3
B1
350
47
  3
B2
350
48
  3
B3
350
49
  3
B4
350
4A
  3
B5
350
4B
  3
B6
350
4C
  3
B7
350
4D
  3
B8
350
4E
  3
B9
350
4F
  3
C0
350
50
  3
C1
350
51
  3
C2
350
52
  3
C3
350
53
  3
C4
350
54
  3
C5
350
55
  3
C6
350
56
  3
C7
350
57
  3
C8
350
58
  3
C9
350
59
  3
D0
350
5A
  3
D1
350
5B
  3
D2
350
5C
  0
DICTIONARY
  5
293
102
{ACAD_REACTORS
330
C
102
}
330
C
100
AcDbDictionary
281
     1
  0
DICTIONARY
  5
2A
102
{ACAD_REACTORS
330
C
102
}
330
C
100
AcDbDictionary
281
     1
  3
2dWireframe
350
2F
  3
3D Hidden
350
31
  3
3dWireframe
350
30
  3
Basic
350
32
  3
Brighten
350
36
  3
ColorChange
350
3A
  3
Conceptual
350
34
  3
Dim
350
35
  3
Facepattern
350
39
  3
Flat
350
2B
  3
FlatWithEdges
350
2C
  3
Gouraud
350
2D
  3
GouraudWithEdges
350
2E
  3
Linepattern
350
38
  3
Realistic
350
33
  3
Thicken
350
37
  0
DICTIONARY
  5
291
102
{ACAD_REACTORS
330
C
102
}
330
C
100
AcDbDictionary
281
     1
  3
CANNOSCALE
350
292
  3
PSOLHEIGHT
350
296
  3
PSOLWIDTH
350
295
  0
LAYOUT
  5
1E
102
{ACAD_REACTORS
330
1A
102
}
330
1A
100
AcDbPlotSettings
  1

  2
none_device
  4

  6

 40
0.0
 41
0.0
 42
0.0
 43
0.0
 44
0.0
 45
0.0
 46
0.0
 47
0.0
 48
0.0
 49
0.0
140
0.0
141
0.0
142
1.0
143
1.0
 70
   688
 72
     0
 73
     0
 74
     5
  7

 75
    16
147
1.0
148
0.0
149
0.0
100
AcDbLayout
  1
Layout1
 70
     1
 71
     1
 10
0.0
 20
0.0
 11
1682.0
 21
2378.0
 12
0.0
 22
0.0
 32
0.0
 14
0.0
 24
0.0
 34
0.0
 15
1682.0
 25
2378.0
 35
0.0
146
0.0
 13
0.0
 23
0.0
 33
0.0
 16
1.0
 26
0.0
 36
0.0
 17
0.0
 27
1.0
 37
0.0
 76
     0
330
1B
  0
LAYOUT
  5
22
102
{ACAD_REACTORS
330
1A
102
}
330
1A
100
AcDbPlotSettings
  1

  2
none_device
  4

  6

 40
0.0
 41
0.0
 42
0.0
 43
0.0
 44
0.0
 45
0.0
 46
0.0
 47
0.0
 48
0.0
 49
0.0
140
0.0
141
0.0
142
1.0
143
1.0
 70
  1712
 72
     0
 73
     0
 74
     0
  7

 75
     0
147
1.0
148
0.0
149
0.0
100
AcDbLayout
  1
Model
 70
     1
 71
     0
 10
0.0
 20
0.0
 11
1682.0
 21
2378.0
 12
0.0
 22
0.0
 32
0.0
 14
0.0
 24
0.0
 34
0.0
 15
1682.0
 25
2378.0
 35
0.0
146
0.0
 13
0.0
 23
0.0
 33
0.0
 16
1.0
 26
0.0
 36
0.0
 17
0.0
 27
1.0
 37
0.0
 76
     0
330
1F
331
29
  0
MLINESTYLE
  5
18
102
{ACAD_REACTORS
330
17
102
}
330
17
100
AcDbMlineStyle
  2
Standard
 70
     0
  3

 62
   256
 51
90.0
 52
90.0
 71
     2
 49
0.5
 62
   256
  6
BYLAYER
 49
-0.5
 62
   256
  6
BYLAYER
  0
ACDBPLACEHOLDER
  5
F
102
{ACAD_REACTORS
330
E
102
}
330
E
  0
SCALE
  5
3C
102
{ACAD_REACTORS
330
3B
102
}
330
3B
100
AcDbScale
 70
     0
300
1:1
140
1.0
141
1.0
290
     1
  0
SCALE
  5
3D
102
{ACAD_REACTORS
330
3B
102
}
330
3B
100
AcDbScale
 70
     0
300
1:2
140
1.0
141
2.0
290
     0
  0
SCALE
  5
3E
102
{ACAD_REACTORS
330
3B
102
}
330
3B
100
AcDbScale
 70
     0
300
1:4
140
1.0
141
4.0
290
     0
  0
SCALE
  5
3F
102
{ACAD_REACTORS
330
3B
102
}
330
3B
100
AcDbScale
 70
     0
300
1:5
140
1.0
141
5.0
290
     0
  0
SCALE
  5
40
102
{ACAD_REACTORS
330
3B
102
}
330
3B
100
AcDbScale
 70
     0
300
1:8
140
1.0
141
8.0
290
     0
  0
SCALE
  5
41
102
{ACAD_REACTORS
330
3B
102
}
330
3B
100
AcDbScale
 70
     0
300
1:10
140
1.0
141
10.0
290
     0
  0
SCALE
  5
42
102
{ACAD_REACTORS
330
3B
102
}
330
3B
100
AcDbScale
 70
     0
300
1:16
140
1.0
141
16.0
290
     0
  0
SCALE
  5
43
102
{ACAD_REACTORS
330
3B
102
}
330
3B
100
AcDbScale
 70
     0
300
1:20
140
1.0
141
20.0
290
     0
  0
SCALE
  5
44
102
{ACAD_REACTORS
330
3B
102
}
330
3B
100
AcDbScale
 70
     0
300
1:30
140
1.0
141
30.0
290
     0
  0
SCALE
  5
45
102
{ACAD_REACTORS
330
3B
102
}
330
3B
100
AcDbScale
 70
     0
300
1:40
140
1.0
141
40.0
290
     0
  0
SCALE
  5
46
102
{ACAD_REACTORS
330
3B
102
}
330
3B
100
AcDbScale
 70
     0
300
1:50
140
1.0
141
50.0
290
     0
  0
SCALE
  5
47
102
{ACAD_REACTORS
330
3B
102
}
330
3B
100
AcDbScale
 70
     0
300
1:100
140
1.0
141
100.0
290
     0
  0
SCALE
  5
48
102
{ACAD_REACTORS
330
3B
102
}
330
3B
100
AcDbScale
 70
     0
300
2:1
140
2.0
141
1.0
290
     0
  0
SCALE
  5
49
102
{ACAD_REACTORS
330
3B
102
}
330
3B
100
AcDbScale
 70
     0
300
4:1
140
4.0
141
1.0
290
     0
  0
SCALE
  5
4A
102
{ACAD_REACTORS
330
3B
102
}
330
3B
100
AcDbScale
 70
     0
300
8:1
140
8.0
141
1.0
290
     0
  0
SCALE
  5
4B
102
{ACAD_REACTORS
330
3B
102
}
330
3B
100
AcDbScale
 70
     0
300
10:1
140
10.0
141
1.0
290
     0
  0
SCALE
  5
4C
102
{ACAD_REACTORS
330
3B
102
}
330
3B
100
AcDbScale
 70
     0
300
100:1
140
100.0
141
1.0
290
     0
  0
SCALE
  5
4D
102
{ACAD_REACTORS
330
3B
102
}
330
3B
100
AcDbScale
 70
     0
300
1/128" = 1'-0"
140
0.0078125
141
12.0
290
     0
  0
SCALE
  5
4E
102
{ACAD_REACTORS
330
3B
102
}
330
3B
100
AcDbScale
 70
     0
300
1/64" = 1'-0"
140
0.015625
141
12.0
290
     0
  0
SCALE
  5
4F
102
{ACAD_REACTORS
330
3B
102
}
330
3B
100
AcDbScale
 70
     0
300
1/32" = 1'-0"
140
0.03125
141
12.0
290
     0
  0
SCALE
  5
50
102
{ACAD_REACTORS
330
3B
102
}
330
3B
100
AcDbScale
 70
     0
300
1/16" = 1'-0"
140
0.0625
141
12.0
290
     0
  0
SCALE
  5
51
102
{ACAD_REACTORS
330
3B
102
}
330
3B
100
AcDbScale
 70
     0
300
3/32" = 1'-0"
140
0.09375
141
12.0
290
     0
  0
SCALE
  5
52
102
{ACAD_REACTORS
330
3B
102
}
330
3B
100
AcDbScale
 70
     0
300
1/8" = 1'-0"
140
0.125
141
12.0
290
     0
  0
SCALE
  5
53
102
{ACAD_REACTORS
330
3B
102
}
330
3B
100
AcDbScale
 70
     0
300
3/16" = 1'-0"
140
0.1875
141
12.0
290
     0
  0
SCALE
  5
54
102
{ACAD_REACTORS
330
3B
102
}
330
3B
100
AcDbScale
 70
     0
300
1/4" = 1'-0"
140
0.25
141
12.0
290
     0
  0
SCALE
  5
55
102
{ACAD_REACTORS
330
3B
102
}
330
3B
100
AcDbScale
 70
     0
300
3/8" = 1'-0"
140
0.375
141
12.0
290
     0
  0
SCALE
  5
56
102
{ACAD_REACTORS
330
3B
102
}
330
3B
100
AcDbScale
 70
     0
300
1/2" = 1'-0"
140
0.5
141
12.0
290
     0
  0
SCALE
  5
57
102
{ACAD_REACTORS
330
3B
102
}
330
3B
100
AcDbScale
 70
     0
300
3/4" = 1'-0"
140
0.75
141
12.0
290
     0
  0
SCALE
  5
58
102
{ACAD_REACTORS
330
3B
102
}
330
3B
100
AcDbScale
 70
     0
300
1" = 1'-0"
140
1.0
141
12.0
290
     0
  0
SCALE
  5
59
102
{ACAD_REACTORS
330
3B
102
}
330
3B
100
AcDbScale
 70
     0
300
1-1/2" = 1'-0"
140
1.5
141
12.0
290
     0
  0
SCALE
  5
5A
102
{ACAD_REACTORS
330
3B
102
}
330
3B
100
AcDbScale
 70
     0
300
3" = 1'-0"
140
3.0
141
12.0
290
     0
  0
SCALE
  5
5B
102
{ACAD_REACTORS
330
3B
102
}
330
3B
100
AcDbScale
 70
     0
300
6" = 1'-0"
140
6.0
141
12.0
290
     0
  0
SCALE
  5
5C
102
{ACAD_REACTORS
330
3B
102
}
330
3B
100
AcDbScale
 70
     0
300
1'-0" = 1'-0"
140
12.0
141
12.0
290
     0
  0
VISUALSTYLE
  5
2F
102
{ACAD_REACTORS
330
2A
102
}
330
2A
100
AcDbVisualStyle
  2
2dWireframe
 70
     4
 71
     0
 72
     2
 73
     0
 90
        0
 40
-0.6
 41
-30.0
 62
     5
 63
     7
 74
     1
 91
        4
 64
     7
 65
   257
 75
     1
175
     1
 42
1.0
 92
        0
 66
   257
 43
1.0
 76
     1
 77
     6
 78
     2
 67
     7
 79
     5
170
     0
171
     0
290
     0
174
     0
 93
        1
 44
0.0
173
     0
291
     0
 45
0.0
1001
ACAD
1000
AcDbSavedByObjectVersion
1070
     0
  0
VISUALSTYLE
  5
31
102
{ACAD_REACTORS
330
2A
102
}
330
2A
100
AcDbVisualStyle
  2
3D Hidden
 70
     6
 71
     1
 72
     2
 73
     2
 90
        0
 40
-0.6
 41
-30.0
 62
     5
 63
     7
 74
     2
 91
        2
 64
     7
 65
   257
 75
     2
175
     1
 42
40.0
 92
        0
 66
   257
 43
1.0
 76
     1
 77
     6
 78
     2
 67
     7
 79
     3
170
     0
171
     0
290
     0
174
     0
 93
        1
 44
0.0
173
     0
291
     0
 45
0.0
1001
ACAD
1000
AcDbSavedByObjectVersion
1070
     0
  0
VISUALSTYLE
  5
30
102
{ACAD_REACTORS
330
2A
102
}
330
2A
100
AcDbVisualStyle
  2
3dWireframe
 70
     5
 71
     0
 72
     2
 73
     0
 90
        0
 40
-0.6
 41
-30.0
 62
     5
 63
     7
 74
     1
 91
        4
 64
     7
 65
   257
 75
     1
175
     1
 42
1.0
 92
        0
 66
   257
 43
1.0
 76
     1
 77
     6
 78
     2
 67
     7
 79
     5
170
     0
171
     0
290
     0
174
     0
 93
        1
 44
0.0
173
     0
291
     0
 45
0.0
1001
ACAD
1000
AcDbSavedByObjectVersion
1070
     0
  0
VISUALSTYLE
  5
32
102
{ACAD_REACTORS
330
2A
102
}
330
2A
100
AcDbVisualStyle
  2
Basic
 70
     7
 71
     1
 72
     0
 73
     1
 90
        0
 40
-0.6
 41
-30.0
 62
     5
 63
     7
 74
     0
 91
        4
 64
     7
 65
   257
 75
     1
175
     1
 42
1.0
 92
        8
 66
     7
 43
1.0
 76
     1
 77
     6
 78
     2
 67
     7
 79
     5
170
     0
171
     0
290
     0
174
     0
 93
        1
 44
0.0
173
     0
291
     1
 45
0.0
1001
ACAD
1000
AcDbSavedByObjectVersion
1070
     0
  0
VISUALSTYLE
  5
36
102
{ACAD_REACTORS
330
2A
102
}
330
2A
100
AcDbVisualStyle
  2
Brighten
 70
    12
 71
     2
 72
     2
 73
     0
 90
        0
 40
-0.6
 41
-30.0
 62
     5
 63
     7
 74
     1
 91
        4
 64
     7
 65
   257
 75
     1
175
     1
 42
1.0
 92
        8
 66
     7
 43
1.0
 76
     1
 77
     6
 78
     2
 67
     7
 79
     5
170
     0
171
     0
290
     0
174
     0
 93
        1
 44
50.0
173
     0
291
     1
 45
0.0
1001
ACAD
1000
AcDbSavedByObjectVersion
1070
     0
  0
VISUALSTYLE
  5
3A
102
{ACAD_REACTORS
330
2A
102
}
330
2A
100
AcDbVisualStyle
  2
ColorChange
 70
    16
 71
     2
 72
     2
 73
     3
 90
        0
 40
-0.6
 41
-30.0
 62
     5
 63
     8
 74
     1
 91
        4
 64
     7
 65
   257
 75
     1
175
     1
 42
1.0
 92
        8
 66
     8
 43
1.0
 76
     1
 77
     6
 78
     2
 67
     7
 79
     5
170
     0
171
     0
290
     0
174
     0
 93
        1
 44
0.0
173
     0
291
     1
 45
0.0
1001
ACAD
1000
AcDbSavedByObjectVersion
1070
     0
  0
VISUALSTYLE
  5
34
102
{ACAD_REACTORS
330
2A
102
}
330
2A
100
AcDbVisualStyle
  2
Conceptual
 70
     9
 71
     3
 72
     2
 73
     0
 90
        0
 40
-0.6
 41
-30.0
 62
     5
 63
     7
 74
     2
 91
        2
 64
     7
 65
   257
 75
     1
175
     1
 42
40.0
 92
        8
 66
     7
 43
1.0
 76
     1
 77
     6
 78
     2
 67
     7
 79
     3
170
     0
171
     0
290
     0
174
     0
 93
        1
 44
0.0
173
     0
291
     0
 45
0.0
1001
ACAD
1000
AcDbSavedByObjectVersion
1070
     0
  0
VISUALSTYLE
  5
35
102
{ACAD_REACTORS
330
2A
102
}
330
2A
100
AcDbVisualStyle
  2
Dim
 70
    11
 71
     2
 72
     2
 73
     0
 90
        0
 40
-0.6
 41
-30.0
 62
     5
 63
     7
 74
     1
 91
        4
 64
     7
 65
   257
 75
     1
175
     1
 42
1.0
 92
        8
 66
     7
 43
1.0
 76
     1
 77
     6
 78
     2
 67
     7
 79
     5
170
     0
171
     0
290
     0
174
     0
 93
        1
 44
-50.0
173
     0
291
     1
 45
0.0
1001
ACAD
1000
AcDbSavedByObjectVersion
1070
     0
  0
VISUALSTYLE
  5
39
102
{ACAD_REACTORS
330
2A
102
}
330
2A
100
AcDbVisualStyle
  2
Facepattern
 70
    15
 71
     2
 72
     2
 73
     0
 90
        0
 40
-0.6
 41
-30.0
 62
     5
 63
     7
 74
     1
 91
        4
 64
     7
 65
   257
 75
     1
175
     1
 42
1.0
 92
        8
 66
     7
 43
1.0
 76
     1
 77
     6
 78
     2
 67
     7
 79
     5
170
     0
171
     0
290
     0
174
     0
 93
        1
 44
0.0
173
     0
291
     1
 45
0.0
1001
ACAD
1000
AcDbSavedByObjectVersion
1070
     0
  0
VISUALSTYLE
  5
2B
102
{ACAD_REACTORS
330
2A
102
}
330
2A
100
AcDbVisualStyle
  2
Flat
 70
     0
 71
     2
 72
     1
 73
     1
 90
        2
 40
-0.6
 41
30.0
 62
     5
 63
     7
 74
     0
 91
        4
 64
     7
 65
   257
 75
     1
175
     1
 42
1.0
 92
        8
 66
     7
 43
1.0
 76
     1
 77
     6
 78
     2
 67
     7
 79
     5
170
     0
171
     0
290
     0
174
     0
 93
       13
 44
0.0
173
     0
291
     1
 45
0.0
1001
ACAD
1000
AcDbSavedByObjectVersion
1070
     0
  0
VISUALSTYLE
  5
2C
102
{ACAD_REACTORS
330
2A
102
}
330
2A
100
AcDbVisualStyle
  2
FlatWithEdges
 70
     1
 71
     2
 72
     1
 73
     1
 90
        2
 40
-0.6
 41
30.0
 62
     5
 63
     7
 74
     1
 91
        4
 64
     7
 65
   257
 75
     1
175
     1
 42
1.0
 92
        0
 66
   257
 43
1.0
 76
     1
 77
     6
 78
     2
 67
     7
 79
     5
170
     0
171
     0
290
     0
174
     0
 93
       13
 44
0.0
173
     0
291
     1
 45
0.0
1001
ACAD
1000
AcDbSavedByObjectVersion
1070
     0
  0
VISUALSTYLE
  5
2D
102
{ACAD_REACTORS
330
2A
102
}
330
2A
100
AcDbVisualStyle
  2
Gouraud
 70
     2
 71
     2
 72
     2
 73
     1
 90
        2
 40
-0.6
 41
30.0
 62
     5
 63
     7
 74
     0
 91
        4
 64
     7
 65
   257
 75
     1
175
     1
 42
1.0
 92
        0
 66
     7
 43
1.0
 76
     1
 77
     6
 78
     2
 67
     7
 79
     5
170
     0
171
     0
290
     0
174
     0
 93
       13
 44
0.0
173
     0
291
     1
 45
0.0
1001
ACAD
1000
AcDbSavedByObjectVersion
1070
     0
  0
VISUALSTYLE
  5
2E
102
{ACAD_REACTORS
330
2A
102
}
330
2A
100
AcDbVisualStyle
  2
GouraudWithEdges
 70
     3
 71
     2
 72
     2
 73
     1
 90
        2
 40
-0.6
 41
30.0
 62
     5
 63
     7
 74
     1
 91
        4
 64
     7
 65
   257
 75
     1
175
     1
 42
1.0
 92
        0
 66
   257
 43
1.0
 76
     1
 77
     6
 78
     2
 67
     7
 79
     5
170
     0
171
     0
290
     0
174
     0
 93
       13
 44
0.0
173
     0
291
     1
 45
0.0
1001
ACAD
1000
AcDbSavedByObjectVersion
1070
     0
  0
VISUALSTYLE
  5
38
102
{ACAD_REACTORS
330
2A
102
}
330
2A
100
AcDbVisualStyle
  2
Linepattern
 70
    14
 71
     2
 72
     2
 73
     0
 90
        0
 40
-0.6
 41
-30.0
 62
     5
 63
     7
 74
     1
 91
        4
 64
     7
 65
   257
 75
     7
175
     7
 42
1.0
 92
        8
 66
     7
 43
1.0
 76
     1
 77
     6
 78
     2
 67
     7
 79
     5
170
     0
171
     0
290
     0
174
     0
 93
        1
 44
0.0
173
     0
291
     1
 45
0.0
1001
ACAD
1000
AcDbSavedByObjectVersion
1070
     0
  0
VISUALSTYLE
  5
33
102
{ACAD_REACTORS
330
2A
102
}
330
2A
100
AcDbVisualStyle
  2
Realistic
 70
     8
 71
     2
 72
     2
 73
     0
 90
        0
 40
-0.6
 41
-30.0
 62
     5
 63
     7
 74
     1
 91
        0
 64
     7
 65
   257
 75
     1
175
     1
 42
1.0
 92
        8
 66
     8
 43
1.0
 76
     1
 77
     6
 78
     2
 67
     7
 79
     5
170
     0
171
     0
290
     0
174
     0
 93
       13
 44
0.0
173
     0
291
     0
 45
0.0
1001
ACAD
1000
AcDbSavedByObjectVersion
1070
     0
  0
VISUALSTYLE
  5
37
102
{ACAD_REACTORS
330
2A
102
}
330
2A
100
AcDbVisualStyle
  2
Thicken
 70
    13
 71
     2
 72
     2
 73
     0
 90
        0
 40
-0.6
 41
-30.0
 62
     5
 63
     7
 74
     1
 91
        4
 64
     7
 65
   257
 75
     1
175
     1
 42
1.0
 92
       12
 66
     7
 43
1.0
 76
     1
 77
     6
 78
     2
 67
     7
 79
     5
170
     0
171
     0
290
     0
174
     0
 93
        1
 44
0.0
173
     0
291
     1
 45
0.0
1001
ACAD
1000
AcDbSavedByObjectVersion
1070
     0
  0
DICTIONARYVAR
  5
292
102
{ACAD_REACTORS
330
291
102
}
330
291
100
DictionaryVariables
280
     0
  1
1:1
  0
DICTIONARYVAR
  5
296
102
{ACAD_REACTORS
330
291
102
}
330
291
100
DictionaryVariables
280
     0
  1
80.000000
  0
DICTIONARYVAR
  5
295
102
{ACAD_REACTORS
330
291
102
}
330
291
100
DictionaryVariables
280
     0
  1
5.000000
  0
ENDSEC
  0
EOF
