  0
SECTION
  2
HEADER
  9
$ACADVER
  1
AC1015
  9
$ACADMAINTVER
 70
     6
  9
$DWGCODEPAGE
  3
ANSI_1252
  9
$INSBASE
 10
0.0
 20
0.0
 30
0.0
  9
$EXTMIN
 10
0.0
 20
0.0
 30
0.0
  9
$EXTMAX
 10
1682.0
 20
2378.0
 30
0.0
  9
$LIMMIN
 10
0.0
 20
0.0
  9
$LIMMAX
 10
1682.0
 20
2378.0
  9
$ORTHOMODE
 70
     0
  9
$REGENMODE
 70
     1
  9
$FILLMODE
 70
     1
  9
$QTEXTMODE
 70
     0
  9
$MIRRTEXT
 70
     1
  9
$LTSCALE
 40
1.0
  9
$ATTMODE
 70
     1
  9
$TEXTSIZE
 40
2.5
  9
$TRACEWID
 40
1.0
  9
$TEXTSTYLE
  7
Standard
  9
$CLAYER
  8
0
  9
$CELTYPE
  6
ByLayer
  9
$CECOLOR
 62
   256
  9
$CELTSCALE
 40
1.0
  9
$DISPSILH
 70
     0
  9
$DIMSCALE
 40
1.0
  9
$DIMASZ
 40
2.5
  9
$DIMEXO
 40
0.625
  9
$DIMDLI
 40
3.75
  9
$DIMRND
 40
0.0
  9
$DIMDLE
 40
0.0
  9
$DIMEXE
 40
1.25
  9
$DIMTP
 40
0.0
  9
$DIMTM
 40
0.0
  9
$DIMTXT
 40
2.5
  9
$DIMCEN
 40
2.5
  9
$DIMTSZ
 40
0.0
  9
$DIMTOL
 70
     0
  9
$DIMLIM
 70
     0
  9
$DIMTIH
 70
     0
  9
$DIMTOH
 70
     0
  9
$DIMSE1
 70
     0
  9
$DIMSE2
 70
     0
  9
$DIMTAD
 70
     1
  9
$DIMZIN
 70
     8
  9
$DIMBLK
  1

  9
$DIMASO
 70
     1
  9
$DIMSHO
 70
     1
  9
$DIMPOST
  1

  9
$DIMAPOST
  1

  9
$DIMALT
 70
     0
  9
$DIMALTD
 70
     3
  9
$DIMALTF
 40
0.0393700787
  9
$DIMLFAC
 40
1.0
  9
$DIMTOFL
 70
     1
  9
$DIMTVP
 40
0.0
  9
$DIMTIX
 70
     0
  9
$DIMSOXD
 70
     0
  9
$DIMSAH
 70
     0
  9
$DIMBLK1
  1

  9
$DIMBLK2
  1

  9
$DIMSTYLE
  2
ISO-25
  9
$DIMCLRD
 70
     0
  9
$DIMCLRE
 70
     0
  9
$DIMCLRT
 70
     0
  9
$DIMTFAC
 40
1.0
  9
$DIMGAP
 40
0.625
  9
$DIMJUST
 70
     0
  9
$DIMSD1
 70
     0
  9
$DIMSD2
 70
     0
  9
$DIMTOLJ
 70
     0
  9
$DIMTZIN
 70
     8
  9
$DIMALTZ
 70
     0
  9
$DIMALTTZ
 70
     0
  9
$DIMUPT
 70
     0
  9
$DIMDEC
 70
     2
  9
$DIMTDEC
 70
     2
  9
$DIMALTU
 70
     2
  9
$DIMALTTD
 70
     3
  9
$DIMTXSTY
  7
Standard
  9
$DIMAUNIT
 70
     0
  9
$DIMADEC
 70
     0
  9
$DIMALTRND
 40
0.0
  9
$DIMAZIN
 70
     0
  9
$DIMDSEP
 70
    44
  9
$DIMATFIT
 70
     3
  9
$DIMFRAC
 70
     0
  9
$DIMLDRBLK
  1

  9
$DIMLUNIT
 70
     2
  9
$DIMLWD
 70
    -2
  9
$DIMLWE
 70
    -2
  9
$DIMTMOVE
 70
     0
  9
$LUNITS
 70
     2
  9
$LUPREC
 70
     4
  9
$SKETCHINC
 40
1.0
  9
$FILLETRAD
 40
10.0
  9
$AUNITS
 70
     0
  9
$AUPREC
 70
     0
  9
$MENU
  1
.
  9
$ELEVATION
 40
0.0
  9
$PELEVATION
 40
0.0
  9
$THICKNESS
 40
0.0
  9
$LIMCHECK
 70
     0
  9
$CHAMFERA
 40
10.0
  9
$CHAMFERB
 40
10.0
  9
$CHAMFERC
 40
20.0
  9
$CHAMFERD
 40
0.0
  9
$SKPOLY
 70
     0
  9
$TDCREATE
 40
2455488.477716875
  9
$TDUCREATE
 40
2455488.394383542
  9
$TDUPDATE
 40
2455488.477716886
  9
$TDUUPDATE
 40
2455488.394383553
  9
$TDINDWG
 40
0.0000000116
  9
$TDUSRTIMER
 40
0.0000000116
  9
$USRTIMER
 70
     1
  9
$ANGBASE
 50
0.0
  9
$ANGDIR
 70
     0
  9
$PDMODE
 70
     0
  9
$PDSIZE
 40
0.0
  9
$PLINEWID
 40
0.0
  9
$SPLFRAME
 70
     0
  9
$SPLINETYPE
 70
     6
  9
$SPLINESEGS
 70
     8
  9
$HANDSEED
  5
296
  9
$SURFTAB1
 70
     6
  9
$SURFTAB2
 70
     6
  9
$SURFTYPE
 70
     6
  9
$SURFU
 70
     6
  9
$SURFV
 70
     6
  9
$UCSBASE
  2

  9
$UCSNAME
  2

  9
$UCSORG
 10
0.0
 20
0.0
 30
0.0
  9
$UCSXDIR
 10
1.0
 20
0.0
 30
0.0
  9
$UCSYDIR
 10
0.0
 20
1.0
 30
0.0
  9
$UCSORTHOREF
  2

  9
$UCSORTHOVIEW
 70
     0
  9
$UCSORGTOP
 10
0.0
 20
0.0
 30
0.0
  9
$UCSORGBOTTOM
 10
0.0
 20
0.0
 30
0.0
  9
$UCSORGLEFT
 10
0.0
 20
0.0
 30
0.0
  9
$UCSORGRIGHT
 10
0.0
 20
0.0
 30
0.0
  9
$UCSORGFRONT
 10
0.0
 20
0.0
 30
0.0
  9
$UCSORGBACK
 10
0.0
 20
0.0
 30
0.0
  9
$PUCSBASE
  2

  9
$PUCSNAME
  2

  9
$PUCSORG
 10
0.0
 20
0.0
 30
0.0
  9
$PUCSXDIR
 10
1.0
 20
0.0
 30
0.0
  9
$PUCSYDIR
 10
0.0
 20
1.0
 30
0.0
  9
$PUCSORTHOREF
  2

  9
$PUCSORTHOVIEW
 70
     0
  9
$PUCSORGTOP
 10
0.0
 20
0.0
 30
0.0
  9
$PUCSORGBOTTOM
 10
0.0
 20
0.0
 30
0.0
  9
$PUCSORGLEFT
 10
0.0
 20
0.0
 30
0.0
  9
$PUCSORGRIGHT
 10
0.0
 20
0.0
 30
0.0
  9
$PUCSORGFRONT
 10
0.0
 20
0.0
 30
0.0
  9
$PUCSORGBACK
 10
0.0
 20
0.0
 30
0.0
  9
$USERI1
 70
     0
  9
$USERI2
 70
     0
  9
$USERI3
 70
     0
  9
$USERI4
 70
     0
  9
$USERI5
 70
     0
  9
$USERR1
 40
0.0
  9
$USERR2
 40
0.0
  9
$USERR3
 40
0.0
  9
$USERR4
 40
0.0
  9
$USERR5
 40
0.0
  9
$WORLDVIEW
 70
     1
  9
$SHADEDGE
 70
     3
  9
$SHADEDIF
 70
    70
  9
$TILEMODE
 70
     1
  9
$MAXACTVP
 70
    64
  9
$PINSBASE
 10
0.0
 20
0.0
 30
0.0
  9
$PLIMCHECK
 70
     0
  9
$PEXTMIN
 10
0.0
 20
0.0
 30
0.0
  9
$PEXTMAX
 10
1682.0
 20
2378.0
 30
0.0
  9
$PLIMMIN
 10
0.0
 20
0.0
  9
$PLIMMAX
 10
1682.0
 20
2378.0
  9
$UNITMODE
 70
     0
  9
$VISRETAIN
 70
     1
  9
$PLINEGEN
 70
     0
  9
$PSLTSCALE
 70
     1
  9
$TREEDEPTH
 70
  3020
  9
$CMLSTYLE
  2
Standard
  9
$CMLJUST
 70
     0
  9
$CMLSCALE
 40
20.0
  9
$PROXYGRAPHICS
 70
     1
  9
$MEASUREMENT
 70
     1
  9
$CELWEIGHT
370
    -1
  9
$ENDCAPS
280
     0
  9
$JOINSTYLE
280
     0
  9
$LWDISPLAY
290
     0
  9
$INSUNITS
 70
     4
  9
$HYPERLINKBASE
  1

  9
$STYLESHEET
  1

  9
$XEDIT
290
     1
  9
$CEPSNTYPE
380
     0
  9
$PSTYLEMODE
290
     1
  9
$FINGERPRINTGUID
  2
{208AF0A0-7A0F-4A85-8870-534C34534246}
  9
$VERSIONGUID
  2
{FAEB1C32-E019-11D5-929B-00C0DF256EC4}
  9
$EXTNAMES
290
     1
  9
$PSVPSCALE
 40
0.0
  9
$OLESTARTUP
290
     0
  0
ENDSEC
  0
SECTION
  2
CLASSES
  0
CLASS
  1
ACDBDICTIONARYWDFLT
  2
AcDbDictionaryWithDefault
  3
ObjectDBX Classes
 90
        0
280
     0
281
     0
  0
CLASS
  1
VISUALSTYLE
  2
AcDbVisualStyle
  3
ObjectDBX Classes
 90
     4095
280
     0
281
     0
  0
CLASS
  1
SCALE
  2
AcDbScale
  3
ObjectDBX Classes
 90
     1153
280
     0
281
     0
  0
CLASS
  1
DICTIONARYVAR
  2
AcDbDictionaryVar
  3
ObjectDBX Classes
 90
        0
280
     0
281
     0
  0
CLASS
  1
ACDBPLACEHOLDER
  2
AcDbPlaceHolder
  3
ObjectDBX Classes
 90
        0
280
     0
281
     0
  0
CLASS
  1
LAYOUT
  2
AcDbLayout
  3
ObjectDBX Classes
 90
        0
280
     0
281
     0
  0
ENDSEC
  0
SECTION
  2
TABLES
  0
TABLE
  2
VPORT
  5
8
330
0
100
AcDbSymbolTable
 70
     1
  0
VPORT
  5
29
330
8
100
AcDbSymbolTableRecord
100
AcDbViewportTableRecord
  2
*Active
 70
     0
 10
0.0
 20
0.0
 11
1.0
 21
1.0
 12
344.1869158879
 22
148.5
 13
0.0
 23
0.0
 14
10.0
 24
10.0
 15
10.0
 25
10.0
 16
0.0
 26
0.0
 36
1.0
 17
0.0
 27
0.0
 37
0.0
 40
297.0
 41
1.9729729729
 42
50.0
 43
0.0
 44
0.0
 50
0.0
 51
0.0
 71
     0
 72
   100
 73
     1
 74
     3
 75
     0
 76
     0
 77
     0
 78
     0
281
     0
 65
     1
110
0.0
120
0.0
130
0.0
111
1.0
121
0.0
131
0.0
112
0.0
122
1.0
132
0.0
 79
     0
146
0.0
  0
ENDTAB
  0
TABLE
  2
LTYPE
  5
5
330
0
100
AcDbSymbolTable
 70
     3
  0
LTYPE
  5
14
330
5
100
AcDbSymbolTableRecord
100
AcDbLinetypeTableRecord
  2
ByBlock
 70
     0
  3

 72
    65
 73
     0
 40
0.0
  0
LTYPE
  5
15
330
5
100
AcDbSymbolTableRecord
100
AcDbLinetypeTableRecord
  2
ByLayer
 70
     0
  3

 72
    65
 73
     0
 40
0.0
  0
LTYPE
  5
16
330
5
100
AcDbSymbolTableRecord
100
AcDbLinetypeTableRecord
  2
Continuous
 70
     0
  3
Solid line
 72
    65
 73
     0
 40
0.0
  0
LTYPE
  5
60
330
5
100
AcDbSymbolTableRecord
100
AcDbLinetypeTableRecord
  2
CENTER2
 70
     0
  3
Center (.5x) ___ _ ___ _ ___ _ ___ _ ___ _ ___
 72
    65
 73
     4
 40
28.575
 49
19.05
 74
     4
 75
     0
340
0
 46
0.0
 50
0.0
 44
0.0
 45
0.0
 49
-3.175
 74
     4
 75
     0
340
0
 46
0.0
 50
0.0
 44
0.0
 45
0.0
 49
3.175
 74
     4
 75
     0
340
0
 46
0.0
 50
0.0
 44
0.0
 45
0.0
 49
-3.175
 74
     4
 75
     0
340
0
 46
0.0
 50
0.0
 44
0.0
 45
0.0
  0
LTYPE
  5
22F
330
5
100
AcDbSymbolTableRecord
100
AcDbLinetypeTableRecord
  2
HIDDEN2
 70
     0
  3
Hidden (.5x) _ _ _ _ _ _ _ _ _ _ _ _ _ _ _ _ _ 
 72
    65
 73
     2
 40
4.7625
 49
3.175
 74
     4
 75
     0
340
0
 46
0.0
 50
0.0
 44
0.0
 45
0.0
 49
-1.5875
 74
     4
 75
     0
340
0
 46
0.0
 50
0.0
 44
0.0
 45
0.0
  0
ENDTAB
  0
TABLE
  2
LAYER
  5
2
330
0
100
AcDbSymbolTable
 70
    16
  0
LAYER
  5
10
330
2
100
AcDbSymbolTableRecord
100
AcDbLayerTableRecord
  2
0
 70
     0
 62
     7
  6
Continuous
370
    -3
390
F
  0
LAYER
  5
5D
330
2
100
AcDbSymbolTableRecord
100
AcDbLayerTableRecord
  2
Default
 70
     0
 62
     7
  6
Continuous
370
    -3
390
F
  0
LAYER
  5
77
330
2
100
AcDbSymbolTableRecord
100
AcDbLayerTableRecord
  2
$DDT_AUDIT_GENERATED_(77)
 70
     0
 62
     7
  6
Continuous
370
    -3
390
F
  0
LAYER
  5
8F
330
2
100
AcDbSymbolTableRecord
100
AcDbLayerTableRecord
  2
$DDT_AUDIT_GENERATED_(8F)
 70
     0
 62
     7
  6
Continuous
370
    -3
390
F
  0
LAYER
  5
9E
330
2
100
AcDbSymbolTableRecord
100
AcDbLayerTableRecord
  2
$DDT_AUDIT_GENERATED_(9E)
 70
     0
 62
     7
  6
Continuous
370
    -3
390
F
  0
LAYER
  5
A2
330
2
100
AcDbSymbolTableRecord
100
AcDbLayerTableRecord
  2
$DDT_AUDIT_GENERATED_(A2)
 70
     0
 62
     7
  6
Continuous
370
    -3
390
F
  0
LAYER
  5
A8
330
2
100
AcDbSymbolTableRecord
100
AcDbLayerTableRecord
  2
$DDT_AUDIT_GENERATED_(A8)
 70
     0
 62
     7
  6
Continuous
370
    -3
390
F
  0
LAYER
  5
D4
330
2
100
AcDbSymbolTableRecord
100
AcDbLayerTableRecord
  2
$DDT_AUDIT_GENERATED_(D4)
 70
     0
 62
     7
  6
Continuous
370
    -3
390
F
  0
LAYER
  5
D9
330
2
100
AcDbSymbolTableRecord
100
AcDbLayerTableRecord
  2
$DDT_AUDIT_GENERATED_(D9)
 70
     0
 62
     7
  6
Continuous
370
    -3
390
F
  0
LAYER
  5
DC
330
2
100
AcDbSymbolTableRecord
100
AcDbLayerTableRecord
  2
$DDT_AUDIT_GENERATED_(DC)
 70
     0
 62
     7
  6
Continuous
370
    -3
390
F
  0
LAYER
  5
F3
330
2
100
AcDbSymbolTableRecord
100
AcDbLayerTableRecord
  2
$DDT_AUDIT_GENERATED_(F3)
 70
     0
 62
     7
  6
Continuous
370
    -3
390
F
  0
LAYER
  5
101
330
2
100
AcDbSymbolTableRecord
100
AcDbLayerTableRecord
  2
02636038_GEHÄUSE
 70
     0
 62
     7
  6
Continuous
370
    -3
390
F
  0
LAYER
  5
110
330
2
100
AcDbSymbolTableRecord
100
AcDbLayerTableRecord
  2
$DDT_AUDIT_GENERATED_(110)
 70
     0
 62
     7
  6
Continuous
370
    -3
390
F
  0
LAYER
  5
1B8
330
2
100
AcDbSymbolTableRecord
100
AcDbLayerTableRecord
  2
$DDT_AUDIT_GENERATED_(1B8)
 70
     0
 62
     7
  6
Continuous
370
    -3
390
F
  0
LAYER
  5
1E9
330
2
100
AcDbSymbolTableRecord
100
AcDbLayerTableRecord
  2
$DDT_AUDIT_GENERATED_(1E9)
 70
     0
 62
     7
  6
Continuous
370
    -3
390
F
  0
LAYER
  5
281
330
2
100
AcDbSymbolTableRecord
100
AcDbLayerTableRecord
  2
$DDT_AUDIT_GENERATED_(281)
 70
     0
 62
     7
  6
Continuous
370
    -3
390
F
  0
ENDTAB
  0
TABLE
  2
STYLE
  5
3
330
0
100
AcDbSymbolTable
 70
     2
  0
STYLE
  5
11
330
3
100
AcDbSymbolTableRecord
100
AcDbTextStyleTableRecord
  2
Standard
 70
     0
 40
0.0
 41
1.0
 50
0.0
 71
     0
 42
2.5
  3
txt
  4

  0
STYLE
  5
285
330
3
100
AcDbSymbolTableRecord
100
AcDbTextStyleTableRecord
  2
SEACAD_seiso_ttf
 70
     0
 40
0.0
 41
1.0
 50
0.0
 71
     0
 42
0.2
  3
seiso.ttf
  4

  0
ENDTAB
  0
TABLE
  2
VIEW
  5
6
330
0
100
AcDbSymbolTable
 70
     0
  0
ENDTAB
  0
TABLE
  2
UCS
  5
7
330
0
100
AcDbSymbolTable
 70
     0
  0
ENDTAB
  0
TABLE
  2
APPID
  5
9
330
0
100
AcDbSymbolTable
 70
     1
  0
APPID
  5
12
330
9
100
AcDbSymbolTableRecord
100
AcDbRegAppTableRecord
  2
ACAD
 70
     0
  0
ENDTAB
  0
TABLE
  2
DIMSTYLE
  5
A
330
0
100
AcDbSymbolTable
 70
     1
100
AcDbDimStyleTable
  0
DIMSTYLE
105
27
330
A
100
AcDbSymbolTableRecord
100
AcDbDimStyleTableRecord
  2
ISO-25
 70
     0
 41
2.5
 42
0.625
 43
3.75
 44
1.25
 73
     0
 74
     0
 77
     1
 78
     8
140
2.5
141
2.5
143
0.0393700787
147
0.625
171
     3
172
     1
271
     2
272
     2
274
     3
278
    44
283
     0
284
     8
340
11
  0
ENDTAB
  0
TABLE
  2
BLOCK_RECORD
  5
1
330
0
100
AcDbSymbolTable
 70
     7
  0
BLOCK_RECORD
  5
1F
330
1
100
AcDbSymbolTableRecord
100
AcDbBlockTableRecord
  2
*Model_Space
340
22
  0
BLOCK_RECORD
  5
1B
330
1
100
AcDbSymbolTableRecord
100
AcDbBlockTableRecord
  2
*Paper_Space
340
1E
  0
BLOCK_RECORD
  5
5E
330
1
100
AcDbSymbolTableRecord
100
AcDbBlockTableRecord
  2
SEANNOT_GROUP
340
0
102
{BLKREFS
331
5F
102
}
  0
BLOCK_RECORD
  5
65
330
1
100
AcDbSymbolTableRecord
100
AcDbBlockTableRecord
  2
SEANNOT_GROUP1
340
0
102
{BLKREFS
331
66
102
}
  0
BLOCK_RECORD
  5
6B
330
1
100
AcDbSymbolTableRecord
100
AcDbBlockTableRecord
  2
SEANNOT_GROUP2
340
0
102
{BLKREFS
331
6C
102
}
  0
BLOCK_RECORD
  5
75
330
1
100
AcDbSymbolTableRecord
100
AcDbBlockTableRecord
  2
SE
340
0
102
{BLKREFS
331
76
102
}
  0
BLOCK_RECORD
  5
1C4
330
1
100
AcDbSymbolTableRecord
100
AcDbBlockTableRecord
  2
SE1
340
0
102
{BLKREFS
331
1C5
102
}
  0
BLOCK_RECORD
  5
22A
330
1
100
AcDbSymbolTableRecord
100
AcDbBlockTableRecord
  2
SE2
340
0
102
{BLKREFS
331
22B
102
}
  0
ENDTAB
  0
ENDSEC
  0
SECTION
  2
BLOCKS
  0
BLOCK
  5
20
330
1F
100
AcDbEntity
  8
0
100
AcDbBlockBegin
  2
*Model_Space
 70
     0
 10
0.0
 20
0.0
 30
0.0
  3
*Model_Space
  1

  0
ENDBLK
  5
21
330
1F
100
AcDbEntity
  8
0
100
AcDbBlockEnd
  0
BLOCK
  5
1C
330
1B
100
AcDbEntity
 67
     1
  8
0
100
AcDbBlockBegin
  2
*Paper_Space
 70
     0
 10
0.0
 20
0.0
 30
0.0
  3
*Paper_Space
  1

  0
ENDBLK
  5
1D
330
1B
100
AcDbEntity
 67
     1
  8
0
100
AcDbBlockEnd
  0
BLOCK
  5
63
330
5E
100
AcDbEntity
  8
0
100
AcDbBlockBegin
  2
SEANNOT_GROUP
 70
     0
 10
0.0
 20
0.0
 30
0.0
  3
SEANNOT_GROUP
  1

  0
LINE
  5
61
330
5E
100
AcDbEntity
  8
Default
  6
CENTER2
 62
     7
100
AcDbLine
 10
117.1065633662
 20
512.7761813446
 30
0.0
 11
77.1065642602
 21
512.7761813446
 31
0.0
  0
LINE
  5
62
330
5E
100
AcDbEntity
  8
Default
  6
CENTER2
 62
     7
100
AcDbLine
 10
97.1065638132
 20
532.7761808976
 30
0.0
 11
97.1065638132
 21
492.7761817917
 31
0.0
  0
ENDBLK
  5
64
330
5E
100
AcDbEntity
  8
0
100
AcDbBlockEnd
  0
BLOCK
  5
69
330
65
100
AcDbEntity
  8
0
100
AcDbBlockBegin
  2
SEANNOT_GROUP1
 70
     0
 10
0.0
 20
0.0
 30
0.0
  3
SEANNOT_GROUP1
  1

  0
LINE
  5
67
330
65
100
AcDbEntity
  8
Default
  6
CENTER2
 62
     7
100
AcDbLine
 10
351.1370208337
 20
512.7761813446
 30
0.0
 11
311.1370217278
 21
512.7761813446
 31
0.0
  0
LINE
  5
68
330
65
100
AcDbEntity
  8
Default
  6
CENTER2
 62
     7
100
AcDbLine
 10
331.1370212808
 20
532.7761808976
 30
0.0
 11
331.1370212808
 21
492.7761817917
 31
0.0
  0
ENDBLK
  5
6A
330
65
100
AcDbEntity
  8
0
100
AcDbBlockEnd
  0
BLOCK
  5
73
330
6B
100
AcDbEntity
  8
0
100
AcDbBlockBegin
  2
SEANNOT_GROUP2
 70
     0
 10
0.0
 20
0.0
 30
0.0
  3
SEANNOT_GROUP2
  1

  0
LINE
  5
6D
330
6B
100
AcDbEntity
  8
Default
  6
CENTER2
 62
     7
100
AcDbLine
 10
117.1065633662
 20
352.8996412238
 30
0.0
 11
77.1065642602
 21
352.8996412238
 31
0.0
  0
LINE
  5
6E
330
6B
100
AcDbEntity
  8
Default
  6
CENTER2
 62
     7
100
AcDbLine
 10
97.1065638132
 20
372.8996407768
 30
0.0
 11
97.1065638132
 21
332.8996416709
 31
0.0
  0
LINE
  5
6F
330
6B
100
AcDbEntity
  8
Default
  6
CENTER2
 62
     7
100
AcDbLine
 10
122.1065632544
 20
352.8996412238
 30
0.0
 11
126.6073090625
 21
352.8996412238
 31
0.0
  0
LINE
  5
70
330
6B
100
AcDbEntity
  8
Default
  6
CENTER2
 62
     7
100
AcDbLine
 10
97.1065638132
 20
377.899640665
 30
0.0
 11
97.1065638132
 21
382.4003864731
 31
0.0
  0
LINE
  5
71
330
6B
100
AcDbEntity
  8
Default
  6
CENTER2
 62
     7
100
AcDbLine
 10
72.106564372
 20
352.8996412238
 30
0.0
 11
67.6058185639
 21
352.8996412238
 31
0.0
  0
LINE
  5
72
330
6B
100
AcDbEntity
  8
Default
  6
CENTER2
 62
     7
100
AcDbLine
 10
97.1065638132
 20
327.8996417826
 30
0.0
 11
97.1065638132
 21
323.3988959745
 31
0.0
  0
ENDBLK
  5
74
330
6B
100
AcDbEntity
  8
0
100
AcDbBlockEnd
  0
BLOCK
  5
1C2
330
75
100
AcDbEntity
  8
0
100
AcDbBlockBegin
  2
SE
 70
     0
 10
0.0
 20
0.0
 30
0.0
  3
SE
  1

  0
SPLINE
  5
78
330
75
100
AcDbEntity
  8
$DDT_AUDIT_GENERATED_(77)
  6
Continuous
 62
     7
100
AcDbSpline
210
0.0
220
0.0
230
1.0
 70
     8
 71
     3
 72
     8
 73
     4
 74
     0
 42
0.0000000000732187
 43
0.0000000001
 40
0.0
 40
0.0
 40
0.0
 40
0.0
 40
1.0
 40
1.0
 40
1.0
 40
1.0
 10
102.2915282510163
 20
696.622308093287
 30
0.0
 10
102.2915282510163
 20
670.3295438881464
 30
0.0
 10
113.3670684018476
 20
634.2544134602197
 30
0.0
 10
174.4935661012165
 20
595.1816911448807
 30
0.0
  0
ARC
  5
79
330
75
100
AcDbEntity
  8
$DDT_AUDIT_GENERATED_(77)
  6
Continuous
 62
     7
100
AcDbCircle
 10
-4496.7792641773
 20
669.2212973084
 30
0.0
 40
4569.159680866667
100
AcDbArc
 50
358.6151007562
 51
0.2624165164
  0
SPLINE
  5
7A
330
75
100
AcDbEntity
  8
$DDT_AUDIT_GENERATED_(77)
  6
Continuous
 62
     7
100
AcDbSpline
210
0.0
220
0.0
230
1.0
 70
     8
 71
     3
 72
    10
 73
     6
 74
     0
 42
0.0000000027850201
 43
0.0000000001
 40
0.0
 40
0.0
 40
0.0
 40
0.0
 40
0.375
 40
0.625
 40
1.0
 40
1.0
 40
1.0
 40
1.0
 10
174.5081955314946
 20
592.3274916872417
 30
0.0
 10
174.7662592688553
 20
592.5738548437612
 30
0.0
 10
175.1955935864287
 20
592.9852686765311
 30
0.0
 10
175.2957309433895
 20
594.6701074387965
 30
0.0
 10
174.794179020938
 20
594.9895360962938
 30
0.0
 10
174.4935661012165
 20
595.1816911448807
 30
0.0
  0
SPLINE
  5
7B
330
75
100
AcDbEntity
  8
$DDT_AUDIT_GENERATED_(77)
  6
Continuous
 62
     7
100
AcDbSpline
210
0.0
220
0.0
230
1.0
 70
     8
 71
     3
 72
    10
 73
     6
 74
     0
 42
0.000000002226767
 43
0.0000000001
 40
0.0797046250617645
 40
0.0797046250617645
 40
0.0797046250617645
 40
0.0797046250617645
 40
0.375
 40
0.625
 40
1.0
 40
1.0
 40
1.0
 40
1.0
 10
71.04242936130666
 20
558.5086304565507
 30
0.0
 10
71.04967656137667
 20
558.1638452953957
 30
0.0
 10
71.17944671005779
 20
557.5631284268085
 30
0.0
 10
73.1065710141526
 20
557.0766315540105
 30
0.0
 10
73.1065698097854
 20
556.335470023803
 30
0.0
 10
73.1065691466543
 20
555.8907731056782
 30
0.0
  0
SPLINE
  5
7C
330
75
100
AcDbEntity
  8
$DDT_AUDIT_GENERATED_(77)
  6
Continuous
 62
     7
100
AcDbSpline
210
0.0
220
0.0
230
1.0
 70
     8
 71
     3
 72
    16
 73
    12
 74
     0
 42
0.000000000410278
 43
0.0000000001
 40
0.0
 40
0.0
 40
0.0
 40
0.0
 40
0.1250000000000001
 40
0.1250000000000001
 40
0.2500000000000002
 40
0.2500000000000002
 40
0.5000000000000001
 40
0.5000000000000001
 40
0.75
 40
0.75
 40
1.0
 40
1.0
 40
1.0
 40
1.0
 10
121.1065638132084
 20
541.5144246284387
 30
0.0
 10
121.1065638132085
 20
542.5406099449681
 30
0.0
 10
121.200798492226
 20
543.5510486163369
 30
0.0
 10
121.6100799041008
 20
545.5350282818251
 30
0.0
 10
121.9318951992449
 20
546.5195373007997
 30
0.0
 10
123.1889347202392
 20
549.3033632918189
 30
0.0
 10
124.4210827585422
 20
550.9697536718385
 30
0.0
 10
127.1498457589861
 20
553.9567534650821
 30
0.0
 10
128.6502860250114
 20
555.3022811044841
 30
0.0
 10
131.7506634417043
 20
557.8851274154949
 30
0.0
 10
133.3544668690135
 20
559.1195169581761
 30
0.0
 10
134.9728285678204
 20
560.3350085875996
 30
0.0
  0
LINE
  5
7D
330
75
100
AcDbEntity
  8
$DDT_AUDIT_GENERATED_(77)
  6
Continuous
 62
     7
100
AcDbLine
 10
121.1065638132
 20
541.5144245721
 30
0.0
 11
121.1065638132
 21
517.7761818811
 31
0.0
  0
LINE
  5
7E
330
75
100
AcDbEntity
  8
$DDT_AUDIT_GENERATED_(77)
  6
Continuous
 62
     7
100
AcDbLine
 10
73.1065638132
 20
517.7761818811
 30
0.0
 11
73.1065638132
 21
541.5144245721
 31
0.0
  0
SPLINE
  5
7F
330
75
100
AcDbEntity
  8
$DDT_AUDIT_GENERATED_(77)
  6
Continuous
 62
     7
100
AcDbSpline
210
0.0
220
0.0
230
1.0
 70
     8
 71
     3
 72
    40
 73
    36
 74
     0
 42
0.0000000000884039
 43
0.0000000001
 40
0.0
 40
0.0
 40
0.0
 40
0.0
 40
0.0176002586683687
 40
0.0383921611677107
 40
0.0624470905886642
 40
0.0993787439252937
 40
0.1248495375805865
 40
0.152788068535696
 40
0.178305149129812
 40
0.2029020264546557
 40
0.2270009821853632
 40
0.2497043953753914
 40
0.2811671701484079
 40
0.3123687207819312
 40
0.3438446661148331
 40
0.3750167546723967
 40
0.4372959759948283
 40
0.4992598800950733
 40
0.5615096545513287
 40
0.6240795373804804
 40
0.6619511130416003
 40
0.6862376017970957
 40
0.7483677620252853
 40
0.7819525762811209
 40
0.8111923371349231
 40
0.8441449793043573
 40
0.8741266728236272
 40
0.9061864954281167
 40
0.9368565362616623
 40
0.9474511000265277
 40
0.9579743483386063
 40
0.9684617030101884
 40
0.9789440771334424
 40
0.9894487864358691
 40
1.0
 40
1.0
 40
1.0
 40
1.0
 10
71.0457393491707
 20
558.7906565619486
 30
0.0
 10
71.06928522430199
 20
558.7897117557586
 30
0.0
 10
71.12064680085086
 20
558.7876508115304
 30
0.0
 10
71.58523263831256
 20
558.774104452422
 30
0.0
 10
72.61356866923607
 20
558.7491531211153
 30
0.0
 10
74.32884727895899
 20
558.7220290990272
 30
0.0
 10
76.7161952868792
 20
558.7059351081201
 30
0.0
 10
79.20859284589461
 20
558.7178276762911
 30
0.0
 10
82.05060055352145
 20
558.7617361902446
 30
0.0
 10
85.10908714648845
 20
558.8353630517025
 30
0.0
 10
88.24590153429546
 20
558.9347140045134
 30
0.0
 10
91.79201019870268
 20
559.0823892783762
 30
0.0
 10
95.73152614088157
 20
559.3125854646048
 30
0.0
 10
100.1110895964649
 20
559.6514941249063
 30
0.0
 10
104.4871892500275
 20
560.1102249347526
 30
0.0
 10
110.3044757601993
 20
560.8984040338088
 30
0.0
 10
117.496632144257
 20
562.2839512400836
 30
0.0
 10
125.9449940929609
 20
564.7187869293961
 30
0.0
 10
134.1260777063538
 20
567.95771995244
 30
0.0
 10
140.9454494490318
 20
571.4061526188136
 30
0.0
 10
145.9961459188331
 20
574.3124787125737
 30
0.0
 10
150.8985772131676
 20
577.3689732601603
 30
0.0
 10
155.5043633972675
 20
580.4424934224143
 30
0.0
 10
160.0991810605152
 20
583.6971710972985
 30
0.0
 10
163.4819619043878
 20
586.1842852244711
 30
0.0
 10
166.5525835620749
 20
588.5071953357775
 30
0.0
 10
169.3500262567641
 20
590.7375543755351
 30
0.0
 10
171.6059243923683
 20
592.6182209108184
 30
0.0
 10
172.9121883842051
 20
593.7528251907653
 30
0.0
 10
173.5852481357525
 20
594.3543531120307
 30
0.0
 10
173.9201666006541
 20
594.6565414771997
 30
0.0
 10
174.1784932519501
 20
594.8916794834566
 30
0.0
 10
174.3602630211412
 20
595.0583016448287
 30
0.0
 10
174.4730175797529
 20
595.1624966248042
 30
0.0
 10
174.4867065162343
 20
595.1752835577514
 30
0.0
 10
174.4935661012165
 20
595.1816911448807
 30
0.0
  0
LINE
  5
80
330
75
100
AcDbEntity
  8
$DDT_AUDIT_GENERATED_(77)
  6
Continuous
 62
     7
100
AcDbLine
 10
72.2982547389
 20
696.6223080933
 30
0.0
 11
102.291528251
 21
696.6223080933
 31
0.0
  0
SPLINE
  5
81
330
75
100
AcDbEntity
  8
$DDT_AUDIT_GENERATED_(77)
  6
Continuous
 62
     7
100
AcDbSpline
210
0.0
220
0.0
230
1.0
 70
     8
 71
     3
 72
     9
 73
     5
 74
     0
 42
0.0000000007540126
 43
0.0000000001
 40
0.0
 40
0.0
 40
0.0
 40
0.0
 40
0.03125
 40
0.0327911123663431
 40
0.0327911123663431
 40
0.0327911123663431
 40
0.0327911123663431
 10
73.1065691466543
 20
555.8907731056782
 30
0.0
 10
73.10754708161434
 20
555.8907731056782
 30
0.0
 10
73.24908760930484
 20
555.890935134159
 30
0.0
 10
73.52804436493683
 20
555.8910121531338
 30
0.0
 10
73.54145717028841
 20
555.8910155573127
 30
0.0
  0
LINE
  5
82
330
75
100
AcDbEntity
  8
$DDT_AUDIT_GENERATED_(77)
  6
Continuous
 62
     7
100
AcDbLine
 10
121.1065638132
 20
517.7761818811
 30
0.0
 11
73.1065638132
 21
517.7761818811
 31
0.0
  0
LINE
  5
83
330
75
100
AcDbEntity
  8
$DDT_AUDIT_GENERATED_(77)
  6
Continuous
 62
     7
100
AcDbLine
 10
169.281619661
 20
587.4626653075
 30
0.0
 11
174.5081955315
 21
592.3274916872
 31
0.0
  0
SPLINE
  5
84
330
75
100
AcDbEntity
  8
$DDT_AUDIT_GENERATED_(77)
  6
Continuous
 62
     7
100
AcDbSpline
210
0.0
220
0.0
230
1.0
 70
     8
 71
     3
 72
     8
 73
     4
 74
     0
 42
0.0000000020570218
 43
0.0000000001
 40
0.0
 40
0.0
 40
0.0
 40
0.0
 40
0.0440718972833789
 40
0.0440718972833789
 40
0.0440718972833789
 40
0.0440718972833789
 10
169.2816196610098
 20
587.4626653075253
 30
0.0
 10
169.2817118285306
 20
587.4625639596735
 30
0.0
 10
169.224573685828
 20
587.4183184540342
 30
0.0
 10
169.1120157941924
 20
587.3319965805732
 30
0.0
  0
SPLINE
  5
85
330
75
100
AcDbEntity
  8
$DDT_AUDIT_GENERATED_(77)
  6
Continuous
 62
     7
100
AcDbSpline
210
0.0
220
0.0
230
1.0
 70
     8
 71
     3
 72
    32
 73
    28
 74
     0
 42
0.0000000002118168
 43
0.0000000001
 40
0.0341528153651429
 40
0.0341528153651429
 40
0.0341528153651429
 40
0.0341528153651429
 40
0.1249999999999999
 40
0.1249999999999999
 40
0.1875
 40
0.1875
 40
0.25
 40
0.25
 40
0.3125
 40
0.3125
 40
0.3750000000000001
 40
0.3750000000000001
 40
0.4375000000000001
 40
0.4375000000000001
 40
0.5000000000000001
 40
0.5000000000000001
 40
0.5625000000000002
 40
0.5625000000000002
 40
0.6250000000000001
 40
0.6250000000000001
 40
0.75
 40
0.75
 40
0.8124999999999999
 40
0.8124999999999999
 40
0.8749999999999998
 40
0.8749999999999998
 40
0.9561186849255983
 40
0.9561186849255983
 40
0.9561186849255983
 40
0.9561186849255983
 10
135.055112046939
 20
560.4335623361058
 30
0.0
 10
135.200475307659
 20
560.6073597912074
 30
0.0
 10
135.5380665786239
 20
561.0072529640756
 30
0.0
 10
136.4274019218296
 20
562.0132119419638
 30
0.0
 10
136.8883070728236
 20
562.5230993626602
 30
0.0
 10
137.9769816183107
 20
563.6806004047548
 30
0.0
 10
138.6050295761217
 20
564.3294569854185
 30
0.0
 10
140.0488947115793
 20
565.751095716448
 30
0.0
 10
140.8644962465099
 20
566.5221024185181
 30
0.0
 10
142.6342788950689
 20
568.0980744461145
 30
0.0
 10
143.5975072319786
 20
568.9109910997328
 30
0.0
 10
145.6920252646832
 20
570.5754436227209
 30
0.0
 10
146.7870512214235
 20
571.3985771180477
 30
0.0
 10
149.0554292780837
 20
573.0433260879716
 30
0.0
 10
150.2411663476355
 20
573.8741940054815
 30
0.0
 10
152.5960069298129
 20
575.5050551143817
 30
0.0
 10
153.7667606916352
 20
576.3069711602798
 30
0.0
 10
156.0846377779377
 20
577.8986105181518
 30
0.0
 10
157.2306640153097
 20
578.6873441914195
 30
0.0
 10
160.4791449800184
 20
580.9460039100915
 30
0.0
 10
162.4733256429675
 20
582.3719395236662
 30
0.0
 10
164.9198011121155
 20
584.1763519299241
 30
0.0
 10
165.6597780322738
 20
584.7309807340454
 30
0.0
 10
166.9487117502425
 20
585.6959012557114
 30
0.0
 10
167.4906882946977
 20
586.1027410138657
 30
0.0
 10
168.504731572104
 20
586.8677490808802
 30
0.0
 10
168.9026006682893
 20
587.1714177816317
 30
0.0
 10
169.111289623955
 20
587.3314529930831
 30
0.0
  0
ARC
  5
86
330
75
100
AcDbEntity
  8
$DDT_AUDIT_GENERATED_(77)
  6
Continuous
 62
     7
100
AcDbCircle
 10
169.0800343439
 20
587.684843985
 30
0.0
 40
0.3000000080225673
100
AcDbArc
 50
288.5285952455
 51
312.2178261125
  0
ARC
  5
87
330
75
100
AcDbEntity
  8
$DDT_AUDIT_GENERATED_(77)
  6
Continuous
 62
     7
100
AcDbCircle
 10
134.7926653841
 20
560.5748861597
 30
0.0
 40
0.3000000026927312
100
AcDbArc
 50
306.9088594877
 51
327.7024980423
  0
ARC
  5
88
330
75
100
AcDbEntity
  8
$DDT_AUDIT_GENERATED_(77)
  6
Continuous
 62
     7
100
AcDbCircle
 10
81.1178642402
 20
560.9824732178
 30
0.0
 40
10.0093481458556
100
AcDbArc
 50
177.6786817817
 51
192.7026697017
  0
LINE
  5
89
330
75
100
AcDbEntity
  8
$DDT_AUDIT_GENERATED_(77)
  6
Continuous
 62
     7
100
AcDbLine
 10
72.5871027771
 20
696.6223080933
 30
0.0
 11
72.3002849287
 21
689.9533833567
 31
0.0
  0
SPLINE
  5
8A
330
75
100
AcDbEntity
  8
$DDT_AUDIT_GENERATED_(77)
  6
Continuous
 62
     7
100
AcDbSpline
210
0.0
220
0.0
230
1.0
 70
     8
 71
     3
 72
    14
 73
    10
 74
     0
 42
0.0000000030442619
 43
0.0000000001
 40
0.0
 40
0.0
 40
0.0
 40
0.0
 40
0.0695040700203672
 40
0.1481527609394311
 40
0.2452133157016953
 40
0.3640668309405864
 40
0.4980867551741929
 40
0.6464548021204107
 40
1.0
 40
1.0
 40
1.0
 40
1.0
 10
174.1829383966171
 20
592.060927842035
 30
0.0
 10
174.2903199782026
 20
592.1624132476229
 30
0.0
 10
174.4842968338713
 20
592.3506129503442
 30
0.0
 10
174.7530770713491
 20
592.7184433209441
 30
0.0
 10
174.9367041105124
 20
593.1698854543874
 30
0.0
 10
175.0481278300053
 20
593.6994900126446
 30
0.0
 10
175.0905163257461
 20
594.2030934503741
 30
0.0
 10
175.0260650469117
 20
594.7307720801565
 30
0.0
 10
174.9006717359718
 20
594.8799042825448
 30
0.0
 10
174.7872910025074
 20
594.9794731670027
 30
0.0
  0
SPLINE
  5
8B
330
75
100
AcDbEntity
  8
$DDT_AUDIT_GENERATED_(77)
  6
Continuous
 62
     7
100
AcDbSpline
210
0.0
220
0.0
230
1.0
 70
     8
 71
     3
 72
     8
 73
     4
 74
     0
 42
0.0000000213878612
 43
0.0000000001
 40
0.0
 40
0.0
 40
0.0
 40
0.0
 40
1.0
 40
1.0
 40
1.0
 40
1.0
 10
71.38011678292241
 20
558.7614468396349
 30
0.0
 10
71.15855014060344
 20
558.6856342998998
 30
0.0
 10
71.0459873710457
 20
558.6013762444693
 30
0.0
 10
71.04242847424922
 20
558.5086726733434
 30
0.0
  0
LINE
  5
8C
330
75
100
AcDbEntity
  8
$DDT_AUDIT_GENERATED_(77)
  6
Continuous
 62
     7
100
AcDbLine
 10
73.5419884628
 20
555.8907731057
 30
0.0
 11
73.5420776824
 21
541.514424666
 31
0.0
  0
ARC
  5
8D
330
75
100
AcDbEntity
  8
$DDT_AUDIT_GENERATED_(77)
  6
Continuous
 62
     7
100
AcDbCircle
 10
10.0139367153
 20
764.2116123806
 30
0.0
 40
237.8953431295784
100
AcDbArc
 50
311.9680428439
 51
313.686902619
  0
SPLINE
  5
8E
330
75
100
AcDbEntity
  8
$DDT_AUDIT_GENERATED_(77)
  6
Continuous
 62
     7
100
AcDbSpline
210
0.0
220
0.0
230
1.0
 70
     8
 71
     3
 72
    20
 73
    16
 74
     0
 42
0.0000000004007445
 43
0.0000000001
 40
0.0
 40
0.0
 40
0.0
 40
0.0
 40
0.091113178036899
 40
0.1720618428029409
 40
0.2473024781636648
 40
0.3202615725643937
 40
0.4177524890288576
 40
0.5179475521385077
 40
0.6199141247338799
 40
0.7152559298580843
 40
0.8015171153568069
 40
0.8772344681818242
 40
0.9411068429368017
 40
0.9921964173453414
 40
1.0
 40
1.0
 40
1.0
 40
1.0
 10
120.6762805141566
 20
541.5144246659682
 30
0.0
 10
120.6630521525745
 20
542.3384622825454
 30
0.0
 10
120.6609392276398
 20
543.6548659005448
 30
0.0
 10
121.0611119774073
 20
545.7253137017657
 30
0.0
 10
121.7372497608574
 20
547.5300486600066
 30
0.0
 10
122.7541615990633
 20
549.3549606454761
 30
0.0
 10
124.1461024343595
 20
551.1795507892987
 30
0.0
 10
125.8770891711905
 20
552.9813397997926
 30
0.0
 10
127.6537136995506
 20
554.5816767618048
 30
0.0
 10
129.4217544754816
 20
556.0723070438592
 30
0.0
 10
131.0713937052585
 20
557.3930235612322
 30
0.0
 10
132.5570067969331
 20
558.5451863211043
 30
0.0
 10
133.8178200419987
 20
559.5022745358808
 30
0.0
 10
134.6736484583399
 20
560.1470801539907
 30
0.0
 10
135.0508764977177
 20
560.4281267432742
 30
0.0
 10
135.1091073340368
 20
560.4715057377364
 30
0.0
  0
LINE
  5
90
330
75
100
AcDbEntity
  8
$DDT_AUDIT_GENERATED_(8F)
  6
Continuous
 62
     7
100
AcDbLine
 10
72.2948914949
 20
697.1223080933
 30
0.0
 11
102.2948914949
 21
697.1223080933
 31
0.0
  0
ELLIPSE
  5
91
330
75
100
AcDbEntity
  8
$DDT_AUDIT_GENERATED_(8F)
  6
Continuous
 62
     7
100
AcDbEllipse
 10
87.2948914949
 20
799.7166071584
 30
0.0
 11
15.0
 21
5.551115123125782E-14
 31
0.0
210
0.0
220
0.0
230
1.0
 40
0.8038360969
 41
0.0307854641436591
 42
3.107171478865708
  0
LINE
  5
92
330
75
100
AcDbEntity
  8
$DDT_AUDIT_GENERATED_(8F)
  6
Continuous
 62
     7
100
AcDbLine
 10
72.2948914949
 20
707.9644229154
 30
0.0
 11
72.2948914949
 21
697.1223080933
 31
0.0
  0
LINE
  5
93
330
75
100
AcDbEntity
  8
$DDT_AUDIT_GENERATED_(8F)
  6
Continuous
 62
     7
100
AcDbLine
 10
102.2948914949
 20
697.1223080933
 30
0.0
 11
102.2948914949
 21
707.9644229154
 31
0.0
  0
LINE
  5
94
330
75
100
AcDbEntity
  8
$DDT_AUDIT_GENERATED_(8F)
  6
Continuous
 62
     7
100
AcDbLine
 10
72.2948914949
 20
755.5060206669
 30
0.0
 11
72.2948914949
 21
707.9644229154
 31
0.0
  0
LINE
  5
95
330
75
100
AcDbEntity
  8
$DDT_AUDIT_GENERATED_(8F)
  6
Continuous
 62
     7
100
AcDbLine
 10
102.2948914949
 20
707.9644229154
 30
0.0
 11
102.2948914949
 21
755.5068244882
 31
0.0
  0
LINE
  5
96
330
75
100
AcDbEntity
  8
$DDT_AUDIT_GENERATED_(8F)
  6
Continuous
 62
     7
100
AcDbLine
 10
102.2948914949
 20
796.1840829862
 30
0.0
 11
102.2948914949
 21
799.3804772037
 31
0.0
  0
ARC
  5
97
330
75
100
AcDbEntity
  8
$DDT_AUDIT_GENERATED_(8F)
  6
Continuous
 62
     7
100
AcDbCircle
 10
87.2948914949
 20
823.1215704977
 30
0.0
 40
15.0
100
AcDbArc
 50
0.0
 51
180.0
  0
LINE
  5
98
330
75
100
AcDbEntity
  8
$DDT_AUDIT_GENERATED_(8F)
  6
Continuous
 62
     7
100
AcDbLine
 10
72.2948914949
 20
823.1215704977
 30
0.0
 11
72.2948914949
 21
816.3528791541
 31
0.0
  0
LINE
  5
99
330
75
100
AcDbEntity
  8
$DDT_AUDIT_GENERATED_(8F)
  6
Continuous
 62
     7
100
AcDbLine
 10
102.2948914949
 20
816.3528791541
 30
0.0
 11
102.2948914949
 21
823.1215704977
 31
0.0
  0
LINE
  5
9A
330
75
100
AcDbEntity
  8
$DDT_AUDIT_GENERATED_(8F)
  6
Continuous
 62
     7
100
AcDbLine
 10
72.2948914949
 20
816.3528791541
 30
0.0
 11
72.2948914949
 21
805.0388843333
 31
0.0
  0
LINE
  5
9B
330
75
100
AcDbEntity
  8
$DDT_AUDIT_GENERATED_(8F)
  6
Continuous
 62
     7
100
AcDbLine
 10
102.2948914949
 20
805.0388843333
 30
0.0
 11
102.2948914949
 21
816.3528791541
 31
0.0
  0
LINE
  5
9C
330
75
100
AcDbEntity
  8
$DDT_AUDIT_GENERATED_(8F)
  6
Continuous
 62
     7
100
AcDbLine
 10
102.2948914949
 20
799.7166071584
 30
0.0
 11
102.2948914949
 21
805.0388843333
 31
0.0
  0
LINE
  5
9D
330
75
100
AcDbEntity
  8
$DDT_AUDIT_GENERATED_(8F)
  6
Continuous
 62
     7
100
AcDbLine
 10
72.2948914949
 20
805.0388843333
 30
0.0
 11
72.2948914949
 21
800.1134660186
 31
0.0
  0
LINE
  5
9F
330
75
100
AcDbEntity
  8
$DDT_AUDIT_GENERATED_(9E)
  6
Continuous
 62
     7
100
AcDbLine
 10
101.7603676364
 20
696.6223080933
 30
0.0
 11
72.7948914949
 21
696.6223080933
 31
0.0
  0
LINE
  5
A0
330
75
100
AcDbEntity
  8
$DDT_AUDIT_GENERATED_(9E)
  6
Continuous
 62
     7
100
AcDbLine
 10
101.7603676364
 20
696.6223080933
 30
0.0
 11
101.7603676364
 21
697.1223080933
 31
0.0
  0
LINE
  5
A1
330
75
100
AcDbEntity
  8
$DDT_AUDIT_GENERATED_(9E)
  6
Continuous
 62
     7
100
AcDbLine
 10
72.7948914949
 20
697.1223080933
 30
0.0
 11
72.7948914949
 21
696.6223080933
 31
0.0
  0
LINE
  5
A3
330
75
100
AcDbEntity
  8
$DDT_AUDIT_GENERATED_(A2)
  6
Continuous
 62
     7
100
AcDbLine
 10
164.6892821542
 20
567.5674528667
 30
0.0
 11
160.7773202119
 21
561.2086494835
 31
0.0
  0
LINE
  5
A4
330
75
100
AcDbEntity
  8
$DDT_AUDIT_GENERATED_(A2)
  6
Continuous
 62
     7
100
AcDbLine
 10
162.3434607298
 20
563.5635297344
 30
0.0
 11
162.2582880363
 21
563.615928325
 31
0.0
  0
LINE
  5
A5
330
75
100
AcDbEntity
  8
$DDT_AUDIT_GENERATED_(A2)
  6
Continuous
 62
     7
100
AcDbLine
 10
163.6953443672
 20
565.7609852245
 30
0.0
 11
163.6101716737
 21
565.8133838151
 31
0.0
  0
ARC
  5
A6
330
75
100
AcDbEntity
  8
$DDT_AUDIT_GENERATED_(A2)
  6
Continuous
 62
     7
100
AcDbCircle
 10
149.3499953631
 20
577.4041073296
 30
0.0
 40
20.0
100
AcDbArc
 50
284.0861088204
 51
302.6982797351
  0
ARC
  5
A7
330
75
100
AcDbEntity
  8
$DDT_AUDIT_GENERATED_(A2)
  6
Continuous
 62
     7
100
AcDbCircle
 10
159.0738663436
 20
562.2566212954
 30
0.0
 40
2.0
100
AcDbArc
 50
302.6982797351
 51
328.4
  0
LINE
  5
A9
330
75
100
AcDbEntity
  8
$DDT_AUDIT_GENERATED_(A8)
  6
Continuous
 62
     7
100
AcDbLine
 10
165.0689931707
 20
649.5688968517
 30
0.0
 11
165.067372366
 21
649.564012611
 31
0.0
  0
LINE
  5
AA
330
75
100
AcDbEntity
  8
$DDT_AUDIT_GENERATED_(A8)
  6
Continuous
 62
     7
100
AcDbLine
 10
175.6828910553
 20
570.1353800861
 30
0.0
 11
170.6374010225
 21
572.9988317656
 31
0.0
  0
SPLINE
  5
AB
330
75
100
AcDbEntity
  8
$DDT_AUDIT_GENERATED_(A8)
  6
Continuous
 62
     7
100
AcDbSpline
210
0.0
220
0.0
230
1.0
 70
     8
 71
     3
 72
    10
 73
     6
 74
     0
 42
0.0000000001108556
 43
0.0000000001
 40
0.0
 40
0.0
 40
0.0
 40
0.0
 40
0.2499999999999999
 40
0.2499999999999999
 40
0.3946320543353703
 40
0.3946320543353703
 40
0.3946320543353703
 40
0.3946320543353703
 10
165.0672135556245
 20
649.5641902794762
 30
0.0
 10
170.0746073448941
 20
643.9622032959064
 30
0.0
 10
174.6507042960476
 20
637.9685081797985
 30
0.0
 10
180.8169661931368
 20
627.8604999271149
 30
0.0
 10
182.8630974314682
 20
624.0094237419966
 30
0.0
 10
184.5872438678583
 20
620.0234962713982
 30
0.0
  0
SPLINE
  5
AC
330
75
100
AcDbEntity
  8
$DDT_AUDIT_GENERATED_(A8)
  6
Continuous
 62
     7
100
AcDbSpline
210
0.0
220
0.0
230
1.0
 70
     8
 71
     3
 72
    12
 73
     8
 74
     0
 42
0.0000000001108337
 43
0.0000000001
 40
0.819144947041745
 40
0.819144947041745
 40
0.819144947041745
 40
0.819144947041745
 40
0.8749999999999998
 40
0.8749999999999998
 40
0.9374999999999999
 40
0.9374999999999999
 40
0.9999968575872148
 40
0.9999968575872148
 40
0.9999968575872148
 40
0.9999968575872148
 10
187.4476992473498
 20
582.9858540466425
 30
0.0
 10
186.8073729732765
 20
581.4402345957275
 30
0.0
 10
186.0400331222395
 20
579.9463316951244
 30
0.0
 10
184.1321215282877
 20
576.9193991948957
 30
0.0
 10
182.9853416891954
 20
575.443129261988
 30
0.0
 10
180.4301787646527
 20
572.720202702547
 30
0.0
 10
179.0124654516968
 20
571.4672464941922
 30
0.0
 10
177.4922704834001
 20
570.3418200199228
 30
0.0
  0
ARC
  5
AD
330
75
100
AcDbEntity
  8
$DDT_AUDIT_GENERATED_(A8)
  6
Continuous
 62
     7
100
AcDbCircle
 10
176.4303909496
 20
571.6161867387
 30
0.0
 40
1.658777994313336
100
AcDbArc
 50
243.2157042818
 51
287.7509116749
  0
SPLINE
  5
AE
330
75
100
AcDbEntity
  8
$DDT_AUDIT_GENERATED_(A8)
  6
Continuous
 62
     7
100
AcDbSpline
210
0.0
220
0.0
230
1.0
 70
     8
 71
     3
 72
    16
 73
    12
 74
     0
 42
0.0000000044817016
 43
0.0000000001
 40
0.0
 40
0.0
 40
0.0
 40
0.0
 40
0.125
 40
0.125
 40
0.25
 40
0.25
 40
0.375
 40
0.375
 40
0.5
 40
0.5
 40
0.5613927419833229
 40
0.5613927419833229
 40
0.5613927419833229
 40
0.5613927419833229
 10
172.7884806127853
 20
554.4082752609038
 30
0.0
 10
172.8698096199606
 20
554.363692896621
 30
0.0
 10
172.9502757422455
 20
554.3173639729982
 30
0.0
 10
173.1154631114324
 20
554.2333188940667
 30
0.0
 10
173.2013178027332
 20
554.1947883225603
 30
0.0
 10
173.380970792443
 20
554.1493061486129
 30
0.0
 10
173.4753653441639
 20
554.1429379677683
 30
0.0
 10
173.6590483690539
 20
554.16649717939
 30
0.0
 10
173.7488015083229
 20
554.1958872178485
 30
0.0
 10
173.8733905284779
 20
554.2545818330738
 30
0.0
 10
173.9130817001753
 20
554.2761556909886
 30
0.0
 10
173.951837270917
 20
554.2992886167316
 30
0.0
  0
SPLINE
  5
AF
330
75
100
AcDbEntity
  8
$DDT_AUDIT_GENERATED_(A8)
  6
Continuous
 62
     7
100
AcDbSpline
210
0.0
220
0.0
230
1.0
 70
     8
 71
     3
 72
    10
 73
     6
 74
     0
 42
0.0000000045096165
 43
0.0000000001
 40
0.6753538426068966
 40
0.6753538426068966
 40
0.6753538426068966
 40
0.6753538426068966
 40
0.75
 40
0.75
 40
1.0
 40
1.0
 40
1.0
 40
1.0
 10
174.1604872616054
 20
554.4400915368208
 30
0.0
 10
174.2049052838509
 20
554.4727314255153
 30
0.0
 10
174.2487440126575
 20
554.5062920033648
 30
0.0
 10
174.4378385726201
 20
554.6540240378421
 30
0.0
 10
174.580626477317
 20
554.7713566081652
 30
0.0
 10
174.724202428641
 20
554.8876947296799
 30
0.0
  0
ARC
  5
B0
330
75
100
AcDbEntity
  8
$DDT_AUDIT_GENERATED_(A8)
  6
Continuous
 62
     7
100
AcDbCircle
 10
201.0136855869
 20
655.2649793347
 30
0.0
 40
36.47621788109416
100
AcDbArc
 50
150.2027709149
 51
188.5848851818
  0
ARC
  5
B1
330
75
100
AcDbEntity
  8
$DDT_AUDIT_GENERATED_(A8)
  6
Continuous
 62
     7
100
AcDbCircle
 10
169.8284442118
 20
673.2046423973
 30
0.0
 40
0.5042114167066333
100
AcDbArc
 50
143.2148406186
 51
158.2870251965
  0
ARC
  5
B2
330
75
100
AcDbEntity
  8
$DDT_AUDIT_GENERATED_(A8)
  6
Continuous
 62
     7
100
AcDbCircle
 10
-136.347465024
 20
713.977101785
 30
0.0
 40
308.3107676902185
100
AcDbArc
 50
348.6511854669
 51
348.8244363884
  0
ARC
  5
B3
330
75
100
AcDbEntity
  8
$DDT_AUDIT_GENERATED_(A8)
  6
Continuous
 62
     7
100
AcDbCircle
 10
574.5420149032
 20
576.0199240093
 30
0.0
 40
415.8442236594631
100
AcDbArc
 50
168.9051335801
 51
169.1606957997
  0
LINE
  5
B4
330
75
100
AcDbEntity
  8
$DDT_AUDIT_GENERATED_(A8)
  6
Continuous
 62
     7
100
AcDbLine
 10
166.81886579
 20
657.8475726728
 30
0.0
 11
166.4684481493
 21
656.0427962019
 31
0.0
  0
ARC
  5
B5
330
75
100
AcDbEntity
  8
$DDT_AUDIT_GENERATED_(A8)
  6
Continuous
 62
     7
100
AcDbCircle
 10
591.8853969965
 20
576.7637826012
 30
0.0
 40
432.7302406816994
100
AcDbArc
 50
168.7161696398
 51
169.2002584253
  0
LINE
  5
B6
330
75
100
AcDbEntity
  8
$DDT_AUDIT_GENERATED_(A8)
  6
Continuous
 62
     7
100
AcDbLine
 10
168.2339901852
 20
665.0141727055
 30
0.0
 11
167.5191369626
 21
661.4360039239
 31
0.0
  0
LINE
  5
B7
330
75
100
AcDbEntity
  8
$DDT_AUDIT_GENERATED_(A8)
  6
Continuous
 62
     7
100
AcDbLine
 10
168.6018789643
 20
666.8019212264
 30
0.0
 11
168.2339940106
 21
665.0141915911
 31
0.0
  0
LINE
  5
B8
330
75
100
AcDbEntity
  8
$DDT_AUDIT_GENERATED_(A8)
  6
Continuous
 62
     7
100
AcDbLine
 10
170.0736274112
 20
672.8758087722
 30
0.0
 11
169.9705341964
 21
672.5282805916
 31
0.0
  0
LINE
  5
B9
330
75
100
AcDbEntity
  8
$DDT_AUDIT_GENERATED_(A8)
  6
Continuous
 62
     7
100
AcDbLine
 10
170.1484749426
 20
673.1447292208
 30
0.0
 11
170.073641255
 21
672.8758565123
 31
0.0
  0
SPLINE
  5
BA
330
75
100
AcDbEntity
  8
$DDT_AUDIT_GENERATED_(A8)
  6
Continuous
 62
     7
100
AcDbSpline
210
0.0
220
0.0
230
1.0
 70
     8
 71
     3
 72
    30
 73
    26
 74
     0
 42
0.0000000012243168
 43
0.0000000001
 40
0.0
 40
0.0
 40
0.0
 40
0.0
 40
0.0000134284671598
 40
0.0000134284671598
 40
0.0000134284671598
 40
0.0626705372138091
 40
0.1253276459604584
 40
0.1879847547071077
 40
0.2506418634537569
 40
0.3132989722004063
 40
0.3759560809470555
 40
0.4386131896937048
 40
0.4699417440670295
 40
0.5012702984403541
 40
0.5325988528136788
 40
0.5639274071870034
 40
0.595255961560328
 40
0.6265845159336527
 40
0.6892416246803019
 40
0.7205701790536266
 40
0.7518987334269512
 40
0.8145558421736006
 40
0.8772129509202499
 40
0.9398700596668991
 40
1.0
 40
1.0
 40
1.0
 40
1.0
 10
175.6828910553268
 20
570.1353800861034
 30
0.0
 10
175.6828911379794
 20
570.1353801486732
 30
0.0
 10
175.6828911670547
 20
570.1353801337863
 30
0.0
 10
175.6828911961299
 20
570.1353801188994
 30
0.0
 10
175.6830268609033
 20
570.135310656662
 30
0.0
 10
175.6833228115481
 20
570.1405375984582
 30
0.0
 10
175.6691826353867
 20
570.0902270954265
 30
0.0
 10
175.65051588964
 20
570.0085457195875
 30
0.0
 10
175.6293548319052
 20
569.896844836465
 30
0.0
 10
175.6026034577784
 20
569.7375962541627
 30
0.0
 10
175.5640077289021
 20
569.5019031172362
 30
0.0
 10
175.5150527449003
 20
569.2092205852748
 30
0.0
 10
175.4617495944718
 20
568.9001805853211
 30
0.0
 10
175.4142500537542
 20
568.6297687211361
 30
0.0
 10
175.3592068392531
 20
568.3216400064523
 30
0.0
 10
175.297258788689
 20
567.9797656523167
 30
0.0
 10
175.2292792205991
 20
567.6090660479233
 30
0.0
 10
175.1319547201142
 20
567.083313392857
 30
0.0
 10
175.0264992511393
 20
566.5196714200052
 30
0.0
 10
174.9156119380078
 20
565.9293632247502
 30
0.0
 10
174.8024193278919
 20
565.3274320546209
 30
0.0
 10
174.660660578255
 20
564.5731806645431
 30
0.0
 10
174.4995486635204
 20
563.7121744070618
 30
0.0
 10
174.3478579201004
 20
562.8950641189646
 30
0.0
 10
174.2510472227482
 20
562.3691954924183
 30
0.0
 10
174.2041791001133
 20
562.113711585155
 30
0.0
  0
SPLINE
  5
BB
330
75
100
AcDbEntity
  8
$DDT_AUDIT_GENERATED_(A8)
  6
Continuous
 62
     7
100
AcDbSpline
210
0.0
220
0.0
230
1.0
 70
     8
 71
     3
 72
     8
 73
     4
 74
     0
 42
0.0000000000802967
 43
0.0000000001
 40
0.0
 40
0.0
 40
0.0
 40
0.0
 40
0.0088769478883035
 40
0.0088769478883035
 40
0.0088769478883035
 40
0.0088769478883035
 10
184.1180047030671
 20
562.7142869825898
 30
0.0
 10
184.3843915530898
 20
562.9685223752068
 30
0.0
 10
184.6492279725633
 20
563.2248166194975
 30
0.0
 10
184.9123736500281
 20
563.4831222858512
 30
0.0
  0
SPLINE
  5
BC
330
75
100
AcDbEntity
  8
$DDT_AUDIT_GENERATED_(A8)
  6
Continuous
 62
     7
100
AcDbSpline
210
0.0
220
0.0
230
1.0
 70
     8
 71
     3
 72
    20
 73
    16
 74
     0
 42
0.0000000000803265
 43
0.0000000001
 40
0.0941657169758552
 40
0.0941657169758552
 40
0.0941657169758552
 40
0.0941657169758552
 40
0.125
 40
0.125
 40
0.1875000000000001
 40
0.1875000000000001
 40
0.25
 40
0.25
 40
0.3124999999999999
 40
0.3124999999999999
 40
0.3749999999999998
 40
0.3749999999999998
 40
0.4999999999999999
 40
0.4999999999999999
 40
0.5347274252439983
 40
0.5347274252439983
 40
0.5347274252439983
 40
0.5347274252439983
 10
191.9073795603433
 20
571.4437653697703
 30
0.0
 10
192.666777396735
 20
572.4614329714076
 30
0.0
 10
193.3930342784429
 20
573.5002393034362
 30
0.0
 10
195.4848695143469
 20
576.7126114694188
 30
0.0
 10
196.7411160588971
 20
578.9559138474567
 30
0.0
 10
198.9232749333667
 20
583.6532200141799
 30
0.0
 10
199.8464724330911
 20
586.1117880341917
 30
0.0
 10
201.2823676410119
 20
591.1102426703654
 30
0.0
 10
201.8047086484115
 20
593.6835505791012
 30
0.0
 10
202.4462024866903
 20
598.8242212439336
 30
0.0
 10
202.5705284165047
 20
601.3988020246184
 30
0.0
 10
202.4193260604249
 20
609.1338740096957
 30
0.0
 10
201.6073005186854
 20
614.3245176298884
 30
0.0
 10
199.940549456775
 20
620.7481402531221
 30
0.0
 10
199.5403314948823
 20
622.1353248982764
 30
0.0
 10
199.1060910525358
 20
623.5125234676735
 30
0.0
  0
SPLINE
  5
BD
330
75
100
AcDbEntity
  8
$DDT_AUDIT_GENERATED_(A8)
  6
Continuous
 62
     7
100
AcDbSpline
210
0.0
220
0.0
230
1.0
 70
     8
 71
     3
 72
     8
 73
     4
 74
     0
 42
0.0000000000801409
 43
0.0000000001
 40
0.98382506807049
 40
0.98382506807049
 40
0.98382506807049
 40
0.98382506807049
 40
1.0
 40
1.0
 40
1.0
 40
1.0
 10
171.4665345468181
 20
671.9285453503719
 30
0.0
 10
171.0538866465107
 20
672.459802547794
 30
0.0
 10
170.639402004913
 20
672.9897285529479
 30
0.0
 10
170.2231583963025
 20
673.5183777399973
 30
0.0
  0
ARC
  5
BE
330
75
100
AcDbEntity
  8
$DDT_AUDIT_GENERATED_(A8)
  6
Continuous
 62
     7
100
AcDbCircle
 10
166.1520219999
 20
561.5857805389
 30
0.0
 40
10.87872376751865
100
AcDbArc
 50
322.4802064499
 51
327.5208299923
  0
SPLINE
  5
BF
330
75
100
AcDbEntity
  8
$DDT_AUDIT_GENERATED_(A8)
  6
Continuous
 62
     7
100
AcDbSpline
210
0.0
220
0.0
230
1.0
 70
     8
 71
     3
 72
    20
 73
    16
 74
     0
 42
0.0000000008734896
 43
0.0000000001
 40
0.0
 40
0.0
 40
0.0
 40
0.0
 40
0.25
 40
0.25
 40
0.375
 40
0.375
 40
0.5
 40
0.5
 40
0.625
 40
0.625
 40
0.75
 40
0.75
 40
0.875
 40
0.875
 40
1.0
 40
1.0
 40
1.0
 40
1.0
 10
175.3295378740153
 20
555.7445620708958
 30
0.0
 10
175.7679370033103
 20
556.3468389046116
 30
0.0
 10
176.4079144604
 20
557.2129754774874
 30
0.0
 10
177.5711832577173
 20
558.6520200947808
 30
0.0
 10
177.9815792605704
 20
559.1386316128296
 30
0.0
 10
178.9533930070045
 20
560.0073273158763
 30
0.0
 10
179.4903652501694
 20
560.3539749446265
 30
0.0
 10
180.5697308705235
 20
560.9611007975393
 30
0.0
 10
181.0884151308199
 20
561.2208593570411
 30
0.0
 10
182.058518849002
 20
561.7070124214281
 30
0.0
 10
182.5077314502926
 20
561.9266960109594
 30
0.0
 10
183.2650971018596
 20
562.2913670667631
 30
0.0
 10
183.5847899269833
 20
562.4418696386687
 30
0.0
 10
184.0123858792339
 20
562.6495004919972
 30
0.0
 10
184.1180291039186
 20
562.7142699909919
 30
0.0
 10
184.1180047030671
 20
562.7142869825898
 30
0.0
  0
ARC
  5
C0
330
75
100
AcDbEntity
  8
$DDT_AUDIT_GENERATED_(A8)
  6
Continuous
 62
     7
100
AcDbCircle
 10
183.9108802954
 20
562.9313111284
 30
0.0
 40
0.3000000002035296
100
AcDbArc
 50
288.0453484461
 51
313.6629442777
  0
LINE
  5
C1
330
75
100
AcDbEntity
  8
$DDT_AUDIT_GENERATED_(A8)
  6
Continuous
 62
     7
100
AcDbLine
 10
172.7884806128
 20
554.4082752609
 30
0.0
 11
161.3808511577
 21
561.4262957232
 31
0.0
  0
SPLINE
  5
C2
330
75
100
AcDbEntity
  8
$DDT_AUDIT_GENERATED_(A8)
  6
Continuous
 62
     7
100
AcDbSpline
210
0.0
220
0.0
230
1.0
 70
     8
 71
     3
 72
    33
 73
    29
 74
     0
 42
0.0000000024399305
 43
0.0000000001
 40
0.0
 40
0.0
 40
0.0
 40
0.0
 40
0.0000088721442275
 40
0.0000088721442275
 40
0.0000088721442275
 40
0.0881025967876455
 40
0.1321494591093545
 40
0.1761963214310635
 40
0.198219752591918
 40
0.2642900460744814
 40
0.3523837707178994
 40
0.4404774953613173
 40
0.4845243576830263
 40
0.5285712200047352
 40
0.5726180823264443
 40
0.6166649446481532
 40
0.6607118069698622
 40
0.7047586692915712
 40
0.7488055316132801
 40
0.7708289627741346
 40
0.7928523939349892
 40
0.8148758250958437
 40
0.8368992562566981
 40
0.8589226874175526
 40
0.8809461185784071
 40
0.9249929809001161
 40
0.969039843221825
 40
1.0
 40
1.0
 40
1.0
 40
1.0
 10
172.7884806127853
 20
554.4082752609038
 30
0.0
 10
172.7884806274536
 20
554.4082752536427
 30
0.0
 10
172.7884806421219
 20
554.4082752463818
 30
0.0
 10
172.7884806567902
 20
554.4082752391208
 30
0.0
 10
172.7886263019102
 20
554.4082031428914
 30
0.0
 10
172.7892376709971
 20
554.4091247971754
 30
0.0
 10
172.7954527178161
 20
554.4290367714642
 30
0.0
 10
172.8012472927779
 20
554.449251977157
 30
0.0
 10
172.8096607023343
 20
554.4806074664313
 30
0.0
 10
172.8232915586036
 20
554.5353774421442
 30
0.0
 10
172.8454902798716
 20
554.6415712302106
 30
0.0
 10
172.8682542618354
 20
554.7769851338567
 30
0.0
 10
172.892389862505
 20
554.9279971440892
 30
0.0
 10
172.9145550917599
 20
555.068092903674
 30
0.0
 10
172.9425715972337
 20
555.2417362467899
 30
0.0
 10
172.9782603699357
 20
555.454957474064
 30
0.0
 10
173.0224321154826
 20
555.7092987098074
 30
0.0
 10
173.0748225605134
 20
556.0015974722252
 30
0.0
 10
173.1242651186021
 20
556.2709028740026
 30
0.0
 10
173.1663951348142
 20
556.4977106957667
 30
0.0
 10
173.1990675610226
 20
556.6725944194933
 30
0.0
 10
173.2326234465663
 20
556.8514459726009
 30
0.0
 10
173.2668919108388
 20
557.0335703612599
 30
0.0
 10
173.3017093132885
 20
557.2183200186666
 30
0.0
 10
173.3486921754461
 20
557.4674929384522
 30
0.0
 10
173.4081887075041
 20
557.7832115495667
 30
0.0
 10
173.4729874398957
 20
558.1285381649261
 30
0.0
 10
173.5138468153133
 20
558.3474444014631
 30
0.0
 10
173.5307082161069
 20
558.4379731737915
 30
0.0
  0
ARC
  5
C3
330
75
100
AcDbEntity
  8
$DDT_AUDIT_GENERATED_(A8)
  6
Continuous
 62
     7
100
AcDbCircle
 10
-641.2160845247
 20
709.6159103689
 30
0.0
 40
828.6537907812059
100
AcDbArc
 50
349.4882014901
 51
349.7465847519
  0
LINE
  5
C4
330
75
100
AcDbEntity
  8
$DDT_AUDIT_GENERATED_(A8)
  6
Continuous
 62
     7
100
AcDbLine
 10
161.2825288492
 20
561.8390095753
 30
0.0
 11
164.9501737002
 21
567.8006811944
 31
0.0
  0
LINE
  5
C5
330
75
100
AcDbEntity
  8
$DDT_AUDIT_GENERATED_(A8)
  6
Continuous
 62
     7
100
AcDbLine
 10
165.2212627104
 20
567.6400386473
 30
0.0
 11
174.2041791001
 21
562.1137115852
 31
0.0
  0
ARC
  5
C6
330
75
100
AcDbEntity
  8
$DDT_AUDIT_GENERATED_(A8)
  6
Continuous
 62
     7
100
AcDbCircle
 10
386.7573591726
 20
426.4257212965
 30
0.0
 40
262.7160548206346
100
AcDbArc
 50
147.485237606
 51
149.0783826748
  0
SPLINE
  5
C7
330
75
100
AcDbEntity
  8
$DDT_AUDIT_GENERATED_(A8)
  6
Continuous
 62
     7
100
AcDbSpline
210
0.0
220
0.0
230
1.0
 70
     8
 71
     3
 72
    10
 73
     6
 74
     0
 42
0.0000000206981884
 43
0.0000000001
 40
0.0
 40
0.0
 40
0.0
 40
0.0
 40
0.5
 40
0.5
 40
1.0
 40
1.0
 40
1.0
 40
1.0
 10
161.2825288491993
 20
561.8390095752528
 30
0.0
 10
161.2413750923961
 20
561.7721150983002
 30
0.0
 10
161.2280127282208
 20
561.6886910712398
 30
0.0
 10
161.2644156037986
 20
561.535887793593
 30
0.0
 10
161.3139566807334
 20
561.4674494800294
 30
0.0
 10
161.3808511576762
 20
561.4262957232278
 30
0.0
  0
ARC
  5
C8
330
75
100
AcDbEntity
  8
$DDT_AUDIT_GENERATED_(A8)
  6
Continuous
 62
     7
100
AcDbCircle
 10
142.6083258206
 20
598.1440326115
 30
0.0
 40
47.32688028215179
100
AcDbArc
 50
25.7262248504
 51
27.530087271
  0
ARC
  5
C9
330
75
100
AcDbEntity
  8
$DDT_AUDIT_GENERATED_(A8)
  6
Continuous
 62
     7
100
AcDbCircle
 10
142.6083258206
 20
598.1440326115
 30
0.0
 40
47.32688028215179
100
AcDbArc
 50
341.3219542058
 51
341.6750040107
  0
ARC
  5
CA
330
75
100
AcDbEntity
  8
$DDT_AUDIT_GENERATED_(A8)
  6
Continuous
 62
     7
100
AcDbCircle
 10
142.7393414884
 20
607.6064673081
 30
0.0
 40
61.01193836968158
100
AcDbArc
 50
313.704994317
 51
314.3127110612
  0
ARC
  5
CB
330
75
100
AcDbEntity
  8
$DDT_AUDIT_GENERATED_(A8)
  6
Continuous
 62
     7
100
AcDbCircle
 10
46.5173406892
 20
568.8021132397
 30
0.0
 40
162.0486312298886
100
AcDbArc
 50
19.3085207132
 51
19.4617039613
  0
ARC
  5
CC
330
75
100
AcDbEntity
  8
$DDT_AUDIT_GENERATED_(A8)
  6
Continuous
 62
     7
100
AcDbCircle
 10
46.5176406101
 20
568.8022595817
 30
0.0
 40
162.0482997909562
100
AcDbArc
 50
19.3085069495
 51
40.241584078
  0
ARC
  5
CD
330
75
100
AcDbEntity
  8
$DDT_AUDIT_GENERATED_(A8)
  6
Continuous
 62
     7
100
AcDbCircle
 10
142.7881938805
 20
607.5687931068
 30
0.0
 40
60.95039598184674
100
AcDbArc
 50
312.5587698938
 51
326.354156968
  0
ARC
  5
CE
330
75
100
AcDbEntity
  8
$DDT_AUDIT_GENERATED_(A8)
  6
Continuous
 62
     7
100
AcDbCircle
 10
142.6083258086
 20
598.1440326119
 30
0.0
 40
47.32688029375208
100
AcDbArc
 50
341.3219542106
 51
27.5300872838
  0
ARC
  5
CF
330
75
100
AcDbEntity
  8
$DDT_AUDIT_GENERATED_(A8)
  6
Continuous
 62
     7
100
AcDbCircle
 10
165.4422258926
 20
649.8984421417
 30
0.0
 40
0.5019175675124342
100
AcDbArc
 50
188.8912147048
 51
221.6988743344
  0
SPLINE
  5
D0
330
75
100
AcDbEntity
  8
$DDT_AUDIT_GENERATED_(A8)
  6
Continuous
 62
     7
100
AcDbSpline
210
0.0
220
0.0
230
1.0
 70
     8
 71
     3
 72
    14
 73
    10
 74
     0
 42
0.0000000090669808
 43
0.0000000001
 40
0.0
 40
0.0
 40
0.0
 40
0.0
 40
0.1133797673010661
 40
0.2389098543350439
 40
0.3733904918388649
 40
0.5116778325735051
 40
0.6477031747211097
 40
0.7759547228541536
 40
1.0
 40
1.0
 40
1.0
 40
1.0
 10
170.2283400428001
 20
673.5118545280895
 30
0.0
 10
170.1987891601289
 20
673.5460514990406
 30
0.0
 10
170.1446059752431
 20
673.6064001202164
 30
0.0
 10
170.0237812907965
 20
673.677437933964
 30
0.0
 10
169.8829638260103
 20
673.7138275937244
 30
0.0
 10
169.7322757988591
 20
673.707084027929
 30
0.0
 10
169.593568705431
 20
673.6574535649112
 30
0.0
 10
169.4463498052306
 20
673.5499264380801
 30
0.0
 10
169.3870107046712
 20
673.4442180648746
 30
0.0
 10
169.3457649970948
 20
673.3650013248093
 30
0.0
  0
ARC
  5
D1
330
75
100
AcDbEntity
  8
$DDT_AUDIT_GENERATED_(A8)
  6
Continuous
 62
     7
100
AcDbCircle
 10
176.3255061959
 20
571.3951783589
 30
0.0
 40
1.455028376645733
100
AcDbArc
 50
243.2724604526
 51
294.2072355732
  0
SPLINE
  5
D2
330
75
100
AcDbEntity
  8
$DDT_AUDIT_GENERATED_(A8)
  6
Continuous
 62
     7
100
AcDbSpline
210
0.0
220
0.0
230
1.0
 70
     8
 71
     3
 72
    10
 73
     6
 74
     0
 42
0.0000000075620314
 43
0.0000000001
 40
0.0
 40
0.0
 40
0.0
 40
0.0
 40
0.2409986522401257
 40
0.6369452029457562
 40
1.0
 40
1.0
 40
1.0
 40
1.0
 10
173.7801509520465
 20
554.2416680276528
 30
0.0
 10
173.8860834181052
 20
554.2848809380638
 30
0.0
 10
174.1247423346391
 20
554.3810043736034
 30
0.0
 10
174.4627109823851
 20
554.6897802269254
 30
0.0
 10
174.7053718835918
 20
554.8876933355374
 30
0.0
 10
174.8412949005145
 20
555.0053624138332
 30
0.0
  0
ARC
  5
D3
330
75
100
AcDbEntity
  8
$DDT_AUDIT_GENERATED_(A8)
  6
Continuous
 62
     7
100
AcDbCircle
 10
-31.5746362892
 20
210.1020254841
 30
0.0
 40
415.4198032705026
100
AcDbArc
 50
60.3337282875
 51
60.5096157418
  0
LINE
  5
D5
330
75
100
AcDbEntity
  8
$DDT_AUDIT_GENERATED_(D4)
  6
Continuous
 62
     7
100
AcDbLine
 10
71.1058185639
 20
512.7761813446
 30
0.0
 11
123.1073090625
 21
512.7761813446
 31
0.0
  0
LINE
  5
D6
330
75
100
AcDbEntity
  8
$DDT_AUDIT_GENERATED_(D4)
  6
Continuous
 62
     7
100
AcDbLine
 10
73.1065593697
 20
517.7761818811
 30
0.0
 11
121.1065682567
 21
517.7761818811
 31
0.0
  0
SPLINE
  5
D7
330
75
100
AcDbEntity
  8
$DDT_AUDIT_GENERATED_(D4)
  6
Continuous
 62
     7
100
AcDbSpline
210
0.0
220
0.0
230
1.0
 70
     8
 71
     3
 72
    11
 73
     7
 74
     0
 42
0.0000000018099522
 43
0.0000000001
 40
0.0
 40
0.0
 40
0.0
 40
0.0
 40
0.326597157062959
 40
0.6164174682202582
 40
0.8180047170622623
 40
1.0
 40
1.0
 40
1.0
 40
1.0
 10
73.10655936974288
 20
517.7761818810573
 30
0.0
 10
72.71692684034737
 20
517.245481024826
 30
0.0
 10
72.10994767525287
 20
516.3876873755516
 30
0.0
 10
71.43992037184347
 20
515.0184445173207
 30
0.0
 10
71.09112489691347
 20
513.8024685692911
 30
0.0
 10
71.09796550665448
 20
513.1429744640124
 30
0.0
 10
71.10581856392048
 20
512.7761813446155
 30
0.0
  0
SPLINE
  5
D8
330
75
100
AcDbEntity
  8
$DDT_AUDIT_GENERATED_(D4)
  6
Continuous
 62
     7
100
AcDbSpline
210
0.0
220
0.0
230
1.0
 70
     8
 71
     3
 72
    11
 73
     7
 74
     0
 42
0.0000000018088506
 43
0.0000000001
 40
0.0
 40
0.0
 40
0.0
 40
0.0
 40
0.2345128290213758
 40
0.5027892189570066
 40
0.7402578101526371
 40
1.0
 40
1.0
 40
1.0
 40
1.0
 10
123.1073090624964
 20
512.7761813446153
 30
0.0
 10
123.1053561778599
 20
513.2487583019937
 30
0.0
 10
123.0919784605727
 20
514.116416398279
 30
0.0
 10
122.5955685627746
 20
515.4215518248559
 30
0.0
 10
121.9130720552196
 20
516.6680113478664
 30
0.0
 10
121.4174102063132
 20
517.3550547196477
 30
0.0
 10
121.106568256674
 20
517.7761818810571
 30
0.0
  0
ELLIPSE
  5
DA
330
75
100
AcDbEntity
  8
$DDT_AUDIT_GENERATED_(D9)
  6
Continuous
 62
     7
100
AcDbEllipse
 10
176.4587598555
 20
563.0748616402
 30
0.0
 11
0.2858227956221843
 21
-4.46298207089603
 31
0.0
210
0.0
220
0.0
230
1.0
 40
0.5
 41
0.2058853103590984
 42
0.3977021138385209
  0
ELLIPSE
  5
DB
330
75
100
AcDbEntity
  8
$DDT_AUDIT_GENERATED_(D9)
  6
Continuous
 62
     7
100
AcDbEllipse
 10
174.3975819282
 20
559.5865620065
 30
0.0
 11
4.026441164566158
 21
1.720381272535591
 31
0.0
210
0.0
220
0.0
230
1.0
 40
0.5
 41
-1.034368534267247
 42
-0.8095466885724267
  0
SPLINE
  5
DD
330
75
100
AcDbEntity
  8
$DDT_AUDIT_GENERATED_(DC)
  6
Continuous
 62
     7
100
AcDbSpline
210
0.0
220
0.0
230
1.0
 70
     8
 71
     3
 72
    24
 73
    20
 74
     0
 42
0.0000000002318626
 43
0.0000000001
 40
0.0
 40
0.0
 40
0.0
 40
0.0
 40
0.2499999999999998
 40
0.2499999999999998
 40
0.3124999999999998
 40
0.3124999999999998
 40
0.3749999999999998
 40
0.3749999999999998
 40
0.4999999999999999
 40
0.4999999999999999
 40
0.5625
 40
0.5625
 40
0.625
 40
0.625
 40
0.6875000000000001
 40
0.6875000000000001
 40
0.7500000000000001
 40
0.7500000000000001
 40
0.9829294905330455
 40
0.9829294905330455
 40
0.9829294905330455
 40
0.9829294905330455
 10
102.2794193170822
 20
799.3281951998497
 30
0.0
 10
102.2592157400063
 20
802.4907922495584
 30
0.0
 10
100.6282075955999
 20
805.594929978396
 30
0.0
 10
97.1679971875226
 20
808.3424508276368
 30
0.0
 10
96.39441764656877
 20
808.8420766236771
 30
0.0
 10
94.76798907734978
 20
809.7005603763172
 30
0.0
 10
93.90849876355634
 20
810.065918428974
 30
0.0
 10
91.19070137154318
 20
810.9696435564739
 30
0.0
 10
89.26548138690632
 20
811.294810018538
 30
0.0
 10
86.32112583936032
 20
811.2961408280507
 30
0.0
 10
85.35528379811764
 20
811.2146968721365
 30
0.0
 10
83.45167356112051
 20
810.9045354424487
 30
0.0
 10
82.50475556978465
 20
810.6720539899042
 30
0.0
 10
80.70098791240693
 20
810.0756733605401
 30
0.0
 10
79.84081268446322
 20
809.7130025414534
 30
0.0
 10
78.2054781712089
 20
808.8562369004009
 30
0.0
 10
77.43192624039288
 20
808.3603583388555
 30
0.0
 10
74.15464912180916
 20
805.7860364445323
 30
0.0
 10
72.52357349890227
 20
802.9525915612002
 30
0.0
 10
72.33399828481882
 20
800.0165732072824
 30
0.0
  0
ARC
  5
DE
330
75
100
AcDbEntity
  8
$DDT_AUDIT_GENERATED_(DC)
  6
Continuous
 62
     7
100
AcDbCircle
 10
-337.8934420701
 20
807.6858756578
 30
0.0
 40
410.2934678127745
100
AcDbArc
 50
353.0483906474
 51
358.8385993679
  0
SPLINE
  5
DF
330
75
100
AcDbEntity
  8
$DDT_AUDIT_GENERATED_(DC)
  6
Continuous
 62
     7
100
AcDbSpline
210
0.0
220
0.0
230
1.0
 70
     8
 71
     3
 72
    31
 73
    27
 74
     0
 42
0.0000000002784002
 43
0.0000000001
 40
0.0
 40
0.0
 40
0.0
 40
0.0
 40
0.0245649110745285
 40
0.049317735088512
 40
0.0742115871540742
 40
0.0991951477262135
 40
0.1242150904812169
 40
0.1492185498530655
 40
0.174155721327419
 40
0.1989867718029874
 40
0.2236862979943964
 40
0.2482288768000837
 40
0.2876810954112163
 40
0.373756787185939
 40
0.4474523107717853
 40
0.5009848153977015
 40
0.5535070649896996
 40
0.6274953001870812
 40
0.7100526345916977
 40
0.7525270323936487
 40
0.7797541504536969
 40
0.8126851155089074
 40
0.8513719691134372
 40
0.8957436892680731
 40
0.9454842765047986
 40
1.0
 40
1.0
 40
1.0
 40
1.0
 10
104.8507171963189
 20
757.1015046995196
 30
0.0
 10
104.8427749875112
 20
757.1529245411289
 30
0.0
 10
104.8268298147888
 20
757.2561575680703
 30
0.0
 10
104.6807856793229
 20
757.4068323295721
 30
0.0
 10
104.4473848345498
 20
757.5551966286789
 30
0.0
 10
104.1189202064196
 20
757.7008073431352
 30
0.0
 10
103.6991697639066
 20
757.8436796882207
 30
0.0
 10
103.1888625083043
 20
757.9837554351444
 30
0.0
 10
102.5892440413044
 20
758.1209404295931
 30
0.0
 10
101.9022146228953
 20
758.2555395162614
 30
0.0
 10
101.131121133839
 20
758.3855621284956
 30
0.0
 10
100.1140487511737
 20
758.5417367439089
 30
0.0
 10
98.12852350293427
 20
758.7582323603
 30
0.0
 10
94.91425445229734
 20
759.0058822938937
 30
0.0
 10
90.87000813116966
 20
759.1713321769638
 30
0.0
 10
87.26638155780209
 20
759.2207800281997
 30
0.0
 10
83.66035854669755
 20
759.1692950528679
 30
0.0
 10
79.69965444870813
 20
759.0062349176725
 30
0.0
 10
76.48305273513162
 20
758.7618711589398
 30
0.0
 10
74.46129039854209
 20
758.5420404240133
 30
0.0
 10
73.27922540144444
 20
758.371113570196
 30
0.0
 10
72.28072764469424
 20
758.1989480787444
 30
0.0
 10
71.31174648191107
 20
757.987567701344
 30
0.0
 10
70.47985834760453
 20
757.7351093849734
 30
0.0
 10
69.85959130613526
 20
757.4396246186478
 30
0.0
 10
69.78271938041925
 20
757.2159910346165
 30
0.0
 10
69.74252297775108
 20
757.099052821997
 30
0.0
  0
SPLINE
  5
E0
330
75
100
AcDbEntity
  8
$DDT_AUDIT_GENERATED_(DC)
  6
Continuous
 62
     7
100
AcDbSpline
210
0.0
220
0.0
230
1.0
 70
     8
 71
     3
 72
     8
 73
     4
 74
     0
 42
0.0000000014561125
 43
0.0000000001
 40
0.0
 40
0.0
 40
0.0
 40
0.0
 40
0.0076498028352643
 40
0.0076498028352643
 40
0.0076498028352643
 40
0.0076498028352643
 10
69.38384586428556
 20
758.0276390537819
 30
0.0
 10
69.38734791843622
 20
758.0447701962645
 30
0.0
 10
69.39084988769146
 20
758.0619003938409
 30
0.0
 10
69.39489783738165
 20
758.0789934875373
 30
0.0
  0
SPLINE
  5
E1
330
75
100
AcDbEntity
  8
$DDT_AUDIT_GENERATED_(DC)
  6
Continuous
 62
     7
100
AcDbSpline
210
0.0
220
0.0
230
1.0
 70
     8
 71
     3
 72
    26
 73
    22
 74
     0
 42
0.0000000002577201
 43
0.0000000001
 40
0.0349511478507929
 40
0.0349511478507929
 40
0.0349511478507929
 40
0.0349511478507929
 40
0.0592513919679628
 40
0.0979670787264156
 40
0.1424367618365998
 40
0.1922186839679999
 40
0.2466887397749905
 40
0.3103198431102947
 40
0.3719775652064336
 40
0.4354748244110472
 40
0.499139295559442
 40
0.549922881218566
 40
0.6270020754075143
 40
0.6888846729497456
 40
0.7528348496687168
 40
0.7848534801056121
 40
0.8767778507702678
 40
0.9054657402974623
 40
0.9321953168597692
 40
0.9568914632018475
 40
0.965302487105498
 40
0.965302487105498
 40
0.965302487105498
 40
0.965302487105498
 10
69.48304215557779
 20
758.259012895187
 30
0.0
 10
69.52782597565994
 20
758.3112101729672
 30
0.0
 10
69.69012660166125
 20
758.4437513142739
 30
0.0
 10
70.12730982544421
 20
758.6636414104465
 30
0.0
 10
70.94533345999189
 20
758.9242487989914
 30
0.0
 10
72.20195831131012
 20
759.2005412964629
 30
0.0
 10
74.05091188404268
 20
759.4887132620426
 30
0.0
 10
76.57409363478428
 20
759.7583713401776
 30
0.0
 10
79.7507920298266
 20
759.9679452286889
 30
0.0
 10
83.34869253448798
 20
760.1292791551299
 30
0.0
 10
86.9830091261532
 20
760.1889151318943
 30
0.0
 10
90.890903772461
 20
760.1379570842646
 30
0.0
 10
94.56760479487666
 20
759.9900663638457
 30
0.0
 10
97.988679410007
 20
759.7480207581663
 30
0.0
 10
100.2033134401859
 20
759.5246310172565
 30
0.0
 10
102.3783304389366
 20
759.1990931719232
 30
0.0
 10
103.681792082706
 20
758.9149448691467
 30
0.0
 10
104.5013257715924
 20
758.6284659898013
 30
0.0
 10
104.8397457692523
 20
758.4673185008319
 30
0.0
 10
105.0149272916726
 20
758.3436794846164
 30
0.0
 10
105.08612015312
 20
758.2741343970176
 30
0.0
 10
105.1023092355689
 20
758.2563760543004
 30
0.0
  0
ELLIPSE
  5
E2
330
75
100
AcDbEntity
  8
$DDT_AUDIT_GENERATED_(DC)
  6
Continuous
 62
     7
100
AcDbEllipse
 10
104.0639879023
 20
757.9087031095
 30
0.0
 11
-1.144343198581841
 21
0.06949410103812559
 31
0.0
210
0.0
220
0.0
230
0.9999999999999999
 40
0.9951225727
 41
2.985754309331067
 42
3.124366158571779
  0
ELLIPSE
  5
E3
330
75
100
AcDbEntity
  8
$DDT_AUDIT_GENERATED_(DC)
  6
Continuous
 62
     7
100
AcDbEllipse
 10
70.5321194179
 20
757.9058420007
 30
0.0
 11
1.151118140973982
 21
0.005490624915199805
 31
0.0
210
0.0
220
0.0
230
0.9999999999999998
 40
0.9939958309
 41
3.243482355614188
 42
3.37163033108119
  0
SPLINE
  5
E4
330
75
100
AcDbEntity
  8
$DDT_AUDIT_GENERATED_(DC)
  6
Continuous
 62
     7
100
AcDbSpline
210
0.0
220
0.0
230
1.0
 70
     8
 71
     3
 72
     8
 73
     4
 74
     0
 42
0.0000000008541041
 43
0.0000000001
 40
0.0269707296122021
 40
0.0269707296122021
 40
0.0269707296122021
 40
0.0269707296122021
 40
0.1113073797800185
 40
0.1113073797800185
 40
0.1113073797800185
 40
0.1113073797800185
 10
103.7155735500072
 20
756.1984512187673
 30
0.0
 10
103.6145959915175
 20
756.007911739361
 30
0.0
 10
103.3451018131659
 20
755.8370373734933
 30
0.0
 10
102.9153541517465
 20
755.6947677951226
 30
0.0
  0
SPLINE
  5
E5
330
75
100
AcDbEntity
  8
$DDT_AUDIT_GENERATED_(DC)
  6
Continuous
 62
     7
100
AcDbSpline
210
0.0
220
0.0
230
1.0
 70
     8
 71
     3
 72
     8
 73
     4
 74
     0
 42
0.0000000008517026
 43
0.0000000001
 40
0.8879008773210918
 40
0.8879008773210918
 40
0.8879008773210918
 40
0.8879008773210918
 40
0.9723125350664261
 40
0.9723125350664261
 40
0.9723125350664261
 40
0.9723125350664261
 10
71.6831227097388
 20
755.691457093313
 30
0.0
 10
71.25035890021088
 20
755.8330608449376
 30
0.0
 10
70.9794058853215
 20
756.0025150210733
 30
0.0
 10
70.87631415790065
 20
756.1925225967977
 30
0.0
  0
SPLINE
  5
E6
330
75
100
AcDbEntity
  8
$DDT_AUDIT_GENERATED_(DC)
  6
Continuous
 62
     7
100
AcDbSpline
210
0.0
220
0.0
230
1.0
 70
     8
 71
     3
 72
    22
 73
    18
 74
     0
 42
0.0000000002260908
 43
0.0000000001
 40
0.1633898504424485
 40
0.1633898504424485
 40
0.1633898504424485
 40
0.1633898504424485
 40
0.2499999999999999
 40
0.2499999999999999
 40
0.3124999999999999
 40
0.3124999999999999
 40
0.3749999999999998
 40
0.3749999999999998
 40
0.4374999999999998
 40
0.4374999999999998
 40
0.4999999999999998
 40
0.4999999999999998
 40
0.6249999999999998
 40
0.6249999999999998
 40
0.7499999999999999
 40
0.7499999999999999
 40
0.8101694735096759
 40
0.8101694735096759
 40
0.8101694735096759
 40
0.8101694735096759
 10
72.74555641117924
 20
757.5300262898352
 30
0.0
 10
73.41429002925544
 20
757.7195369108313
 30
0.0
 10
74.25692204751074
 20
757.8978023509129
 30
0.0
 10
75.97278695496848
 20
758.1657066231775
 30
0.0
 10
76.77272332175689
 20
758.2671631916568
 30
0.0
 10
78.55617550192912
 20
758.4498548323925
 30
0.0
 10
79.53123779150212
 20
758.5301619206167
 30
0.0
 10
81.58520953847318
 20
758.661118384925
 30
0.0
 10
82.69037840951451
 20
758.7127459005758
 30
0.0
 10
84.94603285161615
 20
758.7808643240531
 30
0.0
 10
86.09386869830082
 20
758.7978176178024
 30
0.0
 10
89.59962462504872
 20
758.7987610735007
 30
0.0
 10
91.9282617536519
 20
758.7288307720994
 30
0.0
 10
96.05615755820118
 20
758.4675524159137
 30
0.0
 10
97.8716445971395
 20
758.2816637012223
 30
0.0
 10
100.0270415222237
 20
757.9456058968734
 30
0.0
 10
100.6537212256547
 20
757.8252433332917
 30
0.0
 10
101.1903074927009
 20
757.6988737838242
 30
0.0
  0
ARC
  5
E7
330
75
100
AcDbEntity
  8
$DDT_AUDIT_GENERATED_(DC)
  6
Continuous
 62
     7
100
AcDbCircle
 10
534.3359673431
 20
808.500507561
 30
0.0
 40
432.1647661613823
100
AcDbArc
 50
181.1350252433
 51
186.675564836
  0
ARC
  5
E8
330
75
100
AcDbEntity
  8
$DDT_AUDIT_GENERATED_(DC)
  6
Continuous
 62
     7
100
AcDbCircle
 10
-327.1700066907
 20
806.2843749825
 30
0.0
 40
399.552481940948
100
AcDbArc
 50
353.0974412137
 51
359.1011876216
  0
ARC
  5
E9
330
75
100
AcDbEntity
  8
$DDT_AUDIT_GENERATED_(DC)
  6
Continuous
 62
     7
100
AcDbCircle
 10
100.9085315354
 20
760.5686599282
 30
0.0
 40
5.291816530879293
100
AcDbArc
 50
296.9803022943
 51
314.587874782
  0
ARC
  5
EA
330
75
100
AcDbEntity
  8
$DDT_AUDIT_GENERATED_(DC)
  6
Continuous
 62
     7
100
AcDbCircle
 10
73.6949999177
 20
760.5906657132
 30
0.0
 40
5.318292925714512
100
AcDbArc
 50
225.6618836365
 51
242.9775789179
  0
LINE
  5
EB
330
75
100
AcDbEntity
  8
$DDT_AUDIT_GENERATED_(DC)
  6
Continuous
 62
     7
100
AcDbLine
 10
105.206991068
 20
757.8198722192
 30
0.0
 11
105.2101692135
 21
757.9693371911
 31
0.0
  0
ARC
  5
EC
330
75
100
AcDbEntity
  8
$DDT_AUDIT_GENERATED_(DC)
  6
Continuous
 62
     7
100
AcDbCircle
 10
70.9390100534
 20
757.9988715005
 30
0.0
 40
1.568190731319765
100
AcDbArc
 50
193.245562847
 51
232.0147552426
  0
ARC
  5
ED
330
75
100
AcDbEntity
  8
$DDT_AUDIT_GENERATED_(DC)
  6
Continuous
 62
     7
100
AcDbCircle
 10
103.6780364885
 20
757.9878585092
 30
0.0
 40
1.540274758114427
100
AcDbArc
 50
308.1065581393
 51
347.8311519517
  0
LINE
  5
EE
330
75
100
AcDbEntity
  8
$DDT_AUDIT_GENERATED_(DC)
  6
Continuous
 62
     7
100
AcDbLine
 10
69.3796921514
 20
757.9379306918
 30
0.0
 11
69.3879840274
 21
757.7796662289
 31
0.0
  0
ARC
  5
EF
330
75
100
AcDbEntity
  8
$DDT_AUDIT_GENERATED_(DC)
  6
Continuous
 62
     7
100
AcDbCircle
 10
104.5427137256
 20
757.8935264302
 30
0.0
 40
0.667361602950602
100
AcDbArc
 50
359.2973147864
 51
27.2782303889
  0
ARC
  5
F0
330
75
100
AcDbEntity
  8
$DDT_AUDIT_GENERATED_(DC)
  6
Continuous
 62
     7
100
AcDbCircle
 10
70.0838032026
 20
757.8921816001
 30
0.0
 40
0.7028006222388385
100
AcDbArc
 50
153.5057708139
 51
182.0444156221
  0
SPLINE
  5
F1
330
75
100
AcDbEntity
  8
$DDT_AUDIT_GENERATED_(DC)
  6
Continuous
 62
     7
100
AcDbSpline
210
0.0
220
0.0
230
1.0
 70
     8
 71
     3
 72
    14
 73
    10
 74
     0
 42
0.0000000037597511
 43
0.0000000001
 40
0.0
 40
0.0
 40
0.0
 40
0.0
 40
0.0760350404967851
 40
0.2405717680063618
 40
0.4067049667228962
 40
0.5733972985113821
 40
0.738488527647465
 40
0.9005888892697178
 40
1.0
 40
1.0
 40
1.0
 40
1.0
 10
100.9941585920767
 20
757.6673791319782
 30
0.0
 10
101.1352559340488
 20
757.6346395692004
 30
0.0
 10
101.5130489889854
 20
757.5463938535216
 30
0.0
 10
102.0712895100054
 20
757.3735690041249
 30
0.0
 10
102.6101350263909
 20
757.1676800052866
 30
0.0
 10
103.0040236225637
 20
756.9605975484675
 30
0.0
 10
103.2338947674009
 20
756.7809290913543
 30
0.0
 10
103.3245107950788
 20
756.6462026966288
 30
0.0
 10
103.3365780884071
 20
756.6013479032962
 30
0.0
 10
103.3404323589222
 20
756.5815770040298
 30
0.0
  0
SPLINE
  5
F2
330
75
100
AcDbEntity
  8
$DDT_AUDIT_GENERATED_(DC)
  6
Continuous
 62
     7
100
AcDbSpline
210
0.0
220
0.0
230
1.0
 70
     8
 71
     3
 72
    13
 73
     9
 74
     0
 42
0.0000000049889981
 43
0.0000000001
 40
0.0
 40
0.0
 40
0.0
 40
0.0
 40
0.0959161853591444
 40
0.2938653779267776
 40
0.4710769304736008
 40
0.6579096585048441
 40
0.8494560250636319
 40
1.0
 40
1.0
 40
1.0
 40
1.0
 10
71.2480272871428
 20
756.579286426014
 30
0.0
 10
71.2512272724195
 20
756.5955947909172
 30
0.0
 10
71.26243996162077
 20
756.6386858462397
 30
0.0
 10
71.34251617752469
 20
756.7655739012827
 30
0.0
 10
71.55453558856715
 20
756.9383153461383
 30
0.0
 10
71.91288019739633
 20
757.1348410502205
 30
0.0
 10
72.38738039815189
 20
757.3298178315922
 30
0.0
 10
72.76283602417519
 20
757.4423657797628
 30
0.0
 10
72.96043033803433
 20
757.5009124280072
 30
0.0
  0
SPLINE
  5
F4
330
75
100
AcDbEntity
  8
$DDT_AUDIT_GENERATED_(F3)
  6
Continuous
 62
     7
100
AcDbSpline
210
0.0
220
0.0
230
1.0
 70
     8
 71
     3
 72
    24
 73
    20
 74
     0
 42
0.0000000002120771
 43
0.0000000001
 40
0.0
 40
0.0
 40
0.0
 40
0.0
 40
0.0625
 40
0.0625
 40
0.125
 40
0.125
 40
0.1875
 40
0.1875
 40
0.25
 40
0.25
 40
0.3125000000000001
 40
0.3125000000000001
 40
0.375
 40
0.375
 40
0.4375
 40
0.4375
 40
0.5
 40
0.5
 40
0.5579008754847683
 40
0.5579008754847683
 40
0.5579008754847683
 40
0.5579008754847683
 10
75.0892609712563
 20
754.7515538655475
 30
0.0
 10
75.22685918557184
 20
754.9104011376671
 30
0.0
 10
75.68434372127045
 20
755.057468236015
 30
0.0
 10
77.16988777191816
 20
755.3197340158611
 30
0.0
 10
78.19109346157543
 20
755.4366915027135
 30
0.0
 10
80.6417398157838
 20
755.6257468754875
 30
0.0
 10
82.08019515999877
 20
755.6992516187271
 30
0.0
 10
85.12298403840126
 20
755.790154046584
 30
0.0
 10
86.75707991011275
 20
755.8065503824733
 30
0.0
 10
89.93716710007136
 20
755.7813351003321
 30
0.0
 10
91.51246987923324
 20
755.7377568195154
 30
0.0
 10
94.35519143623586
 20
755.600217753201
 30
0.0
 10
95.6278658639086
 20
755.5075452819793
 30
0.0
 10
97.70334392976926
 20
755.2805059896086
 30
0.0
 10
98.48576157125976
 20
755.1520097810777
 30
0.0
 10
99.4592183472839
 20
754.8635312526291
 30
0.0
 10
99.63697700247093
 20
754.7039834575435
 30
0.0
 10
99.37296026245632
 20
754.394434052126
 30
0.0
 10
98.97128925134744
 20
754.2462434087274
 30
0.0
 10
98.32910124892905
 20
754.1186088597295
 30
0.0
  0
SPLINE
  5
F5
330
75
100
AcDbEntity
  8
$DDT_AUDIT_GENERATED_(F3)
  6
Continuous
 62
     7
100
AcDbSpline
210
0.0
220
0.0
230
1.0
 70
     8
 71
     3
 72
    10
 73
     6
 74
     0
 42
0.0000000004437458
 43
0.0000000001
 40
0.9143523522049134
 40
0.9143523522049134
 40
0.9143523522049134
 40
0.9143523522049134
 40
0.9374999999999999
 40
0.9374999999999999
 40
0.9702164267912833
 40
0.9702164267912833
 40
0.9702164267912833
 40
0.9702164267912833
 10
76.28438095147854
 20
754.11466809377
 30
0.0
 10
76.02404199738847
 20
754.1655036030996
 30
0.0
 10
75.8024760589504
 20
754.2190518271439
 30
0.0
 10
75.36934306874943
 20
754.3539619017939
 30
0.0
 10
75.19728969878618
 20
754.437323145005
 30
0.0
 10
75.11064995107856
 20
754.5216149772215
 30
0.0
  0
SPLINE
  5
F6
330
75
100
AcDbEntity
  8
$DDT_AUDIT_GENERATED_(F3)
  6
Continuous
 62
     7
100
AcDbSpline
210
0.0
220
0.0
230
1.0
 70
     8
 71
     3
 72
     8
 73
     4
 74
     0
 42
0.0000000011454579
 43
0.0000000001
 40
0.9865570652106879
 40
0.9865570652106879
 40
0.9865570652106879
 40
0.9865570652106879
 40
1.0
 40
1.0
 40
1.0
 40
1.0
 10
75.04522675376721
 20
754.6481870205471
 30
0.0
 10
75.04507531639452
 20
754.6828531563183
 30
0.0
 10
75.05966539010157
 20
754.7173878892183
 30
0.0
 10
75.0892609712563
 20
754.7515538655475
 30
0.0
  0
SPLINE
  5
F7
330
75
100
AcDbEntity
  8
$DDT_AUDIT_GENERATED_(F3)
  6
Continuous
 62
     7
100
AcDbSpline
210
0.0
220
0.0
230
1.0
 70
     8
 71
     3
 72
     8
 73
     4
 74
     0
 42
0.0000000009593453
 43
0.0000000001
 40
0.0102841220641312
 40
0.0102841220641312
 40
0.0102841220641312
 40
0.0102841220641312
 40
0.1001669893565939
 40
0.1001669893565939
 40
0.1001669893565939
 40
0.1001669893565939
 10
71.45698577716479
 20
756.0056432770579
 30
0.0
 10
71.49077006980237
 20
755.7936913831344
 30
0.0
 10
71.71141918566343
 20
755.6010669976689
 30
0.0
 10
72.10943323413312
 20
755.4399395663487
 30
0.0
  0
SPLINE
  5
F8
330
75
100
AcDbEntity
  8
$DDT_AUDIT_GENERATED_(F3)
  6
Continuous
 62
     7
100
AcDbSpline
210
0.0
220
0.0
230
1.0
 70
     8
 71
     3
 72
     8
 73
     4
 74
     0
 42
0.0000000009712717
 43
0.0000000001
 40
0.9007481861641181
 40
0.9007481861641181
 40
0.9007481861641181
 40
0.9007481861641181
 40
0.9887056609234162
 40
0.9887056609234162
 40
0.9887056609234162
 40
0.9887056609234162
 10
102.5014768232801
 20
755.4485821774475
 30
0.0
 10
102.8843976176391
 20
755.6066037982679
 30
0.0
 10
103.0956123476164
 20
755.7928897991402
 30
0.0
 10
103.1317337904336
 20
755.9994735479039
 30
0.0
  0
SPLINE
  5
F9
330
75
100
AcDbEntity
  8
$DDT_AUDIT_GENERATED_(F3)
  6
Continuous
 62
     7
100
AcDbSpline
210
0.0
220
0.0
230
1.0
 70
     8
 71
     3
 72
     8
 73
     4
 74
     0
 42
0.0000000010640654
 43
0.0000000001
 40
0.0
 40
0.0
 40
0.0
 40
0.0
 40
0.0693189219786543
 40
0.0693189219786543
 40
0.0693189219786543
 40
0.0693189219786543
 10
71.3404569296914
 20
756.2797368133325
 30
0.0
 10
71.34742664974515
 20
756.4456687894648
 30
0.0
 10
71.46034943288228
 20
756.6169561284186
 30
0.0
 10
71.6815587862517
 20
756.7889638333683
 30
0.0
  0
SPLINE
  5
FA
330
75
100
AcDbEntity
  8
$DDT_AUDIT_GENERATED_(F3)
  6
Continuous
 62
     7
100
AcDbSpline
210
0.0
220
0.0
230
1.0
 70
     8
 71
     3
 72
    10
 73
     6
 74
     0
 42
0.0000000010607302
 43
0.0000000001
 40
0.9313063156076348
 40
0.9313063156076348
 40
0.9313063156076348
 40
0.9313063156076348
 40
0.9375000000000001
 40
0.9375000000000001
 40
1.0
 40
1.0
 40
1.0
 40
1.0
 10
102.9068029624677
 20
756.789360576193
 30
0.0
 10
102.9265712453718
 20
756.7739767746567
 30
0.0
 10
102.9454979604868
 20
756.7585883333248
 30
0.0
 10
103.1461350504912
 20
756.5878858146857
 30
0.0
 10
103.2429498015142
 20
756.4301528875264
 30
0.0
 10
103.2492239291284
 20
756.2806225034353
 30
0.0
  0
ARC
  5
FB
330
75
100
AcDbEntity
  8
$DDT_AUDIT_GENERATED_(F3)
  6
Continuous
 62
     7
100
AcDbCircle
 10
738.2055246226
 20
826.2482384183
 30
0.0
 40
639.0850367121731
100
AcDbArc
 50
186.2192178757
 51
186.2385817279
  0
ARC
  5
FC
330
75
100
AcDbEntity
  8
$DDT_AUDIT_GENERATED_(F3)
  6
Continuous
 62
     7
100
AcDbCircle
 10
-570.9087979627
 20
827.038538804
 30
0.0
 40
646.42078797692
100
AcDbArc
 50
353.7613563224
 51
353.7809894427
  0
ARC
  5
FD
330
75
100
AcDbEntity
  8
$DDT_AUDIT_GENERATED_(F3)
  6
Continuous
 62
     7
100
AcDbCircle
 10
94.8913812405
 20
771.9998346418
 30
0.0
 40
18.19739867711714
100
AcDbArc
 50
281.451359431
 51
294.5512634596
  0
ARC
  5
FE
330
75
100
AcDbEntity
  8
$DDT_AUDIT_GENERATED_(F3)
  6
Continuous
 62
     7
100
AcDbCircle
 10
79.7319362367
 20
771.8552780917
 30
0.0
 40
18.07080585403648
100
AcDbArc
 50
245.1389479941
 51
258.4678285022
  0
LINE
  5
FF
330
75
100
AcDbEntity
  8
$DDT_AUDIT_GENERATED_(F3)
  6
Continuous
 62
     7
100
AcDbLine
 10
103.2424782787
 20
756.1313149119
 30
0.0
 11
103.2561531589
 21
756.240244239
 31
0.0
  0
SPLINE
  5
100
330
75
100
AcDbEntity
  8
$DDT_AUDIT_GENERATED_(F3)
  6
Continuous
 62
     7
100
AcDbSpline
210
0.0
220
0.0
230
1.0
 70
     8
 71
     3
 72
     8
 73
     4
 74
     0
 42
0.0000000924233343
 43
0.0000000001
 40
0.0
 40
0.0
 40
0.0
 40
0.0
 40
1.0
 40
1.0
 40
1.0
 40
1.0
 10
71.3228808132923
 20
756.2388319596267
 30
0.0
 10
71.31814327694764
 20
756.2240229275202
 30
0.0
 10
71.32814233391841
 20
756.1905471386399
 30
0.0
 10
71.35287798420458
 20
756.1384045929854
 30
0.0
  0
ELLIPSE
  5
102
330
75
100
AcDbEntity
  8
02636038_GEHÄUSE
  6
Continuous
 62
     7
100
AcDbEllipse
 10
87.2948914949
 20
752.2907146286
 30
0.0
 11
10.05000000000001
 21
0.0
 31
0.0
210
0.0
220
0.0
230
1.0
 40
0.09581097
 41
5.82065106862951
 42
6.283185307179586
  0
ELLIPSE
  5
103
330
75
100
AcDbEntity
  8
02636038_GEHÄUSE
  6
Continuous
 62
     7
100
AcDbEllipse
 10
87.2948914949
 20
752.2907146286
 30
0.0
 11
10.05000000000001
 21
0.0
 31
0.0
210
0.0
220
0.0
230
1.0
 40
0.09581097
 41
0.0
 42
3.604126891971044
  0
ELLIPSE
  5
104
330
75
100
AcDbEntity
  8
02636038_GEHÄUSE
  6
Continuous
 62
     7
100
AcDbEllipse
 10
87.2948914949
 20
752.2907146286
 30
0.0
 11
10.75000000000001
 21
0.0
 31
0.0
210
0.0
220
0.0
230
1.0
 40
0.09581097
 41
5.664307634490934
 42
6.283185307179586
  0
ELLIPSE
  5
105
330
75
100
AcDbEntity
  8
02636038_GEHÄUSE
  6
Continuous
 62
     7
100
AcDbEllipse
 10
87.2948914949
 20
752.2907146286
 30
0.0
 11
10.75000000000001
 21
0.0
 31
0.0
210
0.0
220
0.0
230
1.0
 40
0.09581097
 41
0.0
 42
3.760470326243759
  0
LINE
  5
106
330
75
100
AcDbEntity
  8
02636038_GEHÄUSE
  6
Continuous
 62
     7
100
AcDbLine
 10
76.2948914949
 20
752.8546118392
 30
0.0
 11
76.2948914949
 21
752.3460020126
 31
0.0
  0
ELLIPSE
  5
107
330
75
100
AcDbEntity
  8
02636038_GEHÄUSE
  6
Continuous
 62
     7
100
AcDbEllipse
 10
87.2948914949
 20
755.2769132694
 30
0.0
 11
11.80000000000012
 21
0.0
 31
0.0
210
0.0
220
0.0
230
1.0
 40
0.09581097
 41
3.342400929388195
 42
3.51193528568151
  0
LINE
  5
108
330
75
100
AcDbEntity
  8
02636038_GEHÄUSE
  6
Continuous
 62
     7
100
AcDbLine
 10
76.2948914949
 20
755.1626771029
 30
0.0
 11
76.2948914949
 21
753.8780302207
 31
0.0
  0
LINE
  5
109
330
75
100
AcDbEntity
  8
02636038_GEHÄUSE
  6
Continuous
 62
     7
100
AcDbLine
 10
76.2948914949
 20
753.8780302207
 30
0.0
 11
76.2948914949
 21
752.8546118392
 31
0.0
  0
LINE
  5
10A
330
75
100
AcDbEntity
  8
02636038_GEHÄUSE
  6
Continuous
 62
     7
100
AcDbLine
 10
98.2948914949
 20
752.3460020126
 30
0.0
 11
98.2948914949
 21
752.8546118392
 31
0.0
  0
ELLIPSE
  5
10B
330
75
100
AcDbEntity
  8
02636038_GEHÄUSE
  6
Continuous
 62
     7
100
AcDbEllipse
 10
87.2948914949
 20
755.2769132694
 30
0.0
 11
-11.79999999999986
 21
0.0
 31
0.0
210
0.0
220
0.0
230
1.0
 40
0.09581097
 41
-3.511935285681514
 42
-3.341827978260548
  0
LINE
  5
10C
330
75
100
AcDbEntity
  8
02636038_GEHÄUSE
  6
Continuous
 62
     7
100
AcDbLine
 10
98.2948914949
 20
752.8546118392
 30
0.0
 11
98.2948914949
 21
753.8780302207
 31
0.0
  0
LINE
  5
10D
330
75
100
AcDbEntity
  8
02636038_GEHÄUSE
  6
Continuous
 62
     7
100
AcDbLine
 10
98.2948914949
 20
753.8780302207
 30
0.0
 11
98.2948914949
 21
755.1558506831
 31
0.0
  0
LINE
  5
10E
330
75
100
AcDbEntity
  8
02636038_GEHÄUSE
  6
Continuous
 62
     7
100
AcDbLine
 10
76.2948914949
 20
752.3459161389
 30
0.0
 11
76.6953390046
 21
752.1190020435
 31
0.0
  0
LINE
  5
10F
330
75
100
AcDbEntity
  8
02636038_GEHÄUSE
  6
Continuous
 62
     7
100
AcDbLine
 10
97.8944439853
 20
752.1190020435
 30
0.0
 11
98.2948914949
 21
752.3459161389
 31
0.0
  0
ELLIPSE
  5
111
330
75
100
AcDbEntity
  8
$DDT_AUDIT_GENERATED_(110)
  6
Continuous
 62
     7
100
AcDbEllipse
 10
87.2948914949
 20
751.8925548099
 30
0.0
 11
-9.000000000000005
 21
-2.775557561562891E-14
 31
0.0
210
0.0
220
0.0
230
1.0
 40
0.09581097
 41
0.0
 42
6.283185307179586
  0
ELLIPSE
  5
112
330
75
100
AcDbEntity
  8
$DDT_AUDIT_GENERATED_(110)
  6
Continuous
 62
     7
100
AcDbEllipse
 10
87.2948914949
 20
751.8925548099
 30
0.0
 11
-5.249999999999999
 21
-2.775557561562891E-14
 31
0.0
210
0.0
220
0.0
230
1.0
 40
0.09581097
 41
0.0
 42
6.283185307179586
  0
ELLIPSE
  5
113
330
75
100
AcDbEntity
  8
$DDT_AUDIT_GENERATED_(110)
  6
Continuous
 62
     7
100
AcDbEllipse
 10
87.2948914949
 20
751.8925548099
 30
0.0
 11
-6.25
 21
0.0
 31
0.0
210
0.0
220
0.0
230
1.0
 40
0.09581097
 41
0.0
 42
6.283185307179586
  0
ELLIPSE
  5
114
330
75
100
AcDbEntity
  8
$DDT_AUDIT_GENERATED_(110)
  6
Continuous
 62
     7
100
AcDbEllipse
 10
87.2948914949
 20
751.8925548099
 30
0.0
 11
2.750000000000003
 21
0.0
 31
0.0
210
0.0
220
0.0
230
1.0
 40
0.09581097
 41
0.0
 42
6.283185307179586
  0
ELLIPSE
  5
115
330
75
100
AcDbEntity
  8
$DDT_AUDIT_GENERATED_(110)
  6
Continuous
 62
     7
100
AcDbEllipse
 10
87.2948914949
 20
751.8925548099
 30
0.0
 11
-2.149999999999999
 21
0.0
 31
0.0
210
0.0
220
0.0
230
1.0
 40
0.09581097
 41
0.0
 42
6.283185307179586
  0
ELLIPSE
  5
116
330
75
100
AcDbEntity
  8
$DDT_AUDIT_GENERATED_(110)
  6
Continuous
 62
     7
100
AcDbEllipse
 10
87.2948914949
 20
752.0916347192
 30
0.0
 11
0.5196299438963558
 21
0.0
 31
0.0
210
0.0
220
0.0
230
1.0
 40
0.09581097
 41
3.141592653592077
 42
6.283185307179586
  0
ELLIPSE
  5
117
330
75
100
AcDbEntity
  8
$DDT_AUDIT_GENERATED_(110)
  6
Continuous
 62
     7
100
AcDbEllipse
 10
87.2948914949
 20
751.8925548099
 30
0.0
 11
-8.699999999999998
 21
0.0
 31
0.0
210
0.0
220
0.0
230
1.0
 40
0.09581097
 41
0.0
 42
6.283185307179586
  0
ARC
  5
118
330
75
100
AcDbEntity
  8
$DDT_AUDIT_GENERATED_(110)
  6
Continuous
 62
     7
100
AcDbCircle
 10
93.4867254007
 20
752.0916347192
 30
0.0
 40
0.058160642294579
100
AcDbArc
 50
0.0
 51
9.4818440148
  0
LINE
  5
119
330
75
100
AcDbEntity
  8
$DDT_AUDIT_GENERATED_(110)
  6
Continuous
 62
     7
100
AcDbLine
 10
93.5448914949
 20
752.0820536222
 30
0.0
 11
95.767089978
 21
752.0820536222
 31
0.0
  0
LINE
  5
11A
330
75
100
AcDbEntity
  8
$DDT_AUDIT_GENERATED_(110)
  6
Continuous
 62
     7
100
AcDbLine
 10
93.5440914437
 20
752.1012158162
 30
0.0
 11
95.7178963599
 21
752.1012158162
 31
0.0
  0
LINE
  5
11B
330
75
100
AcDbEntity
  8
$DDT_AUDIT_GENERATED_(110)
  6
Continuous
 62
     7
100
AcDbLine
 10
93.5440914437
 20
752.1012158162
 30
0.0
 11
93.5440914437
 21
752.2421480486
 31
0.0
  0
ELLIPSE
  5
11C
330
75
100
AcDbEntity
  8
$DDT_AUDIT_GENERATED_(110)
  6
Continuous
 62
     7
100
AcDbEllipse
 10
87.2948920166
 20
752.0916347059
 30
0.0
 11
8.499999478005265
 21
1.303521179885081E-8
 31
0.0
210
0.0
220
0.0
230
1.0
 40
0.0958109726
 41
-0.2735643735501494
 42
-0.2500344182263659
  0
ELLIPSE
  5
11D
330
75
100
AcDbEntity
  8
$DDT_AUDIT_GENERATED_(110)
  6
Continuous
 62
     7
100
AcDbEllipse
 10
87.2948914949
 20
752.0916347192
 30
0.0
 11
8.500000000004096
 21
4.163336342344337E-13
 31
0.0
210
0.0
220
0.0
230
1.0
 40
0.09581097
 41
-0.2500344105110308
 42
-0.0248422857885942
  0
LINE
  5
11E
330
75
100
AcDbEntity
  8
$DDT_AUDIT_GENERATED_(110)
  6
Continuous
 62
     7
100
AcDbLine
 10
95.5305747116
 20
751.8901234537
 30
0.0
 11
95.5305747116
 21
752.0820536222
 31
0.0
  0
LINE
  5
11F
330
75
100
AcDbEntity
  8
$DDT_AUDIT_GENERATED_(110)
  6
Continuous
 62
     7
100
AcDbLine
 10
93.5448914949
 20
751.9212626876
 30
0.0
 11
95.4788109026
 21
751.8716141957
 31
0.0
  0
LINE
  5
120
330
75
100
AcDbEntity
  8
$DDT_AUDIT_GENERATED_(110)
  6
Continuous
 62
     7
100
AcDbLine
 10
93.5448914949
 20
751.9411008506
 30
0.0
 11
95.5305747116
 21
751.8901234537
 31
0.0
  0
ELLIPSE
  5
121
330
75
100
AcDbEntity
  8
$DDT_AUDIT_GENERATED_(110)
  6
Continuous
 62
     7
100
AcDbEllipse
 10
87.2948918449
 20
752.0916347
 30
0.0
 11
8.499999646421085
 21
1.682826100690704E-8
 31
0.0
210
0.0
220
0.0
230
1.0
 40
0.0958109711
 41
-0.5353637636522501
 42
-0.5118338085169372
  0
ELLIPSE
  5
122
330
75
100
AcDbEntity
  8
$DDT_AUDIT_GENERATED_(110)
  6
Continuous
 62
     7
100
AcDbEllipse
 10
87.2948914949
 20
752.0916347192
 30
0.0
 11
8.5000000000094
 21
-9.436895709313831E-13
 31
0.0
210
0.0
220
0.0
230
1.0
 40
0.09581097
 41
-0.5118337983099144
 42
-0.2735643650870889
  0
LINE
  5
123
330
75
100
AcDbEntity
  8
$DDT_AUDIT_GENERATED_(110)
  6
Continuous
 62
     7
100
AcDbLine
 10
94.7055979828
 20
751.6927637509
 30
0.0
 11
94.7055979828
 21
751.8914644827
 31
0.0
  0
LINE
  5
124
330
75
100
AcDbEntity
  8
$DDT_AUDIT_GENERATED_(110)
  6
Continuous
 62
     7
100
AcDbLine
 10
93.3533409869
 20
751.7454392649
 30
0.0
 11
94.6055979828
 21
751.6761688041
 31
0.0
  0
LINE
  5
125
330
75
100
AcDbEntity
  8
$DDT_AUDIT_GENERATED_(110)
  6
Continuous
 62
     7
100
AcDbLine
 10
93.4012599178
 20
751.7649151536
 30
0.0
 11
94.7055979828
 21
751.6927637509
 31
0.0
  0
ELLIPSE
  5
126
330
75
100
AcDbEntity
  8
$DDT_AUDIT_GENERATED_(110)
  6
Continuous
 62
     7
100
AcDbEllipse
 10
87.2948917809
 20
752.0916346917
 30
0.0
 11
8.499999696749976
 21
1.963099127699763E-8
 31
0.0
210
0.0
220
0.0
230
1.0
 40
0.09581097
 41
-0.797163153085128
 42
-0.7736331979494473
  0
ELLIPSE
  5
127
330
75
100
AcDbEntity
  8
$DDT_AUDIT_GENERATED_(110)
  6
Continuous
 62
     7
100
AcDbEllipse
 10
87.2948914949
 20
752.0916347192
 30
0.0
 11
8.500000000023048
 21
-1.554312234475219E-12
 31
0.0
210
0.0
220
0.0
230
1.0
 40
0.09581097
 41
-0.7736331861083539
 42
-0.5353637528857638
  0
LINE
  5
128
330
75
100
AcDbEntity
  8
$DDT_AUDIT_GENERATED_(110)
  6
Continuous
 62
     7
100
AcDbLine
 10
93.3755938536
 20
751.5225864455
 30
0.0
 11
93.3755938536
 21
751.7442083144
 31
0.0
  0
LINE
  5
129
330
75
100
AcDbEntity
  8
$DDT_AUDIT_GENERATED_(110)
  6
Continuous
 62
     7
100
AcDbLine
 10
92.5751562697
 20
751.5721777122
 30
0.0
 11
93.2341724974
 21
751.5090367282
 31
0.0
  0
LINE
  5
12A
330
75
100
AcDbEntity
  8
$DDT_AUDIT_GENERATED_(110)
  6
Continuous
 62
     7
100
AcDbLine
 10
92.6823687339
 20
751.5890050166
 30
0.0
 11
93.3755938536
 21
751.5225864455
 31
0.0
  0
ELLIPSE
  5
12B
330
75
100
AcDbEntity
  8
$DDT_AUDIT_GENERATED_(110)
  6
Continuous
 62
     7
100
AcDbEllipse
 10
87.2948917295
 20
752.0916346804
 30
0.0
 11
8.499999706784163
 21
1.961691920016051E-8
 31
0.0
210
0.0
220
0.0
230
1.0
 40
0.0958109687
 41
-1.058962540983488
 42
-1.035432585757989
  0
ELLIPSE
  5
12C
330
75
100
AcDbEntity
  8
$DDT_AUDIT_GENERATED_(110)
  6
Continuous
 62
     7
100
AcDbEllipse
 10
87.294891495
 20
752.0916347192
 30
0.0
 11
8.499999999997778
 21
-2.220446049250313E-13
 31
0.0
210
0.0
220
0.0
230
1.0
 40
0.09581097
 41
-1.03543257390859
 42
-0.797163140685516
  0
LINE
  5
12D
330
75
100
AcDbEntity
  8
$DDT_AUDIT_GENERATED_(110)
  6
Continuous
 62
     7
100
AcDbLine
 10
91.6311999075
 20
751.3911888395
 30
0.0
 11
91.6311999075
 21
751.4613103966
 31
0.0
  0
LINE
  5
12E
330
75
100
AcDbEntity
  8
$DDT_AUDIT_GENERATED_(110)
  6
Continuous
 62
     7
100
AcDbLine
 10
91.197556184
 20
751.4248273967
 30
0.0
 11
91.4579948267
 21
751.3816077425
 31
0.0
  0
LINE
  5
12F
330
75
100
AcDbEntity
  8
$DDT_AUDIT_GENERATED_(110)
  6
Continuous
 62
     7
100
AcDbLine
 10
91.3539017316
 20
751.4372063242
 30
0.0
 11
91.6311999075
 21
751.3911888395
 31
0.0
  0
ELLIPSE
  5
130
330
75
100
AcDbEntity
  8
$DDT_AUDIT_GENERATED_(110)
  6
Continuous
 62
     7
100
AcDbEllipse
 10
87.2948916167
 20
752.0916346756
 30
0.0
 11
8.49999974902121
 21
1.139566219165999E-8
 31
0.0
210
0.0
220
0.0
230
1.0
 40
0.0958109677
 41
-1.320761923648048
 42
-1.297231968419954
  0
ELLIPSE
  5
131
330
75
100
AcDbEntity
  8
$DDT_AUDIT_GENERATED_(110)
  6
Continuous
 62
     7
100
AcDbEllipse
 10
87.2948914949
 20
752.0916347192
 30
0.0
 11
8.500000000004359
 21
-2.775557561562891E-13
 31
0.0
210
0.0
220
0.0
230
1.0
 40
0.09581097
 41
-1.29723196170745
 42
-1.058962528484584
  0
LINE
  5
132
330
75
100
AcDbEntity
  8
$DDT_AUDIT_GENERATED_(110)
  6
Continuous
 62
     7
100
AcDbLine
 10
89.5912937092
 20
751.3075254626
 30
0.0
 11
89.5912937092
 21
751.3356215645
 31
0.0
  0
LINE
  5
133
330
75
100
AcDbEntity
  8
$DDT_AUDIT_GENERATED_(110)
  6
Continuous
 62
     7
100
AcDbLine
 10
89.3314048523
 20
751.3264172548
 30
0.0
 11
89.3981085439
 21
751.3025659219
 31
0.0
  0
LINE
  5
134
330
75
100
AcDbEntity
  8
$DDT_AUDIT_GENERATED_(110)
  6
Continuous
 62
     7
100
AcDbLine
 10
89.5201188107
 20
751.3329755713
 30
0.0
 11
89.5912937092
 21
751.3075254626
 31
0.0
  0
ARC
  5
135
330
75
100
AcDbEntity
  8
$DDT_AUDIT_GENERATED_(110)
  6
Continuous
 62
     7
100
AcDbCircle
 10
87.2948914949
 20
839.9875128247
 30
0.0
 40
88.71027135208396
100
AcDbArc
 50
269.9354124491
 51
270.0645875509
  0
ELLIPSE
  5
136
330
75
100
AcDbEntity
  8
$DDT_AUDIT_GENERATED_(110)
  6
Continuous
 62
     7
100
AcDbEllipse
 10
87.2948914949
 20
752.0916347192
 30
0.0
 11
8.500000000007384
 21
-1.110223024625157E-13
 31
0.0
210
0.0
220
0.0
230
1.0
 40
0.09581097
 41
4.724153957672963
 42
4.962423390895614
  0
LINE
  5
137
330
75
100
AcDbEntity
  8
$DDT_AUDIT_GENERATED_(110)
  6
Continuous
 62
     7
100
AcDbLine
 10
87.1948914949
 20
751.2938129012
 30
0.0
 11
87.1948914949
 21
751.2772978358
 31
0.0
  0
LINE
  5
138
330
75
100
AcDbEntity
  8
$DDT_AUDIT_GENERATED_(110)
  6
Continuous
 62
     7
100
AcDbLine
 10
87.3948914949
 20
751.2938129012
 30
0.0
 11
87.3948914949
 21
751.2772978358
 31
0.0
  0
ELLIPSE
  5
139
330
75
100
AcDbEntity
  8
$DDT_AUDIT_GENERATED_(110)
  6
Continuous
 62
     7
100
AcDbEllipse
 10
87.294891382
 20
752.0916346787
 30
0.0
 11
-8.49999976698682
 21
1.057401388671053E-8
 31
0.0
210
0.0
220
0.0
230
1.0
 40
0.0958109678
 41
1.297231967932516
 42
1.320761923113762
  0
ELLIPSE
  5
13A
330
75
100
AcDbEntity
  8
$DDT_AUDIT_GENERATED_(110)
  6
Continuous
 62
     7
100
AcDbEllipse
 10
87.2948914949
 20
752.0916347192
 30
0.0
 11
-8.499999999997394
 21
-8.326672684688674E-14
 31
0.0
210
0.0
220
0.0
230
1.0
 40
0.09581097
 41
1.320761916283864
 42
1.559031349506881
  0
LINE
  5
13B
330
75
100
AcDbEntity
  8
$DDT_AUDIT_GENERATED_(110)
  6
Continuous
 62
     7
100
AcDbLine
 10
84.9984892807
 20
751.3075254626
 30
0.0
 11
84.9984892807
 21
751.3356215645
 31
0.0
  0
LINE
  5
13C
330
75
100
AcDbEntity
  8
$DDT_AUDIT_GENERATED_(110)
  6
Continuous
 62
     7
100
AcDbLine
 10
85.0696641792
 20
751.3329755713
 30
0.0
 11
84.9984892807
 21
751.3075254626
 31
0.0
  0
LINE
  5
13D
330
75
100
AcDbEntity
  8
$DDT_AUDIT_GENERATED_(110)
  6
Continuous
 62
     7
100
AcDbLine
 10
85.2583781376
 20
751.3264172548
 30
0.0
 11
85.191674446
 21
751.3025659219
 31
0.0
  0
ELLIPSE
  5
13E
330
75
100
AcDbEntity
  8
$DDT_AUDIT_GENERATED_(110)
  6
Continuous
 62
     7
100
AcDbEllipse
 10
87.2948912594
 20
752.0916346802
 30
0.0
 11
-8.499999705632037
 21
1.969546747915274E-8
 31
0.0
210
0.0
220
0.0
230
1.0
 40
0.0958109686
 41
1.035432585810855
 42
1.058962541038718
  0
ELLIPSE
  5
13F
330
75
100
AcDbEntity
  8
$DDT_AUDIT_GENERATED_(110)
  6
Continuous
 62
     7
100
AcDbEllipse
 10
87.294891495
 20
752.0916347192
 30
0.0
 11
-8.500000000002846
 21
-6.383782391594650E-13
 31
0.0
210
0.0
220
0.0
230
1.0
 40
0.09581097
 41
1.05896252848461
 42
1.297231961707513
  0
LINE
  5
140
330
75
100
AcDbEntity
  8
$DDT_AUDIT_GENERATED_(110)
  6
Continuous
 62
     7
100
AcDbLine
 10
82.9585830824
 20
751.3911888395
 30
0.0
 11
82.9585830824
 21
751.4613103966
 31
0.0
  0
LINE
  5
141
330
75
100
AcDbEntity
  8
$DDT_AUDIT_GENERATED_(110)
  6
Continuous
 62
     7
100
AcDbLine
 10
83.2358812583
 20
751.4372063242
 30
0.0
 11
82.9585830824
 21
751.3911888395
 31
0.0
  0
LINE
  5
142
330
75
100
AcDbEntity
  8
$DDT_AUDIT_GENERATED_(110)
  6
Continuous
 62
     7
100
AcDbLine
 10
83.3922268059
 20
751.4248273967
 30
0.0
 11
83.1317881632
 21
751.3816077425
 31
0.0
  0
ELLIPSE
  5
143
330
75
100
AcDbEntity
  8
$DDT_AUDIT_GENERATED_(110)
  6
Continuous
 62
     7
100
AcDbEllipse
 10
87.2948911138
 20
752.0916346828
 30
0.0
 11
-8.499999595757401
 21
2.599923054624753E-8
 31
0.0
210
0.0
220
0.0
230
1.0
 40
0.09581097
 41
0.773633201890029
 42
0.7971631572120619
  0
ELLIPSE
  5
144
330
75
100
AcDbEntity
  8
$DDT_AUDIT_GENERATED_(110)
  6
Continuous
 62
     7
100
AcDbEllipse
 10
87.294891495
 20
752.0916347192
 30
0.0
 11
-8.500000000019627
 21
-1.720845688168993E-12
 31
0.0
210
0.0
220
0.0
230
1.0
 40
0.09581097
 41
0.7971631406848099
 42
1.035432573907392
  0
LINE
  5
145
330
75
100
AcDbEntity
  8
$DDT_AUDIT_GENERATED_(110)
  6
Continuous
 62
     7
100
AcDbLine
 10
81.2141891363
 20
751.5225864455
 30
0.0
 11
81.2141891363
 21
751.7442083144
 31
0.0
  0
LINE
  5
146
330
75
100
AcDbEntity
  8
$DDT_AUDIT_GENERATED_(110)
  6
Continuous
 62
     7
100
AcDbLine
 10
81.907414256
 20
751.5890050166
 30
0.0
 11
81.2141891363
 21
751.5225864455
 31
0.0
  0
LINE
  5
147
330
75
100
AcDbEntity
  8
$DDT_AUDIT_GENERATED_(110)
  6
Continuous
 62
     7
100
AcDbLine
 10
82.0146267202
 20
751.5721777122
 30
0.0
 11
81.3556104925
 21
751.5090367282
 31
0.0
  0
ELLIPSE
  5
148
330
75
100
AcDbEntity
  8
$DDT_AUDIT_GENERATED_(110)
  6
Continuous
 62
     7
100
AcDbEllipse
 10
87.2948910874
 20
752.0916346966
 30
0.0
 11
-8.499999588239371
 21
1.978731067886486E-8
 31
0.0
210
0.0
220
0.0
230
1.0
 40
0.0958109713
 41
0.5118338101943785
 42
0.5353637654219249
  0
ELLIPSE
  5
149
330
75
100
AcDbEntity
  8
$DDT_AUDIT_GENERATED_(110)
  6
Continuous
 62
     7
100
AcDbEllipse
 10
87.294891495
 20
752.0916347192
 30
0.0
 11
-8.500000000025913
 21
-1.720845688168993E-12
 31
0.0
210
0.0
220
0.0
230
1.0
 40
0.09581097
 41
0.5353637528857009
 42
0.7736331861082426
  0
LINE
  5
14A
330
75
100
AcDbEntity
  8
$DDT_AUDIT_GENERATED_(110)
  6
Continuous
 62
     7
100
AcDbLine
 10
79.8841850071
 20
751.6927637509
 30
0.0
 11
79.8841850071
 21
751.8914644827
 31
0.0
  0
LINE
  5
14B
330
75
100
AcDbEntity
  8
$DDT_AUDIT_GENERATED_(110)
  6
Continuous
 62
     7
100
AcDbLine
 10
81.1885230721
 20
751.7649151536
 30
0.0
 11
79.8841850071
 21
751.6927637509
 31
0.0
  0
LINE
  5
14C
330
75
100
AcDbEntity
  8
$DDT_AUDIT_GENERATED_(110)
  6
Continuous
 62
     7
100
AcDbLine
 10
81.236442003
 20
751.7454392649
 30
0.0
 11
79.9841850071
 21
751.6761688041
 31
0.0
  0
ELLIPSE
  5
14D
330
75
100
AcDbEntity
  8
$DDT_AUDIT_GENERATED_(110)
  6
Continuous
 62
     7
100
AcDbEllipse
 10
87.2948909731
 20
752.0916347059
 30
0.0
 11
-8.499999477856582
 21
1.303898655713454E-8
 31
0.0
210
0.0
220
0.0
230
1.0
 40
0.0958109726
 41
0.2500344182303116
 42
0.2735643735541621
  0
ELLIPSE
  5
14E
330
75
100
AcDbEntity
  8
$DDT_AUDIT_GENERATED_(110)
  6
Continuous
 62
     7
100
AcDbEllipse
 10
87.294891495
 20
752.0916347192
 30
0.0
 11
-8.500000000026226
 21
-1.554312234475219E-12
 31
0.0
210
0.0
220
0.0
230
1.0
 40
0.09581097
 41
0.2735643650868409
 42
0.5118337983094239
  0
LINE
  5
14F
330
75
100
AcDbEntity
  8
$DDT_AUDIT_GENERATED_(110)
  6
Continuous
 62
     7
100
AcDbLine
 10
79.0592082783
 20
751.8901234537
 30
0.0
 11
79.0592082783
 21
752.0820536222
 31
0.0
  0
LINE
  5
150
330
75
100
AcDbEntity
  8
$DDT_AUDIT_GENERATED_(110)
  6
Continuous
 62
     7
100
AcDbLine
 10
81.0448914949
 20
751.9411008506
 30
0.0
 11
79.0592082783
 21
751.8901234537
 31
0.0
  0
LINE
  5
151
330
75
100
AcDbEntity
  8
$DDT_AUDIT_GENERATED_(110)
  6
Continuous
 62
     7
100
AcDbLine
 10
81.0448914949
 20
751.9212626876
 30
0.0
 11
79.1109720873
 21
751.8716141957
 31
0.0
  0
ELLIPSE
  5
152
330
75
100
AcDbEntity
  8
$DDT_AUDIT_GENERATED_(110)
  6
Continuous
 62
     7
100
AcDbEllipse
 10
87.294891495
 20
752.0916347192
 30
0.0
 11
-8.500000000030228
 21
8.326672684688674E-14
 31
0.0
210
0.0
220
0.0
230
1.0
 40
0.09581097
 41
0.0248422887893124
 42
0.25003441051064
  0
ARC
  5
153
330
75
100
AcDbEntity
  8
$DDT_AUDIT_GENERATED_(110)
  6
Continuous
 62
     7
100
AcDbCircle
 10
81.1030575892
 20
752.0916347192
 30
0.0
 40
0.0581606422945494
100
AcDbArc
 50
170.5181559852
 51
180.0
  0
LINE
  5
154
330
75
100
AcDbEntity
  8
$DDT_AUDIT_GENERATED_(110)
  6
Continuous
 62
     7
100
AcDbLine
 10
81.0456915462
 20
752.1012158162
 30
0.0
 11
81.0456915462
 21
752.2421480486
 31
0.0
  0
LINE
  5
155
330
75
100
AcDbEntity
  8
$DDT_AUDIT_GENERATED_(110)
  6
Continuous
 62
     7
100
AcDbLine
 10
81.0456915462
 20
752.1012158162
 30
0.0
 11
78.87188663
 21
752.1012158162
 31
0.0
  0
LINE
  5
156
330
75
100
AcDbEntity
  8
$DDT_AUDIT_GENERATED_(110)
  6
Continuous
 62
     7
100
AcDbLine
 10
81.0448914949
 20
752.0820536222
 30
0.0
 11
78.8226930119
 21
752.0820536222
 31
0.0
  0
ELLIPSE
  5
157
330
75
100
AcDbEntity
  8
$DDT_AUDIT_GENERATED_(110)
  6
Continuous
 62
     7
100
AcDbEllipse
 10
87.2948915507
 20
752.0916347178
 30
0.0
 11
-6.250000055736628
 21
1.368044566518734E-9
 31
0.0
210
0.0
220
0.0
230
1.0
 40
0.0958109696
 41
-0.2778000692960942
 42
-0.2457987039530654
  0
LINE
  5
158
330
75
100
AcDbEntity
  8
$DDT_AUDIT_GENERATED_(110)
  6
Continuous
 62
     7
100
AcDbLine
 10
81.2845097753
 20
752.2558551573
 30
0.0
 11
81.2845097753
 21
752.4130446375
 31
0.0
  0
LINE
  5
159
330
75
100
AcDbEntity
  8
$DDT_AUDIT_GENERATED_(110)
  6
Continuous
 62
     7
100
AcDbLine
 10
81.2845097753
 20
752.2558551573
 30
0.0
 11
79.6868591943
 21
752.2968707972
 31
0.0
  0
LINE
  5
15A
330
75
100
AcDbEntity
  8
$DDT_AUDIT_GENERATED_(110)
  6
Continuous
 62
     7
100
AcDbLine
 10
81.2327459663
 20
752.2373458993
 30
0.0
 11
79.5892898538
 21
752.2795374803
 31
0.0
  0
ELLIPSE
  5
15B
330
75
100
AcDbEntity
  8
$DDT_AUDIT_GENERATED_(110)
  6
Continuous
 62
     7
100
AcDbEllipse
 10
87.2948915442
 20
752.0916347165
 30
0.0
 11
-6.250000049808691
 21
2.400496468268898E-9
 31
0.0
210
0.0
220
0.0
230
1.0
 40
0.0958109698
 41
-0.539599456261973
 42
-0.507598090917087
  0
LINE
  5
15C
330
75
100
AcDbEntity
  8
$DDT_AUDIT_GENERATED_(110)
  6
Continuous
 62
     7
100
AcDbLine
 10
81.932925586
 20
752.3993031469
 30
0.0
 11
81.932925586
 21
752.5489775854
 31
0.0
  0
LINE
  5
15D
330
75
100
AcDbEntity
  8
$DDT_AUDIT_GENERATED_(110)
  6
Continuous
 62
     7
100
AcDbLine
 10
81.932925586
 20
752.3993031469
 30
0.0
 11
80.8919680918
 21
752.456885261
 31
0.0
  0
LINE
  5
15E
330
75
100
AcDbEntity
  8
$DDT_AUDIT_GENERATED_(110)
  6
Continuous
 62
     7
100
AcDbLine
 10
81.832925586
 20
752.3827082002
 30
0.0
 11
80.7553488138
 21
752.4423159641
 31
0.0
  0
ELLIPSE
  5
15F
330
75
100
AcDbEntity
  8
$DDT_AUDIT_GENERATED_(110)
  6
Continuous
 62
     7
100
AcDbEllipse
 10
87.2948915357
 20
752.0916347153
 30
0.0
 11
-6.250000043232508
 21
2.795597087157375E-9
 31
0.0
210
0.0
220
0.0
230
1.0
 40
0.09581097
 41
-0.8013988437200732
 42
-0.7693974783769804
  0
LINE
  5
160
330
75
100
AcDbEntity
  8
$DDT_AUDIT_GENERATED_(110)
  6
Continuous
 62
     7
100
AcDbLine
 10
82.9467505123
 20
752.5217840417
 30
0.0
 11
82.9467505123
 21
752.6145378003
 31
0.0
  0
LINE
  5
161
330
75
100
AcDbEntity
  8
$DDT_AUDIT_GENERATED_(110)
  6
Continuous
 62
     7
100
AcDbLine
 10
82.9467505123
 20
752.5217840417
 30
0.0
 11
82.3535952603
 21
752.5786148217
 31
0.0
  0
LINE
  5
162
330
75
100
AcDbEntity
  8
$DDT_AUDIT_GENERATED_(110)
  6
Continuous
 62
     7
100
AcDbLine
 10
82.805329156
 20
752.5082343243
 30
0.0
 11
82.1879409418
 21
752.567386888
 31
0.0
  0
ELLIPSE
  5
163
330
75
100
AcDbEntity
  8
$DDT_AUDIT_GENERATED_(110)
  6
Continuous
 62
     7
100
AcDbEllipse
 10
87.2948915302
 20
752.0916347134
 30
0.0
 11
-6.250000044020272
 21
2.937483589704471E-9
 31
0.0
210
0.0
220
0.0
230
1.0
 40
0.0958109702
 41
-1.063198231361934
 42
-1.031196866051529
  0
LINE
  5
164
330
75
100
AcDbEntity
  8
$DDT_AUDIT_GENERATED_(110)
  6
Continuous
 62
     7
100
AcDbLine
 10
84.2568940609
 20
752.6149509709
 30
0.0
 11
84.2568940609
 21
752.6736379668
 31
0.0
  0
LINE
  5
165
330
75
100
AcDbEntity
  8
$DDT_AUDIT_GENERATED_(110)
  6
Continuous
 62
     7
100
AcDbLine
 10
84.2568940609
 20
752.6149509709
 30
0.0
 11
83.9686605418
 21
752.6627831701
 31
0.0
  0
LINE
  5
166
330
75
100
AcDbEntity
  8
$DDT_AUDIT_GENERATED_(110)
  6
Continuous
 62
     7
100
AcDbLine
 10
84.0836889802
 20
752.6053698739
 30
0.0
 11
83.7834269649
 21
752.6551981956
 31
0.0
  0
ELLIPSE
  5
167
330
75
100
AcDbEntity
  8
$DDT_AUDIT_GENERATED_(110)
  6
Continuous
 62
     7
100
AcDbEllipse
 10
87.2948915097
 20
752.091634714
 30
0.0
 11
-6.250000030416522
 21
1.374511615637175E-9
 31
0.0
210
0.0
220
0.0
230
1.0
 40
0.0958109703
 41
-1.324997620507034
 42
-1.292996255162464
  0
LINE
  5
168
330
75
100
AcDbEntity
  8
$DDT_AUDIT_GENERATED_(110)
  6
Continuous
 62
     7
100
AcDbLine
 10
85.7740721142
 20
752.6724547624
 30
0.0
 11
85.7740721142
 21
752.7132757865
 31
0.0
  0
LINE
  5
169
330
75
100
AcDbEntity
  8
$DDT_AUDIT_GENERATED_(110)
  6
Continuous
 62
     7
100
AcDbLine
 10
85.7740721142
 20
752.6724547624
 30
0.0
 11
85.665277204
 21
752.7113567116
 31
0.0
  0
LINE
  5
16A
330
75
100
AcDbEntity
  8
$DDT_AUDIT_GENERATED_(110)
  6
Continuous
 62
     7
100
AcDbLine
 10
85.5808869489
 20
752.6674952217
 30
0.0
 11
85.4688859494
 21
752.7075435768
 31
0.0
  0
ARC
  5
16B
330
75
100
AcDbEntity
  8
$DDT_AUDIT_GENERATED_(110)
  6
Continuous
 62
     7
100
AcDbCircle
 10
87.2948914949
 20
687.4661131595
 30
0.0
 40
65.22434012690347
100
AcDbArc
 50
89.9121557967
 51
90.0878442033
  0
LINE
  5
16C
330
75
100
AcDbEntity
  8
$DDT_AUDIT_GENERATED_(110)
  6
Continuous
 62
     7
100
AcDbLine
 10
87.3948914949
 20
752.6903766279
 30
0.0
 11
87.3948914949
 21
752.726055183
 31
0.0
  0
LINE
  5
16D
330
75
100
AcDbEntity
  8
$DDT_AUDIT_GENERATED_(110)
  6
Continuous
 62
     7
100
AcDbLine
 10
87.1948914949
 20
752.6903766279
 30
0.0
 11
87.1948914949
 21
752.726055183
 31
0.0
  0
ELLIPSE
  5
16E
330
75
100
AcDbEntity
  8
$DDT_AUDIT_GENERATED_(110)
  6
Continuous
 62
     7
100
AcDbEllipse
 10
87.2948915074
 20
752.0916347237
 30
0.0
 11
6.24999997432481
 21
-1.168065644208127E-9
 31
0.0
210
0.0
220
0.0
230
1.0
 40
0.0958109696
 41
1.292996257172783
 42
1.324997622786356
  0
LINE
  5
16F
330
75
100
AcDbEntity
  8
$DDT_AUDIT_GENERATED_(110)
  6
Continuous
 62
     7
100
AcDbLine
 10
89.008896041
 20
752.6674952217
 30
0.0
 11
89.1208970405
 21
752.7075435768
 31
0.0
  0
LINE
  5
170
330
75
100
AcDbEntity
  8
$DDT_AUDIT_GENERATED_(110)
  6
Continuous
 62
     7
100
AcDbLine
 10
88.8157108757
 20
752.6724547624
 30
0.0
 11
88.9245057859
 21
752.7113567116
 31
0.0
  0
LINE
  5
171
330
75
100
AcDbEntity
  8
$DDT_AUDIT_GENERATED_(110)
  6
Continuous
 62
     7
100
AcDbLine
 10
88.8157108757
 20
752.6724547624
 30
0.0
 11
88.8157108757
 21
752.7132757865
 31
0.0
  0
ELLIPSE
  5
172
330
75
100
AcDbEntity
  8
$DDT_AUDIT_GENERATED_(110)
  6
Continuous
 62
     7
100
AcDbEllipse
 10
87.2948914665
 20
752.0916347145
 30
0.0
 11
6.250000035623152
 21
2.371630669628644E-9
 31
0.0
210
0.0
220
0.0
230
1.0
 40
0.0958109702
 41
1.031196866509906
 42
1.063198231854738
  0
LINE
  5
173
330
75
100
AcDbEntity
  8
$DDT_AUDIT_GENERATED_(110)
  6
Continuous
 62
     7
100
AcDbLine
 10
90.5060940097
 20
752.6053698739
 30
0.0
 11
90.806356025
 21
752.6551981956
 31
0.0
  0
LINE
  5
174
330
75
100
AcDbEntity
  8
$DDT_AUDIT_GENERATED_(110)
  6
Continuous
 62
     7
100
AcDbLine
 10
90.332888929
 20
752.6149509709
 30
0.0
 11
90.6211224481
 21
752.6627831701
 31
0.0
  0
LINE
  5
175
330
75
100
AcDbEntity
  8
$DDT_AUDIT_GENERATED_(110)
  6
Continuous
 62
     7
100
AcDbLine
 10
90.332888929
 20
752.6149509709
 30
0.0
 11
90.332888929
 21
752.6736379668
 31
0.0
  0
ELLIPSE
  5
176
330
75
100
AcDbEntity
  8
$DDT_AUDIT_GENERATED_(110)
  6
Continuous
 62
     7
100
AcDbEllipse
 10
87.2948914542
 20
752.0916347153
 30
0.0
 11
6.250000043241039
 21
2.796096687518457E-9
 31
0.0
210
0.0
220
0.0
230
1.0
 40
0.09581097
 41
0.7693974783784314
 42
0.8013988437214887
  0
LINE
  5
177
330
75
100
AcDbEntity
  8
$DDT_AUDIT_GENERATED_(110)
  6
Continuous
 62
     7
100
AcDbLine
 10
91.7844538338
 20
752.5082343243
 30
0.0
 11
92.4018420481
 21
752.567386888
 31
0.0
  0
LINE
  5
178
330
75
100
AcDbEntity
  8
$DDT_AUDIT_GENERATED_(110)
  6
Continuous
 62
     7
100
AcDbLine
 10
91.6430324776
 20
752.5217840417
 30
0.0
 11
92.2361877296
 21
752.5786148217
 31
0.0
  0
LINE
  5
179
330
75
100
AcDbEntity
  8
$DDT_AUDIT_GENERATED_(110)
  6
Continuous
 62
     7
100
AcDbLine
 10
91.6430324776
 20
752.5217840417
 30
0.0
 11
91.6430324776
 21
752.6145378003
 31
0.0
  0
ELLIPSE
  5
17A
330
75
100
AcDbEntity
  8
$DDT_AUDIT_GENERATED_(110)
  6
Continuous
 62
     7
100
AcDbEllipse
 10
87.2948914446
 20
752.0916347164
 30
0.0
 11
6.250000050903049
 21
2.452898995031205E-9
 31
0.0
210
0.0
220
0.0
230
1.0
 40
0.0958109697
 41
0.5075980908743525
 42
0.5395994562160167
  0
LINE
  5
17B
330
75
100
AcDbEntity
  8
$DDT_AUDIT_GENERATED_(110)
  6
Continuous
 62
     7
100
AcDbLine
 10
92.7568574039
 20
752.3827082002
 30
0.0
 11
93.8344341761
 21
752.4423159641
 31
0.0
  0
LINE
  5
17C
330
75
100
AcDbEntity
  8
$DDT_AUDIT_GENERATED_(110)
  6
Continuous
 62
     7
100
AcDbLine
 10
92.6568574039
 20
752.3993031469
 30
0.0
 11
93.6978148981
 21
752.456885261
 31
0.0
  0
LINE
  5
17D
330
75
100
AcDbEntity
  8
$DDT_AUDIT_GENERATED_(110)
  6
Continuous
 62
     7
100
AcDbLine
 10
92.6568574039
 20
752.3993031469
 30
0.0
 11
92.6568574039
 21
752.5489775854
 31
0.0
  0
ELLIPSE
  5
17E
330
75
100
AcDbEntity
  8
$DDT_AUDIT_GENERATED_(110)
  6
Continuous
 62
     7
100
AcDbEllipse
 10
87.294891464
 20
752.0916347185
 30
0.0
 11
6.250000030997172
 21
7.491784970170557E-10
 31
0.0
210
0.0
220
0.0
230
1.0
 40
0.0958109698
 41
0.2457987044418256
 42
0.2778000698503531
  0
LINE
  5
17F
330
75
100
AcDbEntity
  8
$DDT_AUDIT_GENERATED_(110)
  6
Continuous
 62
     7
100
AcDbLine
 10
93.3570370236
 20
752.2373458993
 30
0.0
 11
95.0004931361
 21
752.2795374803
 31
0.0
  0
LINE
  5
180
330
75
100
AcDbEntity
  8
$DDT_AUDIT_GENERATED_(110)
  6
Continuous
 62
     7
100
AcDbLine
 10
93.3052732146
 20
752.2558551573
 30
0.0
 11
94.9029237956
 21
752.2968707972
 31
0.0
  0
LINE
  5
181
330
75
100
AcDbEntity
  8
$DDT_AUDIT_GENERATED_(110)
  6
Continuous
 62
     7
100
AcDbLine
 10
93.3052732146
 20
752.2558551573
 30
0.0
 11
93.3052732146
 21
752.4130446375
 31
0.0
  0
ELLIPSE
  5
182
330
75
100
AcDbEntity
  8
$DDT_AUDIT_GENERATED_(110)
  6
Continuous
 62
     7
100
AcDbEllipse
 10
87.2948914949
 20
752.0916347192
 30
0.0
 11
-2.749999999999945
 21
3.441691376337985E-12
 31
0.0
210
0.0
220
0.0
230
1.0
 40
0.09581097
 41
3.141592653589793
 42
3.205272045846677
  0
LINE
  5
183
330
75
100
AcDbEntity
  8
$DDT_AUDIT_GENERATED_(110)
  6
Continuous
 62
     7
100
AcDbLine
 10
90.0393176645
 20
752.2240859688
 30
0.0
 11
90.0393176645
 21
752.108401639
 31
0.0
  0
LINE
  5
184
330
75
100
AcDbEntity
  8
$DDT_AUDIT_GENERATED_(110)
  6
Continuous
 62
     7
100
AcDbLine
 10
90.0448914949
 20
752.0748677995
 30
0.0
 11
92.1879169603
 21
752.0748677995
 31
0.0
  0
LINE
  5
185
330
75
100
AcDbEntity
  8
$DDT_AUDIT_GENERATED_(110)
  6
Continuous
 62
     7
100
AcDbLine
 10
90.0393176645
 20
752.108401639
 30
0.0
 11
92.0369595972
 21
752.108401639
 31
0.0
  0
ELLIPSE
  5
186
330
75
100
AcDbEntity
  8
$DDT_AUDIT_GENERATED_(110)
  6
Continuous
 62
     7
100
AcDbEllipse
 10
87.294891498
 20
752.0916347191
 30
0.0
 11
5.249999996919338
 21
1.502686863830149E-10
 31
0.0
210
0.0
220
0.0
230
1.0
 40
0.09581097
 41
-0.5569382850188145
 42
-0.4902592664738856
  0
LINE
  5
187
330
75
100
AcDbEntity
  8
$DDT_AUDIT_GENERATED_(110)
  6
Continuous
 62
     7
100
AcDbLine
 10
90.0448914949
 20
751.9201536024
 30
0.0
 11
91.7514982554
 21
751.8257501078
 31
0.0
  0
LINE
  5
188
330
75
100
AcDbEntity
  8
$DDT_AUDIT_GENERATED_(110)
  6
Continuous
 62
     7
100
AcDbLine
 10
90.0448914949
 20
751.9588751449
 30
0.0
 11
91.9264982554
 21
751.8547912647
 31
0.0
  0
LINE
  5
189
330
75
100
AcDbEntity
  8
$DDT_AUDIT_GENERATED_(110)
  6
Continuous
 62
     7
100
AcDbLine
 10
91.9264982554
 20
752.0748677995
 30
0.0
 11
91.9264982554
 21
751.8547912647
 31
0.0
  0
ELLIPSE
  5
18A
330
75
100
AcDbEntity
  8
$DDT_AUDIT_GENERATED_(110)
  6
Continuous
 62
     7
100
AcDbEllipse
 10
87.2948914947
 20
752.0916347193
 30
0.0
 11
5.250000000260682
 21
-2.525757381022231E-11
 31
0.0
210
0.0
220
0.0
230
1.0
 40
0.09581097
 41
-1.080537060440214
 42
-1.013858041920361
  0
LINE
  5
18B
330
75
100
AcDbEntity
  8
$DDT_AUDIT_GENERATED_(110)
  6
Continuous
 62
     7
100
AcDbLine
 10
89.3484554507
 20
751.717313034
 30
0.0
 11
89.7668783106
 21
751.647875983
 31
0.0
  0
LINE
  5
18C
330
75
100
AcDbEntity
  8
$DDT_AUDIT_GENERATED_(110)
  6
Continuous
 62
     7
100
AcDbLine
 10
89.5799618423
 20
751.7459623504
 30
0.0
 11
90.069987202
 21
751.6646429028
 31
0.0
  0
LINE
  5
18D
330
75
100
AcDbEntity
  8
$DDT_AUDIT_GENERATED_(110)
  6
Continuous
 62
     7
100
AcDbLine
 10
90.069987202
 20
751.918765396
 30
0.0
 11
90.069987202
 21
751.6646429028
 31
0.0
  0
ARC
  5
18E
330
75
100
AcDbEntity
  8
$DDT_AUDIT_GENERATED_(110)
  6
Continuous
 62
     7
100
AcDbCircle
 10
87.2948914949
 20
806.3538518832
 30
0.0
 40
54.76522483329986
100
AcDbArc
 50
269.8169134061
 51
270.1830865939
  0
LINE
  5
18F
330
75
100
AcDbEntity
  8
$DDT_AUDIT_GENERATED_(110)
  6
Continuous
 62
     7
100
AcDbLine
 10
87.1198914949
 20
751.6296086765
 30
0.0
 11
87.1198914949
 21
751.5889066532
 31
0.0
  0
LINE
  5
190
330
75
100
AcDbEntity
  8
$DDT_AUDIT_GENERATED_(110)
  6
Continuous
 62
     7
100
AcDbLine
 10
87.4698914949
 20
751.6296086765
 30
0.0
 11
87.4698914949
 21
751.5889066532
 31
0.0
  0
ELLIPSE
  5
191
330
75
100
AcDbEntity
  8
$DDT_AUDIT_GENERATED_(110)
  6
Continuous
 62
     7
100
AcDbEllipse
 10
87.2948914944
 20
752.0916347191
 30
0.0
 11
-5.249999999332409
 21
4.954370247389761E-11
 31
0.0
210
0.0
220
0.0
230
1.0
 40
0.09581097
 41
1.013858041976588
 42
1.080537060506022
  0
LINE
  5
192
330
75
100
AcDbEntity
  8
$DDT_AUDIT_GENERATED_(110)
  6
Continuous
 62
     7
100
AcDbLine
 10
85.0098211476
 20
751.7459623504
 30
0.0
 11
84.5197957879
 21
751.6646429028
 31
0.0
  0
LINE
  5
193
330
75
100
AcDbEntity
  8
$DDT_AUDIT_GENERATED_(110)
  6
Continuous
 62
     7
100
AcDbLine
 10
85.2413275392
 20
751.717313034
 30
0.0
 11
84.8229046793
 21
751.647875983
 31
0.0
  0
LINE
  5
194
330
75
100
AcDbEntity
  8
$DDT_AUDIT_GENERATED_(110)
  6
Continuous
 62
     7
100
AcDbLine
 10
84.5197957879
 20
751.918765396
 30
0.0
 11
84.5197957879
 21
751.6646429028
 31
0.0
  0
ELLIPSE
  5
195
330
75
100
AcDbEntity
  8
$DDT_AUDIT_GENERATED_(110)
  6
Continuous
 62
     7
100
AcDbEllipse
 10
87.294891494
 20
752.0916347192
 30
0.0
 11
-5.249999999048611
 21
4.837796829804120E-11
 31
0.0
210
0.0
220
0.0
230
1.0
 40
0.09581097
 41
0.4902592663794555
 42
0.5569382849090224
  0
LINE
  5
196
330
75
100
AcDbEntity
  8
$DDT_AUDIT_GENERATED_(110)
  6
Continuous
 62
     7
100
AcDbLine
 10
84.5448914949
 20
751.9588751449
 30
0.0
 11
82.6632847345
 21
751.8547912647
 31
0.0
  0
LINE
  5
197
330
75
100
AcDbEntity
  8
$DDT_AUDIT_GENERATED_(110)
  6
Continuous
 62
     7
100
AcDbLine
 10
84.5448914949
 20
751.9201536024
 30
0.0
 11
82.8382847345
 21
751.8257501078
 31
0.0
  0
LINE
  5
198
330
75
100
AcDbEntity
  8
$DDT_AUDIT_GENERATED_(110)
  6
Continuous
 62
     7
100
AcDbLine
 10
82.6632847345
 20
752.0748677995
 30
0.0
 11
82.6632847345
 21
751.8547912647
 31
0.0
  0
LINE
  5
199
330
75
100
AcDbEntity
  8
$DDT_AUDIT_GENERATED_(110)
  6
Continuous
 62
     7
100
AcDbLine
 10
84.5504653254
 20
752.2240859688
 30
0.0
 11
84.5504653254
 21
752.108401639
 31
0.0
  0
ELLIPSE
  5
19A
330
75
100
AcDbEntity
  8
$DDT_AUDIT_GENERATED_(110)
  6
Continuous
 62
     7
100
AcDbEllipse
 10
87.2948914949
 20
752.0916347192
 30
0.0
 11
2.750000000001485
 21
3.441691376337985E-12
 31
0.0
210
0.0
220
0.0
230
1.0
 40
0.09581097
 41
3.077913261332897
 42
3.141592653589793
  0
LINE
  5
19B
330
75
100
AcDbEntity
  8
$DDT_AUDIT_GENERATED_(110)
  6
Continuous
 62
     7
100
AcDbLine
 10
84.5504653254
 20
752.108401639
 30
0.0
 11
82.5528233927
 21
752.108401639
 31
0.0
  0
LINE
  5
19C
330
75
100
AcDbEntity
  8
$DDT_AUDIT_GENERATED_(110)
  6
Continuous
 62
     7
100
AcDbLine
 10
84.5448914949
 20
752.0748677995
 30
0.0
 11
82.4018660296
 21
752.0748677995
 31
0.0
  0
LINE
  5
19D
330
75
100
AcDbEntity
  8
$DDT_AUDIT_GENERATED_(110)
  6
Continuous
 62
     7
100
AcDbLine
 10
85.0056487133
 20
752.345223545
 30
0.0
 11
85.0056487133
 21
752.2376283643
 31
0.0
  0
ELLIPSE
  5
19E
330
75
100
AcDbEntity
  8
$DDT_AUDIT_GENERATED_(110)
  6
Continuous
 62
     7
100
AcDbEllipse
 10
87.2948914949
 20
752.0916347192
 30
0.0
 11
-2.749999999993518
 21
-3.885780586188048E-12
 31
0.0
210
0.0
220
0.0
230
1.0
 40
0.09581097
 41
-0.5872781678560228
 42
-0.4599193833420809
  0
LINE
  5
19F
330
75
100
AcDbEntity
  8
$DDT_AUDIT_GENERATED_(110)
  6
Continuous
 62
     7
100
AcDbLine
 10
85.0056487133
 20
752.2376283643
 30
0.0
 11
84.069285515
 21
752.2894246892
 31
0.0
  0
LINE
  5
1A0
330
75
100
AcDbEntity
  8
$DDT_AUDIT_GENERATED_(110)
  6
Continuous
 62
     7
100
AcDbLine
 10
84.8306487133
 20
752.2085872075
 30
0.0
 11
83.7836154433
 21
752.2665054121
 31
0.0
  0
LINE
  5
1A1
330
75
100
AcDbEntity
  8
$DDT_AUDIT_GENERATED_(110)
  6
Continuous
 62
     7
100
AcDbLine
 10
86.0742328558
 20
752.381777411
 30
0.0
 11
86.0742328558
 21
752.3277362104
 31
0.0
  0
ELLIPSE
  5
1A2
330
75
100
AcDbEntity
  8
$DDT_AUDIT_GENERATED_(110)
  6
Continuous
 62
     7
100
AcDbEllipse
 10
87.294891495
 20
752.0916347192
 30
0.0
 11
-2.750000000090369
 21
8.076872504148014E-12
 31
0.0
210
0.0
220
0.0
230
1.0
 40
0.09581097
 41
-1.110876943440283
 42
-0.9835181589296527
  0
LINE
  5
1A3
330
75
100
AcDbEntity
  8
$DDT_AUDIT_GENERATED_(110)
  6
Continuous
 62
     7
100
AcDbLine
 10
86.0742328558
 20
752.3277362104
 30
0.0
 11
85.792312645
 21
752.3745207194
 31
0.0
  0
LINE
  5
1A4
330
75
100
AcDbEntity
  8
$DDT_AUDIT_GENERATED_(110)
  6
Continuous
 62
     7
100
AcDbLine
 10
85.7711239645
 20
752.3109692906
 30
0.0
 11
85.4538531377
 21
752.3636202155
 31
0.0
  0
ARC
  5
1A5
330
75
100
AcDbEntity
  8
$DDT_AUDIT_GENERATED_(110)
  6
Continuous
 62
     7
100
AcDbCircle
 10
87.2948914949
 20
723.7104060734
 30
0.0
 40
28.64470935058266
100
AcDbArc
 50
89.6499589622
 51
90.3500410378
  0
LINE
  5
1A6
330
75
100
AcDbEntity
  8
$DDT_AUDIT_GENERATED_(110)
  6
Continuous
 62
     7
100
AcDbLine
 10
87.4698914949
 20
752.3545808525
 30
0.0
 11
87.4698914949
 21
752.3952828759
 31
0.0
  0
LINE
  5
1A7
330
75
100
AcDbEntity
  8
$DDT_AUDIT_GENERATED_(110)
  6
Continuous
 62
     7
100
AcDbLine
 10
87.1198914949
 20
752.3545808525
 30
0.0
 11
87.1198914949
 21
752.3952828759
 31
0.0
  0
ELLIPSE
  5
1A8
330
75
100
AcDbEntity
  8
$DDT_AUDIT_GENERATED_(110)
  6
Continuous
 62
     7
100
AcDbEllipse
 10
87.294891495
 20
752.0916347192
 30
0.0
 11
2.749999999997363
 21
-1.609823385706477E-12
 31
0.0
210
0.0
220
0.0
230
1.0
 40
0.09581097
 41
0.9835181589401807
 42
1.110876943454259
  0
LINE
  5
1A9
330
75
100
AcDbEntity
  8
$DDT_AUDIT_GENERATED_(110)
  6
Continuous
 62
     7
100
AcDbLine
 10
88.5155501341
 20
752.381777411
 30
0.0
 11
88.5155501341
 21
752.3277362104
 31
0.0
  0
LINE
  5
1AA
330
75
100
AcDbEntity
  8
$DDT_AUDIT_GENERATED_(110)
  6
Continuous
 62
     7
100
AcDbLine
 10
88.8186590254
 20
752.3109692906
 30
0.0
 11
89.1359298522
 21
752.3636202155
 31
0.0
  0
LINE
  5
1AB
330
75
100
AcDbEntity
  8
$DDT_AUDIT_GENERATED_(110)
  6
Continuous
 62
     7
100
AcDbLine
 10
88.5155501341
 20
752.3277362104
 30
0.0
 11
88.7974703449
 21
752.3745207194
 31
0.0
  0
ELLIPSE
  5
1AC
330
75
100
AcDbEntity
  8
$DDT_AUDIT_GENERATED_(110)
  6
Continuous
 62
     7
100
AcDbEllipse
 10
87.294891495
 20
752.0916347192
 30
0.0
 11
2.749999999997988
 21
2.303712776097200E-12
 31
0.0
210
0.0
220
0.0
230
1.0
 40
0.09581097
 41
0.4599193833414215
 42
0.5872781678556096
  0
LINE
  5
1AD
330
75
100
AcDbEntity
  8
$DDT_AUDIT_GENERATED_(110)
  6
Continuous
 62
     7
100
AcDbLine
 10
89.5841342766
 20
752.345223545
 30
0.0
 11
89.5841342766
 21
752.2376283643
 31
0.0
  0
LINE
  5
1AE
330
75
100
AcDbEntity
  8
$DDT_AUDIT_GENERATED_(110)
  6
Continuous
 62
     7
100
AcDbLine
 10
89.7591342766
 20
752.2085872075
 30
0.0
 11
90.8061675466
 21
752.2665054121
 31
0.0
  0
LINE
  5
1AF
330
75
100
AcDbEntity
  8
$DDT_AUDIT_GENERATED_(110)
  6
Continuous
 62
     7
100
AcDbLine
 10
89.5841342766
 20
752.2376283643
 30
0.0
 11
90.5204974749
 21
752.2894246892
 31
0.0
  0
LINE
  5
1B0
330
75
100
AcDbEntity
  8
$DDT_AUDIT_GENERATED_(110)
  6
Continuous
 62
     7
100
AcDbLine
 10
78.2948914949
 20
752.7192210914
 30
0.0
 11
78.2948914949
 21
751.8925548099
 31
0.0
  0
LINE
  5
1B1
330
75
100
AcDbEntity
  8
$DDT_AUDIT_GENERATED_(110)
  6
Continuous
 62
     7
100
AcDbLine
 10
96.2948914949
 20
751.8925548099
 30
0.0
 11
96.2948914949
 21
752.7192210914
 31
0.0
  0
LINE
  5
1B2
330
75
100
AcDbEntity
  8
$DDT_AUDIT_GENERATED_(110)
  6
Continuous
 62
     7
100
AcDbLine
 10
81.0448914949
 20
752.0916347192
 30
0.0
 11
81.0448914949
 21
751.8925548099
 31
0.0
  0
LINE
  5
1B3
330
75
100
AcDbEntity
  8
$DDT_AUDIT_GENERATED_(110)
  6
Continuous
 62
     7
100
AcDbLine
 10
93.5448914949
 20
751.8925548099
 30
0.0
 11
93.5448914949
 21
752.0916347192
 31
0.0
  0
LINE
  5
1B4
330
75
100
AcDbEntity
  8
$DDT_AUDIT_GENERATED_(110)
  6
Continuous
 62
     7
100
AcDbLine
 10
84.5448914949
 20
752.0916347192
 30
0.0
 11
84.5448914949
 21
751.8925548099
 31
0.0
  0
LINE
  5
1B5
330
75
100
AcDbEntity
  8
$DDT_AUDIT_GENERATED_(110)
  6
Continuous
 62
     7
100
AcDbLine
 10
90.0448914949
 20
751.8925548099
 30
0.0
 11
90.0448914949
 21
752.0916347192
 31
0.0
  0
LINE
  5
1B6
330
75
100
AcDbEntity
  8
$DDT_AUDIT_GENERATED_(110)
  6
Continuous
 62
     7
100
AcDbLine
 10
86.7752615511
 20
752.0924414944
 30
0.0
 11
86.7752615511
 21
752.0916347192
 31
0.0
  0
LINE
  5
1B7
330
75
100
AcDbEntity
  8
$DDT_AUDIT_GENERATED_(110)
  6
Continuous
 62
     7
100
AcDbLine
 10
87.8145214388
 20
752.0916347192
 30
0.0
 11
87.8145214388
 21
752.0924414944
 31
0.0
  0
ARC
  5
1B9
330
75
100
AcDbEntity
  8
$DDT_AUDIT_GENERATED_(1B8)
  6
Continuous
 62
     7
100
AcDbCircle
 10
149.3717642355
 20
577.0132843685
 30
0.0
 40
22.5
100
AcDbArc
 50
352.5981802543
 51
20.2451974093
  0
ARC
  5
1BA
330
75
100
AcDbEntity
  8
$DDT_AUDIT_GENERATED_(1B8)
  6
Continuous
 62
     7
100
AcDbCircle
 10
149.2972325788
 20
576.9452276137
 30
0.0
 40
22.5
100
AcDbArc
 50
244.5548025907
 51
272.2018197457
  0
ARC
  5
1BB
330
75
100
AcDbEntity
  8
$DDT_AUDIT_GENERATED_(1B8)
  6
Continuous
 62
     7
100
AcDbCircle
 10
140.2746331859
 20
557.9822979826
 30
0.0
 40
1.500000000000002
100
AcDbArc
 50
222.4
 51
244.5548025907
  0
ARC
  5
1BC
330
75
100
AcDbEntity
  8
$DDT_AUDIT_GENERATED_(1B8)
  6
Continuous
 62
     7
100
AcDbCircle
 10
169.0743914703
 20
584.2800910983
 30
0.0
 40
1.499999999999987
100
AcDbArc
 50
20.2451974093
 51
42.4
  0
ARC
  5
1BD
330
75
100
AcDbEntity
  8
$DDT_AUDIT_GENERATED_(1B8)
  6
Continuous
 62
     7
100
AcDbCircle
 10
171.1884398033
 20
574.1790883327
 30
0.0
 40
0.5000000000000038
100
AcDbArc
 50
312.4
 51
352.5981802543
  0
ARC
  5
1BE
330
75
100
AcDbEntity
  8
$DDT_AUDIT_GENERATED_(1B8)
  6
Continuous
 62
     7
100
AcDbCircle
 10
150.1424625955
 20
554.9614702865
 30
0.0
 40
0.4999999999999987
100
AcDbArc
 50
272.2018197457
 51
312.4
  0
LINE
  5
1BF
330
75
100
AcDbEntity
  8
$DDT_AUDIT_GENERATED_(1B8)
  6
Continuous
 62
     7
100
AcDbLine
 10
150.4796137893
 20
554.5922426162
 30
0.0
 11
171.5255909971
 21
573.8098606623
 31
0.0
  0
LINE
  5
1C0
330
75
100
AcDbEntity
  8
$DDT_AUDIT_GENERATED_(1B8)
  6
Continuous
 62
     7
100
AcDbLine
 10
170.1820744812
 20
585.2915446797
 30
0.0
 11
168.6445387145
 21
586.9753611977
 31
0.0
  0
LINE
  5
1C1
330
75
100
AcDbEntity
  8
$DDT_AUDIT_GENERATED_(1B8)
  6
Continuous
 62
     7
100
AcDbLine
 10
135.51511871
 20
560.970110158
 30
0.0
 11
139.1669501749
 21
556.9708444012
 31
0.0
  0
ENDBLK
  5
1C3
330
75
100
AcDbEntity
  8
0
100
AcDbBlockEnd
  0
BLOCK
  5
228
330
1C4
100
AcDbEntity
  8
0
100
AcDbBlockBegin
  2
SE1
 70
     0
 10
0.0
 20
0.0
 30
0.0
  3
SE1
  1

  0
LINE
  5
1C6
330
1C4
100
AcDbEntity
  8
$DDT_AUDIT_GENERATED_(77)
  6
Continuous
 62
     7
100
AcDbLine
 10
316.1274884913
 20
696.6223080933
 30
0.0
 11
331.1370212808
 21
696.6223080933
 31
0.0
  0
SPLINE
  5
1C7
330
1C4
100
AcDbEntity
  8
$DDT_AUDIT_GENERATED_(77)
  6
Continuous
 62
     7
100
AcDbSpline
210
0.0
220
0.0
230
1.0
 70
     8
 71
     3
 72
    21
 73
    17
 74
     0
 42
0.0000000001489502
 43
0.0000000001
 40
0.0000032083719855
 40
0.0000032083719855
 40
0.0000032083719855
 40
0.0000032083719855
 40
0.03125
 40
0.0625
 40
0.09375
 40
0.125
 40
0.140625
 40
0.15625
 40
0.1875
 40
0.21875
 40
0.25
 40
0.28125
 40
0.3125
 40
0.375
 40
0.4375
 40
0.4625174910491045
 40
0.4625174910491045
 40
0.4625174910491045
 40
0.4625174910491045
 10
331.1365678264623
 20
558.7906565618141
 30
0.0
 10
329.6644825315024
 20
558.7906556872839
 30
0.0
 10
326.7207519914708
 20
558.7821230347388
 30
0.0
 10
322.4338271914879
 20
558.7534691695668
 30
0.0
 10
318.3796734159728
 20
558.7217003266205
 30
0.0
 10
315.2955249559423
 20
558.7080038515269
 30
0.0
 10
313.0411531288228
 20
558.7123487079111
 30
0.0
 10
310.9563914403084
 20
558.7288677051914
 30
0.0
 10
308.7202936733037
 20
558.7760419345784
 30
0.0
 10
306.8675375344068
 20
558.8881384933088
 30
0.0
 10
305.6197243571394
 20
559.0626985918492
 30
0.0
 10
304.7631433510954
 20
559.3113890109768
 30
0.0
 10
303.9708427390224
 20
559.766068149678
 30
0.0
 10
303.4321983944363
 20
560.6208341597526
 30
0.0
 10
303.2518368111404
 20
561.9579657867862
 30
0.0
 10
303.2508981650014
 20
562.9938997776694
 30
0.0
 10
303.2589549436051
 20
563.3112336603679
 30
0.0
  0
LINE
  5
1C8
330
1C4
100
AcDbEntity
  8
$DDT_AUDIT_GENERATED_(77)
  6
Continuous
 62
     7
100
AcDbLine
 10
331.1370212808
 20
517.7761818811
 30
0.0
 11
307.1370212808
 21
517.7761818811
 31
0.0
  0
SPLINE
  5
1C9
330
1C4
100
AcDbEntity
  8
$DDT_AUDIT_GENERATED_(77)
  6
Continuous
 62
     7
100
AcDbSpline
210
0.0
220
0.0
230
1.0
 70
     8
 71
     3
 72
    23
 73
    19
 74
     0
 42
0.0000000001491556
 43
0.0000000001
 40
0.0000032058117283
 40
0.0000032058117283
 40
0.0000032058117283
 40
0.0000032058117283
 40
0.0176002586683687
 40
0.0383921611677107
 40
0.0624470905886642
 40
0.0993787439252937
 40
0.1248495375805865
 40
0.152788068535696
 40
0.178305149129812
 40
0.2029020264546557
 40
0.2270009821853632
 40
0.2497043953753914
 40
0.2811671701484079
 40
0.3123687207819312
 40
0.3438446661148331
 40
0.3750167546723967
 40
0.4372959759948283
 40
0.4627250929915196
 40
0.4627250929915196
 40
0.4627250929915196
 40
0.4627250929915196
 10
331.1374743743567
 20
558.7906560456713
 30
0.0
 10
331.9665011389145
 20
558.7897114115301
 30
0.0
 10
333.7740792210632
 20
558.7876501161085
 30
0.0
 10
336.6854407329045
 20
558.774104452422
 30
0.0
 10
340.4025726830371
 20
558.7491531211153
 30
0.0
 10
344.1254537205697
 20
558.7220290990272
 30
0.0
 10
347.6573013948812
 20
558.7059351081201
 30
0.0
 10
350.4299880055784
 20
558.7178276762911
 30
0.0
 10
352.7842767567504
 20
558.7617361902446
 30
0.0
 10
354.5045053639264
 20
558.8353630517025
 30
0.0
 10
355.7273658269742
 20
558.9347140045134
 30
0.0
 10
356.7285048981873
 20
559.0823892783762
 30
0.0
 10
357.5086242127725
 20
559.3125854646048
 30
0.0
 10
358.1060617300563
 20
559.6514941249063
 30
0.0
 10
358.5168165424
 20
560.1102249347526
 30
0.0
 10
358.8803387919715
 20
560.8984040338088
 30
0.0
 10
359.0224939790359
 20
561.9582387766332
 30
0.0
 10
359.0231965414649
 20
562.9965548413452
 30
0.0
 10
359.0148360126856
 20
563.3194526280886
 30
0.0
  0
LINE
  5
1CA
330
1C4
100
AcDbEntity
  8
$DDT_AUDIT_GENERATED_(77)
  6
Continuous
 62
     7
100
AcDbLine
 10
331.1370212808
 20
696.6223080933
 30
0.0
 11
346.1465540702
 21
696.6223080933
 31
0.0
  0
LINE
  5
1CB
330
1C4
100
AcDbEntity
  8
$DDT_AUDIT_GENERATED_(77)
  6
Continuous
 62
     7
100
AcDbLine
 10
355.1370212808
 20
517.7761818811
 30
0.0
 11
331.1370212808
 21
517.7761818811
 31
0.0
  0
SPLINE
  5
1CC
330
1C4
100
AcDbEntity
  8
$DDT_AUDIT_GENERATED_(77)
  6
Continuous
 62
     7
100
AcDbSpline
210
0.0
220
0.0
230
1.0
 70
     8
 71
     3
 72
    20
 73
    16
 74
     0
 42
0.0000000000746369
 43
0.0000000001
 40
0.0
 40
0.0
 40
0.0
 40
0.0
 40
0.06149587309199
 40
0.1263247671327125
 40
0.1940976403420516
 40
0.2644159904538281
 40
0.3369026416895062
 40
0.4112195127271594
 40
0.4870762780846835
 40
0.577201327006879
 40
0.6687928378873271
 40
0.7616164367959732
 40
0.8554836624493278
 40
0.9502252509695271
 40
1.0
 40
1.0
 40
1.0
 40
1.0
 10
316.1274885905365
 20
696.622308093287
 30
0.0
 10
316.1513502742939
 20
693.478508849786
 30
0.0
 10
316.1813758992021
 20
688.031121855297
 30
0.0
 10
315.6710608743878
 20
678.8487220359812
 30
0.0
 10
314.8690588351419
 20
669.5254899696162
 30
0.0
 10
313.8054784066281
 20
659.8280807604199
 30
0.0
 10
312.5694428648306
 20
649.9027018070947
 30
0.0
 10
311.2256386368171
 20
639.7826655387993
 30
0.0
 10
309.7591066704019
 20
628.9441339528439
 30
0.0
 10
308.2321238036964
 20
617.4352927924919
 30
0.0
 10
306.7324040631819
 20
605.3319362635676
 30
0.0
 10
305.3986651415031
 20
593.2227910629282
 30
0.0
 10
304.3183738014205
 20
581.3081570590942
 30
0.0
 10
303.5873032866092
 20
571.0756277446085
 30
0.0
 10
303.3839704365666
 20
565.582523661854
 30
0.0
 10
303.3038454332455
 20
563.3582608408216
 30
0.0
  0
SPLINE
  5
1CD
330
1C4
100
AcDbEntity
  8
$DDT_AUDIT_GENERATED_(77)
  6
Continuous
 62
     7
100
AcDbSpline
210
0.0
220
0.0
230
1.0
 70
     8
 71
     3
 72
     8
 73
     4
 74
     0
 42
0.0000000007576963
 43
0.0000000001
 40
0.0
 40
0.0
 40
0.0
 40
0.0
 40
0.035510919545722
 40
0.035510919545722
 40
0.035510919545722
 40
0.035510919545722
 10
303.2727967618803
 20
563.7065524349576
 30
0.0
 10
303.2682006152428
 20
563.5446409832896
 30
0.0
 10
303.2640029388152
 20
563.3887235500958
 30
0.0
 10
303.2605893434483
 20
563.2380432723237
 30
0.0
  0
SPLINE
  5
1CE
330
1C4
100
AcDbEntity
  8
$DDT_AUDIT_GENERATED_(77)
  6
Continuous
 62
     7
100
AcDbSpline
210
0.0
220
0.0
230
1.0
 70
     8
 71
     3
 72
    24
 73
    20
 74
     0
 42
0.0000000010059426
 43
0.0000000001
 40
0.0939315920057634
 40
0.0939315920057634
 40
0.0939315920057634
 40
0.0939315920057634
 40
0.1642033264963338
 40
0.3167944671567656
 40
0.4584295246335306
 40
0.5553022554401233
 40
0.6008599900258305
 40
0.6230813584692321
 40
0.6334471419507391
 40
0.637105710449602
 40
0.639635808427901
 40
0.6405543244274592
 40
0.6413301304854307
 40
0.6417037415718204
 40
0.6420893759772774
 40
0.6429541688905809
 40
0.6453267424701916
 40
0.6488016261515179
 40
0.6703480742319503
 40
0.6703480742319503
 40
0.6703480742319503
 40
0.6703480742319503
 10
303.2518250838992
 20
562.5335229768693
 30
0.0
 10
303.2522404899584
 20
562.2653911966223
 30
0.0
 10
303.2711741967093
 20
561.4646038661335
 30
0.0
 10
303.4426720078674
 20
560.315571965728
 30
0.0
 10
303.785861190777
 20
559.4487838188179
 30
0.0
 10
304.2797384659236
 20
558.8026821767564
 30
0.0
 10
304.8594526938858
 20
558.4205064524795
 30
0.0
 10
305.2221489181806
 20
558.2376742087208
 30
0.0
 10
305.3947659465663
 20
558.155564226823
 30
0.0
 10
305.4995903609271
 20
558.1088392889238
 30
0.0
 10
305.5576675893948
 20
558.083866547001
 30
0.0
 10
305.6027507530281
 20
558.0650998284402
 30
0.0
 10
305.6279911480615
 20
558.054807863653
 30
0.0
 10
305.6460333058553
 20
558.0475714922433
 30
0.0
 10
305.6637902138835
 20
558.0405279559402
 30
0.0
 10
305.6964926119016
 20
558.0278168763831
 30
0.0
 10
305.7312411573732
 20
558.0150383636566
 30
0.0
 10
305.8088403498588
 20
557.9890357792726
 30
0.0
 10
305.8155178595729
 20
557.9918482076563
 30
0.0
 10
305.81156852348
 20
557.9990594350826
 30
0.0
  0
ARC
  5
1CF
330
1C4
100
AcDbEntity
  8
$DDT_AUDIT_GENERATED_(77)
  6
Continuous
 62
     7
100
AcDbCircle
 10
244.4055727056
 20
543.6457024314
 30
0.0
 40
62.76764283377457
100
AcDbArc
 50
358.0541455348
 51
13.334973825
  0
LINE
  5
1D0
330
1C4
100
AcDbEntity
  8
$DDT_AUDIT_GENERATED_(77)
  6
Continuous
 62
     7
100
AcDbLine
 10
307.1370212808
 20
541.5144245721
 30
0.0
 11
307.1370212808
 21
517.7761818811
 31
0.0
  0
SPLINE
  5
1D1
330
1C4
100
AcDbEntity
  8
$DDT_AUDIT_GENERATED_(77)
  6
Continuous
 62
     7
100
AcDbSpline
210
0.0
220
0.0
230
1.0
 70
     8
 71
     3
 72
    20
 73
    16
 74
     0
 42
0.000000000074641
 43
0.0000000001
 40
0.0
 40
0.0
 40
0.0
 40
0.0
 40
0.0249877833519386
 40
0.100860392955874
 40
0.1813789247512517
 40
0.2659436515297617
 40
0.3539602718255892
 40
0.4448131719560883
 40
0.5244329424187807
 40
0.6051387948255785
 40
0.6863378402676529
 40
0.7673196266134416
 40
0.8472437435686384
 40
0.9251487968005565
 40
1.0
 40
1.0
 40
1.0
 40
1.0
 10
358.9908391703882
 20
563.3677549280735
 30
0.0
 10
358.9523114293836
 20
564.4899756866788
 30
0.0
 10
358.8173567511669
 20
568.3588187229864
 30
0.0
 10
358.3336817391668
 20
576.1074777273451
 30
0.0
 10
357.5400620390234
 20
586.1809446931322
 30
0.0
 10
356.4694942522489
 20
597.0553953946868
 30
0.0
 10
355.1589671025949
 20
608.5269920674144
 30
0.0
 10
353.7114572531945
 20
619.9591465577768
 30
0.0
 10
352.2110471855036
 20
631.1962130890953
 30
0.0
 10
350.7348153472767
 20
642.1046837304224
 30
0.0
 10
349.2838398380196
 20
653.1558342649525
 30
0.0
 10
347.9494468252366
 20
664.266950054352
 30
0.0
 10
346.8723575661853
 20
675.2151754956707
 30
0.0
 10
346.1224581153217
 20
686.2099482415922
 30
0.0
 10
346.132683069587
 20
692.7961142853244
 30
0.0
 10
346.1465539709836
 20
696.622308093287
 30
0.0
  0
SPLINE
  5
1D2
330
1C4
100
AcDbEntity
  8
$DDT_AUDIT_GENERATED_(77)
  6
Continuous
 62
     7
100
AcDbSpline
210
0.0
220
0.0
230
1.0
 70
     8
 71
     3
 72
    23
 73
    19
 74
     0
 42
0.0000000010066047
 43
0.0000000001
 40
0.3296632034468934
 40
0.3296632034468934
 40
0.3296632034468934
 40
0.3296632034468934
 40
0.3512103882666565
 40
0.35468539082298
 40
0.3570580455678046
 40
0.3579228680654805
 40
0.3583085156634052
 40
0.3586821395309467
 40
0.3594579721290708
 40
0.360376519550857
 40
0.3629067040832446
 40
0.3819767662892637
 40
0.3991220232589132
 40
0.4680676632417405
 40
0.5415547925945022
 40
0.6831946953750481
 40
0.8357910561444263
 40
0.9060673323806195
 40
0.9060673323806195
 40
0.9060673323806195
 40
0.9060673323806195
 10
356.4624740121749
 20
557.9990594247619
 30
0.0
 10
356.4585246326922
 20
557.9918481806287
 30
0.0
 10
356.4652020858596
 20
557.9890357304056
 30
0.0
 10
356.5428014629347
 20
558.0150383864672
 30
0.0
 10
356.5775498385166
 20
558.027816833274
 30
0.0
 10
356.6102524558471
 20
558.0405279979275
 30
0.0
 10
356.6280090895914
 20
558.0475714278043
 30
0.0
 10
356.646052305573
 20
558.0548082098065
 30
0.0
 10
356.6712836560125
 20
558.0650966651572
 30
0.0
 10
356.7164378701129
 20
558.0838909523549
 30
0.0
 10
356.8975308836214
 20
558.161881892146
 30
0.0
 10
357.0533544569089
 20
558.2386804904588
 30
0.0
 10
357.5467072558264
 20
558.4896400085835
 30
0.0
 10
358.0347800989891
 20
558.8587956735921
 30
0.0
 10
358.5109957926004
 20
559.4991137547585
 30
0.0
 10
358.8305328086403
 20
560.3161221660583
 30
0.0
 10
359.0029100846093
 20
561.4645838654556
 30
0.0
 10
359.0218702176226
 20
562.2653620415759
 30
0.0
 10
359.0222756763874
 20
562.5335092489795
 30
0.0
  0
SPLINE
  5
1D3
330
1C4
100
AcDbEntity
  8
$DDT_AUDIT_GENERATED_(77)
  6
Continuous
 62
     7
100
AcDbSpline
210
0.0
220
0.0
230
1.0
 70
     8
 71
     3
 72
     8
 73
     4
 74
     0
 42
0.0000000007577051
 43
0.0000000001
 40
0.9644884017965739
 40
0.9644884017965739
 40
0.9644884017965739
 40
0.9644884017965739
 40
1.0
 40
1.0
 40
1.0
 40
1.0
 10
359.0134682864078
 20
563.2380400993703
 30
0.0
 10
359.0100459704308
 20
563.3887240059851
 30
0.0
 10
359.0058418768846
 20
563.544643427832
 30
0.0
 10
359.0012457996398
 20
563.7065524349576
 30
0.0
  0
ARC
  5
1D4
330
1C4
100
AcDbEntity
  8
$DDT_AUDIT_GENERATED_(77)
  6
Continuous
 62
     7
100
AcDbCircle
 10
417.8684698559
 20
543.6457024314
 30
0.0
 40
62.76764283377194
100
AcDbArc
 50
166.3870354236
 51
181.9458544652
  0
LINE
  5
1D5
330
1C4
100
AcDbEntity
  8
$DDT_AUDIT_GENERATED_(77)
  6
Continuous
 62
     7
100
AcDbLine
 10
355.1370212808
 20
517.7761818811
 30
0.0
 11
355.1370212808
 21
541.5144245721
 31
0.0
  0
LINE
  5
1D6
330
1C4
100
AcDbEntity
  8
$DDT_AUDIT_GENERATED_(8F)
  6
Continuous
 62
     7
100
AcDbLine
 10
346.1370212808
 20
697.1223080933
 30
0.0
 11
316.1370212808
 21
697.1223080933
 31
0.0
  0
LINE
  5
1D7
330
1C4
100
AcDbEntity
  8
$DDT_AUDIT_GENERATED_(8F)
  6
Continuous
 62
     7
100
AcDbLine
 10
508.8440961179
 20
790.6659673796
 30
0.0
 11
508.2874286504
 21
791.0779097089
 31
0.0
  0
LINE
  5
1D8
330
1C4
100
AcDbEntity
  8
$DDT_AUDIT_GENERATED_(8F)
  6
Continuous
 62
     7
100
AcDbLine
 10
508.9698705924
 20
792.0001097369
 30
0.0
 11
512.3459821994
 21
789.5017361825
 31
0.0
  0
LINE
  5
1D9
330
1C4
100
AcDbEntity
  8
$DDT_AUDIT_GENERATED_(8F)
  6
Continuous
 62
     7
100
AcDbLine
 10
507.8316727744
 20
790.4620359538
 30
0.0
 11
508.9698705924
 21
792.0001097369
 31
0.0
  0
LINE
  5
1DA
330
1C4
100
AcDbEntity
  8
$DDT_AUDIT_GENERATED_(8F)
  6
Continuous
 62
     7
100
AcDbLine
 10
512.7543916776
 20
789.5493015194
 30
0.0
 11
528.8905991931
 21
811.3545425289
 31
0.0
  0
ARC
  5
1DB
330
1C4
100
AcDbEntity
  8
$DDT_AUDIT_GENERATED_(8F)
  6
Continuous
 62
     7
100
AcDbCircle
 10
512.5263679182
 20
789.7300357178
 30
0.0
 40
0.2909633745727221
100
AcDbArc
 50
231.6867701508
 51
321.5992602255
  0
LINE
  5
1DC
330
1C4
100
AcDbEntity
  8
$DDT_AUDIT_GENERATED_(8F)
  6
Continuous
 62
     7
100
AcDbLine
 10
508.3943580423
 20
790.0456403614
 30
0.0
 11
507.8316727744
 21
790.4620359538
 31
0.0
  0
LINE
  5
1DD
330
1C4
100
AcDbEntity
  8
$DDT_AUDIT_GENERATED_(8F)
  6
Continuous
 62
     7
100
AcDbLine
 10
316.1370212808
 20
707.9644229154
 30
0.0
 11
316.1370212808
 21
697.1223080933
 31
0.0
  0
LINE
  5
1DE
330
1C4
100
AcDbEntity
  8
$DDT_AUDIT_GENERATED_(8F)
  6
Continuous
 62
     7
100
AcDbLine
 10
346.1370212808
 20
697.1223080933
 30
0.0
 11
346.1370212808
 21
707.9644229154
 31
0.0
  0
ARC
  5
1DF
330
1C4
100
AcDbEntity
  8
$DDT_AUDIT_GENERATED_(8F)
  6
Continuous
 62
     7
100
AcDbCircle
 10
446.1370212808
 20
707.9644229154
 30
0.0
 40
100.0
100
AcDbArc
 50
97.1872253633
 51
180.0
  0
ARC
  5
1E0
330
1C4
100
AcDbEntity
  8
$DDT_AUDIT_GENERATED_(8F)
  6
Continuous
 62
     7
100
AcDbCircle
 10
446.1370212808
 20
707.9644229154
 30
0.0
 40
130.0000000000001
100
AcDbArc
 50
97.1872253633
 51
180.0
  0
ARC
  5
1E1
330
1C4
100
AcDbEntity
  8
$DDT_AUDIT_GENERATED_(8F)
  6
Continuous
 62
     7
100
AcDbCircle
 10
448.6392618624
 20
688.1215704977
 30
0.0
 40
120.0000000000001
100
AcDbArc
 50
90.0
 51
97.1872253633
  0
ARC
  5
1E2
330
1C4
100
AcDbEntity
  8
$DDT_AUDIT_GENERATED_(8F)
  6
Continuous
 62
     7
100
AcDbCircle
 10
448.6392618624
 20
688.1215704977
 30
0.0
 40
120.0000000000001
100
AcDbArc
 50
71.779739313
 51
90.0
  0
ARC
  5
1E3
330
1C4
100
AcDbEntity
  8
$DDT_AUDIT_GENERATED_(8F)
  6
Continuous
 62
     7
100
AcDbCircle
 10
448.6392618624
 20
688.1215704977
 30
0.0
 40
150.0000000000001
100
AcDbArc
 50
71.779739313
 51
97.1872253633
  0
ARC
  5
1E4
330
1C4
100
AcDbEntity
  8
$DDT_AUDIT_GENERATED_(8F)
  6
Continuous
 62
     7
100
AcDbCircle
 10
466.6242095905
 20
742.7579770151
 30
0.0
 40
62.47961003335892
100
AcDbArc
 50
53.498
 51
71.779739313
  0
ARC
  5
1E5
330
1C4
100
AcDbEntity
  8
$DDT_AUDIT_GENERATED_(8F)
  6
Continuous
 62
     7
100
AcDbCircle
 10
466.6242095905
 20
742.7579770151
 30
0.0
 40
92.47961003335892
100
AcDbArc
 50
53.498
 51
71.779739313
  0
LINE
  5
1E6
330
1C4
100
AcDbEntity
  8
$DDT_AUDIT_GENERATED_(8F)
  6
Continuous
 62
     7
100
AcDbLine
 10
528.8279036179
 20
811.7741486118
 30
0.0
 11
521.6357838831
 21
817.0964257867
 31
0.0
  0
LINE
  5
1E7
330
1C4
100
AcDbEntity
  8
$DDT_AUDIT_GENERATED_(8F)
  6
Continuous
 62
     7
100
AcDbLine
 10
503.7902584945
 20
792.9813428798
 30
0.0
 11
508.2494045387
 21
789.6815074926
 31
0.0
  0
ARC
  5
1E8
330
1C4
100
AcDbEntity
  8
$DDT_AUDIT_GENERATED_(8F)
  6
Continuous
 62
     7
100
AcDbCircle
 10
528.6494483641
 20
811.5329977827
 30
0.0
 40
0.2999999999999995
100
AcDbArc
 50
323.498
 51
53.498
  0
ELLIPSE
  5
1EA
330
1C4
100
AcDbEntity
  8
$DDT_AUDIT_GENERATED_(1E9)
  6
Continuous
 62
     7
100
AcDbEllipse
 10
518.7652927772
 20
799.689287578
 30
0.0
 11
13.39296903307355
 21
2.001116129895064
 31
0.0
210
0.0
220
0.0
230
1.0
 40
0.9826972625
 41
0.6896517073021516
 42
0.7046197715401957
  0
LINE
  5
1EB
330
1C4
100
AcDbEntity
  8
$DDT_AUDIT_GENERATED_(1E9)
  6
Continuous
 62
     7
100
AcDbLine
 10
509.4119804457
 20
791.6729417715
 30
0.0
 11
508.7295385036
 21
790.7507417435
 31
0.0
  0
LINE
  5
1EC
330
1C4
100
AcDbEntity
  8
$DDT_AUDIT_GENERATED_(1E9)
  6
Continuous
 62
     7
100
AcDbLine
 10
512.475299003
 20
788.8359382135
 30
0.0
 11
512.8917387258
 21
789.3986831158
 31
0.0
  0
LINE
  5
1ED
330
1C4
100
AcDbEntity
  8
$DDT_AUDIT_GENERATED_(1E9)
  6
Continuous
 62
     7
100
AcDbLine
 10
512.475299003
 20
788.8359382135
 30
0.0
 11
512.3274950627
 21
788.6362072335
 31
0.0
  0
LINE
  5
1EE
330
1C4
100
AcDbEntity
  8
$DDT_AUDIT_GENERATED_(1E9)
  6
Continuous
 62
     7
100
AcDbLine
 10
509.3782437158
 20
791.3751884735
 30
0.0
 11
509.5325558603
 21
791.5837141445
 31
0.0
  0
LINE
  5
1EF
330
1C4
100
AcDbEntity
  8
$DDT_AUDIT_GENERATED_(1E9)
  6
Continuous
 62
     7
100
AcDbLine
 10
511.2690279541
 20
787.2058754544
 30
0.0
 11
512.3274950627
 21
788.6362072335
 31
0.0
  0
LINE
  5
1F0
330
1C4
100
AcDbEntity
  8
$DDT_AUDIT_GENERATED_(1E9)
  6
Continuous
 62
     7
100
AcDbLine
 10
511.2652262167
 20
787.2007380762
 30
0.0
 11
511.2690279541
 21
787.2058754544
 31
0.0
  0
LINE
  5
1F1
330
1C4
100
AcDbEntity
  8
$DDT_AUDIT_GENERATED_(1E9)
  6
Continuous
 62
     7
100
AcDbLine
 10
508.334580343
 20
789.9648613346
 30
0.0
 11
509.3782437158
 21
791.3751884735
 31
0.0
  0
ARC
  5
1F2
330
1C4
100
AcDbEntity
  8
$DDT_AUDIT_GENERATED_(1E9)
  6
Continuous
 62
     7
100
AcDbCircle
 10
508.733983974
 20
789.6869375552
 30
0.0
 40
0.4865849234053359
100
AcDbArc
 50
145.1679929194
 51
235.102181822
  0
LINE
  5
1F3
330
1C4
100
AcDbEntity
  8
$DDT_AUDIT_GENERATED_(1E9)
  6
Continuous
 62
     7
100
AcDbLine
 10
508.4517998775
 20
789.2827160382
 30
0.0
 11
508.455601615
 21
789.2878534164
 31
0.0
  0
LINE
  5
1F4
330
1C4
100
AcDbEntity
  8
$DDT_AUDIT_GENERATED_(1E9)
  6
Continuous
 62
     7
100
AcDbLine
 10
508.4517998775
 20
789.2827160382
 30
0.0
 11
511.2652262167
 21
787.2007380762
 31
0.0
  0
SPLINE
  5
1F5
330
1C4
100
AcDbEntity
  8
$DDT_AUDIT_GENERATED_(1E9)
  6
Continuous
 62
     7
100
AcDbSpline
210
0.0
220
0.0
230
1.0
 70
     8
 71
     3
 72
     8
 73
     4
 74
     0
 42
0.0000001888953016
 43
0.0000000001
 40
0.0
 40
0.0
 40
0.0
 40
0.0
 40
1.0
 40
1.0
 40
1.0
 40
1.0
 10
508.8408555716362
 20
790.6640063429957
 30
0.0
 10
508.8422750766453
 20
790.6572195804434
 30
0.0
 10
508.8336678637227
 20
790.6426571195135
 30
0.0
 10
508.8150339328683
 20
790.6203189602059
 30
0.0
  0
LINE
  5
1F6
330
1C4
100
AcDbEntity
  8
$DDT_AUDIT_GENERATED_(9E)
  6
Continuous
 62
     7
100
AcDbLine
 10
316.6370212808
 20
696.6223080933
 30
0.0
 11
345.6370212808
 21
696.6223080933
 31
0.0
  0
LINE
  5
1F7
330
1C4
100
AcDbEntity
  8
$DDT_AUDIT_GENERATED_(9E)
  6
Continuous
 62
     7
100
AcDbLine
 10
316.6370212808
 20
697.1223080933
 30
0.0
 11
316.6370212808
 21
696.6223080933
 31
0.0
  0
LINE
  5
1F8
330
1C4
100
AcDbEntity
  8
$DDT_AUDIT_GENERATED_(9E)
  6
Continuous
 62
     7
100
AcDbLine
 10
345.6370212808
 20
696.6223080933
 30
0.0
 11
345.6370212808
 21
697.1223080933
 31
0.0
  0
LINE
  5
1F9
330
1C4
100
AcDbEntity
  8
$DDT_AUDIT_GENERATED_(D4)
  6
Continuous
 62
     7
100
AcDbLine
 10
357.13776653
 20
512.7761813446
 30
0.0
 11
305.1362760315
 21
512.7761813446
 31
0.0
  0
LINE
  5
1FA
330
1C4
100
AcDbEntity
  8
$DDT_AUDIT_GENERATED_(D4)
  6
Continuous
 62
     7
100
AcDbLine
 10
355.1370257242
 20
517.7761818811
 30
0.0
 11
307.1370168373
 21
517.7761818811
 31
0.0
  0
SPLINE
  5
1FB
330
1C4
100
AcDbEntity
  8
$DDT_AUDIT_GENERATED_(D4)
  6
Continuous
 62
     7
100
AcDbSpline
210
0.0
220
0.0
230
1.0
 70
     8
 71
     3
 72
    11
 73
     7
 74
     0
 42
0.0000000018099522
 43
0.0000000001
 40
0.0
 40
0.0
 40
0.0
 40
0.0
 40
0.3265971570629593
 40
0.6164174682202584
 40
0.8180047170622625
 40
1.0
 40
1.0
 40
1.0
 40
1.0
 10
307.1370168372945
 20
517.7761818810571
 30
0.0
 10
306.747384307899
 20
517.245481024826
 30
0.0
 10
306.1404051428045
 20
516.3876873755515
 30
0.0
 10
305.4703778393951
 20
515.0184445173207
 30
0.0
 10
305.1215823644652
 20
513.8024685692911
 30
0.0
 10
305.1284229742061
 20
513.1429744640124
 30
0.0
 10
305.1362760314721
 20
512.7761813446153
 30
0.0
  0
SPLINE
  5
1FC
330
1C4
100
AcDbEntity
  8
$DDT_AUDIT_GENERATED_(D4)
  6
Continuous
 62
     7
100
AcDbSpline
210
0.0
220
0.0
230
1.0
 70
     8
 71
     3
 72
    10
 73
     6
 74
     0
 42
0.0000000018064048
 43
0.0000000001
 40
0.0
 40
0.0
 40
0.0
 40
0.0
 40
0.2346887625399771
 40
0.5031664157047283
 40
1.0
 40
1.0
 40
1.0
 40
1.0
 10
357.1377665300481
 20
512.7761813446153
 30
0.0
 10
357.1358136454115
 20
513.2487583019938
 30
0.0
 10
357.1242418783783
 20
514.111735975974
 30
0.0
 10
356.4423530247481
 20
515.9040808368521
 30
0.0
 10
355.7242664533975
 20
516.9662150444151
 30
0.0
 10
355.1370257242256
 20
517.7761818810571
 30
0.0
  0
LINE
  5
1FD
330
1C4
100
AcDbEntity
  8
$DDT_AUDIT_GENERATED_(DC)
  6
Continuous
 62
     7
100
AcDbLine
 10
529.0496002661
 20
811.2331857239
 30
0.0
 11
520.3977268204
 21
799.5417033552
 31
0.0
  0
LINE
  5
1FE
330
1C4
100
AcDbEntity
  8
$DDT_AUDIT_GENERATED_(DC)
  6
Continuous
 62
     7
100
AcDbLine
 10
512.8191448037
 20
789.3005852222
 30
0.0
 11
520.3977268204
 21
799.5417033552
 31
0.0
  0
ARC
  5
1FF
330
1C4
100
AcDbEntity
  8
$DDT_AUDIT_GENERATED_(DC)
  6
Continuous
 62
     7
100
AcDbCircle
 10
518.7402674981
 20
796.9246740377
 30
0.0
 40
3.097743348663775
100
AcDbArc
 50
52.1190895719
 51
57.6524405375
  0
ARC
  5
200
330
1C4
100
AcDbEntity
  8
$DDT_AUDIT_GENERATED_(DC)
  6
Continuous
 62
     7
100
AcDbCircle
 10
447.2162211298
 20
699.1817221001
 30
0.0
 40
124.2136265316379
100
AcDbArc
 50
28.2778426448
 51
53.7629176588
  0
ARC
  5
201
330
1C4
100
AcDbEntity
  8
$DDT_AUDIT_GENERATED_(DC)
  6
Continuous
 62
     7
100
AcDbCircle
 10
589.3622285692
 20
538.9623961637
 30
0.0
 40
220.5746824671276
100
AcDbArc
 50
93.1400801356
 51
98.5154272996
  0
SPLINE
  5
202
330
1C4
100
AcDbEntity
  8
$DDT_AUDIT_GENERATED_(DC)
  6
Continuous
 62
     7
100
AcDbSpline
210
0.0
220
0.0
230
1.0
 70
     8
 71
     3
 72
    18
 73
    14
 74
     0
 42
0.0000000002376173
 43
0.0000000001
 40
0.0
 40
0.0
 40
0.0
 40
0.0
 40
0.0265514582637555
 40
0.0592513919679628
 40
0.0979670787264156
 40
0.1424367618365998
 40
0.1922186839679999
 40
0.2466887397749905
 40
0.3103198431102947
 40
0.3719775652064336
 40
0.4354748244110472
 40
0.499139295559442
 40
0.4999876590394545
 40
0.4999876590394545
 40
0.4999876590394545
 40
0.4999876590394545
 10
556.6062712898689
 20
758.0276390537819
 30
0.0
 10
557.1440873179633
 20
758.087098993395
 30
0.0
 10
558.3442757015787
 20
758.2197625059607
 30
0.0
 10
560.3193620572612
 20
758.426567539789
 30
0.0
 10
562.6241641217555
 20
758.6636414104465
 30
0.0
 10
565.200256015278
 20
758.9242487989914
 30
0.0
 10
567.9532469713453
 20
759.2005412964629
 30
0.0
 10
570.8338905766992
 20
759.4887132620426
 30
0.0
 10
573.5121628184693
 20
759.7583713401776
 30
0.0
 10
575.7221256742718
 20
759.9679452286889
 30
0.0
 10
577.1735396638654
 20
760.1292791551299
 30
0.0
 10
577.5354108706214
 20
760.1721800145204
 30
0.0
 10
577.5381437561197
 20
760.1719380402757
 30
0.0
 10
577.5381486679458
 20
760.1719310924188
 30
0.0
  0
ARC
  5
203
330
1C4
100
AcDbEntity
  8
$DDT_AUDIT_GENERATED_(DC)
  6
Continuous
 62
     7
100
AcDbCircle
 10
530.9457234754
 20
972.4945910771
 30
0.0
 40
217.7210173569394
100
AcDbArc
 50
271.7048853384
 51
276.9771517443
  0
SPLINE
  5
204
330
1C4
100
AcDbEntity
  8
$DDT_AUDIT_GENERATED_(DC)
  6
Continuous
 62
     7
100
AcDbSpline
210
0.0
220
0.0
230
1.0
 70
     8
 71
     3
 72
    20
 73
    16
 74
     0
 42
0.0000000002623187
 43
0.0000000001
 40
0.0
 40
0.0
 40
0.0
 40
0.0
 40
0.1250000000000001
 40
0.1250000000000001
 40
0.2500000000000002
 40
0.2500000000000002
 40
0.3125000000000002
 40
0.3125000000000002
 40
0.3750000000000002
 40
0.3750000000000002
 40
0.4375000000000003
 40
0.4375000000000003
 40
0.5000000000000003
 40
0.5000000000000003
 40
0.5005749041482493
 40
0.5005749041482493
 40
0.5005749041482493
 40
0.5005749041482493
 10
557.393063760774
 20
756.3858693864233
 30
0.0
 10
559.7166367828977
 20
756.6776632837946
 30
0.0
 10
562.0391370038917
 20
756.9877272900957
 30
0.0
 10
566.3901054220634
 20
757.5570541606321
 30
0.0
 10
568.4723109879982
 20
757.8288278044072
 30
0.0
 10
571.1502753170877
 20
758.1657066231775
 30
0.0
 10
571.9741902429892
 20
758.2671631916568
 30
0.0
 10
573.4651437076252
 20
758.4498548323924
 30
0.0
 10
574.1201354299925
 20
758.5301619206167
 30
0.0
 10
575.1870114320099
 20
758.661118384925
 30
0.0
 10
575.6104943618482
 20
758.7127459005758
 30
0.0
 10
576.1748000000389
 20
758.7808643240531
 30
0.0
 10
576.3198173372066
 20
758.7978176178024
 30
0.0
 10
576.3225139189485
 20
758.798134995817
 30
0.0
 10
576.3225259172141
 20
758.7981363960624
 30
0.0
 10
576.3225253470418
 20
758.7981363047296
 30
0.0
  0
ARC
  5
205
330
1C4
100
AcDbEntity
  8
$DDT_AUDIT_GENERATED_(DC)
  6
Continuous
 62
     7
100
AcDbCircle
 10
467.3143818093
 20
728.7576178846
 30
0.0
 40
73.30394591917656
100
AcDbArc
 50
21.7760039906
 51
52.8286744827
  0
ARC
  5
206
330
1C4
100
AcDbEntity
  8
$DDT_AUDIT_GENERATED_(DC)
  6
Continuous
 62
     7
100
AcDbCircle
 10
387.4238809588
 20
629.5694123376
 30
0.0
 40
230.6492367749253
100
AcDbArc
 50
34.4882271258
 51
51.9870913638
  0
LINE
  5
207
330
1C4
100
AcDbEntity
  8
$DDT_AUDIT_GENERATED_(DC)
  6
Continuous
 62
     7
100
AcDbLine
 10
576.2786951866
 20
758.8012985048
 30
0.0
 11
577.2747892947
 21
759.2098666212
 31
0.0
  0
LINE
  5
208
330
1C4
100
AcDbEntity
  8
$DDT_AUDIT_GENERATED_(DC)
  6
Continuous
 62
     7
100
AcDbLine
 10
536.1012395258
 20
755.276722987
 30
0.0
 11
537.4692321492
 21
754.8877461308
 31
0.0
  0
ARC
  5
209
330
1C4
100
AcDbEntity
  8
$DDT_AUDIT_GENERATED_(DC)
  6
Continuous
 62
     7
100
AcDbCircle
 10
529.2907378521
 20
811.0547125938
 30
0.0
 40
0.2999999884448323
100
AcDbArc
 50
54.1709385077
 51
143.5065418081
  0
ARC
  5
20A
330
1C4
100
AcDbEntity
  8
$DDT_AUDIT_GENERATED_(DC)
  6
Continuous
 62
     7
100
AcDbCircle
 10
511.7971829088
 20
787.4152557024
 30
0.0
 40
0.2999999917189495
100
AcDbArc
 50
143.4978530738
 51
232.1465749274
  0
ARC
  5
20B
330
1C4
100
AcDbEntity
  8
$DDT_AUDIT_GENERATED_(DC)
  6
Continuous
 62
     7
100
AcDbCircle
 10
536.4769454337
 20
756.3728709176
 30
0.0
 40
1.158532667723853
100
AcDbArc
 50
201.0569155376
 51
252.1926912298
  0
ARC
  5
20C
330
1C4
100
AcDbEntity
  8
$DDT_AUDIT_GENERATED_(DC)
  6
Continuous
 62
     7
100
AcDbCircle
 10
577.0259919922
 20
759.791370132
 30
0.0
 40
0.6380882049372069
100
AcDbArc
 50
293.4328872936
 51
37.1638132009
  0
ARC
  5
20D
330
1C4
100
AcDbEntity
  8
$DDT_AUDIT_GENERATED_(DC)
  6
Continuous
 62
     7
100
AcDbCircle
 10
537.5077483964
 20
755.1578052927
 30
0.0
 40
0.3000000000125596
100
AcDbArc
 50
272.9943372969
 51
273.0389375704
  0
ARC
  5
20E
330
1C4
100
AcDbEntity
  8
$DDT_AUDIT_GENERATED_(DC)
  6
Continuous
 62
     7
100
AcDbCircle
 10
576.2066867366
 20
759.0748697861
 30
0.0
 40
0.2999999747504601
100
AcDbArc
 50
276.767953989
 51
276.7903729858
  0
LINE
  5
20F
330
1C4
100
AcDbEntity
  8
$DDT_AUDIT_GENERATED_(DC)
  6
Continuous
 62
     7
100
AcDbLine
 10
527.8616647199
 20
809.6279001658
 30
0.0
 11
527.7008975006
 21
809.7468703351
 31
0.0
  0
ARC
  5
210
330
1C4
100
AcDbEntity
  8
$DDT_AUDIT_GENERATED_(F3)
  6
Continuous
 62
     7
100
AcDbCircle
 10
507.6301420439
 20
1267.7258382654
 30
0.0
 40
515.451617674921
100
AcDbArc
 50
273.9799664892
 51
276.7034595971
  0
SPLINE
  5
211
330
1C4
100
AcDbEntity
  8
$DDT_AUDIT_GENERATED_(F3)
  6
Continuous
 62
     7
100
AcDbSpline
210
0.0
220
0.0
230
1.0
 70
     8
 71
     3
 72
    16
 73
    12
 74
     0
 42
0.0000000002720023
 43
0.0000000001
 40
0.5004756145781477
 40
0.5004756145781477
 40
0.5004756145781477
 40
0.5004756145781477
 40
0.5624999999999999
 40
0.5624999999999999
 40
0.6249999999999999
 40
0.6249999999999999
 40
0.75
 40
0.75
 40
0.875
 40
0.875
 40
1.0
 40
1.0
 40
1.0
 40
1.0
 10
575.7734663608921
 20
758.5706405463555
 30
0.0
 10
575.7735115280454
 20
758.5706457644056
 30
0.0
 10
575.6356056802294
 20
758.553152540593
 30
0.0
 10
575.104348615229
 20
758.4836374244543
 30
0.0
 10
574.7074915160471
 20
758.4311965463274
 30
0.0
 10
573.1625803457638
 20
758.2248667550771
 30
0.0
 10
571.6704696443963
 20
758.0266851377942
 30
0.0
 10
568.2113686091569
 20
757.5511877484611
 30
0.0
 10
566.2194003291427
 20
757.2677414058099
 30
0.0
 10
562.029554765791
 20
756.6803164685358
 30
0.0
 10
559.8128853864963
 20
756.3705582350645
 30
0.0
 10
557.5787896894321
 20
756.0791367691518
 30
0.0
  0
ARC
  5
212
330
1C4
100
AcDbEntity
  8
$DDT_AUDIT_GENERATED_(F3)
  6
Continuous
 62
     7
100
AcDbCircle
 10
535.1327184126
 20
927.3514319778
 30
0.0
 40
172.7368670023518
100
AcDbArc
 50
271.0249850861
 51
277.4663401899
  0
ARC
  5
213
330
1C4
100
AcDbEntity
  8
$DDT_AUDIT_GENERATED_(F3)
  6
Continuous
 62
     7
100
AcDbCircle
 10
534.490977455
 20
926.6444540231
 30
0.0
 40
171.9185924489932
100
AcDbArc
 50
271.1992607096
 51
275.9441420025
  0
ARC
  5
214
330
1C4
100
AcDbEntity
  8
$DDT_AUDIT_GENERATED_(F3)
  6
Continuous
 62
     7
100
AcDbCircle
 10
593.1163750199
 20
570.9163537115
 30
0.0
 40
188.7450385720891
100
AcDbArc
 50
95.2453946739
 51
100.692847542
  0
SPLINE
  5
215
330
1C4
100
AcDbEntity
  8
$DDT_AUDIT_GENERATED_(F3)
  6
Continuous
 62
     7
100
AcDbSpline
210
0.0
220
0.0
230
1.0
 70
     8
 71
     3
 72
     8
 73
     4
 74
     0
 42
0.0000000117385576
 43
0.0000000001
 40
0.808811877383981
 40
0.808811877383981
 40
0.808811877383981
 40
0.808811877383981
 40
1.0
 40
1.0
 40
1.0
 40
1.0
 10
538.0360591392524
 20
754.9010801650935
 30
0.0
 10
538.0556343704017
 20
754.8498516347381
 30
0.0
 10
538.0749179713557
 20
754.7991011797787
 30
0.0
 10
538.0939099421145
 20
754.7488288002155
 30
0.0
  0
ARC
  5
216
330
1C4
100
AcDbEntity
  8
$DDT_AUDIT_GENERATED_(F3)
  6
Continuous
 62
     7
100
AcDbCircle
 10
546.9565094094
 20
828.596524085
 30
0.0
 40
75.72353075573226
100
AcDbArc
 50
285.9385132389
 51
292.4145001136
  0
ARC
  5
217
330
1C4
100
AcDbEntity
  8
$DDT_AUDIT_GENERATED_(F3)
  6
Continuous
 62
     7
100
AcDbCircle
 10
547.4520847607
 20
785.4379221902
 30
0.0
 40
32.13163005018441
100
AcDbArc
 50
253.3315666167
 51
262.8444627564
  0
ARC
  5
218
330
1C4
100
AcDbEntity
  8
$DDT_AUDIT_GENERATED_(F3)
  6
Continuous
 62
     7
100
AcDbCircle
 10
575.6975838562
 20
758.7556858882
 30
0.0
 40
0.2000000007053331
100
AcDbArc
 50
277.4126049533
 51
40.4981291754
  0
LINE
  5
219
330
1C4
100
AcDbEntity
  8
02636038_GEHÄUSE
  6
Continuous
 62
     7
100
AcDbLine
 10
566.588371142
 20
753.3206825558
 30
0.0
 11
545.187280883
 21
751.2607467015
 31
0.0
  0
SPLINE
  5
21A
330
1C4
100
AcDbEntity
  8
02636038_GEHÄUSE
  6
Continuous
 62
     7
100
AcDbSpline
210
0.0
220
0.0
230
1.0
 70
     8
 71
     3
 72
    10
 73
     6
 74
     0
 42
0.0000000019260148
 43
0.0000000001
 40
0.0
 40
0.0
 40
0.0
 40
0.0
 40
0.5
 40
0.5
 40
1.0
 40
1.0
 40
1.0
 40
1.0
 10
558.4320062870256
 20
752.8546118392078
 30
0.0
 10
557.5848657303316
 20
752.6586270211477
 30
0.0
 10
556.7324198149614
 20
752.5170247912125
 30
0.0
 10
555.016018883107
 20
752.351794391868
 30
0.0
 10
554.1520637115905
 20
752.3281678116185
 30
0.0
 10
553.2827975997628
 20
752.358981034052
 30
0.0
  0
LINE
  5
21B
330
1C4
100
AcDbEntity
  8
02636038_GEHÄUSE
  6
Continuous
 62
     7
100
AcDbLine
 10
559.9113936634
 20
755.0646546501
 30
0.0
 11
560.0256107513
 21
753.8780302207
 31
0.0
  0
SPLINE
  5
21C
330
1C4
100
AcDbEntity
  8
02636038_GEHÄUSE
  6
Continuous
 62
     7
100
AcDbSpline
210
0.0
220
0.0
230
1.0
 70
     8
 71
     3
 72
    14
 73
    10
 74
     0
 42
0.0000000049321089
 43
0.0000000001
 40
0.0
 40
0.0
 40
0.0
 40
0.0
 40
0.1250000000000004
 40
0.1250000000000004
 40
0.2500000000000009
 40
0.2500000000000009
 40
0.5000000000000008
 40
0.5000000000000008
 40
1.0
 40
1.0
 40
1.0
 40
1.0
 10
560.0256107512945
 20
753.8780302206926
 30
0.0
 10
560.033681991856
 20
753.7941764699091
 30
0.0
 10
560.0097595919386
 20
753.7073477357534
 30
0.0
 10
559.9277393910033
 20
753.5596117470102
 30
0.0
 10
559.870557261886
 20
753.4948195955598
 30
0.0
 10
559.6836570693891
 20
753.3250103988354
 30
0.0
 10
559.5352264375904
 20
753.2389886561156
 30
0.0
 10
559.083045419059
 20
753.0233003746652
 30
0.0
 10
558.7580718438841
 20
752.9300466632538
 30
0.0
 10
558.4320062870256
 20
752.8546118392078
 30
0.0
  0
SPLINE
  5
21D
330
1C4
100
AcDbEntity
  8
02636038_GEHÄUSE
  6
Continuous
 62
     7
100
AcDbSpline
210
0.0
220
0.0
230
1.0
 70
     8
 71
     3
 72
    18
 73
    14
 74
     0
 42
0.0000000049401632
 43
0.0000000001
 40
0.0
 40
0.0
 40
0.0
 40
0.0
 40
0.2499999999999998
 40
0.2499999999999998
 40
0.4999999999999997
 40
0.4999999999999997
 40
0.6249999999999992
 40
0.6249999999999992
 40
0.7499999999999989
 40
0.7499999999999989
 40
0.8749999999999994
 40
0.8749999999999994
 40
1.0
 40
1.0
 40
1.0
 40
1.0
 10
553.2827975997628
 20
752.358981034052
 30
0.0
 10
553.1150634998667
 20
752.3649267715648
 30
0.0
 10
552.9476785495328
 20
752.3760147243237
 30
0.0
 10
552.6140461433463
 20
752.4149434546852
 30
0.0
 10
552.4478617040506
 20
752.4426012262805
 30
0.0
 10
552.2052400204642
 20
752.50557476836
 30
0.0
 10
552.1253439815353
 20
752.530201791825
 30
0.0
 10
551.9685201412997
 20
752.5904922794186
 30
0.0
 10
551.8911551064973
 20
752.6263809427222
 30
0.0
 10
551.7481437379835
 20
752.7133779601378
 30
0.0
 10
551.6804848273314
 20
752.7652432646621
 30
0.0
 10
551.5710162963987
 20
752.8955128269073
 30
0.0
 10
551.5314595524642
 20
752.9742887518345
 30
0.0
 10
551.5232436675857
 20
753.0596452416856
 30
0.0
  0
LINE
  5
21E
330
1C4
100
AcDbEntity
  8
02636038_GEHÄUSE
  6
Continuous
 62
     7
100
AcDbLine
 10
551.5232436676
 20
753.0596452417
 30
0.0
 11
551.4108875762
 21
754.2269354018
 31
0.0
  0
LINE
  5
21F
330
1C4
100
AcDbEntity
  8
02636038_GEHÄUSE
  6
Continuous
 62
     7
100
AcDbLine
 10
544.6093870631
 20
751.524132476
 30
0.0
 11
545.187280883
 21
751.2607467015
 31
0.0
  0
LINE
  5
220
330
1C4
100
AcDbEntity
  8
02636038_GEHÄUSE
  6
Continuous
 62
     7
100
AcDbLine
 10
566.588371142
 20
753.3206825558
 30
0.0
 11
567.1054168237
 21
753.6894603973
 31
0.0
  0
ARC
  5
221
330
1C4
100
AcDbEntity
  8
02636038_GEHÄUSE
  6
Continuous
 62
     7
100
AcDbCircle
 10
545.0241121026
 20
752.4340792555
 30
0.0
 40
1.000000000000002
100
AcDbArc
 50
185.4979978926
 51
245.4979978926
  0
ARC
  5
222
330
1C4
100
AcDbEntity
  8
02636038_GEHÄUSE
  6
Continuous
 62
     7
100
AcDbCircle
 10
566.5247423163
 20
754.5035962069
 30
0.0
 40
0.9999999999999922
100
AcDbArc
 50
305.4979978926
 51
5.4979978926
  0
LINE
  5
223
330
1C4
100
AcDbEntity
  8
02636038_GEHÄUSE
  6
Continuous
 62
     7
100
AcDbLine
 10
543.9114035948
 20
753.5570148077
 30
0.0
 11
544.0287125556
 21
752.3382682856
 31
0.0
  0
LINE
  5
224
330
1C4
100
AcDbEntity
  8
02636038_GEHÄUSE
  6
Continuous
 62
     7
100
AcDbLine
 10
567.5201418632
 20
754.5994071768
 30
0.0
 11
567.4083025409
 21
755.7613285191
 31
0.0
  0
LINE
  5
225
330
1C4
100
AcDbEntity
  8
$DDT_AUDIT_GENERATED_(110)
  6
Continuous
 62
     7
100
AcDbLine
 10
564.8847463229
 20
752.7548535396
 30
0.0
 11
546.9675544781
 21
751.0302560801
 31
0.0
  0
LINE
  5
226
330
1C4
100
AcDbEntity
  8
$DDT_AUDIT_GENERATED_(110)
  6
Continuous
 62
     7
100
AcDbLine
 10
546.9292300901
 20
751.4284158989
 30
0.0
 11
546.9675544781
 21
751.0302560801
 31
0.0
  0
LINE
  5
227
330
1C4
100
AcDbEntity
  8
$DDT_AUDIT_GENERATED_(110)
  6
Continuous
 62
     7
100
AcDbLine
 10
564.8847463229
 20
752.7548535396
 30
0.0
 11
564.8464219349
 21
753.1530133583
 31
0.0
  0
ENDBLK
  5
229
330
1C4
100
AcDbEntity
  8
0
100
AcDbBlockEnd
  0
BLOCK
  5
283
330
22A
100
AcDbEntity
  8
0
100
AcDbBlockBegin
  2
SE2
 70
     0
 10
0.0
 20
0.0
 30
0.0
  3
SE2
  1

  0
SPLINE
  5
22C
330
22A
100
AcDbEntity
  8
$DDT_AUDIT_GENERATED_(77)
  6
Continuous
 62
     7
100
AcDbSpline
210
0.0
220
0.0
230
1.0
 70
     8
 71
     3
 72
    16
 73
    12
 74
     0
 42
0.0000000000705815
 43
0.0000000001
 40
0.0000032083719855
 40
0.0000032083719855
 40
0.0000032083719855
 40
0.0000032083719855
 40
0.03125
 40
0.0625
 40
0.09375
 40
0.125
 40
0.140625
 40
0.15625
 40
0.1875
 40
0.21875
 40
0.2492113820890615
 40
0.2492113820890615
 40
0.2492113820890615
 40
0.2492113820890615
 10
71.04573935308434
 20
352.9000946781304
 30
0.0
 10
71.04576480934644
 20
354.3721799730903
 30
0.0
 10
71.29419640985711
 20
357.3159105131219
 30
0.0
 10
72.41163260413408
 20
361.6028353131048
 30
0.0
 10
74.19702104160072
 20
365.6569890886199
 30
0.0
 10
76.22530825795812
 20
368.7411375486504
 30
0.0
 10
78.12304898677218
 20
370.9955093757699
 30
0.0
 10
80.20438023435842
 20
373.0802710642843
 30
0.0
 10
83.15062004457641
 20
375.316368831289
 30
0.0
 10
87.14526032757017
 20
377.1535397256448
 30
0.0
 10
89.9341455647652
 20
377.97994319244
 30
0.0
 10
91.32518424275938
 20
378.3250546290565
 30
0.0
  0
SPLINE
  5
22D
330
22A
100
AcDbEntity
  8
$DDT_AUDIT_GENERATED_(77)
  6
Continuous
 62
     7
100
AcDbSpline
210
0.0
220
0.0
230
1.0
 70
     8
 71
     3
 72
     8
 73
     4
 74
     0
 42
0.0000000000709643
 43
0.0000000001
 40
0.2866704070821455
 40
0.2866704070821455
 40
0.2866704070821455
 40
0.2866704070821455
 40
0.292360668773175
 40
0.292360668773175
 40
0.292360668773175
 40
0.292360668773175
 10
96.5062299740898
 20
379.3517410333247
 30
0.0
 10
96.77033545928063
 20
379.393082700876
 30
0.0
 10
97.03461503821626
 20
379.4330528584765
 30
0.0
 10
97.29904219909427
 20
379.4717336775138
 30
0.0
  0
SPLINE
  5
22E
330
22A
100
AcDbEntity
  8
$DDT_AUDIT_GENERATED_(77)
  6
Continuous
 62
     7
100
AcDbSpline
210
0.0
220
0.0
230
1.0
 70
     8
 71
     3
 72
    10
 73
     6
 74
     0
 42
0.0000000000706969
 43
0.0000000001
 40
0.0000032058117283
 40
0.0000032058117283
 40
0.0000032058117283
 40
0.0000032058117283
 40
0.0176002586683687
 40
0.0383921611677107
 40
0.05667514163702
 40
0.05667514163702
 40
0.05667514163702
 40
0.05667514163702
 10
71.04575221551188
 20
352.899188130236
 30
0.0
 10
71.06929380349597
 20
352.0701613656782
 30
0.0
 10
71.12067065103685
 20
350.2625832835295
 30
0.0
 10
71.54229123444236
 20
347.6203310701593
 30
0.0
 10
72.00782008614172
 20
345.83835047702
 30
0.0
 10
72.26508745392036
 20
345.0166317541948
 30
0.0
  0
SPLINE
  5
230
330
22A
100
AcDbEntity
  8
$DDT_AUDIT_GENERATED_(77)
  6
HIDDEN2
 62
     7
100
AcDbSpline
210
0.0
220
0.0
230
1.0
 70
     8
 71
     3
 72
     8
 73
     4
 74
     0
 42
0.0000000000709987
 43
0.0000000001
 40
0.2876896443734496
 40
0.2876896443734496
 40
0.2876896443734496
 40
0.2876896443734496
 40
0.2947569984259225
 40
0.2947569984259225
 40
0.2947569984259225
 40
0.2947569984259225
 10
96.65687908507297
 20
326.4239446769967
 30
0.0
 10
96.98485719891208
 20
326.3732495129453
 30
0.0
 10
97.31308900641714
 20
326.3246426968419
 30
0.0
 10
97.64152631803083
 20
326.2779756455366
 30
0.0
  0
SPLINE
  5
231
330
22A
100
AcDbEntity
  8
$DDT_AUDIT_GENERATED_(77)
  6
Continuous
 62
     7
100
AcDbSpline
210
0.0
220
0.0
230
1.0
 70
     8
 71
     3
 72
    25
 73
    21
 74
     0
 42
0.000000000077804
 43
0.0000000001
 40
0.3280705224755063
 40
0.3280705224755063
 40
0.3280705224755063
 40
0.3280705224755063
 40
0.3438446661148331
 40
0.3750167546723967
 40
0.4372959759948283
 40
0.4992598800950733
 40
0.5615096545513287
 40
0.6240795373804804
 40
0.6619511130416003
 40
0.6862376017970957
 40
0.7483677620252853
 40
0.7819525762811209
 40
0.8111923371349231
 40
0.8441449793043573
 40
0.8741266728236272
 40
0.9061864954281167
 40
0.9368565362616623
 40
0.9474511000265277
 40
0.9579743483386063
 40
0.9633391002183456
 40
0.9633391002183456
 40
0.9633391002183456
 40
0.9633391002183456
 10
102.2948551174939
 20
325.7324319316414
 30
0.0
 10
103.030047104333
 20
325.6623673040004
 30
0.0
 10
105.2183497883885
 20
325.474155738196
 30
0.0
 10
110.3044757601992
 20
325.1563237126212
 30
0.0
 10
117.496632144257
 20
324.9704808502051
 30
0.0
 10
125.9449940929609
 20
325.0612571789248
 30
0.0
 10
134.1260777063538
 20
325.4495171349484
 30
0.0
 10
140.9454494490318
 20
326.0953437112891
 30
0.0
 10
145.996145918833
 20
326.8338277158117
 30
0.0
 10
150.8985772131676
 20
327.7583627990413
 30
0.0
 10
155.5043633972675
 20
328.9296485794715
 30
0.0
 10
160.0991810605151
 20
330.6477224800742
 30
0.0
 10
163.4819619043877
 20
332.3029319966556
 30
0.0
 10
166.5525835620749
 20
334.3371230543335
 30
0.0
 10
169.3500262567641
 20
337.0555347613595
 30
0.0
 10
171.6059243923682
 20
340.3252812782439
 30
0.0
 10
172.9121883842051
 20
343.3443157564607
 30
0.0
 10
173.5852481357525
 20
345.6102137911988
 30
0.0
 10
173.8658826199051
 20
346.7992263179455
 30
0.0
 10
174.0054813367224
 20
347.5232355034294
 30
0.0
 10
174.0493120071015
 20
347.7687607430524
 30
0.0
  0
ARC
  5
232
330
22A
100
AcDbEntity
  8
$DDT_AUDIT_GENERATED_(77)
  6
Continuous
 62
     7
100
AcDbCircle
 10
107.5044045214
 20
310.3825800647
 30
0.0
 40
69.83737115682554
100
AcDbArc
 50
98.4029672824
 51
103.7204618156
  0
SPLINE
  5
233
330
22A
100
AcDbEntity
  8
$DDT_AUDIT_GENERATED_(77)
  6
Continuous
 62
     7
100
AcDbSpline
210
0.0
220
0.0
230
1.0
 70
     8
 71
     3
 72
    51
 73
    47
 74
     0
 42
0.0000000000769785
 43
0.0000000001
 40
0.0363998021866133
 40
0.0363998021866133
 40
0.0363998021866133
 40
0.0363998021866133
 40
0.0510602092763777
 40
0.0653725897594218
 40
0.0823251182804645
 40
0.096853655570714
 40
0.1089681308845505
 40
0.1186855583512287
 40
0.1263123527728717
 40
0.1337552156538124
 40
0.1413514995123992
 40
0.1491009669666505
 40
0.1570034174083684
 40
0.1757608701963063
 40
0.1961974031218943
 40
0.2178626228126848
 40
0.2310523211215415
 40
0.2445577971434649
 40
0.2576487426861437
 40
0.2684711068149588
 40
0.2765722018539987
 40
0.2828086254998559
 40
0.2896881217632889
 40
0.297836974126267
 40
0.3072548195751101
 40
0.3179409283672192
 40
0.3321627051219752
 40
0.3477605627919118
 40
0.3633653018855913
 40
0.3788574777399386
 40
0.406243421477626
 40
0.4332747265624892
 40
0.4599544327707336
 40
0.4858893814597778
 40
0.5060834795857319
 40
0.5244774554771464
 40
0.5410637622618674
 40
0.5558356686323424
 40
0.5690499800012947
 40
0.5839113628890038
 40
0.6047806159673257
 40
0.6293127538774849
 40
0.6574455267207007
 40
0.6860147645346474
 40
0.7039794879670711
 40
0.710875612293937
 40
0.710875612293937
 40
0.710875612293937
 40
0.710875612293937
 10
174.7672799346782
 20
358.0113749305649
 30
0.0
 10
174.6409207995396
 20
358.688688557338
 30
0.0
 10
174.3433631678901
 20
359.998368600635
 30
0.0
 10
173.7112281800134
 20
362.0172723249876
 30
0.0
 10
172.9146890925769
 20
363.9296292278503
 30
0.0
 10
172.0083278813056
 20
365.6356184627064
 30
0.0
 10
171.1541564540343
 20
366.9655251712575
 30
0.0
 10
170.4020490129086
 20
367.9788032632327
 30
0.0
 10
169.7296114658791
 20
368.7892537110559
 30
0.0
 10
169.0870465723988
 20
369.4930103301476
 30
0.0
 10
168.4153877111643
 20
370.1633487501074
 30
0.0
 10
167.7056144276743
 20
370.8089144893672
 30
0.0
 10
166.6209964224661
 20
371.7077895133997
 30
0.0
 10
165.0628917200706
 20
372.8077344605407
 30
0.0
 10
162.9496373464714
 20
374.0168443996438
 30
0.0
 10
160.9577332813085
 20
374.9495883124129
 30
0.0
 10
159.1768674070365
 20
375.6689158574524
 30
0.0
 10
157.690522558135
 20
376.2070752346596
 30
0.0
 10
156.2752048333872
 20
376.6687970424674
 30
0.0
 10
155.0527043015197
 20
377.0329805644726
 30
0.0
 10
154.0851812946306
 20
377.3010676620423
 30
0.0
 10
153.2659712075026
 20
377.5159944875288
 30
0.0
 10
152.4417594585022
 20
377.7216946455174
 30
0.0
 10
151.4894073526453
 20
377.946186474955
 30
0.0
 10
150.382143896261
 20
378.1904322387183
 30
0.0
 10
149.0275709269548
 20
378.4677314824841
 30
0.0
 10
147.4153514419073
 20
378.7685054141525
 30
0.0
 10
145.588407833384
 20
379.0724013845853
 30
0.0
 10
143.6896463286708
 20
379.3515607173376
 30
0.0
 10
141.2854318884484
 20
379.6631280849455
 30
0.0
 10
138.3675962265233
 20
379.9778483674801
 30
0.0
 10
134.9178542162616
 20
380.2658087730179
 30
0.0
 10
131.4671233982019
 20
380.4821759360308
 30
0.0
 10
128.2608347330725
 20
380.625526591541
 30
0.0
 10
125.3851959501989
 20
380.7128089055709
 30
0.0
 10
122.9038290815574
 20
380.7598028863611
 30
0.0
 10
120.6510483441097
 20
380.7783686328618
 30
0.0
 10
118.6219253710733
 20
380.7754376843351
 30
0.0
 10
116.6659260523075
 20
380.7527987694353
 30
0.0
 10
114.4136032856653
 20
380.7118462871998
 30
0.0
 10
111.6212651866662
 20
380.6350828749315
 30
0.0
 10
108.1944197325126
 20
380.492452805067
 30
0.0
 10
104.393184337291
 20
380.2580447298798
 30
0.0
 10
100.898295331475
 20
379.934693141857
 30
0.0
 10
98.4029854634644
 20
379.6265479894253
 30
0.0
 10
97.24459301805332
 20
379.4595351612564
 30
0.0
 10
96.92352822589787
 20
379.4112310005354
 30
0.0
  0
SPLINE
  5
234
330
22A
100
AcDbEntity
  8
$DDT_AUDIT_GENERATED_(77)
  6
Continuous
 62
     7
100
AcDbSpline
210
0.0
220
0.0
230
1.0
 70
     8
 71
     3
 72
     9
 73
     5
 74
     0
 42
0.0000000000707153
 43
0.0000000001
 40
0.7526246484898035
 40
0.7526246484898035
 40
0.7526246484898035
 40
0.7526246484898035
 40
0.7550384182361995
 40
0.7697003762933483
 40
0.7697003762933483
 40
0.7697003762933483
 40
0.7697003762933483
 10
91.13636481723822
 20
378.2751989298936
 30
0.0
 10
91.026073799848
 20
378.247355490469
 30
0.0
 10
90.24655010473215
 20
378.047498860437
 30
0.0
 10
89.47230837509353
 20
377.8266542300286
 30
0.0
 10
88.81351978988967
 20
377.6177944203094
 30
0.0
  0
SPLINE
  5
235
330
22A
100
AcDbEntity
  8
$DDT_AUDIT_GENERATED_(77)
  6
Continuous
 62
     7
100
AcDbSpline
210
0.0
220
0.0
230
1.0
 70
     8
 71
     3
 72
     9
 73
     5
 74
     0
 42
0.0000000000706762
 43
0.0000000001
 40
0.9792281460981483
 40
0.9792281460981483
 40
0.9792281460981483
 40
0.9792281460981483
 40
0.9797356594489317
 40
1.0
 40
1.0
 40
1.0
 40
1.0
 10
71.20708935212002
 20
355.8325656176432
 30
0.0
 10
71.20456737141053
 20
355.8093377822788
 30
0.0
 10
71.10303491179246
 20
354.8596148046479
 30
0.0
 10
71.07113945047016
 20
353.9509699076345
 30
0.0
 10
71.04247251851187
 20
352.9000480677261
 30
0.0
  0
SPLINE
  5
236
330
22A
100
AcDbEntity
  8
$DDT_AUDIT_GENERATED_(77)
  6
Continuous
 62
     7
100
AcDbSpline
210
0.0
220
0.0
230
1.0
 70
     8
 71
     3
 72
    10
 73
     6
 74
     0
 42
0.0000000000705646
 43
0.0000000001
 40
0.0
 40
0.0
 40
0.0
 40
0.0
 40
0.0202643572656525
 40
0.03977127654077
 40
0.0571720849038196
 40
0.0571720849038196
 40
0.0571720849038196
 40
0.0571720849038196
 10
71.04247251851187
 20
352.8992343799392
 30
0.0
 10
71.07113945047016
 20
351.8483125400309
 30
0.0
 10
71.13220873067631
 20
350.1085574926639
 30
0.0
 10
71.58697714061638
 20
347.3911439886444
 30
0.0
 10
72.03817698067962
 20
345.7152082031535
 30
0.0
 10
72.28656224125136
 20
344.9346425281564
 30
0.0
  0
SPLINE
  5
237
330
22A
100
AcDbEntity
  8
$DDT_AUDIT_GENERATED_(77)
  6
HIDDEN2
 62
     7
100
AcDbSpline
210
0.0
220
0.0
230
1.0
 70
     8
 71
     3
 72
    17
 73
    13
 74
     0
 42
0.0000000000717178
 43
0.0000000001
 40
0.2891246332440133
 40
0.2891246332440133
 40
0.2891246332440133
 40
0.2891246332440133
 40
0.2960207561987732
 40
0.3139854944489939
 40
0.3381568537712503
 40
0.3625256141913279
 40
0.384526584153592
 40
0.4038779866023839
 40
0.4206027922308397
 40
0.4347214663892817
 40
0.4507990249061339
 40
0.4666255396082993
 40
0.4666255396082993
 40
0.4666255396082993
 40
0.4666255396082993
 10
96.9235272776627
 20
326.3880501382716
 30
0.0
 10
97.24459170347433
 20
326.33974600815
 30
0.0
 10
98.40298552727013
 20
326.1727342579837
 30
0.0
 10
100.6929325884881
 20
325.8899707594776
 30
0.0
 10
103.8049529902427
 20
325.5928258970915
 30
0.0
 10
107.1068271742106
 20
325.3683164003921
 30
0.0
 10
110.174622455319
 20
325.2202268735484
 30
0.0
 10
112.8739476260223
 20
325.1270738005127
 30
0.0
 10
115.1947220141921
 20
325.0718677790321
 30
0.0
 10
117.3483337850664
 20
325.0362021879364
 30
0.0
 10
119.4465016254666
 20
325.0196373247677
 30
0.0
 10
120.8956428356135
 20
325.0240774039943
 30
0.0
 10
121.6124648992707
 20
325.0297639144322
 30
0.0
  0
SPLINE
  5
238
330
22A
100
AcDbEntity
  8
$DDT_AUDIT_GENERATED_(77)
  6
Continuous
 62
     7
100
AcDbSpline
210
0.0
220
0.0
230
1.0
 70
     8
 71
     3
 72
    39
 73
    35
 74
     0
 42
0.0000000000790509
 43
0.0000000001
 40
0.4666255396082993
 40
0.4666255396082993
 40
0.4666255396082993
 40
0.4666255396082993
 40
0.4693931835402816
 40
0.4905016423723477
 40
0.5141122993808146
 40
0.5472872914963613
 40
0.5814245913666228
 40
0.616134180218693
 40
0.6514207734537164
 40
0.6673548620792237
 40
0.681905223015694
 40
0.6946220620206695
 40
0.7055043933705447
 40
0.7145511508174299
 40
0.7220400968390218
 40
0.7315235548790793
 40
0.7460359909471072
 40
0.7635424960968705
 40
0.7807753675717136
 40
0.7974783681811854
 40
0.8135982409787127
 40
0.8287905589110076
 40
0.8429964530909031
 40
0.850898910050779
 40
0.8586483838970036
 40
0.8662446740212139
 40
0.8736875430412323
 40
0.8813143437536647
 40
0.8910317792355441
 40
0.9031462645417322
 40
0.9176748138155181
 40
0.9346273563194718
 40
0.9489397486077602
 40
0.963608213333208
 40
0.963608213333208
 40
0.963608213333208
 40
0.963608213333208
 10
121.6124648992707
 20
325.0297639144322
 30
0.0
 10
121.7378183502437
 20
325.0307583365398
 30
0.0
 10
122.8186861392924
 20
325.0402562093574
 30
0.0
 10
124.9585622041953
 20
325.0745726050739
 30
0.0
 10
128.4333784262341
 20
325.176532861307
 30
0.0
 10
132.4298540387316
 20
325.3643015057615
 30
0.0
 10
136.8180580082201
 20
325.6743623106016
 30
0.0
 10
141.1907960818738
 20
326.1097278929096
 30
0.0
 10
144.7114599371873
 20
326.5824739310842
 30
0.0
 10
147.3578883412829
 20
327.0204005630383
 30
0.0
 10
149.077772772344
 20
327.3405076495005
 30
0.0
 10
150.5823445290891
 20
327.6503956951772
 30
0.0
 10
151.8594947138424
 20
327.9376385934511
 30
0.0
 10
152.92484765542
 20
328.1960671909889
 30
0.0
 10
153.930506541421
 20
328.4558716348542
 30
0.0
 10
155.1418930178342
 20
328.7897017483305
 30
0.0
 10
156.7245664122569
 20
329.2676587006881
 30
0.0
 10
158.5780711086707
 20
329.8997656261052
 30
0.0
 10
160.4800567812799
 20
330.6460098333199
 30
0.0
 10
162.2925655674968
 20
331.4674262514135
 30
0.0
 10
163.9856809025703
 20
332.3616914027432
 30
0.0
 10
165.5405781144957
 20
333.3214709955057
 30
0.0
 10
166.7644407123347
 20
334.210411635815
 30
0.0
 10
167.7056194853092
 20
334.9903643972752
 30
0.0
 10
168.4153863959845
 20
335.6359346235609
 30
0.0
 10
169.0870469134739
 20
336.3062718773705
 30
0.0
 10
169.729611373564
 20
337.0100288016073
 30
0.0
 10
170.4020490454054
 20
337.820479161552
 30
0.0
 10
171.1541564418881
 20
338.8337572849598
 30
0.0
 10
172.0083278856274
 20
340.163663981916
 30
0.0
 10
172.9146890910925
 20
341.8696532208602
 30
0.0
 10
173.7112281803631
 20
343.7820101224315
 30
0.0
 10
174.3434739098889
 20
345.8012675335864
 30
0.0
 10
174.6410860509817
 20
347.1113212707585
 30
0.0
 10
174.7674879480359
 20
347.7890226463358
 30
0.0
  0
SPLINE
  5
239
330
22A
100
AcDbEntity
  8
$DDT_AUDIT_GENERATED_(77)
  6
HIDDEN2
 62
     7
100
AcDbSpline
210
0.0
220
0.0
230
1.0
 70
     8
 71
     3
 72
    10
 73
     6
 74
     0
 42
0.000000000070772
 43
0.0000000001
 40
0.963608213333208
 40
0.963608213333208
 40
0.963608213333208
 40
0.963608213333208
 40
0.9646162899314236
 40
0.9816427054603615
 40
1.0
 40
1.0
 40
1.0
 40
1.0
 10
174.7674879480359
 20
347.7890226463358
 30
0.0
 10
174.7761748008713
 20
347.8355970431854
 30
0.0
 10
174.9295351041045
 20
348.6700489464976
 30
0.0
 10
175.1654450411866
 20
350.3996343224528
 30
0.0
 10
175.2093217796732
 20
351.9473565818546
 30
0.0
 10
175.2298646840153
 20
352.8995045466817
 30
0.0
  0
ARC
  5
23A
330
22A
100
AcDbEntity
  8
$DDT_AUDIT_GENERATED_(8F)
  6
Continuous
 62
     7
100
AcDbCircle
 10
87.2948914949
 20
352.8996412238
 30
0.0
 40
15.0
100
AcDbArc
 50
0.0
 51
180.0
  0
ELLIPSE
  5
23B
330
22A
100
AcDbEntity
  8
$DDT_AUDIT_GENERATED_(8F)
  6
Continuous
 62
     7
100
AcDbEllipse
 10
87.2948914949
 20
193.1868394012
 30
0.0
 11
15.00000000000001
 21
0.0
 31
0.0
210
0.0
220
0.0
230
1.0
 40
0.312670824
 41
3.141592653589793
 42
6.283185307179586
  0
ELLIPSE
  5
23C
330
22A
100
AcDbEntity
  8
$DDT_AUDIT_GENERATED_(8F)
  6
Continuous
 62
     7
100
AcDbEllipse
 10
87.2948914949
 20
164.1315215809
 30
0.0
 11
14.99999999999999
 21
0.0
 31
0.0
210
0.0
220
0.0
230
1.0
 40
0.5948508463
 41
3.141592653589793
 42
3.564772531923873
  0
ELLIPSE
  5
23D
330
22A
100
AcDbEntity
  8
$DDT_AUDIT_GENERATED_(8F)
  6
Continuous
 62
     7
100
AcDbEllipse
 10
87.2948914949
 20
164.1315215809
 30
0.0
 11
14.99999999999999
 21
0.0
 31
0.0
210
0.0
220
0.0
230
1.0
 40
0.5948508463
 41
5.879906860976628
 42
6.283185307179586
  0
LINE
  5
23E
330
22A
100
AcDbEntity
  8
$DDT_AUDIT_GENERATED_(8F)
  6
Continuous
 62
     7
100
AcDbLine
 10
72.2948914949
 20
352.8996412238
 30
0.0
 11
72.2948914949
 21
252.2875245683
 31
0.0
  0
LINE
  5
23F
330
22A
100
AcDbEntity
  8
$DDT_AUDIT_GENERATED_(8F)
  6
Continuous
 62
     7
100
AcDbLine
 10
102.2948914949
 20
252.2875245683
 30
0.0
 11
102.2948914949
 21
352.8996412238
 31
0.0
  0
LINE
  5
240
330
22A
100
AcDbEntity
  8
$DDT_AUDIT_GENERATED_(8F)
  6
Continuous
 62
     7
100
AcDbLine
 10
72.2948914949
 20
252.2875245683
 30
0.0
 11
72.2948914949
 21
193.1868394012
 31
0.0
  0
LINE
  5
241
330
22A
100
AcDbEntity
  8
$DDT_AUDIT_GENERATED_(8F)
  6
Continuous
 62
     7
100
AcDbLine
 10
102.2948914949
 20
193.1868394012
 30
0.0
 11
102.2948914949
 21
252.2875245683
 31
0.0
  0
LINE
  5
242
330
22A
100
AcDbEntity
  8
$DDT_AUDIT_GENERATED_(8F)
  6
Continuous
 62
     7
100
AcDbLine
 10
72.2948914949
 20
193.1868394012
 30
0.0
 11
72.2948914949
 21
171.3236413158
 31
0.0
  0
LINE
  5
243
330
22A
100
AcDbEntity
  8
$DDT_AUDIT_GENERATED_(8F)
  6
Continuous
 62
     7
100
AcDbLine
 10
102.2948914949
 20
171.3236413158
 30
0.0
 11
102.2948914949
 21
193.1868394012
 31
0.0
  0
LINE
  5
244
330
22A
100
AcDbEntity
  8
$DDT_AUDIT_GENERATED_(8F)
  6
Continuous
 62
     7
100
AcDbLine
 10
102.2948914949
 20
164.1315215809
 30
0.0
 11
102.2948914949
 21
171.3236413158
 31
0.0
  0
LINE
  5
245
330
22A
100
AcDbEntity
  8
$DDT_AUDIT_GENERATED_(8F)
  6
Continuous
 62
     7
100
AcDbLine
 10
72.2948914949
 20
171.3236413158
 30
0.0
 11
72.2948914949
 21
164.1315215809
 31
0.0
  0
SPLINE
  5
246
330
22A
100
AcDbEntity
  8
$DDT_AUDIT_GENERATED_(8F)
  6
Continuous
 62
     7
100
AcDbSpline
210
0.0
220
0.0
230
1.0
 70
     8
 71
     3
 72
    32
 73
    28
 74
     0
 42
0.0000000003287277
 43
0.0000000001
 40
0.0
 40
0.0
 40
0.0
 40
0.0
 40
0.0314283214672484
 40
0.0719903167526162
 40
0.1126497549499857
 40
0.1533649859742572
 40
0.1941043529934437
 40
0.2348443605274566
 40
0.2755742991531237
 40
0.3162906132159893
 40
0.3569931192675814
 40
0.3976835948011129
 40
0.4383649024534808
 40
0.4790404805799169
 40
0.5197140636687192
 40
0.5603894189513646
 40
0.6010693084702475
 40
0.641757700624496
 40
0.682458489238719
 40
0.7231753192865824
 40
0.7639112566209478
 40
0.8046681884976892
 40
0.8454457963986921
 40
0.886239906309098
 40
0.9270371717512991
 40
0.9678117852822689
 40
1.0
 40
1.0
 40
1.0
 40
1.0
 10
73.66214997070234
 20
160.3632321533233
 30
0.0
 10
73.83066039566211
 20
160.1438924309049
 30
0.0
 10
74.16115859897324
 20
159.7198136666275
 30
0.0
 10
74.86203208966332
 20
159.0366565126823
 30
0.0
 10
75.69943529744931
 20
158.3610680121203
 30
0.0
 10
76.64689074991463
 20
157.7318103757958
 30
0.0
 10
77.68573731015884
 20
157.1604088526723
 30
0.0
 10
78.80919128478833
 20
156.6502413421176
 30
0.0
 10
80.00644737671198
 20
156.2060451668982
 30
0.0
 10
81.26711594190292
 20
155.8313854311204
 30
0.0
 10
82.5801046389317
 20
155.5293679806253
 30
0.0
 10
83.93398453612008
 20
155.3024559496607
 30
0.0
 10
85.3169875419099
 20
155.1525060779091
 30
0.0
 10
86.71711743685012
 20
155.0807424989715
 30
0.0
 10
88.12223824769902
 20
155.0877502917937
 30
0.0
 10
89.52016390703447
 20
155.1734688234787
 30
0.0
 10
90.89877438269659
 20
155.3371910888995
 30
0.0
 10
92.24612241161778
 20
155.5775742116752
 30
0.0
 10
93.55053864014563
 20
155.8926565443039
 30
0.0
 10
94.80073273317055
 20
156.2798928609879
 30
0.0
 10
95.98579801554682
 20
156.7361322173325
 30
0.0
 10
97.09558347610385
 20
157.2578323775537
 30
0.0
 10
98.1196359296528
 20
157.8403922466755
 30
0.0
 10
99.05139208599014
 20
158.4807337524507
 30
0.0
 10
99.87263883982891
 20
159.1676092317775
 30
0.0
 10
100.5601462392866
 20
159.8652662751547
 30
0.0
 10
100.8820045239025
 20
160.2989549796016
 30
0.0
 10
101.0477335389645
 20
160.5256598577169
 30
0.0
  0
LINE
  5
247
330
22A
100
AcDbEntity
  8
$DDT_AUDIT_GENERATED_(A8)
  6
Continuous
 62
     7
100
AcDbLine
 10
170.1484749426
 20
355.1399520868
 30
0.0
 11
170.073641255
 21
355.6007489497
 31
0.0
  0
LINE
  5
248
330
22A
100
AcDbEntity
  8
$DDT_AUDIT_GENERATED_(A8)
  6
Continuous
 62
     7
100
AcDbLine
 10
170.0736274112
 20
355.6008155925
 30
0.0
 11
169.9705341964
 21
355.9998283623
 31
0.0
  0
LINE
  5
249
330
22A
100
AcDbEntity
  8
$DDT_AUDIT_GENERATED_(A8)
  6
Continuous
 62
     7
100
AcDbLine
 10
168.6018789643
 20
357.6535822547
 30
0.0
 11
168.2339940106
 21
357.8213079816
 31
0.0
  0
LINE
  5
24A
330
22A
100
AcDbEntity
  8
$DDT_AUDIT_GENERATED_(A8)
  6
Continuous
 62
     7
100
AcDbLine
 10
168.2339901852
 20
357.8213095137
 30
0.0
 11
167.5191369626
 21
358.0420803534
 31
0.0
  0
LINE
  5
24B
330
22A
100
AcDbEntity
  8
$DDT_AUDIT_GENERATED_(A8)
  6
Continuous
 62
     7
100
AcDbLine
 10
167.5191343981
 20
358.0420809182
 30
0.0
 11
166.8784189986
 21
358.1152821057
 31
0.0
  0
LINE
  5
24C
330
22A
100
AcDbEntity
  8
$DDT_AUDIT_GENERATED_(A8)
  6
Continuous
 62
     7
100
AcDbLine
 10
166.81886579
 20
358.1220859573
 30
0.0
 11
166.4684481493
 21
358.0820469456
 31
0.0
  0
LINE
  5
24D
330
22A
100
AcDbEntity
  8
$DDT_AUDIT_GENERATED_(A8)
  6
Continuous
 62
     7
100
AcDbLine
 10
165.4170733912
 20
357.3034576005
 30
0.0
 11
165.3409797488
 21
357.1185291694
 31
0.0
  0
ARC
  5
24E
330
22A
100
AcDbEntity
  8
$DDT_AUDIT_GENERATED_(A8)
  6
Continuous
 62
     7
100
AcDbCircle
 10
166.5792408178
 20
356.6971205803
 30
0.0
 40
1.310797212766487
100
AcDbArc
 50
139.9700534489
 51
152.466661306
  0
ELLIPSE
  5
24F
330
22A
100
AcDbEntity
  8
$DDT_AUDIT_GENERATED_(A8)
  6
Continuous
 62
     7
100
AcDbEllipse
 10
165.8753952952
 20
357.1038075988
 30
0.0
 11
0.4462165475554308
 21
-0.2256202036505245
 31
0.0
210
0.0
220
0.0
230
1.0
 40
0.9468849967
 41
2.932736701172076
 42
3.203046873205592
  0
ELLIPSE
  5
250
330
22A
100
AcDbEntity
  8
$DDT_AUDIT_GENERATED_(A8)
  6
Continuous
 62
     7
100
AcDbEllipse
 10
166.0182301416
 20
357.3097016281
 30
0.0
 11
0.3752786808998432
 21
-0.3304062295485817
 31
0.0
210
0.0
220
0.0
230
1.0
 40
0.9697560797
 41
3.029947275303096
 42
3.390647453889869
  0
ELLIPSE
  5
251
330
22A
100
AcDbEntity
  8
$DDT_AUDIT_GENERATED_(A8)
  6
Continuous
 62
     7
100
AcDbEllipse
 10
166.1702940542
 20
357.4435876351
 30
0.0
 11
0.2836552762086886
 21
-0.4117518371636597
 31
0.0
210
0.0
220
0.0
230
1.0
 40
0.9783446982
 41
2.636322733163542
 42
3.583267684134547
  0
ELLIPSE
  5
252
330
22A
100
AcDbEntity
  8
$DDT_AUDIT_GENERATED_(A8)
  6
Continuous
 62
     7
100
AcDbEllipse
 10
166.4884078462
 20
357.5826808317
 30
0.0
 11
0.09867362257003076
 21
-0.4901552257823883
 31
0.0
210
0.0
220
0.0
230
1.0
 40
0.9824647328
 41
2.977047978217811
 42
3.307052340285615
  0
SPLINE
  5
253
330
22A
100
AcDbEntity
  8
$DDT_AUDIT_GENERATED_(A8)
  6
Continuous
 62
     7
100
AcDbSpline
210
0.0
220
0.0
230
1.0
 70
     8
 71
     3
 72
    20
 73
    16
 74
     0
 42
0.0000000018431077
 43
0.0000000001
 40
0.4412383701952894
 40
0.4412383701952894
 40
0.4412383701952894
 40
0.4412383701952894
 40
0.5
 40
0.5
 40
0.5625
 40
0.5625
 40
0.625
 40
0.625
 40
0.75
 40
0.75
 40
0.8125
 40
0.8125
 40
0.875
 40
0.875
 40
0.9092440536993734
 40
0.9092440536993734
 40
0.9092440536993734
 40
0.9092440536993734
 10
175.5053823244
 20
357.9949246578856
 30
0.0
 10
175.4849198120061
 20
358.1912100100303
 30
0.0
 10
175.4613954654672
 20
358.3759795052774
 30
0.0
 10
175.4054345864554
 20
358.7274480531279
 30
0.0
 10
175.3724858447451
 20
358.8920928596824
 30
0.0
 10
175.2986445812408
 20
359.1869009380902
 30
0.0
 10
175.2577520594468
 20
359.3170642099435
 30
0.0
 10
175.1235602366953
 20
359.6536309393484
 30
0.0
 10
175.018705232483
 20
359.8056953946056
 30
0.0
 10
174.8499586429315
 20
359.9548823459938
 30
0.0
 10
174.7918399251392
 20
359.9914258761442
 30
0.0
 10
174.6738779959442
 20
360.0446165292839
 30
0.0
 10
174.6140347845414
 20
360.0612636522733
 30
0.0
 10
174.5216281918167
 20
360.0766438972843
 30
0.0
 10
174.4890051692761
 20
360.0802283660022
 30
0.0
 10
174.4565624880744
 20
360.0822953815834
 30
0.0
  0
LINE
  5
254
330
22A
100
AcDbEntity
  8
$DDT_AUDIT_GENERATED_(A8)
  6
Continuous
 62
     7
100
AcDbLine
 10
164.5193730596
 20
352.8997930592
 30
0.0
 11
169.3600071913
 21
352.8997930019
 31
0.0
  0
LINE
  5
255
330
22A
100
AcDbEntity
  8
$DDT_AUDIT_GENERATED_(A8)
  6
Continuous
 62
     7
100
AcDbLine
 10
169.3600071913
 20
352.8997930019
 30
0.0
 11
170.2231583963
 21
352.8997952174
 31
0.0
  0
ELLIPSE
  5
256
330
22A
100
AcDbEntity
  8
$DDT_AUDIT_GENERATED_(A8)
  6
Continuous
 62
     7
100
AcDbEllipse
 10
166.4884078462
 20
348.216905172
 30
0.0
 11
0.09867362257018342
 21
0.4901552257823554
 31
0.0
210
0.0
220
0.0
230
0.9999999999999999
 40
0.9824647328
 41
2.976132966893428
 42
3.306137328962266
  0
ELLIPSE
  5
257
330
22A
100
AcDbEntity
  8
$DDT_AUDIT_GENERATED_(A8)
  6
Continuous
 62
     7
100
AcDbEllipse
 10
166.1702940542
 20
348.3559983687
 30
0.0
 11
0.2836552762085776
 21
0.4117518371637213
 31
0.0
210
0.0
220
0.0
230
0.9999999999999998
 40
0.9783446982
 41
2.699917623044768
 42
3.646862574015945
  0
ELLIPSE
  5
258
330
22A
100
AcDbEntity
  8
$DDT_AUDIT_GENERATED_(A8)
  6
Continuous
 62
     7
100
AcDbEllipse
 10
166.0182301416
 20
348.4898843757
 30
0.0
 11
0.3752786808997599
 21
0.3304062295486519
 31
0.0
210
0.0
220
0.0
230
0.9999999999999998
 40
0.9697560797
 41
2.892537853289552
 42
3.253238031876774
  0
ELLIPSE
  5
259
330
22A
100
AcDbEntity
  8
$DDT_AUDIT_GENERATED_(A8)
  6
Continuous
 62
     7
100
AcDbEllipse
 10
165.8753952952
 20
348.695778405
 30
0.0
 11
0.4462165475555002
 21
0.2256202036504847
 31
0.0
210
0.0
220
0.0
230
0.9999999999999999
 40
0.9468849967
 41
3.0801384339753
 42
3.350448606006838
  0
ARC
  5
25A
330
22A
100
AcDbEntity
  8
$DDT_AUDIT_GENERATED_(A8)
  6
Continuous
 62
     7
100
AcDbCircle
 10
166.5792408178
 20
349.1024654234
 30
0.0
 40
1.31079721276651
100
AcDbArc
 50
207.533338694
 51
220.0299465511
  0
LINE
  5
25B
330
22A
100
AcDbEntity
  8
$DDT_AUDIT_GENERATED_(A8)
  6
Continuous
 62
     7
100
AcDbLine
 10
165.4170733912
 20
348.4961284032
 30
0.0
 11
165.3409797488
 21
348.6810568343
 31
0.0
  0
LINE
  5
25C
330
22A
100
AcDbEntity
  8
$DDT_AUDIT_GENERATED_(A8)
  6
Continuous
 62
     7
100
AcDbLine
 10
166.81886579
 20
347.6775000464
 30
0.0
 11
166.4684481493
 21
347.7175390581
 31
0.0
  0
ARC
  5
25D
330
22A
100
AcDbEntity
  8
$DDT_AUDIT_GENERATED_(A8)
  6
Continuous
 62
     7
100
AcDbCircle
 10
166.8154368857
 20
350.8170983001
 30
0.0
 40
3.139345451136979
100
AcDbArc
 50
271.0569972138
 51
282.9668735132
  0
LINE
  5
25E
330
22A
100
AcDbEntity
  8
$DDT_AUDIT_GENERATED_(A8)
  6
Continuous
 62
     7
100
AcDbLine
 10
168.2339901852
 20
347.9782764901
 30
0.0
 11
167.5191369626
 21
347.7575056503
 31
0.0
  0
LINE
  5
25F
330
22A
100
AcDbEntity
  8
$DDT_AUDIT_GENERATED_(A8)
  6
Continuous
 62
     7
100
AcDbLine
 10
168.6018789643
 20
348.146003749
 30
0.0
 11
168.2339940106
 21
347.9782780221
 31
0.0
  0
LINE
  5
260
330
22A
100
AcDbEntity
  8
$DDT_AUDIT_GENERATED_(A8)
  6
Continuous
 62
     7
100
AcDbLine
 10
170.0736274112
 20
350.1987704112
 30
0.0
 11
169.9705341964
 21
349.7997576414
 31
0.0
  0
LINE
  5
261
330
22A
100
AcDbEntity
  8
$DDT_AUDIT_GENERATED_(A8)
  6
Continuous
 62
     7
100
AcDbLine
 10
170.1484749426
 20
350.6596339169
 30
0.0
 11
170.073641255
 21
350.198837054
 31
0.0
  0
SPLINE
  5
262
330
22A
100
AcDbEntity
  8
$DDT_AUDIT_GENERATED_(A8)
  6
Continuous
 62
     7
100
AcDbSpline
210
0.0
220
0.0
230
1.0
 70
     8
 71
     3
 72
    32
 73
    28
 74
     0
 42
0.0000000002764895
 43
0.0000000001
 40
0.2355612480344893
 40
0.2355612480344893
 40
0.2355612480344893
 40
0.2355612480344893
 40
0.242887199106058
 40
0.2670203262671497
 40
0.2954721658282279
 40
0.3269978049822422
 40
0.3573768290520284
 40
0.3862544119157034
 40
0.4201130672144109
 40
0.4522807661509923
 40
0.4861110271633948
 40
0.521985441579872
 40
0.5718189597454381
 40
0.6148862825763733
 40
0.6505290028652239
 40
0.6909776124141376
 40
0.7351608520373782
 40
0.7761157190746728
 40
0.7956938311687393
 40
0.8151031697263422
 40
0.8343376903149959
 40
0.8533915000392706
 40
0.873272138560091
 40
0.897753596862674
 40
0.9272957777152682
 40
0.9620353435545448
 40
1.0
 40
1.0
 40
1.0
 40
1.0
 10
194.5112181484638
 20
357.2677466498943
 30
0.0
 10
194.5106278885359
 20
357.267838004887
 30
0.0
 10
194.4951469000989
 20
357.2685577251895
 30
0.0
 10
194.3916867670881
 20
357.2723144503026
 30
0.0
 10
194.1026615743474
 20
357.2833627629188
 30
0.0
 10
193.6663635873493
 20
357.3013359328614
 30
0.0
 10
193.1261186388516
 20
357.3247657010584
 30
0.0
 10
192.4612449996723
 20
357.3545476705133
 30
0.0
 10
191.6598393335875
 20
357.3913865094796
 30
0.0
 10
190.6624321038162
 20
357.4376166787211
 30
0.0
 10
189.5660337350927
 20
357.4882511833294
 30
0.0
 10
188.1789441364286
 20
357.5512210346119
 30
0.0
 10
186.5647566820832
 20
357.6219829348608
 30
0.0
 10
184.8625938956373
 20
357.6924977578161
 30
0.0
 10
183.1994752148424
 20
357.7572817459226
 30
0.0
 10
181.481544740882
 20
357.8196342960366
 30
0.0
 10
179.6348805863139
 20
357.8807254252035
 30
0.0
 10
178.0509735727819
 20
357.9275572418281
 30
0.0
 10
176.8205598167202
 20
357.9606664077142
 30
0.0
 10
175.9147028331642
 20
357.9834660150705
 30
0.0
 10
175.0078546676235
 20
358.0046937525986
 30
0.0
 10
174.0844879539373
 20
358.0246672637726
 30
0.0
 10
173.0692062513263
 20
358.0447621338473
 30
0.0
 10
171.8770742084064
 20
358.0658298980675
 30
0.0
 10
170.4373006974677
 20
358.087471886981
 30
0.0
 10
168.7162619128045
 20
358.1081599257175
 30
0.0
 10
167.5827596244731
 20
358.1164988443466
 30
0.0
 10
166.8785826924687
 20
358.1215112282366
 30
0.0
  0
SPLINE
  5
263
330
22A
100
AcDbEntity
  8
$DDT_AUDIT_GENERATED_(A8)
  6
Continuous
 62
     7
100
AcDbSpline
210
0.0
220
0.0
230
1.0
 70
     8
 71
     3
 72
    41
 73
    37
 74
     0
 42
0.0000000003434896
 43
0.0000000001
 40
0.0
 40
0.0
 40
0.0
 40
0.0
 40
0.016532064891793
 40
0.0319681950839637
 40
0.0438506527031504
 40
0.0520947247430986
 40
0.0571871940944677
 40
0.0608327933587242
 40
0.0677451721202203
 40
0.0804252863557224
 40
0.0921487771616104
 40
0.1033074251796949
 40
0.1142191555662948
 40
0.129021092095606
 40
0.1502381374872375
 40
0.1822762058622346
 40
0.222491569963453
 40
0.2707432828785005
 40
0.3246770891573167
 40
0.3744272585341388
 40
0.4190215814016381
 40
0.4586155958429838
 40
0.4937007041180272
 40
0.5290591253170366
 40
0.5661591800300527
 40
0.6050770266252321
 40
0.6459011638218988
 40
0.6861526605216819
 40
0.7210697560417232
 40
0.7506119393893639
 40
0.7816705783247487
 40
0.8172779645332279
 40
0.8580927888792942
 40
0.905560513756606
 40
0.9599692316915793
 40
1.0
 40
1.0
 40
1.0
 40
1.0
 10
202.5308768441422
 20
352.8226034792201
 30
0.0
 10
202.5314898949629
 20
353.1368314962883
 30
0.0
 10
202.5259401781479
 20
353.6487915433269
 30
0.0
 10
202.4175260613512
 20
354.4171460371584
 30
0.0
 10
202.2444681215073
 20
355.0046481892167
 30
0.0
 10
202.0701604227511
 20
355.4013443198808
 30
0.0
 10
201.931246785896
 20
355.6466142287038
 30
0.0
 10
201.8109278697694
 20
355.8311400483863
 30
0.0
 10
201.6114034859322
 20
356.0921115507195
 30
0.0
 10
201.3143575719702
 20
356.3733654247191
 30
0.0
 10
200.968827214089
 20
356.5970297029269
 30
0.0
 10
200.6690517162624
 20
356.7382523146703
 30
0.0
 10
200.4183055958216
 20
356.8318518004933
 30
0.0
 10
200.2180079266248
 20
356.8950073706546
 30
0.0
 10
199.9591577568121
 20
356.9653160358085
 30
0.0
 10
199.6242522152338
 20
357.0395463668769
 30
0.0
 10
199.1632724924097
 20
357.1241808660945
 30
0.0
 10
198.5495216539379
 20
357.219445478614
 30
0.0
 10
197.7869416575774
 20
357.3242059360937
 30
0.0
 10
196.9204280880231
 20
357.4343573001338
 30
0.0
 10
196.0483930270439
 20
357.5405822937951
 30
0.0
 10
195.2055503810764
 20
357.6410818992996
 30
0.0
 10
194.391803525629
 20
357.7373385831411
 30
0.0
 10
193.5325338441101
 20
357.8381444091609
 30
0.0
 10
192.5737649362204
 20
357.9499692321331
 30
0.0
 10
191.4947637584344
 20
358.075405265582
 30
0.0
 10
190.316146364978
 20
358.2123304340142
 30
0.0
 10
189.0934594191963
 20
358.3543929482233
 30
0.0
 10
187.8799041884877
 20
358.495737000444
 30
0.0
 10
186.6381908124988
 20
358.6395705216432
 30
0.0
 10
185.3790858347834
 20
358.7863219621081
 30
0.0
 10
183.9816329877324
 20
358.9521400229189
 30
0.0
 10
182.3482615266029
 20
359.1490766057278
 30
0.0
 10
180.405410757935
 20
359.3870096784264
 30
0.0
 10
178.354731050652
 20
359.6424277729516
 30
0.0
 10
177.0577277231882
 20
359.8087940771811
 30
0.0
 10
176.406962117195
 20
359.8923438246678
 30
0.0
  0
ARC
  5
264
330
22A
100
AcDbEntity
  8
$DDT_AUDIT_GENERATED_(A8)
  6
Continuous
 62
     7
100
AcDbCircle
 10
176.0088068192
 20
352.9039942427
 30
0.0
 40
11.47933852127537
100
AcDbArc
 50
158.0998612575
 51
180.0195411755
  0
LINE
  5
265
330
22A
100
AcDbEntity
  8
$DDT_AUDIT_GENERATED_(A8)
  6
Continuous
 62
     7
100
AcDbLine
 10
165.8926424906
 20
357.8594086645
 30
0.0
 11
165.6808398735
 21
357.6784662356
 31
0.0
  0
LINE
  5
266
330
22A
100
AcDbEntity
  8
$DDT_AUDIT_GENERATED_(A8)
  6
Continuous
 62
     7
100
AcDbLine
 10
166.3117857781
 20
358.0501828016
 30
0.0
 11
165.8919614855
 21
357.8589537407
 31
0.0
  0
ARC
  5
267
330
22A
100
AcDbEntity
  8
$DDT_AUDIT_GENERATED_(A8)
  6
Continuous
 62
     7
100
AcDbCircle
 10
172.5872046076
 20
329.5273702638
 30
0.0
 40
30.60604417185783
100
AcDbArc
 50
82.7315437864
 51
86.7237093593
  0
SPLINE
  5
268
330
22A
100
AcDbEntity
  8
$DDT_AUDIT_GENERATED_(A8)
  6
Continuous
 62
     7
100
AcDbSpline
210
0.0
220
0.0
230
1.0
 70
     8
 71
     3
 72
    35
 73
    31
 74
     0
 42
0.0000000002707833
 43
0.0000000001
 40
0.0
 40
0.0
 40
0.0
 40
0.0
 40
0.0074063948417134
 40
0.0328775183126821
 40
0.0521560956673623
 40
0.0664107384609391
 40
0.0803903222681446
 40
0.0951442700688892
 40
0.1333229022740392
 40
0.1759997830056564
 40
0.2246519840448139
 40
0.2512028335369004
 40
0.2793311881739971
 40
0.3092216127426469
 40
0.3407357265976454
 40
0.3698573181494593
 40
0.3944279112431498
 40
0.4135366352453959
 40
0.4293670267834924
 40
0.4462376194961719
 40
0.4649874755910852
 40
0.4855660479067869
 40
0.5222578654522615
 40
0.558913478996659
 40
0.593997639340498
 40
0.6275671436303764
 40
0.659638511437839
 40
0.6902670272998037
 40
0.7195324228898957
 40
0.747585267714385
 40
0.747585267714385
 40
0.747585267714385
 40
0.747585267714385
 10
166.8731010166341
 20
347.6782818300759
 30
0.0
 10
167.0113781894627
 20
347.6789828345636
 30
0.0
 10
167.5356962595095
 20
347.6816641554618
 30
0.0
 10
168.4334558185962
 20
347.6897307586075
 30
0.0
 10
169.4061285743566
 20
347.6998672287798
 30
0.0
 10
170.1915676601114
 20
347.7095054447558
 30
0.0
 10
170.8987396966341
 20
347.7191497544566
 30
0.0
 10
171.9951817759392
 20
347.7356699059966
 30
0.0
 10
173.5475497203479
 20
347.7631046233182
 30
0.0
 10
175.6145912266957
 20
347.807666103591
 30
0.0
 10
177.445543257035
 20
347.8548704106961
 30
0.0
 10
179.0113754332914
 20
347.9003260050548
 30
0.0
 10
180.2713615122756
 20
347.9397931030629
 30
0.0
 10
181.5848551082531
 20
347.9840032525017
 30
0.0
 10
182.8881166883587
 20
348.0309310931123
 30
0.0
 10
184.0843204809238
 20
348.0765873357012
 30
0.0
 10
185.0799922461489
 20
348.116338288099
 30
0.0
 10
185.8751609411187
 20
348.1491258067012
 30
0.0
 10
186.5533552696053
 20
348.1777477816453
 30
0.0
 10
187.2074398692567
 20
348.2059010429897
 30
0.0
 10
187.9019098429161
 20
348.2363658865374
 30
0.0
 10
188.8115679847623
 20
348.2769954865345
 30
0.0
 10
189.8899668878594
 20
348.3262067061665
 30
0.0
 10
191.029215501493
 20
348.3789775336837
 30
0.0
 10
192.0199206489437
 20
348.424857394531
 30
0.0
 10
192.8577057279185
 20
348.4628655529421
 30
0.0
 10
193.5277867784576
 20
348.4920328623625
 30
0.0
 10
194.0217855218494
 20
348.5125414475219
 30
0.0
 10
194.3795255450342
 20
348.5263178751466
 30
0.0
 10
194.4634749372731
 20
348.5294841187426
 30
0.0
 10
194.4659728993901
 20
348.5300219424886
 30
0.0
  0
SPLINE
  5
269
330
22A
100
AcDbEntity
  8
$DDT_AUDIT_GENERATED_(A8)
  6
Continuous
 62
     7
100
AcDbSpline
210
0.0
220
0.0
230
1.0
 70
     8
 71
     3
 72
    40
 73
    36
 74
     0
 42
0.0000000003434896
 43
0.0000000001
 40
0.0
 40
0.0
 40
0.0
 40
0.0
 40
0.0400312055332558
 40
0.0944405176854113
 40
0.141908760974008
 40
0.1827240310719968
 40
0.2183318061611513
 40
0.2493907843002792
 40
0.2789332902912945
 40
0.3202017609624866
 40
0.3679217837150144
 40
0.4146106606468595
 40
0.4587668431891093
 40
0.5005193629973519
 40
0.5413793954532755
 40
0.580973842312329
 40
0.6255686522085205
 40
0.675319364923698
 40
0.7292537602321933
 40
0.7775060001206858
 40
0.8177218034280538
 40
0.8497602217025833
 40
0.8709774988139046
 40
0.885779597001632
 40
0.896691446560653
 40
0.9078502164473031
 40
0.919573835290099
 40
0.9322540880097239
 40
0.9391665422636942
 40
0.9428121813427822
 40
0.947904706311043
 40
0.9561488683877034
 40
0.9680314557796966
 40
0.9834677545555341
 40
1.0
 40
1.0
 40
1.0
 40
1.0
 10
176.4069621171885
 20
345.9072421790494
 30
0.0
 10
177.0577277237137
 20
345.9907919266035
 30
0.0
 10
178.3547307917877
 20
346.1571582080421
 30
0.0
 10
180.4054119509784
 20
346.4125764302266
 30
0.0
 10
182.3482579782708
 20
346.6505090860685
 30
0.0
 10
183.9816436256494
 20
346.847446916091
 30
0.0
 10
185.3790533918503
 20
347.0132611893391
 30
0.0
 10
186.6382931533216
 20
347.1600244796487
 30
0.0
 10
187.9620414274618
 20
347.3133751697369
 30
0.0
 10
189.3221623806411
 20
347.4718042930874
 30
0.0
 10
190.718652649442
 20
347.6340212601219
 30
0.0
 10
192.0482654022315
 20
347.7884805039487
 30
0.0
 10
193.2241786476411
 20
347.9253882580292
 30
0.0
 10
194.2574658694957
 20
348.0463847177657
 30
0.0
 10
195.1648577618709
 20
348.1536510449196
 30
0.0
 10
196.0483591662998
 20
348.258999948382
 30
0.0
 10
196.9204388159942
 20
348.3652298953402
 30
0.0
 10
197.7869383568858
 20
348.4753797009561
 30
0.0
 10
198.5495224679506
 20
348.5801406155323
 30
0.0
 10
199.1632723213341
 20
348.6754051186198
 30
0.0
 10
199.6242522485601
 20
348.7600396405442
 30
0.0
 10
199.9591577516723
 20
348.8342699673399
 30
0.0
 10
200.2180079274058
 20
348.9045786331519
 30
0.0
 10
200.4183055957174
 20
348.9677342032167
 30
0.0
 10
200.6690517163004
 20
349.061333689054
 30
0.0
 10
200.9688272140895
 20
349.2025563007944
 30
0.0
 10
201.3143575719806
 20
349.4262205790045
 30
0.0
 10
201.6114034859402
 20
349.7074744530069
 30
0.0
 10
201.810927869777
 20
349.9684459553416
 30
0.0
 10
201.9312467859052
 20
350.1529717750285
 30
0.0
 10
202.0701604227623
 20
350.3982416838589
 30
0.0
 10
202.2444681215163
 20
350.7949378145254
 30
0.0
 10
202.417526061356
 20
351.3824399665828
 30
0.0
 10
202.5259401781483
 20
352.1507944604045
 30
0.0
 10
202.5314898949628
 20
352.6627545074349
 30
0.0
 10
202.5308768441421
 20
352.976982524497
 30
0.0
  0
ARC
  5
26A
330
22A
100
AcDbEntity
  8
$DDT_AUDIT_GENERATED_(A8)
  6
Continuous
 62
     7
100
AcDbCircle
 10
176.0088068192
 20
352.895591761
 30
0.0
 40
11.4793385212743
100
AcDbArc
 50
179.9804588245
 51
201.9001387425
  0
LINE
  5
26B
330
22A
100
AcDbEntity
  8
$DDT_AUDIT_GENERATED_(A8)
  6
Continuous
 62
     7
100
AcDbLine
 10
165.6808398735
 20
348.1211197682
 30
0.0
 11
165.8926424906
 21
347.9401773393
 31
0.0
  0
LINE
  5
26C
330
22A
100
AcDbEntity
  8
$DDT_AUDIT_GENERATED_(A8)
  6
Continuous
 62
     7
100
AcDbLine
 10
165.8919614855
 20
347.940632263
 30
0.0
 11
166.3117857781
 21
347.7494032022
 31
0.0
  0
ARC
  5
26D
330
22A
100
AcDbEntity
  8
$DDT_AUDIT_GENERATED_(A8)
  6
Continuous
 62
     7
100
AcDbCircle
 10
172.5872046076
 20
376.2722157399
 30
0.0
 40
30.60604417185415
100
AcDbArc
 50
273.4746921217
 51
277.2684562136
  0
ARC
  5
26E
330
22A
100
AcDbEntity
  8
$DDT_AUDIT_GENERATED_(A8)
  6
Continuous
 62
     7
100
AcDbCircle
 10
241.1505000279
 20
1621.3723961212
 30
0.0
 40
1263.052153275461
100
AcDbArc
 50
266.9654065791
 51
266.9730512873
  0
ARC
  5
26F
330
22A
100
AcDbEntity
  8
$DDT_AUDIT_GENERATED_(A8)
  6
Continuous
 62
     7
100
AcDbCircle
 10
226.7351622913
 20
-660.9329999569
 30
0.0
 40
1008.006935969902
100
AcDbArc
 50
92.9698255082
 51
92.9827246934
  0
ARC
  5
270
330
22A
100
AcDbEntity
  8
$DDT_AUDIT_GENERATED_(D4)
  6
Continuous
 62
     7
100
AcDbCircle
 10
97.1065638132
 20
352.8996412238
 30
0.0
 40
26.01944266407199
100
AcDbArc
 50
103.2496022211
 51
103.6381511234
  0
SPLINE
  5
271
330
22A
100
AcDbEntity
  8
$DDT_AUDIT_GENERATED_(DC)
  6
Continuous
 62
     7
100
AcDbSpline
210
0.0
220
0.0
230
1.0
 70
     8
 71
     3
 72
     8
 73
     4
 74
     0
 42
0.0000000244782549
 43
0.0000000001
 40
0.0
 40
0.0
 40
0.0
 40
0.0
 40
0.4783194359617566
 40
0.4783194359617566
 40
0.4783194359617566
 40
0.4783194359617566
 10
72.31573719166008
 20
163.3943116278026
 30
0.0
 10
72.31599670746253
 20
163.4545774732166
 30
0.0
 10
72.3456988603356
 20
163.5148323664959
 30
0.0
 10
72.39685723458646
 20
163.5595715380394
 30
0.0
  0
ARC
  5
272
330
22A
100
AcDbEntity
  8
$DDT_AUDIT_GENERATED_(DC)
  6
Continuous
 62
     7
100
AcDbCircle
 10
-136.1193018309
 20
162.2851195423
 30
0.0
 40
208.437990297843
100
AcDbArc
 50
350.3738528117
 51
0.304897994
  0
SPLINE
  5
273
330
22A
100
AcDbEntity
  8
$DDT_AUDIT_GENERATED_(DC)
  6
Continuous
 62
     7
100
AcDbSpline
210
0.0
220
0.0
230
1.0
 70
     8
 71
     3
 72
    10
 73
     6
 74
     0
 42
0.0000000001645047
 43
0.0000000001
 40
0.0
 40
0.0
 40
0.0
 40
0.0
 40
0.0251164764342565
 40
0.0477718802059624
 40
0.0625705123705136
 40
0.0625705123705136
 40
0.0625705123705136
 40
0.0625705123705136
 10
105.2062070126717
 20
127.692127154017
 30
0.0
 10
105.1940374102677
 20
128.2007397579215
 30
0.0
 10
105.1708906607735
 20
129.168127856669
 30
0.0
 10
105.0415492872305
 20
130.4299256432261
 30
0.0
 10
104.9318204654926
 20
131.1808627760432
 30
0.0
 10
104.8830474342382
 20
131.4766943768156
 30
0.0
  0
SPLINE
  5
274
330
22A
100
AcDbEntity
  8
$DDT_AUDIT_GENERATED_(DC)
  6
Continuous
 62
     7
100
AcDbSpline
210
0.0
220
0.0
230
1.0
 70
     8
 71
     3
 72
     8
 73
     4
 74
     0
 42
0.0000000001643827
 43
0.0000000001
 40
0.938451323898601
 40
0.938451323898601
 40
0.938451323898601
 40
0.938451323898601
 40
1.0
 40
1.0
 40
1.0
 40
1.0
 10
69.72004487697576
 20
131.4217833749546
 30
0.0
 10
69.53906386287514
 20
130.1899246223196
 30
0.0
 10
69.46189601968095
 20
128.9427351474059
 30
0.0
 10
69.38472817648668
 20
127.695545672498
 30
0.0
  0
LINE
  5
275
330
22A
100
AcDbEntity
  8
$DDT_AUDIT_GENERATED_(DC)
  6
Continuous
 62
     7
100
AcDbLine
 10
105.2062186312
 20
127.4533125058
 30
0.0
 11
105.2062070127
 21
127.692127154
 31
0.0
  0
SPLINE
  5
276
330
22A
100
AcDbEntity
  8
$DDT_AUDIT_GENERATED_(DC)
  6
Continuous
 62
     7
100
AcDbSpline
210
0.0
220
0.0
230
1.0
 70
     8
 71
     3
 72
    28
 73
    24
 74
     0
 42
0.0000000001631076
 43
0.0000000001
 40
0.0
 40
0.0
 40
0.0
 40
0.0
 40
0.0265514582637555
 40
0.0592513919679628
 40
0.0979670787264156
 40
0.1424367618365998
 40
0.1922186839679999
 40
0.2466887397749905
 40
0.3103198431102947
 40
0.3719775652064336
 40
0.4354748244110472
 40
0.499139295559442
 40
0.549922881218566
 40
0.6270020754075143
 40
0.6888846729497456
 40
0.7528348496687168
 40
0.7848534801056121
 40
0.8767778507702678
 40
0.9054657402974623
 40
0.9321953168597692
 40
0.9568914632018475
 40
0.9795034721614702
 40
1.0
 40
1.0
 40
1.0
 40
1.0
 10
69.38384586428553
 20
127.4303912147237
 30
0.0
 10
69.39600103306844
 20
126.8925751866293
 30
0.0
 10
69.42312383983575
 20
125.6923868030141
 30
0.0
 10
69.65596199826675
 20
123.7173004473316
 30
0.0
 10
70.12730982544419
 20
121.4124983828372
 30
0.0
 10
70.94533345999186
 20
118.8364064893147
 30
0.0
 10
72.2019583113101
 20
116.0834155332474
 30
0.0
 10
74.05091188404265
 20
113.2027719278935
 30
0.0
 10
76.57409363478425
 20
110.5244996861235
 30
0.0
 10
79.75079202982657
 20
108.3145368303211
 30
0.0
 10
83.34869253448795
 20
106.8631228407273
 30
0.0
 10
86.98300912615318
 20
106.3600899601651
 30
0.0
 10
90.89090377246097
 20
106.7647805648261
 30
0.0
 10
94.56760479487663
 20
108.1352525572706
 30
0.0
 10
97.98867941000697
 20
110.4945026241666
 30
0.0
 10
100.2033134401859
 20
112.8526946538498
 30
0.0
 10
102.3783304389366
 20
115.9899308778152
 30
0.0
 10
103.681792082706
 20
118.8442309338257
 30
0.0
 10
104.5013257715924
 20
121.7187292015887
 30
0.0
 10
104.8397457692523
 20
123.3091435037154
 30
0.0
 10
105.0565029172653
 20
124.7949706577941
 30
0.0
 10
105.1797019042021
 20
126.1647273607567
 30
0.0
 10
105.1976737011005
 20
127.0380700805287
 30
0.0
 10
105.2062186314987
 20
127.4533125041002
 30
0.0
  0
ELLIPSE
  5
277
330
22A
100
AcDbEntity
  8
$DDT_AUDIT_GENERATED_(DC)
  6
Continuous
 62
     7
100
AcDbEllipse
 10
104.0704476142
 20
127.4274050956
 30
0.0
 11
-1.140426539323052
 21
-0.01669755562017095
 31
0.0
210
0.0
220
0.0
230
1.0
 40
0.0914511104
 41
-3.31978484956546
 42
-3.199565000435443
  0
ARC
  5
278
330
22A
100
AcDbEntity
  8
$DDT_AUDIT_GENERATED_(DC)
  6
Continuous
 62
     7
100
AcDbCircle
 10
310.5308252566
 20
164.4236190777
 30
0.0
 40
208.2690290968
100
AcDbArc
 50
181.9997932104
 51
189.1020624964
  0
ARC
  5
279
330
22A
100
AcDbEntity
  8
$DDT_AUDIT_GENERATED_(DC)
  6
Continuous
 62
     7
100
AcDbCircle
 10
-115.6479691669
 20
162.6930858871
 30
0.0
 40
187.9749989361276
100
AcDbArc
 50
350.4245472491
 51
358.3445245878
  0
LINE
  5
27A
330
22A
100
AcDbEntity
  8
$DDT_AUDIT_GENERATED_(DC)
  6
Continuous
 62
     7
100
AcDbLine
 10
72.3280840922
 20
163.0116534741
 30
0.0
 11
72.2975497371
 21
160.6539067579
 31
0.0
  0
LINE
  5
27B
330
22A
100
AcDbEntity
  8
$DDT_AUDIT_GENERATED_(DC)
  6
Continuous
 62
     7
100
AcDbLine
 10
105.1930376218
 20
127.4234093883
 30
0.0
 11
105.1930180873
 21
127.4301088184
 31
0.0
  0
ARC
  5
27C
330
22A
100
AcDbEntity
  8
$DDT_AUDIT_GENERATED_(DC)
  6
Continuous
 62
     7
100
AcDbCircle
 10
91.4087092945
 20
127.7032933876
 30
0.0
 40
22.00928201450642
100
AcDbArc
 50
170.8096644571
 51
178.0310178375
  0
ARC
  5
27D
330
22A
100
AcDbEntity
  8
$DDT_AUDIT_GENERATED_(DC)
  6
Continuous
 62
     7
100
AcDbCircle
 10
83.2696701042
 20
127.7670313975
 30
0.0
 40
21.92292033425823
100
AcDbArc
 50
1.7958726904
 51
9.2690678746
  0
LINE
  5
27E
330
22A
100
AcDbEntity
  8
$DDT_AUDIT_GENERATED_(DC)
  6
Continuous
 62
     7
100
AcDbLine
 10
69.3832947716
 20
127.6786859209
 30
0.0
 11
69.3818571414
 21
127.4132252093
 31
0.0
  0
SPLINE
  5
27F
330
22A
100
AcDbEntity
  8
$DDT_AUDIT_GENERATED_(DC)
  6
Continuous
 62
     7
100
AcDbSpline
210
0.0
220
0.0
230
1.0
 70
     8
 71
     3
 72
    42
 73
    38
 74
     0
 42
0.0000000001630623
 43
0.0000000001
 40
0.0
 40
0.0
 40
0.0
 40
0.0
 40
0.0386378131204532
 40
0.0716837808091735
 40
0.0991822380176211
 40
0.1211513465620207
 40
0.1375799167724328
 40
0.1484820157185882
 40
0.155606045470988
 40
0.1639894493248205
 40
0.1855706955223295
 40
0.2136120704536291
 40
0.2436651915033468
 40
0.2729965360971175
 40
0.3114562175495521
 40
0.3489615093098303
 40
0.3859431124079989
 40
0.4136755074840322
 40
0.441173419783236
 40
0.4683689743905513
 40
0.4956175299281342
 40
0.523104314948882
 40
0.5505263361123943
 40
0.5777368033953671
 40
0.6050655827503693
 40
0.6422867548390733
 40
0.6806354165359157
 40
0.719992019507731
 40
0.7582902511522844
 40
0.7911218819150221
 40
0.8181862926726055
 40
0.8334877307508385
 40
0.8548183865626011
 40
0.8823152575382239
 40
0.915704051692788
 40
0.9548180480022009
 40
0.9590611320620048
 40
0.9590611320620048
 40
0.9590611320620048
 40
0.9590611320620048
 10
69.38161433683712
 20
127.4135686813429
 30
0.0
 10
69.40356405307757
 20
126.5487740412524
 30
0.0
 10
69.44659921779697
 20
125.1981553686861
 30
0.0
 10
69.74272864392668
 20
123.1585074996827
 30
0.0
 10
70.10375042628081
 20
121.5231611019232
 30
0.0
 10
70.47522090439685
 20
120.2301733223359
 30
0.0
 10
70.79883509915503
 20
119.2786739935989
 30
0.0
 10
71.04786969962885
 20
118.6217323461756
 30
0.0
 10
71.25054308610515
 20
118.1229252568312
 30
0.0
 10
71.54947063632248
 20
117.4283532326288
 30
0.0
 10
72.06073237669577
 20
116.3611805742639
 30
0.0
 10
72.86087534502161
 20
114.9453768769424
 30
0.0
 10
73.8646572332653
 20
113.4683461024686
 30
0.0
 10
75.13898327289371
 20
111.927365387002
 30
0.0
 10
76.68401398523085
 20
110.4239888694938
 30
0.0
 10
78.52981781081616
 20
109.029021534838
 30
0.0
 10
80.3545874887476
 20
107.998826718643
 30
0.0
 10
82.09569759431278
 20
107.2683846327656
 30
0.0
 10
83.71223794827837
 20
106.7800379523302
 30
0.0
 10
85.36242532973662
 20
106.4687848076235
 30
0.0
 10
87.03737452726745
 20
106.3424745580937
 30
0.0
 10
88.72043556863385
 20
106.4111744542523
 30
0.0
 10
90.38384084097012
 20
106.6679026985208
 30
0.0
 10
92.00626140125972
 20
107.1015543372954
 30
0.0
 10
93.7606900791278
 20
107.7744839961164
 30
0.0
 10
95.62929656852282
 20
108.7538096477017
 30
0.0
 10
97.54692019700855
 20
110.1207665422027
 30
0.0
 10
99.28585871537739
 20
111.7388947786225
 30
0.0
 10
100.7363968030189
 20
113.4727168571636
 30
0.0
 10
101.8439290534664
 20
115.1450694106087
 30
0.0
 10
102.5812666297055
 20
116.490869367526
 30
0.0
 10
103.1387846837436
 20
117.664178008925
 30
0.0
 10
103.6412552619155
 20
118.8715778432925
 30
0.0
 10
104.1879397919961
 20
120.4593396676771
 30
0.0
 10
104.7043823016277
 20
122.4230720753985
 30
0.0
 10
104.9728975393811
 20
123.9965425715226
 30
0.0
 10
105.0628549370811
 20
124.8487562755739
 30
0.0
 10
105.0711214123601
 20
124.9319705971442
 30
0.0
  0
SPLINE
  5
280
330
22A
100
AcDbEntity
  8
$DDT_AUDIT_GENERATED_(DC)
  6
Continuous
 62
     7
100
AcDbSpline
210
0.0
220
0.0
230
1.0
 70
     8
 71
     3
 72
     8
 73
     4
 74
     0
 42
0.0000000001589973
 43
0.0000000001
 40
0.9764633253929225
 40
0.9764633253929225
 40
0.9764633253929225
 40
0.9764633253929225
 40
1.0
 40
1.0
 40
1.0
 40
1.0
 10
105.1494679963664
 20
125.957814163107
 30
0.0
 10
105.1759421681027
 20
126.4263309064069
 30
0.0
 10
105.192730122216
 20
126.9099461078936
 30
0.0
 10
105.2090829844056
 20
127.4368404640941
 30
0.0
  0
LINE
  5
282
330
22A
100
AcDbEntity
  8
$DDT_AUDIT_GENERATED_(281)
  6
Continuous
 62
     7
100
AcDbLine
 10
91.6210573126
 20
378.3342753863
 30
0.0
 11
91.5841790876
 21
378.3850339085
 31
0.0
  0
ENDBLK
  5
284
330
22A
100
AcDbEntity
  8
0
100
AcDbBlockEnd
  0
ENDSEC
  0
SECTION
  2
ENTITIES
  0
INSERT
  5
5F
330
1F
100
AcDbEntity
  8
Default
100
AcDbBlockReference
  2
SEANNOT_GROUP
 10
0.0
 20
0.0
 30
0.0
  0
INSERT
  5
66
330
1F
100
AcDbEntity
  8
Default
100
AcDbBlockReference
  2
SEANNOT_GROUP1
 10
0.0
 20
0.0
 30
0.0
  0
INSERT
  5
6C
330
1F
100
AcDbEntity
  8
Default
100
AcDbBlockReference
  2
SEANNOT_GROUP2
 10
0.0
 20
0.0
 30
0.0
  0
INSERT
  5
76
330
1F
100
AcDbEntity
  8
Default
100
AcDbBlockReference
  2
SE
 10
0.0
 20
0.0
 30
0.0
  0
INSERT
  5
1C5
330
1F
100
AcDbEntity
  8
Default
100
AcDbBlockReference
  2
SE1
 10
0.0
 20
0.0
 30
0.0
  0
INSERT
  5
22B
330
1F
100
AcDbEntity
  8
Default
100
AcDbBlockReference
  2
SE2
 10
0.0
 20
0.0
 30
0.0
  0
TEXT
  5
286
330
1F
100
AcDbEntity
  8
Default
  6
Continuous
 62
     7
100
AcDbText
 10
5.9362635081
 20
53.4225120485
 30
0.0
 40
10.0
  1
Grohe AG^J
  7
SEACAD_seiso_ttf
 11
5.9362635081
 21
63.4225120485
 31
0.0
100
AcDbText
 73
     3
  0
TEXT
  5
287
330
1F
100
AcDbEntity
  8
Default
  6
Continuous
 62
     7
100
AcDbText
 10
5.9362635081
 20
37.0588756849
 30
0.0
 40
10.0
  1
 
  7
SEACAD_seiso_ttf
 11
5.9362635081
 21
47.0588756849
 31
0.0
100
AcDbText
 73
     3
  0
TEXT
  5
288
330
1F
100
AcDbEntity
  8
Default
  6
Continuous
 62
     7
100
AcDbText
 10
5.9362635081
 20
20.6952393213
 30
0.0
 40
10.0
  1
ecn: 
  7
SEACAD_seiso_ttf
 11
5.9362635081
 21
30.6952393213
 31
0.0
100
AcDbText
 73
     3
  0
TEXT
  5
289
330
1F
100
AcDbEntity
  8
Default
  6
Continuous
 62
     7
100
AcDbText
 10
5.9362635081
 20
4.3316029576
 30
0.0
 40
10.0
  1
unit: mm
  7
SEACAD_seiso_ttf
 11
5.9362635081
 21
14.3316029576
 31
0.0
100
AcDbText
 73
     3
  0
LINE
  5
28A
330
1F
100
AcDbEntity
  8
Default
  6
Continuous
 62
     7
100
AcDbLine
 10
0.0
 20
0.0
 30
0.0
 11
100.0
 21
0.0
 31
0.0
  0
LINE
  5
28B
330
1F
100
AcDbEntity
  8
Default
  6
Continuous
 62
     7
100
AcDbLine
 10
0.0
 20
0.0
 30
0.0
 11
0.0
 21
100.0
 31
0.0
  0
TEXT
  5
28C
330
1F
100
AcDbEntity
  8
Default
  6
Continuous
 62
     7
100
AcDbText
 10
24.3923665681
 20
-18.2375342018
 30
0.0
 40
10.0
  1
100 mm
  7
SEACAD_seiso_ttf
 11
24.3923665681
 21
-8.2375342018
 31
0.0
100
AcDbText
 73
     3
  0
TEXT
  5
28D
330
1F
100
AcDbEntity
  8
Default
  6
Continuous
 62
     7
100
AcDbText
 10
-7.6150308803
 20
24.6231930421
 30
0.0
 40
10.0
  1
100 mm
 50
90.0
  7
SEACAD_seiso_ttf
 11
-17.6150308803
 21
24.6231930421
 31
0.0
100
AcDbText
 73
     3
  0
TEXT
  5
28E
330
1F
100
AcDbEntity
  8
Default
  6
Continuous
 62
     7
100
AcDbText
 10
28.4878128572
 20
20.0907663715
 30
0.0
 40
10.0
  1
218981
  7
SEACAD_seiso_ttf
 11
28.4878128572
 21
30.0907663715
 31
0.0
100
AcDbText
 73
     3
  0
TEXT
  5
28F
330
1F
100
AcDbEntity
  8
Default
  6
Continuous
 62
     7
100
AcDbText
 10
5.9012241913
 20
36.7242780188
 30
0.0
 40
10.0
  1
33786SD0
  7
SEACAD_seiso_ttf
 11
5.9012241913
 21
46.7242780188
 31
0.0
100
AcDbText
 73
     3
  0
ENDSEC
  0
SECTION
  2
OBJECTS
  0
DICTIONARY
  5
C
330
0
100
AcDbDictionary
281
     1
  3
ACAD_GROUP
350
D
  3
ACAD_LAYOUT
350
1A
  3
ACAD_MLEADERSTYLE
350
293
  3
ACAD_MLINESTYLE
350
17
  3
ACAD_PLOTSETTINGS
350
19
  3
ACAD_PLOTSTYLENAME
350
E
  3
ACAD_SCALELIST
350
3B
  3
ACAD_TABLESTYLE
350
292
  3
ACAD_VISUALSTYLE
350
2A
  3
AcDbVariableDictionary
350
290
  0
DICTIONARY
  5
D
102
{ACAD_REACTORS
330
C
102
}
330
C
100
AcDbDictionary
281
     1
  0
DICTIONARY
  5
1A
102
{ACAD_REACTORS
330
C
102
}
330
C
100
AcDbDictionary
281
     1
  3
Layout1
350
1E
  3
Model
350
22
  0
DICTIONARY
  5
293
102
{ACAD_REACTORS
330
C
102
}
330
C
100
AcDbDictionary
281
     1
  0
DICTIONARY
  5
17
102
{ACAD_REACTORS
330
C
102
}
330
C
100
AcDbDictionary
281
     1
  3
Standard
350
18
  0
DICTIONARY
  5
19
102
{ACAD_REACTORS
330
C
102
}
330
C
100
AcDbDictionary
281
     1
  0
ACDBDICTIONARYWDFLT
  5
E
102
{ACAD_REACTORS
330
C
102
}
330
C
100
AcDbDictionary
281
     1
  3
Normal
350
F
100
AcDbDictionaryWithDefault
340
F
  0
DICTIONARY
  5
3B
102
{ACAD_REACTORS
330
C
102
}
330
C
100
AcDbDictionary
281
     1
  3
A0
350
3C
  3
A1
350
3D
  3
A2
350
3E
  3
A3
350
3F
  3
A4
350
40
  3
A5
350
41
  3
A6
350
42
  3
A7
350
43
  3
A8
350
44
  3
A9
350
45
  3
B0
350
46
  3
B1
350
47
  3
B2
350
48
  3
B3
350
49
  3
B4
350
4A
  3
B5
350
4B
  3
B6
350
4C
  3
B7
350
4D
  3
B8
350
4E
  3
B9
350
4F
  3
C0
350
50
  3
C1
350
51
  3
C2
350
52
  3
C3
350
53
  3
C4
350
54
  3
C5
350
55
  3
C6
350
56
  3
C7
350
57
  3
C8
350
58
  3
C9
350
59
  3
D0
350
5A
  3
D1
350
5B
  3
D2
350
5C
  0
DICTIONARY
  5
292
102
{ACAD_REACTORS
330
C
102
}
330
C
100
AcDbDictionary
281
     1
  0
DICTIONARY
  5
2A
102
{ACAD_REACTORS
330
C
102
}
330
C
100
AcDbDictionary
281
     1
  3
2dWireframe
350
2F
  3
3D Hidden
350
31
  3
3dWireframe
350
30
  3
Basic
350
32
  3
Brighten
350
36
  3
ColorChange
350
3A
  3
Conceptual
350
34
  3
Dim
350
35
  3
Facepattern
350
39
  3
Flat
350
2B
  3
FlatWithEdges
350
2C
  3
Gouraud
350
2D
  3
GouraudWithEdges
350
2E
  3
Linepattern
350
38
  3
Realistic
350
33
  3
Thicken
350
37
  0
DICTIONARY
  5
290
102
{ACAD_REACTORS
330
C
102
}
330
C
100
AcDbDictionary
281
     1
  3
CANNOSCALE
350
291
  3
PSOLHEIGHT
350
295
  3
PSOLWIDTH
350
294
  0
LAYOUT
  5
1E
102
{ACAD_REACTORS
330
1A
102
}
330
1A
100
AcDbPlotSettings
  1

  2
none_device
  4

  6

 40
0.0
 41
0.0
 42
0.0
 43
0.0
 44
0.0
 45
0.0
 46
0.0
 47
0.0
 48
0.0
 49
0.0
140
0.0
141
0.0
142
1.0
143
1.0
 70
   688
 72
     0
 73
     0
 74
     5
  7

 75
    16
147
1.0
148
0.0
149
0.0
100
AcDbLayout
  1
Layout1
 70
     1
 71
     1
 10
0.0
 20
0.0
 11
1682.0
 21
2378.0
 12
0.0
 22
0.0
 32
0.0
 14
0.0
 24
0.0
 34
0.0
 15
1682.0
 25
2378.0
 35
0.0
146
0.0
 13
0.0
 23
0.0
 33
0.0
 16
1.0
 26
0.0
 36
0.0
 17
0.0
 27
1.0
 37
0.0
 76
     0
330
1B
  0
LAYOUT
  5
22
102
{ACAD_REACTORS
330
1A
102
}
330
1A
100
AcDbPlotSettings
  1

  2
none_device
  4

  6

 40
0.0
 41
0.0
 42
0.0
 43
0.0
 44
0.0
 45
0.0
 46
0.0
 47
0.0
 48
0.0
 49
0.0
140
0.0
141
0.0
142
1.0
143
1.0
 70
  1712
 72
     0
 73
     0
 74
     0
  7

 75
     0
147
1.0
148
0.0
149
0.0
100
AcDbLayout
  1
Model
 70
     1
 71
     0
 10
0.0
 20
0.0
 11
1682.0
 21
2378.0
 12
0.0
 22
0.0
 32
0.0
 14
0.0
 24
0.0
 34
0.0
 15
1682.0
 25
2378.0
 35
0.0
146
0.0
 13
0.0
 23
0.0
 33
0.0
 16
1.0
 26
0.0
 36
0.0
 17
0.0
 27
1.0
 37
0.0
 76
     0
330
1F
331
29
  0
MLINESTYLE
  5
18
102
{ACAD_REACTORS
330
17
102
}
330
17
100
AcDbMlineStyle
  2
Standard
 70
     0
  3

 62
   256
 51
90.0
 52
90.0
 71
     2
 49
0.5
 62
   256
  6
BYLAYER
 49
-0.5
 62
   256
  6
BYLAYER
  0
ACDBPLACEHOLDER
  5
F
102
{ACAD_REACTORS
330
E
102
}
330
E
  0
SCALE
  5
3C
102
{ACAD_REACTORS
330
3B
102
}
330
3B
100
AcDbScale
 70
     0
300
1:1
140
1.0
141
1.0
290
     1
  0
SCALE
  5
3D
102
{ACAD_REACTORS
330
3B
102
}
330
3B
100
AcDbScale
 70
     0
300
1:2
140
1.0
141
2.0
290
     0
  0
SCALE
  5
3E
102
{ACAD_REACTORS
330
3B
102
}
330
3B
100
AcDbScale
 70
     0
300
1:4
140
1.0
141
4.0
290
     0
  0
SCALE
  5
3F
102
{ACAD_REACTORS
330
3B
102
}
330
3B
100
AcDbScale
 70
     0
300
1:5
140
1.0
141
5.0
290
     0
  0
SCALE
  5
40
102
{ACAD_REACTORS
330
3B
102
}
330
3B
100
AcDbScale
 70
     0
300
1:8
140
1.0
141
8.0
290
     0
  0
SCALE
  5
41
102
{ACAD_REACTORS
330
3B
102
}
330
3B
100
AcDbScale
 70
     0
300
1:10
140
1.0
141
10.0
290
     0
  0
SCALE
  5
42
102
{ACAD_REACTORS
330
3B
102
}
330
3B
100
AcDbScale
 70
     0
300
1:16
140
1.0
141
16.0
290
     0
  0
SCALE
  5
43
102
{ACAD_REACTORS
330
3B
102
}
330
3B
100
AcDbScale
 70
     0
300
1:20
140
1.0
141
20.0
290
     0
  0
SCALE
  5
44
102
{ACAD_REACTORS
330
3B
102
}
330
3B
100
AcDbScale
 70
     0
300
1:30
140
1.0
141
30.0
290
     0
  0
SCALE
  5
45
102
{ACAD_REACTORS
330
3B
102
}
330
3B
100
AcDbScale
 70
     0
300
1:40
140
1.0
141
40.0
290
     0
  0
SCALE
  5
46
102
{ACAD_REACTORS
330
3B
102
}
330
3B
100
AcDbScale
 70
     0
300
1:50
140
1.0
141
50.0
290
     0
  0
SCALE
  5
47
102
{ACAD_REACTORS
330
3B
102
}
330
3B
100
AcDbScale
 70
     0
300
1:100
140
1.0
141
100.0
290
     0
  0
SCALE
  5
48
102
{ACAD_REACTORS
330
3B
102
}
330
3B
100
AcDbScale
 70
     0
300
2:1
140
2.0
141
1.0
290
     0
  0
SCALE
  5
49
102
{ACAD_REACTORS
330
3B
102
}
330
3B
100
AcDbScale
 70
     0
300
4:1
140
4.0
141
1.0
290
     0
  0
SCALE
  5
4A
102
{ACAD_REACTORS
330
3B
102
}
330
3B
100
AcDbScale
 70
     0
300
8:1
140
8.0
141
1.0
290
     0
  0
SCALE
  5
4B
102
{ACAD_REACTORS
330
3B
102
}
330
3B
100
AcDbScale
 70
     0
300
10:1
140
10.0
141
1.0
290
     0
  0
SCALE
  5
4C
102
{ACAD_REACTORS
330
3B
102
}
330
3B
100
AcDbScale
 70
     0
300
100:1
140
100.0
141
1.0
290
     0
  0
SCALE
  5
4D
102
{ACAD_REACTORS
330
3B
102
}
330
3B
100
AcDbScale
 70
     0
300
1/128" = 1'-0"
140
0.0078125
141
12.0
290
     0
  0
SCALE
  5
4E
102
{ACAD_REACTORS
330
3B
102
}
330
3B
100
AcDbScale
 70
     0
300
1/64" = 1'-0"
140
0.015625
141
12.0
290
     0
  0
SCALE
  5
4F
102
{ACAD_REACTORS
330
3B
102
}
330
3B
100
AcDbScale
 70
     0
300
1/32" = 1'-0"
140
0.03125
141
12.0
290
     0
  0
SCALE
  5
50
102
{ACAD_REACTORS
330
3B
102
}
330
3B
100
AcDbScale
 70
     0
300
1/16" = 1'-0"
140
0.0625
141
12.0
290
     0
  0
SCALE
  5
51
102
{ACAD_REACTORS
330
3B
102
}
330
3B
100
AcDbScale
 70
     0
300
3/32" = 1'-0"
140
0.09375
141
12.0
290
     0
  0
SCALE
  5
52
102
{ACAD_REACTORS
330
3B
102
}
330
3B
100
AcDbScale
 70
     0
300
1/8" = 1'-0"
140
0.125
141
12.0
290
     0
  0
SCALE
  5
53
102
{ACAD_REACTORS
330
3B
102
}
330
3B
100
AcDbScale
 70
     0
300
3/16" = 1'-0"
140
0.1875
141
12.0
290
     0
  0
SCALE
  5
54
102
{ACAD_REACTORS
330
3B
102
}
330
3B
100
AcDbScale
 70
     0
300
1/4" = 1'-0"
140
0.25
141
12.0
290
     0
  0
SCALE
  5
55
102
{ACAD_REACTORS
330
3B
102
}
330
3B
100
AcDbScale
 70
     0
300
3/8" = 1'-0"
140
0.375
141
12.0
290
     0
  0
SCALE
  5
56
102
{ACAD_REACTORS
330
3B
102
}
330
3B
100
AcDbScale
 70
     0
300
1/2" = 1'-0"
140
0.5
141
12.0
290
     0
  0
SCALE
  5
57
102
{ACAD_REACTORS
330
3B
102
}
330
3B
100
AcDbScale
 70
     0
300
3/4" = 1'-0"
140
0.75
141
12.0
290
     0
  0
SCALE
  5
58
102
{ACAD_REACTORS
330
3B
102
}
330
3B
100
AcDbScale
 70
     0
300
1" = 1'-0"
140
1.0
141
12.0
290
     0
  0
SCALE
  5
59
102
{ACAD_REACTORS
330
3B
102
}
330
3B
100
AcDbScale
 70
     0
300
1-1/2" = 1'-0"
140
1.5
141
12.0
290
     0
  0
SCALE
  5
5A
102
{ACAD_REACTORS
330
3B
102
}
330
3B
100
AcDbScale
 70
     0
300
3" = 1'-0"
140
3.0
141
12.0
290
     0
  0
SCALE
  5
5B
102
{ACAD_REACTORS
330
3B
102
}
330
3B
100
AcDbScale
 70
     0
300
6" = 1'-0"
140
6.0
141
12.0
290
     0
  0
SCALE
  5
5C
102
{ACAD_REACTORS
330
3B
102
}
330
3B
100
AcDbScale
 70
     0
300
1'-0" = 1'-0"
140
12.0
141
12.0
290
     0
  0
VISUALSTYLE
  5
2F
102
{ACAD_REACTORS
330
2A
102
}
330
2A
100
AcDbVisualStyle
  2
2dWireframe
 70
     4
 71
     0
 72
     2
 73
     0
 90
        0
 40
-0.6
 41
-30.0
 62
     5
 63
     7
 74
     1
 91
        4
 64
     7
 65
   257
 75
     1
175
     1
 42
1.0
 92
        0
 66
   257
 43
1.0
 76
     1
 77
     6
 78
     2
 67
     7
 79
     5
170
     0
171
     0
290
     0
174
     0
 93
        1
 44
0.0
173
     0
291
     0
 45
0.0
1001
ACAD
1000
AcDbSavedByObjectVersion
1070
     0
  0
VISUALSTYLE
  5
31
102
{ACAD_REACTORS
330
2A
102
}
330
2A
100
AcDbVisualStyle
  2
3D Hidden
 70
     6
 71
     1
 72
     2
 73
     2
 90
        0
 40
-0.6
 41
-30.0
 62
     5
 63
     7
 74
     2
 91
        2
 64
     7
 65
   257
 75
     2
175
     1
 42
40.0
 92
        0
 66
   257
 43
1.0
 76
     1
 77
     6
 78
     2
 67
     7
 79
     3
170
     0
171
     0
290
     0
174
     0
 93
        1
 44
0.0
173
     0
291
     0
 45
0.0
1001
ACAD
1000
AcDbSavedByObjectVersion
1070
     0
  0
VISUALSTYLE
  5
30
102
{ACAD_REACTORS
330
2A
102
}
330
2A
100
AcDbVisualStyle
  2
3dWireframe
 70
     5
 71
     0
 72
     2
 73
     0
 90
        0
 40
-0.6
 41
-30.0
 62
     5
 63
     7
 74
     1
 91
        4
 64
     7
 65
   257
 75
     1
175
     1
 42
1.0
 92
        0
 66
   257
 43
1.0
 76
     1
 77
     6
 78
     2
 67
     7
 79
     5
170
     0
171
     0
290
     0
174
     0
 93
        1
 44
0.0
173
     0
291
     0
 45
0.0
1001
ACAD
1000
AcDbSavedByObjectVersion
1070
     0
  0
VISUALSTYLE
  5
32
102
{ACAD_REACTORS
330
2A
102
}
330
2A
100
AcDbVisualStyle
  2
Basic
 70
     7
 71
     1
 72
     0
 73
     1
 90
        0
 40
-0.6
 41
-30.0
 62
     5
 63
     7
 74
     0
 91
        4
 64
     7
 65
   257
 75
     1
175
     1
 42
1.0
 92
        8
 66
     7
 43
1.0
 76
     1
 77
     6
 78
     2
 67
     7
 79
     5
170
     0
171
     0
290
     0
174
     0
 93
        1
 44
0.0
173
     0
291
     1
 45
0.0
1001
ACAD
1000
AcDbSavedByObjectVersion
1070
     0
  0
VISUALSTYLE
  5
36
102
{ACAD_REACTORS
330
2A
102
}
330
2A
100
AcDbVisualStyle
  2
Brighten
 70
    12
 71
     2
 72
     2
 73
     0
 90
        0
 40
-0.6
 41
-30.0
 62
     5
 63
     7
 74
     1
 91
        4
 64
     7
 65
   257
 75
     1
175
     1
 42
1.0
 92
        8
 66
     7
 43
1.0
 76
     1
 77
     6
 78
     2
 67
     7
 79
     5
170
     0
171
     0
290
     0
174
     0
 93
        1
 44
50.0
173
     0
291
     1
 45
0.0
1001
ACAD
1000
AcDbSavedByObjectVersion
1070
     0
  0
VISUALSTYLE
  5
3A
102
{ACAD_REACTORS
330
2A
102
}
330
2A
100
AcDbVisualStyle
  2
ColorChange
 70
    16
 71
     2
 72
     2
 73
     3
 90
        0
 40
-0.6
 41
-30.0
 62
     5
 63
     8
 74
     1
 91
        4
 64
     7
 65
   257
 75
     1
175
     1
 42
1.0
 92
        8
 66
     8
 43
1.0
 76
     1
 77
     6
 78
     2
 67
     7
 79
     5
170
     0
171
     0
290
     0
174
     0
 93
        1
 44
0.0
173
     0
291
     1
 45
0.0
1001
ACAD
1000
AcDbSavedByObjectVersion
1070
     0
  0
VISUALSTYLE
  5
34
102
{ACAD_REACTORS
330
2A
102
}
330
2A
100
AcDbVisualStyle
  2
Conceptual
 70
     9
 71
     3
 72
     2
 73
     0
 90
        0
 40
-0.6
 41
-30.0
 62
     5
 63
     7
 74
     2
 91
        2
 64
     7
 65
   257
 75
     1
175
     1
 42
40.0
 92
        8
 66
     7
 43
1.0
 76
     1
 77
     6
 78
     2
 67
     7
 79
     3
170
     0
171
     0
290
     0
174
     0
 93
        1
 44
0.0
173
     0
291
     0
 45
0.0
1001
ACAD
1000
AcDbSavedByObjectVersion
1070
     0
  0
VISUALSTYLE
  5
35
102
{ACAD_REACTORS
330
2A
102
}
330
2A
100
AcDbVisualStyle
  2
Dim
 70
    11
 71
     2
 72
     2
 73
     0
 90
        0
 40
-0.6
 41
-30.0
 62
     5
 63
     7
 74
     1
 91
        4
 64
     7
 65
   257
 75
     1
175
     1
 42
1.0
 92
        8
 66
     7
 43
1.0
 76
     1
 77
     6
 78
     2
 67
     7
 79
     5
170
     0
171
     0
290
     0
174
     0
 93
        1
 44
-50.0
173
     0
291
     1
 45
0.0
1001
ACAD
1000
AcDbSavedByObjectVersion
1070
     0
  0
VISUALSTYLE
  5
39
102
{ACAD_REACTORS
330
2A
102
}
330
2A
100
AcDbVisualStyle
  2
Facepattern
 70
    15
 71
     2
 72
     2
 73
     0
 90
        0
 40
-0.6
 41
-30.0
 62
     5
 63
     7
 74
     1
 91
        4
 64
     7
 65
   257
 75
     1
175
     1
 42
1.0
 92
        8
 66
     7
 43
1.0
 76
     1
 77
     6
 78
     2
 67
     7
 79
     5
170
     0
171
     0
290
     0
174
     0
 93
        1
 44
0.0
173
     0
291
     1
 45
0.0
1001
ACAD
1000
AcDbSavedByObjectVersion
1070
     0
  0
VISUALSTYLE
  5
2B
102
{ACAD_REACTORS
330
2A
102
}
330
2A
100
AcDbVisualStyle
  2
Flat
 70
     0
 71
     2
 72
     1
 73
     1
 90
        2
 40
-0.6
 41
30.0
 62
     5
 63
     7
 74
     0
 91
        4
 64
     7
 65
   257
 75
     1
175
     1
 42
1.0
 92
        8
 66
     7
 43
1.0
 76
     1
 77
     6
 78
     2
 67
     7
 79
     5
170
     0
171
     0
290
     0
174
     0
 93
       13
 44
0.0
173
     0
291
     1
 45
0.0
1001
ACAD
1000
AcDbSavedByObjectVersion
1070
     0
  0
VISUALSTYLE
  5
2C
102
{ACAD_REACTORS
330
2A
102
}
330
2A
100
AcDbVisualStyle
  2
FlatWithEdges
 70
     1
 71
     2
 72
     1
 73
     1
 90
        2
 40
-0.6
 41
30.0
 62
     5
 63
     7
 74
     1
 91
        4
 64
     7
 65
   257
 75
     1
175
     1
 42
1.0
 92
        0
 66
   257
 43
1.0
 76
     1
 77
     6
 78
     2
 67
     7
 79
     5
170
     0
171
     0
290
     0
174
     0
 93
       13
 44
0.0
173
     0
291
     1
 45
0.0
1001
ACAD
1000
AcDbSavedByObjectVersion
1070
     0
  0
VISUALSTYLE
  5
2D
102
{ACAD_REACTORS
330
2A
102
}
330
2A
100
AcDbVisualStyle
  2
Gouraud
 70
     2
 71
     2
 72
     2
 73
     1
 90
        2
 40
-0.6
 41
30.0
 62
     5
 63
     7
 74
     0
 91
        4
 64
     7
 65
   257
 75
     1
175
     1
 42
1.0
 92
        0
 66
     7
 43
1.0
 76
     1
 77
     6
 78
     2
 67
     7
 79
     5
170
     0
171
     0
290
     0
174
     0
 93
       13
 44
0.0
173
     0
291
     1
 45
0.0
1001
ACAD
1000
AcDbSavedByObjectVersion
1070
     0
  0
VISUALSTYLE
  5
2E
102
{ACAD_REACTORS
330
2A
102
}
330
2A
100
AcDbVisualStyle
  2
GouraudWithEdges
 70
     3
 71
     2
 72
     2
 73
     1
 90
        2
 40
-0.6
 41
30.0
 62
     5
 63
     7
 74
     1
 91
        4
 64
     7
 65
   257
 75
     1
175
     1
 42
1.0
 92
        0
 66
   257
 43
1.0
 76
     1
 77
     6
 78
     2
 67
     7
 79
     5
170
     0
171
     0
290
     0
174
     0
 93
       13
 44
0.0
173
     0
291
     1
 45
0.0
1001
ACAD
1000
AcDbSavedByObjectVersion
1070
     0
  0
VISUALSTYLE
  5
38
102
{ACAD_REACTORS
330
2A
102
}
330
2A
100
AcDbVisualStyle
  2
Linepattern
 70
    14
 71
     2
 72
     2
 73
     0
 90
        0
 40
-0.6
 41
-30.0
 62
     5
 63
     7
 74
     1
 91
        4
 64
     7
 65
   257
 75
     7
175
     7
 42
1.0
 92
        8
 66
     7
 43
1.0
 76
     1
 77
     6
 78
     2
 67
     7
 79
     5
170
     0
171
     0
290
     0
174
     0
 93
        1
 44
0.0
173
     0
291
     1
 45
0.0
1001
ACAD
1000
AcDbSavedByObjectVersion
1070
     0
  0
VISUALSTYLE
  5
33
102
{ACAD_REACTORS
330
2A
102
}
330
2A
100
AcDbVisualStyle
  2
Realistic
 70
     8
 71
     2
 72
     2
 73
     0
 90
        0
 40
-0.6
 41
-30.0
 62
     5
 63
     7
 74
     1
 91
        0
 64
     7
 65
   257
 75
     1
175
     1
 42
1.0
 92
        8
 66
     8
 43
1.0
 76
     1
 77
     6
 78
     2
 67
     7
 79
     5
170
     0
171
     0
290
     0
174
     0
 93
       13
 44
0.0
173
     0
291
     0
 45
0.0
1001
ACAD
1000
AcDbSavedByObjectVersion
1070
     0
  0
VISUALSTYLE
  5
37
102
{ACAD_REACTORS
330
2A
102
}
330
2A
100
AcDbVisualStyle
  2
Thicken
 70
    13
 71
     2
 72
     2
 73
     0
 90
        0
 40
-0.6
 41
-30.0
 62
     5
 63
     7
 74
     1
 91
        4
 64
     7
 65
   257
 75
     1
175
     1
 42
1.0
 92
       12
 66
     7
 43
1.0
 76
     1
 77
     6
 78
     2
 67
     7
 79
     5
170
     0
171
     0
290
     0
174
     0
 93
        1
 44
0.0
173
     0
291
     1
 45
0.0
1001
ACAD
1000
AcDbSavedByObjectVersion
1070
     0
  0
DICTIONARYVAR
  5
291
102
{ACAD_REACTORS
330
290
102
}
330
290
100
DictionaryVariables
280
     0
  1
1:1
  0
DICTIONARYVAR
  5
295
102
{ACAD_REACTORS
330
290
102
}
330
290
100
DictionaryVariables
280
     0
  1
80.000000
  0
DICTIONARYVAR
  5
294
102
{ACAD_REACTORS
330
290
102
}
330
290
100
DictionaryVariables
280
     0
  1
5.000000
  0
ENDSEC
  0
EOF
