  0
SECTION
  2
HEADER
  9
$ACADVER
  1
AC1009
  9
$DWGCODEPAGE
  3
ansi_1252
  9
$INSBASE
 10
0.0
 20
0.0
 30
0.0
  9
$EXTMIN
 10
1.000000000000000E+20
 20
1.000000000000000E+20
 30
1.000000000000000E+20
  9
$EXTMAX
 10
-1.000000000000000E+20
 20
-1.000000000000000E+20
 30
-1.000000000000000E+20
  9
$LIMMIN
 10
0.0
 20
0.0
  9
$LIMMAX
 10
12.0
 20
9.0
  9
$ORTHOMODE
 70
     0
  9
$REGENMODE
 70
     1
  9
$FILLMODE
 70
     1
  9
$QTEXTMODE
 70
     0
  9
$MIRRTEXT
 70
     1
  9
$DRAGMODE
 70
     2
  9
$LTSCALE
 40
1.0
  9
$OSMODE
 70
    37
  9
$ATTMODE
 70
     1
  9
$TEXTSIZE
 40
0.2
  9
$TRACEWID
 40
0.05
  9
$TEXTSTYLE
  7
STANDARD
  9
$CLAYER
  8
0
  9
$CELTYPE
  6
BYLAYER
  9
$CECOLOR
 62
   256
  9
$DIMSCALE
 40
1.0
  9
$DIMASZ
 40
0.18
  9
$DIMEXO
 40
0.0625
  9
$DIMDLI
 40
0.38
  9
$DIMRND
 40
0.0
  9
$DIMDLE
 40
0.0
  9
$DIMEXE
 40
0.18
  9
$DIMTP
 40
0.0
  9
$DIMTM
 40
0.0
  9
$DIMTXT
 40
0.18
  9
$DIMCEN
 40
0.09
  9
$DIMTSZ
 40
0.0
  9
$DIMTOL
 70
     0
  9
$DIMLIM
 70
     0
  9
$DIMTIH
 70
     1
  9
$DIMTOH
 70
     1
  9
$DIMSE1
 70
     0
  9
$DIMSE2
 70
     0
  9
$DIMTAD
 70
     0
  9
$DIMZIN
 70
     0
  9
$DIMBLK
  1

  9
$DIMASO
 70
     1
  9
$DIMSHO
 70
     1
  9
$DIMPOST
  1

  9
$DIMAPOST
  1

  9
$DIMALT
 70
     0
  9
$DIMALTD
 70
     2
  9
$DIMALTF
 40
25.4
  9
$DIMLFAC
 40
1.0
  9
$DIMTOFL
 70
     0
  9
$DIMTVP
 40
0.0
  9
$DIMTIX
 70
     0
  9
$DIMSOXD
 70
     0
  9
$DIMSAH
 70
     0
  9
$DIMBLK1
  1

  9
$DIMBLK2
  1

  9
$DIMSTYLE
  2
STANDARD
  9
$DIMCLRD
 70
     0
  9
$DIMCLRE
 70
     0
  9
$DIMCLRT
 70
     0
  9
$DIMTFAC
 40
1.0
  9
$DIMGAP
 40
0.09
  9
$LUNITS
 70
     2
  9
$LUPREC
 70
     4
  9
$SKETCHINC
 40
0.1
  9
$FILLETRAD
 40
0.5
  9
$AUNITS
 70
     0
  9
$AUPREC
 70
     0
  9
$MENU
  1
.
  9
$ELEVATION
 40
0.0
  9
$PELEVATION
 40
0.0
  9
$THICKNESS
 40
0.0
  9
$LIMCHECK
 70
     0
  9
$CHAMFERA
 40
0.5
  9
$CHAMFERB
 40
0.5
  9
$SKPOLY
 70
     0
  9
$TDCREATE
 40
2455482.370202326
  9
$TDUPDATE
 40
2455482.370202326
  9
$TDINDWG
 40
0.0000000116
  9
$TDUSRTIMER
 40
0.0000000116
  9
$USRTIMER
 70
     1
  9
$ANGBASE
 50
0.0
  9
$ANGDIR
 70
     0
  9
$PDMODE
 70
     0
  9
$PDSIZE
 40
0.0
  9
$PLINEWID
 40
0.0
  9
$COORDS
 70
     1
  9
$SPLFRAME
 70
     0
  9
$SPLINETYPE
 70
     6
  9
$SPLINESEGS
 70
     8
  9
$ATTDIA
 70
     0
  9
$ATTREQ
 70
     1
  9
$HANDLING
 70
     1
  9
$HANDSEED
  5
8B4
  9
$SURFTAB1
 70
     6
  9
$SURFTAB2
 70
     6
  9
$SURFTYPE
 70
     6
  9
$SURFU
 70
     6
  9
$SURFV
 70
     6
  9
$UCSNAME
  2

  9
$UCSORG
 10
0.0
 20
0.0
 30
0.0
  9
$UCSXDIR
 10
1.0
 20
0.0
 30
0.0
  9
$UCSYDIR
 10
0.0
 20
1.0
 30
0.0
  9
$PUCSNAME
  2

  9
$PUCSORG
 10
0.0
 20
0.0
 30
0.0
  9
$PUCSXDIR
 10
1.0
 20
0.0
 30
0.0
  9
$PUCSYDIR
 10
0.0
 20
1.0
 30
0.0
  9
$USERI1
 70
     0
  9
$USERI2
 70
     0
  9
$USERI3
 70
     0
  9
$USERI4
 70
     0
  9
$USERI5
 70
     0
  9
$USERR1
 40
0.0
  9
$USERR2
 40
0.0
  9
$USERR3
 40
0.0
  9
$USERR4
 40
0.0
  9
$USERR5
 40
0.0
  9
$WORLDVIEW
 70
     1
  9
$SHADEDGE
 70
     3
  9
$SHADEDIF
 70
    70
  9
$TILEMODE
 70
     1
  9
$MAXACTVP
 70
    64
  9
$PLIMCHECK
 70
     0
  9
$PEXTMIN
 10
1.000000000000000E+20
 20
1.000000000000000E+20
 30
1.000000000000000E+20
  9
$PEXTMAX
 10
-1.000000000000000E+20
 20
-1.000000000000000E+20
 30
-1.000000000000000E+20
  9
$PLIMMIN
 10
0.0
 20
0.0
  9
$PLIMMAX
 10
12.0
 20
9.0
  9
$UNITMODE
 70
     0
  9
$VISRETAIN
 70
     1
  9
$PLINEGEN
 70
     0
  9
$PSLTSCALE
 70
     1
  0
ENDSEC
  0
SECTION
  2
TABLES
  0
TABLE
  2
VPORT
 70
     1
  0
VPORT
  2
*ACTIVE
 70
     0
 10
0.0
 20
0.0
 11
1.0
 21
1.0
 12
0.0
 22
0.0
 13
0.0
 23
0.0
 14
0.5
 24
0.5
 15
0.5
 25
0.5
 16
231.2635345458984
 26
-215.65673828125
 36
90.67262268066406
 17
44.99955749511719
 27
0.0
 37
49.30999755859375
 40
194.5181190925176
 41
1.972972972850329
 42
50.0
 43
0.0
 44
0.0
 50
0.0
 51
0.0
 71
     0
 72
   100
 73
     1
 74
     3
 75
     0
 76
     0
 77
     0
 78
     0
  0
ENDTAB
  0
TABLE
  2
LTYPE
 70
     1
  0
LTYPE
  2
CONTINUOUS
 70
     0
  3
Solid line
 72
    65
 73
     0
 40
0.0
  0
ENDTAB
  0
TABLE
  2
LAYER
 70
     2
  0
LAYER
  2
0
 70
     0
 62
     7
  6
CONTINUOUS
  0
LAYER
  2
LAYER_1
 70
     0
 62
     7
  6
CONTINUOUS
  0
ENDTAB
  0
TABLE
  2
STYLE
 70
     1
  0
STYLE
  2
STANDARD
 70
     0
 40
0.0
 41
1.0
 50
0.0
 71
     0
 42
0.2
  3
txt
  4

  0
ENDTAB
  0
TABLE
  2
VIEW
 70
     0
  0
ENDTAB
  0
TABLE
  2
UCS
 70
     0
  0
ENDTAB
  0
TABLE
  2
APPID
 70
     1
  0
APPID
  2
ACAD
 70
     0
  0
ENDTAB
  0
TABLE
  2
DIMSTYLE
 70
     1
  0
DIMSTYLE
  2
STANDARD
 70
     0
  3

  4

  5

  6

  7

 40
1.0
 41
0.18
 42
0.0625
 43
0.38
 44
0.18
 45
0.0
 46
0.0
 47
0.0
 48
0.0
140
0.18
141
0.09
142
0.0
143
25.4
144
1.0
145
0.0
146
1.0
147
0.09
 71
     0
 72
     0
 73
     1
 74
     1
 75
     0
 76
     0
 77
     0
 78
     0
170
     0
171
     2
172
     0
173
     0
174
     0
175
     0
176
     0
177
     0
178
     0
  0
ENDTAB
  0
ENDSEC
  0
SECTION
  2
BLOCKS
  0
BLOCK
  8
0
  2
$MODEL_SPACE
 70
     0
 10
0.0
 20
0.0
 30
0.0
  3
$MODEL_SPACE
  1

  0
ENDBLK
  5
21
  8
0
  0
BLOCK
 67
     1
  8
0
  2
$PAPER_SPACE
 70
     0
 10
0.0
 20
0.0
 30
0.0
  3
$PAPER_SPACE
  1

  0
ENDBLK
  5
1D
 67
     1
  8
0
  0
BLOCK
  8
0
  2
38
 70
     0
 10
0.0
 20
0.0
 30
0.0
  3
38
  1

  0
POLYLINE
  5
3C
  8
0
 62
     9
 66
     1
 10
0.0
 20
0.0
 30
0.0
 70
    64
 71
   146
 72
   280
  0
VERTEX
  5
3D
  8
0
 10
110.7608413696289
 20
6.398115634918213
 30
75.0
 70
   192
  0
VERTEX
  5
3E
  8
0
 10
112.4991226196289
 20
-0.165067195892334
 30
74.5
 70
   192
  0
VERTEX
  5
3F
  8
0
 10
112.0092468261719
 20
-0.1604397743940353
 30
75.0
 70
   192
  0
VERTEX
  5
40
  8
0
 10
111.2252883911133
 20
6.645303726196289
 30
74.5
 70
   192
  0
VERTEX
  5
41
  8
0
 10
107.08447265625
 20
11.97103977203369
 30
75.0
 70
   192
  0
VERTEX
  5
42
  8
0
 10
107.2500457763672
 20
12.15251445770264
 30
74.5
 70
   192
  0
VERTEX
  5
43
  8
0
 10
101.5464782714844
 20
15.69982719421387
 30
75.0
 70
   192
  0
VERTEX
  5
44
  8
0
 10
101.6707458496094
 20
16.13343238830566
 30
74.5
 70
   192
  0
VERTEX
  5
45
  8
0
 10
95.0
 20
17.01006126403809
 30
75.0
 70
   192
  0
VERTEX
  5
46
  8
0
 10
95.0
 20
17.49995994567871
 30
74.5
 70
   192
  0
VERTEX
  5
47
  8
0
 10
13.32647895812988
 20
-13.79032135009766
 30
57.94807052612305
 70
   192
  0
VERTEX
  5
48
  8
0
 10
6.104681968688965
 20
-16.87930297851562
 30
65.69335174560547
 70
   192
  0
VERTEX
  5
49
  8
0
 10
7.00615930557251
 20
-16.83271980285645
 30
66.30036163330078
 70
   192
  0
VERTEX
  5
4A
  8
0
 10
24.02205276489258
 20
0.000008447228538
 30
50.99150848388672
 70
   192
  0
VERTEX
  5
4B
  8
0
 10
18.54530143737793
 20
-7.897787570953369
 30
51.65942764282227
 70
   192
  0
VERTEX
  5
4C
  8
0
 10
21.63113975524902
 20
-7.349792003631592
 30
53.02971649169922
 70
   192
  0
VERTEX
  5
4D
  8
0
 10
11.64802074432373
 20
-14.63656616210938
 30
56.93086242675781
 70
   192
  0
VERTEX
  5
4E
  8
0
 10
16.89872550964355
 20
-9.326598167419434
 30
49.24491882324219
 70
   192
  0
VERTEX
  5
4F
  8
0
 10
19.45488166809082
 20
0.0072639021091163
 30
45.67674255371094
 70
   192
  0
VERTEX
  5
50
  8
0
 10
20.65163612365723
 20
0.0014206236228347
 30
49.2680778503418
 70
   192
  0
VERTEX
  5
51
  8
0
 10
-0.0000000000407171
 20
-17.54471206665039
 30
74.32929992675781
 70
   192
  0
VERTEX
  5
52
  8
0
 10
0.7300578951835632
 20
-17.53026008605957
 30
74.54234313964844
 70
   192
  0
VERTEX
  5
53
  8
0
 10
16.97160911560059
 20
-12.44627571105957
 30
57.27698516845703
 70
   192
  0
VERTEX
  5
54
  8
0
 10
11.76645851135254
 20
-15.523118019104
 30
62.72604370117188
 70
   192
  0
VERTEX
  5
55
  8
0
 10
6.333925247192383
 20
-17.14053726196289
 30
68.59053802490234
 70
   192
  0
VERTEX
  5
56
  8
0
 10
6.337867259979248
 20
17.14081954956055
 30
68.58541107177734
 70
   192
  0
VERTEX
  5
57
  8
0
 10
0.7300386428833008
 20
17.53026008605957
 30
74.54234313964844
 70
   192
  0
VERTEX
  5
58
  8
0
 10
7.00282096862793
 20
16.83404922485352
 30
66.30335998535156
 70
   192
  0
VERTEX
  5
59
  8
0
 10
18.54012489318848
 20
7.905818939208984
 30
51.67507171630859
 70
   192
  0
VERTEX
  5
5A
  8
0
 10
21.77730369567871
 20
7.488770484924316
 30
52.90883636474609
 70
   192
  0
VERTEX
  5
5B
  8
0
 10
11.73332595825195
 20
15.6333065032959
 30
62.63014221191406
 70
   192
  0
VERTEX
  5
5C
  8
0
 10
16.7219352722168
 20
9.286821365356445
 30
49.46944046020508
 70
   192
  0
VERTEX
  5
5D
  8
0
 10
0.0000000241616629
 20
17.54472351074219
 30
74.32915496826172
 70
   192
  0
VERTEX
  5
5E
  8
0
 10
13.3237190246582
 20
13.79164600372314
 30
57.94990539550781
 70
   192
  0
VERTEX
  5
5F
  8
0
 10
16.9049186706543
 20
12.14534759521484
 30
57.45123672485352
 70
   192
  0
VERTEX
  5
60
  8
0
 10
11.63957500457764
 20
14.63055610656738
 30
56.9415397644043
 70
   192
  0
VERTEX
  5
61
  8
0
 10
6.154943466186523
 20
17.0408821105957
 30
65.71509552001953
 70
   192
  0
VERTEX
  5
62
  8
0
 10
94.99983215332031
 20
-17.01000022888184
 30
75.0
 70
   192
  0
VERTEX
  5
63
  8
0
 10
88.26643371582031
 20
-17.50216102600098
 30
74.51231384277344
 70
   192
  0
VERTEX
  5
64
  8
0
 10
88.21412658691406
 20
-17.01225662231445
 30
75.0
 70
   192
  0
VERTEX
  5
65
  8
0
 10
74.79930114746094
 20
-17.50648498535156
 30
74.51692962646484
 70
   192
  0
VERTEX
  5
66
  8
0
 10
81.42841339111328
 20
-17.01451110839844
 30
75.0
 70
   192
  0
VERTEX
  5
67
  8
0
 10
81.53286743164062
 20
-17.50432205200195
 30
74.51461791992188
 70
   192
  0
VERTEX
  5
68
  8
0
 10
54.59859848022461
 20
-17.51296806335449
 30
74.52386474609375
 70
   192
  0
VERTEX
  5
69
  8
0
 10
61.07129287719727
 20
-17.02127838134766
 30
75.0
 70
   192
  0
VERTEX
  5
6A
  8
0
 10
61.3321647644043
 20
-17.51080703735352
 30
74.52155303955078
 70
   192
  0
VERTEX
  5
6B
  8
0
 10
68.06573486328125
 20
-17.50864601135254
 30
74.51924133300781
 70
   192
  0
VERTEX
  5
6C
  8
0
 10
67.85700225830078
 20
-17.01902198791504
 30
75.0
 70
   192
  0
VERTEX
  5
6D
  8
0
 10
74.64270782470703
 20
-17.01676750183105
 30
75.0
 70
   192
  0
VERTEX
  5
6E
  8
0
 10
41.13146209716797
 20
-17.51729202270508
 30
74.52848052978516
 70
   192
  0
VERTEX
  5
6F
  8
0
 10
34.39789581298828
 20
-17.51945304870605
 30
74.53079223632812
 70
   192
  0
VERTEX
  5
70
  8
0
 10
40.71416854858398
 20
-17.02804565429688
 30
75.0
 70
   192
  0
VERTEX
  5
71
  8
0
 10
54.28558349609375
 20
-17.02353477478027
 30
75.0
 70
   192
  0
VERTEX
  5
72
  8
0
 10
47.86503219604492
 20
-17.51512908935547
 30
74.52616882324219
 70
   192
  0
VERTEX
  5
73
  8
0
 10
47.4998779296875
 20
-17.02578926086426
 30
75.0
 70
   192
  0
VERTEX
  5
74
  8
0
 10
20.35704612731934
 20
-17.03481292724609
 30
75.0
 70
   192
  0
VERTEX
  5
75
  8
0
 10
20.93076133728027
 20
-17.52377510070801
 30
74.53541564941406
 70
   192
  0
VERTEX
  5
76
  8
0
 10
14.19719314575195
 20
-17.52593612670898
 30
74.5377197265625
 70
   192
  0
VERTEX
  5
77
  8
0
 10
27.14275360107422
 20
-17.03255653381348
 30
75.0
 70
   192
  0
VERTEX
  5
78
  8
0
 10
33.92846298217773
 20
-17.03030014038086
 30
75.0
 70
   192
  0
VERTEX
  5
79
  8
0
 10
27.66432762145996
 20
-17.52161407470703
 30
74.5331039428711
 70
   192
  0
VERTEX
  5
7A
  8
0
 10
7.463625431060791
 20
-17.52809715270996
 30
74.54003143310547
 70
   192
  0
VERTEX
  5
7B
  8
0
 10
13.57133769989014
 20
-17.03706741333008
 30
75.0
 70
   192
  0
VERTEX
  5
7C
  8
0
 10
6.785629749298096
 20
-17.0393238067627
 30
75.0
 70
   192
  0
VERTEX
  5
7D
  8
0
 10
-0.0000779183683335
 20
-17.04157829284668
 30
75.0
 70
   192
  0
VERTEX
  5
7E
  8
0
 10
95.0
 20
-17.5
 30
74.51000213623047
 70
   192
  0
VERTEX
  5
7F
  8
0
 10
-6.708629608154297
 20
16.19606399536133
 30
74.54259490966797
 70
   192
  0
VERTEX
  5
80
  8
0
 10
-0.0000784595758887
 20
17.04157829284668
 30
75.0
 70
   192
  0
VERTEX
  5
81
  8
0
 10
-17.53049278259277
 20
0.0000000000000022
 30
74.54259490966797
 70
   192
  0
VERTEX
  5
82
  8
0
 10
-16.19606399536133
 20
6.708629608154297
 30
74.54259490966797
 70
   192
  0
VERTEX
  5
83
  8
0
 10
-15.7421407699585
 20
6.526900291442871
 30
75.0
 70
   192
  0
VERTEX
  5
84
  8
0
 10
-12.39593124389648
 20
12.39593124389648
 30
74.54259490966797
 70
   192
  0
VERTEX
  5
85
  8
0
 10
-6.525543212890625
 20
15.74270343780518
 30
75.0
 70
   192
  0
VERTEX
  5
86
  8
0
 10
-12.05112266540527
 20
12.04930877685547
 30
75.0
 70
   192
  0
VERTEX
  5
87
  8
0
 10
-12.05941963195801
 20
-12.04100513458252
 30
75.0
 70
   192
  0
VERTEX
  5
88
  8
0
 10
-6.708629608154297
 20
-16.19606399536133
 30
74.54259490966797
 70
   192
  0
VERTEX
  5
89
  8
0
 10
-12.39593124389648
 20
-12.39593124389648
 30
74.54259490966797
 70
   192
  0
VERTEX
  5
8A
  8
0
 10
-17.04157447814941
 20
0.012984486296773
 30
75.0
 70
   192
  0
VERTEX
  5
8B
  8
0
 10
-15.75064849853516
 20
-6.506340980529785
 30
75.0
 70
   192
  0
VERTEX
  5
8C
  8
0
 10
-16.19606399536133
 20
-6.708629608154297
 30
74.54259490966797
 70
   192
  0
VERTEX
  5
8D
  8
0
 10
-6.529353618621826
 20
-15.74112319946289
 30
75.0
 70
   192
  0
VERTEX
  5
8E
  8
0
 10
111.3817367553711
 20
-6.146227359771729
 30
74.5
 70
   192
  0
VERTEX
  5
8F
  8
0
 10
110.6687545776367
 20
-6.620522499084473
 30
75.0
 70
   192
  0
VERTEX
  5
90
  8
0
 10
106.9709930419922
 20
-12.08460330963135
 30
75.0
 70
   192
  0
VERTEX
  5
91
  8
0
 10
108.1819839477539
 20
-11.52518558502197
 30
74.5
 70
   192
  0
VERTEX
  5
92
  8
0
 10
102.8155517578125
 20
-15.65149116516113
 30
74.5
 70
   192
  0
VERTEX
  5
93
  8
0
 10
101.4722747802734
 20
-15.73065185546875
 30
75.0
 70
   192
  0
VERTEX
  5
94
  8
0
 10
6.785568237304688
 20
17.0393238067627
 30
75.0
 70
   192
  0
VERTEX
  5
95
  8
0
 10
27.14274406433105
 20
17.03255653381348
 30
75.0
 70
   192
  0
VERTEX
  5
96
  8
0
 10
20.35701942443848
 20
17.03481292724609
 30
75.0
 70
   192
  0
VERTEX
  5
97
  8
0
 10
20.93074417114258
 20
17.52377510070801
 30
74.53541564941406
 70
   192
  0
VERTEX
  5
98
  8
0
 10
13.57129383087158
 20
17.03706741333008
 30
75.0
 70
   192
  0
VERTEX
  5
99
  8
0
 10
7.463607311248779
 20
17.52809715270996
 30
74.54003143310547
 70
   192
  0
VERTEX
  5
9A
  8
0
 10
14.19717597961426
 20
17.52593612670898
 30
74.5377197265625
 70
   192
  0
VERTEX
  5
9B
  8
0
 10
41.13145065307617
 20
17.51729202270508
 30
74.52848052978516
 70
   192
  0
VERTEX
  5
9C
  8
0
 10
47.49991989135742
 20
17.02578926086426
 30
75.0
 70
   192
  0
VERTEX
  5
9D
  8
0
 10
40.71419525146484
 20
17.02804565429688
 30
75.0
 70
   192
  0
VERTEX
  5
9E
  8
0
 10
27.66431427001953
 20
17.52161407470703
 30
74.5331039428711
 70
   192
  0
VERTEX
  5
9F
  8
0
 10
34.39788055419922
 20
17.51945304870605
 30
74.53079223632812
 70
   192
  0
VERTEX
  5
A0
  8
0
 10
33.92847061157227
 20
17.03030014038086
 30
75.0
 70
   192
  0
VERTEX
  5
A1
  8
0
 10
61.07136917114258
 20
17.02127838134766
 30
75.0
 70
   192
  0
VERTEX
  5
A2
  8
0
 10
61.33215713500977
 20
17.51080703735352
 30
74.52155303955078
 70
   192
  0
VERTEX
  5
A3
  8
0
 10
67.85709381103516
 20
17.01902198791504
 30
75.0
 70
   192
  0
VERTEX
  5
A4
  8
0
 10
54.28564453125
 20
17.02353477478027
 30
75.0
 70
   192
  0
VERTEX
  5
A5
  8
0
 10
47.86502075195312
 20
17.51512908935547
 30
74.52616882324219
 70
   192
  0
VERTEX
  5
A6
  8
0
 10
54.59858703613281
 20
17.51296806335449
 30
74.52386474609375
 70
   192
  0
VERTEX
  5
A7
  8
0
 10
74.642822265625
 20
17.01676750183105
 30
75.0
 70
   192
  0
VERTEX
  5
A8
  8
0
 10
74.7992935180664
 20
17.50648498535156
 30
74.51692962646484
 70
   192
  0
VERTEX
  5
A9
  8
0
 10
81.42854309082031
 20
17.01451110839844
 30
75.0
 70
   192
  0
VERTEX
  5
AA
  8
0
 10
68.06572723388672
 20
17.50864601135254
 30
74.51924133300781
 70
   192
  0
VERTEX
  5
AB
  8
0
 10
81.5328598022461
 20
17.50432205200195
 30
74.51461791992188
 70
   192
  0
VERTEX
  5
AC
  8
0
 10
88.21427154541016
 20
17.01225471496582
 30
75.0
 70
   192
  0
VERTEX
  5
AD
  8
0
 10
88.26643371582031
 20
17.50216102600098
 30
74.51231384277344
 70
   192
  0
VERTEX
  5
AE
  8
0
 10
95.16998291015625
 20
-10.49346923828125
 30
60.50625228881836
 70
   192
  0
VERTEX
  5
AF
  8
0
 10
103.8357467651367
 20
-12.56191539764404
 30
66.05670166015625
 70
   192
  0
VERTEX
  5
B0
  8
0
 10
103.7255096435547
 20
-9.544378280639648
 30
62.61685943603516
 70
   192
  0
VERTEX
  5
B1
  8
0
 10
109.0216903686523
 20
-6.865211486816406
 30
66.22782897949219
 70
   192
  0
VERTEX
  5
B2
  8
0
 10
110.7021636962891
 20
0.19503253698349
 30
66.2812728881836
 70
   192
  0
VERTEX
  5
B3
  8
0
 10
108.9009628295898
 20
7.205372333526611
 30
66.22281646728516
 70
   192
  0
VERTEX
  5
B4
  8
0
 10
107.7275772094727
 20
5.493965625762939
 30
63.50698852539062
 70
   192
  0
VERTEX
  5
B5
  8
0
 10
107.6947326660156
 20
-5.535995006561279
 30
63.50058364868164
 70
   192
  0
VERTEX
  5
B6
  8
0
 10
109.169677734375
 20
0.0107089346274734
 30
63.8524284362793
 70
   192
  0
VERTEX
  5
B7
  8
0
 10
95.0
 20
15.5792875289917
 30
66.744140625
 70
   192
  0
VERTEX
  5
B8
  8
0
 10
103.5977554321289
 20
12.80246448516846
 30
66.04195404052734
 70
   192
  0
VERTEX
  5
B9
  8
0
 10
98.36137390136719
 20
11.00188636779785
 30
61.39118957519531
 70
   192
  0
VERTEX
  5
BA
  8
0
 10
103.7762603759766
 20
9.514923095703125
 30
62.61276626586914
 70
   192
  0
VERTEX
  5
BB
  8
0
 10
95.09046173095703
 20
-15.45498657226562
 30
66.80111694335938
 70
   192
  0
VERTEX
  5
BC
  8
0
 10
47.95001602172852
 20
-7.643742084503174
 30
55.14205169677734
 70
   192
  0
VERTEX
  5
BD
  8
0
 10
56.23996353149414
 20
-0.0549707598984241
 30
53.71858978271484
 70
   192
  0
VERTEX
  5
BE
  8
0
 10
90.2342529296875
 20
-6.542871952056885
 30
57.87698364257812
 70
   192
  0
VERTEX
  5
BF
  8
0
 10
88.45787811279297
 20
-0.1099499687552452
 30
56.44567108154297
 70
   192
  0
VERTEX
  5
C0
  8
0
 10
47.95001602172852
 20
-14.31489276885986
 30
62.12853240966797
 70
   192
  0
VERTEX
  5
C1
  8
0
 10
47.58220291137695
 20
7.606595516204834
 30
55.02267837524414
 70
   192
  0
VERTEX
  5
C2
  8
0
 10
47.58220291137695
 20
14.37761402130127
 30
61.90376281738281
 70
   192
  0
VERTEX
  5
C3
  8
0
 10
90.11498260498047
 20
6.378097057342529
 30
57.84908676147461
 70
   192
  0
VERTEX
  5
C4
  8
0
 10
21.38300514221191
 20
6.993169784545898
 30
-0.0000000000000025
 70
   192
  0
VERTEX
  5
C5
  8
0
 10
13.14739513397217
 20
18.2406177520752
 30
-0.0000000000000054
 70
   192
  0
VERTEX
  5
C6
  8
0
 10
21.40386581420898
 20
-6.888301849365234
 30
0.0000000000000013
 70
   192
  0
VERTEX
  5
C7
  8
0
 10
13.28074932098389
 20
-18.15151405334473
 30
0.0000000000000047
 70
   192
  0
VERTEX
  5
C8
  8
0
 10
0.0000000000000007
 20
-22.5
 30
0.0000000000000062
 70
   192
  0
VERTEX
  5
C9
  8
0
 10
-0.0000000000000014
 20
22.5
 30
-0.0000000000000062
 70
   192
  0
VERTEX
  5
CA
  8
0
 10
-22.5
 20
-0.0000000000000009
 30
0.0000000000000004
 70
   192
  0
VERTEX
  5
CB
  8
0
 10
-19.43062019348145
 20
-11.31267929077148
 30
0.0000000000000037
 70
   192
  0
VERTEX
  5
CC
  8
0
 10
-11.18920230865479
 20
-19.51312446594238
 30
0.0000000000000057
 70
   192
  0
VERTEX
  5
CD
  8
0
 10
-19.51312446594238
 20
11.18920230865479
 30
-0.0000000000000026
 70
   192
  0
VERTEX
  5
CE
  8
0
 10
-11.31267929077148
 20
19.43062019348145
 30
-0.0000000000000051
 70
   192
  0
VERTEX
  5
CF
  8
0
 62
     9
 10
0.0
 20
0.0
 30
0.0
 70
   128
 71
     3
 72
     2
 73
     1
  0
VERTEX
  5
D0
  8
0
 62
     9
 10
0.0
 20
0.0
 30
0.0
 70
   128
 71
     5
 72
     1
 73
     4
  0
VERTEX
  5
D1
  8
0
 62
     9
 10
0.0
 20
0.0
 30
0.0
 70
   128
 71
     6
 72
     5
 73
     4
  0
VERTEX
  5
D2
  8
0
 62
     9
 10
0.0
 20
0.0
 30
0.0
 70
   128
 71
     4
 72
     1
 73
     2
  0
VERTEX
  5
D3
  8
0
 62
     9
 10
0.0
 20
0.0
 30
0.0
 70
   128
 71
     6
 72
     8
 73
     7
  0
VERTEX
  5
D4
  8
0
 62
     9
 10
0.0
 20
0.0
 30
0.0
 70
   128
 71
     7
 72
     5
 73
     6
  0
VERTEX
  5
D5
  8
0
 62
     9
 10
0.0
 20
0.0
 30
0.0
 70
   128
 71
     8
 72
     9
 73
     7
  0
VERTEX
  5
D6
  8
0
 62
     9
 10
0.0
 20
0.0
 30
0.0
 70
   128
 71
     8
 72
    10
 73
     9
  0
VERTEX
  5
D7
  8
0
 62
     9
 10
0.0
 20
0.0
 30
0.0
 70
   128
 71
    13
 72
    12
 73
    11
  0
VERTEX
  5
D8
  8
0
 62
     9
 10
0.0
 20
0.0
 30
0.0
 70
   128
 71
    16
 72
    15
 73
    14
  0
VERTEX
  5
D9
  8
0
 62
     9
 10
0.0
 20
0.0
 30
0.0
 70
   128
 71
    18
 72
    15
 73
    17
  0
VERTEX
  5
DA
  8
0
 62
     9
 10
0.0
 20
0.0
 30
0.0
 70
   128
 71
    20
 72
    18
 73
    19
  0
VERTEX
  5
DB
  8
0
 62
     9
 10
0.0
 20
0.0
 30
0.0
 70
   128
 71
    20
 72
    14
 73
    15
  0
VERTEX
  5
DC
  8
0
 62
     9
 10
0.0
 20
0.0
 30
0.0
 70
   128
 71
    15
 72
    11
 73
    17
  0
VERTEX
  5
DD
  8
0
 62
     9
 10
0.0
 20
0.0
 30
0.0
 70
   128
 71
    20
 72
    15
 73
    18
  0
VERTEX
  5
DE
  8
0
 62
     9
 10
0.0
 20
0.0
 30
0.0
 70
   128
 71
    12
 72
    13
 73
    21
  0
VERTEX
  5
DF
  8
0
 62
     9
 10
0.0
 20
0.0
 30
0.0
 70
   128
 71
    17
 72
    11
 73
    12
  0
VERTEX
  5
E0
  8
0
 62
     9
 10
0.0
 20
0.0
 30
0.0
 70
   128
 71
    22
 72
    21
 73
    13
  0
VERTEX
  5
E1
  8
0
 62
     9
 10
0.0
 20
0.0
 30
0.0
 70
   128
 71
    23
 72
    15
 73
    16
  0
VERTEX
  5
E2
  8
0
 62
     9
 10
0.0
 20
0.0
 30
0.0
 70
   128
 71
    23
 72
    11
 73
    15
  0
VERTEX
  5
E3
  8
0
 62
     9
 10
0.0
 20
0.0
 30
0.0
 70
   128
 71
    24
 72
    11
 73
    23
  0
VERTEX
  5
E4
  8
0
 62
     9
 10
0.0
 20
0.0
 30
0.0
 70
   128
 71
    25
 72
    13
 73
    24
  0
VERTEX
  5
E5
  8
0
 62
     9
 10
0.0
 20
0.0
 30
0.0
 70
   128
 71
    13
 72
    11
 73
    24
  0
VERTEX
  5
E6
  8
0
 62
     9
 10
0.0
 20
0.0
 30
0.0
 70
   128
 71
    25
 72
    22
 73
    13
  0
VERTEX
  5
E7
  8
0
 62
     9
 10
0.0
 20
0.0
 30
0.0
 70
   128
 71
    28
 72
    27
 73
    26
  0
VERTEX
  5
E8
  8
0
 62
     9
 10
0.0
 20
0.0
 30
0.0
 70
   128
 71
    30
 72
    20
 73
    29
  0
VERTEX
  5
E9
  8
0
 62
     9
 10
0.0
 20
0.0
 30
0.0
 70
   128
 71
    28
 72
    26
 73
    31
  0
VERTEX
  5
EA
  8
0
 62
     9
 10
0.0
 20
0.0
 30
0.0
 70
   128
 71
    14
 72
    20
 73
    30
  0
VERTEX
  5
EB
  8
0
 62
     9
 10
0.0
 20
0.0
 30
0.0
 70
   128
 71
    20
 72
    19
 73
    29
  0
VERTEX
  5
EC
  8
0
 62
     9
 10
0.0
 20
0.0
 30
0.0
 70
   128
 71
    19
 72
    32
 73
    29
  0
VERTEX
  5
ED
  8
0
 62
     9
 10
0.0
 20
0.0
 30
0.0
 70
   128
 71
    27
 72
    28
 73
    33
  0
VERTEX
  5
EE
  8
0
 62
     9
 10
0.0
 20
0.0
 30
0.0
 70
   128
 71
    35
 72
    34
 73
    31
  0
VERTEX
  5
EF
  8
0
 62
     9
 10
0.0
 20
0.0
 30
0.0
 70
   128
 71
    34
 72
    28
 73
    31
  0
VERTEX
  5
F0
  8
0
 62
     9
 10
0.0
 20
0.0
 30
0.0
 70
   128
 71
    35
 72
    29
 73
    34
  0
VERTEX
  5
F1
  8
0
 62
     9
 10
0.0
 20
0.0
 30
0.0
 70
   128
 71
    32
 72
    36
 73
    34
  0
VERTEX
  5
F2
  8
0
 62
     9
 10
0.0
 20
0.0
 30
0.0
 70
   128
 71
    30
 72
    29
 73
    35
  0
VERTEX
  5
F3
  8
0
 62
     9
 10
0.0
 20
0.0
 30
0.0
 70
   128
 71
    34
 72
    29
 73
    32
  0
VERTEX
  5
F4
  8
0
 62
     9
 10
0.0
 20
0.0
 30
0.0
 70
   128
 71
    36
 72
    37
 73
    28
  0
VERTEX
  5
F5
  8
0
 62
     9
 10
0.0
 20
0.0
 30
0.0
 70
   128
 71
    28
 72
    34
 73
    36
  0
VERTEX
  5
F6
  8
0
 62
     9
 10
0.0
 20
0.0
 30
0.0
 70
   128
 71
    37
 72
    33
 73
    28
  0
VERTEX
  5
F7
  8
0
 62
     9
 10
0.0
 20
0.0
 30
0.0
 70
   128
 71
    40
 72
    39
 73
    38
  0
VERTEX
  5
F8
  8
0
 62
     9
 10
0.0
 20
0.0
 30
0.0
 70
   128
 71
    43
 72
    42
 73
    41
  0
VERTEX
  5
F9
  8
0
 62
     9
 10
0.0
 20
0.0
 30
0.0
 70
   128
 71
    46
 72
    45
 73
    44
  0
VERTEX
  5
FA
  8
0
 62
     9
 10
0.0
 20
0.0
 30
0.0
 70
   128
 71
    49
 72
    48
 73
    47
  0
VERTEX
  5
FB
  8
0
 62
     9
 10
0.0
 20
0.0
 30
0.0
 70
   128
 71
    52
 72
    51
 73
    50
  0
VERTEX
  5
FC
  8
0
 62
     9
 10
0.0
 20
0.0
 30
0.0
 70
   128
 71
    55
 72
    54
 73
    53
  0
VERTEX
  5
FD
  8
0
 62
     9
 10
0.0
 20
0.0
 30
0.0
 70
   128
 71
    58
 72
    57
 73
    56
  0
VERTEX
  5
FE
  8
0
 62
     9
 10
0.0
 20
0.0
 30
0.0
 70
   128
 71
    61
 72
    60
 73
    59
  0
VERTEX
  5
FF
  8
0
 62
     9
 10
0.0
 20
0.0
 30
0.0
 70
   128
 71
    63
 72
    62
 73
    58
  0
VERTEX
  5
100
  8
0
 62
     9
 10
0.0
 20
0.0
 30
0.0
 70
   128
 71
    58
 72
    56
 73
    63
  0
VERTEX
  5
101
  8
0
 62
     9
 10
0.0
 20
0.0
 30
0.0
 70
   128
 71
    62
 72
    64
 73
    22
  0
VERTEX
  5
102
  8
0
 62
     9
 10
0.0
 20
0.0
 30
0.0
 70
   128
 71
    64
 72
    62
 73
    63
  0
VERTEX
  5
103
  8
0
 62
     9
 10
0.0
 20
0.0
 30
0.0
 70
   128
 71
    21
 72
    22
 73
    65
  0
VERTEX
  5
104
  8
0
 62
     9
 10
0.0
 20
0.0
 30
0.0
 70
   128
 71
    64
 72
    65
 73
    22
  0
VERTEX
  5
105
  8
0
 62
     9
 10
0.0
 20
0.0
 30
0.0
 70
   128
 71
    57
 72
    59
 73
    56
  0
VERTEX
  5
106
  8
0
 62
     9
 10
0.0
 20
0.0
 30
0.0
 70
   128
 71
    61
 72
    51
 73
    60
  0
VERTEX
  5
107
  8
0
 62
     9
 10
0.0
 20
0.0
 30
0.0
 70
   128
 71
    57
 72
    61
 73
    59
  0
VERTEX
  5
108
  8
0
 62
     9
 10
0.0
 20
0.0
 30
0.0
 70
   128
 71
    52
 72
    50
 73
    55
  0
VERTEX
  5
109
  8
0
 62
     9
 10
0.0
 20
0.0
 30
0.0
 70
   128
 71
    60
 72
    51
 73
    52
  0
VERTEX
  5
10A
  8
0
 62
     9
 10
0.0
 20
0.0
 30
0.0
 70
   128
 71
    53
 72
    54
 73
    44
  0
VERTEX
  5
10B
  8
0
 62
     9
 10
0.0
 20
0.0
 30
0.0
 70
   128
 71
    55
 72
    50
 73
    54
  0
VERTEX
  5
10C
  8
0
 62
     9
 10
0.0
 20
0.0
 30
0.0
 70
   128
 71
    48
 72
    45
 73
    46
  0
VERTEX
  5
10D
  8
0
 62
     9
 10
0.0
 20
0.0
 30
0.0
 70
   128
 71
    45
 72
    53
 73
    44
  0
VERTEX
  5
10E
  8
0
 62
     9
 10
0.0
 20
0.0
 30
0.0
 70
   128
 71
    41
 72
    49
 73
    47
  0
VERTEX
  5
10F
  8
0
 62
     9
 10
0.0
 20
0.0
 30
0.0
 70
   128
 71
    47
 72
    48
 73
    46
  0
VERTEX
  5
110
  8
0
 62
     9
 10
0.0
 20
0.0
 30
0.0
 70
   128
 71
    43
 72
    40
 73
    42
  0
VERTEX
  5
111
  8
0
 62
     9
 10
0.0
 20
0.0
 30
0.0
 70
   128
 71
    41
 72
    42
 73
    49
  0
VERTEX
  5
112
  8
0
 62
     9
 10
0.0
 20
0.0
 30
0.0
 70
   128
 71
    39
 72
    66
 73
    38
  0
VERTEX
  5
113
  8
0
 62
     9
 10
0.0
 20
0.0
 30
0.0
 70
   128
 71
    43
 72
    39
 73
    40
  0
VERTEX
  5
114
  8
0
 62
     9
 10
0.0
 20
0.0
 30
0.0
 70
   128
 71
    68
 72
    33
 73
    67
  0
VERTEX
  5
115
  8
0
 62
     9
 10
0.0
 20
0.0
 30
0.0
 70
   128
 71
    71
 72
    70
 73
    69
  0
VERTEX
  5
116
  8
0
 62
     9
 10
0.0
 20
0.0
 30
0.0
 70
   128
 71
    74
 72
    73
 73
    72
  0
VERTEX
  5
117
  8
0
 62
     9
 10
0.0
 20
0.0
 30
0.0
 70
   128
 71
    77
 72
    76
 73
    75
  0
VERTEX
  5
118
  8
0
 62
     9
 10
0.0
 20
0.0
 30
0.0
 70
   128
 71
    80
 72
    79
 73
    78
  0
VERTEX
  5
119
  8
0
 62
     9
 10
0.0
 20
0.0
 30
0.0
 70
   128
 71
    81
 72
    76
 73
    21
  0
VERTEX
  5
11A
  8
0
 62
     9
 10
0.0
 20
0.0
 30
0.0
 70
   128
 71
    76
 72
    81
 73
    75
  0
VERTEX
  5
11B
  8
0
 62
     9
 10
0.0
 20
0.0
 30
0.0
 70
   128
 71
    81
 72
    21
 73
    65
  0
VERTEX
  5
11C
  8
0
 62
     9
 10
0.0
 20
0.0
 30
0.0
 70
   128
 71
    77
 72
    79
 73
    80
  0
VERTEX
  5
11D
  8
0
 62
     9
 10
0.0
 20
0.0
 30
0.0
 70
   128
 71
    77
 72
    75
 73
    79
  0
VERTEX
  5
11E
  8
0
 62
     9
 10
0.0
 20
0.0
 30
0.0
 70
   128
 71
    71
 72
    69
 73
    78
  0
VERTEX
  5
11F
  8
0
 62
     9
 10
0.0
 20
0.0
 30
0.0
 70
   128
 71
    69
 72
    80
 73
    78
  0
VERTEX
  5
120
  8
0
 62
     9
 10
0.0
 20
0.0
 30
0.0
 70
   128
 71
    74
 72
    72
 73
    70
  0
VERTEX
  5
121
  8
0
 62
     9
 10
0.0
 20
0.0
 30
0.0
 70
   128
 71
    74
 72
    70
 73
    71
  0
VERTEX
  5
122
  8
0
 62
     9
 10
0.0
 20
0.0
 30
0.0
 70
   128
 71
    73
 72
    68
 73
    67
  0
VERTEX
  5
123
  8
0
 62
     9
 10
0.0
 20
0.0
 30
0.0
 70
   128
 71
    73
 72
    67
 73
    72
  0
VERTEX
  5
124
  8
0
 62
     9
 10
0.0
 20
0.0
 30
0.0
 70
   128
 71
     3
 72
    83
 73
    82
  0
VERTEX
  5
125
  8
0
 62
     9
 10
0.0
 20
0.0
 30
0.0
 70
   128
 71
    86
 72
    85
 73
    84
  0
VERTEX
  5
126
  8
0
 62
     9
 10
0.0
 20
0.0
 30
0.0
 70
   128
 71
    66
 72
    87
 73
    38
  0
VERTEX
  5
127
  8
0
 62
     9
 10
0.0
 20
0.0
 30
0.0
 70
   128
 71
    66
 72
    86
 73
    87
  0
VERTEX
  5
128
  8
0
 62
     9
 10
0.0
 20
0.0
 30
0.0
 70
   128
 71
    85
 72
    83
 73
    84
  0
VERTEX
  5
129
  8
0
 62
     9
 10
0.0
 20
0.0
 30
0.0
 70
   128
 71
    86
 72
    84
 73
    87
  0
VERTEX
  5
12A
  8
0
 62
     9
 10
0.0
 20
0.0
 30
0.0
 70
   128
 71
    82
 72
     2
 73
     3
  0
VERTEX
  5
12B
  8
0
 62
     9
 10
0.0
 20
0.0
 30
0.0
 70
   128
 71
    85
 72
    82
 73
    83
  0
VERTEX
  5
12C
  8
0
 62
     9
 10
0.0
 20
0.0
 30
0.0
 70
   128
 71
    68
 72
    88
 73
    27
  0
VERTEX
  5
12D
  8
0
 62
     9
 10
0.0
 20
0.0
 30
0.0
 70
   128
 71
    91
 72
    90
 73
    89
  0
VERTEX
  5
12E
  8
0
 62
     9
 10
0.0
 20
0.0
 30
0.0
 70
   128
 71
    94
 72
    93
 73
    92
  0
VERTEX
  5
12F
  8
0
 62
     9
 10
0.0
 20
0.0
 30
0.0
 70
   128
 71
    97
 72
    96
 73
    95
  0
VERTEX
  5
130
  8
0
 62
     9
 10
0.0
 20
0.0
 30
0.0
 70
   128
 71
   100
 72
    99
 73
    98
  0
VERTEX
  5
131
  8
0
 62
     9
 10
0.0
 20
0.0
 30
0.0
 70
   128
 71
   103
 72
   102
 73
   101
  0
VERTEX
  5
132
  8
0
 62
     9
 10
0.0
 20
0.0
 30
0.0
 70
   128
 71
   106
 72
   105
 73
   104
  0
VERTEX
  5
133
  8
0
 62
     9
 10
0.0
 20
0.0
 30
0.0
 70
   128
 71
   109
 72
   108
 73
   107
  0
VERTEX
  5
134
  8
0
 62
     9
 10
0.0
 20
0.0
 30
0.0
 70
   128
 71
   110
 72
   107
 73
   108
  0
VERTEX
  5
135
  8
0
 62
     9
 10
0.0
 20
0.0
 30
0.0
 70
   128
 71
   109
 72
   112
 73
   111
  0
VERTEX
  5
136
  8
0
 62
     9
 10
0.0
 20
0.0
 30
0.0
 70
   128
 71
   111
 72
   108
 73
   109
  0
VERTEX
  5
137
  8
0
 62
     9
 10
0.0
 20
0.0
 30
0.0
 70
   128
 71
   113
 72
   112
 73
     9
  0
VERTEX
  5
138
  8
0
 62
     9
 10
0.0
 20
0.0
 30
0.0
 70
   128
 71
   112
 72
   113
 73
   111
  0
VERTEX
  5
139
  8
0
 62
     9
 10
0.0
 20
0.0
 30
0.0
 70
   128
 71
   113
 72
     9
 73
    10
  0
VERTEX
  5
13A
  8
0
 62
     9
 10
0.0
 20
0.0
 30
0.0
 70
   128
 71
   102
 72
   103
 73
   110
  0
VERTEX
  5
13B
  8
0
 62
     9
 10
0.0
 20
0.0
 30
0.0
 70
   128
 71
   110
 72
   103
 73
   107
  0
VERTEX
  5
13C
  8
0
 62
     9
 10
0.0
 20
0.0
 30
0.0
 70
   128
 71
   101
 72
   106
 73
   104
  0
VERTEX
  5
13D
  8
0
 62
     9
 10
0.0
 20
0.0
 30
0.0
 70
   128
 71
   102
 72
   106
 73
   101
  0
VERTEX
  5
13E
  8
0
 62
     9
 10
0.0
 20
0.0
 30
0.0
 70
   128
 71
    96
 72
   105
 73
    95
  0
VERTEX
  5
13F
  8
0
 62
     9
 10
0.0
 20
0.0
 30
0.0
 70
   128
 71
   104
 72
   105
 73
    96
  0
VERTEX
  5
140
  8
0
 62
     9
 10
0.0
 20
0.0
 30
0.0
 70
   128
 71
   100
 72
    97
 73
    99
  0
VERTEX
  5
141
  8
0
 62
     9
 10
0.0
 20
0.0
 30
0.0
 70
   128
 71
    97
 72
    95
 73
    99
  0
VERTEX
  5
142
  8
0
 62
     9
 10
0.0
 20
0.0
 30
0.0
 70
   128
 71
    91
 72
    89
 73
    98
  0
VERTEX
  5
143
  8
0
 62
     9
 10
0.0
 20
0.0
 30
0.0
 70
   128
 71
    89
 72
   100
 73
    98
  0
VERTEX
  5
144
  8
0
 62
     9
 10
0.0
 20
0.0
 30
0.0
 70
   128
 71
    94
 72
    92
 73
    90
  0
VERTEX
  5
145
  8
0
 62
     9
 10
0.0
 20
0.0
 30
0.0
 70
   128
 71
    94
 72
    90
 73
    91
  0
VERTEX
  5
146
  8
0
 62
     9
 10
0.0
 20
0.0
 30
0.0
 70
   128
 71
    93
 72
    27
 73
    88
  0
VERTEX
  5
147
  8
0
 62
     9
 10
0.0
 20
0.0
 30
0.0
 70
   128
 71
    93
 72
    88
 73
    92
  0
VERTEX
  5
148
  8
0
 62
     9
 10
0.0
 20
0.0
 30
0.0
 70
   128
 71
    27
 72
    33
 73
    68
  0
VERTEX
  5
149
  8
0
 62
     9
 10
0.0
 20
0.0
 30
0.0
 70
   128
 71
   116
 72
   115
 73
   114
  0
VERTEX
  5
14A
  8
0
 62
     9
 10
0.0
 20
0.0
 30
0.0
 70
   128
 71
   115
 72
   117
 73
    85
  0
VERTEX
  5
14B
  8
0
 62
     9
 10
0.0
 20
0.0
 30
0.0
 70
   128
 71
   120
 72
   119
 73
   118
  0
VERTEX
  5
14C
  8
0
 62
     9
 10
0.0
 20
0.0
 30
0.0
 70
   128
 71
   122
 72
   117
 73
   121
  0
VERTEX
  5
14D
  8
0
 62
     9
 10
0.0
 20
0.0
 30
0.0
 70
   128
 71
    10
 72
     8
 73
   123
  0
VERTEX
  5
14E
  8
0
 62
     9
 10
0.0
 20
0.0
 30
0.0
 70
   128
 71
     6
 72
   124
 73
     8
  0
VERTEX
  5
14F
  8
0
 62
     9
 10
0.0
 20
0.0
 30
0.0
 70
   128
 71
   124
 72
   125
 73
   123
  0
VERTEX
  5
150
  8
0
 62
     9
 10
0.0
 20
0.0
 30
0.0
 70
   128
 71
     8
 72
   124
 73
   123
  0
VERTEX
  5
151
  8
0
 62
     9
 10
0.0
 20
0.0
 30
0.0
 70
   128
 71
   124
 72
   119
 73
   126
  0
VERTEX
  5
152
  8
0
 62
     9
 10
0.0
 20
0.0
 30
0.0
 70
   128
 71
   120
 72
   118
 73
   122
  0
VERTEX
  5
153
  8
0
 62
     9
 10
0.0
 20
0.0
 30
0.0
 70
   128
 71
   126
 72
   119
 73
   120
  0
VERTEX
  5
154
  8
0
 62
     9
 10
0.0
 20
0.0
 30
0.0
 70
   128
 71
   117
 72
   122
 73
   118
  0
VERTEX
  5
155
  8
0
 62
     9
 10
0.0
 20
0.0
 30
0.0
 70
   128
 71
    82
 72
   117
 73
   118
  0
VERTEX
  5
156
  8
0
 62
     9
 10
0.0
 20
0.0
 30
0.0
 70
   128
 71
   116
 72
   121
 73
   117
  0
VERTEX
  5
157
  8
0
 62
     9
 10
0.0
 20
0.0
 30
0.0
 70
   128
 71
   115
 72
   116
 73
   117
  0
VERTEX
  5
158
  8
0
 62
     9
 10
0.0
 20
0.0
 30
0.0
 70
   128
 71
   127
 72
    86
 73
    66
  0
VERTEX
  5
159
  8
0
 62
     9
 10
0.0
 20
0.0
 30
0.0
 70
   128
 71
     4
 72
   119
 73
     6
  0
VERTEX
  5
15A
  8
0
 62
     9
 10
0.0
 20
0.0
 30
0.0
 70
   128
 71
   124
 72
   126
 73
   125
  0
VERTEX
  5
15B
  8
0
 62
     9
 10
0.0
 20
0.0
 30
0.0
 70
   128
 71
   119
 72
   124
 73
     6
  0
VERTEX
  5
15C
  8
0
 62
     9
 10
0.0
 20
0.0
 30
0.0
 70
   128
 71
   119
 72
     4
 73
     2
  0
VERTEX
  5
15D
  8
0
 62
     9
 10
0.0
 20
0.0
 30
0.0
 70
   128
 71
     2
 72
   118
 73
   119
  0
VERTEX
  5
15E
  8
0
 62
     9
 10
0.0
 20
0.0
 30
0.0
 70
   128
 71
   118
 72
     2
 73
    82
  0
VERTEX
  5
15F
  8
0
 62
     9
 10
0.0
 20
0.0
 30
0.0
 70
   128
 71
    85
 72
   117
 73
    82
  0
VERTEX
  5
160
  8
0
 62
     9
 10
0.0
 20
0.0
 30
0.0
 70
   128
 71
    86
 72
   115
 73
    85
  0
VERTEX
  5
161
  8
0
 62
     9
 10
0.0
 20
0.0
 30
0.0
 70
   128
 71
   127
 72
   115
 73
    86
  0
VERTEX
  5
162
  8
0
 62
     9
 10
0.0
 20
0.0
 30
0.0
 70
   128
 71
   115
 72
   127
 73
   114
  0
VERTEX
  5
163
  8
0
 62
     9
 10
0.0
 20
0.0
 30
0.0
 70
   128
 71
   128
 72
    23
 73
    16
  0
VERTEX
  5
164
  8
0
 62
     9
 10
0.0
 20
0.0
 30
0.0
 70
   128
 71
    43
 72
    41
 73
   127
  0
VERTEX
  5
165
  8
0
 62
     9
 10
0.0
 20
0.0
 30
0.0
 70
   128
 71
    24
 72
    61
 73
    25
  0
VERTEX
  5
166
  8
0
 62
     9
 10
0.0
 20
0.0
 30
0.0
 70
   128
 71
   131
 72
   130
 73
   129
  0
VERTEX
  5
167
  8
0
 62
     9
 10
0.0
 20
0.0
 30
0.0
 70
   128
 71
    66
 72
    39
 73
   127
  0
VERTEX
  5
168
  8
0
 62
     9
 10
0.0
 20
0.0
 30
0.0
 70
   128
 71
    39
 72
    43
 73
   127
  0
VERTEX
  5
169
  8
0
 62
     9
 10
0.0
 20
0.0
 30
0.0
 70
   128
 71
    47
 72
    46
 73
   132
  0
VERTEX
  5
16A
  8
0
 62
     9
 10
0.0
 20
0.0
 30
0.0
 70
   128
 71
    47
 72
   127
 73
    41
  0
VERTEX
  5
16B
  8
0
 62
     9
 10
0.0
 20
0.0
 30
0.0
 70
   128
 71
    50
 72
   132
 73
    54
  0
VERTEX
  5
16C
  8
0
 62
     9
 10
0.0
 20
0.0
 30
0.0
 70
   128
 71
    44
 72
   132
 73
    46
  0
VERTEX
  5
16D
  8
0
 62
     9
 10
0.0
 20
0.0
 30
0.0
 70
   128
 71
    51
 72
    24
 73
   132
  0
VERTEX
  5
16E
  8
0
 62
     9
 10
0.0
 20
0.0
 30
0.0
 70
   128
 71
    44
 72
    54
 73
   132
  0
VERTEX
  5
16F
  8
0
 62
     9
 10
0.0
 20
0.0
 30
0.0
 70
   128
 71
    57
 72
    25
 73
    61
  0
VERTEX
  5
170
  8
0
 62
     9
 10
0.0
 20
0.0
 30
0.0
 70
   128
 71
    61
 72
    24
 73
    51
  0
VERTEX
  5
171
  8
0
 62
     9
 10
0.0
 20
0.0
 30
0.0
 70
   128
 71
   132
 72
    23
 73
   128
  0
VERTEX
  5
172
  8
0
 62
     9
 10
0.0
 20
0.0
 30
0.0
 70
   128
 71
    51
 72
   132
 73
    50
  0
VERTEX
  5
173
  8
0
 62
     9
 10
0.0
 20
0.0
 30
0.0
 70
   128
 71
    62
 72
    25
 73
    58
  0
VERTEX
  5
174
  8
0
 62
     9
 10
0.0
 20
0.0
 30
0.0
 70
   128
 71
    25
 72
    57
 73
    58
  0
VERTEX
  5
175
  8
0
 62
     9
 10
0.0
 20
0.0
 30
0.0
 70
   128
 71
    22
 72
    25
 73
    62
  0
VERTEX
  5
176
  8
0
 62
     9
 10
0.0
 20
0.0
 30
0.0
 70
   128
 71
   114
 72
   127
 73
   132
  0
VERTEX
  5
177
  8
0
 62
     9
 10
0.0
 20
0.0
 30
0.0
 70
   128
 71
   129
 72
   130
 73
   128
  0
VERTEX
  5
178
  8
0
 62
     9
 10
0.0
 20
0.0
 30
0.0
 70
   128
 71
   114
 72
   132
 73
   128
  0
VERTEX
  5
179
  8
0
 62
     9
 10
0.0
 20
0.0
 30
0.0
 70
   128
 71
   128
 72
    14
 73
   129
  0
VERTEX
  5
17A
  8
0
 62
     9
 10
0.0
 20
0.0
 30
0.0
 70
   128
 71
    16
 72
    14
 73
   128
  0
VERTEX
  5
17B
  8
0
 62
     9
 10
0.0
 20
0.0
 30
0.0
 70
   128
 71
   128
 72
   130
 73
   114
  0
VERTEX
  5
17C
  8
0
 62
     9
 10
0.0
 20
0.0
 30
0.0
 70
   128
 71
    47
 72
   132
 73
   127
  0
VERTEX
  5
17D
  8
0
 62
     9
 10
0.0
 20
0.0
 30
0.0
 70
   128
 71
    23
 72
   132
 73
    24
  0
VERTEX
  5
17E
  8
0
 62
     9
 10
0.0
 20
0.0
 30
0.0
 70
   128
 71
    91
 72
    98
 73
    26
  0
VERTEX
  5
17F
  8
0
 62
     9
 10
0.0
 20
0.0
 30
0.0
 70
   128
 71
    30
 72
   133
 73
    14
  0
VERTEX
  5
180
  8
0
 62
     9
 10
0.0
 20
0.0
 30
0.0
 70
   128
 71
    35
 72
   133
 73
    30
  0
VERTEX
  5
181
  8
0
 62
     9
 10
0.0
 20
0.0
 30
0.0
 70
   128
 71
    14
 72
   133
 73
   129
  0
VERTEX
  5
182
  8
0
 62
     9
 10
0.0
 20
0.0
 30
0.0
 70
   128
 71
   134
 72
   133
 73
    35
  0
VERTEX
  5
183
  8
0
 62
     9
 10
0.0
 20
0.0
 30
0.0
 70
   128
 71
   131
 72
   129
 73
   135
  0
VERTEX
  5
184
  8
0
 62
     9
 10
0.0
 20
0.0
 30
0.0
 70
   128
 71
    31
 72
    99
 73
   134
  0
VERTEX
  5
185
  8
0
 62
     9
 10
0.0
 20
0.0
 30
0.0
 70
   128
 71
   125
 72
   135
 73
   133
  0
VERTEX
  5
186
  8
0
 62
     9
 10
0.0
 20
0.0
 30
0.0
 70
   128
 71
    93
 72
    94
 73
    26
  0
VERTEX
  5
187
  8
0
 62
     9
 10
0.0
 20
0.0
 30
0.0
 70
   128
 71
    91
 72
    26
 73
    94
  0
VERTEX
  5
188
  8
0
 62
     9
 10
0.0
 20
0.0
 30
0.0
 70
   128
 71
    27
 72
    93
 73
    26
  0
VERTEX
  5
189
  8
0
 62
     9
 10
0.0
 20
0.0
 30
0.0
 70
   128
 71
    99
 72
    31
 73
    98
  0
VERTEX
  5
18A
  8
0
 62
     9
 10
0.0
 20
0.0
 30
0.0
 70
   128
 71
    31
 72
    26
 73
    98
  0
VERTEX
  5
18B
  8
0
 62
     9
 10
0.0
 20
0.0
 30
0.0
 70
   128
 71
   105
 72
   134
 73
    95
  0
VERTEX
  5
18C
  8
0
 62
     9
 10
0.0
 20
0.0
 30
0.0
 70
   128
 71
   134
 72
    99
 73
    95
  0
VERTEX
  5
18D
  8
0
 62
     9
 10
0.0
 20
0.0
 30
0.0
 70
   128
 71
   102
 72
   134
 73
   106
  0
VERTEX
  5
18E
  8
0
 62
     9
 10
0.0
 20
0.0
 30
0.0
 70
   128
 71
   134
 72
   105
 73
   106
  0
VERTEX
  5
18F
  8
0
 62
     9
 10
0.0
 20
0.0
 30
0.0
 70
   128
 71
   134
 72
   110
 73
   123
  0
VERTEX
  5
190
  8
0
 62
     9
 10
0.0
 20
0.0
 30
0.0
 70
   128
 71
   110
 72
   134
 73
   102
  0
VERTEX
  5
191
  8
0
 62
     9
 10
0.0
 20
0.0
 30
0.0
 70
   128
 71
   123
 72
   108
 73
   111
  0
VERTEX
  5
192
  8
0
 62
     9
 10
0.0
 20
0.0
 30
0.0
 70
   128
 71
   110
 72
   108
 73
   123
  0
VERTEX
  5
193
  8
0
 62
     9
 10
0.0
 20
0.0
 30
0.0
 70
   128
 71
   123
 72
   113
 73
    10
  0
VERTEX
  5
194
  8
0
 62
     9
 10
0.0
 20
0.0
 30
0.0
 70
   128
 71
   111
 72
   113
 73
   123
  0
VERTEX
  5
195
  8
0
 62
     9
 10
0.0
 20
0.0
 30
0.0
 70
   128
 71
   134
 72
   123
 73
   125
  0
VERTEX
  5
196
  8
0
 62
     9
 10
0.0
 20
0.0
 30
0.0
 70
   128
 71
    31
 72
   134
 73
    35
  0
VERTEX
  5
197
  8
0
 62
     9
 10
0.0
 20
0.0
 30
0.0
 70
   128
 71
   133
 72
   134
 73
   125
  0
VERTEX
  5
198
  8
0
 62
     9
 10
0.0
 20
0.0
 30
0.0
 70
   128
 71
   133
 72
   135
 73
   129
  0
VERTEX
  5
199
  8
0
 62
     9
 10
0.0
 20
0.0
 30
0.0
 70
   128
 71
    79
 72
    75
 73
    68
  0
VERTEX
  5
19A
  8
0
 62
     9
 10
0.0
 20
0.0
 30
0.0
 70
   128
 71
    78
 72
    73
 73
    71
  0
VERTEX
  5
19B
  8
0
 62
     9
 10
0.0
 20
0.0
 30
0.0
 70
   128
 71
    74
 72
    71
 73
    73
  0
VERTEX
  5
19C
  8
0
 62
     9
 10
0.0
 20
0.0
 30
0.0
 70
   128
 71
    78
 72
    79
 73
    68
  0
VERTEX
  5
19D
  8
0
 62
     9
 10
0.0
 20
0.0
 30
0.0
 70
   128
 71
    68
 72
    73
 73
    78
  0
VERTEX
  5
19E
  8
0
 62
     9
 10
0.0
 20
0.0
 30
0.0
 70
   128
 71
    75
 72
    81
 73
    68
  0
VERTEX
  5
19F
  8
0
 62
     9
 10
0.0
 20
0.0
 30
0.0
 70
   128
 71
    65
 72
    68
 73
    81
  0
VERTEX
  5
1A0
  8
0
 62
     9
 10
0.0
 20
0.0
 30
0.0
 70
   128
 71
    90
 72
    92
 73
    63
  0
VERTEX
  5
1A1
  8
0
 62
     9
 10
0.0
 20
0.0
 30
0.0
 70
   128
 71
    88
 72
    65
 73
    64
  0
VERTEX
  5
1A2
  8
0
 62
     9
 10
0.0
 20
0.0
 30
0.0
 70
   128
 71
   100
 72
    60
 73
    97
  0
VERTEX
  5
1A3
  8
0
 62
     9
 10
0.0
 20
0.0
 30
0.0
 70
   128
 71
    56
 72
    59
 73
    89
  0
VERTEX
  5
1A4
  8
0
 62
     9
 10
0.0
 20
0.0
 30
0.0
 70
   128
 71
    53
 72
   101
 73
   104
  0
VERTEX
  5
1A5
  8
0
 62
     9
 10
0.0
 20
0.0
 30
0.0
 70
   128
 71
    55
 72
    96
 73
    52
  0
VERTEX
  5
1A6
  8
0
 62
     9
 10
0.0
 20
0.0
 30
0.0
 70
   128
 71
   109
 72
   107
 73
    49
  0
VERTEX
  5
1A7
  8
0
 62
     9
 10
0.0
 20
0.0
 30
0.0
 70
   128
 71
   103
 72
    45
 73
    48
  0
VERTEX
  5
1A8
  8
0
 62
     9
 10
0.0
 20
0.0
 30
0.0
 70
   128
 71
     9
 72
    40
 73
    38
  0
VERTEX
  5
1A9
  8
0
 62
     9
 10
0.0
 20
0.0
 30
0.0
 70
   128
 71
   109
 72
    42
 73
   112
  0
VERTEX
  5
1AA
  8
0
 62
     9
 10
0.0
 20
0.0
 30
0.0
 70
   128
 71
    38
 72
     3
 73
     1
  0
VERTEX
  5
1AB
  8
0
 62
     9
 10
0.0
 20
0.0
 30
0.0
 70
   128
 71
     7
 72
    38
 73
     5
  0
VERTEX
  5
1AC
  8
0
 62
     9
 10
0.0
 20
0.0
 30
0.0
 70
   128
 71
    84
 72
    83
 73
    87
  0
VERTEX
  5
1AD
  8
0
 62
     9
 10
0.0
 20
0.0
 30
0.0
 70
   128
 71
    83
 72
     3
 73
    87
  0
VERTEX
  5
1AE
  8
0
 62
     9
 10
0.0
 20
0.0
 30
0.0
 70
   128
 71
    38
 72
     1
 73
     5
  0
VERTEX
  5
1AF
  8
0
 62
     9
 10
0.0
 20
0.0
 30
0.0
 70
   128
 71
    87
 72
     3
 73
    38
  0
VERTEX
  5
1B0
  8
0
 62
     9
 10
0.0
 20
0.0
 30
0.0
 70
   128
 71
     7
 72
     9
 73
    38
  0
VERTEX
  5
1B1
  8
0
 62
     9
 10
0.0
 20
0.0
 30
0.0
 70
   128
 71
   112
 72
    42
 73
    40
  0
VERTEX
  5
1B2
  8
0
 62
     9
 10
0.0
 20
0.0
 30
0.0
 70
   128
 71
     9
 72
   112
 73
    40
  0
VERTEX
  5
1B3
  8
0
 62
     9
 10
0.0
 20
0.0
 30
0.0
 70
   128
 71
    48
 72
    49
 73
   107
  0
VERTEX
  5
1B4
  8
0
 62
     9
 10
0.0
 20
0.0
 30
0.0
 70
   128
 71
    42
 72
   109
 73
    49
  0
VERTEX
  5
1B5
  8
0
 62
     9
 10
0.0
 20
0.0
 30
0.0
 70
   128
 71
    55
 72
    53
 73
   104
  0
VERTEX
  5
1B6
  8
0
 62
     9
 10
0.0
 20
0.0
 30
0.0
 70
   128
 71
   107
 72
   103
 73
    48
  0
VERTEX
  5
1B7
  8
0
 62
     9
 10
0.0
 20
0.0
 30
0.0
 70
   128
 71
    45
 72
   101
 73
    53
  0
VERTEX
  5
1B8
  8
0
 62
     9
 10
0.0
 20
0.0
 30
0.0
 70
   128
 71
   101
 72
    45
 73
   103
  0
VERTEX
  5
1B9
  8
0
 62
     9
 10
0.0
 20
0.0
 30
0.0
 70
   128
 71
    96
 72
    97
 73
    52
  0
VERTEX
  5
1BA
  8
0
 62
     9
 10
0.0
 20
0.0
 30
0.0
 70
   128
 71
   104
 72
    96
 73
    55
  0
VERTEX
  5
1BB
  8
0
 62
     9
 10
0.0
 20
0.0
 30
0.0
 70
   128
 71
    52
 72
    97
 73
    60
  0
VERTEX
  5
1BC
  8
0
 62
     9
 10
0.0
 20
0.0
 30
0.0
 70
   128
 71
    90
 72
    56
 73
    89
  0
VERTEX
  5
1BD
  8
0
 62
     9
 10
0.0
 20
0.0
 30
0.0
 70
   128
 71
    59
 72
    60
 73
   100
  0
VERTEX
  5
1BE
  8
0
 62
     9
 10
0.0
 20
0.0
 30
0.0
 70
   128
 71
    89
 72
    59
 73
   100
  0
VERTEX
  5
1BF
  8
0
 62
     9
 10
0.0
 20
0.0
 30
0.0
 70
   128
 71
    92
 72
    64
 73
    63
  0
VERTEX
  5
1C0
  8
0
 62
     9
 10
0.0
 20
0.0
 30
0.0
 70
   128
 71
    90
 72
    63
 73
    56
  0
VERTEX
  5
1C1
  8
0
 62
     9
 10
0.0
 20
0.0
 30
0.0
 70
   128
 71
    88
 72
    68
 73
    65
  0
VERTEX
  5
1C2
  8
0
 62
     9
 10
0.0
 20
0.0
 30
0.0
 70
   128
 71
    92
 72
    88
 73
    64
  0
VERTEX
  5
1C3
  8
0
 62
     9
 10
0.0
 20
0.0
 30
0.0
 70
   128
 71
   137
 72
    32
 73
   136
  0
VERTEX
  5
1C4
  8
0
 62
     9
 10
0.0
 20
0.0
 30
0.0
 70
   128
 71
    19
 72
    18
 73
   138
  0
VERTEX
  5
1C5
  8
0
 62
     9
 10
0.0
 20
0.0
 30
0.0
 70
   128
 71
   136
 72
    32
 73
    19
  0
VERTEX
  5
1C6
  8
0
 62
     9
 10
0.0
 20
0.0
 30
0.0
 70
   128
 71
   139
 72
    18
 73
    17
  0
VERTEX
  5
1C7
  8
0
 62
     9
 10
0.0
 20
0.0
 30
0.0
 70
   128
 71
    18
 72
   139
 73
   138
  0
VERTEX
  5
1C8
  8
0
 62
     9
 10
0.0
 20
0.0
 30
0.0
 70
   128
 71
    19
 72
   138
 73
   136
  0
VERTEX
  5
1C9
  8
0
 62
     9
 10
0.0
 20
0.0
 30
0.0
 70
   128
 71
    12
 72
    21
 73
   140
  0
VERTEX
  5
1CA
  8
0
 62
     9
 10
0.0
 20
0.0
 30
0.0
 70
   128
 71
   139
 72
    17
 73
    12
  0
VERTEX
  5
1CB
  8
0
 62
     9
 10
0.0
 20
0.0
 30
0.0
 70
   128
 71
   139
 72
    12
 73
   140
  0
VERTEX
  5
1CC
  8
0
 62
     9
 10
0.0
 20
0.0
 30
0.0
 70
   128
 71
   137
 72
    36
 73
    32
  0
VERTEX
  5
1CD
  8
0
 62
     9
 10
0.0
 20
0.0
 30
0.0
 70
   128
 71
   137
 72
   141
 73
    37
  0
VERTEX
  5
1CE
  8
0
 62
     9
 10
0.0
 20
0.0
 30
0.0
 70
   128
 71
    37
 72
    36
 73
   137
  0
VERTEX
  5
1CF
  8
0
 62
     9
 10
0.0
 20
0.0
 30
0.0
 70
   128
 71
   141
 72
    33
 73
    37
  0
VERTEX
  5
1D0
  8
0
 62
     9
 10
0.0
 20
0.0
 30
0.0
 70
   128
 71
    21
 72
    76
 73
   140
  0
VERTEX
  5
1D1
  8
0
 62
     9
 10
0.0
 20
0.0
 30
0.0
 70
   128
 71
    70
 72
   142
 73
    69
  0
VERTEX
  5
1D2
  8
0
 62
     9
 10
0.0
 20
0.0
 30
0.0
 70
   128
 71
   144
 72
    77
 73
   143
  0
VERTEX
  5
1D3
  8
0
 62
     9
 10
0.0
 20
0.0
 30
0.0
 70
   128
 71
   142
 72
    70
 73
   145
  0
VERTEX
  5
1D4
  8
0
 62
     9
 10
0.0
 20
0.0
 30
0.0
 70
   128
 71
   143
 72
    80
 73
   142
  0
VERTEX
  5
1D5
  8
0
 62
     9
 10
0.0
 20
0.0
 30
0.0
 70
   128
 71
   146
 72
    72
 73
    67
  0
VERTEX
  5
1D6
  8
0
 62
     9
 10
0.0
 20
0.0
 30
0.0
 70
   128
 71
    72
 72
   146
 73
   145
  0
VERTEX
  5
1D7
  8
0
 62
     9
 10
0.0
 20
0.0
 30
0.0
 70
   128
 71
    33
 72
   141
 73
    67
  0
VERTEX
  5
1D8
  8
0
 62
     9
 10
0.0
 20
0.0
 30
0.0
 70
   128
 71
   146
 72
    67
 73
   141
  0
VERTEX
  5
1D9
  8
0
 62
     9
 10
0.0
 20
0.0
 30
0.0
 70
   128
 71
    72
 72
   145
 73
    70
  0
VERTEX
  5
1DA
  8
0
 62
     9
 10
0.0
 20
0.0
 30
0.0
 70
   128
 71
   144
 72
   140
 73
    76
  0
VERTEX
  5
1DB
  8
0
 62
     9
 10
0.0
 20
0.0
 30
0.0
 70
   128
 71
   144
 72
    76
 73
    77
  0
VERTEX
  5
1DC
  8
0
 62
     9
 10
0.0
 20
0.0
 30
0.0
 70
   128
 71
    77
 72
    80
 73
   143
  0
VERTEX
  5
1DD
  8
0
 62
     9
 10
0.0
 20
0.0
 30
0.0
 70
   128
 71
   142
 72
    80
 73
    69
  0
VERTEX
  5
1DE
  8
0
 62
     9
 10
0.0
 20
0.0
 30
0.0
 70
   128
 71
   139
 72
   140
 73
   138
  0
VERTEX
  5
1DF
  8
0
 62
     9
 10
0.0
 20
0.0
 30
0.0
 70
   128
 71
   143
 72
   141
 73
   137
  0
VERTEX
  5
1E0
  8
0
 62
     9
 10
0.0
 20
0.0
 30
0.0
 70
   128
 71
   140
 72
   136
 73
   138
  0
VERTEX
  5
1E1
  8
0
 62
     9
 10
0.0
 20
0.0
 30
0.0
 70
   128
 71
   140
 72
   144
 73
   136
  0
VERTEX
  5
1E2
  8
0
 62
     9
 10
0.0
 20
0.0
 30
0.0
 70
   128
 71
   144
 72
   143
 73
   137
  0
VERTEX
  5
1E3
  8
0
 62
     9
 10
0.0
 20
0.0
 30
0.0
 70
   128
 71
   137
 72
   136
 73
   144
  0
VERTEX
  5
1E4
  8
0
 62
     9
 10
0.0
 20
0.0
 30
0.0
 70
   128
 71
   142
 72
   141
 73
   143
  0
VERTEX
  5
1E5
  8
0
 62
     9
 10
0.0
 20
0.0
 30
0.0
 70
   128
 71
   142
 72
   146
 73
   141
  0
VERTEX
  5
1E6
  8
0
 62
     9
 10
0.0
 20
0.0
 30
0.0
 70
   128
 71
   145
 72
   146
 73
   142
  0
SEQEND
  5
1E7
  8
0
 62
     9
  0
ENDBLK
  5
1EB
  8
0
  0
BLOCK
  8
0
  2
39
 70
     0
 10
0.0
 20
0.0
 30
0.0
  3
39
  1

  0
POLYLINE
  5
1ED
  8
0
 62
     9
 66
     1
 10
0.0
 20
0.0
 30
0.0
 70
    64
 71
    64
 72
   102
  0
VERTEX
  5
1EE
  8
0
 10
109.6219024658203
 20
4.11639404296875
 30
59.49408721923828
 70
   192
  0
VERTEX
  5
1EF
  8
0
 10
110.7937469482422
 20
3.049630641937256
 30
60.56572341918945
 70
   192
  0
VERTEX
  5
1F0
  8
0
 10
109.6911392211914
 20
5.898684024810791
 30
60.16440963745117
 70
   192
  0
VERTEX
  5
1F1
  8
0
 10
107.428092956543
 20
7.605684280395508
 30
58.69560241699219
 70
   192
  0
VERTEX
  5
1F2
  8
0
 10
105.6305770874023
 20
10.22344779968262
 30
58.68648529052734
 70
   192
  0
VERTEX
  5
1F3
  8
0
 10
104.1500396728516
 20
9.934181213378906
 30
57.50249099731445
 70
   192
  0
VERTEX
  5
1F4
  8
0
 10
100.0828323364258
 20
11.80000019073486
 30
56.66727066040039
 70
   192
  0
VERTEX
  5
1F5
  8
0
 10
100.290168762207
 20
10.75
 30
56.09761428833008
 70
   192
  0
VERTEX
  5
1F6
  8
0
 10
102.9573440551758
 20
11.40279006958008
 30
57.71350860595703
 70
   192
  0
VERTEX
  5
1F7
  8
0
 10
107.925422668457
 20
8.350543975830078
 30
59.5217399597168
 70
   192
  0
VERTEX
  5
1F8
  8
0
 10
110.3906478881836
 20
0.0098714856430888
 30
59.77388381958008
 70
   192
  0
VERTEX
  5
1F9
  8
0
 10
111.1712036132812
 20
-0.0000000000000253
 30
60.70310974121094
 70
   192
  0
VERTEX
  5
1FA
  8
0
 10
109.623908996582
 20
-4.111163139343262
 30
59.49481582641602
 70
   192
  0
VERTEX
  5
1FB
  8
0
 10
110.7866363525391
 20
-3.062217950820923
 30
60.56313705444336
 70
   192
  0
VERTEX
  5
1FC
  8
0
 10
109.6732406616211
 20
-5.904160976409912
 30
60.15789413452148
 70
   192
  0
VERTEX
  5
1FD
  8
0
 10
107.4375534057617
 20
-7.595048427581787
 30
58.69904708862305
 70
   192
  0
VERTEX
  5
1FE
  8
0
 10
107.9137496948242
 20
-8.34127140045166
 30
59.51749038696289
 70
   192
  0
VERTEX
  5
1FF
  8
0
 10
105.6149673461914
 20
-10.21696376800537
 30
58.68080520629883
 70
   192
  0
VERTEX
  5
200
  8
0
 10
104.1611328125
 20
-9.929487228393555
 30
57.50652694702148
 70
   192
  0
VERTEX
  5
201
  8
0
 10
102.9440078735352
 20
-11.39362907409668
 30
57.70865249633789
 70
   192
  0
VERTEX
  5
202
  8
0
 10
100.290168762207
 20
-10.75
 30
56.09761428833008
 70
   192
  0
VERTEX
  5
203
  8
0
 10
100.0828323364258
 20
-11.80000019073486
 30
56.66727066040039
 70
   192
  0
VERTEX
  5
204
  8
0
 10
107.9841995239258
 20
3.062217950820923
 30
68.26277160644531
 70
   192
  0
VERTEX
  5
205
  8
0
 10
108.368766784668
 20
-0.0000000000000111
 30
68.40274810791016
 70
   192
  0
VERTEX
  5
206
  8
0
 10
106.8707962036133
 20
5.904160976409912
 30
67.85752868652344
 70
   192
  0
VERTEX
  5
207
  8
0
 10
105.1113052368164
 20
8.34127140045166
 30
67.21712493896484
 70
   192
  0
VERTEX
  5
208
  8
0
 10
102.8125305175781
 20
10.21696376800537
 30
66.38043975830078
 70
   192
  0
VERTEX
  5
209
  8
0
 10
100.1415710449219
 20
11.39362907409668
 30
65.40828704833984
 70
   192
  0
VERTEX
  5
20A
  8
0
 10
97.2803955078125
 20
11.80000019073486
 30
64.36690521240234
 70
   192
  0
VERTEX
  5
20B
  8
0
 10
107.9913101196289
 20
-3.049630641937256
 30
68.2653579711914
 70
   192
  0
VERTEX
  5
20C
  8
0
 10
106.8887023925781
 20
-5.898684024810791
 30
67.86404418945312
 70
   192
  0
VERTEX
  5
20D
  8
0
 10
105.1229858398438
 20
-8.350543975830078
 30
67.22137451171875
 70
   192
  0
VERTEX
  5
20E
  8
0
 10
102.8281402587891
 20
-10.22344779968262
 30
66.38612365722656
 70
   192
  0
VERTEX
  5
20F
  8
0
 10
100.1549072265625
 20
-11.40279006958008
 30
65.41314697265625
 70
   192
  0
VERTEX
  5
210
  8
0
 10
97.2803955078125
 20
-11.80000019073486
 30
64.36690521240234
 70
   192
  0
VERTEX
  5
211
  8
0
 10
94.40587615966797
 20
11.40279006958008
 30
63.32067108154297
 70
   192
  0
VERTEX
  5
212
  8
0
 10
97.20832061767578
 20
11.40279006958008
 30
55.62103271484375
 70
   192
  0
VERTEX
  5
213
  8
0
 10
86.5694808959961
 20
3.049630641937256
 30
60.46845245361328
 70
   192
  0
VERTEX
  5
214
  8
0
 10
90.47452545166016
 20
5.898684024810791
 30
53.17013549804688
 70
   192
  0
VERTEX
  5
215
  8
0
 10
87.67208862304688
 20
5.898684024810791
 30
60.86977005004883
 70
   192
  0
VERTEX
  5
216
  8
0
 10
94.53508758544922
 20
10.22344779968262
 30
54.6480598449707
 70
   192
  0
VERTEX
  5
217
  8
0
 10
91.73265075683594
 20
10.22344779968262
 30
62.34769439697266
 70
   192
  0
VERTEX
  5
218
  8
0
 10
89.43780517578125
 20
8.350543975830078
 30
61.5124397277832
 70
   192
  0
VERTEX
  5
219
  8
0
 10
86.57658386230469
 20
-3.062217950820923
 30
60.47103881835938
 70
   192
  0
VERTEX
  5
21A
  8
0
 10
87.68998718261719
 20
-5.904160976409912
 30
60.87628555297852
 70
   192
  0
VERTEX
  5
21B
  8
0
 10
89.3790283203125
 20
-3.062217950820923
 30
52.77140426635742
 70
   192
  0
VERTEX
  5
21C
  8
0
 10
89.37191772460938
 20
3.049630641937256
 30
52.76881790161133
 70
   192
  0
VERTEX
  5
21D
  8
0
 10
86.19202423095703
 20
0.0000000000000067
 30
60.33106994628906
 70
   192
  0
VERTEX
  5
21E
  8
0
 10
88.99446105957031
 20
-0.0000000000000053
 30
52.63143157958984
 70
   192
  0
VERTEX
  5
21F
  8
0
 10
89.44947814941406
 20
-8.34127140045166
 30
61.51668930053711
 70
   192
  0
VERTEX
  5
220
  8
0
 10
91.74825286865234
 20
-10.21696376800537
 30
62.35337448120117
 70
   192
  0
VERTEX
  5
221
  8
0
 10
92.25191497802734
 20
-8.34127140045166
 30
53.81705093383789
 70
   192
  0
VERTEX
  5
222
  8
0
 10
90.49242401123047
 20
-5.904160976409912
 30
53.1766471862793
 70
   192
  0
VERTEX
  5
223
  8
0
 10
94.41921997070312
 20
-11.39362907409668
 30
63.32552719116211
 70
   192
  0
VERTEX
  5
224
  8
0
 10
94.55069732666016
 20
-10.21696376800537
 30
54.65373611450195
 70
   192
  0
VERTEX
  5
225
  8
0
 10
97.2216567993164
 20
-11.39362907409668
 30
55.62588882446289
 70
   192
  0
VERTEX
  5
226
  8
0
 10
92.24024200439453
 20
8.350543975830078
 30
53.81280136108398
 70
   192
  0
VERTEX
  5
227
  8
0
 10
96.41814422607422
 20
9.928377151489258
 30
54.68830871582031
 70
   192
  0
VERTEX
  5
228
  8
0
 10
90.95641326904297
 20
4.1106858253479
 30
52.70040512084961
 70
   192
  0
VERTEX
  5
229
  8
0
 10
93.14339447021484
 20
7.596524715423584
 30
53.49639892578125
 70
   192
  0
VERTEX
  5
22A
  8
0
 10
93.15132904052734
 20
-7.605247974395752
 30
53.49928665161133
 70
   192
  0
VERTEX
  5
22B
  8
0
 10
90.18904113769531
 20
-0.0081027336418629
 30
52.42110443115234
 70
   192
  0
VERTEX
  5
22C
  8
0
 10
96.43196105957031
 20
-9.934139251708984
 30
54.69334030151367
 70
   192
  0
VERTEX
  5
22D
  8
0
 10
90.95903778076172
 20
-4.11706018447876
 30
52.70135879516602
 70
   192
  0
VERTEX
  5
22E
  8
0
 62
     9
 10
0.0
 20
0.0
 30
0.0
 70
   128
 71
     3
 72
     2
 73
     1
  0
VERTEX
  5
22F
  8
0
 62
     9
 10
0.0
 20
0.0
 30
0.0
 70
   128
 71
     3
 72
     1
 73
     4
  0
VERTEX
  5
230
  8
0
 62
     9
 10
0.0
 20
0.0
 30
0.0
 70
   128
 71
     6
 72
     5
 73
     4
  0
VERTEX
  5
231
  8
0
 62
     9
 10
0.0
 20
0.0
 30
0.0
 70
   128
 71
     9
 72
     8
 73
     7
  0
VERTEX
  5
232
  8
0
 62
     9
 10
0.0
 20
0.0
 30
0.0
 70
   128
 71
     5
 72
    10
 73
     4
  0
VERTEX
  5
233
  8
0
 62
     9
 10
0.0
 20
0.0
 30
0.0
 70
   128
 71
     6
 72
     8
 73
     9
  0
VERTEX
  5
234
  8
0
 62
     9
 10
0.0
 20
0.0
 30
0.0
 70
   128
 71
    10
 72
     3
 73
     4
  0
VERTEX
  5
235
  8
0
 62
     9
 10
0.0
 20
0.0
 30
0.0
 70
   128
 71
     5
 72
     6
 73
     9
  0
VERTEX
  5
236
  8
0
 62
     9
 10
0.0
 20
0.0
 30
0.0
 70
   128
 71
     2
 72
    12
 73
    11
  0
VERTEX
  5
237
  8
0
 62
     9
 10
0.0
 20
0.0
 30
0.0
 70
   128
 71
    11
 72
     1
 73
     2
  0
VERTEX
  5
238
  8
0
 62
     9
 10
0.0
 20
0.0
 30
0.0
 70
   128
 71
    11
 72
    14
 73
    13
  0
VERTEX
  5
239
  8
0
 62
     9
 10
0.0
 20
0.0
 30
0.0
 70
   128
 71
    14
 72
    11
 73
    12
  0
VERTEX
  5
23A
  8
0
 62
     9
 10
0.0
 20
0.0
 30
0.0
 70
   128
 71
    16
 72
    13
 73
    15
  0
VERTEX
  5
23B
  8
0
 62
     9
 10
0.0
 20
0.0
 30
0.0
 70
   128
 71
    14
 72
    15
 73
    13
  0
VERTEX
  5
23C
  8
0
 62
     9
 10
0.0
 20
0.0
 30
0.0
 70
   128
 71
    18
 72
    16
 73
    17
  0
VERTEX
  5
23D
  8
0
 62
     9
 10
0.0
 20
0.0
 30
0.0
 70
   128
 71
    16
 72
    15
 73
    17
  0
VERTEX
  5
23E
  8
0
 62
     9
 10
0.0
 20
0.0
 30
0.0
 70
   128
 71
    18
 72
    20
 73
    19
  0
VERTEX
  5
23F
  8
0
 62
     9
 10
0.0
 20
0.0
 30
0.0
 70
   128
 71
    19
 72
    16
 73
    18
  0
VERTEX
  5
240
  8
0
 62
     9
 10
0.0
 20
0.0
 30
0.0
 70
   128
 71
    20
 72
    21
 73
    19
  0
VERTEX
  5
241
  8
0
 62
     9
 10
0.0
 20
0.0
 30
0.0
 70
   128
 71
    20
 72
    22
 73
    21
  0
VERTEX
  5
242
  8
0
 62
     9
 10
0.0
 20
0.0
 30
0.0
 70
   128
 71
    24
 72
    12
 73
    23
  0
VERTEX
  5
243
  8
0
 62
     9
 10
0.0
 20
0.0
 30
0.0
 70
   128
 71
    25
 72
    23
 73
     2
  0
VERTEX
  5
244
  8
0
 62
     9
 10
0.0
 20
0.0
 30
0.0
 70
   128
 71
    12
 72
     2
 73
    23
  0
VERTEX
  5
245
  8
0
 62
     9
 10
0.0
 20
0.0
 30
0.0
 70
   128
 71
     3
 72
    26
 73
    25
  0
VERTEX
  5
246
  8
0
 62
     9
 10
0.0
 20
0.0
 30
0.0
 70
   128
 71
    25
 72
     2
 73
     3
  0
VERTEX
  5
247
  8
0
 62
     9
 10
0.0
 20
0.0
 30
0.0
 70
   128
 71
    26
 72
    10
 73
    27
  0
VERTEX
  5
248
  8
0
 62
     9
 10
0.0
 20
0.0
 30
0.0
 70
   128
 71
    10
 72
    26
 73
     3
  0
VERTEX
  5
249
  8
0
 62
     9
 10
0.0
 20
0.0
 30
0.0
 70
   128
 71
    28
 72
    27
 73
     5
  0
VERTEX
  5
24A
  8
0
 62
     9
 10
0.0
 20
0.0
 30
0.0
 70
   128
 71
    10
 72
     5
 73
    27
  0
VERTEX
  5
24B
  8
0
 62
     9
 10
0.0
 20
0.0
 30
0.0
 70
   128
 71
     9
 72
    29
 73
    28
  0
VERTEX
  5
24C
  8
0
 62
     9
 10
0.0
 20
0.0
 30
0.0
 70
   128
 71
    28
 72
     5
 73
     9
  0
VERTEX
  5
24D
  8
0
 62
     9
 10
0.0
 20
0.0
 30
0.0
 70
   128
 71
     7
 72
    29
 73
     9
  0
VERTEX
  5
24E
  8
0
 62
     9
 10
0.0
 20
0.0
 30
0.0
 70
   128
 71
    14
 72
    12
 73
    24
  0
VERTEX
  5
24F
  8
0
 62
     9
 10
0.0
 20
0.0
 30
0.0
 70
   128
 71
    30
 72
    15
 73
    14
  0
VERTEX
  5
250
  8
0
 62
     9
 10
0.0
 20
0.0
 30
0.0
 70
   128
 71
    14
 72
    24
 73
    30
  0
VERTEX
  5
251
  8
0
 62
     9
 10
0.0
 20
0.0
 30
0.0
 70
   128
 71
    15
 72
    31
 73
    17
  0
VERTEX
  5
252
  8
0
 62
     9
 10
0.0
 20
0.0
 30
0.0
 70
   128
 71
    31
 72
    15
 73
    30
  0
VERTEX
  5
253
  8
0
 62
     9
 10
0.0
 20
0.0
 30
0.0
 70
   128
 71
    18
 72
    17
 73
    32
  0
VERTEX
  5
254
  8
0
 62
     9
 10
0.0
 20
0.0
 30
0.0
 70
   128
 71
    31
 72
    32
 73
    17
  0
VERTEX
  5
255
  8
0
 62
     9
 10
0.0
 20
0.0
 30
0.0
 70
   128
 71
    33
 72
    20
 73
    18
  0
VERTEX
  5
256
  8
0
 62
     9
 10
0.0
 20
0.0
 30
0.0
 70
   128
 71
    18
 72
    32
 73
    33
  0
VERTEX
  5
257
  8
0
 62
     9
 10
0.0
 20
0.0
 30
0.0
 70
   128
 71
    20
 72
    34
 73
    22
  0
VERTEX
  5
258
  8
0
 62
     9
 10
0.0
 20
0.0
 30
0.0
 70
   128
 71
    34
 72
    20
 73
    33
  0
VERTEX
  5
259
  8
0
 62
     9
 10
0.0
 20
0.0
 30
0.0
 70
   128
 71
    34
 72
    35
 73
    22
  0
VERTEX
  5
25A
  8
0
 62
     9
 10
0.0
 20
0.0
 30
0.0
 70
   128
 71
     7
 72
    37
 73
    36
  0
VERTEX
  5
25B
  8
0
 62
     9
 10
0.0
 20
0.0
 30
0.0
 70
   128
 71
    40
 72
    39
 73
    38
  0
VERTEX
  5
25C
  8
0
 62
     9
 10
0.0
 20
0.0
 30
0.0
 70
   128
 71
    43
 72
    42
 73
    41
  0
VERTEX
  5
25D
  8
0
 62
     9
 10
0.0
 20
0.0
 30
0.0
 70
   128
 71
    46
 72
    45
 73
    44
  0
VERTEX
  5
25E
  8
0
 62
     9
 10
0.0
 20
0.0
 30
0.0
 70
   128
 71
    49
 72
    48
 73
    47
  0
VERTEX
  5
25F
  8
0
 62
     9
 10
0.0
 20
0.0
 30
0.0
 70
   128
 71
    52
 72
    51
 73
    50
  0
VERTEX
  5
260
  8
0
 62
     9
 10
0.0
 20
0.0
 30
0.0
 70
   128
 71
    50
 72
    45
 73
    53
  0
VERTEX
  5
261
  8
0
 62
     9
 10
0.0
 20
0.0
 30
0.0
 70
   128
 71
    51
 72
    55
 73
    54
  0
VERTEX
  5
262
  8
0
 62
     9
 10
0.0
 20
0.0
 30
0.0
 70
   128
 71
    55
 72
    51
 73
    52
  0
VERTEX
  5
263
  8
0
 62
     9
 10
0.0
 20
0.0
 30
0.0
 70
   128
 71
    35
 72
    54
 73
    56
  0
VERTEX
  5
264
  8
0
 62
     9
 10
0.0
 20
0.0
 30
0.0
 70
   128
 71
    55
 72
    56
 73
    54
  0
VERTEX
  5
265
  8
0
 62
     9
 10
0.0
 20
0.0
 30
0.0
 70
   128
 71
    35
 72
    56
 73
    22
  0
VERTEX
  5
266
  8
0
 62
     9
 10
0.0
 20
0.0
 30
0.0
 70
   128
 71
    45
 72
    46
 73
    53
  0
VERTEX
  5
267
  8
0
 62
     9
 10
0.0
 20
0.0
 30
0.0
 70
   128
 71
    52
 72
    50
 73
    53
  0
VERTEX
  5
268
  8
0
 62
     9
 10
0.0
 20
0.0
 30
0.0
 70
   128
 71
    49
 72
    44
 73
    48
  0
VERTEX
  5
269
  8
0
 62
     9
 10
0.0
 20
0.0
 30
0.0
 70
   128
 71
    46
 72
    44
 73
    49
  0
VERTEX
  5
26A
  8
0
 62
     9
 10
0.0
 20
0.0
 30
0.0
 70
   128
 71
    39
 72
    47
 73
    38
  0
VERTEX
  5
26B
  8
0
 62
     9
 10
0.0
 20
0.0
 30
0.0
 70
   128
 71
    47
 72
    48
 73
    38
  0
VERTEX
  5
26C
  8
0
 62
     9
 10
0.0
 20
0.0
 30
0.0
 70
   128
 71
    43
 72
    57
 73
    40
  0
VERTEX
  5
26D
  8
0
 62
     9
 10
0.0
 20
0.0
 30
0.0
 70
   128
 71
    57
 72
    39
 73
    40
  0
VERTEX
  5
26E
  8
0
 62
     9
 10
0.0
 20
0.0
 30
0.0
 70
   128
 71
    42
 72
    37
 73
    41
  0
VERTEX
  5
26F
  8
0
 62
     9
 10
0.0
 20
0.0
 30
0.0
 70
   128
 71
    43
 72
    41
 73
    57
  0
VERTEX
  5
270
  8
0
 62
     9
 10
0.0
 20
0.0
 30
0.0
 70
   128
 71
    36
 72
    29
 73
     7
  0
VERTEX
  5
271
  8
0
 62
     9
 10
0.0
 20
0.0
 30
0.0
 70
   128
 71
    42
 72
    36
 73
    37
  0
VERTEX
  5
272
  8
0
 62
     9
 10
0.0
 20
0.0
 30
0.0
 70
   128
 71
     8
 72
    58
 73
    37
  0
VERTEX
  5
273
  8
0
 62
     9
 10
0.0
 20
0.0
 30
0.0
 70
   128
 71
    39
 72
    60
 73
    59
  0
VERTEX
  5
274
  8
0
 62
     9
 10
0.0
 20
0.0
 30
0.0
 70
   128
 71
    52
 72
    53
 73
    61
  0
VERTEX
  5
275
  8
0
 62
     9
 10
0.0
 20
0.0
 30
0.0
 70
   128
 71
    49
 72
    62
 73
    46
  0
VERTEX
  5
276
  8
0
 62
     9
 10
0.0
 20
0.0
 30
0.0
 70
   128
 71
    63
 72
    56
 73
    55
  0
VERTEX
  5
277
  8
0
 62
     9
 10
0.0
 20
0.0
 30
0.0
 70
   128
 71
    55
 72
    61
 73
    63
  0
VERTEX
  5
278
  8
0
 62
     9
 10
0.0
 20
0.0
 30
0.0
 70
   128
 71
    56
 72
    21
 73
    22
  0
VERTEX
  5
279
  8
0
 62
     9
 10
0.0
 20
0.0
 30
0.0
 70
   128
 71
    21
 72
    56
 73
    63
  0
VERTEX
  5
27A
  8
0
 62
     9
 10
0.0
 20
0.0
 30
0.0
 70
   128
 71
    59
 72
    47
 73
    39
  0
VERTEX
  5
27B
  8
0
 62
     9
 10
0.0
 20
0.0
 30
0.0
 70
   128
 71
    53
 72
    64
 73
    61
  0
VERTEX
  5
27C
  8
0
 62
     9
 10
0.0
 20
0.0
 30
0.0
 70
   128
 71
    61
 72
    55
 73
    52
  0
VERTEX
  5
27D
  8
0
 62
     9
 10
0.0
 20
0.0
 30
0.0
 70
   128
 71
    62
 72
    64
 73
    46
  0
VERTEX
  5
27E
  8
0
 62
     9
 10
0.0
 20
0.0
 30
0.0
 70
   128
 71
    64
 72
    53
 73
    46
  0
VERTEX
  5
27F
  8
0
 62
     9
 10
0.0
 20
0.0
 30
0.0
 70
   128
 71
    59
 72
    62
 73
    47
  0
VERTEX
  5
280
  8
0
 62
     9
 10
0.0
 20
0.0
 30
0.0
 70
   128
 71
    62
 72
    49
 73
    47
  0
VERTEX
  5
281
  8
0
 62
     9
 10
0.0
 20
0.0
 30
0.0
 70
   128
 71
     8
 72
    37
 73
     7
  0
VERTEX
  5
282
  8
0
 62
     9
 10
0.0
 20
0.0
 30
0.0
 70
   128
 71
    57
 72
    41
 73
    60
  0
VERTEX
  5
283
  8
0
 62
     9
 10
0.0
 20
0.0
 30
0.0
 70
   128
 71
    57
 72
    60
 73
    39
  0
VERTEX
  5
284
  8
0
 62
     9
 10
0.0
 20
0.0
 30
0.0
 70
   128
 71
    41
 72
    37
 73
    58
  0
VERTEX
  5
285
  8
0
 62
     9
 10
0.0
 20
0.0
 30
0.0
 70
   128
 71
    41
 72
    58
 73
    60
  0
VERTEX
  5
286
  8
0
 62
     9
 10
0.0
 20
0.0
 30
0.0
 70
   128
 71
     8
 72
    62
 73
    58
  0
VERTEX
  5
287
  8
0
 62
     9
 10
0.0
 20
0.0
 30
0.0
 70
   128
 71
    62
 72
     8
 73
     6
  0
VERTEX
  5
288
  8
0
 62
     9
 10
0.0
 20
0.0
 30
0.0
 70
   128
 71
    58
 72
    62
 73
    59
  0
VERTEX
  5
289
  8
0
 62
     9
 10
0.0
 20
0.0
 30
0.0
 70
   128
 71
    58
 72
    59
 73
    60
  0
VERTEX
  5
28A
  8
0
 62
     9
 10
0.0
 20
0.0
 30
0.0
 70
   128
 71
    62
 72
     6
 73
    64
  0
VERTEX
  5
28B
  8
0
 62
     9
 10
0.0
 20
0.0
 30
0.0
 70
   128
 71
    64
 72
     4
 73
    61
  0
VERTEX
  5
28C
  8
0
 62
     9
 10
0.0
 20
0.0
 30
0.0
 70
   128
 71
     4
 72
    64
 73
     6
  0
VERTEX
  5
28D
  8
0
 62
     9
 10
0.0
 20
0.0
 30
0.0
 70
   128
 71
    61
 72
     4
 73
    63
  0
VERTEX
  5
28E
  8
0
 62
     9
 10
0.0
 20
0.0
 30
0.0
 70
   128
 71
    63
 72
     4
 73
     1
  0
VERTEX
  5
28F
  8
0
 62
     9
 10
0.0
 20
0.0
 30
0.0
 70
   128
 71
    63
 72
    11
 73
    21
  0
VERTEX
  5
290
  8
0
 62
     9
 10
0.0
 20
0.0
 30
0.0
 70
   128
 71
    11
 72
    63
 73
     1
  0
VERTEX
  5
291
  8
0
 62
     9
 10
0.0
 20
0.0
 30
0.0
 70
   128
 71
    13
 72
    16
 73
    19
  0
VERTEX
  5
292
  8
0
 62
     9
 10
0.0
 20
0.0
 30
0.0
 70
   128
 71
    13
 72
    19
 73
    11
  0
VERTEX
  5
293
  8
0
 62
     9
 10
0.0
 20
0.0
 30
0.0
 70
   128
 71
    21
 72
    11
 73
    19
  0
SEQEND
  5
294
  8
0
 62
     9
  0
ENDBLK
  5
297
  8
0
  0
BLOCK
  8
0
  2
40
 70
     0
 10
0.0
 20
0.0
 30
0.0
  3
40
  1

  0
POLYLINE
  5
299
  8
0
 62
     9
 66
     1
 10
0.0
 20
0.0
 30
0.0
 70
    64
 71
   174
 72
   348
  0
VERTEX
  5
29A
  8
0
 10
6.433755874633789
 20
15.52803421020508
 30
76.70710754394531
 70
   192
  0
VERTEX
  5
29B
  8
0
 10
-0.0433230102062225
 20
16.79710960388184
 30
76.70710754394531
 70
   192
  0
VERTEX
  5
29C
  8
0
 10
3.814011812210083
 20
16.66376495361328
 30
75.0
 70
   192
  0
VERTEX
  5
29D
  8
0
 10
7.428064346313477
 20
15.3884449005127
 30
75.0
 70
   192
  0
VERTEX
  5
29E
  8
0
 10
10.66557788848877
 20
13.34763813018799
 30
75.0
 70
   192
  0
VERTEX
  5
29F
  8
0
 10
11.59018707275391
 20
12.17962551116943
 30
76.70710754394531
 70
   192
  0
VERTEX
  5
2A0
  8
0
 10
14.83986949920654
 20
7.930822372436523
 30
76.70710754394531
 70
   192
  0
VERTEX
  5
2A1
  8
0
 10
15.40176582336426
 20
7.403998851776123
 30
75.0
 70
   192
  0
VERTEX
  5
2A2
  8
0
 10
13.36886119842529
 20
10.64208889007568
 30
75.0
 70
   192
  0
VERTEX
  5
2A3
  8
0
 10
0.000000000000008
 20
17.10000038146973
 30
75.0
 70
   192
  0
VERTEX
  5
2A4
  8
0
 10
16.66472434997559
 20
3.795752286911011
 30
75.0
 70
   192
  0
VERTEX
  5
2A5
  8
0
 10
16.41201400756836
 20
3.70100212097168
 30
76.70710754394531
 70
   192
  0
VERTEX
  5
2A6
  8
0
 10
-6.477775573730469
 20
15.49830627441406
 30
76.70710754394531
 70
   192
  0
VERTEX
  5
2A7
  8
0
 10
-3.801583528518677
 20
16.67042922973633
 30
75.0
 70
   192
  0
VERTEX
  5
2A8
  8
0
 10
-7.41768217086792
 20
15.41326808929443
 30
75.0
 70
   192
  0
VERTEX
  5
2A9
  8
0
 10
-11.58752536773682
 20
12.15803146362305
 30
76.70710754394531
 70
   192
  0
VERTEX
  5
2AA
  8
0
 10
-10.66411685943604
 20
13.37849617004395
 30
75.0
 70
   192
  0
VERTEX
  5
2AB
  8
0
 10
-14.8142728805542
 20
7.893258094787598
 30
76.70710754394531
 70
   192
  0
VERTEX
  5
2AC
  8
0
 10
-13.37362861633301
 20
10.66927433013916
 30
75.0
 70
   192
  0
VERTEX
  5
2AD
  8
0
 10
-15.41241455078125
 20
7.425730228424072
 30
75.0
 70
   192
  0
VERTEX
  5
2AE
  8
0
 10
-16.38639640808105
 20
3.685137748718262
 30
76.70710754394531
 70
   192
  0
VERTEX
  5
2AF
  8
0
 10
-16.67943382263184
 20
3.809337377548218
 30
75.0
 70
   192
  0
VERTEX
  5
2B0
  8
0
 10
-17.10000038146973
 20
-0.0000000000000017
 30
75.0
 70
   192
  0
VERTEX
  5
2B1
  8
0
 10
17.10000038146973
 20
-0.0000000000000037
 30
75.0
 70
   192
  0
VERTEX
  5
2B2
  8
0
 10
-3.603083848953247
 20
13.52612495422363
 30
79.0
 70
   192
  0
VERTEX
  5
2B3
  8
0
 10
-0.0000000000002354
 20
14.0
 30
79.0
 70
   192
  0
VERTEX
  5
2B4
  8
0
 10
0.000000000000004
 20
14.0
 30
77.0
 70
   192
  0
VERTEX
  5
2B5
  8
0
 10
-3.631694316864014
 20
13.52008247375488
 30
77.0
 70
   192
  0
VERTEX
  5
2B6
  8
0
 10
-6.980139255523682
 20
12.13128089904785
 30
79.0
 70
   192
  0
VERTEX
  5
2B7
  8
0
 10
-7.006789684295654
 20
12.11978530883789
 30
77.0
 70
   192
  0
VERTEX
  5
2B8
  8
0
 10
-9.899079322814941
 20
9.899717330932617
 30
79.0
 70
   192
  0
VERTEX
  5
2B9
  8
0
 10
-12.12141227722168
 20
7.005185127258301
 30
79.0
 70
   192
  0
VERTEX
  5
2BA
  8
0
 10
-9.899495124816895
 20
9.899495124816895
 30
77.0
 70
   192
  0
VERTEX
  5
2BB
  8
0
 10
-12.12813758850098
 20
6.992146492004395
 30
77.0
 70
   192
  0
VERTEX
  5
2BC
  8
0
 10
-13.52737331390381
 20
3.618441104888916
 30
79.0
 70
   192
  0
VERTEX
  5
2BD
  8
0
 10
-13.52361583709717
 20
3.621310710906982
 30
77.0
 70
   192
  0
VERTEX
  5
2BE
  8
0
 10
-14.0
 20
-0.000000000000002
 30
79.0
 70
   192
  0
VERTEX
  5
2BF
  8
0
 10
-14.0
 20
-0.000000000000002
 30
77.0
 70
   192
  0
VERTEX
  5
2C0
  8
0
 10
3.618879318237305
 20
13.52722263336182
 30
79.0
 70
   192
  0
VERTEX
  5
2C1
  8
0
 10
3.615433692932129
 20
13.5245304107666
 30
77.0
 70
   192
  0
VERTEX
  5
2C2
  8
0
 10
6.992146492004395
 20
12.12813758850098
 30
77.0
 70
   192
  0
VERTEX
  5
2C3
  8
0
 10
9.899495124816895
 20
9.899495124816895
 30
77.0
 70
   192
  0
VERTEX
  5
2C4
  8
0
 10
7.005759239196777
 20
12.12077236175537
 30
79.0
 70
   192
  0
VERTEX
  5
2C5
  8
0
 10
9.899660110473633
 20
9.899325370788574
 30
79.0
 70
   192
  0
VERTEX
  5
2C6
  8
0
 10
12.11978530883789
 20
7.006789684295654
 30
77.0
 70
   192
  0
VERTEX
  5
2C7
  8
0
 10
12.13151454925537
 20
6.979214191436768
 30
79.0
 70
   192
  0
VERTEX
  5
2C8
  8
0
 10
13.52008247375488
 20
3.631694316864014
 30
77.0
 70
   192
  0
VERTEX
  5
2C9
  8
0
 10
14.0
 20
-0.0000000000000037
 30
77.0
 70
   192
  0
VERTEX
  5
2CA
  8
0
 10
13.52609539031982
 20
3.60303258895874
 30
79.0
 70
   192
  0
VERTEX
  5
2CB
  8
0
 10
14.0
 20
-0.0000000000000037
 30
79.0
 70
   192
  0
VERTEX
  5
2CC
  8
0
 10
13.3986644744873
 20
-5.989546775817871
 30
79.69999694824219
 70
   192
  0
VERTEX
  5
2CD
  8
0
 10
13.415846824646
 20
-6.011006355285645
 30
85.30000305175781
 70
   192
  0
VERTEX
  5
2CE
  8
0
 10
9.797917366027832
 20
-10.95769596099854
 30
85.30000305175781
 70
   192
  0
VERTEX
  5
2CF
  8
0
 10
14.69999980926514
 20
-0.0000000000000299
 30
79.69999694824219
 70
   192
  0
VERTEX
  5
2D0
  8
0
 10
14.69999980926514
 20
-0.0000000000000299
 30
85.30000305175781
 70
   192
  0
VERTEX
  5
2D1
  8
0
 10
9.80577564239502
 20
-10.94990634918213
 30
79.69999694824219
 70
   192
  0
VERTEX
  5
2D2
  8
0
 10
4.482186794281006
 20
-14.0
 30
85.30000305175781
 70
   192
  0
VERTEX
  5
2D3
  8
0
 10
4.482186794281006
 20
-14.0
 30
79.69999694824219
 70
   192
  0
VERTEX
  5
2D4
  8
0
 10
-12.12182140350342
 20
6.984786987304688
 30
88.0
 70
   192
  0
VERTEX
  5
2D5
  8
0
 10
-9.89642333984375
 20
9.887185096740723
 30
88.0
 70
   192
  0
VERTEX
  5
2D6
  8
0
 10
-9.899660110473633
 20
9.899325370788574
 30
86.0
 70
   192
  0
VERTEX
  5
2D7
  8
0
 10
-0.0000000000000062
 20
14.0
 30
88.0
 70
   192
  0
VERTEX
  5
2D8
  8
0
 10
3.618206024169922
 20
13.52342510223389
 30
88.0
 70
   192
  0
VERTEX
  5
2D9
  8
0
 10
3.603083848953247
 20
13.52612495422363
 30
86.0
 70
   192
  0
VERTEX
  5
2DA
  8
0
 10
-12.13151454925537
 20
6.979214191436768
 30
86.0
 70
   192
  0
VERTEX
  5
2DB
  8
0
 10
-13.51786518096924
 20
3.612471103668213
 30
88.0
 70
   192
  0
VERTEX
  5
2DC
  8
0
 10
-13.52609539031982
 20
3.60303258895874
 30
86.0
 70
   192
  0
VERTEX
  5
2DD
  8
0
 10
-14.0
 20
-0.000000000000002
 30
88.0
 70
   192
  0
VERTEX
  5
2DE
  8
0
 10
-14.0
 20
-0.000000000000002
 30
86.0
 70
   192
  0
VERTEX
  5
2DF
  8
0
 10
-7.005759239196777
 20
12.12077236175537
 30
86.0
 70
   192
  0
VERTEX
  5
2E0
  8
0
 10
-7.004936695098877
 20
12.10869026184082
 30
88.0
 70
   192
  0
VERTEX
  5
2E1
  8
0
 10
-3.618879318237305
 20
13.52722263336182
 30
86.0
 70
   192
  0
VERTEX
  5
2E2
  8
0
 10
-3.633139848709106
 20
13.51445388793945
 30
88.0
 70
   192
  0
VERTEX
  5
2E3
  8
0
 10
6.998438835144043
 20
12.13129138946533
 30
88.0
 70
   192
  0
VERTEX
  5
2E4
  8
0
 10
6.980139255523682
 20
12.13128089904785
 30
86.0
 70
   192
  0
VERTEX
  5
2E5
  8
0
 10
-0.0000000000002354
 20
14.0
 30
86.0
 70
   192
  0
VERTEX
  5
2E6
  8
0
 10
12.12951374053955
 20
7.004489898681641
 30
88.0
 70
   192
  0
VERTEX
  5
2E7
  8
0
 10
13.52737331390381
 20
3.618441104888916
 30
86.0
 70
   192
  0
VERTEX
  5
2E8
  8
0
 10
12.12141227722168
 20
7.005185127258301
 30
86.0
 70
   192
  0
VERTEX
  5
2E9
  8
0
 10
9.899079322814941
 20
9.899717330932617
 30
86.0
 70
   192
  0
VERTEX
  5
2EA
  8
0
 10
9.907424926757812
 20
9.901927947998047
 30
88.0
 70
   192
  0
VERTEX
  5
2EB
  8
0
 10
13.52873420715332
 20
3.629316329956055
 30
88.0
 70
   192
  0
VERTEX
  5
2EC
  8
0
 10
14.0
 20
-0.0000000000000037
 30
88.0
 70
   192
  0
VERTEX
  5
2ED
  8
0
 10
14.0
 20
-0.0000000000000037
 30
86.0
 70
   192
  0
VERTEX
  5
2EE
  8
0
 10
-13.52873420715332
 20
-3.629316329956055
 30
88.0
 70
   192
  0
VERTEX
  5
2EF
  8
0
 10
-13.52737331390381
 20
-3.618441104888916
 30
86.0
 70
   192
  0
VERTEX
  5
2F0
  8
0
 10
-3.618206024169922
 20
-13.52342510223389
 30
88.0
 70
   192
  0
VERTEX
  5
2F1
  8
0
 10
-6.998438835144043
 20
-12.13129138946533
 30
88.0
 70
   192
  0
VERTEX
  5
2F2
  8
0
 10
-6.980139255523682
 20
-12.13128089904785
 30
86.0
 70
   192
  0
VERTEX
  5
2F3
  8
0
 10
-12.12141227722168
 20
-7.005185127258301
 30
86.0
 70
   192
  0
VERTEX
  5
2F4
  8
0
 10
-9.907424926757812
 20
-9.901927947998047
 30
88.0
 70
   192
  0
VERTEX
  5
2F5
  8
0
 10
-12.12951374053955
 20
-7.004489898681641
 30
88.0
 70
   192
  0
VERTEX
  5
2F6
  8
0
 10
3.633139848709106
 20
-13.51445388793945
 30
88.0
 70
   192
  0
VERTEX
  5
2F7
  8
0
 10
3.618879318237305
 20
-13.52722263336182
 30
86.0
 70
   192
  0
VERTEX
  5
2F8
  8
0
 10
7.004936695098877
 20
-12.10869026184082
 30
88.0
 70
   192
  0
VERTEX
  5
2F9
  8
0
 10
-3.603083848953247
 20
-13.52612495422363
 30
86.0
 70
   192
  0
VERTEX
  5
2FA
  8
0
 10
-0.0000000000002385
 20
-14.0
 30
86.0
 70
   192
  0
VERTEX
  5
2FB
  8
0
 10
0.0000000000000004
 20
-14.0
 30
88.0
 70
   192
  0
VERTEX
  5
2FC
  8
0
 10
7.005759239196777
 20
-12.12077236175537
 30
86.0
 70
   192
  0
VERTEX
  5
2FD
  8
0
 10
9.89642333984375
 20
-9.887185096740723
 30
88.0
 70
   192
  0
VERTEX
  5
2FE
  8
0
 10
12.12182140350342
 20
-6.984786987304688
 30
88.0
 70
   192
  0
VERTEX
  5
2FF
  8
0
 10
9.899660110473633
 20
-9.899325370788574
 30
86.0
 70
   192
  0
VERTEX
  5
300
  8
0
 10
12.13151454925537
 20
-6.979214191436768
 30
86.0
 70
   192
  0
VERTEX
  5
301
  8
0
 10
13.52609539031982
 20
-3.60303258895874
 30
86.0
 70
   192
  0
VERTEX
  5
302
  8
0
 10
13.51786518096924
 20
-3.612471103668213
 30
88.0
 70
   192
  0
VERTEX
  5
303
  8
0
 10
-9.899079322814941
 20
-9.899717330932617
 30
86.0
 70
   192
  0
VERTEX
  5
304
  8
0
 10
13.45734405517578
 20
5.916767120361328
 30
85.30000305175781
 70
   192
  0
VERTEX
  5
305
  8
0
 10
9.729199409484863
 20
11.0169153213501
 30
85.30000305175781
 70
   192
  0
VERTEX
  5
306
  8
0
 10
4.482186794281006
 20
14.0
 30
85.30000305175781
 70
   192
  0
VERTEX
  5
307
  8
0
 10
13.415846824646
 20
6.011006355285645
 30
79.69999694824219
 70
   192
  0
VERTEX
  5
308
  8
0
 10
4.482186794281006
 20
14.0
 30
79.69999694824219
 70
   192
  0
VERTEX
  5
309
  8
0
 10
9.797917366027832
 20
10.95769596099854
 30
79.69999694824219
 70
   192
  0
VERTEX
  5
30A
  8
0
 10
-13.52609539031982
 20
-3.60303258895874
 30
79.0
 70
   192
  0
VERTEX
  5
30B
  8
0
 10
-14.69999980926514
 20
-0.0000000000000207
 30
79.69999694824219
 70
   192
  0
VERTEX
  5
30C
  8
0
 10
-13.97684383392334
 20
-4.552332401275635
 30
79.69999694824219
 70
   192
  0
VERTEX
  5
30D
  8
0
 10
-12.13151454925537
 20
-6.979214191436768
 30
79.0
 70
   192
  0
VERTEX
  5
30E
  8
0
 10
-11.87870121002197
 20
-8.660197257995605
 30
79.69999694824219
 70
   192
  0
VERTEX
  5
30F
  8
0
 10
-7.005759239196777
 20
-12.12077236175537
 30
79.0
 70
   192
  0
VERTEX
  5
310
  8
0
 10
-3.618879318237305
 20
-13.52722263336182
 30
79.0
 70
   192
  0
VERTEX
  5
311
  8
0
 10
-4.482186794281006
 20
-14.0
 30
79.69999694824219
 70
   192
  0
VERTEX
  5
312
  8
0
 10
-0.0000000000002371
 20
-14.0
 30
79.0
 70
   192
  0
VERTEX
  5
313
  8
0
 10
-8.60279655456543
 20
-11.90307903289795
 30
79.69999694824219
 70
   192
  0
VERTEX
  5
314
  8
0
 10
-9.899660110473633
 20
-9.899325370788574
 30
79.0
 70
   192
  0
VERTEX
  5
315
  8
0
 10
-13.97471523284912
 20
4.560163974761963
 30
79.69999694824219
 70
   192
  0
VERTEX
  5
316
  8
0
 10
-11.87236595153809
 20
8.670441627502441
 30
79.69999694824219
 70
   192
  0
VERTEX
  5
317
  8
0
 10
-8.56789779663086
 20
11.86217308044434
 30
79.69999694824219
 70
   192
  0
VERTEX
  5
318
  8
0
 10
-4.482186794281006
 20
14.0
 30
79.69999694824219
 70
   192
  0
VERTEX
  5
319
  8
0
 10
-13.52008247375488
 20
-3.631694316864014
 30
77.0
 70
   192
  0
VERTEX
  5
31A
  8
0
 10
-6.992146492004395
 20
-12.12813758850098
 30
77.0
 70
   192
  0
VERTEX
  5
31B
  8
0
 10
-12.11978530883789
 20
-7.006789684295654
 30
77.0
 70
   192
  0
VERTEX
  5
31C
  8
0
 10
3.603083848953247
 20
-13.52612495422363
 30
79.0
 70
   192
  0
VERTEX
  5
31D
  8
0
 10
3.631694316864014
 20
-13.52008247375488
 30
77.0
 70
   192
  0
VERTEX
  5
31E
  8
0
 10
6.980139255523682
 20
-12.13128089904785
 30
79.0
 70
   192
  0
VERTEX
  5
31F
  8
0
 10
-0.0000000000000013
 20
-14.0
 30
77.0
 70
   192
  0
VERTEX
  5
320
  8
0
 10
9.899079322814941
 20
-9.899717330932617
 30
79.0
 70
   192
  0
VERTEX
  5
321
  8
0
 10
9.899495124816895
 20
-9.899495124816895
 30
77.0
 70
   192
  0
VERTEX
  5
322
  8
0
 10
12.12141227722168
 20
-7.005185127258301
 30
79.0
 70
   192
  0
VERTEX
  5
323
  8
0
 10
7.006789684295654
 20
-12.11978530883789
 30
77.0
 70
   192
  0
VERTEX
  5
324
  8
0
 10
13.52737331390381
 20
-3.618441104888916
 30
79.0
 70
   192
  0
VERTEX
  5
325
  8
0
 10
12.12813758850098
 20
-6.992146492004395
 30
77.0
 70
   192
  0
VERTEX
  5
326
  8
0
 10
13.52361583709717
 20
-3.621310710906982
 30
77.0
 70
   192
  0
VERTEX
  5
327
  8
0
 10
-3.615433692932129
 20
-13.5245304107666
 30
77.0
 70
   192
  0
VERTEX
  5
328
  8
0
 10
-9.899495124816895
 20
-9.899495124816895
 30
77.0
 70
   192
  0
VERTEX
  5
329
  8
0
 10
-16.66472434997559
 20
-3.795752286911011
 30
75.0
 70
   192
  0
VERTEX
  5
32A
  8
0
 10
-15.40176582336426
 20
-7.403998851776123
 30
75.0
 70
   192
  0
VERTEX
  5
32B
  8
0
 10
-10.66557788848877
 20
-13.34763813018799
 30
75.0
 70
   192
  0
VERTEX
  5
32C
  8
0
 10
-13.36886119842529
 20
-10.64208889007568
 30
75.0
 70
   192
  0
VERTEX
  5
32D
  8
0
 10
-7.428064346313477
 20
-15.3884449005127
 30
75.0
 70
   192
  0
VERTEX
  5
32E
  8
0
 10
-3.814011812210083
 20
-16.66376495361328
 30
75.0
 70
   192
  0
VERTEX
  5
32F
  8
0
 10
-0.0000000000000062
 20
-17.10000038146973
 30
75.0
 70
   192
  0
VERTEX
  5
330
  8
0
 10
3.801583528518677
 20
-16.67042922973633
 30
75.0
 70
   192
  0
VERTEX
  5
331
  8
0
 10
10.66411685943604
 20
-13.37849617004395
 30
75.0
 70
   192
  0
VERTEX
  5
332
  8
0
 10
7.41768217086792
 20
-15.41326808929443
 30
75.0
 70
   192
  0
VERTEX
  5
333
  8
0
 10
16.67943382263184
 20
-3.809337377548218
 30
75.0
 70
   192
  0
VERTEX
  5
334
  8
0
 10
13.37362861633301
 20
-10.66927433013916
 30
75.0
 70
   192
  0
VERTEX
  5
335
  8
0
 10
15.41241455078125
 20
-7.425730228424072
 30
75.0
 70
   192
  0
VERTEX
  5
336
  8
0
 10
-8.60279655456543
 20
11.90307903289795
 30
85.30000305175781
 70
   192
  0
VERTEX
  5
337
  8
0
 10
-11.87236595153809
 20
-8.670441627502441
 30
85.30000305175781
 70
   192
  0
VERTEX
  5
338
  8
0
 10
-8.56789779663086
 20
-11.86217308044434
 30
85.30000305175781
 70
   192
  0
VERTEX
  5
339
  8
0
 10
-13.97471523284912
 20
-4.560163974761963
 30
85.30000305175781
 70
   192
  0
VERTEX
  5
33A
  8
0
 10
-4.482186794281006
 20
-14.0
 30
85.30000305175781
 70
   192
  0
VERTEX
  5
33B
  8
0
 10
-14.69999980926514
 20
-0.0000000000000187
 30
85.30000305175781
 70
   192
  0
VERTEX
  5
33C
  8
0
 10
-13.97684383392334
 20
4.552332401275635
 30
85.30000305175781
 70
   192
  0
VERTEX
  5
33D
  8
0
 10
-11.87870121002197
 20
8.660197257995605
 30
85.30000305175781
 70
   192
  0
VERTEX
  5
33E
  8
0
 10
-4.482186794281006
 20
14.0
 30
85.30000305175781
 70
   192
  0
VERTEX
  5
33F
  8
0
 10
14.8142728805542
 20
-7.893258094787598
 30
76.70710754394531
 70
   192
  0
VERTEX
  5
340
  8
0
 10
11.58752536773682
 20
-12.15803146362305
 30
76.70710754394531
 70
   192
  0
VERTEX
  5
341
  8
0
 10
6.477775573730469
 20
-15.49830627441406
 30
76.70710754394531
 70
   192
  0
VERTEX
  5
342
  8
0
 10
0.0433230102062225
 20
-16.79710960388184
 30
76.70710754394531
 70
   192
  0
VERTEX
  5
343
  8
0
 10
-6.433755874633789
 20
-15.52803421020508
 30
76.70710754394531
 70
   192
  0
VERTEX
  5
344
  8
0
 10
-14.83986949920654
 20
-7.930822372436523
 30
76.70710754394531
 70
   192
  0
VERTEX
  5
345
  8
0
 10
-11.59018707275391
 20
-12.17962551116943
 30
76.70710754394531
 70
   192
  0
VERTEX
  5
346
  8
0
 10
-16.41201400756836
 20
-3.70100212097168
 30
76.70710754394531
 70
   192
  0
VERTEX
  5
347
  8
0
 10
16.38639640808105
 20
-3.685137748718262
 30
76.70710754394531
 70
   192
  0
VERTEX
  5
348
  8
0
 62
     9
 10
0.0
 20
0.0
 30
0.0
 70
   128
 71
     3
 72
     2
 73
     1
  0
VERTEX
  5
349
  8
0
 62
     9
 10
0.0
 20
0.0
 30
0.0
 70
   128
 71
     3
 72
     4
 73
     1
  0
VERTEX
  5
34A
  8
0
 62
     9
 10
0.0
 20
0.0
 30
0.0
 70
   128
 71
     1
 72
     5
 73
     4
  0
VERTEX
  5
34B
  8
0
 62
     9
 10
0.0
 20
0.0
 30
0.0
 70
   128
 71
     3
 72
     1
 73
     4
  0
VERTEX
  5
34C
  8
0
 62
     9
 10
0.0
 20
0.0
 30
0.0
 70
   128
 71
     1
 72
     6
 73
     5
  0
VERTEX
  5
34D
  8
0
 62
     9
 10
0.0
 20
0.0
 30
0.0
 70
   128
 71
     9
 72
     8
 73
     7
  0
VERTEX
  5
34E
  8
0
 62
     9
 10
0.0
 20
0.0
 30
0.0
 70
   128
 71
    10
 72
     2
 73
     3
  0
VERTEX
  5
34F
  8
0
 62
     9
 10
0.0
 20
0.0
 30
0.0
 70
   128
 71
     9
 72
     5
 73
     6
  0
VERTEX
  5
350
  8
0
 62
     9
 10
0.0
 20
0.0
 30
0.0
 70
   128
 71
     9
 72
     7
 73
     8
  0
VERTEX
  5
351
  8
0
 62
     9
 10
0.0
 20
0.0
 30
0.0
 70
   128
 71
     7
 72
    11
 73
     8
  0
VERTEX
  5
352
  8
0
 62
     9
 10
0.0
 20
0.0
 30
0.0
 70
   128
 71
     9
 72
     6
 73
     7
  0
VERTEX
  5
353
  8
0
 62
     9
 10
0.0
 20
0.0
 30
0.0
 70
   128
 71
     7
 72
     8
 73
    12
  0
VERTEX
  5
354
  8
0
 62
     9
 10
0.0
 20
0.0
 30
0.0
 70
   128
 71
    11
 72
     7
 73
    12
  0
VERTEX
  5
355
  8
0
 62
     9
 10
0.0
 20
0.0
 30
0.0
 70
   128
 71
    14
 72
    13
 73
     2
  0
VERTEX
  5
356
  8
0
 62
     9
 10
0.0
 20
0.0
 30
0.0
 70
   128
 71
     2
 72
    10
 73
    14
  0
VERTEX
  5
357
  8
0
 62
     9
 10
0.0
 20
0.0
 30
0.0
 70
   128
 71
    16
 72
    13
 73
    15
  0
VERTEX
  5
358
  8
0
 62
     9
 10
0.0
 20
0.0
 30
0.0
 70
   128
 71
    10
 72
     2
 73
    14
  0
VERTEX
  5
359
  8
0
 62
     9
 10
0.0
 20
0.0
 30
0.0
 70
   128
 71
    17
 72
    16
 73
    15
  0
VERTEX
  5
35A
  8
0
 62
     9
 10
0.0
 20
0.0
 30
0.0
 70
   128
 71
    16
 72
    17
 73
    13
  0
VERTEX
  5
35B
  8
0
 62
     9
 10
0.0
 20
0.0
 30
0.0
 70
   128
 71
    19
 72
    18
 73
    16
  0
VERTEX
  5
35C
  8
0
 62
     9
 10
0.0
 20
0.0
 30
0.0
 70
   128
 71
    16
 72
    17
 73
    19
  0
VERTEX
  5
35D
  8
0
 62
     9
 10
0.0
 20
0.0
 30
0.0
 70
   128
 71
    21
 72
    18
 73
    20
  0
VERTEX
  5
35E
  8
0
 62
     9
 10
0.0
 20
0.0
 30
0.0
 70
   128
 71
    17
 72
    16
 73
    19
  0
VERTEX
  5
35F
  8
0
 62
     9
 10
0.0
 20
0.0
 30
0.0
 70
   128
 71
    22
 72
    21
 73
    20
  0
VERTEX
  5
360
  8
0
 62
     9
 10
0.0
 20
0.0
 30
0.0
 70
   128
 71
    21
 72
    22
 73
    18
  0
VERTEX
  5
361
  8
0
 62
     9
 10
0.0
 20
0.0
 30
0.0
 70
   128
 71
    20
 72
    18
 73
    22
  0
VERTEX
  5
362
  8
0
 62
     9
 10
0.0
 20
0.0
 30
0.0
 70
   128
 71
    21
 72
    22
 73
    23
  0
VERTEX
  5
363
  8
0
 62
     9
 10
0.0
 20
0.0
 30
0.0
 70
   128
 71
    22
 72
    21
 73
    23
  0
VERTEX
  5
364
  8
0
 62
     9
 10
0.0
 20
0.0
 30
0.0
 70
   128
 71
    18
 72
    20
 73
    19
  0
VERTEX
  5
365
  8
0
 62
     9
 10
0.0
 20
0.0
 30
0.0
 70
   128
 71
    20
 72
    18
 73
    19
  0
VERTEX
  5
366
  8
0
 62
     9
 10
0.0
 20
0.0
 30
0.0
 70
   128
 71
    16
 72
    18
 73
    19
  0
VERTEX
  5
367
  8
0
 62
     9
 10
0.0
 20
0.0
 30
0.0
 70
   128
 71
    15
 72
    13
 73
    17
  0
VERTEX
  5
368
  8
0
 62
     9
 10
0.0
 20
0.0
 30
0.0
 70
   128
 71
    13
 72
    15
 73
    14
  0
VERTEX
  5
369
  8
0
 62
     9
 10
0.0
 20
0.0
 30
0.0
 70
   128
 71
    15
 72
    13
 73
    14
  0
VERTEX
  5
36A
  8
0
 62
     9
 10
0.0
 20
0.0
 30
0.0
 70
   128
 71
     2
 72
    10
 73
     3
  0
VERTEX
  5
36B
  8
0
 62
     9
 10
0.0
 20
0.0
 30
0.0
 70
   128
 71
     2
 72
    13
 73
    14
  0
VERTEX
  5
36C
  8
0
 62
     9
 10
0.0
 20
0.0
 30
0.0
 70
   128
 71
     1
 72
     2
 73
     3
  0
VERTEX
  5
36D
  8
0
 62
     9
 10
0.0
 20
0.0
 30
0.0
 70
   128
 71
     5
 72
     6
 73
     4
  0
VERTEX
  5
36E
  8
0
 62
     9
 10
0.0
 20
0.0
 30
0.0
 70
   128
 71
     6
 72
     1
 73
     4
  0
VERTEX
  5
36F
  8
0
 62
     9
 10
0.0
 20
0.0
 30
0.0
 70
   128
 71
     6
 72
     5
 73
     9
  0
VERTEX
  5
370
  8
0
 62
     9
 10
0.0
 20
0.0
 30
0.0
 70
   128
 71
     7
 72
     6
 73
     9
  0
VERTEX
  5
371
  8
0
 62
     9
 10
0.0
 20
0.0
 30
0.0
 70
   128
 71
    11
 72
    12
 73
     8
  0
VERTEX
  5
372
  8
0
 62
     9
 10
0.0
 20
0.0
 30
0.0
 70
   128
 71
    12
 72
    11
 73
    24
  0
VERTEX
  5
373
  8
0
 62
     9
 10
0.0
 20
0.0
 30
0.0
 70
   128
 71
    11
 72
    12
 73
    24
  0
VERTEX
  5
374
  8
0
 62
     9
 10
0.0
 20
0.0
 30
0.0
 70
   128
 71
    27
 72
    26
 73
    25
  0
VERTEX
  5
375
  8
0
 62
     9
 10
0.0
 20
0.0
 30
0.0
 70
   128
 71
    25
 72
    29
 73
    28
  0
VERTEX
  5
376
  8
0
 62
     9
 10
0.0
 20
0.0
 30
0.0
 70
   128
 71
    28
 72
    27
 73
    25
  0
VERTEX
  5
377
  8
0
 62
     9
 10
0.0
 20
0.0
 30
0.0
 70
   128
 71
    31
 72
    30
 73
    29
  0
VERTEX
  5
378
  8
0
 62
     9
 10
0.0
 20
0.0
 30
0.0
 70
   128
 71
    28
 72
    29
 73
    30
  0
VERTEX
  5
379
  8
0
 62
     9
 10
0.0
 20
0.0
 30
0.0
 70
   128
 71
    33
 72
    31
 73
    32
  0
VERTEX
  5
37A
  8
0
 62
     9
 10
0.0
 20
0.0
 30
0.0
 70
   128
 71
    31
 72
    33
 73
    30
  0
VERTEX
  5
37B
  8
0
 62
     9
 10
0.0
 20
0.0
 30
0.0
 70
   128
 71
    32
 72
    35
 73
    34
  0
VERTEX
  5
37C
  8
0
 62
     9
 10
0.0
 20
0.0
 30
0.0
 70
   128
 71
    34
 72
    33
 73
    32
  0
VERTEX
  5
37D
  8
0
 62
     9
 10
0.0
 20
0.0
 30
0.0
 70
   128
 71
    37
 72
    36
 73
    35
  0
VERTEX
  5
37E
  8
0
 62
     9
 10
0.0
 20
0.0
 30
0.0
 70
   128
 71
    34
 72
    35
 73
    36
  0
VERTEX
  5
37F
  8
0
 62
     9
 10
0.0
 20
0.0
 30
0.0
 70
   128
 71
    37
 72
    38
 73
    36
  0
VERTEX
  5
380
  8
0
 62
     9
 10
0.0
 20
0.0
 30
0.0
 70
   128
 71
    26
 72
    27
 73
    39
  0
VERTEX
  5
381
  8
0
 62
     9
 10
0.0
 20
0.0
 30
0.0
 70
   128
 71
    41
 72
    39
 73
    40
  0
VERTEX
  5
382
  8
0
 62
     9
 10
0.0
 20
0.0
 30
0.0
 70
   128
 71
    39
 72
    27
 73
    40
  0
VERTEX
  5
383
  8
0
 62
     9
 10
0.0
 20
0.0
 30
0.0
 70
   128
 71
    43
 72
    41
 73
    42
  0
VERTEX
  5
384
  8
0
 62
     9
 10
0.0
 20
0.0
 30
0.0
 70
   128
 71
    41
 72
    43
 73
    39
  0
VERTEX
  5
385
  8
0
 62
     9
 10
0.0
 20
0.0
 30
0.0
 70
   128
 71
    42
 72
    45
 73
    44
  0
VERTEX
  5
386
  8
0
 62
     9
 10
0.0
 20
0.0
 30
0.0
 70
   128
 71
    44
 72
    43
 73
    42
  0
VERTEX
  5
387
  8
0
 62
     9
 10
0.0
 20
0.0
 30
0.0
 70
   128
 71
    47
 72
    46
 73
    45
  0
VERTEX
  5
388
  8
0
 62
     9
 10
0.0
 20
0.0
 30
0.0
 70
   128
 71
    44
 72
    45
 73
    46
  0
VERTEX
  5
389
  8
0
 62
     9
 10
0.0
 20
0.0
 30
0.0
 70
   128
 71
    49
 72
    47
 73
    48
  0
VERTEX
  5
38A
  8
0
 62
     9
 10
0.0
 20
0.0
 30
0.0
 70
   128
 71
    47
 72
    49
 73
    46
  0
VERTEX
  5
38B
  8
0
 62
     9
 10
0.0
 20
0.0
 30
0.0
 70
   128
 71
    50
 72
    49
 73
    48
  0
VERTEX
  5
38C
  8
0
 62
     9
 10
0.0
 20
0.0
 30
0.0
 70
   128
 71
    53
 72
    52
 73
    51
  0
VERTEX
  5
38D
  8
0
 62
     9
 10
0.0
 20
0.0
 30
0.0
 70
   128
 71
    51
 72
    52
 73
    54
  0
VERTEX
  5
38E
  8
0
 62
     9
 10
0.0
 20
0.0
 30
0.0
 70
   128
 71
    52
 72
    55
 73
    54
  0
VERTEX
  5
38F
  8
0
 62
     9
 10
0.0
 20
0.0
 30
0.0
 70
   128
 71
    56
 72
    53
 73
    51
  0
VERTEX
  5
390
  8
0
 62
     9
 10
0.0
 20
0.0
 30
0.0
 70
   128
 71
    56
 72
    57
 73
    53
  0
VERTEX
  5
391
  8
0
 62
     9
 10
0.0
 20
0.0
 30
0.0
 70
   128
 71
    58
 72
    57
 73
    56
  0
VERTEX
  5
392
  8
0
 62
     9
 10
0.0
 20
0.0
 30
0.0
 70
   128
 71
    61
 72
    60
 73
    59
  0
VERTEX
  5
393
  8
0
 62
     9
 10
0.0
 20
0.0
 30
0.0
 70
   128
 71
    64
 72
    63
 73
    62
  0
VERTEX
  5
394
  8
0
 62
     9
 10
0.0
 20
0.0
 30
0.0
 70
   128
 71
    59
 72
    66
 73
    65
  0
VERTEX
  5
395
  8
0
 62
     9
 10
0.0
 20
0.0
 30
0.0
 70
   128
 71
    65
 72
    61
 73
    59
  0
VERTEX
  5
396
  8
0
 62
     9
 10
0.0
 20
0.0
 30
0.0
 70
   128
 71
    68
 72
    67
 73
    66
  0
VERTEX
  5
397
  8
0
 62
     9
 10
0.0
 20
0.0
 30
0.0
 70
   128
 71
    65
 72
    66
 73
    67
  0
VERTEX
  5
398
  8
0
 62
     9
 10
0.0
 20
0.0
 30
0.0
 70
   128
 71
    68
 72
    69
 73
    67
  0
VERTEX
  5
399
  8
0
 62
     9
 10
0.0
 20
0.0
 30
0.0
 70
   128
 71
    61
 72
    70
 73
    60
  0
VERTEX
  5
39A
  8
0
 62
     9
 10
0.0
 20
0.0
 30
0.0
 70
   128
 71
    72
 72
    71
 73
    70
  0
VERTEX
  5
39B
  8
0
 62
     9
 10
0.0
 20
0.0
 30
0.0
 70
   128
 71
    60
 72
    70
 73
    71
  0
VERTEX
  5
39C
  8
0
 62
     9
 10
0.0
 20
0.0
 30
0.0
 70
   128
 71
    62
 72
    73
 73
    72
  0
VERTEX
  5
39D
  8
0
 62
     9
 10
0.0
 20
0.0
 30
0.0
 70
   128
 71
    72
 72
    73
 73
    71
  0
VERTEX
  5
39E
  8
0
 62
     9
 10
0.0
 20
0.0
 30
0.0
 70
   128
 71
    63
 72
    75
 73
    74
  0
VERTEX
  5
39F
  8
0
 62
     9
 10
0.0
 20
0.0
 30
0.0
 70
   128
 71
    76
 72
    62
 73
    72
  0
VERTEX
  5
3A0
  8
0
 62
     9
 10
0.0
 20
0.0
 30
0.0
 70
   128
 71
    79
 72
    78
 73
    77
  0
VERTEX
  5
3A1
  8
0
 62
     9
 10
0.0
 20
0.0
 30
0.0
 70
   128
 71
    81
 72
    80
 73
    79
  0
VERTEX
  5
3A2
  8
0
 62
     9
 10
0.0
 20
0.0
 30
0.0
 70
   128
 71
    84
 72
    83
 73
    82
  0
VERTEX
  5
3A3
  8
0
 62
     9
 10
0.0
 20
0.0
 30
0.0
 70
   128
 71
    82
 72
    78
 73
    84
  0
VERTEX
  5
3A4
  8
0
 62
     9
 10
0.0
 20
0.0
 30
0.0
 70
   128
 71
    79
 72
    77
 73
    81
  0
VERTEX
  5
3A5
  8
0
 62
     9
 10
0.0
 20
0.0
 30
0.0
 70
   128
 71
    77
 72
    78
 73
    82
  0
VERTEX
  5
3A6
  8
0
 62
     9
 10
0.0
 20
0.0
 30
0.0
 70
   128
 71
    75
 72
    80
 73
    74
  0
VERTEX
  5
3A7
  8
0
 62
     9
 10
0.0
 20
0.0
 30
0.0
 70
   128
 71
    74
 72
    80
 73
    81
  0
VERTEX
  5
3A8
  8
0
 62
     9
 10
0.0
 20
0.0
 30
0.0
 70
   128
 71
    62
 72
    76
 73
    64
  0
VERTEX
  5
3A9
  8
0
 62
     9
 10
0.0
 20
0.0
 30
0.0
 70
   128
 71
    64
 72
    75
 73
    63
  0
VERTEX
  5
3AA
  8
0
 62
     9
 10
0.0
 20
0.0
 30
0.0
 70
   128
 71
    86
 72
    69
 73
    85
  0
VERTEX
  5
3AB
  8
0
 62
     9
 10
0.0
 20
0.0
 30
0.0
 70
   128
 71
    89
 72
    88
 73
    87
  0
VERTEX
  5
3AC
  8
0
 62
     9
 10
0.0
 20
0.0
 30
0.0
 70
   128
 71
    92
 72
    91
 73
    90
  0
VERTEX
  5
3AD
  8
0
 62
     9
 10
0.0
 20
0.0
 30
0.0
 70
   128
 71
    95
 72
    94
 73
    93
  0
VERTEX
  5
3AE
  8
0
 62
     9
 10
0.0
 20
0.0
 30
0.0
 70
   128
 71
    98
 72
    97
 73
    96
  0
VERTEX
  5
3AF
  8
0
 62
     9
 10
0.0
 20
0.0
 30
0.0
 70
   128
 71
    95
 72
   100
 73
    99
  0
VERTEX
  5
3B0
  8
0
 62
     9
 10
0.0
 20
0.0
 30
0.0
 70
   128
 71
   103
 72
   102
 73
   101
  0
VERTEX
  5
3B1
  8
0
 62
     9
 10
0.0
 20
0.0
 30
0.0
 70
   128
 71
   100
 72
   101
 73
   102
  0
VERTEX
  5
3B2
  8
0
 62
     9
 10
0.0
 20
0.0
 30
0.0
 70
   128
 71
   103
 72
   105
 73
   104
  0
VERTEX
  5
3B3
  8
0
 62
     9
 10
0.0
 20
0.0
 30
0.0
 70
   128
 71
   105
 72
   103
 73
   101
  0
VERTEX
  5
3B4
  8
0
 62
     9
 10
0.0
 20
0.0
 30
0.0
 70
   128
 71
    83
 72
    84
 73
   104
  0
VERTEX
  5
3B5
  8
0
 62
     9
 10
0.0
 20
0.0
 30
0.0
 70
   128
 71
   104
 72
   105
 73
    83
  0
VERTEX
  5
3B6
  8
0
 62
     9
 10
0.0
 20
0.0
 30
0.0
 70
   128
 71
    94
 72
    95
 73
    99
  0
VERTEX
  5
3B7
  8
0
 62
     9
 10
0.0
 20
0.0
 30
0.0
 70
   128
 71
   100
 72
   102
 73
    99
  0
VERTEX
  5
3B8
  8
0
 62
     9
 10
0.0
 20
0.0
 30
0.0
 70
   128
 71
    98
 72
    94
 73
    97
  0
VERTEX
  5
3B9
  8
0
 62
     9
 10
0.0
 20
0.0
 30
0.0
 70
   128
 71
    98
 72
    93
 73
    94
  0
VERTEX
  5
3BA
  8
0
 62
     9
 10
0.0
 20
0.0
 30
0.0
 70
   128
 71
    96
 72
    89
 73
    87
  0
VERTEX
  5
3BB
  8
0
 62
     9
 10
0.0
 20
0.0
 30
0.0
 70
   128
 71
    98
 72
    96
 73
    87
  0
VERTEX
  5
3BC
  8
0
 62
     9
 10
0.0
 20
0.0
 30
0.0
 70
   128
 71
   106
 72
    91
 73
    88
  0
VERTEX
  5
3BD
  8
0
 62
     9
 10
0.0
 20
0.0
 30
0.0
 70
   128
 71
    89
 72
   106
 73
    88
  0
VERTEX
  5
3BE
  8
0
 62
     9
 10
0.0
 20
0.0
 30
0.0
 70
   128
 71
    86
 72
    92
 73
    90
  0
VERTEX
  5
3BF
  8
0
 62
     9
 10
0.0
 20
0.0
 30
0.0
 70
   128
 71
    90
 72
    91
 73
   106
  0
VERTEX
  5
3C0
  8
0
 62
     9
 10
0.0
 20
0.0
 30
0.0
 70
   128
 71
    68
 72
    85
 73
    69
  0
VERTEX
  5
3C1
  8
0
 62
     9
 10
0.0
 20
0.0
 30
0.0
 70
   128
 71
    85
 72
    92
 73
    86
  0
VERTEX
  5
3C2
  8
0
 62
     9
 10
0.0
 20
0.0
 30
0.0
 70
   128
 71
    55
 72
    84
 73
    78
  0
VERTEX
  5
3C3
  8
0
 62
     9
 10
0.0
 20
0.0
 30
0.0
 70
   128
 71
   103
 72
   104
 73
    52
  0
VERTEX
  5
3C4
  8
0
 62
     9
 10
0.0
 20
0.0
 30
0.0
 70
   128
 71
    55
 72
    52
 73
   104
  0
VERTEX
  5
3C5
  8
0
 62
     9
 10
0.0
 20
0.0
 30
0.0
 70
   128
 71
   104
 72
    84
 73
    55
  0
VERTEX
  5
3C6
  8
0
 62
     9
 10
0.0
 20
0.0
 30
0.0
 70
   128
 71
    57
 72
    94
 73
    99
  0
VERTEX
  5
3C7
  8
0
 62
     9
 10
0.0
 20
0.0
 30
0.0
 70
   128
 71
    97
 72
    94
 73
    57
  0
VERTEX
  5
3C8
  8
0
 62
     9
 10
0.0
 20
0.0
 30
0.0
 70
   128
 71
   103
 72
    53
 73
   102
  0
VERTEX
  5
3C9
  8
0
 62
     9
 10
0.0
 20
0.0
 30
0.0
 70
   128
 71
    53
 72
    57
 73
    99
  0
VERTEX
  5
3CA
  8
0
 62
     9
 10
0.0
 20
0.0
 30
0.0
 70
   128
 71
    99
 72
   102
 73
    53
  0
VERTEX
  5
3CB
  8
0
 62
     9
 10
0.0
 20
0.0
 30
0.0
 70
   128
 71
    55
 72
    78
 73
   107
  0
VERTEX
  5
3CC
  8
0
 62
     9
 10
0.0
 20
0.0
 30
0.0
 70
   128
 71
   103
 72
    52
 73
    53
  0
VERTEX
  5
3CD
  8
0
 62
     9
 10
0.0
 20
0.0
 30
0.0
 70
   128
 71
   108
 72
   107
 73
    79
  0
VERTEX
  5
3CE
  8
0
 62
     9
 10
0.0
 20
0.0
 30
0.0
 70
   128
 71
    78
 72
    79
 73
   107
  0
VERTEX
  5
3CF
  8
0
 62
     9
 10
0.0
 20
0.0
 30
0.0
 70
   128
 71
    80
 72
   108
 73
    79
  0
VERTEX
  5
3D0
  8
0
 62
     9
 10
0.0
 20
0.0
 30
0.0
 70
   128
 71
    75
 72
   109
 73
   108
  0
VERTEX
  5
3D1
  8
0
 62
     9
 10
0.0
 20
0.0
 30
0.0
 70
   128
 71
   108
 72
    80
 73
    75
  0
VERTEX
  5
3D2
  8
0
 62
     9
 10
0.0
 20
0.0
 30
0.0
 70
   128
 71
    75
 72
    64
 73
   109
  0
VERTEX
  5
3D3
  8
0
 62
     9
 10
0.0
 20
0.0
 30
0.0
 70
   128
 71
    76
 72
   109
 73
    64
  0
VERTEX
  5
3D4
  8
0
 62
     9
 10
0.0
 20
0.0
 30
0.0
 70
   128
 71
    54
 72
    55
 73
   110
  0
VERTEX
  5
3D5
  8
0
 62
     9
 10
0.0
 20
0.0
 30
0.0
 70
   128
 71
   108
 72
   109
 73
   111
  0
VERTEX
  5
3D6
  8
0
 62
     9
 10
0.0
 20
0.0
 30
0.0
 70
   128
 71
   107
 72
   108
 73
   112
  0
VERTEX
  5
3D7
  8
0
 62
     9
 10
0.0
 20
0.0
 30
0.0
 70
   128
 71
   107
 72
   112
 73
   110
  0
VERTEX
  5
3D8
  8
0
 62
     9
 10
0.0
 20
0.0
 30
0.0
 70
   128
 71
   112
 72
   108
 73
   111
  0
VERTEX
  5
3D9
  8
0
 62
     9
 10
0.0
 20
0.0
 30
0.0
 70
   128
 71
   107
 72
   110
 73
    55
  0
VERTEX
  5
3DA
  8
0
 62
     9
 10
0.0
 20
0.0
 30
0.0
 70
   128
 71
    37
 72
   114
 73
   113
  0
VERTEX
  5
3DB
  8
0
 62
     9
 10
0.0
 20
0.0
 30
0.0
 70
   128
 71
   117
 72
   116
 73
   115
  0
VERTEX
  5
3DC
  8
0
 62
     9
 10
0.0
 20
0.0
 30
0.0
 70
   128
 71
   113
 72
   115
 73
   116
  0
VERTEX
  5
3DD
  8
0
 62
     9
 10
0.0
 20
0.0
 30
0.0
 70
   128
 71
   115
 72
   113
 73
   114
  0
VERTEX
  5
3DE
  8
0
 62
     9
 10
0.0
 20
0.0
 30
0.0
 70
   128
 71
   120
 72
   119
 73
   118
  0
VERTEX
  5
3DF
  8
0
 62
     9
 10
0.0
 20
0.0
 30
0.0
 70
   128
 71
   121
 72
   119
 73
   120
  0
VERTEX
  5
3E0
  8
0
 62
     9
 10
0.0
 20
0.0
 30
0.0
 70
   128
 71
   123
 72
   117
 73
   122
  0
VERTEX
  5
3E1
  8
0
 62
     9
 10
0.0
 20
0.0
 30
0.0
 70
   128
 71
   122
 72
   120
 73
   118
  0
VERTEX
  5
3E2
  8
0
 62
     9
 10
0.0
 20
0.0
 30
0.0
 70
   128
 71
   118
 72
   123
 73
   122
  0
VERTEX
  5
3E3
  8
0
 62
     9
 10
0.0
 20
0.0
 30
0.0
 70
   128
 71
   114
 72
    37
 73
    35
  0
VERTEX
  5
3E4
  8
0
 62
     9
 10
0.0
 20
0.0
 30
0.0
 70
   128
 71
   123
 72
   116
 73
   117
  0
VERTEX
  5
3E5
  8
0
 62
     9
 10
0.0
 20
0.0
 30
0.0
 70
   128
 71
    32
 72
   124
 73
    35
  0
VERTEX
  5
3E6
  8
0
 62
     9
 10
0.0
 20
0.0
 30
0.0
 70
   128
 71
   114
 72
    35
 73
   124
  0
VERTEX
  5
3E7
  8
0
 62
     9
 10
0.0
 20
0.0
 30
0.0
 70
   128
 71
   125
 72
    32
 73
    31
  0
VERTEX
  5
3E8
  8
0
 62
     9
 10
0.0
 20
0.0
 30
0.0
 70
   128
 71
    32
 72
   125
 73
   124
  0
VERTEX
  5
3E9
  8
0
 62
     9
 10
0.0
 20
0.0
 30
0.0
 70
   128
 71
    31
 72
    29
 73
   126
  0
VERTEX
  5
3EA
  8
0
 62
     9
 10
0.0
 20
0.0
 30
0.0
 70
   128
 71
   126
 72
   125
 73
    31
  0
VERTEX
  5
3EB
  8
0
 62
     9
 10
0.0
 20
0.0
 30
0.0
 70
   128
 71
    25
 72
   127
 73
    29
  0
VERTEX
  5
3EC
  8
0
 62
     9
 10
0.0
 20
0.0
 30
0.0
 70
   128
 71
   126
 72
    29
 73
   127
  0
VERTEX
  5
3ED
  8
0
 62
     9
 10
0.0
 20
0.0
 30
0.0
 70
   128
 71
    26
 72
   127
 73
    25
  0
VERTEX
  5
3EE
  8
0
 62
     9
 10
0.0
 20
0.0
 30
0.0
 70
   128
 71
   128
 72
    38
 73
   113
  0
VERTEX
  5
3EF
  8
0
 62
     9
 10
0.0
 20
0.0
 30
0.0
 70
   128
 71
   129
 72
   118
 73
   119
  0
VERTEX
  5
3F0
  8
0
 62
     9
 10
0.0
 20
0.0
 30
0.0
 70
   128
 71
   116
 72
   123
 73
   130
  0
VERTEX
  5
3F1
  8
0
 62
     9
 10
0.0
 20
0.0
 30
0.0
 70
   128
 71
   133
 72
   132
 73
   131
  0
VERTEX
  5
3F2
  8
0
 62
     9
 10
0.0
 20
0.0
 30
0.0
 70
   128
 71
   119
 72
   121
 73
   134
  0
VERTEX
  5
3F3
  8
0
 62
     9
 10
0.0
 20
0.0
 30
0.0
 70
   128
 71
   137
 72
   136
 73
   135
  0
VERTEX
  5
3F4
  8
0
 62
     9
 10
0.0
 20
0.0
 30
0.0
 70
   128
 71
   133
 72
   135
 73
   138
  0
VERTEX
  5
3F5
  8
0
 62
     9
 10
0.0
 20
0.0
 30
0.0
 70
   128
 71
   140
 72
   137
 73
   139
  0
VERTEX
  5
3F6
  8
0
 62
     9
 10
0.0
 20
0.0
 30
0.0
 70
   128
 71
   137
 72
   140
 73
   136
  0
VERTEX
  5
3F7
  8
0
 62
     9
 10
0.0
 20
0.0
 30
0.0
 70
   128
 71
   139
 72
    50
 73
   141
  0
VERTEX
  5
3F8
  8
0
 62
     9
 10
0.0
 20
0.0
 30
0.0
 70
   128
 71
   141
 72
   140
 73
   139
  0
VERTEX
  5
3F9
  8
0
 62
     9
 10
0.0
 20
0.0
 30
0.0
 70
   128
 71
   141
 72
    50
 73
    48
  0
VERTEX
  5
3FA
  8
0
 62
     9
 10
0.0
 20
0.0
 30
0.0
 70
   128
 71
   132
 72
   133
 73
   138
  0
VERTEX
  5
3FB
  8
0
 62
     9
 10
0.0
 20
0.0
 30
0.0
 70
   128
 71
   135
 72
   136
 73
   138
  0
VERTEX
  5
3FC
  8
0
 62
     9
 10
0.0
 20
0.0
 30
0.0
 70
   128
 71
   131
 72
   134
 73
   121
  0
VERTEX
  5
3FD
  8
0
 62
     9
 10
0.0
 20
0.0
 30
0.0
 70
   128
 71
   131
 72
   132
 73
   134
  0
VERTEX
  5
3FE
  8
0
 62
     9
 10
0.0
 20
0.0
 30
0.0
 70
   128
 71
   142
 72
   129
 73
   119
  0
VERTEX
  5
3FF
  8
0
 62
     9
 10
0.0
 20
0.0
 30
0.0
 70
   128
 71
   119
 72
   134
 73
   142
  0
VERTEX
  5
400
  8
0
 62
     9
 10
0.0
 20
0.0
 30
0.0
 70
   128
 71
   143
 72
   123
 73
   118
  0
VERTEX
  5
401
  8
0
 62
     9
 10
0.0
 20
0.0
 30
0.0
 70
   128
 71
   129
 72
   143
 73
   118
  0
VERTEX
  5
402
  8
0
 62
     9
 10
0.0
 20
0.0
 30
0.0
 70
   128
 71
   128
 72
   116
 73
   130
  0
VERTEX
  5
403
  8
0
 62
     9
 10
0.0
 20
0.0
 30
0.0
 70
   128
 71
   130
 72
   123
 73
   143
  0
VERTEX
  5
404
  8
0
 62
     9
 10
0.0
 20
0.0
 30
0.0
 70
   128
 71
    37
 72
   113
 73
    38
  0
VERTEX
  5
405
  8
0
 62
     9
 10
0.0
 20
0.0
 30
0.0
 70
   128
 71
   113
 72
   116
 73
   128
  0
VERTEX
  5
406
  8
0
 62
     9
 10
0.0
 20
0.0
 30
0.0
 70
   128
 71
    14
 72
    27
 73
    28
  0
VERTEX
  5
407
  8
0
 62
     9
 10
0.0
 20
0.0
 30
0.0
 70
   128
 71
   128
 72
   144
 73
    38
  0
VERTEX
  5
408
  8
0
 62
     9
 10
0.0
 20
0.0
 30
0.0
 70
   128
 71
    36
 72
    22
 73
    20
  0
VERTEX
  5
409
  8
0
 62
     9
 10
0.0
 20
0.0
 30
0.0
 70
   128
 71
    30
 72
    15
 73
    28
  0
VERTEX
  5
40A
  8
0
 62
     9
 10
0.0
 20
0.0
 30
0.0
 70
   128
 71
    23
 72
    22
 73
    38
  0
VERTEX
  5
40B
  8
0
 62
     9
 10
0.0
 20
0.0
 30
0.0
 70
   128
 71
    19
 72
    34
 73
    20
  0
VERTEX
  5
40C
  8
0
 62
     9
 10
0.0
 20
0.0
 30
0.0
 70
   128
 71
    34
 72
    19
 73
    33
  0
VERTEX
  5
40D
  8
0
 62
     9
 10
0.0
 20
0.0
 30
0.0
 70
   128
 71
   130
 72
   145
 73
   128
  0
VERTEX
  5
40E
  8
0
 62
     9
 10
0.0
 20
0.0
 30
0.0
 70
   128
 71
    30
 72
    33
 73
    17
  0
VERTEX
  5
40F
  8
0
 62
     9
 10
0.0
 20
0.0
 30
0.0
 70
   128
 71
   146
 72
   143
 73
   129
  0
VERTEX
  5
410
  8
0
 62
     9
 10
0.0
 20
0.0
 30
0.0
 70
   128
 71
   143
 72
   147
 73
   130
  0
VERTEX
  5
411
  8
0
 62
     9
 10
0.0
 20
0.0
 30
0.0
 70
   128
 71
     4
 72
    40
 73
     3
  0
VERTEX
  5
412
  8
0
 62
     9
 10
0.0
 20
0.0
 30
0.0
 70
   128
 71
    10
 72
     3
 73
    27
  0
VERTEX
  5
413
  8
0
 62
     9
 10
0.0
 20
0.0
 30
0.0
 70
   128
 71
   129
 72
   148
 73
   146
  0
VERTEX
  5
414
  8
0
 62
     9
 10
0.0
 20
0.0
 30
0.0
 70
   128
 71
     4
 72
     5
 73
    41
  0
VERTEX
  5
415
  8
0
 62
     9
 10
0.0
 20
0.0
 30
0.0
 70
   128
 71
   148
 72
   142
 73
   149
  0
VERTEX
  5
416
  8
0
 62
     9
 10
0.0
 20
0.0
 30
0.0
 70
   128
 71
   149
 72
   134
 73
   150
  0
VERTEX
  5
417
  8
0
 62
     9
 10
0.0
 20
0.0
 30
0.0
 70
   128
 71
   151
 72
   134
 73
   132
  0
VERTEX
  5
418
  8
0
 62
     9
 10
0.0
 20
0.0
 30
0.0
 70
   128
 71
    42
 72
     5
 73
     9
  0
VERTEX
  5
419
  8
0
 62
     9
 10
0.0
 20
0.0
 30
0.0
 70
   128
 71
   138
 72
   136
 73
   152
  0
VERTEX
  5
41A
  8
0
 62
     9
 10
0.0
 20
0.0
 30
0.0
 70
   128
 71
   153
 72
   132
 73
   138
  0
VERTEX
  5
41B
  8
0
 62
     9
 10
0.0
 20
0.0
 30
0.0
 70
   128
 71
   141
 72
    48
 73
   154
  0
VERTEX
  5
41C
  8
0
 62
     9
 10
0.0
 20
0.0
 30
0.0
 70
   128
 71
   155
 72
   136
 73
   140
  0
VERTEX
  5
41D
  8
0
 62
     9
 10
0.0
 20
0.0
 30
0.0
 70
   128
 71
   140
 72
   156
 73
   155
  0
VERTEX
  5
41E
  8
0
 62
     9
 10
0.0
 20
0.0
 30
0.0
 70
   128
 71
    41
 72
     5
 73
    42
  0
VERTEX
  5
41F
  8
0
 62
     9
 10
0.0
 20
0.0
 30
0.0
 70
   128
 71
   154
 72
    48
 73
    24
  0
VERTEX
  5
420
  8
0
 62
     9
 10
0.0
 20
0.0
 30
0.0
 70
   128
 71
    48
 72
    11
 73
    24
  0
VERTEX
  5
421
  8
0
 62
     9
 10
0.0
 20
0.0
 30
0.0
 70
   128
 71
    47
 72
    45
 73
     8
  0
VERTEX
  5
422
  8
0
 62
     9
 10
0.0
 20
0.0
 30
0.0
 70
   128
 71
   140
 72
   141
 73
   156
  0
VERTEX
  5
423
  8
0
 62
     9
 10
0.0
 20
0.0
 30
0.0
 70
   128
 71
   156
 72
   141
 73
   154
  0
VERTEX
  5
424
  8
0
 62
     9
 10
0.0
 20
0.0
 30
0.0
 70
   128
 71
   152
 72
   136
 73
   155
  0
VERTEX
  5
425
  8
0
 62
     9
 10
0.0
 20
0.0
 30
0.0
 70
   128
 71
   153
 72
   138
 73
   152
  0
VERTEX
  5
426
  8
0
 62
     9
 10
0.0
 20
0.0
 30
0.0
 70
   128
 71
   151
 72
   132
 73
   153
  0
VERTEX
  5
427
  8
0
 62
     9
 10
0.0
 20
0.0
 30
0.0
 70
   128
 71
   150
 72
   134
 73
   151
  0
VERTEX
  5
428
  8
0
 62
     9
 10
0.0
 20
0.0
 30
0.0
 70
   128
 71
   142
 72
   134
 73
   149
  0
VERTEX
  5
429
  8
0
 62
     9
 10
0.0
 20
0.0
 30
0.0
 70
   128
 71
   129
 72
   142
 73
   148
  0
VERTEX
  5
42A
  8
0
 62
     9
 10
0.0
 20
0.0
 30
0.0
 70
   128
 71
   147
 72
   143
 73
   146
  0
VERTEX
  5
42B
  8
0
 62
     9
 10
0.0
 20
0.0
 30
0.0
 70
   128
 71
   145
 72
   130
 73
   147
  0
VERTEX
  5
42C
  8
0
 62
     9
 10
0.0
 20
0.0
 30
0.0
 70
   128
 71
   144
 72
   128
 73
   145
  0
VERTEX
  5
42D
  8
0
 62
     9
 10
0.0
 20
0.0
 30
0.0
 70
   128
 71
    23
 72
    38
 73
   144
  0
VERTEX
  5
42E
  8
0
 62
     9
 10
0.0
 20
0.0
 30
0.0
 70
   128
 71
    36
 72
    38
 73
    22
  0
VERTEX
  5
42F
  8
0
 62
     9
 10
0.0
 20
0.0
 30
0.0
 70
   128
 71
    34
 72
    36
 73
    20
  0
VERTEX
  5
430
  8
0
 62
     9
 10
0.0
 20
0.0
 30
0.0
 70
   128
 71
    17
 72
    33
 73
    19
  0
VERTEX
  5
431
  8
0
 62
     9
 10
0.0
 20
0.0
 30
0.0
 70
   128
 71
    15
 72
    30
 73
    17
  0
VERTEX
  5
432
  8
0
 62
     9
 10
0.0
 20
0.0
 30
0.0
 70
   128
 71
    14
 72
    28
 73
    15
  0
VERTEX
  5
433
  8
0
 62
     9
 10
0.0
 20
0.0
 30
0.0
 70
   128
 71
    10
 72
    27
 73
    14
  0
VERTEX
  5
434
  8
0
 62
     9
 10
0.0
 20
0.0
 30
0.0
 70
   128
 71
    40
 72
    27
 73
     3
  0
VERTEX
  5
435
  8
0
 62
     9
 10
0.0
 20
0.0
 30
0.0
 70
   128
 71
    41
 72
    40
 73
     4
  0
VERTEX
  5
436
  8
0
 62
     9
 10
0.0
 20
0.0
 30
0.0
 70
   128
 71
     9
 72
    45
 73
    42
  0
VERTEX
  5
437
  8
0
 62
     9
 10
0.0
 20
0.0
 30
0.0
 70
   128
 71
    11
 72
    47
 73
     8
  0
VERTEX
  5
438
  8
0
 62
     9
 10
0.0
 20
0.0
 30
0.0
 70
   128
 71
     8
 72
    45
 73
     9
  0
VERTEX
  5
439
  8
0
 62
     9
 10
0.0
 20
0.0
 30
0.0
 70
   128
 71
    47
 72
    11
 73
    48
  0
VERTEX
  5
43A
  8
0
 62
     9
 10
0.0
 20
0.0
 30
0.0
 70
   128
 71
   157
 72
    70
 73
    61
  0
VERTEX
  5
43B
  8
0
 62
     9
 10
0.0
 20
0.0
 30
0.0
 70
   128
 71
   159
 72
   158
 73
   106
  0
VERTEX
  5
43C
  8
0
 62
     9
 10
0.0
 20
0.0
 30
0.0
 70
   128
 71
   160
 72
    86
 73
    90
  0
VERTEX
  5
43D
  8
0
 62
     9
 10
0.0
 20
0.0
 30
0.0
 70
   128
 71
    89
 72
   159
 73
   106
  0
VERTEX
  5
43E
  8
0
 62
     9
 10
0.0
 20
0.0
 30
0.0
 70
   128
 71
    90
 72
   106
 73
   158
  0
VERTEX
  5
43F
  8
0
 62
     9
 10
0.0
 20
0.0
 30
0.0
 70
   128
 71
   160
 72
    90
 73
   158
  0
VERTEX
  5
440
  8
0
 62
     9
 10
0.0
 20
0.0
 30
0.0
 70
   128
 71
    89
 72
   161
 73
   159
  0
VERTEX
  5
441
  8
0
 62
     9
 10
0.0
 20
0.0
 30
0.0
 70
   128
 71
    96
 72
    97
 73
   161
  0
VERTEX
  5
442
  8
0
 62
     9
 10
0.0
 20
0.0
 30
0.0
 70
   128
 71
    89
 72
    96
 73
   161
  0
VERTEX
  5
443
  8
0
 62
     9
 10
0.0
 20
0.0
 30
0.0
 70
   128
 71
   162
 72
    86
 73
   160
  0
VERTEX
  5
444
  8
0
 62
     9
 10
0.0
 20
0.0
 30
0.0
 70
   128
 71
    67
 72
    69
 73
   162
  0
VERTEX
  5
445
  8
0
 62
     9
 10
0.0
 20
0.0
 30
0.0
 70
   128
 71
   162
 72
    69
 73
    86
  0
VERTEX
  5
446
  8
0
 62
     9
 10
0.0
 20
0.0
 30
0.0
 70
   128
 71
    67
 72
   163
 73
    65
  0
VERTEX
  5
447
  8
0
 62
     9
 10
0.0
 20
0.0
 30
0.0
 70
   128
 71
   163
 72
    67
 73
   162
  0
VERTEX
  5
448
  8
0
 62
     9
 10
0.0
 20
0.0
 30
0.0
 70
   128
 71
   164
 72
    61
 73
    65
  0
VERTEX
  5
449
  8
0
 62
     9
 10
0.0
 20
0.0
 30
0.0
 70
   128
 71
    65
 72
   163
 73
   164
  0
VERTEX
  5
44A
  8
0
 62
     9
 10
0.0
 20
0.0
 30
0.0
 70
   128
 71
   157
 72
   165
 73
    70
  0
VERTEX
  5
44B
  8
0
 62
     9
 10
0.0
 20
0.0
 30
0.0
 70
   128
 71
   164
 72
   157
 73
    61
  0
VERTEX
  5
44C
  8
0
 62
     9
 10
0.0
 20
0.0
 30
0.0
 70
   128
 71
    76
 72
    72
 73
   165
  0
VERTEX
  5
44D
  8
0
 62
     9
 10
0.0
 20
0.0
 30
0.0
 70
   128
 71
   165
 72
    72
 73
    70
  0
VERTEX
  5
44E
  8
0
 62
     9
 10
0.0
 20
0.0
 30
0.0
 70
   128
 71
   162
 72
   115
 73
   114
  0
VERTEX
  5
44F
  8
0
 62
     9
 10
0.0
 20
0.0
 30
0.0
 70
   128
 71
   117
 72
   115
 73
   160
  0
VERTEX
  5
450
  8
0
 62
     9
 10
0.0
 20
0.0
 30
0.0
 70
   128
 71
   162
 72
   160
 73
   115
  0
VERTEX
  5
451
  8
0
 62
     9
 10
0.0
 20
0.0
 30
0.0
 70
   128
 71
   117
 72
   158
 73
   122
  0
VERTEX
  5
452
  8
0
 62
     9
 10
0.0
 20
0.0
 30
0.0
 70
   128
 71
   158
 72
   117
 73
   160
  0
VERTEX
  5
453
  8
0
 62
     9
 10
0.0
 20
0.0
 30
0.0
 70
   128
 71
   159
 72
   120
 73
   122
  0
VERTEX
  5
454
  8
0
 62
     9
 10
0.0
 20
0.0
 30
0.0
 70
   128
 71
   122
 72
   158
 73
   159
  0
VERTEX
  5
455
  8
0
 62
     9
 10
0.0
 20
0.0
 30
0.0
 70
   128
 71
   159
 72
   161
 73
   120
  0
VERTEX
  5
456
  8
0
 62
     9
 10
0.0
 20
0.0
 30
0.0
 70
   128
 71
   162
 72
   114
 73
   163
  0
VERTEX
  5
457
  8
0
 62
     9
 10
0.0
 20
0.0
 30
0.0
 70
   128
 71
   163
 72
   124
 73
   164
  0
VERTEX
  5
458
  8
0
 62
     9
 10
0.0
 20
0.0
 30
0.0
 70
   128
 71
   124
 72
   163
 73
   114
  0
VERTEX
  5
459
  8
0
 62
     9
 10
0.0
 20
0.0
 30
0.0
 70
   128
 71
   125
 72
   157
 73
   164
  0
VERTEX
  5
45A
  8
0
 62
     9
 10
0.0
 20
0.0
 30
0.0
 70
   128
 71
   164
 72
   124
 73
   125
  0
VERTEX
  5
45B
  8
0
 62
     9
 10
0.0
 20
0.0
 30
0.0
 70
   128
 71
   165
 72
   157
 73
   126
  0
VERTEX
  5
45C
  8
0
 62
     9
 10
0.0
 20
0.0
 30
0.0
 70
   128
 71
   125
 72
   126
 73
   157
  0
VERTEX
  5
45D
  8
0
 62
     9
 10
0.0
 20
0.0
 30
0.0
 70
   128
 71
   127
 72
   165
 73
   126
  0
VERTEX
  5
45E
  8
0
 62
     9
 10
0.0
 20
0.0
 30
0.0
 70
   128
 71
    51
 72
   139
 73
   137
  0
VERTEX
  5
45F
  8
0
 62
     9
 10
0.0
 20
0.0
 30
0.0
 70
   128
 71
   133
 72
   131
 73
    58
  0
VERTEX
  5
460
  8
0
 62
     9
 10
0.0
 20
0.0
 30
0.0
 70
   128
 71
    58
 72
    56
 73
   133
  0
VERTEX
  5
461
  8
0
 62
     9
 10
0.0
 20
0.0
 30
0.0
 70
   128
 71
   131
 72
   121
 73
    58
  0
VERTEX
  5
462
  8
0
 62
     9
 10
0.0
 20
0.0
 30
0.0
 70
   128
 71
    56
 72
   135
 73
   133
  0
VERTEX
  5
463
  8
0
 62
     9
 10
0.0
 20
0.0
 30
0.0
 70
   128
 71
    51
 72
   137
 73
    56
  0
VERTEX
  5
464
  8
0
 62
     9
 10
0.0
 20
0.0
 30
0.0
 70
   128
 71
   135
 72
    56
 73
   137
  0
VERTEX
  5
465
  8
0
 62
     9
 10
0.0
 20
0.0
 30
0.0
 70
   128
 71
    51
 72
    54
 73
   139
  0
VERTEX
  5
466
  8
0
 62
     9
 10
0.0
 20
0.0
 30
0.0
 70
   128
 71
    54
 72
    50
 73
   139
  0
VERTEX
  5
467
  8
0
 62
     9
 10
0.0
 20
0.0
 30
0.0
 70
   128
 71
    54
 72
    49
 73
    50
  0
VERTEX
  5
468
  8
0
 62
     9
 10
0.0
 20
0.0
 30
0.0
 70
   128
 71
    44
 72
   112
 73
    43
  0
VERTEX
  5
469
  8
0
 62
     9
 10
0.0
 20
0.0
 30
0.0
 70
   128
 71
    49
 72
   110
 73
    46
  0
VERTEX
  5
46A
  8
0
 62
     9
 10
0.0
 20
0.0
 30
0.0
 70
   128
 71
   111
 72
    39
 73
    43
  0
VERTEX
  5
46B
  8
0
 62
     9
 10
0.0
 20
0.0
 30
0.0
 70
   128
 71
    43
 72
   112
 73
   111
  0
VERTEX
  5
46C
  8
0
 62
     9
 10
0.0
 20
0.0
 30
0.0
 70
   128
 71
    39
 72
   111
 73
    26
  0
VERTEX
  5
46D
  8
0
 62
     9
 10
0.0
 20
0.0
 30
0.0
 70
   128
 71
    44
 72
    46
 73
   112
  0
VERTEX
  5
46E
  8
0
 62
     9
 10
0.0
 20
0.0
 30
0.0
 70
   128
 71
    54
 72
   110
 73
    49
  0
VERTEX
  5
46F
  8
0
 62
     9
 10
0.0
 20
0.0
 30
0.0
 70
   128
 71
   110
 72
   112
 73
    46
  0
VERTEX
  5
470
  8
0
 62
     9
 10
0.0
 20
0.0
 30
0.0
 70
   128
 71
   161
 72
    97
 73
   120
  0
VERTEX
  5
471
  8
0
 62
     9
 10
0.0
 20
0.0
 30
0.0
 70
   128
 71
    57
 72
    58
 73
   121
  0
VERTEX
  5
472
  8
0
 62
     9
 10
0.0
 20
0.0
 30
0.0
 70
   128
 71
    57
 72
   121
 73
    97
  0
VERTEX
  5
473
  8
0
 62
     9
 10
0.0
 20
0.0
 30
0.0
 70
   128
 71
   120
 72
    97
 73
   121
  0
VERTEX
  5
474
  8
0
 62
     9
 10
0.0
 20
0.0
 30
0.0
 70
   128
 71
   109
 72
    76
 73
   111
  0
VERTEX
  5
475
  8
0
 62
     9
 10
0.0
 20
0.0
 30
0.0
 70
   128
 71
   165
 72
   127
 73
    26
  0
VERTEX
  5
476
  8
0
 62
     9
 10
0.0
 20
0.0
 30
0.0
 70
   128
 71
   165
 72
    26
 73
    76
  0
VERTEX
  5
477
  8
0
 62
     9
 10
0.0
 20
0.0
 30
0.0
 70
   128
 71
   111
 72
    76
 73
    26
  0
VERTEX
  5
478
  8
0
 62
     9
 10
0.0
 20
0.0
 30
0.0
 70
   128
 71
   154
 72
   166
 73
   156
  0
VERTEX
  5
479
  8
0
 62
     9
 10
0.0
 20
0.0
 30
0.0
 70
   128
 71
   153
 72
   167
 73
   152
  0
VERTEX
  5
47A
  8
0
 62
     9
 10
0.0
 20
0.0
 30
0.0
 70
   128
 71
   151
 72
   169
 73
   168
  0
VERTEX
  5
47B
  8
0
 62
     9
 10
0.0
 20
0.0
 30
0.0
 70
   128
 71
   152
 72
   155
 73
   167
  0
VERTEX
  5
47C
  8
0
 62
     9
 10
0.0
 20
0.0
 30
0.0
 70
   128
 71
   148
 72
   170
 73
   149
  0
VERTEX
  5
47D
  8
0
 62
     9
 10
0.0
 20
0.0
 30
0.0
 70
   128
 71
   148
 72
   149
 73
   170
  0
VERTEX
  5
47E
  8
0
 62
     9
 10
0.0
 20
0.0
 30
0.0
 70
   128
 71
   147
 72
   171
 73
   145
  0
VERTEX
  5
47F
  8
0
 62
     9
 10
0.0
 20
0.0
 30
0.0
 70
   128
 71
   172
 72
   146
 73
   147
  0
VERTEX
  5
480
  8
0
 62
     9
 10
0.0
 20
0.0
 30
0.0
 70
   128
 71
   171
 72
   147
 73
   145
  0
VERTEX
  5
481
  8
0
 62
     9
 10
0.0
 20
0.0
 30
0.0
 70
   128
 71
   147
 72
   171
 73
   172
  0
VERTEX
  5
482
  8
0
 62
     9
 10
0.0
 20
0.0
 30
0.0
 70
   128
 71
   145
 72
   171
 73
   173
  0
VERTEX
  5
483
  8
0
 62
     9
 10
0.0
 20
0.0
 30
0.0
 70
   128
 71
   171
 72
   145
 73
   144
  0
VERTEX
  5
484
  8
0
 62
     9
 10
0.0
 20
0.0
 30
0.0
 70
   128
 71
   144
 72
   173
 73
   171
  0
VERTEX
  5
485
  8
0
 62
     9
 10
0.0
 20
0.0
 30
0.0
 70
   128
 71
   172
 72
   170
 73
   146
  0
VERTEX
  5
486
  8
0
 62
     9
 10
0.0
 20
0.0
 30
0.0
 70
   128
 71
   148
 72
   146
 73
   170
  0
VERTEX
  5
487
  8
0
 62
     9
 10
0.0
 20
0.0
 30
0.0
 70
   128
 71
   152
 72
   167
 73
   168
  0
VERTEX
  5
488
  8
0
 62
     9
 10
0.0
 20
0.0
 30
0.0
 70
   128
 71
   150
 72
   149
 73
   169
  0
VERTEX
  5
489
  8
0
 62
     9
 10
0.0
 20
0.0
 30
0.0
 70
   128
 71
   170
 72
   169
 73
   149
  0
VERTEX
  5
48A
  8
0
 62
     9
 10
0.0
 20
0.0
 30
0.0
 70
   128
 71
   169
 72
   151
 73
   150
  0
VERTEX
  5
48B
  8
0
 62
     9
 10
0.0
 20
0.0
 30
0.0
 70
   128
 71
   153
 72
   168
 73
   167
  0
VERTEX
  5
48C
  8
0
 62
     9
 10
0.0
 20
0.0
 30
0.0
 70
   128
 71
   169
 72
   150
 73
   151
  0
VERTEX
  5
48D
  8
0
 62
     9
 10
0.0
 20
0.0
 30
0.0
 70
   128
 71
   167
 72
   155
 73
   152
  0
VERTEX
  5
48E
  8
0
 62
     9
 10
0.0
 20
0.0
 30
0.0
 70
   128
 71
   155
 72
   167
 73
   166
  0
VERTEX
  5
48F
  8
0
 62
     9
 10
0.0
 20
0.0
 30
0.0
 70
   128
 71
   166
 72
   154
 73
   174
  0
VERTEX
  5
490
  8
0
 62
     9
 10
0.0
 20
0.0
 30
0.0
 70
   128
 71
   166
 72
   174
 73
   156
  0
VERTEX
  5
491
  8
0
 62
     9
 10
0.0
 20
0.0
 30
0.0
 70
   128
 71
   174
 72
   154
 73
   156
  0
VERTEX
  5
492
  8
0
 62
     9
 10
0.0
 20
0.0
 30
0.0
 70
   128
 71
   154
 72
   174
 73
    24
  0
VERTEX
  5
493
  8
0
 62
     9
 10
0.0
 20
0.0
 30
0.0
 70
   128
 71
   174
 72
   154
 73
    24
  0
VERTEX
  5
494
  8
0
 62
     9
 10
0.0
 20
0.0
 30
0.0
 70
   128
 71
   156
 72
   166
 73
   155
  0
VERTEX
  5
495
  8
0
 62
     9
 10
0.0
 20
0.0
 30
0.0
 70
   128
 71
   166
 72
   156
 73
   155
  0
VERTEX
  5
496
  8
0
 62
     9
 10
0.0
 20
0.0
 30
0.0
 70
   128
 71
   166
 72
   167
 73
   155
  0
VERTEX
  5
497
  8
0
 62
     9
 10
0.0
 20
0.0
 30
0.0
 70
   128
 71
   168
 72
   153
 73
   152
  0
VERTEX
  5
498
  8
0
 62
     9
 10
0.0
 20
0.0
 30
0.0
 70
   128
 71
   153
 72
   168
 73
   151
  0
VERTEX
  5
499
  8
0
 62
     9
 10
0.0
 20
0.0
 30
0.0
 70
   128
 71
   168
 72
   153
 73
   151
  0
VERTEX
  5
49A
  8
0
 62
     9
 10
0.0
 20
0.0
 30
0.0
 70
   128
 71
   150
 72
   169
 73
   149
  0
VERTEX
  5
49B
  8
0
 62
     9
 10
0.0
 20
0.0
 30
0.0
 70
   128
 71
   168
 72
   169
 73
   151
  0
VERTEX
  5
49C
  8
0
 62
     9
 10
0.0
 20
0.0
 30
0.0
 70
   128
 71
   169
 72
   170
 73
   149
  0
VERTEX
  5
49D
  8
0
 62
     9
 10
0.0
 20
0.0
 30
0.0
 70
   128
 71
   172
 72
   146
 73
   148
  0
VERTEX
  5
49E
  8
0
 62
     9
 10
0.0
 20
0.0
 30
0.0
 70
   128
 71
   170
 72
   172
 73
   148
  0
VERTEX
  5
49F
  8
0
 62
     9
 10
0.0
 20
0.0
 30
0.0
 70
   128
 71
   146
 72
   172
 73
   147
  0
VERTEX
  5
4A0
  8
0
 62
     9
 10
0.0
 20
0.0
 30
0.0
 70
   128
 71
   172
 72
   171
 73
   147
  0
VERTEX
  5
4A1
  8
0
 62
     9
 10
0.0
 20
0.0
 30
0.0
 70
   128
 71
   173
 72
   144
 73
   145
  0
VERTEX
  5
4A2
  8
0
 62
     9
 10
0.0
 20
0.0
 30
0.0
 70
   128
 71
   144
 72
   173
 73
    23
  0
VERTEX
  5
4A3
  8
0
 62
     9
 10
0.0
 20
0.0
 30
0.0
 70
   128
 71
   173
 72
   144
 73
    23
  0
SEQEND
  5
4A4
  8
0
 62
     9
  0
ENDBLK
  5
4A7
  8
0
  0
BLOCK
  8
0
  2
41
 70
     0
 10
0.0
 20
0.0
 30
0.0
  3
41
  1

  0
POLYLINE
  5
4A9
  8
0
 62
     9
 66
     1
 10
0.0
 20
0.0
 30
0.0
 70
    64
 71
   158
 72
   560
  0
VERTEX
  5
4AA
  8
0
 10
10.64513492584229
 20
-1.561046838760376
 30
97.88999938964844
 70
   192
  0
VERTEX
  5
4AB
  8
0
 10
8.844985961914062
 20
-1.554447889328003
 30
97.88999938964844
 70
   192
  0
VERTEX
  5
4AC
  8
0
 10
8.856337547302246
 20
-1.561851501464844
 30
98.53848266601562
 70
   192
  0
VERTEX
  5
4AD
  8
0
 10
10.65537548065186
 20
-1.554270625114441
 30
98.50311279296875
 70
   192
  0
VERTEX
  5
4AE
  8
0
 10
11.55000019073486
 20
-0.0000000723920337
 30
97.88999938964844
 70
   192
  0
VERTEX
  5
4AF
  8
0
 10
11.55000019073486
 20
-0.0000000723920337
 30
98.48552703857422
 70
   192
  0
VERTEX
  5
4B0
  8
0
 10
7.949999809265137
 20
-0.0000000723920337
 30
97.88999938964844
 70
   192
  0
VERTEX
  5
4B1
  8
0
 10
7.949999809265137
 20
0.0000000000008618
 30
98.5562973022461
 70
   192
  0
VERTEX
  5
4B2
  8
0
 10
-16.39630889892578
 20
2.751243591308594
 30
97.92831420898438
 70
   192
  0
VERTEX
  5
4B3
  8
0
 10
-15.60923767089844
 20
-0.0000000000000035
 30
98.3743667602539
 70
   192
  0
VERTEX
  5
4B4
  8
0
 10
-15.37578773498535
 20
2.68367862701416
 30
98.3743667602539
 70
   192
  0
VERTEX
  5
4B5
  8
0
 10
2.519116878509521
 20
16.43632888793945
 30
97.92831420898438
 70
   192
  0
VERTEX
  5
4B6
  8
0
 10
1.403887391090393
 20
17.0039005279541
 30
96.90129089355469
 70
   192
  0
VERTEX
  5
4B7
  8
0
 10
-2.561862230300903
 20
16.42564392089844
 30
97.92831420898438
 70
   192
  0
VERTEX
  5
4B8
  8
0
 10
5.302328586578369
 20
14.58816337585449
 30
98.3743667602539
 70
   192
  0
VERTEX
  5
4B9
  8
0
 10
7.812429904937744
 20
13.51725196838379
 30
98.3743667602539
 70
   192
  0
VERTEX
  5
4BA
  8
0
 10
7.275232315063477
 20
14.95663356781006
 30
97.92831420898438
 70
   192
  0
VERTEX
  5
4BB
  8
0
 10
6.845792770385742
 20
15.62858390808105
 30
96.90129089355469
 70
   192
  0
VERTEX
  5
4BC
  8
0
 10
4.181583404541016
 20
16.54161071777344
 30
96.90129089355469
 70
   192
  0
VERTEX
  5
4BD
  8
0
 10
11.14337539672852
 20
12.34772968292236
 30
97.92831420898438
 70
   192
  0
VERTEX
  5
4BE
  8
0
 10
9.290390014648438
 20
14.23808479309082
 30
96.90129089355469
 70
   192
  0
VERTEX
  5
4BF
  8
0
 10
11.97634124755859
 20
10.02455139160156
 30
98.3743667602539
 70
   192
  0
VERTEX
  5
4C0
  8
0
 10
13.53519725799561
 20
7.789028644561768
 30
98.3743667602539
 70
   192
  0
VERTEX
  5
4C1
  8
0
 10
13.88724040985107
 20
9.164983749389648
 30
97.92831420898438
 70
   192
  0
VERTEX
  5
4C2
  8
0
 10
13.47018241882324
 20
10.49316787719727
 30
96.90129089355469
 70
   192
  0
VERTEX
  5
4C3
  8
0
 10
11.52709579467773
 20
12.52155017852783
 30
96.90129089355469
 70
   192
  0
VERTEX
  5
4C4
  8
0
 10
15.00798034667969
 20
8.123686790466309
 30
96.90129089355469
 70
   192
  0
VERTEX
  5
4C5
  8
0
 10
16.14388275146484
 20
5.543150901794434
 30
96.90129089355469
 70
   192
  0
VERTEX
  5
4C6
  8
0
 10
15.57376861572266
 20
5.863271236419678
 30
97.92831420898438
 70
   192
  0
VERTEX
  5
4C7
  8
0
 10
16.40763473510742
 20
2.75650954246521
 30
97.92831420898438
 70
   192
  0
VERTEX
  5
4C8
  8
0
 10
14.68867015838623
 20
5.310852527618408
 30
98.3743667602539
 70
   192
  0
VERTEX
  5
4C9
  8
0
 10
16.83523178100586
 20
2.809431791305542
 30
96.90129089355469
 70
   192
  0
VERTEX
  5
4CA
  8
0
 10
17.06181144714355
 20
-0.0000000000000017
 30
96.90129089355469
 70
   192
  0
VERTEX
  5
4CB
  8
0
 10
15.38133716583252
 20
2.687639236450195
 30
98.3743667602539
 70
   192
  0
VERTEX
  5
4CC
  8
0
 10
15.60923767089844
 20
-0.0000000000000019
 30
98.3743667602539
 70
   192
  0
VERTEX
  5
4CD
  8
0
 10
16.63010787963867
 20
-0.0000000000000017
 30
97.92831420898438
 70
   192
  0
VERTEX
  5
4CE
  8
0
 10
-0.0000001623829604
 20
15.6083869934082
 30
98.3743667602539
 70
   192
  0
VERTEX
  5
4CF
  8
0
 10
2.705859422683716
 20
15.37317276000977
 30
98.3743667602539
 70
   192
  0
VERTEX
  5
4D0
  8
0
 10
-1.412352561950684
 20
17.00254821777344
 30
96.90129089355469
 70
   192
  0
VERTEX
  5
4D1
  8
0
 10
-4.190713882446289
 20
16.53976631164551
 30
96.90129089355469
 70
   192
  0
VERTEX
  5
4D2
  8
0
 10
-7.292301177978516
 20
14.94141674041748
 30
97.92831420898438
 70
   192
  0
VERTEX
  5
4D3
  8
0
 10
-6.847202777862549
 20
15.6134557723999
 30
96.90129089355469
 70
   192
  0
VERTEX
  5
4D4
  8
0
 10
-9.32688045501709
 20
14.27149391174316
 30
96.90129089355469
 70
   192
  0
VERTEX
  5
4D5
  8
0
 10
-11.14284896850586
 20
12.338210105896
 30
97.92831420898438
 70
   192
  0
VERTEX
  5
4D6
  8
0
 10
-10.05574321746826
 20
11.92642211914062
 30
98.3743667602539
 70
   192
  0
VERTEX
  5
4D7
  8
0
 10
-13.46123504638672
 20
10.47395324707031
 30
96.90129089355469
 70
   192
  0
VERTEX
  5
4D8
  8
0
 10
-11.54810523986816
 20
12.5408239364624
 30
96.90129089355469
 70
   192
  0
VERTEX
  5
4D9
  8
0
 10
-11.9766731262207
 20
9.998372077941895
 30
98.3743667602539
 70
   192
  0
VERTEX
  5
4DA
  8
0
 10
-13.87690258026123
 20
9.143784523010254
 30
97.92831420898438
 70
   192
  0
VERTEX
  5
4DB
  8
0
 10
-15.0048189163208
 20
8.115204811096191
 30
96.90129089355469
 70
   192
  0
VERTEX
  5
4DC
  8
0
 10
-15.55769157409668
 20
5.848082542419434
 30
97.92831420898438
 70
   192
  0
VERTEX
  5
4DD
  8
0
 10
-16.13430213928223
 20
5.534202098846436
 30
96.90129089355469
 70
   192
  0
VERTEX
  5
4DE
  8
0
 10
-16.63010787963867
 20
-0.0000000000000079
 30
97.92831420898438
 70
   192
  0
VERTEX
  5
4DF
  8
0
 10
-16.82606887817383
 20
2.8046715259552
 30
96.90129089355469
 70
   192
  0
VERTEX
  5
4E0
  8
0
 10
-17.06181144714355
 20
-0.0000000000000038
 30
96.90129089355469
 70
   192
  0
VERTEX
  5
4E1
  8
0
 10
-14.67476940155029
 20
5.296061515808105
 30
98.3743667602539
 70
   192
  0
VERTEX
  5
4E2
  8
0
 10
-13.5271520614624
 20
7.782255172729492
 30
98.3743667602539
 70
   192
  0
VERTEX
  5
4E3
  8
0
 10
-7.8227858543396
 20
13.49817752838135
 30
98.3743667602539
 70
   192
  0
VERTEX
  5
4E4
  8
0
 10
-5.366920948028564
 20
14.64843940734863
 30
98.3743667602539
 70
   192
  0
VERTEX
  5
4E5
  8
0
 10
-2.705616235733032
 20
15.34383010864258
 30
98.3743667602539
 70
   192
  0
VERTEX
  5
4E6
  8
0
 10
10.04727935791016
 20
11.95511627197266
 30
98.3743667602539
 70
   192
  0
VERTEX
  5
4E7
  8
0
 10
-0.0000000000000147
 20
0.0000000000000266
 30
98.62000274658203
 70
   192
  0
VERTEX
  5
4E8
  8
0
 10
8.855623245239258
 20
1.561446309089661
 30
98.53849029541016
 70
   192
  0
VERTEX
  5
4E9
  8
0
 10
10.6548318862915
 20
1.554591178894043
 30
98.50312805175781
 70
   192
  0
VERTEX
  5
4EA
  8
0
 10
13.52608394622803
 20
-7.7840895652771
 30
98.3743667602539
 70
   192
  0
VERTEX
  5
4EB
  8
0
 10
14.67428207397461
 20
-5.297421455383301
 30
98.3743667602539
 70
   192
  0
VERTEX
  5
4EC
  8
0
 10
15.37566184997559
 20
-2.684378623962402
 30
98.3743667602539
 70
   192
  0
VERTEX
  5
4ED
  8
0
 10
11.97482299804688
 20
-10.0006046295166
 30
98.3743667602539
 70
   192
  0
VERTEX
  5
4EE
  8
0
 10
10.05300903320312
 20
-11.92872714996338
 30
98.3743667602539
 70
   192
  0
VERTEX
  5
4EF
  8
0
 10
7.81902027130127
 20
-13.50037097930908
 30
98.3743667602539
 70
   192
  0
VERTEX
  5
4F0
  8
0
 10
5.362162590026855
 20
-14.65018177032471
 30
98.3743667602539
 70
   192
  0
VERTEX
  5
4F1
  8
0
 10
2.699881315231323
 20
-15.34480762481689
 30
98.3743667602539
 70
   192
  0
VERTEX
  5
4F2
  8
0
 10
0.0000003013719265
 20
-15.61194705963135
 30
98.3743667602539
 70
   192
  0
VERTEX
  5
4F3
  8
0
 10
-10.05004024505615
 20
-11.95278835296631
 30
98.3743667602539
 70
   192
  0
VERTEX
  5
4F4
  8
0
 10
-11.97819900512695
 20
-10.02234077453613
 30
98.3743667602539
 70
   192
  0
VERTEX
  5
4F5
  8
0
 10
-13.53625583648682
 20
-7.787176132202148
 30
98.3743667602539
 70
   192
  0
VERTEX
  5
4F6
  8
0
 10
-14.68917560577393
 20
-5.3094801902771
 30
98.3743667602539
 70
   192
  0
VERTEX
  5
4F7
  8
0
 10
-7.816294193267822
 20
-13.51531887054443
 30
98.3743667602539
 70
   192
  0
VERTEX
  5
4F8
  8
0
 10
-5.307021141052246
 20
-14.58634757995605
 30
98.3743667602539
 70
   192
  0
VERTEX
  5
4F9
  8
0
 10
-2.711496114730835
 20
-15.3721227645874
 30
98.3743667602539
 70
   192
  0
VERTEX
  5
4FA
  8
0
 10
-15.38145732879639
 20
-2.686936616897583
 30
98.3743667602539
 70
   192
  0
VERTEX
  5
4FB
  8
0
 10
-5.33243989944458
 20
-16.40560722351074
 30
86.12000274658203
 70
   192
  0
VERTEX
  5
4FC
  8
0
 10
-2.963637351989746
 20
-16.80211067199707
 30
96.90129089355469
 70
   192
  0
VERTEX
  5
4FD
  8
0
 10
-5.83273983001709
 20
-16.02714729309082
 30
96.90129089355469
 70
   192
  0
VERTEX
  5
4FE
  8
0
 10
-1.803189992904663
 20
-17.15484428405762
 30
86.12000274658203
 70
   192
  0
VERTEX
  5
4FF
  8
0
 10
1.823186755180359
 20
-17.1517333984375
 30
86.12000274658203
 70
   192
  0
VERTEX
  5
500
  8
0
 10
-0.0000000000000173
 20
-17.06181144714355
 30
96.90129089355469
 70
   192
  0
VERTEX
  5
501
  8
0
 10
-8.608559608459473
 20
-14.94752883911133
 30
86.12000274658203
 70
   192
  0
VERTEX
  5
502
  8
0
 10
-8.525198936462402
 20
-14.76238346099854
 30
96.90129089355469
 70
   192
  0
VERTEX
  5
503
  8
0
 10
-10.96115875244141
 20
-13.05688095092773
 30
96.90129089355469
 70
   192
  0
VERTEX
  5
504
  8
0
 10
-11.53040790557861
 20
-12.82767581939697
 30
86.12000274658203
 70
   192
  0
VERTEX
  5
505
  8
0
 10
-13.06698703765869
 20
-10.95895004272461
 30
96.90129089355469
 70
   192
  0
VERTEX
  5
506
  8
0
 10
-13.95877265930176
 20
-10.13362979888916
 30
86.12000274658203
 70
   192
  0
VERTEX
  5
507
  8
0
 10
-14.7759428024292
 20
-8.524343490600586
 30
96.90129089355469
 70
   192
  0
VERTEX
  5
508
  8
0
 10
-15.75841522216797
 20
-7.016896724700928
 30
86.12000274658203
 70
   192
  0
VERTEX
  5
509
  8
0
 10
-16.79957389831543
 20
-2.958390712738037
 30
96.90129089355469
 70
   192
  0
VERTEX
  5
50A
  8
0
 10
-17.25
 20
-0.0000000000000059
 30
86.12000274658203
 70
   192
  0
VERTEX
  5
50B
  8
0
 10
-16.86910247802734
 20
-3.603483915328979
 30
86.12000274658203
 70
   192
  0
VERTEX
  5
50C
  8
0
 10
-16.03033447265625
 20
-5.828594207763672
 30
96.90129089355469
 70
   192
  0
VERTEX
  5
50D
  8
0
 10
2.959580659866333
 20
-16.80340194702148
 30
96.90129089355469
 70
   192
  0
VERTEX
  5
50E
  8
0
 10
5.343306064605713
 20
-16.4011058807373
 30
86.12000274658203
 70
   192
  0
VERTEX
  5
50F
  8
0
 10
5.829784870147705
 20
-16.03558731079102
 30
96.90129089355469
 70
   192
  0
VERTEX
  5
510
  8
0
 10
8.510682106018066
 20
-14.76101112365723
 30
96.90129089355469
 70
   192
  0
VERTEX
  5
511
  8
0
 10
8.618620872497559
 20
-14.94336128234863
 30
86.12000274658203
 70
   192
  0
VERTEX
  5
512
  8
0
 10
11.54324722290039
 20
-12.81829452514648
 30
86.12000274658203
 70
   192
  0
VERTEX
  5
513
  8
0
 10
10.91552639007568
 20
-13.00698375701904
 30
96.90129089355469
 70
   192
  0
VERTEX
  5
514
  8
0
 10
13.07866859436035
 20
-10.98707675933838
 30
96.90129089355469
 70
   192
  0
VERTEX
  5
515
  8
0
 10
13.96644878387451
 20
-10.12312507629395
 30
86.12000274658203
 70
   192
  0
VERTEX
  5
516
  8
0
 10
15.76058197021484
 20
-7.011664867401123
 30
86.12000274658203
 70
   192
  0
VERTEX
  5
517
  8
0
 10
14.77705478668213
 20
-8.534873962402344
 30
96.90129089355469
 70
   192
  0
VERTEX
  5
518
  8
0
 10
16.87026977539062
 20
-3.600666761398315
 30
86.12000274658203
 70
   192
  0
VERTEX
  5
519
  8
0
 10
16.03842926025391
 20
-5.839951992034912
 30
96.90129089355469
 70
   192
  0
VERTEX
  5
51A
  8
0
 10
16.80864143371582
 20
-2.964963912963867
 30
96.90129089355469
 70
   192
  0
VERTEX
  5
51B
  8
0
 10
17.25
 20
-0.0000000000000038
 30
86.12000274658203
 70
   192
  0
VERTEX
  5
51C
  8
0
 10
8.619230270385742
 20
14.92520999908447
 30
86.12000274658203
 70
   192
  0
VERTEX
  5
51D
  8
0
 10
-11.50680160522461
 20
12.77870655059814
 30
86.12000274658203
 70
   192
  0
VERTEX
  5
51E
  8
0
 10
-5.327274322509766
 20
16.40748023986816
 30
86.12000274658203
 70
   192
  0
VERTEX
  5
51F
  8
0
 10
-13.95770263671875
 20
10.14069652557373
 30
86.12000274658203
 70
   192
  0
VERTEX
  5
520
  8
0
 10
-8.60455322265625
 20
14.92382144927979
 30
86.12000274658203
 70
   192
  0
VERTEX
  5
521
  8
0
 10
-16.87914276123047
 20
3.591069459915161
 30
86.12000274658203
 70
   192
  0
VERTEX
  5
522
  8
0
 10
-15.76300048828125
 20
7.020589828491211
 30
86.12000274658203
 70
   192
  0
VERTEX
  5
523
  8
0
 10
-1.797844648361206
 20
17.15596008300781
 30
86.12000274658203
 70
   192
  0
VERTEX
  5
524
  8
0
 10
5.327651500701904
 20
16.40549278259277
 30
86.12000274658203
 70
   192
  0
VERTEX
  5
525
  8
0
 10
1.805585503578186
 20
17.15452194213867
 30
86.12000274658203
 70
   192
  0
VERTEX
  5
526
  8
0
 10
15.75764942169189
 20
7.007838726043701
 30
86.12000274658203
 70
   192
  0
VERTEX
  5
527
  8
0
 10
16.87007713317871
 20
3.579562664031982
 30
86.12000274658203
 70
   192
  0
VERTEX
  5
528
  8
0
 10
13.95218086242676
 20
10.13614845275879
 30
86.12000274658203
 70
   192
  0
VERTEX
  5
529
  8
0
 10
11.53533363342285
 20
12.80665969848633
 30
86.12000274658203
 70
   192
  0
VERTEX
  5
52A
  8
0
 10
16.39630889892578
 20
-2.751243591308594
 30
97.92831420898438
 70
   192
  0
VERTEX
  5
52B
  8
0
 10
15.55769157409668
 20
-5.848082542419434
 30
97.92831420898438
 70
   192
  0
VERTEX
  5
52C
  8
0
 10
13.87690258026123
 20
-9.143784523010254
 30
97.92831420898438
 70
   192
  0
VERTEX
  5
52D
  8
0
 10
11.14284896850586
 20
-12.338210105896
 30
97.92831420898438
 70
   192
  0
VERTEX
  5
52E
  8
0
 10
2.561862230300903
 20
-16.42564392089844
 30
97.92831420898438
 70
   192
  0
VERTEX
  5
52F
  8
0
 10
7.292301177978516
 20
-14.94141674041748
 30
97.92831420898438
 70
   192
  0
VERTEX
  5
530
  8
0
 10
-7.275232315063477
 20
-14.95663356781006
 30
97.92831420898438
 70
   192
  0
VERTEX
  5
531
  8
0
 10
-2.519116878509521
 20
-16.43632888793945
 30
97.92831420898438
 70
   192
  0
VERTEX
  5
532
  8
0
 10
-11.14337539672852
 20
-12.34772968292236
 30
97.92831420898438
 70
   192
  0
VERTEX
  5
533
  8
0
 10
-13.88724040985107
 20
-9.164983749389648
 30
97.92831420898438
 70
   192
  0
VERTEX
  5
534
  8
0
 10
-15.57376861572266
 20
-5.863271236419678
 30
97.92831420898438
 70
   192
  0
VERTEX
  5
535
  8
0
 10
-16.40763473510742
 20
-2.75650954246521
 30
97.92831420898438
 70
   192
  0
VERTEX
  5
536
  8
0
 10
8.854865074157715
 20
1.561046719551086
 30
97.88999938964844
 70
   192
  0
VERTEX
  5
537
  8
0
 10
10.65501403808594
 20
1.554447770118713
 30
97.88999938964844
 70
   192
  0
VERTEX
  5
538
  8
0
 10
10.61859035491943
 20
1.572176098823547
 30
97.88999938964844
 70
   192
  0
VERTEX
  5
539
  8
0
 10
8.859707832336426
 20
1.562610149383545
 30
97.88999938964844
 70
   192
  0
VERTEX
  5
53A
  8
0
 10
-15.76058197021484
 20
7.011664867401123
 30
86.12000274658203
 70
   192
  0
VERTEX
  5
53B
  8
0
 10
-16.87026977539062
 20
3.600666761398315
 30
86.12000274658203
 70
   192
  0
VERTEX
  5
53C
  8
0
 10
-11.54324722290039
 20
12.81829452514648
 30
86.12000274658203
 70
   192
  0
VERTEX
  5
53D
  8
0
 10
-13.96644878387451
 20
10.12312507629395
 30
86.12000274658203
 70
   192
  0
VERTEX
  5
53E
  8
0
 10
-1.823186755180359
 20
17.1517333984375
 30
86.12000274658203
 70
   192
  0
VERTEX
  5
53F
  8
0
 10
-5.343306064605713
 20
16.4011058807373
 30
86.12000274658203
 70
   192
  0
VERTEX
  5
540
  8
0
 10
-8.618620872497559
 20
14.94336128234863
 30
86.12000274658203
 70
   192
  0
VERTEX
  5
541
  8
0
 10
5.33243989944458
 20
16.40560722351074
 30
86.12000274658203
 70
   192
  0
VERTEX
  5
542
  8
0
 10
1.803189992904663
 20
17.15484428405762
 30
86.12000274658203
 70
   192
  0
VERTEX
  5
543
  8
0
 10
11.53040790557861
 20
12.82767581939697
 30
86.12000274658203
 70
   192
  0
VERTEX
  5
544
  8
0
 10
8.608559608459473
 20
14.94752883911133
 30
86.12000274658203
 70
   192
  0
VERTEX
  5
545
  8
0
 10
13.95877265930176
 20
10.13362979888916
 30
86.12000274658203
 70
   192
  0
VERTEX
  5
546
  8
0
 10
15.75841522216797
 20
7.016896724700928
 30
86.12000274658203
 70
   192
  0
VERTEX
  5
547
  8
0
 10
16.86910247802734
 20
3.603483915328979
 30
86.12000274658203
 70
   192
  0
VERTEX
  5
548
  8
0
 62
     9
 10
0.0
 20
0.0
 30
0.0
 70
   128
 71
     3
 72
     2
 73
     1
  0
VERTEX
  5
549
  8
0
 62
     9
 10
0.0
 20
0.0
 30
0.0
 70
   128
 71
     4
 72
     3
 73
     1
  0
VERTEX
  5
54A
  8
0
 62
     9
 10
0.0
 20
0.0
 30
0.0
 70
   128
 71
     1
 72
     5
 73
     4
  0
VERTEX
  5
54B
  8
0
 62
     9
 10
0.0
 20
0.0
 30
0.0
 70
   128
 71
     6
 72
     4
 73
     5
  0
VERTEX
  5
54C
  8
0
 62
     9
 10
0.0
 20
0.0
 30
0.0
 70
   128
 71
     7
 72
     2
 73
     3
  0
VERTEX
  5
54D
  8
0
 62
     9
 10
0.0
 20
0.0
 30
0.0
 70
   128
 71
     3
 72
     8
 73
     7
  0
VERTEX
  5
54E
  8
0
 62
     9
 10
0.0
 20
0.0
 30
0.0
 70
   128
 71
    11
 72
    10
 73
     9
  0
VERTEX
  5
54F
  8
0
 62
     9
 10
0.0
 20
0.0
 30
0.0
 70
   128
 71
    14
 72
    13
 73
    12
  0
VERTEX
  5
550
  8
0
 62
     9
 10
0.0
 20
0.0
 30
0.0
 70
   128
 71
    17
 72
    16
 73
    15
  0
VERTEX
  5
551
  8
0
 62
     9
 10
0.0
 20
0.0
 30
0.0
 70
   128
 71
    17
 72
    19
 73
    18
  0
VERTEX
  5
552
  8
0
 62
     9
 10
0.0
 20
0.0
 30
0.0
 70
   128
 71
    21
 72
    20
 73
    17
  0
VERTEX
  5
553
  8
0
 62
     9
 10
0.0
 20
0.0
 30
0.0
 70
   128
 71
    16
 72
    17
 73
    20
  0
VERTEX
  5
554
  8
0
 62
     9
 10
0.0
 20
0.0
 30
0.0
 70
   128
 71
    24
 72
    23
 73
    22
  0
VERTEX
  5
555
  8
0
 62
     9
 10
0.0
 20
0.0
 30
0.0
 70
   128
 71
    17
 72
    18
 73
    21
  0
VERTEX
  5
556
  8
0
 62
     9
 10
0.0
 20
0.0
 30
0.0
 70
   128
 71
    20
 72
    25
 73
    24
  0
VERTEX
  5
557
  8
0
 62
     9
 10
0.0
 20
0.0
 30
0.0
 70
   128
 71
    20
 72
    21
 73
    26
  0
VERTEX
  5
558
  8
0
 62
     9
 10
0.0
 20
0.0
 30
0.0
 70
   128
 71
    27
 72
    24
 73
    25
  0
VERTEX
  5
559
  8
0
 62
     9
 10
0.0
 20
0.0
 30
0.0
 70
   128
 71
    29
 72
    27
 73
    28
  0
VERTEX
  5
55A
  8
0
 62
     9
 10
0.0
 20
0.0
 30
0.0
 70
   128
 71
    19
 72
    17
 73
    12
  0
VERTEX
  5
55B
  8
0
 62
     9
 10
0.0
 20
0.0
 30
0.0
 70
   128
 71
    31
 72
    29
 73
    30
  0
VERTEX
  5
55C
  8
0
 62
     9
 10
0.0
 20
0.0
 30
0.0
 70
   128
 71
    32
 72
    30
 73
    29
  0
VERTEX
  5
55D
  8
0
 62
     9
 10
0.0
 20
0.0
 30
0.0
 70
   128
 71
    30
 72
    32
 73
    33
  0
VERTEX
  5
55E
  8
0
 62
     9
 10
0.0
 20
0.0
 30
0.0
 70
   128
 71
    28
 72
    32
 73
    29
  0
VERTEX
  5
55F
  8
0
 62
     9
 10
0.0
 20
0.0
 30
0.0
 70
   128
 71
    36
 72
    35
 73
    34
  0
VERTEX
  5
560
  8
0
 62
     9
 10
0.0
 20
0.0
 30
0.0
 70
   128
 71
    24
 72
    27
 73
    29
  0
VERTEX
  5
561
  8
0
 62
     9
 10
0.0
 20
0.0
 30
0.0
 70
   128
 71
    12
 72
    13
 73
    19
  0
VERTEX
  5
562
  8
0
 62
     9
 10
0.0
 20
0.0
 30
0.0
 70
   128
 71
    38
 72
    37
 73
    12
  0
VERTEX
  5
563
  8
0
 62
     9
 10
0.0
 20
0.0
 30
0.0
 70
   128
 71
    14
 72
    39
 73
    13
  0
VERTEX
  5
564
  8
0
 62
     9
 10
0.0
 20
0.0
 30
0.0
 70
   128
 71
    40
 72
    39
 73
    14
  0
VERTEX
  5
565
  8
0
 62
     9
 10
0.0
 20
0.0
 30
0.0
 70
   128
 71
    41
 72
    40
 73
    14
  0
VERTEX
  5
566
  8
0
 62
     9
 10
0.0
 20
0.0
 30
0.0
 70
   128
 71
    41
 72
    43
 73
    42
  0
VERTEX
  5
567
  8
0
 62
     9
 10
0.0
 20
0.0
 30
0.0
 70
   128
 71
    40
 72
    41
 73
    42
  0
VERTEX
  5
568
  8
0
 62
     9
 10
0.0
 20
0.0
 30
0.0
 70
   128
 71
    41
 72
    45
 73
    44
  0
VERTEX
  5
569
  8
0
 62
     9
 10
0.0
 20
0.0
 30
0.0
 70
   128
 71
    41
 72
    44
 73
    43
  0
VERTEX
  5
56A
  8
0
 62
     9
 10
0.0
 20
0.0
 30
0.0
 70
   128
 71
    47
 72
    44
 73
    46
  0
VERTEX
  5
56B
  8
0
 62
     9
 10
0.0
 20
0.0
 30
0.0
 70
   128
 71
    47
 72
    43
 73
    44
  0
VERTEX
  5
56C
  8
0
 62
     9
 10
0.0
 20
0.0
 30
0.0
 70
   128
 71
    44
 72
    45
 73
    48
  0
VERTEX
  5
56D
  8
0
 62
     9
 10
0.0
 20
0.0
 30
0.0
 70
   128
 71
    46
 72
    44
 73
    49
  0
VERTEX
  5
56E
  8
0
 62
     9
 10
0.0
 20
0.0
 30
0.0
 70
   128
 71
    49
 72
    50
 73
    46
  0
VERTEX
  5
56F
  8
0
 62
     9
 10
0.0
 20
0.0
 30
0.0
 70
   128
 71
    49
 72
    51
 73
    50
  0
VERTEX
  5
570
  8
0
 62
     9
 10
0.0
 20
0.0
 30
0.0
 70
   128
 71
     9
 72
    51
 73
    11
  0
VERTEX
  5
571
  8
0
 62
     9
 10
0.0
 20
0.0
 30
0.0
 70
   128
 71
    52
 72
    51
 73
     9
  0
VERTEX
  5
572
  8
0
 62
     9
 10
0.0
 20
0.0
 30
0.0
 70
   128
 71
    10
 72
    53
 73
     9
  0
VERTEX
  5
573
  8
0
 62
     9
 10
0.0
 20
0.0
 30
0.0
 70
   128
 71
    52
 72
     9
 73
    54
  0
VERTEX
  5
574
  8
0
 62
     9
 10
0.0
 20
0.0
 30
0.0
 70
   128
 71
    53
 72
    55
 73
    54
  0
VERTEX
  5
575
  8
0
 62
     9
 10
0.0
 20
0.0
 30
0.0
 70
   128
 71
    51
 72
    56
 73
    11
  0
VERTEX
  5
576
  8
0
 62
     9
 10
0.0
 20
0.0
 30
0.0
 70
   128
 71
     9
 72
    53
 73
    54
  0
VERTEX
  5
577
  8
0
 62
     9
 10
0.0
 20
0.0
 30
0.0
 70
   128
 71
    56
 72
    51
 73
    57
  0
VERTEX
  5
578
  8
0
 62
     9
 10
0.0
 20
0.0
 30
0.0
 70
   128
 71
    51
 72
    52
 73
    50
  0
VERTEX
  5
579
  8
0
 62
     9
 10
0.0
 20
0.0
 30
0.0
 70
   128
 71
    49
 72
    57
 73
    51
  0
VERTEX
  5
57A
  8
0
 62
     9
 10
0.0
 20
0.0
 30
0.0
 70
   128
 71
    57
 72
    49
 73
    48
  0
VERTEX
  5
57B
  8
0
 62
     9
 10
0.0
 20
0.0
 30
0.0
 70
   128
 71
    49
 72
    44
 73
    48
  0
VERTEX
  5
57C
  8
0
 62
     9
 10
0.0
 20
0.0
 30
0.0
 70
   128
 71
    41
 72
    58
 73
    45
  0
VERTEX
  5
57D
  8
0
 62
     9
 10
0.0
 20
0.0
 30
0.0
 70
   128
 71
    41
 72
    59
 73
    58
  0
VERTEX
  5
57E
  8
0
 62
     9
 10
0.0
 20
0.0
 30
0.0
 70
   128
 71
    14
 72
    60
 73
    59
  0
VERTEX
  5
57F
  8
0
 62
     9
 10
0.0
 20
0.0
 30
0.0
 70
   128
 71
    41
 72
    14
 73
    59
  0
VERTEX
  5
580
  8
0
 62
     9
 10
0.0
 20
0.0
 30
0.0
 70
   128
 71
    60
 72
    14
 73
    37
  0
VERTEX
  5
581
  8
0
 62
     9
 10
0.0
 20
0.0
 30
0.0
 70
   128
 71
    14
 72
    12
 73
    37
  0
VERTEX
  5
582
  8
0
 62
     9
 10
0.0
 20
0.0
 30
0.0
 70
   128
 71
    38
 72
    12
 73
    15
  0
VERTEX
  5
583
  8
0
 62
     9
 10
0.0
 20
0.0
 30
0.0
 70
   128
 71
    12
 72
    17
 73
    15
  0
VERTEX
  5
584
  8
0
 62
     9
 10
0.0
 20
0.0
 30
0.0
 70
   128
 71
    20
 72
    61
 73
    16
  0
VERTEX
  5
585
  8
0
 62
     9
 10
0.0
 20
0.0
 30
0.0
 70
   128
 71
    61
 72
    20
 73
    22
  0
VERTEX
  5
586
  8
0
 62
     9
 10
0.0
 20
0.0
 30
0.0
 70
   128
 71
    20
 72
    26
 73
    25
  0
VERTEX
  5
587
  8
0
 62
     9
 10
0.0
 20
0.0
 30
0.0
 70
   128
 71
    20
 72
    24
 73
    22
  0
VERTEX
  5
588
  8
0
 62
     9
 10
0.0
 20
0.0
 30
0.0
 70
   128
 71
    29
 72
    31
 73
    23
  0
VERTEX
  5
589
  8
0
 62
     9
 10
0.0
 20
0.0
 30
0.0
 70
   128
 71
    24
 72
    29
 73
    23
  0
VERTEX
  5
58A
  8
0
 62
     9
 10
0.0
 20
0.0
 30
0.0
 70
   128
 71
    30
 72
    34
 73
    31
  0
VERTEX
  5
58B
  8
0
 62
     9
 10
0.0
 20
0.0
 30
0.0
 70
   128
 71
    30
 72
    36
 73
    34
  0
VERTEX
  5
58C
  8
0
 62
     9
 10
0.0
 20
0.0
 30
0.0
 70
   128
 71
    36
 72
    30
 73
    33
  0
VERTEX
  5
58D
  8
0
 62
     9
 10
0.0
 20
0.0
 30
0.0
 70
   128
 71
    22
 72
    62
 73
    61
  0
VERTEX
  5
58E
  8
0
 62
     9
 10
0.0
 20
0.0
 30
0.0
 70
   128
 71
    23
 72
    63
 73
    62
  0
VERTEX
  5
58F
  8
0
 62
     9
 10
0.0
 20
0.0
 30
0.0
 70
   128
 71
    62
 72
    16
 73
    61
  0
VERTEX
  5
590
  8
0
 62
     9
 10
0.0
 20
0.0
 30
0.0
 70
   128
 71
    23
 72
    62
 73
    22
  0
VERTEX
  5
591
  8
0
 62
     9
 10
0.0
 20
0.0
 30
0.0
 70
   128
 71
    15
 72
    16
 73
    62
  0
VERTEX
  5
592
  8
0
 62
     9
 10
0.0
 20
0.0
 30
0.0
 70
   128
 71
    62
 72
    37
 73
    38
  0
VERTEX
  5
593
  8
0
 62
     9
 10
0.0
 20
0.0
 30
0.0
 70
   128
 71
    15
 72
    62
 73
    38
  0
VERTEX
  5
594
  8
0
 62
     9
 10
0.0
 20
0.0
 30
0.0
 70
   128
 71
    63
 72
     8
 73
    62
  0
VERTEX
  5
595
  8
0
 62
     9
 10
0.0
 20
0.0
 30
0.0
 70
   128
 71
    34
 72
    64
 73
    63
  0
VERTEX
  5
596
  8
0
 62
     9
 10
0.0
 20
0.0
 30
0.0
 70
   128
 71
    35
 72
    64
 73
    34
  0
VERTEX
  5
597
  8
0
 62
     9
 10
0.0
 20
0.0
 30
0.0
 70
   128
 71
    63
 72
    31
 73
    34
  0
VERTEX
  5
598
  8
0
 62
     9
 10
0.0
 20
0.0
 30
0.0
 70
   128
 71
    31
 72
    63
 73
    23
  0
VERTEX
  5
599
  8
0
 62
     9
 10
0.0
 20
0.0
 30
0.0
 70
   128
 71
     6
 72
    64
 73
    35
  0
VERTEX
  5
59A
  8
0
 62
     9
 10
0.0
 20
0.0
 30
0.0
 70
   128
 71
     3
 72
    65
 73
    62
  0
VERTEX
  5
59B
  8
0
 62
     9
 10
0.0
 20
0.0
 30
0.0
 70
   128
 71
    67
 72
    66
 73
     3
  0
VERTEX
  5
59C
  8
0
 62
     9
 10
0.0
 20
0.0
 30
0.0
 70
   128
 71
    62
 72
    65
 73
    68
  0
VERTEX
  5
59D
  8
0
 62
     9
 10
0.0
 20
0.0
 30
0.0
 70
   128
 71
    66
 72
    65
 73
     3
  0
VERTEX
  5
59E
  8
0
 62
     9
 10
0.0
 20
0.0
 30
0.0
 70
   128
 71
     3
 72
     4
 73
    67
  0
VERTEX
  5
59F
  8
0
 62
     9
 10
0.0
 20
0.0
 30
0.0
 70
   128
 71
     4
 72
     6
 73
    35
  0
VERTEX
  5
5A0
  8
0
 62
     9
 10
0.0
 20
0.0
 30
0.0
 70
   128
 71
    35
 72
    67
 73
     4
  0
VERTEX
  5
5A1
  8
0
 62
     9
 10
0.0
 20
0.0
 30
0.0
 70
   128
 71
    69
 72
    62
 73
    68
  0
VERTEX
  5
5A2
  8
0
 62
     9
 10
0.0
 20
0.0
 30
0.0
 70
   128
 71
    70
 72
    62
 73
    69
  0
VERTEX
  5
5A3
  8
0
 62
     9
 10
0.0
 20
0.0
 30
0.0
 70
   128
 71
    62
 72
     8
 73
     3
  0
VERTEX
  5
5A4
  8
0
 62
     9
 10
0.0
 20
0.0
 30
0.0
 70
   128
 71
    62
 72
    70
 73
    71
  0
VERTEX
  5
5A5
  8
0
 62
     9
 10
0.0
 20
0.0
 30
0.0
 70
   128
 71
    72
 72
    62
 73
    71
  0
VERTEX
  5
5A6
  8
0
 62
     9
 10
0.0
 20
0.0
 30
0.0
 70
   128
 71
    73
 72
    62
 73
    72
  0
VERTEX
  5
5A7
  8
0
 62
     9
 10
0.0
 20
0.0
 30
0.0
 70
   128
 71
    75
 72
    62
 73
    74
  0
VERTEX
  5
5A8
  8
0
 62
     9
 10
0.0
 20
0.0
 30
0.0
 70
   128
 71
    77
 72
    62
 73
    76
  0
VERTEX
  5
5A9
  8
0
 62
     9
 10
0.0
 20
0.0
 30
0.0
 70
   128
 71
    62
 72
    78
 73
    74
  0
VERTEX
  5
5AA
  8
0
 62
     9
 10
0.0
 20
0.0
 30
0.0
 70
   128
 71
    76
 72
    62
 73
    75
  0
VERTEX
  5
5AB
  8
0
 62
     9
 10
0.0
 20
0.0
 30
0.0
 70
   128
 71
    79
 72
    78
 73
    62
  0
VERTEX
  5
5AC
  8
0
 62
     9
 10
0.0
 20
0.0
 30
0.0
 70
   128
 71
    62
 72
    73
 73
    80
  0
VERTEX
  5
5AD
  8
0
 62
     9
 10
0.0
 20
0.0
 30
0.0
 70
   128
 71
    79
 72
    62
 73
    80
  0
VERTEX
  5
5AE
  8
0
 62
     9
 10
0.0
 20
0.0
 30
0.0
 70
   128
 71
    81
 72
    62
 73
    77
  0
VERTEX
  5
5AF
  8
0
 62
     9
 10
0.0
 20
0.0
 30
0.0
 70
   128
 71
    10
 72
    62
 73
    81
  0
VERTEX
  5
5B0
  8
0
 62
     9
 10
0.0
 20
0.0
 30
0.0
 70
   128
 71
    84
 72
    83
 73
    82
  0
VERTEX
  5
5B1
  8
0
 62
     9
 10
0.0
 20
0.0
 30
0.0
 70
   128
 71
    87
 72
    86
 73
    85
  0
VERTEX
  5
5B2
  8
0
 62
     9
 10
0.0
 20
0.0
 30
0.0
 70
   128
 71
    83
 72
    85
 73
    82
  0
VERTEX
  5
5B3
  8
0
 62
     9
 10
0.0
 20
0.0
 30
0.0
 70
   128
 71
    82
 72
    88
 73
    84
  0
VERTEX
  5
5B4
  8
0
 62
     9
 10
0.0
 20
0.0
 30
0.0
 70
   128
 71
    89
 72
    84
 73
    88
  0
VERTEX
  5
5B5
  8
0
 62
     9
 10
0.0
 20
0.0
 30
0.0
 70
   128
 71
    90
 72
    89
 73
    88
  0
VERTEX
  5
5B6
  8
0
 62
     9
 10
0.0
 20
0.0
 30
0.0
 70
   128
 71
    87
 72
    85
 73
    83
  0
VERTEX
  5
5B7
  8
0
 62
     9
 10
0.0
 20
0.0
 30
0.0
 70
   128
 71
    88
 72
    91
 73
    90
  0
VERTEX
  5
5B8
  8
0
 62
     9
 10
0.0
 20
0.0
 30
0.0
 70
   128
 71
    90
 72
    91
 73
    92
  0
VERTEX
  5
5B9
  8
0
 62
     9
 10
0.0
 20
0.0
 30
0.0
 70
   128
 71
    92
 72
    91
 73
    93
  0
VERTEX
  5
5BA
  8
0
 62
     9
 10
0.0
 20
0.0
 30
0.0
 70
   128
 71
    95
 72
    94
 73
    93
  0
VERTEX
  5
5BB
  8
0
 62
     9
 10
0.0
 20
0.0
 30
0.0
 70
   128
 71
    98
 72
    97
 73
    96
  0
VERTEX
  5
5BC
  8
0
 62
     9
 10
0.0
 20
0.0
 30
0.0
 70
   128
 71
    98
 72
    96
 73
    99
  0
VERTEX
  5
5BD
  8
0
 62
     9
 10
0.0
 20
0.0
 30
0.0
 70
   128
 71
    94
 72
    95
 73
    99
  0
VERTEX
  5
5BE
  8
0
 62
     9
 10
0.0
 20
0.0
 30
0.0
 70
   128
 71
    94
 72
    92
 73
    93
  0
VERTEX
  5
5BF
  8
0
 62
     9
 10
0.0
 20
0.0
 30
0.0
 70
   128
 71
    98
 72
    99
 73
    95
  0
VERTEX
  5
5C0
  8
0
 62
     9
 10
0.0
 20
0.0
 30
0.0
 70
   128
 71
    97
 72
    55
 73
    96
  0
VERTEX
  5
5C1
  8
0
 62
     9
 10
0.0
 20
0.0
 30
0.0
 70
   128
 71
    87
 72
   100
 73
    86
  0
VERTEX
  5
5C2
  8
0
 62
     9
 10
0.0
 20
0.0
 30
0.0
 70
   128
 71
   102
 72
   101
 73
   100
  0
VERTEX
  5
5C3
  8
0
 62
     9
 10
0.0
 20
0.0
 30
0.0
 70
   128
 71
    86
 72
   100
 73
   101
  0
VERTEX
  5
5C4
  8
0
 62
     9
 10
0.0
 20
0.0
 30
0.0
 70
   128
 71
   104
 72
   102
 73
   103
  0
VERTEX
  5
5C5
  8
0
 62
     9
 10
0.0
 20
0.0
 30
0.0
 70
   128
 71
   102
 72
   104
 73
   101
  0
VERTEX
  5
5C6
  8
0
 62
     9
 10
0.0
 20
0.0
 30
0.0
 70
   128
 71
   106
 72
   105
 73
   104
  0
VERTEX
  5
5C7
  8
0
 62
     9
 10
0.0
 20
0.0
 30
0.0
 70
   128
 71
   104
 72
   103
 73
   106
  0
VERTEX
  5
5C8
  8
0
 62
     9
 10
0.0
 20
0.0
 30
0.0
 70
   128
 71
   108
 72
   105
 73
   107
  0
VERTEX
  5
5C9
  8
0
 62
     9
 10
0.0
 20
0.0
 30
0.0
 70
   128
 71
   106
 72
   107
 73
   105
  0
VERTEX
  5
5CA
  8
0
 62
     9
 10
0.0
 20
0.0
 30
0.0
 70
   128
 71
   108
 72
   110
 73
   109
  0
VERTEX
  5
5CB
  8
0
 62
     9
 10
0.0
 20
0.0
 30
0.0
 70
   128
 71
   110
 72
   108
 73
   107
  0
VERTEX
  5
5CC
  8
0
 62
     9
 10
0.0
 20
0.0
 30
0.0
 70
   128
 71
   112
 72
   111
 73
   109
  0
VERTEX
  5
5CD
  8
0
 62
     9
 10
0.0
 20
0.0
 30
0.0
 70
   128
 71
   109
 72
   110
 73
   112
  0
VERTEX
  5
5CE
  8
0
 62
     9
 10
0.0
 20
0.0
 30
0.0
 70
   128
 71
   114
 72
   111
 73
   113
  0
VERTEX
  5
5CF
  8
0
 62
     9
 10
0.0
 20
0.0
 30
0.0
 70
   128
 71
   112
 72
   113
 73
   111
  0
VERTEX
  5
5D0
  8
0
 62
     9
 10
0.0
 20
0.0
 30
0.0
 70
   128
 71
    33
 72
   114
 73
   113
  0
VERTEX
  5
5D1
  8
0
 62
     9
 10
0.0
 20
0.0
 30
0.0
 70
   128
 71
    95
 72
    93
 73
   115
  0
VERTEX
  5
5D2
  8
0
 62
     9
 10
0.0
 20
0.0
 30
0.0
 70
   128
 71
   118
 72
   117
 73
   116
  0
VERTEX
  5
5D3
  8
0
 62
     9
 10
0.0
 20
0.0
 30
0.0
 70
   128
 71
   117
 72
   119
 73
   116
  0
VERTEX
  5
5D4
  8
0
 62
     9
 10
0.0
 20
0.0
 30
0.0
 70
   128
 71
   121
 72
   120
 73
   117
  0
VERTEX
  5
5D5
  8
0
 62
     9
 10
0.0
 20
0.0
 30
0.0
 70
   128
 71
   121
 72
   117
 73
   118
  0
VERTEX
  5
5D6
  8
0
 62
     9
 10
0.0
 20
0.0
 30
0.0
 70
   128
 71
    97
 72
   122
 73
   120
  0
VERTEX
  5
5D7
  8
0
 62
     9
 10
0.0
 20
0.0
 30
0.0
 70
   128
 71
   117
 72
   120
 73
   122
  0
VERTEX
  5
5D8
  8
0
 62
     9
 10
0.0
 20
0.0
 30
0.0
 70
   128
 71
    98
 72
    95
 73
   123
  0
VERTEX
  5
5D9
  8
0
 62
     9
 10
0.0
 20
0.0
 30
0.0
 70
   128
 71
    97
 72
   124
 73
   122
  0
VERTEX
  5
5DA
  8
0
 62
     9
 10
0.0
 20
0.0
 30
0.0
 70
   128
 71
    82
 72
   126
 73
   125
  0
VERTEX
  5
5DB
  8
0
 62
     9
 10
0.0
 20
0.0
 30
0.0
 70
   128
 71
   128
 72
    91
 73
   127
  0
VERTEX
  5
5DC
  8
0
 62
     9
 10
0.0
 20
0.0
 30
0.0
 70
   128
 71
    85
 72
    86
 73
   114
  0
VERTEX
  5
5DD
  8
0
 62
     9
 10
0.0
 20
0.0
 30
0.0
 70
   128
 71
   108
 72
   101
 73
   105
  0
VERTEX
  5
5DE
  8
0
 62
     9
 10
0.0
 20
0.0
 30
0.0
 70
   128
 71
    86
 72
   101
 73
   111
  0
VERTEX
  5
5DF
  8
0
 62
     9
 10
0.0
 20
0.0
 30
0.0
 70
   128
 71
   101
 72
   108
 73
   109
  0
VERTEX
  5
5E0
  8
0
 62
     9
 10
0.0
 20
0.0
 30
0.0
 70
   128
 71
   105
 72
   101
 73
   104
  0
VERTEX
  5
5E1
  8
0
 62
     9
 10
0.0
 20
0.0
 30
0.0
 70
   128
 71
   111
 72
   114
 73
    86
  0
VERTEX
  5
5E2
  8
0
 62
     9
 10
0.0
 20
0.0
 30
0.0
 70
   128
 71
   109
 72
   111
 73
   101
  0
VERTEX
  5
5E3
  8
0
 62
     9
 10
0.0
 20
0.0
 30
0.0
 70
   128
 71
   114
 72
   126
 73
    85
  0
VERTEX
  5
5E4
  8
0
 62
     9
 10
0.0
 20
0.0
 30
0.0
 70
   128
 71
    88
 72
    82
 73
   125
  0
VERTEX
  5
5E5
  8
0
 62
     9
 10
0.0
 20
0.0
 30
0.0
 70
   128
 71
    82
 72
    85
 73
   126
  0
VERTEX
  5
5E6
  8
0
 62
     9
 10
0.0
 20
0.0
 30
0.0
 70
   128
 71
   127
 72
    91
 73
    88
  0
VERTEX
  5
5E7
  8
0
 62
     9
 10
0.0
 20
0.0
 30
0.0
 70
   128
 71
    88
 72
   125
 73
   127
  0
VERTEX
  5
5E8
  8
0
 62
     9
 10
0.0
 20
0.0
 30
0.0
 70
   128
 71
   115
 72
    93
 73
   128
  0
VERTEX
  5
5E9
  8
0
 62
     9
 10
0.0
 20
0.0
 30
0.0
 70
   128
 71
    93
 72
    91
 73
   128
  0
VERTEX
  5
5EA
  8
0
 62
     9
 10
0.0
 20
0.0
 30
0.0
 70
   128
 71
   123
 72
   124
 73
    98
  0
VERTEX
  5
5EB
  8
0
 62
     9
 10
0.0
 20
0.0
 30
0.0
 70
   128
 71
    95
 72
   115
 73
   123
  0
VERTEX
  5
5EC
  8
0
 62
     9
 10
0.0
 20
0.0
 30
0.0
 70
   128
 71
    97
 72
    98
 73
   124
  0
VERTEX
  5
5ED
  8
0
 62
     9
 10
0.0
 20
0.0
 30
0.0
 70
   128
 71
    55
 72
    97
 73
    54
  0
VERTEX
  5
5EE
  8
0
 62
     9
 10
0.0
 20
0.0
 30
0.0
 70
   128
 71
   120
 72
   121
 73
    52
  0
VERTEX
  5
5EF
  8
0
 62
     9
 10
0.0
 20
0.0
 30
0.0
 70
   128
 71
   116
 72
    43
 73
    47
  0
VERTEX
  5
5F0
  8
0
 62
     9
 10
0.0
 20
0.0
 30
0.0
 70
   128
 71
    50
 72
   118
 73
    46
  0
VERTEX
  5
5F1
  8
0
 62
     9
 10
0.0
 20
0.0
 30
0.0
 70
   128
 71
    40
 72
   122
 73
    39
  0
VERTEX
  5
5F2
  8
0
 62
     9
 10
0.0
 20
0.0
 30
0.0
 70
   128
 71
    42
 72
   119
 73
   117
  0
VERTEX
  5
5F3
  8
0
 62
     9
 10
0.0
 20
0.0
 30
0.0
 70
   128
 71
    18
 72
    19
 73
   123
  0
VERTEX
  5
5F4
  8
0
 62
     9
 10
0.0
 20
0.0
 30
0.0
 70
   128
 71
    13
 72
    39
 73
   124
  0
VERTEX
  5
5F5
  8
0
 62
     9
 10
0.0
 20
0.0
 30
0.0
 70
   128
 71
    26
 72
    21
 73
   128
  0
VERTEX
  5
5F6
  8
0
 62
     9
 10
0.0
 20
0.0
 30
0.0
 70
   128
 71
   115
 72
    21
 73
    18
  0
VERTEX
  5
5F7
  8
0
 62
     9
 10
0.0
 20
0.0
 30
0.0
 70
   128
 71
    25
 72
   128
 73
   127
  0
VERTEX
  5
5F8
  8
0
 62
     9
 10
0.0
 20
0.0
 30
0.0
 70
   128
 71
   128
 72
    25
 73
    26
  0
VERTEX
  5
5F9
  8
0
 62
     9
 10
0.0
 20
0.0
 30
0.0
 70
   128
 71
   127
 72
   125
 73
    27
  0
VERTEX
  5
5FA
  8
0
 62
     9
 10
0.0
 20
0.0
 30
0.0
 70
   128
 71
    27
 72
    25
 73
   127
  0
VERTEX
  5
5FB
  8
0
 62
     9
 10
0.0
 20
0.0
 30
0.0
 70
   128
 71
   126
 72
    28
 73
   125
  0
VERTEX
  5
5FC
  8
0
 62
     9
 10
0.0
 20
0.0
 30
0.0
 70
   128
 71
    27
 72
   125
 73
    28
  0
VERTEX
  5
5FD
  8
0
 62
     9
 10
0.0
 20
0.0
 30
0.0
 70
   128
 71
    32
 72
   126
 73
   114
  0
VERTEX
  5
5FE
  8
0
 62
     9
 10
0.0
 20
0.0
 30
0.0
 70
   128
 71
   126
 72
    32
 73
    28
  0
VERTEX
  5
5FF
  8
0
 62
     9
 10
0.0
 20
0.0
 30
0.0
 70
   128
 71
    33
 72
    32
 73
   114
  0
VERTEX
  5
600
  8
0
 62
     9
 10
0.0
 20
0.0
 30
0.0
 70
   128
 71
   117
 72
    40
 73
    42
  0
VERTEX
  5
601
  8
0
 62
     9
 10
0.0
 20
0.0
 30
0.0
 70
   128
 71
   115
 72
    18
 73
   123
  0
VERTEX
  5
602
  8
0
 62
     9
 10
0.0
 20
0.0
 30
0.0
 70
   128
 71
    21
 72
   115
 73
   128
  0
VERTEX
  5
603
  8
0
 62
     9
 10
0.0
 20
0.0
 30
0.0
 70
   128
 71
   116
 72
    46
 73
   118
  0
VERTEX
  5
604
  8
0
 62
     9
 10
0.0
 20
0.0
 30
0.0
 70
   128
 71
   124
 72
    19
 73
    13
  0
VERTEX
  5
605
  8
0
 62
     9
 10
0.0
 20
0.0
 30
0.0
 70
   128
 71
    19
 72
   124
 73
   123
  0
VERTEX
  5
606
  8
0
 62
     9
 10
0.0
 20
0.0
 30
0.0
 70
   128
 71
   122
 72
   124
 73
    39
  0
VERTEX
  5
607
  8
0
 62
     9
 10
0.0
 20
0.0
 30
0.0
 70
   128
 71
    40
 72
   117
 73
   122
  0
VERTEX
  5
608
  8
0
 62
     9
 10
0.0
 20
0.0
 30
0.0
 70
   128
 71
    43
 72
   116
 73
   119
  0
VERTEX
  5
609
  8
0
 62
     9
 10
0.0
 20
0.0
 30
0.0
 70
   128
 71
   119
 72
    42
 73
    43
  0
VERTEX
  5
60A
  8
0
 62
     9
 10
0.0
 20
0.0
 30
0.0
 70
   128
 71
   116
 72
    47
 73
    46
  0
VERTEX
  5
60B
  8
0
 62
     9
 10
0.0
 20
0.0
 30
0.0
 70
   128
 71
    97
 72
   120
 73
    54
  0
VERTEX
  5
60C
  8
0
 62
     9
 10
0.0
 20
0.0
 30
0.0
 70
   128
 71
   121
 72
   118
 73
    50
  0
VERTEX
  5
60D
  8
0
 62
     9
 10
0.0
 20
0.0
 30
0.0
 70
   128
 71
    52
 72
    54
 73
   120
  0
VERTEX
  5
60E
  8
0
 62
     9
 10
0.0
 20
0.0
 30
0.0
 70
   128
 71
    52
 72
   121
 73
    50
  0
VERTEX
  5
60F
  8
0
 62
     9
 10
0.0
 20
0.0
 30
0.0
 70
   128
 71
    59
 72
    60
 73
    62
  0
VERTEX
  5
610
  8
0
 62
     9
 10
0.0
 20
0.0
 30
0.0
 70
   128
 71
    62
 72
    58
 73
    59
  0
VERTEX
  5
611
  8
0
 62
     9
 10
0.0
 20
0.0
 30
0.0
 70
   128
 71
    60
 72
    37
 73
    62
  0
VERTEX
  5
612
  8
0
 62
     9
 10
0.0
 20
0.0
 30
0.0
 70
   128
 71
    48
 72
    45
 73
    62
  0
VERTEX
  5
613
  8
0
 62
     9
 10
0.0
 20
0.0
 30
0.0
 70
   128
 71
    62
 72
    45
 73
    58
  0
VERTEX
  5
614
  8
0
 62
     9
 10
0.0
 20
0.0
 30
0.0
 70
   128
 71
    62
 72
    56
 73
    57
  0
VERTEX
  5
615
  8
0
 62
     9
 10
0.0
 20
0.0
 30
0.0
 70
   128
 71
    48
 72
    62
 73
    57
  0
VERTEX
  5
616
  8
0
 62
     9
 10
0.0
 20
0.0
 30
0.0
 70
   128
 71
    62
 72
    10
 73
    11
  0
VERTEX
  5
617
  8
0
 62
     9
 10
0.0
 20
0.0
 30
0.0
 70
   128
 71
    56
 72
    62
 73
    11
  0
VERTEX
  5
618
  8
0
 62
     9
 10
0.0
 20
0.0
 30
0.0
 70
   128
 71
   130
 72
    67
 73
   129
  0
VERTEX
  5
619
  8
0
 62
     9
 10
0.0
 20
0.0
 30
0.0
 70
   128
 71
   107
 72
   132
 73
   131
  0
VERTEX
  5
61A
  8
0
 62
     9
 10
0.0
 20
0.0
 30
0.0
 70
   128
 71
   130
 72
   129
 73
   112
  0
VERTEX
  5
61B
  8
0
 62
     9
 10
0.0
 20
0.0
 30
0.0
 70
   128
 71
   129
 72
    67
 73
    35
  0
VERTEX
  5
61C
  8
0
 62
     9
 10
0.0
 20
0.0
 30
0.0
 70
   128
 71
   134
 72
   133
 73
    71
  0
VERTEX
  5
61D
  8
0
 62
     9
 10
0.0
 20
0.0
 30
0.0
 70
   128
 71
   132
 72
   103
 73
   134
  0
VERTEX
  5
61E
  8
0
 62
     9
 10
0.0
 20
0.0
 30
0.0
 70
   128
 71
    79
 72
   136
 73
   135
  0
VERTEX
  5
61F
  8
0
 62
     9
 10
0.0
 20
0.0
 30
0.0
 70
   128
 71
   133
 72
    87
 73
   136
  0
VERTEX
  5
620
  8
0
 62
     9
 10
0.0
 20
0.0
 30
0.0
 70
   128
 71
    78
 72
   135
 73
   137
  0
VERTEX
  5
621
  8
0
 62
     9
 10
0.0
 20
0.0
 30
0.0
 70
   128
 71
   135
 72
    84
 73
    89
  0
VERTEX
  5
622
  8
0
 62
     9
 10
0.0
 20
0.0
 30
0.0
 70
   128
 71
    92
 72
   138
 73
   137
  0
VERTEX
  5
623
  8
0
 62
     9
 10
0.0
 20
0.0
 30
0.0
 70
   128
 71
   138
 72
    76
 73
    75
  0
VERTEX
  5
624
  8
0
 62
     9
 10
0.0
 20
0.0
 30
0.0
 70
   128
 71
    99
 72
   139
 73
    94
  0
VERTEX
  5
625
  8
0
 62
     9
 10
0.0
 20
0.0
 30
0.0
 70
   128
 71
   138
 72
    94
 73
   139
  0
VERTEX
  5
626
  8
0
 62
     9
 10
0.0
 20
0.0
 30
0.0
 70
   128
 71
    81
 72
   140
 73
    53
  0
VERTEX
  5
627
  8
0
 62
     9
 10
0.0
 20
0.0
 30
0.0
 70
   128
 71
    96
 72
   139
 73
    99
  0
VERTEX
  5
628
  8
0
 62
     9
 10
0.0
 20
0.0
 30
0.0
 70
   128
 71
    55
 72
   140
 73
    96
  0
VERTEX
  5
629
  8
0
 62
     9
 10
0.0
 20
0.0
 30
0.0
 70
   128
 71
    55
 72
    53
 73
   140
  0
VERTEX
  5
62A
  8
0
 62
     9
 10
0.0
 20
0.0
 30
0.0
 70
   128
 71
   138
 72
    92
 73
    94
  0
VERTEX
  5
62B
  8
0
 62
     9
 10
0.0
 20
0.0
 30
0.0
 70
   128
 71
    10
 72
    81
 73
    53
  0
VERTEX
  5
62C
  8
0
 62
     9
 10
0.0
 20
0.0
 30
0.0
 70
   128
 71
    84
 72
   135
 73
   136
  0
VERTEX
  5
62D
  8
0
 62
     9
 10
0.0
 20
0.0
 30
0.0
 70
   128
 71
    89
 72
    90
 73
   135
  0
VERTEX
  5
62E
  8
0
 62
     9
 10
0.0
 20
0.0
 30
0.0
 70
   128
 71
   137
 72
   135
 73
    90
  0
VERTEX
  5
62F
  8
0
 62
     9
 10
0.0
 20
0.0
 30
0.0
 70
   128
 71
   136
 72
    83
 73
    84
  0
VERTEX
  5
630
  8
0
 62
     9
 10
0.0
 20
0.0
 30
0.0
 70
   128
 71
    69
 72
    68
 73
   132
  0
VERTEX
  5
631
  8
0
 62
     9
 10
0.0
 20
0.0
 30
0.0
 70
   128
 71
    80
 72
    73
 73
   136
  0
VERTEX
  5
632
  8
0
 62
     9
 10
0.0
 20
0.0
 30
0.0
 70
   128
 71
    83
 72
   136
 73
    87
  0
VERTEX
  5
633
  8
0
 62
     9
 10
0.0
 20
0.0
 30
0.0
 70
   128
 71
   102
 72
   133
 73
   134
  0
VERTEX
  5
634
  8
0
 62
     9
 10
0.0
 20
0.0
 30
0.0
 70
   128
 71
   133
 72
   102
 73
   100
  0
VERTEX
  5
635
  8
0
 62
     9
 10
0.0
 20
0.0
 30
0.0
 70
   128
 71
   102
 72
   134
 73
   103
  0
VERTEX
  5
636
  8
0
 62
     9
 10
0.0
 20
0.0
 30
0.0
 70
   128
 71
   133
 72
    72
 73
    71
  0
VERTEX
  5
637
  8
0
 62
     9
 10
0.0
 20
0.0
 30
0.0
 70
   128
 71
   107
 72
   106
 73
   132
  0
VERTEX
  5
638
  8
0
 62
     9
 10
0.0
 20
0.0
 30
0.0
 70
   128
 71
   106
 72
   103
 73
   132
  0
VERTEX
  5
639
  8
0
 62
     9
 10
0.0
 20
0.0
 30
0.0
 70
   128
 71
   129
 72
   113
 73
   112
  0
VERTEX
  5
63A
  8
0
 62
     9
 10
0.0
 20
0.0
 30
0.0
 70
   128
 71
   110
 72
   131
 73
   130
  0
VERTEX
  5
63B
  8
0
 62
     9
 10
0.0
 20
0.0
 30
0.0
 70
   128
 71
   110
 72
   107
 73
   131
  0
VERTEX
  5
63C
  8
0
 62
     9
 10
0.0
 20
0.0
 30
0.0
 70
   128
 71
   113
 72
    36
 73
    33
  0
VERTEX
  5
63D
  8
0
 62
     9
 10
0.0
 20
0.0
 30
0.0
 70
   128
 71
   130
 72
    66
 73
    67
  0
VERTEX
  5
63E
  8
0
 62
     9
 10
0.0
 20
0.0
 30
0.0
 70
   128
 71
   129
 72
    36
 73
   113
  0
VERTEX
  5
63F
  8
0
 62
     9
 10
0.0
 20
0.0
 30
0.0
 70
   128
 71
    36
 72
   129
 73
    35
  0
VERTEX
  5
640
  8
0
 62
     9
 10
0.0
 20
0.0
 30
0.0
 70
   128
 71
    66
 72
   130
 73
    65
  0
VERTEX
  5
641
  8
0
 62
     9
 10
0.0
 20
0.0
 30
0.0
 70
   128
 71
   130
 72
   112
 73
   110
  0
VERTEX
  5
642
  8
0
 62
     9
 10
0.0
 20
0.0
 30
0.0
 70
   128
 71
   131
 72
    65
 73
   130
  0
VERTEX
  5
643
  8
0
 62
     9
 10
0.0
 20
0.0
 30
0.0
 70
   128
 71
    65
 72
   131
 73
    68
  0
VERTEX
  5
644
  8
0
 62
     9
 10
0.0
 20
0.0
 30
0.0
 70
   128
 71
   131
 72
   132
 73
    68
  0
VERTEX
  5
645
  8
0
 62
     9
 10
0.0
 20
0.0
 30
0.0
 70
   128
 71
   134
 72
    70
 73
    69
  0
VERTEX
  5
646
  8
0
 62
     9
 10
0.0
 20
0.0
 30
0.0
 70
   128
 71
   132
 72
   134
 73
    69
  0
VERTEX
  5
647
  8
0
 62
     9
 10
0.0
 20
0.0
 30
0.0
 70
   128
 71
    70
 72
   134
 73
    71
  0
VERTEX
  5
648
  8
0
 62
     9
 10
0.0
 20
0.0
 30
0.0
 70
   128
 71
    72
 72
   133
 73
    73
  0
VERTEX
  5
649
  8
0
 62
     9
 10
0.0
 20
0.0
 30
0.0
 70
   128
 71
   133
 72
   100
 73
    87
  0
VERTEX
  5
64A
  8
0
 62
     9
 10
0.0
 20
0.0
 30
0.0
 70
   128
 71
   133
 72
   136
 73
    73
  0
VERTEX
  5
64B
  8
0
 62
     9
 10
0.0
 20
0.0
 30
0.0
 70
   128
 71
    79
 72
    80
 73
   136
  0
VERTEX
  5
64C
  8
0
 62
     9
 10
0.0
 20
0.0
 30
0.0
 70
   128
 71
   135
 72
    78
 73
    79
  0
VERTEX
  5
64D
  8
0
 62
     9
 10
0.0
 20
0.0
 30
0.0
 70
   128
 71
   137
 72
    74
 73
    78
  0
VERTEX
  5
64E
  8
0
 62
     9
 10
0.0
 20
0.0
 30
0.0
 70
   128
 71
    74
 72
   137
 73
    75
  0
VERTEX
  5
64F
  8
0
 62
     9
 10
0.0
 20
0.0
 30
0.0
 70
   128
 71
   137
 72
    90
 73
    92
  0
VERTEX
  5
650
  8
0
 62
     9
 10
0.0
 20
0.0
 30
0.0
 70
   128
 71
   137
 72
   138
 73
    75
  0
VERTEX
  5
651
  8
0
 62
     9
 10
0.0
 20
0.0
 30
0.0
 70
   128
 71
   139
 72
    77
 73
    76
  0
VERTEX
  5
652
  8
0
 62
     9
 10
0.0
 20
0.0
 30
0.0
 70
   128
 71
   138
 72
   139
 73
    76
  0
VERTEX
  5
653
  8
0
 62
     9
 10
0.0
 20
0.0
 30
0.0
 70
   128
 71
   140
 72
    81
 73
    77
  0
VERTEX
  5
654
  8
0
 62
     9
 10
0.0
 20
0.0
 30
0.0
 70
   128
 71
   139
 72
   140
 73
    77
  0
VERTEX
  5
655
  8
0
 62
     9
 10
0.0
 20
0.0
 30
0.0
 70
   128
 71
   140
 72
   139
 73
    96
  0
VERTEX
  5
656
  8
0
 62
     9
 10
0.0
 20
0.0
 30
0.0
 70
   128
 71
    64
 72
     6
 73
     5
  0
VERTEX
  5
657
  8
0
 62
     9
 10
0.0
 20
0.0
 30
0.0
 70
   128
 71
     7
 72
     8
 73
    63
  0
VERTEX
  5
658
  8
0
 62
     9
 10
0.0
 20
0.0
 30
0.0
 70
   128
 71
    63
 72
   141
 73
     7
  0
VERTEX
  5
659
  8
0
 62
     9
 10
0.0
 20
0.0
 30
0.0
 70
   128
 71
   141
 72
    63
 73
    64
  0
VERTEX
  5
65A
  8
0
 62
     9
 10
0.0
 20
0.0
 30
0.0
 70
   128
 71
   142
 72
   141
 73
    64
  0
VERTEX
  5
65B
  8
0
 62
     9
 10
0.0
 20
0.0
 30
0.0
 70
   128
 71
   142
 72
    64
 73
     5
  0
VERTEX
  5
65C
  8
0
 62
     9
 10
0.0
 20
0.0
 30
0.0
 70
   128
 71
   141
 72
   142
 73
     7
  0
VERTEX
  5
65D
  8
0
 62
     9
 10
0.0
 20
0.0
 30
0.0
 70
   128
 71
   142
 72
     2
 73
     7
  0
VERTEX
  5
65E
  8
0
 62
     9
 10
0.0
 20
0.0
 30
0.0
 70
   128
 71
   142
 72
     5
 73
     2
  0
VERTEX
  5
65F
  8
0
 62
     9
 10
0.0
 20
0.0
 30
0.0
 70
   128
 71
     1
 72
     2
 73
     5
  0
VERTEX
  5
660
  8
0
 62
     9
 10
0.0
 20
0.0
 30
0.0
 70
   128
 71
     3
 72
     2
 73
     1
  0
VERTEX
  5
661
  8
0
 62
     9
 10
0.0
 20
0.0
 30
0.0
 70
   128
 71
     4
 72
     3
 73
     1
  0
VERTEX
  5
662
  8
0
 62
     9
 10
0.0
 20
0.0
 30
0.0
 70
   128
 71
     1
 72
     5
 73
     4
  0
VERTEX
  5
663
  8
0
 62
     9
 10
0.0
 20
0.0
 30
0.0
 70
   128
 71
     6
 72
     4
 73
     5
  0
VERTEX
  5
664
  8
0
 62
     9
 10
0.0
 20
0.0
 30
0.0
 70
   128
 71
     7
 72
     2
 73
     3
  0
VERTEX
  5
665
  8
0
 62
     9
 10
0.0
 20
0.0
 30
0.0
 70
   128
 71
     3
 72
     8
 73
     7
  0
VERTEX
  5
666
  8
0
 62
     9
 10
0.0
 20
0.0
 30
0.0
 70
   128
 71
    11
 72
    10
 73
     9
  0
VERTEX
  5
667
  8
0
 62
     9
 10
0.0
 20
0.0
 30
0.0
 70
   128
 71
    14
 72
    13
 73
    12
  0
VERTEX
  5
668
  8
0
 62
     9
 10
0.0
 20
0.0
 30
0.0
 70
   128
 71
    17
 72
    16
 73
    15
  0
VERTEX
  5
669
  8
0
 62
     9
 10
0.0
 20
0.0
 30
0.0
 70
   128
 71
    17
 72
    19
 73
    18
  0
VERTEX
  5
66A
  8
0
 62
     9
 10
0.0
 20
0.0
 30
0.0
 70
   128
 71
    21
 72
    20
 73
    17
  0
VERTEX
  5
66B
  8
0
 62
     9
 10
0.0
 20
0.0
 30
0.0
 70
   128
 71
    16
 72
    17
 73
    20
  0
VERTEX
  5
66C
  8
0
 62
     9
 10
0.0
 20
0.0
 30
0.0
 70
   128
 71
    24
 72
    23
 73
    22
  0
VERTEX
  5
66D
  8
0
 62
     9
 10
0.0
 20
0.0
 30
0.0
 70
   128
 71
    17
 72
    18
 73
    21
  0
VERTEX
  5
66E
  8
0
 62
     9
 10
0.0
 20
0.0
 30
0.0
 70
   128
 71
    20
 72
    25
 73
    24
  0
VERTEX
  5
66F
  8
0
 62
     9
 10
0.0
 20
0.0
 30
0.0
 70
   128
 71
    20
 72
    21
 73
    26
  0
VERTEX
  5
670
  8
0
 62
     9
 10
0.0
 20
0.0
 30
0.0
 70
   128
 71
    27
 72
    24
 73
    25
  0
VERTEX
  5
671
  8
0
 62
     9
 10
0.0
 20
0.0
 30
0.0
 70
   128
 71
    29
 72
    27
 73
    28
  0
VERTEX
  5
672
  8
0
 62
     9
 10
0.0
 20
0.0
 30
0.0
 70
   128
 71
    19
 72
    17
 73
    12
  0
VERTEX
  5
673
  8
0
 62
     9
 10
0.0
 20
0.0
 30
0.0
 70
   128
 71
    31
 72
    29
 73
    30
  0
VERTEX
  5
674
  8
0
 62
     9
 10
0.0
 20
0.0
 30
0.0
 70
   128
 71
    32
 72
    30
 73
    29
  0
VERTEX
  5
675
  8
0
 62
     9
 10
0.0
 20
0.0
 30
0.0
 70
   128
 71
    30
 72
    32
 73
    33
  0
VERTEX
  5
676
  8
0
 62
     9
 10
0.0
 20
0.0
 30
0.0
 70
   128
 71
    28
 72
    32
 73
    29
  0
VERTEX
  5
677
  8
0
 62
     9
 10
0.0
 20
0.0
 30
0.0
 70
   128
 71
    36
 72
    35
 73
    34
  0
VERTEX
  5
678
  8
0
 62
     9
 10
0.0
 20
0.0
 30
0.0
 70
   128
 71
    24
 72
    27
 73
    29
  0
VERTEX
  5
679
  8
0
 62
     9
 10
0.0
 20
0.0
 30
0.0
 70
   128
 71
    12
 72
    13
 73
    19
  0
VERTEX
  5
67A
  8
0
 62
     9
 10
0.0
 20
0.0
 30
0.0
 70
   128
 71
    38
 72
    37
 73
    12
  0
VERTEX
  5
67B
  8
0
 62
     9
 10
0.0
 20
0.0
 30
0.0
 70
   128
 71
    14
 72
    39
 73
    13
  0
VERTEX
  5
67C
  8
0
 62
     9
 10
0.0
 20
0.0
 30
0.0
 70
   128
 71
    40
 72
    39
 73
    14
  0
VERTEX
  5
67D
  8
0
 62
     9
 10
0.0
 20
0.0
 30
0.0
 70
   128
 71
    41
 72
    40
 73
    14
  0
VERTEX
  5
67E
  8
0
 62
     9
 10
0.0
 20
0.0
 30
0.0
 70
   128
 71
    41
 72
    43
 73
    42
  0
VERTEX
  5
67F
  8
0
 62
     9
 10
0.0
 20
0.0
 30
0.0
 70
   128
 71
    40
 72
    41
 73
    42
  0
VERTEX
  5
680
  8
0
 62
     9
 10
0.0
 20
0.0
 30
0.0
 70
   128
 71
    41
 72
    45
 73
    44
  0
VERTEX
  5
681
  8
0
 62
     9
 10
0.0
 20
0.0
 30
0.0
 70
   128
 71
    41
 72
    44
 73
    43
  0
VERTEX
  5
682
  8
0
 62
     9
 10
0.0
 20
0.0
 30
0.0
 70
   128
 71
    47
 72
    44
 73
    46
  0
VERTEX
  5
683
  8
0
 62
     9
 10
0.0
 20
0.0
 30
0.0
 70
   128
 71
    47
 72
    43
 73
    44
  0
VERTEX
  5
684
  8
0
 62
     9
 10
0.0
 20
0.0
 30
0.0
 70
   128
 71
    44
 72
    45
 73
    48
  0
VERTEX
  5
685
  8
0
 62
     9
 10
0.0
 20
0.0
 30
0.0
 70
   128
 71
    46
 72
    44
 73
    49
  0
VERTEX
  5
686
  8
0
 62
     9
 10
0.0
 20
0.0
 30
0.0
 70
   128
 71
    49
 72
    50
 73
    46
  0
VERTEX
  5
687
  8
0
 62
     9
 10
0.0
 20
0.0
 30
0.0
 70
   128
 71
    49
 72
    51
 73
    50
  0
VERTEX
  5
688
  8
0
 62
     9
 10
0.0
 20
0.0
 30
0.0
 70
   128
 71
     9
 72
    51
 73
    11
  0
VERTEX
  5
689
  8
0
 62
     9
 10
0.0
 20
0.0
 30
0.0
 70
   128
 71
    52
 72
    51
 73
     9
  0
VERTEX
  5
68A
  8
0
 62
     9
 10
0.0
 20
0.0
 30
0.0
 70
   128
 71
    10
 72
    53
 73
     9
  0
VERTEX
  5
68B
  8
0
 62
     9
 10
0.0
 20
0.0
 30
0.0
 70
   128
 71
    52
 72
     9
 73
    54
  0
VERTEX
  5
68C
  8
0
 62
     9
 10
0.0
 20
0.0
 30
0.0
 70
   128
 71
    53
 72
    55
 73
    54
  0
VERTEX
  5
68D
  8
0
 62
     9
 10
0.0
 20
0.0
 30
0.0
 70
   128
 71
    51
 72
    56
 73
    11
  0
VERTEX
  5
68E
  8
0
 62
     9
 10
0.0
 20
0.0
 30
0.0
 70
   128
 71
     9
 72
    53
 73
    54
  0
VERTEX
  5
68F
  8
0
 62
     9
 10
0.0
 20
0.0
 30
0.0
 70
   128
 71
    56
 72
    51
 73
    57
  0
VERTEX
  5
690
  8
0
 62
     9
 10
0.0
 20
0.0
 30
0.0
 70
   128
 71
    51
 72
    52
 73
    50
  0
VERTEX
  5
691
  8
0
 62
     9
 10
0.0
 20
0.0
 30
0.0
 70
   128
 71
    49
 72
    57
 73
    51
  0
VERTEX
  5
692
  8
0
 62
     9
 10
0.0
 20
0.0
 30
0.0
 70
   128
 71
    57
 72
    49
 73
    48
  0
VERTEX
  5
693
  8
0
 62
     9
 10
0.0
 20
0.0
 30
0.0
 70
   128
 71
    49
 72
    44
 73
    48
  0
VERTEX
  5
694
  8
0
 62
     9
 10
0.0
 20
0.0
 30
0.0
 70
   128
 71
    41
 72
    58
 73
    45
  0
VERTEX
  5
695
  8
0
 62
     9
 10
0.0
 20
0.0
 30
0.0
 70
   128
 71
    41
 72
    59
 73
    58
  0
VERTEX
  5
696
  8
0
 62
     9
 10
0.0
 20
0.0
 30
0.0
 70
   128
 71
    14
 72
    60
 73
    59
  0
VERTEX
  5
697
  8
0
 62
     9
 10
0.0
 20
0.0
 30
0.0
 70
   128
 71
    41
 72
    14
 73
    59
  0
VERTEX
  5
698
  8
0
 62
     9
 10
0.0
 20
0.0
 30
0.0
 70
   128
 71
    60
 72
    14
 73
    37
  0
VERTEX
  5
699
  8
0
 62
     9
 10
0.0
 20
0.0
 30
0.0
 70
   128
 71
    14
 72
    12
 73
    37
  0
VERTEX
  5
69A
  8
0
 62
     9
 10
0.0
 20
0.0
 30
0.0
 70
   128
 71
    38
 72
    12
 73
    15
  0
VERTEX
  5
69B
  8
0
 62
     9
 10
0.0
 20
0.0
 30
0.0
 70
   128
 71
    12
 72
    17
 73
    15
  0
VERTEX
  5
69C
  8
0
 62
     9
 10
0.0
 20
0.0
 30
0.0
 70
   128
 71
    20
 72
    61
 73
    16
  0
VERTEX
  5
69D
  8
0
 62
     9
 10
0.0
 20
0.0
 30
0.0
 70
   128
 71
    61
 72
    20
 73
    22
  0
VERTEX
  5
69E
  8
0
 62
     9
 10
0.0
 20
0.0
 30
0.0
 70
   128
 71
    20
 72
    26
 73
    25
  0
VERTEX
  5
69F
  8
0
 62
     9
 10
0.0
 20
0.0
 30
0.0
 70
   128
 71
    20
 72
    24
 73
    22
  0
VERTEX
  5
6A0
  8
0
 62
     9
 10
0.0
 20
0.0
 30
0.0
 70
   128
 71
    29
 72
    31
 73
    23
  0
VERTEX
  5
6A1
  8
0
 62
     9
 10
0.0
 20
0.0
 30
0.0
 70
   128
 71
    24
 72
    29
 73
    23
  0
VERTEX
  5
6A2
  8
0
 62
     9
 10
0.0
 20
0.0
 30
0.0
 70
   128
 71
    30
 72
    34
 73
    31
  0
VERTEX
  5
6A3
  8
0
 62
     9
 10
0.0
 20
0.0
 30
0.0
 70
   128
 71
    30
 72
    36
 73
    34
  0
VERTEX
  5
6A4
  8
0
 62
     9
 10
0.0
 20
0.0
 30
0.0
 70
   128
 71
    36
 72
    30
 73
    33
  0
VERTEX
  5
6A5
  8
0
 62
     9
 10
0.0
 20
0.0
 30
0.0
 70
   128
 71
    22
 72
    62
 73
    61
  0
VERTEX
  5
6A6
  8
0
 62
     9
 10
0.0
 20
0.0
 30
0.0
 70
   128
 71
    23
 72
    63
 73
    62
  0
VERTEX
  5
6A7
  8
0
 62
     9
 10
0.0
 20
0.0
 30
0.0
 70
   128
 71
    62
 72
    16
 73
    61
  0
VERTEX
  5
6A8
  8
0
 62
     9
 10
0.0
 20
0.0
 30
0.0
 70
   128
 71
    23
 72
    62
 73
    22
  0
VERTEX
  5
6A9
  8
0
 62
     9
 10
0.0
 20
0.0
 30
0.0
 70
   128
 71
    15
 72
    16
 73
    62
  0
VERTEX
  5
6AA
  8
0
 62
     9
 10
0.0
 20
0.0
 30
0.0
 70
   128
 71
    62
 72
    37
 73
    38
  0
VERTEX
  5
6AB
  8
0
 62
     9
 10
0.0
 20
0.0
 30
0.0
 70
   128
 71
    15
 72
    62
 73
    38
  0
VERTEX
  5
6AC
  8
0
 62
     9
 10
0.0
 20
0.0
 30
0.0
 70
   128
 71
    63
 72
     8
 73
    62
  0
VERTEX
  5
6AD
  8
0
 62
     9
 10
0.0
 20
0.0
 30
0.0
 70
   128
 71
    34
 72
    64
 73
    63
  0
VERTEX
  5
6AE
  8
0
 62
     9
 10
0.0
 20
0.0
 30
0.0
 70
   128
 71
    35
 72
    64
 73
    34
  0
VERTEX
  5
6AF
  8
0
 62
     9
 10
0.0
 20
0.0
 30
0.0
 70
   128
 71
    63
 72
    31
 73
    34
  0
VERTEX
  5
6B0
  8
0
 62
     9
 10
0.0
 20
0.0
 30
0.0
 70
   128
 71
    31
 72
    63
 73
    23
  0
VERTEX
  5
6B1
  8
0
 62
     9
 10
0.0
 20
0.0
 30
0.0
 70
   128
 71
     6
 72
    64
 73
    35
  0
VERTEX
  5
6B2
  8
0
 62
     9
 10
0.0
 20
0.0
 30
0.0
 70
   128
 71
     3
 72
    65
 73
    62
  0
VERTEX
  5
6B3
  8
0
 62
     9
 10
0.0
 20
0.0
 30
0.0
 70
   128
 71
    67
 72
    66
 73
     3
  0
VERTEX
  5
6B4
  8
0
 62
     9
 10
0.0
 20
0.0
 30
0.0
 70
   128
 71
    62
 72
    65
 73
    68
  0
VERTEX
  5
6B5
  8
0
 62
     9
 10
0.0
 20
0.0
 30
0.0
 70
   128
 71
    66
 72
    65
 73
     3
  0
VERTEX
  5
6B6
  8
0
 62
     9
 10
0.0
 20
0.0
 30
0.0
 70
   128
 71
     3
 72
     4
 73
    67
  0
VERTEX
  5
6B7
  8
0
 62
     9
 10
0.0
 20
0.0
 30
0.0
 70
   128
 71
     4
 72
     6
 73
    35
  0
VERTEX
  5
6B8
  8
0
 62
     9
 10
0.0
 20
0.0
 30
0.0
 70
   128
 71
    35
 72
    67
 73
     4
  0
VERTEX
  5
6B9
  8
0
 62
     9
 10
0.0
 20
0.0
 30
0.0
 70
   128
 71
    69
 72
    62
 73
    68
  0
VERTEX
  5
6BA
  8
0
 62
     9
 10
0.0
 20
0.0
 30
0.0
 70
   128
 71
    70
 72
    62
 73
    69
  0
VERTEX
  5
6BB
  8
0
 62
     9
 10
0.0
 20
0.0
 30
0.0
 70
   128
 71
    62
 72
     8
 73
     3
  0
VERTEX
  5
6BC
  8
0
 62
     9
 10
0.0
 20
0.0
 30
0.0
 70
   128
 71
    62
 72
    70
 73
    71
  0
VERTEX
  5
6BD
  8
0
 62
     9
 10
0.0
 20
0.0
 30
0.0
 70
   128
 71
    72
 72
    62
 73
    71
  0
VERTEX
  5
6BE
  8
0
 62
     9
 10
0.0
 20
0.0
 30
0.0
 70
   128
 71
    73
 72
    62
 73
    72
  0
VERTEX
  5
6BF
  8
0
 62
     9
 10
0.0
 20
0.0
 30
0.0
 70
   128
 71
    75
 72
    62
 73
    74
  0
VERTEX
  5
6C0
  8
0
 62
     9
 10
0.0
 20
0.0
 30
0.0
 70
   128
 71
    77
 72
    62
 73
    76
  0
VERTEX
  5
6C1
  8
0
 62
     9
 10
0.0
 20
0.0
 30
0.0
 70
   128
 71
    62
 72
    78
 73
    74
  0
VERTEX
  5
6C2
  8
0
 62
     9
 10
0.0
 20
0.0
 30
0.0
 70
   128
 71
    76
 72
    62
 73
    75
  0
VERTEX
  5
6C3
  8
0
 62
     9
 10
0.0
 20
0.0
 30
0.0
 70
   128
 71
    79
 72
    78
 73
    62
  0
VERTEX
  5
6C4
  8
0
 62
     9
 10
0.0
 20
0.0
 30
0.0
 70
   128
 71
    62
 72
    73
 73
    80
  0
VERTEX
  5
6C5
  8
0
 62
     9
 10
0.0
 20
0.0
 30
0.0
 70
   128
 71
    79
 72
    62
 73
    80
  0
VERTEX
  5
6C6
  8
0
 62
     9
 10
0.0
 20
0.0
 30
0.0
 70
   128
 71
    81
 72
    62
 73
    77
  0
VERTEX
  5
6C7
  8
0
 62
     9
 10
0.0
 20
0.0
 30
0.0
 70
   128
 71
    10
 72
    62
 73
    81
  0
VERTEX
  5
6C8
  8
0
 62
     9
 10
0.0
 20
0.0
 30
0.0
 70
   128
 71
    84
 72
    83
 73
    82
  0
VERTEX
  5
6C9
  8
0
 62
     9
 10
0.0
 20
0.0
 30
0.0
 70
   128
 71
    87
 72
    86
 73
    85
  0
VERTEX
  5
6CA
  8
0
 62
     9
 10
0.0
 20
0.0
 30
0.0
 70
   128
 71
    83
 72
    85
 73
    82
  0
VERTEX
  5
6CB
  8
0
 62
     9
 10
0.0
 20
0.0
 30
0.0
 70
   128
 71
    82
 72
    88
 73
    84
  0
VERTEX
  5
6CC
  8
0
 62
     9
 10
0.0
 20
0.0
 30
0.0
 70
   128
 71
    89
 72
    84
 73
    88
  0
VERTEX
  5
6CD
  8
0
 62
     9
 10
0.0
 20
0.0
 30
0.0
 70
   128
 71
    90
 72
    89
 73
    88
  0
VERTEX
  5
6CE
  8
0
 62
     9
 10
0.0
 20
0.0
 30
0.0
 70
   128
 71
    87
 72
    85
 73
    83
  0
VERTEX
  5
6CF
  8
0
 62
     9
 10
0.0
 20
0.0
 30
0.0
 70
   128
 71
    88
 72
    91
 73
    90
  0
VERTEX
  5
6D0
  8
0
 62
     9
 10
0.0
 20
0.0
 30
0.0
 70
   128
 71
    90
 72
    91
 73
    92
  0
VERTEX
  5
6D1
  8
0
 62
     9
 10
0.0
 20
0.0
 30
0.0
 70
   128
 71
    92
 72
    91
 73
    93
  0
VERTEX
  5
6D2
  8
0
 62
     9
 10
0.0
 20
0.0
 30
0.0
 70
   128
 71
    95
 72
    94
 73
    93
  0
VERTEX
  5
6D3
  8
0
 62
     9
 10
0.0
 20
0.0
 30
0.0
 70
   128
 71
    98
 72
    97
 73
    96
  0
VERTEX
  5
6D4
  8
0
 62
     9
 10
0.0
 20
0.0
 30
0.0
 70
   128
 71
    98
 72
    96
 73
    99
  0
VERTEX
  5
6D5
  8
0
 62
     9
 10
0.0
 20
0.0
 30
0.0
 70
   128
 71
    94
 72
    95
 73
    99
  0
VERTEX
  5
6D6
  8
0
 62
     9
 10
0.0
 20
0.0
 30
0.0
 70
   128
 71
    94
 72
    92
 73
    93
  0
VERTEX
  5
6D7
  8
0
 62
     9
 10
0.0
 20
0.0
 30
0.0
 70
   128
 71
    98
 72
    99
 73
    95
  0
VERTEX
  5
6D8
  8
0
 62
     9
 10
0.0
 20
0.0
 30
0.0
 70
   128
 71
    97
 72
    55
 73
    96
  0
VERTEX
  5
6D9
  8
0
 62
     9
 10
0.0
 20
0.0
 30
0.0
 70
   128
 71
    87
 72
   100
 73
    86
  0
VERTEX
  5
6DA
  8
0
 62
     9
 10
0.0
 20
0.0
 30
0.0
 70
   128
 71
   102
 72
   101
 73
   100
  0
VERTEX
  5
6DB
  8
0
 62
     9
 10
0.0
 20
0.0
 30
0.0
 70
   128
 71
    86
 72
   100
 73
   101
  0
VERTEX
  5
6DC
  8
0
 62
     9
 10
0.0
 20
0.0
 30
0.0
 70
   128
 71
   104
 72
   102
 73
   103
  0
VERTEX
  5
6DD
  8
0
 62
     9
 10
0.0
 20
0.0
 30
0.0
 70
   128
 71
   102
 72
   104
 73
   101
  0
VERTEX
  5
6DE
  8
0
 62
     9
 10
0.0
 20
0.0
 30
0.0
 70
   128
 71
   106
 72
   105
 73
   104
  0
VERTEX
  5
6DF
  8
0
 62
     9
 10
0.0
 20
0.0
 30
0.0
 70
   128
 71
   104
 72
   103
 73
   106
  0
VERTEX
  5
6E0
  8
0
 62
     9
 10
0.0
 20
0.0
 30
0.0
 70
   128
 71
   108
 72
   105
 73
   107
  0
VERTEX
  5
6E1
  8
0
 62
     9
 10
0.0
 20
0.0
 30
0.0
 70
   128
 71
   106
 72
   107
 73
   105
  0
VERTEX
  5
6E2
  8
0
 62
     9
 10
0.0
 20
0.0
 30
0.0
 70
   128
 71
   108
 72
   110
 73
   109
  0
VERTEX
  5
6E3
  8
0
 62
     9
 10
0.0
 20
0.0
 30
0.0
 70
   128
 71
   110
 72
   108
 73
   107
  0
VERTEX
  5
6E4
  8
0
 62
     9
 10
0.0
 20
0.0
 30
0.0
 70
   128
 71
   112
 72
   111
 73
   109
  0
VERTEX
  5
6E5
  8
0
 62
     9
 10
0.0
 20
0.0
 30
0.0
 70
   128
 71
   109
 72
   110
 73
   112
  0
VERTEX
  5
6E6
  8
0
 62
     9
 10
0.0
 20
0.0
 30
0.0
 70
   128
 71
   114
 72
   111
 73
   113
  0
VERTEX
  5
6E7
  8
0
 62
     9
 10
0.0
 20
0.0
 30
0.0
 70
   128
 71
   112
 72
   113
 73
   111
  0
VERTEX
  5
6E8
  8
0
 62
     9
 10
0.0
 20
0.0
 30
0.0
 70
   128
 71
    33
 72
   114
 73
   113
  0
VERTEX
  5
6E9
  8
0
 62
     9
 10
0.0
 20
0.0
 30
0.0
 70
   128
 71
   144
 72
   143
 73
     7
  0
VERTEX
  5
6EA
  8
0
 62
     9
 10
0.0
 20
0.0
 30
0.0
 70
   128
 71
   143
 72
     2
 73
     7
  0
VERTEX
  5
6EB
  8
0
 62
     9
 10
0.0
 20
0.0
 30
0.0
 70
   128
 71
   143
 72
     5
 73
     2
  0
VERTEX
  5
6EC
  8
0
 62
     9
 10
0.0
 20
0.0
 30
0.0
 70
   128
 71
     1
 72
     2
 73
     5
  0
VERTEX
  5
6ED
  8
0
 62
     9
 10
0.0
 20
0.0
 30
0.0
 70
   128
 71
    64
 72
     6
 73
     5
  0
VERTEX
  5
6EE
  8
0
 62
     9
 10
0.0
 20
0.0
 30
0.0
 70
   128
 71
     7
 72
     8
 73
    63
  0
VERTEX
  5
6EF
  8
0
 62
     9
 10
0.0
 20
0.0
 30
0.0
 70
   128
 71
    63
 72
   144
 73
     7
  0
VERTEX
  5
6F0
  8
0
 62
     9
 10
0.0
 20
0.0
 30
0.0
 70
   128
 71
   144
 72
    63
 73
    64
  0
VERTEX
  5
6F1
  8
0
 62
     9
 10
0.0
 20
0.0
 30
0.0
 70
   128
 71
   143
 72
   144
 73
    64
  0
VERTEX
  5
6F2
  8
0
 62
     9
 10
0.0
 20
0.0
 30
0.0
 70
   128
 71
   143
 72
    64
 73
     5
  0
VERTEX
  5
6F3
  8
0
 62
     9
 10
0.0
 20
0.0
 30
0.0
 70
   128
 71
   130
 72
    67
 73
   129
  0
VERTEX
  5
6F4
  8
0
 62
     9
 10
0.0
 20
0.0
 30
0.0
 70
   128
 71
   107
 72
   132
 73
   131
  0
VERTEX
  5
6F5
  8
0
 62
     9
 10
0.0
 20
0.0
 30
0.0
 70
   128
 71
   130
 72
   129
 73
   112
  0
VERTEX
  5
6F6
  8
0
 62
     9
 10
0.0
 20
0.0
 30
0.0
 70
   128
 71
   129
 72
    67
 73
    35
  0
VERTEX
  5
6F7
  8
0
 62
     9
 10
0.0
 20
0.0
 30
0.0
 70
   128
 71
   134
 72
   133
 73
    71
  0
VERTEX
  5
6F8
  8
0
 62
     9
 10
0.0
 20
0.0
 30
0.0
 70
   128
 71
   132
 72
   103
 73
   134
  0
VERTEX
  5
6F9
  8
0
 62
     9
 10
0.0
 20
0.0
 30
0.0
 70
   128
 71
    79
 72
   136
 73
   135
  0
VERTEX
  5
6FA
  8
0
 62
     9
 10
0.0
 20
0.0
 30
0.0
 70
   128
 71
   133
 72
    87
 73
   136
  0
VERTEX
  5
6FB
  8
0
 62
     9
 10
0.0
 20
0.0
 30
0.0
 70
   128
 71
    78
 72
   135
 73
   137
  0
VERTEX
  5
6FC
  8
0
 62
     9
 10
0.0
 20
0.0
 30
0.0
 70
   128
 71
   135
 72
    84
 73
    89
  0
VERTEX
  5
6FD
  8
0
 62
     9
 10
0.0
 20
0.0
 30
0.0
 70
   128
 71
    92
 72
   138
 73
   137
  0
VERTEX
  5
6FE
  8
0
 62
     9
 10
0.0
 20
0.0
 30
0.0
 70
   128
 71
   138
 72
    76
 73
    75
  0
VERTEX
  5
6FF
  8
0
 62
     9
 10
0.0
 20
0.0
 30
0.0
 70
   128
 71
    99
 72
   139
 73
    94
  0
VERTEX
  5
700
  8
0
 62
     9
 10
0.0
 20
0.0
 30
0.0
 70
   128
 71
   138
 72
    94
 73
   139
  0
VERTEX
  5
701
  8
0
 62
     9
 10
0.0
 20
0.0
 30
0.0
 70
   128
 71
    81
 72
   140
 73
    53
  0
VERTEX
  5
702
  8
0
 62
     9
 10
0.0
 20
0.0
 30
0.0
 70
   128
 71
    96
 72
   139
 73
    99
  0
VERTEX
  5
703
  8
0
 62
     9
 10
0.0
 20
0.0
 30
0.0
 70
   128
 71
    55
 72
   140
 73
    96
  0
VERTEX
  5
704
  8
0
 62
     9
 10
0.0
 20
0.0
 30
0.0
 70
   128
 71
    55
 72
    53
 73
   140
  0
VERTEX
  5
705
  8
0
 62
     9
 10
0.0
 20
0.0
 30
0.0
 70
   128
 71
   138
 72
    92
 73
    94
  0
VERTEX
  5
706
  8
0
 62
     9
 10
0.0
 20
0.0
 30
0.0
 70
   128
 71
    10
 72
    81
 73
    53
  0
VERTEX
  5
707
  8
0
 62
     9
 10
0.0
 20
0.0
 30
0.0
 70
   128
 71
    84
 72
   135
 73
   136
  0
VERTEX
  5
708
  8
0
 62
     9
 10
0.0
 20
0.0
 30
0.0
 70
   128
 71
    89
 72
    90
 73
   135
  0
VERTEX
  5
709
  8
0
 62
     9
 10
0.0
 20
0.0
 30
0.0
 70
   128
 71
   137
 72
   135
 73
    90
  0
VERTEX
  5
70A
  8
0
 62
     9
 10
0.0
 20
0.0
 30
0.0
 70
   128
 71
   136
 72
    83
 73
    84
  0
VERTEX
  5
70B
  8
0
 62
     9
 10
0.0
 20
0.0
 30
0.0
 70
   128
 71
    69
 72
    68
 73
   132
  0
VERTEX
  5
70C
  8
0
 62
     9
 10
0.0
 20
0.0
 30
0.0
 70
   128
 71
    80
 72
    73
 73
   136
  0
VERTEX
  5
70D
  8
0
 62
     9
 10
0.0
 20
0.0
 30
0.0
 70
   128
 71
    83
 72
   136
 73
    87
  0
VERTEX
  5
70E
  8
0
 62
     9
 10
0.0
 20
0.0
 30
0.0
 70
   128
 71
   102
 72
   133
 73
   134
  0
VERTEX
  5
70F
  8
0
 62
     9
 10
0.0
 20
0.0
 30
0.0
 70
   128
 71
   133
 72
   102
 73
   100
  0
VERTEX
  5
710
  8
0
 62
     9
 10
0.0
 20
0.0
 30
0.0
 70
   128
 71
   102
 72
   134
 73
   103
  0
VERTEX
  5
711
  8
0
 62
     9
 10
0.0
 20
0.0
 30
0.0
 70
   128
 71
   133
 72
    72
 73
    71
  0
VERTEX
  5
712
  8
0
 62
     9
 10
0.0
 20
0.0
 30
0.0
 70
   128
 71
   107
 72
   106
 73
   132
  0
VERTEX
  5
713
  8
0
 62
     9
 10
0.0
 20
0.0
 30
0.0
 70
   128
 71
   106
 72
   103
 73
   132
  0
VERTEX
  5
714
  8
0
 62
     9
 10
0.0
 20
0.0
 30
0.0
 70
   128
 71
   129
 72
   113
 73
   112
  0
VERTEX
  5
715
  8
0
 62
     9
 10
0.0
 20
0.0
 30
0.0
 70
   128
 71
   110
 72
   131
 73
   130
  0
VERTEX
  5
716
  8
0
 62
     9
 10
0.0
 20
0.0
 30
0.0
 70
   128
 71
   110
 72
   107
 73
   131
  0
VERTEX
  5
717
  8
0
 62
     9
 10
0.0
 20
0.0
 30
0.0
 70
   128
 71
   113
 72
    36
 73
    33
  0
VERTEX
  5
718
  8
0
 62
     9
 10
0.0
 20
0.0
 30
0.0
 70
   128
 71
   130
 72
    66
 73
    67
  0
VERTEX
  5
719
  8
0
 62
     9
 10
0.0
 20
0.0
 30
0.0
 70
   128
 71
   129
 72
    36
 73
   113
  0
VERTEX
  5
71A
  8
0
 62
     9
 10
0.0
 20
0.0
 30
0.0
 70
   128
 71
    36
 72
   129
 73
    35
  0
VERTEX
  5
71B
  8
0
 62
     9
 10
0.0
 20
0.0
 30
0.0
 70
   128
 71
    66
 72
   130
 73
    65
  0
VERTEX
  5
71C
  8
0
 62
     9
 10
0.0
 20
0.0
 30
0.0
 70
   128
 71
   130
 72
   112
 73
   110
  0
VERTEX
  5
71D
  8
0
 62
     9
 10
0.0
 20
0.0
 30
0.0
 70
   128
 71
   131
 72
    65
 73
   130
  0
VERTEX
  5
71E
  8
0
 62
     9
 10
0.0
 20
0.0
 30
0.0
 70
   128
 71
    65
 72
   131
 73
    68
  0
VERTEX
  5
71F
  8
0
 62
     9
 10
0.0
 20
0.0
 30
0.0
 70
   128
 71
   131
 72
   132
 73
    68
  0
VERTEX
  5
720
  8
0
 62
     9
 10
0.0
 20
0.0
 30
0.0
 70
   128
 71
   134
 72
    70
 73
    69
  0
VERTEX
  5
721
  8
0
 62
     9
 10
0.0
 20
0.0
 30
0.0
 70
   128
 71
   132
 72
   134
 73
    69
  0
VERTEX
  5
722
  8
0
 62
     9
 10
0.0
 20
0.0
 30
0.0
 70
   128
 71
    70
 72
   134
 73
    71
  0
VERTEX
  5
723
  8
0
 62
     9
 10
0.0
 20
0.0
 30
0.0
 70
   128
 71
    72
 72
   133
 73
    73
  0
VERTEX
  5
724
  8
0
 62
     9
 10
0.0
 20
0.0
 30
0.0
 70
   128
 71
   133
 72
   100
 73
    87
  0
VERTEX
  5
725
  8
0
 62
     9
 10
0.0
 20
0.0
 30
0.0
 70
   128
 71
   133
 72
   136
 73
    73
  0
VERTEX
  5
726
  8
0
 62
     9
 10
0.0
 20
0.0
 30
0.0
 70
   128
 71
    79
 72
    80
 73
   136
  0
VERTEX
  5
727
  8
0
 62
     9
 10
0.0
 20
0.0
 30
0.0
 70
   128
 71
   135
 72
    78
 73
    79
  0
VERTEX
  5
728
  8
0
 62
     9
 10
0.0
 20
0.0
 30
0.0
 70
   128
 71
   137
 72
    74
 73
    78
  0
VERTEX
  5
729
  8
0
 62
     9
 10
0.0
 20
0.0
 30
0.0
 70
   128
 71
    74
 72
   137
 73
    75
  0
VERTEX
  5
72A
  8
0
 62
     9
 10
0.0
 20
0.0
 30
0.0
 70
   128
 71
   137
 72
    90
 73
    92
  0
VERTEX
  5
72B
  8
0
 62
     9
 10
0.0
 20
0.0
 30
0.0
 70
   128
 71
   137
 72
   138
 73
    75
  0
VERTEX
  5
72C
  8
0
 62
     9
 10
0.0
 20
0.0
 30
0.0
 70
   128
 71
   139
 72
    77
 73
    76
  0
VERTEX
  5
72D
  8
0
 62
     9
 10
0.0
 20
0.0
 30
0.0
 70
   128
 71
   138
 72
   139
 73
    76
  0
VERTEX
  5
72E
  8
0
 62
     9
 10
0.0
 20
0.0
 30
0.0
 70
   128
 71
   140
 72
    81
 73
    77
  0
VERTEX
  5
72F
  8
0
 62
     9
 10
0.0
 20
0.0
 30
0.0
 70
   128
 71
   139
 72
   140
 73
    77
  0
VERTEX
  5
730
  8
0
 62
     9
 10
0.0
 20
0.0
 30
0.0
 70
   128
 71
   140
 72
   139
 73
    96
  0
VERTEX
  5
731
  8
0
 62
     9
 10
0.0
 20
0.0
 30
0.0
 70
   128
 71
    59
 72
    60
 73
    62
  0
VERTEX
  5
732
  8
0
 62
     9
 10
0.0
 20
0.0
 30
0.0
 70
   128
 71
    62
 72
    58
 73
    59
  0
VERTEX
  5
733
  8
0
 62
     9
 10
0.0
 20
0.0
 30
0.0
 70
   128
 71
    60
 72
    37
 73
    62
  0
VERTEX
  5
734
  8
0
 62
     9
 10
0.0
 20
0.0
 30
0.0
 70
   128
 71
    48
 72
    45
 73
    62
  0
VERTEX
  5
735
  8
0
 62
     9
 10
0.0
 20
0.0
 30
0.0
 70
   128
 71
    62
 72
    45
 73
    58
  0
VERTEX
  5
736
  8
0
 62
     9
 10
0.0
 20
0.0
 30
0.0
 70
   128
 71
    62
 72
    56
 73
    57
  0
VERTEX
  5
737
  8
0
 62
     9
 10
0.0
 20
0.0
 30
0.0
 70
   128
 71
    48
 72
    62
 73
    57
  0
VERTEX
  5
738
  8
0
 62
     9
 10
0.0
 20
0.0
 30
0.0
 70
   128
 71
    62
 72
    10
 73
    11
  0
VERTEX
  5
739
  8
0
 62
     9
 10
0.0
 20
0.0
 30
0.0
 70
   128
 71
    56
 72
    62
 73
    11
  0
VERTEX
  5
73A
  8
0
 62
     9
 10
0.0
 20
0.0
 30
0.0
 70
   128
 71
    55
 72
    97
 73
    54
  0
VERTEX
  5
73B
  8
0
 62
     9
 10
0.0
 20
0.0
 30
0.0
 70
   128
 71
   146
 72
   145
 73
    52
  0
VERTEX
  5
73C
  8
0
 62
     9
 10
0.0
 20
0.0
 30
0.0
 70
   128
 71
   147
 72
    43
 73
    47
  0
VERTEX
  5
73D
  8
0
 62
     9
 10
0.0
 20
0.0
 30
0.0
 70
   128
 71
    50
 72
   148
 73
    46
  0
VERTEX
  5
73E
  8
0
 62
     9
 10
0.0
 20
0.0
 30
0.0
 70
   128
 71
    40
 72
   149
 73
    39
  0
VERTEX
  5
73F
  8
0
 62
     9
 10
0.0
 20
0.0
 30
0.0
 70
   128
 71
    42
 72
   151
 73
   150
  0
VERTEX
  5
740
  8
0
 62
     9
 10
0.0
 20
0.0
 30
0.0
 70
   128
 71
    18
 72
    19
 73
   152
  0
VERTEX
  5
741
  8
0
 62
     9
 10
0.0
 20
0.0
 30
0.0
 70
   128
 71
    13
 72
    39
 73
   153
  0
VERTEX
  5
742
  8
0
 62
     9
 10
0.0
 20
0.0
 30
0.0
 70
   128
 71
    26
 72
    21
 73
   154
  0
VERTEX
  5
743
  8
0
 62
     9
 10
0.0
 20
0.0
 30
0.0
 70
   128
 71
   155
 72
    21
 73
    18
  0
VERTEX
  5
744
  8
0
 62
     9
 10
0.0
 20
0.0
 30
0.0
 70
   128
 71
    25
 72
   154
 73
   156
  0
VERTEX
  5
745
  8
0
 62
     9
 10
0.0
 20
0.0
 30
0.0
 70
   128
 71
   154
 72
    25
 73
    26
  0
VERTEX
  5
746
  8
0
 62
     9
 10
0.0
 20
0.0
 30
0.0
 70
   128
 71
   156
 72
   157
 73
    27
  0
VERTEX
  5
747
  8
0
 62
     9
 10
0.0
 20
0.0
 30
0.0
 70
   128
 71
    27
 72
    25
 73
   156
  0
VERTEX
  5
748
  8
0
 62
     9
 10
0.0
 20
0.0
 30
0.0
 70
   128
 71
   158
 72
    28
 73
   157
  0
VERTEX
  5
749
  8
0
 62
     9
 10
0.0
 20
0.0
 30
0.0
 70
   128
 71
    27
 72
   157
 73
    28
  0
VERTEX
  5
74A
  8
0
 62
     9
 10
0.0
 20
0.0
 30
0.0
 70
   128
 71
    32
 72
   158
 73
   114
  0
VERTEX
  5
74B
  8
0
 62
     9
 10
0.0
 20
0.0
 30
0.0
 70
   128
 71
   158
 72
    32
 73
    28
  0
VERTEX
  5
74C
  8
0
 62
     9
 10
0.0
 20
0.0
 30
0.0
 70
   128
 71
    33
 72
    32
 73
   114
  0
VERTEX
  5
74D
  8
0
 62
     9
 10
0.0
 20
0.0
 30
0.0
 70
   128
 71
   150
 72
    40
 73
    42
  0
VERTEX
  5
74E
  8
0
 62
     9
 10
0.0
 20
0.0
 30
0.0
 70
   128
 71
   155
 72
    18
 73
   152
  0
VERTEX
  5
74F
  8
0
 62
     9
 10
0.0
 20
0.0
 30
0.0
 70
   128
 71
    21
 72
   155
 73
   154
  0
VERTEX
  5
750
  8
0
 62
     9
 10
0.0
 20
0.0
 30
0.0
 70
   128
 71
   147
 72
    46
 73
   148
  0
VERTEX
  5
751
  8
0
 62
     9
 10
0.0
 20
0.0
 30
0.0
 70
   128
 71
   153
 72
    19
 73
    13
  0
VERTEX
  5
752
  8
0
 62
     9
 10
0.0
 20
0.0
 30
0.0
 70
   128
 71
    19
 72
   153
 73
   152
  0
VERTEX
  5
753
  8
0
 62
     9
 10
0.0
 20
0.0
 30
0.0
 70
   128
 71
   149
 72
   153
 73
    39
  0
VERTEX
  5
754
  8
0
 62
     9
 10
0.0
 20
0.0
 30
0.0
 70
   128
 71
    40
 72
   150
 73
   149
  0
VERTEX
  5
755
  8
0
 62
     9
 10
0.0
 20
0.0
 30
0.0
 70
   128
 71
    43
 72
   147
 73
   151
  0
VERTEX
  5
756
  8
0
 62
     9
 10
0.0
 20
0.0
 30
0.0
 70
   128
 71
   151
 72
    42
 73
    43
  0
VERTEX
  5
757
  8
0
 62
     9
 10
0.0
 20
0.0
 30
0.0
 70
   128
 71
   147
 72
    47
 73
    46
  0
VERTEX
  5
758
  8
0
 62
     9
 10
0.0
 20
0.0
 30
0.0
 70
   128
 71
    97
 72
   146
 73
    54
  0
VERTEX
  5
759
  8
0
 62
     9
 10
0.0
 20
0.0
 30
0.0
 70
   128
 71
   145
 72
   148
 73
    50
  0
VERTEX
  5
75A
  8
0
 62
     9
 10
0.0
 20
0.0
 30
0.0
 70
   128
 71
    52
 72
    54
 73
   146
  0
VERTEX
  5
75B
  8
0
 62
     9
 10
0.0
 20
0.0
 30
0.0
 70
   128
 71
    52
 72
   145
 73
    50
  0
VERTEX
  5
75C
  8
0
 62
     9
 10
0.0
 20
0.0
 30
0.0
 70
   128
 71
    95
 72
    93
 73
   155
  0
VERTEX
  5
75D
  8
0
 62
     9
 10
0.0
 20
0.0
 30
0.0
 70
   128
 71
   148
 72
   150
 73
   147
  0
VERTEX
  5
75E
  8
0
 62
     9
 10
0.0
 20
0.0
 30
0.0
 70
   128
 71
   150
 72
   151
 73
   147
  0
VERTEX
  5
75F
  8
0
 62
     9
 10
0.0
 20
0.0
 30
0.0
 70
   128
 71
   145
 72
   146
 73
   150
  0
VERTEX
  5
760
  8
0
 62
     9
 10
0.0
 20
0.0
 30
0.0
 70
   128
 71
   145
 72
   150
 73
   148
  0
VERTEX
  5
761
  8
0
 62
     9
 10
0.0
 20
0.0
 30
0.0
 70
   128
 71
    97
 72
   149
 73
   146
  0
VERTEX
  5
762
  8
0
 62
     9
 10
0.0
 20
0.0
 30
0.0
 70
   128
 71
   150
 72
   146
 73
   149
  0
VERTEX
  5
763
  8
0
 62
     9
 10
0.0
 20
0.0
 30
0.0
 70
   128
 71
    98
 72
    95
 73
   152
  0
VERTEX
  5
764
  8
0
 62
     9
 10
0.0
 20
0.0
 30
0.0
 70
   128
 71
    97
 72
   153
 73
   149
  0
VERTEX
  5
765
  8
0
 62
     9
 10
0.0
 20
0.0
 30
0.0
 70
   128
 71
    82
 72
   158
 73
   157
  0
VERTEX
  5
766
  8
0
 62
     9
 10
0.0
 20
0.0
 30
0.0
 70
   128
 71
   154
 72
    91
 73
   156
  0
VERTEX
  5
767
  8
0
 62
     9
 10
0.0
 20
0.0
 30
0.0
 70
   128
 71
    85
 72
    86
 73
   114
  0
VERTEX
  5
768
  8
0
 62
     9
 10
0.0
 20
0.0
 30
0.0
 70
   128
 71
   108
 72
   101
 73
   105
  0
VERTEX
  5
769
  8
0
 62
     9
 10
0.0
 20
0.0
 30
0.0
 70
   128
 71
    86
 72
   101
 73
   111
  0
VERTEX
  5
76A
  8
0
 62
     9
 10
0.0
 20
0.0
 30
0.0
 70
   128
 71
   101
 72
   108
 73
   109
  0
VERTEX
  5
76B
  8
0
 62
     9
 10
0.0
 20
0.0
 30
0.0
 70
   128
 71
   105
 72
   101
 73
   104
  0
VERTEX
  5
76C
  8
0
 62
     9
 10
0.0
 20
0.0
 30
0.0
 70
   128
 71
   111
 72
   114
 73
    86
  0
VERTEX
  5
76D
  8
0
 62
     9
 10
0.0
 20
0.0
 30
0.0
 70
   128
 71
   109
 72
   111
 73
   101
  0
VERTEX
  5
76E
  8
0
 62
     9
 10
0.0
 20
0.0
 30
0.0
 70
   128
 71
   114
 72
   158
 73
    85
  0
VERTEX
  5
76F
  8
0
 62
     9
 10
0.0
 20
0.0
 30
0.0
 70
   128
 71
    88
 72
    82
 73
   157
  0
VERTEX
  5
770
  8
0
 62
     9
 10
0.0
 20
0.0
 30
0.0
 70
   128
 71
    82
 72
    85
 73
   158
  0
VERTEX
  5
771
  8
0
 62
     9
 10
0.0
 20
0.0
 30
0.0
 70
   128
 71
   156
 72
    91
 73
    88
  0
VERTEX
  5
772
  8
0
 62
     9
 10
0.0
 20
0.0
 30
0.0
 70
   128
 71
    88
 72
   157
 73
   156
  0
VERTEX
  5
773
  8
0
 62
     9
 10
0.0
 20
0.0
 30
0.0
 70
   128
 71
   155
 72
    93
 73
   154
  0
VERTEX
  5
774
  8
0
 62
     9
 10
0.0
 20
0.0
 30
0.0
 70
   128
 71
    93
 72
    91
 73
   154
  0
VERTEX
  5
775
  8
0
 62
     9
 10
0.0
 20
0.0
 30
0.0
 70
   128
 71
   152
 72
   153
 73
    98
  0
VERTEX
  5
776
  8
0
 62
     9
 10
0.0
 20
0.0
 30
0.0
 70
   128
 71
    95
 72
   155
 73
   152
  0
VERTEX
  5
777
  8
0
 62
     9
 10
0.0
 20
0.0
 30
0.0
 70
   128
 71
    97
 72
    98
 73
   153
  0
SEQEND
  5
778
  8
0
 62
     9
  0
ENDBLK
  5
77B
  8
0
  0
BLOCK
  8
0
  2
42
 70
     0
 10
0.0
 20
0.0
 30
0.0
  3
42
  1

  0
POLYLINE
  5
77D
  8
0
 62
     9
 66
     1
 10
0.0
 20
0.0
 30
0.0
 70
    64
 71
    63
 72
    98
  0
VERTEX
  5
77E
  8
0
 10
9.539891242980957
 20
1.737228870391846
 30
97.88999938964844
 70
   192
  0
VERTEX
  5
77F
  8
0
 10
9.9619722366333
 20
1.736881136894226
 30
97.88999938964844
 70
   192
  0
VERTEX
  5
780
  8
0
 10
9.75
 20
1.739506006240845
 30
98.49120330810547
 70
   192
  0
VERTEX
  5
781
  8
0
 10
11.05991649627686
 20
1.15837025642395
 30
97.88999938964844
 70
   192
  0
VERTEX
  5
782
  8
0
 10
11.2991771697998
 20
0.8114337921142578
 30
97.88999938964844
 70
   192
  0
VERTEX
  5
783
  8
0
 10
11.11702728271484
 20
1.075171709060669
 30
98.49120330810547
 70
   192
  0
VERTEX
  5
784
  8
0
 10
10.82746982574463
 20
1.365518093109131
 30
98.49120330810547
 70
   192
  0
VERTEX
  5
785
  8
0
 10
9.387663841247559
 20
1.701088070869446
 30
98.49120330810547
 70
   192
  0
VERTEX
  5
786
  8
0
 10
11.32822513580322
 20
0.7305688261985779
 30
98.49120330810547
 70
   192
  0
VERTEX
  5
787
  8
0
 10
11.44849300384521
 20
0.4176374971866608
 30
97.88999938964844
 70
   192
  0
VERTEX
  5
788
  8
0
 10
11.5
 20
-0.0000000723920337
 30
97.88999938964844
 70
   192
  0
VERTEX
  5
789
  8
0
 10
11.45108795166016
 20
0.3623356819152832
 30
98.49120330810547
 70
   192
  0
VERTEX
  5
78A
  8
0
 10
11.48950576782227
 20
-0.0000000723920337
 30
98.49120330810547
 70
   192
  0
VERTEX
  5
78B
  8
0
 10
10.74424457550049
 20
1.438347458839417
 30
97.88999938964844
 70
   192
  0
VERTEX
  5
78C
  8
0
 10
10.48273468017578
 20
1.577838659286499
 30
98.49120330810547
 70
   192
  0
VERTEX
  5
78D
  8
0
 10
10.11352729797363
 20
1.701349377632141
 30
98.49120330810547
 70
   192
  0
VERTEX
  5
78E
  8
0
 10
10.37125968933105
 20
1.634971380233765
 30
97.88999938964844
 70
   192
  0
VERTEX
  5
78F
  8
0
 10
8.439515113830566
 20
1.161132574081421
 30
97.88999938964844
 70
   192
  0
VERTEX
  5
790
  8
0
 10
8.755255699157715
 20
1.440862774848938
 30
97.88999938964844
 70
   192
  0
VERTEX
  5
791
  8
0
 10
8.67482852935791
 20
1.367027759552002
 30
98.49120330810547
 70
   192
  0
VERTEX
  5
792
  8
0
 10
9.129799842834473
 20
1.636638402938843
 30
97.88999938964844
 70
   192
  0
VERTEX
  5
793
  8
0
 10
9.019431114196777
 20
1.578225612640381
 30
98.49120330810547
 70
   192
  0
VERTEX
  5
794
  8
0
 10
8.048650741577148
 20
0.3635269105434418
 30
98.49120330810547
 70
   192
  0
VERTEX
  5
795
  8
0
 10
8.050084114074707
 20
0.4194157123565674
 30
97.88999938964844
 70
   192
  0
VERTEX
  5
796
  8
0
 10
8.172161102294922
 20
0.7327345609664917
 30
98.49120330810547
 70
   192
  0
VERTEX
  5
797
  8
0
 10
8.384481430053711
 20
1.077470064163208
 30
98.49120330810547
 70
   192
  0
VERTEX
  5
798
  8
0
 10
8.199899673461914
 20
0.8139756321907043
 30
97.88999938964844
 70
   192
  0
VERTEX
  5
799
  8
0
 10
8.0
 20
-0.0000000723920408
 30
97.88999938964844
 70
   192
  0
VERTEX
  5
79A
  8
0
 10
8.010494232177734
 20
-0.0000000723920408
 30
98.49120330810547
 70
   192
  0
VERTEX
  5
79B
  8
0
 10
8.665186882019043
 20
-1.360934257507324
 30
98.49120330810547
 70
   192
  0
VERTEX
  5
79C
  8
0
 10
8.38956069946289
 20
-1.085337281227112
 30
98.49120330810547
 70
   192
  0
VERTEX
  5
79D
  8
0
 10
9.133126258850098
 20
-0.6146789193153381
 30
98.56527709960938
 70
   192
  0
VERTEX
  5
79E
  8
0
 10
9.363264083862305
 20
-1.695639371871948
 30
98.49120330810547
 70
   192
  0
VERTEX
  5
79F
  8
0
 10
8.995434761047363
 20
-1.56793999671936
 30
98.49120330810547
 70
   192
  0
VERTEX
  5
7A0
  8
0
 10
9.75
 20
-0.0000000723920408
 30
98.58999633789062
 70
   192
  0
VERTEX
  5
7A1
  8
0
 10
9.75
 20
-0.8711548447608948
 30
98.56527709960938
 70
   192
  0
VERTEX
  5
7A2
  8
0
 10
8.87884521484375
 20
-0.0000000723872944
 30
98.56527709960938
 70
   192
  0
VERTEX
  5
7A3
  8
0
 10
8.182164192199707
 20
-0.7553861737251282
 30
98.49120330810547
 70
   192
  0
VERTEX
  5
7A4
  8
0
 10
9.75
 20
-1.739506125450134
 30
98.49120330810547
 70
   192
  0
VERTEX
  5
7A5
  8
0
 10
8.053276062011719
 20
-0.3875068128108978
 30
98.49120330810547
 70
   192
  0
VERTEX
  5
7A6
  8
0
 10
9.135320663452148
 20
0.6168739795684814
 30
98.56527709960938
 70
   192
  0
VERTEX
  5
7A7
  8
0
 10
9.75
 20
0.8711547255516052
 30
98.56527709960938
 70
   192
  0
VERTEX
  5
7A8
  8
0
 10
10.3668737411499
 20
0.6146788001060486
 30
98.56527709960938
 70
   192
  0
VERTEX
  5
7A9
  8
0
 10
10.62115478515625
 20
-0.0000000723860438
 30
98.56527709960938
 70
   192
  0
VERTEX
  5
7AA
  8
0
 10
10.50562381744385
 20
-1.565397381782532
 30
98.49120330810547
 70
   192
  0
VERTEX
  5
7AB
  8
0
 10
10.13798236846924
 20
-1.695129752159119
 30
98.49120330810547
 70
   192
  0
VERTEX
  5
7AC
  8
0
 10
10.36467838287354
 20
-0.616874098777771
 30
98.56527709960938
 70
   192
  0
VERTEX
  5
7AD
  8
0
 10
10.8349609375
 20
-1.357795238494873
 30
98.49120330810547
 70
   192
  0
VERTEX
  5
7AE
  8
0
 10
11.44522762298584
 20
-0.386124849319458
 30
98.49120330810547
 70
   192
  0
VERTEX
  5
7AF
  8
0
 10
11.31675243377686
 20
-0.7531754970550537
 30
98.49120330810547
 70
   192
  0
VERTEX
  5
7B0
  8
0
 10
11.10995388031006
 20
-1.082571864128113
 30
98.49120330810547
 70
   192
  0
VERTEX
  5
7B1
  8
0
 10
11.30009937286377
 20
-0.8139757513999939
 30
97.88999938964844
 70
   192
  0
VERTEX
  5
7B2
  8
0
 10
10.37020015716553
 20
-1.636638522148132
 30
97.88999938964844
 70
   192
  0
VERTEX
  5
7B3
  8
0
 10
10.74474430084229
 20
-1.440862894058228
 30
97.88999938964844
 70
   192
  0
VERTEX
  5
7B4
  8
0
 10
11.06048488616943
 20
-1.16113269329071
 30
97.88999938964844
 70
   192
  0
VERTEX
  5
7B5
  8
0
 10
9.128740310668945
 20
-1.634971499443054
 30
97.88999938964844
 70
   192
  0
VERTEX
  5
7B6
  8
0
 10
9.538026809692383
 20
-1.736881256103516
 30
97.88999938964844
 70
   192
  0
VERTEX
  5
7B7
  8
0
 10
9.960108757019043
 20
-1.737228989601135
 30
97.88999938964844
 70
   192
  0
VERTEX
  5
7B8
  8
0
 10
8.440083503723145
 20
-1.158370494842529
 30
97.88999938964844
 70
   192
  0
VERTEX
  5
7B9
  8
0
 10
8.755755424499512
 20
-1.438347578048706
 30
97.88999938964844
 70
   192
  0
VERTEX
  5
7BA
  8
0
 10
8.200822830200195
 20
-0.8114339709281921
 30
97.88999938964844
 70
   192
  0
VERTEX
  5
7BB
  8
0
 10
8.051506996154785
 20
-0.4176376461982727
 30
97.88999938964844
 70
   192
  0
VERTEX
  5
7BC
  8
0
 10
11.44991588592529
 20
-0.4194158613681793
 30
97.88999938964844
 70
   192
  0
VERTEX
  5
7BD
  8
0
 62
     9
 10
0.0
 20
0.0
 30
0.0
 70
   128
 71
     3
 72
     2
 73
     1
  0
VERTEX
  5
7BE
  8
0
 62
     9
 10
0.0
 20
0.0
 30
0.0
 70
   128
 71
     6
 72
     5
 73
     4
  0
VERTEX
  5
7BF
  8
0
 62
     9
 10
0.0
 20
0.0
 30
0.0
 70
   128
 71
     6
 72
     4
 73
     7
  0
VERTEX
  5
7C0
  8
0
 62
     9
 10
0.0
 20
0.0
 30
0.0
 70
   128
 71
     1
 72
     8
 73
     3
  0
VERTEX
  5
7C1
  8
0
 62
     9
 10
0.0
 20
0.0
 30
0.0
 70
   128
 71
     5
 72
     6
 73
     9
  0
VERTEX
  5
7C2
  8
0
 62
     9
 10
0.0
 20
0.0
 30
0.0
 70
   128
 71
     9
 72
    10
 73
     5
  0
VERTEX
  5
7C3
  8
0
 62
     9
 10
0.0
 20
0.0
 30
0.0
 70
   128
 71
    12
 72
    11
 73
    10
  0
VERTEX
  5
7C4
  8
0
 62
     9
 10
0.0
 20
0.0
 30
0.0
 70
   128
 71
    10
 72
     9
 73
    12
  0
VERTEX
  5
7C5
  8
0
 62
     9
 10
0.0
 20
0.0
 30
0.0
 70
   128
 71
    11
 72
    12
 73
    13
  0
VERTEX
  5
7C6
  8
0
 62
     9
 10
0.0
 20
0.0
 30
0.0
 70
   128
 71
    15
 72
     7
 73
    14
  0
VERTEX
  5
7C7
  8
0
 62
     9
 10
0.0
 20
0.0
 30
0.0
 70
   128
 71
     4
 72
    14
 73
     7
  0
VERTEX
  5
7C8
  8
0
 62
     9
 10
0.0
 20
0.0
 30
0.0
 70
   128
 71
    17
 72
    16
 73
    15
  0
VERTEX
  5
7C9
  8
0
 62
     9
 10
0.0
 20
0.0
 30
0.0
 70
   128
 71
    15
 72
    14
 73
    17
  0
VERTEX
  5
7CA
  8
0
 62
     9
 10
0.0
 20
0.0
 30
0.0
 70
   128
 71
    16
 72
     2
 73
     3
  0
VERTEX
  5
7CB
  8
0
 62
     9
 10
0.0
 20
0.0
 30
0.0
 70
   128
 71
     2
 72
    16
 73
    17
  0
VERTEX
  5
7CC
  8
0
 62
     9
 10
0.0
 20
0.0
 30
0.0
 70
   128
 71
    20
 72
    19
 73
    18
  0
VERTEX
  5
7CD
  8
0
 62
     9
 10
0.0
 20
0.0
 30
0.0
 70
   128
 71
    22
 72
     8
 73
    21
  0
VERTEX
  5
7CE
  8
0
 62
     9
 10
0.0
 20
0.0
 30
0.0
 70
   128
 71
    25
 72
    24
 73
    23
  0
VERTEX
  5
7CF
  8
0
 62
     9
 10
0.0
 20
0.0
 30
0.0
 70
   128
 71
    18
 72
    27
 73
    26
  0
VERTEX
  5
7D0
  8
0
 62
     9
 10
0.0
 20
0.0
 30
0.0
 70
   128
 71
    29
 72
    23
 73
    28
  0
VERTEX
  5
7D1
  8
0
 62
     9
 10
0.0
 20
0.0
 30
0.0
 70
   128
 71
    24
 72
    28
 73
    23
  0
VERTEX
  5
7D2
  8
0
 62
     9
 10
0.0
 20
0.0
 30
0.0
 70
   128
 71
    25
 72
    26
 73
    27
  0
VERTEX
  5
7D3
  8
0
 62
     9
 10
0.0
 20
0.0
 30
0.0
 70
   128
 71
    27
 72
    24
 73
    25
  0
VERTEX
  5
7D4
  8
0
 62
     9
 10
0.0
 20
0.0
 30
0.0
 70
   128
 71
    18
 72
    26
 73
    20
  0
VERTEX
  5
7D5
  8
0
 62
     9
 10
0.0
 20
0.0
 30
0.0
 70
   128
 71
    19
 72
    22
 73
    21
  0
VERTEX
  5
7D6
  8
0
 62
     9
 10
0.0
 20
0.0
 30
0.0
 70
   128
 71
    22
 72
    19
 73
    20
  0
VERTEX
  5
7D7
  8
0
 62
     9
 10
0.0
 20
0.0
 30
0.0
 70
   128
 71
     1
 72
    21
 73
     8
  0
VERTEX
  5
7D8
  8
0
 62
     9
 10
0.0
 20
0.0
 30
0.0
 70
   128
 71
    32
 72
    31
 73
    30
  0
VERTEX
  5
7D9
  8
0
 62
     9
 10
0.0
 20
0.0
 30
0.0
 70
   128
 71
    32
 72
    34
 73
    33
  0
VERTEX
  5
7DA
  8
0
 62
     9
 10
0.0
 20
0.0
 30
0.0
 70
   128
 71
    36
 72
    35
 73
    32
  0
VERTEX
  5
7DB
  8
0
 62
     9
 10
0.0
 20
0.0
 30
0.0
 70
   128
 71
    37
 72
    32
 73
    35
  0
VERTEX
  5
7DC
  8
0
 62
     9
 10
0.0
 20
0.0
 30
0.0
 70
   128
 71
    36
 72
    32
 73
    33
  0
VERTEX
  5
7DD
  8
0
 62
     9
 10
0.0
 20
0.0
 30
0.0
 70
   128
 71
    32
 72
    38
 73
    31
  0
VERTEX
  5
7DE
  8
0
 62
     9
 10
0.0
 20
0.0
 30
0.0
 70
   128
 71
    39
 72
    36
 73
    33
  0
VERTEX
  5
7DF
  8
0
 62
     9
 10
0.0
 20
0.0
 30
0.0
 70
   128
 71
    37
 72
    29
 73
    40
  0
VERTEX
  5
7E0
  8
0
 62
     9
 10
0.0
 20
0.0
 30
0.0
 70
   128
 71
    37
 72
    40
 73
    38
  0
VERTEX
  5
7E1
  8
0
 62
     9
 10
0.0
 20
0.0
 30
0.0
 70
   128
 71
    37
 72
    38
 73
    32
  0
VERTEX
  5
7E2
  8
0
 62
     9
 10
0.0
 20
0.0
 30
0.0
 70
   128
 71
    32
 72
    30
 73
    34
  0
VERTEX
  5
7E3
  8
0
 62
     9
 10
0.0
 20
0.0
 30
0.0
 70
   128
 71
    41
 72
    20
 73
    26
  0
VERTEX
  5
7E4
  8
0
 62
     9
 10
0.0
 20
0.0
 30
0.0
 70
   128
 71
    41
 72
    25
 73
    23
  0
VERTEX
  5
7E5
  8
0
 62
     9
 10
0.0
 20
0.0
 30
0.0
 70
   128
 71
    37
 72
    35
 73
    41
  0
VERTEX
  5
7E6
  8
0
 62
     9
 10
0.0
 20
0.0
 30
0.0
 70
   128
 71
    42
 72
    41
 73
    35
  0
VERTEX
  5
7E7
  8
0
 62
     9
 10
0.0
 20
0.0
 30
0.0
 70
   128
 71
    37
 72
    41
 73
    23
  0
VERTEX
  5
7E8
  8
0
 62
     9
 10
0.0
 20
0.0
 30
0.0
 70
   128
 71
    41
 72
    22
 73
    20
  0
VERTEX
  5
7E9
  8
0
 62
     9
 10
0.0
 20
0.0
 30
0.0
 70
   128
 71
    29
 72
    37
 73
    23
  0
VERTEX
  5
7EA
  8
0
 62
     9
 10
0.0
 20
0.0
 30
0.0
 70
   128
 71
    42
 72
     3
 73
     8
  0
VERTEX
  5
7EB
  8
0
 62
     9
 10
0.0
 20
0.0
 30
0.0
 70
   128
 71
    42
 72
     8
 73
    22
  0
VERTEX
  5
7EC
  8
0
 62
     9
 10
0.0
 20
0.0
 30
0.0
 70
   128
 71
    42
 72
    22
 73
    41
  0
VERTEX
  5
7ED
  8
0
 62
     9
 10
0.0
 20
0.0
 30
0.0
 70
   128
 71
    41
 72
    26
 73
    25
  0
VERTEX
  5
7EE
  8
0
 62
     9
 10
0.0
 20
0.0
 30
0.0
 70
   128
 71
    43
 72
     6
 73
     7
  0
VERTEX
  5
7EF
  8
0
 62
     9
 10
0.0
 20
0.0
 30
0.0
 70
   128
 71
    43
 72
    15
 73
    16
  0
VERTEX
  5
7F0
  8
0
 62
     9
 10
0.0
 20
0.0
 30
0.0
 70
   128
 71
    42
 72
    35
 73
    43
  0
VERTEX
  5
7F1
  8
0
 62
     9
 10
0.0
 20
0.0
 30
0.0
 70
   128
 71
    44
 72
    43
 73
    35
  0
VERTEX
  5
7F2
  8
0
 62
     9
 10
0.0
 20
0.0
 30
0.0
 70
   128
 71
    42
 72
    43
 73
    16
  0
VERTEX
  5
7F3
  8
0
 62
     9
 10
0.0
 20
0.0
 30
0.0
 70
   128
 71
    43
 72
     9
 73
     6
  0
VERTEX
  5
7F4
  8
0
 62
     9
 10
0.0
 20
0.0
 30
0.0
 70
   128
 71
     3
 72
    42
 73
    16
  0
VERTEX
  5
7F5
  8
0
 62
     9
 10
0.0
 20
0.0
 30
0.0
 70
   128
 71
    44
 72
    13
 73
    12
  0
VERTEX
  5
7F6
  8
0
 62
     9
 10
0.0
 20
0.0
 30
0.0
 70
   128
 71
    44
 72
    12
 73
     9
  0
VERTEX
  5
7F7
  8
0
 62
     9
 10
0.0
 20
0.0
 30
0.0
 70
   128
 71
    44
 72
     9
 73
    43
  0
VERTEX
  5
7F8
  8
0
 62
     9
 10
0.0
 20
0.0
 30
0.0
 70
   128
 71
    43
 72
     7
 73
    15
  0
VERTEX
  5
7F9
  8
0
 62
     9
 10
0.0
 20
0.0
 30
0.0
 70
   128
 71
    36
 72
    46
 73
    45
  0
VERTEX
  5
7FA
  8
0
 62
     9
 10
0.0
 20
0.0
 30
0.0
 70
   128
 71
    36
 72
    47
 73
    35
  0
VERTEX
  5
7FB
  8
0
 62
     9
 10
0.0
 20
0.0
 30
0.0
 70
   128
 71
    47
 72
    45
 73
    48
  0
VERTEX
  5
7FC
  8
0
 62
     9
 10
0.0
 20
0.0
 30
0.0
 70
   128
 71
    39
 72
    46
 73
    36
  0
VERTEX
  5
7FD
  8
0
 62
     9
 10
0.0
 20
0.0
 30
0.0
 70
   128
 71
    47
 72
    50
 73
    49
  0
VERTEX
  5
7FE
  8
0
 62
     9
 10
0.0
 20
0.0
 30
0.0
 70
   128
 71
    47
 72
    48
 73
    51
  0
VERTEX
  5
7FF
  8
0
 62
     9
 10
0.0
 20
0.0
 30
0.0
 70
   128
 71
    44
 72
    35
 73
    47
  0
VERTEX
  5
800
  8
0
 62
     9
 10
0.0
 20
0.0
 30
0.0
 70
   128
 71
    47
 72
    49
 73
    44
  0
VERTEX
  5
801
  8
0
 62
     9
 10
0.0
 20
0.0
 30
0.0
 70
   128
 71
    13
 72
    44
 73
    49
  0
VERTEX
  5
802
  8
0
 62
     9
 10
0.0
 20
0.0
 30
0.0
 70
   128
 71
    36
 72
    45
 73
    47
  0
VERTEX
  5
803
  8
0
 62
     9
 10
0.0
 20
0.0
 30
0.0
 70
   128
 71
    47
 72
    51
 73
    50
  0
VERTEX
  5
804
  8
0
 62
     9
 10
0.0
 20
0.0
 30
0.0
 70
   128
 71
    11
 72
    13
 73
    49
  0
VERTEX
  5
805
  8
0
 62
     9
 10
0.0
 20
0.0
 30
0.0
 70
   128
 71
    52
 72
    50
 73
    51
  0
VERTEX
  5
806
  8
0
 62
     9
 10
0.0
 20
0.0
 30
0.0
 70
   128
 71
    46
 72
    53
 73
    45
  0
VERTEX
  5
807
  8
0
 62
     9
 10
0.0
 20
0.0
 30
0.0
 70
   128
 71
    55
 72
    48
 73
    54
  0
VERTEX
  5
808
  8
0
 62
     9
 10
0.0
 20
0.0
 30
0.0
 70
   128
 71
    56
 72
    33
 73
    34
  0
VERTEX
  5
809
  8
0
 62
     9
 10
0.0
 20
0.0
 30
0.0
 70
   128
 71
    58
 72
    39
 73
    57
  0
VERTEX
  5
80A
  8
0
 62
     9
 10
0.0
 20
0.0
 30
0.0
 70
   128
 71
    59
 72
    30
 73
    31
  0
VERTEX
  5
80B
  8
0
 62
     9
 10
0.0
 20
0.0
 30
0.0
 70
   128
 71
    34
 72
    30
 73
    60
  0
VERTEX
  5
80C
  8
0
 62
     9
 10
0.0
 20
0.0
 30
0.0
 70
   128
 71
    61
 72
    59
 73
    31
  0
VERTEX
  5
80D
  8
0
 62
     9
 10
0.0
 20
0.0
 30
0.0
 70
   128
 71
    38
 72
    62
 73
    61
  0
VERTEX
  5
80E
  8
0
 62
     9
 10
0.0
 20
0.0
 30
0.0
 70
   128
 71
    61
 72
    31
 73
    38
  0
VERTEX
  5
80F
  8
0
 62
     9
 10
0.0
 20
0.0
 30
0.0
 70
   128
 71
    62
 72
    40
 73
    28
  0
VERTEX
  5
810
  8
0
 62
     9
 10
0.0
 20
0.0
 30
0.0
 70
   128
 71
    40
 72
    62
 73
    38
  0
VERTEX
  5
811
  8
0
 62
     9
 10
0.0
 20
0.0
 30
0.0
 70
   128
 71
    40
 72
    29
 73
    28
  0
VERTEX
  5
812
  8
0
 62
     9
 10
0.0
 20
0.0
 30
0.0
 70
   128
 71
    56
 72
    34
 73
    60
  0
VERTEX
  5
813
  8
0
 62
     9
 10
0.0
 20
0.0
 30
0.0
 70
   128
 71
    59
 72
    60
 73
    30
  0
VERTEX
  5
814
  8
0
 62
     9
 10
0.0
 20
0.0
 30
0.0
 70
   128
 71
    39
 72
    33
 73
    57
  0
VERTEX
  5
815
  8
0
 62
     9
 10
0.0
 20
0.0
 30
0.0
 70
   128
 71
    56
 72
    57
 73
    33
  0
VERTEX
  5
816
  8
0
 62
     9
 10
0.0
 20
0.0
 30
0.0
 70
   128
 71
    58
 72
    46
 73
    39
  0
VERTEX
  5
817
  8
0
 62
     9
 10
0.0
 20
0.0
 30
0.0
 70
   128
 71
    45
 72
    53
 73
    54
  0
VERTEX
  5
818
  8
0
 62
     9
 10
0.0
 20
0.0
 30
0.0
 70
   128
 71
    46
 72
    58
 73
    53
  0
VERTEX
  5
819
  8
0
 62
     9
 10
0.0
 20
0.0
 30
0.0
 70
   128
 71
    48
 72
    45
 73
    54
  0
VERTEX
  5
81A
  8
0
 62
     9
 10
0.0
 20
0.0
 30
0.0
 70
   128
 71
    52
 72
    51
 73
    55
  0
VERTEX
  5
81B
  8
0
 62
     9
 10
0.0
 20
0.0
 30
0.0
 70
   128
 71
    51
 72
    48
 73
    55
  0
VERTEX
  5
81C
  8
0
 62
     9
 10
0.0
 20
0.0
 30
0.0
 70
   128
 71
    50
 72
    63
 73
    49
  0
VERTEX
  5
81D
  8
0
 62
     9
 10
0.0
 20
0.0
 30
0.0
 70
   128
 71
    63
 72
    50
 73
    52
  0
VERTEX
  5
81E
  8
0
 62
     9
 10
0.0
 20
0.0
 30
0.0
 70
   128
 71
    49
 72
    63
 73
    11
  0
SEQEND
  5
81F
  8
0
 62
     9
  0
ENDBLK
  5
822
  8
0
  0
BLOCK
  8
0
  2
43
 70
     0
 10
0.0
 20
0.0
 30
0.0
  3
43
  1

  0
POLYLINE
  5
824
  8
0
 62
     9
 66
     1
 10
0.0
 20
0.0
 30
0.0
 70
    64
 71
    68
 72
    68
  0
VERTEX
  5
825
  8
0
 10
-1.275050640106201
 20
13.74060153961182
 30
75.0
 70
   192
  0
VERTEX
  5
826
  8
0
 10
-1.270307540893555
 20
13.74135112762451
 30
72.5999984741211
 70
   192
  0
VERTEX
  5
827
  8
0
 10
1.270307540893555
 20
13.74135112762451
 30
75.0
 70
   192
  0
VERTEX
  5
828
  8
0
 10
-3.7744140625
 20
13.27412223815918
 30
72.5999984741211
 70
   192
  0
VERTEX
  5
829
  8
0
 10
-3.775721549987793
 20
13.27251148223877
 30
75.0
 70
   192
  0
VERTEX
  5
82A
  8
0
 10
-6.150920391082764
 20
12.35219955444336
 30
75.0
 70
   192
  0
VERTEX
  5
82B
  8
0
 10
-6.147831916809082
 20
12.35579967498779
 30
72.5999984741211
 70
   192
  0
VERTEX
  5
82C
  8
0
 10
-8.314530372619629
 20
11.01218318939209
 30
75.0
 70
   192
  0
VERTEX
  5
82D
  8
0
 10
-8.311756134033203
 20
11.01672458648682
 30
72.5999984741211
 70
   192
  0
VERTEX
  5
82E
  8
0
 10
-10.19269943237305
 20
9.291200637817383
 30
75.0
 70
   192
  0
VERTEX
  5
82F
  8
0
 10
-10.157546043396
 20
9.265918731689453
 30
72.5999984741211
 70
   192
  0
VERTEX
  5
830
  8
0
 10
-11.72534942626953
 20
7.259023189544678
 30
75.0
 70
   192
  0
VERTEX
  5
831
  8
0
 10
-11.74085140228271
 20
7.274514198303223
 30
72.5999984741211
 70
   192
  0
VERTEX
  5
832
  8
0
 10
-12.86892986297607
 20
4.988228797912598
 30
72.5999984741211
 70
   192
  0
VERTEX
  5
833
  8
0
 10
-12.86675071716309
 20
4.981563568115234
 30
75.0
 70
   192
  0
VERTEX
  5
834
  8
0
 10
-13.56437683105469
 20
2.532806158065796
 30
75.0
 70
   192
  0
VERTEX
  5
835
  8
0
 10
-13.56587982177734
 20
2.537590026855469
 30
72.5999984741211
 70
   192
  0
VERTEX
  5
836
  8
0
 10
-13.80000019073486
 20
-0.0000000000000021
 30
72.5999984741211
 70
   192
  0
VERTEX
  5
837
  8
0
 10
-13.80000019073486
 20
-0.0000000000000021
 30
75.0
 70
   192
  0
VERTEX
  5
838
  8
0
 10
1.275050640106201
 20
13.74060153961182
 30
72.5999984741211
 70
   192
  0
VERTEX
  5
839
  8
0
 10
3.775721549987793
 20
13.27251148223877
 30
72.5999984741211
 70
   192
  0
VERTEX
  5
83A
  8
0
 10
3.7744140625
 20
13.27412223815918
 30
75.0
 70
   192
  0
VERTEX
  5
83B
  8
0
 10
6.150920391082764
 20
12.35219955444336
 30
72.5999984741211
 70
   192
  0
VERTEX
  5
83C
  8
0
 10
6.147831916809082
 20
12.35579967498779
 30
75.0
 70
   192
  0
VERTEX
  5
83D
  8
0
 10
8.311756134033203
 20
11.01672458648682
 30
75.0
 70
   192
  0
VERTEX
  5
83E
  8
0
 10
8.314530372619629
 20
11.01218318939209
 30
72.5999984741211
 70
   192
  0
VERTEX
  5
83F
  8
0
 10
10.19269943237305
 20
9.291200637817383
 30
72.5999984741211
 70
   192
  0
VERTEX
  5
840
  8
0
 10
10.157546043396
 20
9.265918731689453
 30
75.0
 70
   192
  0
VERTEX
  5
841
  8
0
 10
11.74085140228271
 20
7.274514198303223
 30
75.0
 70
   192
  0
VERTEX
  5
842
  8
0
 10
11.72534942626953
 20
7.259023189544678
 30
72.5999984741211
 70
   192
  0
VERTEX
  5
843
  8
0
 10
12.86675071716309
 20
4.981563568115234
 30
72.5999984741211
 70
   192
  0
VERTEX
  5
844
  8
0
 10
12.86892986297607
 20
4.988228797912598
 30
75.0
 70
   192
  0
VERTEX
  5
845
  8
0
 10
13.56437683105469
 20
2.532806158065796
 30
72.5999984741211
 70
   192
  0
VERTEX
  5
846
  8
0
 10
13.56587982177734
 20
2.537590026855469
 30
75.0
 70
   192
  0
VERTEX
  5
847
  8
0
 10
13.80000019073486
 20
-0.0000000000000037
 30
75.0
 70
   192
  0
VERTEX
  5
848
  8
0
 10
13.80000019073486
 20
-0.0000000000000037
 30
72.5999984741211
 70
   192
  0
VERTEX
  5
849
  8
0
 10
-13.56437683105469
 20
-2.532806158065796
 30
72.5999984741211
 70
   192
  0
VERTEX
  5
84A
  8
0
 10
-10.19269943237305
 20
-9.291200637817383
 30
72.5999984741211
 70
   192
  0
VERTEX
  5
84B
  8
0
 10
-11.72534942626953
 20
-7.259023189544678
 30
72.5999984741211
 70
   192
  0
VERTEX
  5
84C
  8
0
 10
-10.157546043396
 20
-9.265918731689453
 30
75.0
 70
   192
  0
VERTEX
  5
84D
  8
0
 10
-12.86675071716309
 20
-4.981563568115234
 30
72.5999984741211
 70
   192
  0
VERTEX
  5
84E
  8
0
 10
-12.86892986297607
 20
-4.988228797912598
 30
75.0
 70
   192
  0
VERTEX
  5
84F
  8
0
 10
-11.74085140228271
 20
-7.274514198303223
 30
75.0
 70
   192
  0
VERTEX
  5
850
  8
0
 10
-3.775721549987793
 20
-13.27251148223877
 30
72.5999984741211
 70
   192
  0
VERTEX
  5
851
  8
0
 10
-3.7744140625
 20
-13.27412223815918
 30
75.0
 70
   192
  0
VERTEX
  5
852
  8
0
 10
-1.275050640106201
 20
-13.74060153961182
 30
72.5999984741211
 70
   192
  0
VERTEX
  5
853
  8
0
 10
-6.150920391082764
 20
-12.35219955444336
 30
72.5999984741211
 70
   192
  0
VERTEX
  5
854
  8
0
 10
-8.311756134033203
 20
-11.01672458648682
 30
75.0
 70
   192
  0
VERTEX
  5
855
  8
0
 10
-6.147831916809082
 20
-12.35579967498779
 30
75.0
 70
   192
  0
VERTEX
  5
856
  8
0
 10
6.147831916809082
 20
-12.35579967498779
 30
72.5999984741211
 70
   192
  0
VERTEX
  5
857
  8
0
 10
3.7744140625
 20
-13.27412223815918
 30
72.5999984741211
 70
   192
  0
VERTEX
  5
858
  8
0
 10
3.775721549987793
 20
-13.27251148223877
 30
75.0
 70
   192
  0
VERTEX
  5
859
  8
0
 10
1.275050640106201
 20
-13.74060153961182
 30
75.0
 70
   192
  0
VERTEX
  5
85A
  8
0
 10
1.270307540893555
 20
-13.74135112762451
 30
72.5999984741211
 70
   192
  0
VERTEX
  5
85B
  8
0
 10
-1.270307540893555
 20
-13.74135112762451
 30
75.0
 70
   192
  0
VERTEX
  5
85C
  8
0
 10
8.311756134033203
 20
-11.01672458648682
 30
72.5999984741211
 70
   192
  0
VERTEX
  5
85D
  8
0
 10
8.314530372619629
 20
-11.01218318939209
 30
75.0
 70
   192
  0
VERTEX
  5
85E
  8
0
 10
10.19269943237305
 20
-9.291200637817383
 30
75.0
 70
   192
  0
VERTEX
  5
85F
  8
0
 10
6.150920391082764
 20
-12.35219955444336
 30
75.0
 70
   192
  0
VERTEX
  5
860
  8
0
 10
10.157546043396
 20
-9.265918731689453
 30
72.5999984741211
 70
   192
  0
VERTEX
  5
861
  8
0
 10
11.72534942626953
 20
-7.259023189544678
 30
75.0
 70
   192
  0
VERTEX
  5
862
  8
0
 10
11.74085140228271
 20
-7.274514198303223
 30
72.5999984741211
 70
   192
  0
VERTEX
  5
863
  8
0
 10
12.86675071716309
 20
-4.981563568115234
 30
75.0
 70
   192
  0
VERTEX
  5
864
  8
0
 10
12.86892986297607
 20
-4.988228797912598
 30
72.5999984741211
 70
   192
  0
VERTEX
  5
865
  8
0
 10
13.56587982177734
 20
-2.537590026855469
 30
72.5999984741211
 70
   192
  0
VERTEX
  5
866
  8
0
 10
13.56437683105469
 20
-2.532806158065796
 30
75.0
 70
   192
  0
VERTEX
  5
867
  8
0
 10
-8.314530372619629
 20
-11.01218318939209
 30
72.5999984741211
 70
   192
  0
VERTEX
  5
868
  8
0
 10
-13.56587982177734
 20
-2.537590026855469
 30
75.0
 70
   192
  0
VERTEX
  5
869
  8
0
 62
     9
 10
0.0
 20
0.0
 30
0.0
 70
   128
 71
     3
 72
     2
 73
     1
  0
VERTEX
  5
86A
  8
0
 62
     9
 10
0.0
 20
0.0
 30
0.0
 70
   128
 71
     5
 72
     1
 73
     4
  0
VERTEX
  5
86B
  8
0
 62
     9
 10
0.0
 20
0.0
 30
0.0
 70
   128
 71
     2
 72
     4
 73
     1
  0
VERTEX
  5
86C
  8
0
 62
     9
 10
0.0
 20
0.0
 30
0.0
 70
   128
 71
     7
 72
     6
 73
     5
  0
VERTEX
  5
86D
  8
0
 62
     9
 10
0.0
 20
0.0
 30
0.0
 70
   128
 71
     5
 72
     4
 73
     7
  0
VERTEX
  5
86E
  8
0
 62
     9
 10
0.0
 20
0.0
 30
0.0
 70
   128
 71
     6
 72
     9
 73
     8
  0
VERTEX
  5
86F
  8
0
 62
     9
 10
0.0
 20
0.0
 30
0.0
 70
   128
 71
     9
 72
     6
 73
     7
  0
VERTEX
  5
870
  8
0
 62
     9
 10
0.0
 20
0.0
 30
0.0
 70
   128
 71
    11
 72
    10
 73
     9
  0
VERTEX
  5
871
  8
0
 62
     9
 10
0.0
 20
0.0
 30
0.0
 70
   128
 71
     8
 72
     9
 73
    10
  0
VERTEX
  5
872
  8
0
 62
     9
 10
0.0
 20
0.0
 30
0.0
 70
   128
 71
    11
 72
    13
 73
    12
  0
VERTEX
  5
873
  8
0
 62
     9
 10
0.0
 20
0.0
 30
0.0
 70
   128
 71
    12
 72
    10
 73
    11
  0
VERTEX
  5
874
  8
0
 62
     9
 10
0.0
 20
0.0
 30
0.0
 70
   128
 71
    15
 72
    13
 73
    14
  0
VERTEX
  5
875
  8
0
 62
     9
 10
0.0
 20
0.0
 30
0.0
 70
   128
 71
    13
 72
    15
 73
    12
  0
VERTEX
  5
876
  8
0
 62
     9
 10
0.0
 20
0.0
 30
0.0
 70
   128
 71
    17
 72
    16
 73
    14
  0
VERTEX
  5
877
  8
0
 62
     9
 10
0.0
 20
0.0
 30
0.0
 70
   128
 71
    15
 72
    14
 73
    16
  0
VERTEX
  5
878
  8
0
 62
     9
 10
0.0
 20
0.0
 30
0.0
 70
   128
 71
    16
 72
    17
 73
    18
  0
VERTEX
  5
879
  8
0
 62
     9
 10
0.0
 20
0.0
 30
0.0
 70
   128
 71
    19
 72
    16
 73
    18
  0
VERTEX
  5
87A
  8
0
 62
     9
 10
0.0
 20
0.0
 30
0.0
 70
   128
 71
     3
 72
    20
 73
     2
  0
VERTEX
  5
87B
  8
0
 62
     9
 10
0.0
 20
0.0
 30
0.0
 70
   128
 71
    22
 72
    21
 73
    20
  0
VERTEX
  5
87C
  8
0
 62
     9
 10
0.0
 20
0.0
 30
0.0
 70
   128
 71
    20
 72
     3
 73
    22
  0
VERTEX
  5
87D
  8
0
 62
     9
 10
0.0
 20
0.0
 30
0.0
 70
   128
 71
    21
 72
    24
 73
    23
  0
VERTEX
  5
87E
  8
0
 62
     9
 10
0.0
 20
0.0
 30
0.0
 70
   128
 71
    24
 72
    21
 73
    22
  0
VERTEX
  5
87F
  8
0
 62
     9
 10
0.0
 20
0.0
 30
0.0
 70
   128
 71
    26
 72
    23
 73
    25
  0
VERTEX
  5
880
  8
0
 62
     9
 10
0.0
 20
0.0
 30
0.0
 70
   128
 71
    24
 72
    25
 73
    23
  0
VERTEX
  5
881
  8
0
 62
     9
 10
0.0
 20
0.0
 30
0.0
 70
   128
 71
    25
 72
    28
 73
    27
  0
VERTEX
  5
882
  8
0
 62
     9
 10
0.0
 20
0.0
 30
0.0
 70
   128
 71
    27
 72
    26
 73
    25
  0
VERTEX
  5
883
  8
0
 62
     9
 10
0.0
 20
0.0
 30
0.0
 70
   128
 71
    30
 72
    28
 73
    29
  0
VERTEX
  5
884
  8
0
 62
     9
 10
0.0
 20
0.0
 30
0.0
 70
   128
 71
    28
 72
    30
 73
    27
  0
VERTEX
  5
885
  8
0
 62
     9
 10
0.0
 20
0.0
 30
0.0
 70
   128
 71
    32
 72
    31
 73
    29
  0
VERTEX
  5
886
  8
0
 62
     9
 10
0.0
 20
0.0
 30
0.0
 70
   128
 71
    30
 72
    29
 73
    31
  0
VERTEX
  5
887
  8
0
 62
     9
 10
0.0
 20
0.0
 30
0.0
 70
   128
 71
    32
 72
    34
 73
    33
  0
VERTEX
  5
888
  8
0
 62
     9
 10
0.0
 20
0.0
 30
0.0
 70
   128
 71
    33
 72
    31
 73
    32
  0
VERTEX
  5
889
  8
0
 62
     9
 10
0.0
 20
0.0
 30
0.0
 70
   128
 71
    35
 72
    33
 73
    34
  0
VERTEX
  5
88A
  8
0
 62
     9
 10
0.0
 20
0.0
 30
0.0
 70
   128
 71
    35
 72
    36
 73
    33
  0
VERTEX
  5
88B
  8
0
 62
     9
 10
0.0
 20
0.0
 30
0.0
 70
   128
 71
    19
 72
    18
 73
    37
  0
VERTEX
  5
88C
  8
0
 62
     9
 10
0.0
 20
0.0
 30
0.0
 70
   128
 71
    40
 72
    39
 73
    38
  0
VERTEX
  5
88D
  8
0
 62
     9
 10
0.0
 20
0.0
 30
0.0
 70
   128
 71
    43
 72
    42
 73
    41
  0
VERTEX
  5
88E
  8
0
 62
     9
 10
0.0
 20
0.0
 30
0.0
 70
   128
 71
    46
 72
    45
 73
    44
  0
VERTEX
  5
88F
  8
0
 62
     9
 10
0.0
 20
0.0
 30
0.0
 70
   128
 71
    49
 72
    48
 73
    47
  0
VERTEX
  5
890
  8
0
 62
     9
 10
0.0
 20
0.0
 30
0.0
 70
   128
 71
    52
 72
    51
 73
    50
  0
VERTEX
  5
891
  8
0
 62
     9
 10
0.0
 20
0.0
 30
0.0
 70
   128
 71
    55
 72
    54
 73
    53
  0
VERTEX
  5
892
  8
0
 62
     9
 10
0.0
 20
0.0
 30
0.0
 70
   128
 71
    58
 72
    57
 73
    56
  0
VERTEX
  5
893
  8
0
 62
     9
 10
0.0
 20
0.0
 30
0.0
 70
   128
 71
    50
 72
    56
 73
    59
  0
VERTEX
  5
894
  8
0
 62
     9
 10
0.0
 20
0.0
 30
0.0
 70
   128
 71
    62
 72
    61
 73
    60
  0
VERTEX
  5
895
  8
0
 62
     9
 10
0.0
 20
0.0
 30
0.0
 70
   128
 71
    58
 72
    60
 73
    61
  0
VERTEX
  5
896
  8
0
 62
     9
 10
0.0
 20
0.0
 30
0.0
 70
   128
 71
    62
 72
    64
 73
    63
  0
VERTEX
  5
897
  8
0
 62
     9
 10
0.0
 20
0.0
 30
0.0
 70
   128
 71
    63
 72
    61
 73
    62
  0
VERTEX
  5
898
  8
0
 62
     9
 10
0.0
 20
0.0
 30
0.0
 70
   128
 71
    66
 72
    64
 73
    65
  0
VERTEX
  5
899
  8
0
 62
     9
 10
0.0
 20
0.0
 30
0.0
 70
   128
 71
    64
 72
    66
 73
    63
  0
VERTEX
  5
89A
  8
0
 62
     9
 10
0.0
 20
0.0
 30
0.0
 70
   128
 71
    35
 72
    66
 73
    36
  0
VERTEX
  5
89B
  8
0
 62
     9
 10
0.0
 20
0.0
 30
0.0
 70
   128
 71
    65
 72
    36
 73
    66
  0
VERTEX
  5
89C
  8
0
 62
     9
 10
0.0
 20
0.0
 30
0.0
 70
   128
 71
    59
 72
    56
 73
    57
  0
VERTEX
  5
89D
  8
0
 62
     9
 10
0.0
 20
0.0
 30
0.0
 70
   128
 71
    58
 72
    56
 73
    60
  0
VERTEX
  5
89E
  8
0
 62
     9
 10
0.0
 20
0.0
 30
0.0
 70
   128
 71
    51
 72
    52
 73
    53
  0
VERTEX
  5
89F
  8
0
 62
     9
 10
0.0
 20
0.0
 30
0.0
 70
   128
 71
    52
 72
    50
 73
    59
  0
VERTEX
  5
8A0
  8
0
 62
     9
 10
0.0
 20
0.0
 30
0.0
 70
   128
 71
    55
 72
    46
 73
    54
  0
VERTEX
  5
8A1
  8
0
 62
     9
 10
0.0
 20
0.0
 30
0.0
 70
   128
 71
    53
 72
    54
 73
    51
  0
VERTEX
  5
8A2
  8
0
 62
     9
 10
0.0
 20
0.0
 30
0.0
 70
   128
 71
    45
 72
    49
 73
    44
  0
VERTEX
  5
8A3
  8
0
 62
     9
 10
0.0
 20
0.0
 30
0.0
 70
   128
 71
    55
 72
    45
 73
    46
  0
VERTEX
  5
8A4
  8
0
 62
     9
 10
0.0
 20
0.0
 30
0.0
 70
   128
 71
    47
 72
    48
 73
    67
  0
VERTEX
  5
8A5
  8
0
 62
     9
 10
0.0
 20
0.0
 30
0.0
 70
   128
 71
    44
 72
    49
 73
    47
  0
VERTEX
  5
8A6
  8
0
 62
     9
 10
0.0
 20
0.0
 30
0.0
 70
   128
 71
    48
 72
    40
 73
    38
  0
VERTEX
  5
8A7
  8
0
 62
     9
 10
0.0
 20
0.0
 30
0.0
 70
   128
 71
    38
 72
    67
 73
    48
  0
VERTEX
  5
8A8
  8
0
 62
     9
 10
0.0
 20
0.0
 30
0.0
 70
   128
 71
    43
 72
    41
 73
    39
  0
VERTEX
  5
8A9
  8
0
 62
     9
 10
0.0
 20
0.0
 30
0.0
 70
   128
 71
    43
 72
    39
 73
    40
  0
VERTEX
  5
8AA
  8
0
 62
     9
 10
0.0
 20
0.0
 30
0.0
 70
   128
 71
    42
 72
    68
 73
    37
  0
VERTEX
  5
8AB
  8
0
 62
     9
 10
0.0
 20
0.0
 30
0.0
 70
   128
 71
    42
 72
    37
 73
    41
  0
VERTEX
  5
8AC
  8
0
 62
     9
 10
0.0
 20
0.0
 30
0.0
 70
   128
 71
    37
 72
    68
 73
    19
  0
SEQEND
  5
8AD
  8
0
 62
     9
  0
ENDBLK
  5
8B0
  8
0
  0
ENDSEC
  0
SECTION
  2
ENTITIES
  0
INSERT
  5
1E8
  8
LAYER_1
  2
38
 10
0.0
 20
0.0
 30
0.0
  0
INSERT
  5
295
  8
LAYER_1
  2
39
 10
0.0
 20
0.0
 30
0.0
  0
INSERT
  5
4A5
  8
LAYER_1
  2
40
 10
0.0
 20
0.0
 30
0.0
  0
INSERT
  5
779
  8
LAYER_1
  2
41
 10
0.0
 20
0.0
 30
0.0
  0
INSERT
  5
820
  8
LAYER_1
  2
42
 10
0.0
 20
0.0
 30
0.0
  0
INSERT
  5
8AE
  8
LAYER_1
  2
43
 10
0.0
 20
0.0
 30
0.0
  0
ENDSEC
  0
EOF
