  0
SECTION
  2
HEADER
  9
$ACADVER
  1
AC1015
  9
$ACADMAINTVER
 70
     6
  9
$DWGCODEPAGE
  3
ANSI_1252
  9
$INSBASE
 10
0.0
 20
0.0
 30
0.0
  9
$EXTMIN
 10
0.0
 20
0.0
 30
0.0
  9
$EXTMAX
 10
1682.0
 20
2378.0
 30
0.0
  9
$LIMMIN
 10
0.0
 20
0.0
  9
$LIMMAX
 10
1682.0
 20
2378.0
  9
$ORTHOMODE
 70
     0
  9
$REGENMODE
 70
     1
  9
$FILLMODE
 70
     1
  9
$QTEXTMODE
 70
     0
  9
$MIRRTEXT
 70
     1
  9
$LTSCALE
 40
1.0
  9
$ATTMODE
 70
     1
  9
$TEXTSIZE
 40
2.5
  9
$TRACEWID
 40
1.0
  9
$TEXTSTYLE
  7
Standard
  9
$CLAYER
  8
0
  9
$CELTYPE
  6
ByLayer
  9
$CECOLOR
 62
   256
  9
$CELTSCALE
 40
1.0
  9
$DISPSILH
 70
     0
  9
$DIMSCALE
 40
1.0
  9
$DIMASZ
 40
2.5
  9
$DIMEXO
 40
0.625
  9
$DIMDLI
 40
3.75
  9
$DIMRND
 40
0.0
  9
$DIMDLE
 40
0.0
  9
$DIMEXE
 40
1.25
  9
$DIMTP
 40
0.0
  9
$DIMTM
 40
0.0
  9
$DIMTXT
 40
2.5
  9
$DIMCEN
 40
2.5
  9
$DIMTSZ
 40
0.0
  9
$DIMTOL
 70
     0
  9
$DIMLIM
 70
     0
  9
$DIMTIH
 70
     0
  9
$DIMTOH
 70
     0
  9
$DIMSE1
 70
     0
  9
$DIMSE2
 70
     0
  9
$DIMTAD
 70
     1
  9
$DIMZIN
 70
     8
  9
$DIMBLK
  1

  9
$DIMASO
 70
     1
  9
$DIMSHO
 70
     1
  9
$DIMPOST
  1

  9
$DIMAPOST
  1

  9
$DIMALT
 70
     0
  9
$DIMALTD
 70
     3
  9
$DIMALTF
 40
0.0393700787
  9
$DIMLFAC
 40
1.0
  9
$DIMTOFL
 70
     1
  9
$DIMTVP
 40
0.0
  9
$DIMTIX
 70
     0
  9
$DIMSOXD
 70
     0
  9
$DIMSAH
 70
     0
  9
$DIMBLK1
  1

  9
$DIMBLK2
  1

  9
$DIMSTYLE
  2
ISO-25
  9
$DIMCLRD
 70
     0
  9
$DIMCLRE
 70
     0
  9
$DIMCLRT
 70
     0
  9
$DIMTFAC
 40
1.0
  9
$DIMGAP
 40
0.625
  9
$DIMJUST
 70
     0
  9
$DIMSD1
 70
     0
  9
$DIMSD2
 70
     0
  9
$DIMTOLJ
 70
     0
  9
$DIMTZIN
 70
     8
  9
$DIMALTZ
 70
     0
  9
$DIMALTTZ
 70
     0
  9
$DIMUPT
 70
     0
  9
$DIMDEC
 70
     2
  9
$DIMTDEC
 70
     2
  9
$DIMALTU
 70
     2
  9
$DIMALTTD
 70
     3
  9
$DIMTXSTY
  7
Standard
  9
$DIMAUNIT
 70
     0
  9
$DIMADEC
 70
     0
  9
$DIMALTRND
 40
0.0
  9
$DIMAZIN
 70
     0
  9
$DIMDSEP
 70
    44
  9
$DIMATFIT
 70
     3
  9
$DIMFRAC
 70
     0
  9
$DIMLDRBLK
  1

  9
$DIMLUNIT
 70
     2
  9
$DIMLWD
 70
    -2
  9
$DIMLWE
 70
    -2
  9
$DIMTMOVE
 70
     0
  9
$LUNITS
 70
     2
  9
$LUPREC
 70
     4
  9
$SKETCHINC
 40
1.0
  9
$FILLETRAD
 40
10.0
  9
$AUNITS
 70
     0
  9
$AUPREC
 70
     0
  9
$MENU
  1
.
  9
$ELEVATION
 40
0.0
  9
$PELEVATION
 40
0.0
  9
$THICKNESS
 40
0.0
  9
$LIMCHECK
 70
     0
  9
$CHAMFERA
 40
10.0
  9
$CHAMFERB
 40
10.0
  9
$CHAMFERC
 40
20.0
  9
$CHAMFERD
 40
0.0
  9
$SKPOLY
 70
     0
  9
$TDCREATE
 40
2455474.406863912
  9
$TDUCREATE
 40
2455474.323530579
  9
$TDUPDATE
 40
2455474.406863924
  9
$TDUUPDATE
 40
2455474.32353059
  9
$TDINDWG
 40
0.0000000116
  9
$TDUSRTIMER
 40
0.0000000116
  9
$USRTIMER
 70
     1
  9
$ANGBASE
 50
0.0
  9
$ANGDIR
 70
     0
  9
$PDMODE
 70
     0
  9
$PDSIZE
 40
0.0
  9
$PLINEWID
 40
0.0
  9
$SPLFRAME
 70
     0
  9
$SPLINETYPE
 70
     6
  9
$SPLINESEGS
 70
     8
  9
$HANDSEED
  5
1E6
  9
$SURFTAB1
 70
     6
  9
$SURFTAB2
 70
     6
  9
$SURFTYPE
 70
     6
  9
$SURFU
 70
     6
  9
$SURFV
 70
     6
  9
$UCSBASE
  2

  9
$UCSNAME
  2

  9
$UCSORG
 10
0.0
 20
0.0
 30
0.0
  9
$UCSXDIR
 10
1.0
 20
0.0
 30
0.0
  9
$UCSYDIR
 10
0.0
 20
1.0
 30
0.0
  9
$UCSORTHOREF
  2

  9
$UCSORTHOVIEW
 70
     0
  9
$UCSORGTOP
 10
0.0
 20
0.0
 30
0.0
  9
$UCSORGBOTTOM
 10
0.0
 20
0.0
 30
0.0
  9
$UCSORGLEFT
 10
0.0
 20
0.0
 30
0.0
  9
$UCSORGRIGHT
 10
0.0
 20
0.0
 30
0.0
  9
$UCSORGFRONT
 10
0.0
 20
0.0
 30
0.0
  9
$UCSORGBACK
 10
0.0
 20
0.0
 30
0.0
  9
$PUCSBASE
  2

  9
$PUCSNAME
  2

  9
$PUCSORG
 10
0.0
 20
0.0
 30
0.0
  9
$PUCSXDIR
 10
1.0
 20
0.0
 30
0.0
  9
$PUCSYDIR
 10
0.0
 20
1.0
 30
0.0
  9
$PUCSORTHOREF
  2

  9
$PUCSORTHOVIEW
 70
     0
  9
$PUCSORGTOP
 10
0.0
 20
0.0
 30
0.0
  9
$PUCSORGBOTTOM
 10
0.0
 20
0.0
 30
0.0
  9
$PUCSORGLEFT
 10
0.0
 20
0.0
 30
0.0
  9
$PUCSORGRIGHT
 10
0.0
 20
0.0
 30
0.0
  9
$PUCSORGFRONT
 10
0.0
 20
0.0
 30
0.0
  9
$PUCSORGBACK
 10
0.0
 20
0.0
 30
0.0
  9
$USERI1
 70
     0
  9
$USERI2
 70
     0
  9
$USERI3
 70
     0
  9
$USERI4
 70
     0
  9
$USERI5
 70
     0
  9
$USERR1
 40
0.0
  9
$USERR2
 40
0.0
  9
$USERR3
 40
0.0
  9
$USERR4
 40
0.0
  9
$USERR5
 40
0.0
  9
$WORLDVIEW
 70
     1
  9
$SHADEDGE
 70
     3
  9
$SHADEDIF
 70
    70
  9
$TILEMODE
 70
     1
  9
$MAXACTVP
 70
    64
  9
$PINSBASE
 10
0.0
 20
0.0
 30
0.0
  9
$PLIMCHECK
 70
     0
  9
$PEXTMIN
 10
0.0
 20
0.0
 30
0.0
  9
$PEXTMAX
 10
1682.0
 20
2378.0
 30
0.0
  9
$PLIMMIN
 10
0.0
 20
0.0
  9
$PLIMMAX
 10
1682.0
 20
2378.0
  9
$UNITMODE
 70
     0
  9
$VISRETAIN
 70
     1
  9
$PLINEGEN
 70
     0
  9
$PSLTSCALE
 70
     1
  9
$TREEDEPTH
 70
  3020
  9
$CMLSTYLE
  2
Standard
  9
$CMLJUST
 70
     0
  9
$CMLSCALE
 40
20.0
  9
$PROXYGRAPHICS
 70
     1
  9
$MEASUREMENT
 70
     1
  9
$CELWEIGHT
370
    -1
  9
$ENDCAPS
280
     0
  9
$JOINSTYLE
280
     0
  9
$LWDISPLAY
290
     0
  9
$INSUNITS
 70
     4
  9
$HYPERLINKBASE
  1

  9
$STYLESHEET
  1

  9
$XEDIT
290
     1
  9
$CEPSNTYPE
380
     0
  9
$PSTYLEMODE
290
     1
  9
$FINGERPRINTGUID
  2
{FEE294FF-2CBB-41CD-8B49-FD4512E86CFF}
  9
$VERSIONGUID
  2
{FAEB1C32-E019-11D5-929B-00C0DF256EC4}
  9
$EXTNAMES
290
     1
  9
$PSVPSCALE
 40
0.0
  9
$OLESTARTUP
290
     0
  0
ENDSEC
  0
SECTION
  2
CLASSES
  0
CLASS
  1
ACDBDICTIONARYWDFLT
  2
AcDbDictionaryWithDefault
  3
ObjectDBX Classes
 90
        0
280
     0
281
     0
  0
CLASS
  1
VISUALSTYLE
  2
AcDbVisualStyle
  3
ObjectDBX Classes
 90
     4095
280
     0
281
     0
  0
CLASS
  1
SCALE
  2
AcDbScale
  3
ObjectDBX Classes
 90
     1153
280
     0
281
     0
  0
CLASS
  1
DICTIONARYVAR
  2
AcDbDictionaryVar
  3
ObjectDBX Classes
 90
        0
280
     0
281
     0
  0
CLASS
  1
ACDBPLACEHOLDER
  2
AcDbPlaceHolder
  3
ObjectDBX Classes
 90
        0
280
     0
281
     0
  0
CLASS
  1
LAYOUT
  2
AcDbLayout
  3
ObjectDBX Classes
 90
        0
280
     0
281
     0
  0
ENDSEC
  0
SECTION
  2
TABLES
  0
TABLE
  2
VPORT
  5
8
330
0
100
AcDbSymbolTable
 70
     1
  0
VPORT
  5
29
330
8
100
AcDbSymbolTableRecord
100
AcDbViewportTableRecord
  2
*Active
 70
     0
 10
0.0
 20
0.0
 11
1.0
 21
1.0
 12
344.1869158879
 22
148.5
 13
0.0
 23
0.0
 14
10.0
 24
10.0
 15
10.0
 25
10.0
 16
0.0
 26
0.0
 36
1.0
 17
0.0
 27
0.0
 37
0.0
 40
297.0
 41
1.9729729729
 42
50.0
 43
0.0
 44
0.0
 50
0.0
 51
0.0
 71
     0
 72
   100
 73
     1
 74
     3
 75
     0
 76
     0
 77
     0
 78
     0
281
     0
 65
     1
110
0.0
120
0.0
130
0.0
111
1.0
121
0.0
131
0.0
112
0.0
122
1.0
132
0.0
 79
     0
146
0.0
  0
ENDTAB
  0
TABLE
  2
LTYPE
  5
5
330
0
100
AcDbSymbolTable
 70
     2
  0
LTYPE
  5
14
330
5
100
AcDbSymbolTableRecord
100
AcDbLinetypeTableRecord
  2
ByBlock
 70
     0
  3

 72
    65
 73
     0
 40
0.0
  0
LTYPE
  5
15
330
5
100
AcDbSymbolTableRecord
100
AcDbLinetypeTableRecord
  2
ByLayer
 70
     0
  3

 72
    65
 73
     0
 40
0.0
  0
LTYPE
  5
16
330
5
100
AcDbSymbolTableRecord
100
AcDbLinetypeTableRecord
  2
Continuous
 70
     0
  3
Solid line
 72
    65
 73
     0
 40
0.0
  0
LTYPE
  5
60
330
5
100
AcDbSymbolTableRecord
100
AcDbLinetypeTableRecord
  2
CENTER2
 70
     0
  3
Center (.5x) ___ _ ___ _ ___ _ ___ _ ___ _ ___
 72
    65
 73
     4
 40
28.575
 49
19.05
 74
     4
 75
     0
340
0
 46
0.0
 50
0.0
 44
0.0
 45
0.0
 49
-3.175
 74
     4
 75
     0
340
0
 46
0.0
 50
0.0
 44
0.0
 45
0.0
 49
3.175
 74
     4
 75
     0
340
0
 46
0.0
 50
0.0
 44
0.0
 45
0.0
 49
-3.175
 74
     4
 75
     0
340
0
 46
0.0
 50
0.0
 44
0.0
 45
0.0
  0
ENDTAB
  0
TABLE
  2
LAYER
  5
2
330
0
100
AcDbSymbolTable
 70
    11
  0
LAYER
  5
10
330
2
100
AcDbSymbolTableRecord
100
AcDbLayerTableRecord
  2
0
 70
     0
 62
     7
  6
Continuous
370
    -3
390
F
  0
LAYER
  5
5D
330
2
100
AcDbSymbolTableRecord
100
AcDbLayerTableRecord
  2
Default
 70
     0
 62
     7
  6
Continuous
370
    -3
390
F
  0
LAYER
  5
97
330
2
100
AcDbSymbolTableRecord
100
AcDbLayerTableRecord
  2
$DDT_AUDIT_GENERATED_(97)
 70
     0
 62
     7
  6
Continuous
370
    -3
390
F
  0
LAYER
  5
AB
330
2
100
AcDbSymbolTableRecord
100
AcDbLayerTableRecord
  2
$DDT_AUDIT_GENERATED_(AB)
 70
     0
 62
     7
  6
Continuous
370
    -3
390
F
  0
LAYER
  5
B0
330
2
100
AcDbSymbolTableRecord
100
AcDbLayerTableRecord
  2
$DDT_AUDIT_GENERATED_(B0)
 70
     0
 62
     7
  6
Continuous
370
    -3
390
F
  0
LAYER
  5
BF
330
2
100
AcDbSymbolTableRecord
100
AcDbLayerTableRecord
  2
$DDT_AUDIT_GENERATED_(BF)
 70
     0
 62
     7
  6
Continuous
370
    -3
390
F
  0
LAYER
  5
C2
330
2
100
AcDbSymbolTableRecord
100
AcDbLayerTableRecord
  2
$DDT_AUDIT_GENERATED_(C2)
 70
     0
 62
     7
  6
Continuous
370
    -3
390
F
  0
LAYER
  5
DA
330
2
100
AcDbSymbolTableRecord
100
AcDbLayerTableRecord
  2
$DDT_AUDIT_GENERATED_(DA)
 70
     0
 62
     7
  6
Continuous
370
    -3
390
F
  0
LAYER
  5
DE
330
2
100
AcDbSymbolTableRecord
100
AcDbLayerTableRecord
  2
$DDT_AUDIT_GENERATED_(DE)
 70
     0
 62
     7
  6
Continuous
370
    -3
390
F
  0
LAYER
  5
12F
330
2
100
AcDbSymbolTableRecord
100
AcDbLayerTableRecord
  2
$DDT_AUDIT_GENERATED_(12F)
 70
     0
 62
     7
  6
Continuous
370
    -3
390
F
  0
LAYER
  5
188
330
2
100
AcDbSymbolTableRecord
100
AcDbLayerTableRecord
  2
DV2_Default
 70
     0
 62
     7
  6
Continuous
370
    -3
390
F
  0
ENDTAB
  0
TABLE
  2
STYLE
  5
3
330
0
100
AcDbSymbolTable
 70
     2
  0
STYLE
  5
11
330
3
100
AcDbSymbolTableRecord
100
AcDbTextStyleTableRecord
  2
Standard
 70
     0
 40
0.0
 41
1.0
 50
0.0
 71
     0
 42
2.5
  3
txt
  4

  0
STYLE
  5
1D5
330
3
100
AcDbSymbolTableRecord
100
AcDbTextStyleTableRecord
  2
SEACAD_seiso_ttf
 70
     0
 40
0.0
 41
1.0
 50
0.0
 71
     0
 42
0.2
  3
seiso.ttf
  4

  0
ENDTAB
  0
TABLE
  2
VIEW
  5
6
330
0
100
AcDbSymbolTable
 70
     0
  0
ENDTAB
  0
TABLE
  2
UCS
  5
7
330
0
100
AcDbSymbolTable
 70
     0
  0
ENDTAB
  0
TABLE
  2
APPID
  5
9
330
0
100
AcDbSymbolTable
 70
     1
  0
APPID
  5
12
330
9
100
AcDbSymbolTableRecord
100
AcDbRegAppTableRecord
  2
ACAD
 70
     0
  0
ENDTAB
  0
TABLE
  2
DIMSTYLE
  5
A
330
0
100
AcDbSymbolTable
 70
     1
100
AcDbDimStyleTable
  0
DIMSTYLE
105
27
330
A
100
AcDbSymbolTableRecord
100
AcDbDimStyleTableRecord
  2
ISO-25
 70
     0
 41
2.5
 42
0.625
 43
3.75
 44
1.25
 73
     0
 74
     0
 77
     1
 78
     8
140
2.5
141
2.5
143
0.0393700787
147
0.625
171
     3
172
     1
271
     2
272
     2
274
     3
278
    44
283
     0
284
     8
340
11
  0
ENDTAB
  0
TABLE
  2
BLOCK_RECORD
  5
1
330
0
100
AcDbSymbolTable
 70
    11
  0
BLOCK_RECORD
  5
1F
330
1
100
AcDbSymbolTableRecord
100
AcDbBlockTableRecord
  2
*Model_Space
340
22
  0
BLOCK_RECORD
  5
1B
330
1
100
AcDbSymbolTableRecord
100
AcDbBlockTableRecord
  2
*Paper_Space
340
1E
  0
BLOCK_RECORD
  5
5E
330
1
100
AcDbSymbolTableRecord
100
AcDbBlockTableRecord
  2
SEANNOT_GROUP
340
0
102
{BLKREFS
331
5F
102
}
  0
BLOCK_RECORD
  5
69
330
1
100
AcDbSymbolTableRecord
100
AcDbBlockTableRecord
  2
SEANNOT_GROUP1
340
0
102
{BLKREFS
331
6A
102
}
  0
BLOCK_RECORD
  5
73
330
1
100
AcDbSymbolTableRecord
100
AcDbBlockTableRecord
  2
SEANNOT_GROUP2
340
0
102
{BLKREFS
331
74
102
}
  0
BLOCK_RECORD
  5
7D
330
1
100
AcDbSymbolTableRecord
100
AcDbBlockTableRecord
  2
SEANNOT_GROUP3
340
0
102
{BLKREFS
331
7E
102
}
  0
BLOCK_RECORD
  5
83
330
1
100
AcDbSymbolTableRecord
100
AcDbBlockTableRecord
  2
SEANNOT_GROUP4
340
0
102
{BLKREFS
331
84
102
}
  0
BLOCK_RECORD
  5
89
330
1
100
AcDbSymbolTableRecord
100
AcDbBlockTableRecord
  2
SEANNOT_GROUP5
340
0
102
{BLKREFS
331
8A
102
}
  0
BLOCK_RECORD
  5
8F
330
1
100
AcDbSymbolTableRecord
100
AcDbBlockTableRecord
  2
SEANNOT_GROUP6
340
0
102
{BLKREFS
331
90
102
}
  0
BLOCK_RECORD
  5
95
330
1
100
AcDbSymbolTableRecord
100
AcDbBlockTableRecord
  2
SE
340
0
102
{BLKREFS
331
96
102
}
  0
BLOCK_RECORD
  5
108
330
1
100
AcDbSymbolTableRecord
100
AcDbBlockTableRecord
  2
SE1
340
0
102
{BLKREFS
331
109
102
}
  0
BLOCK_RECORD
  5
18D
330
1
100
AcDbSymbolTableRecord
100
AcDbBlockTableRecord
  2
SE2
340
0
102
{BLKREFS
331
18E
102
}
  0
ENDTAB
  0
ENDSEC
  0
SECTION
  2
BLOCKS
  0
BLOCK
  5
20
330
1F
100
AcDbEntity
  8
0
100
AcDbBlockBegin
  2
*Model_Space
 70
     0
 10
0.0
 20
0.0
 30
0.0
  3
*Model_Space
  1

  0
ENDBLK
  5
21
330
1F
100
AcDbEntity
  8
0
100
AcDbBlockEnd
  0
BLOCK
  5
1C
330
1B
100
AcDbEntity
 67
     1
  8
0
100
AcDbBlockBegin
  2
*Paper_Space
 70
     0
 10
0.0
 20
0.0
 30
0.0
  3
*Paper_Space
  1

  0
ENDBLK
  5
1D
330
1B
100
AcDbEntity
 67
     1
  8
0
100
AcDbBlockEnd
  0
BLOCK
  5
67
330
5E
100
AcDbEntity
  8
0
100
AcDbBlockBegin
  2
SEANNOT_GROUP
 70
     0
 10
0.0
 20
0.0
 30
0.0
  3
SEANNOT_GROUP
  1

  0
LINE
  5
61
330
5E
100
AcDbEntity
  8
Default
  6
CENTER2
 62
     7
100
AcDbLine
 10
139.3776261912
 20
597.3789557889
 30
0.0
 11
99.3776270853
 21
597.3789557889
 31
0.0
  0
LINE
  5
62
330
5E
100
AcDbEntity
  8
Default
  6
CENTER2
 62
     7
100
AcDbLine
 10
119.3776266382
 20
617.3789553419
 30
0.0
 11
119.3776266382
 21
577.378956236
 31
0.0
  0
LINE
  5
63
330
5E
100
AcDbEntity
  8
Default
  6
CENTER2
 62
     7
100
AcDbLine
 10
144.3776260794
 20
597.3789557889
 30
0.0
 11
149.1276266382
 21
597.3789557889
 31
0.0
  0
LINE
  5
64
330
5E
100
AcDbEntity
  8
Default
  6
CENTER2
 62
     7
100
AcDbLine
 10
119.3776266382
 20
622.3789552301
 30
0.0
 11
119.3776266382
 21
627.1289557889
 31
0.0
  0
LINE
  5
65
330
5E
100
AcDbEntity
  8
Default
  6
CENTER2
 62
     7
100
AcDbLine
 10
94.377627197
 20
597.3789557889
 30
0.0
 11
89.6276266382
 21
597.3789557889
 31
0.0
  0
LINE
  5
66
330
5E
100
AcDbEntity
  8
Default
  6
CENTER2
 62
     7
100
AcDbLine
 10
119.3776266382
 20
572.3789563477
 30
0.0
 11
119.3776266382
 21
567.6289557889
 31
0.0
  0
ENDBLK
  5
68
330
5E
100
AcDbEntity
  8
0
100
AcDbBlockEnd
  0
BLOCK
  5
71
330
69
100
AcDbEntity
  8
0
100
AcDbBlockBegin
  2
SEANNOT_GROUP1
 70
     0
 10
0.0
 20
0.0
 30
0.0
  3
SEANNOT_GROUP1
  1

  0
LINE
  5
6B
330
69
100
AcDbEntity
  8
Default
  6
CENTER2
 62
     7
100
AcDbLine
 10
239.3776261912
 20
597.3789557889
 30
0.0
 11
199.3776270853
 21
597.3789557889
 31
0.0
  0
LINE
  5
6C
330
69
100
AcDbEntity
  8
Default
  6
CENTER2
 62
     7
100
AcDbLine
 10
219.3776266382
 20
617.3789553419
 30
0.0
 11
219.3776266382
 21
577.378956236
 31
0.0
  0
LINE
  5
6D
330
69
100
AcDbEntity
  8
Default
  6
CENTER2
 62
     7
100
AcDbLine
 10
244.3776260794
 20
597.3789557889
 30
0.0
 11
249.0776266382
 21
597.3789557889
 31
0.0
  0
LINE
  5
6E
330
69
100
AcDbEntity
  8
Default
  6
CENTER2
 62
     7
100
AcDbLine
 10
219.3776266382
 20
622.3789552301
 30
0.0
 11
219.3776266382
 21
627.0789557889
 31
0.0
  0
LINE
  5
6F
330
69
100
AcDbEntity
  8
Default
  6
CENTER2
 62
     7
100
AcDbLine
 10
194.377627197
 20
597.3789557889
 30
0.0
 11
189.6776266382
 21
597.3789557889
 31
0.0
  0
LINE
  5
70
330
69
100
AcDbEntity
  8
Default
  6
CENTER2
 62
     7
100
AcDbLine
 10
219.3776266382
 20
572.3789563477
 30
0.0
 11
219.3776266382
 21
567.6789557889
 31
0.0
  0
ENDBLK
  5
72
330
69
100
AcDbEntity
  8
0
100
AcDbBlockEnd
  0
BLOCK
  5
7B
330
73
100
AcDbEntity
  8
0
100
AcDbBlockBegin
  2
SEANNOT_GROUP2
 70
     0
 10
0.0
 20
0.0
 30
0.0
  3
SEANNOT_GROUP2
  1

  0
LINE
  5
75
330
73
100
AcDbEntity
  8
Default
  6
CENTER2
 62
     7
100
AcDbLine
 10
339.3776261912
 20
597.3789557889
 30
0.0
 11
299.3776270853
 21
597.3789557889
 31
0.0
  0
LINE
  5
76
330
73
100
AcDbEntity
  8
Default
  6
CENTER2
 62
     7
100
AcDbLine
 10
319.3776266382
 20
617.3789553419
 30
0.0
 11
319.3776266382
 21
577.378956236
 31
0.0
  0
LINE
  5
77
330
73
100
AcDbEntity
  8
Default
  6
CENTER2
 62
     7
100
AcDbLine
 10
344.3776260794
 20
597.3789557889
 30
0.0
 11
349.1276266382
 21
597.3789557889
 31
0.0
  0
LINE
  5
78
330
73
100
AcDbEntity
  8
Default
  6
CENTER2
 62
     7
100
AcDbLine
 10
319.3776266382
 20
622.3789552301
 30
0.0
 11
319.3776266382
 21
627.1289557889
 31
0.0
  0
LINE
  5
79
330
73
100
AcDbEntity
  8
Default
  6
CENTER2
 62
     7
100
AcDbLine
 10
294.377627197
 20
597.3789557889
 30
0.0
 11
289.6276266382
 21
597.3789557889
 31
0.0
  0
LINE
  5
7A
330
73
100
AcDbEntity
  8
Default
  6
CENTER2
 62
     7
100
AcDbLine
 10
319.3776266382
 20
572.3789563477
 30
0.0
 11
319.3776266382
 21
567.6289557889
 31
0.0
  0
ENDBLK
  5
7C
330
73
100
AcDbEntity
  8
0
100
AcDbBlockEnd
  0
BLOCK
  5
81
330
7D
100
AcDbEntity
  8
0
100
AcDbBlockBegin
  2
SEANNOT_GROUP3
 70
     0
 10
0.0
 20
0.0
 30
0.0
  3
SEANNOT_GROUP3
  1

  0
LINE
  5
7F
330
7D
100
AcDbEntity
  8
Default
  6
CENTER2
 62
     7
100
AcDbLine
 10
656.0646181837
 20
597.3789557889
 30
0.0
 11
616.0646190778
 21
597.3789557889
 31
0.0
  0
LINE
  5
80
330
7D
100
AcDbEntity
  8
Default
  6
CENTER2
 62
     7
100
AcDbLine
 10
636.0646186308
 20
617.3789553419
 30
0.0
 11
636.0646186308
 21
577.378956236
 31
0.0
  0
ENDBLK
  5
82
330
7D
100
AcDbEntity
  8
0
100
AcDbBlockEnd
  0
BLOCK
  5
87
330
83
100
AcDbEntity
  8
0
100
AcDbBlockBegin
  2
SEANNOT_GROUP4
 70
     0
 10
0.0
 20
0.0
 30
0.0
  3
SEANNOT_GROUP4
  1

  0
LINE
  5
85
330
83
100
AcDbEntity
  8
Default
  6
CENTER2
 62
     7
100
AcDbLine
 10
139.3776261912
 20
286.4164131083
 30
0.0
 11
99.3776270853
 21
286.4164131083
 31
0.0
  0
LINE
  5
86
330
83
100
AcDbEntity
  8
Default
  6
CENTER2
 62
     7
100
AcDbLine
 10
119.3776266382
 20
306.4164126613
 30
0.0
 11
119.3776266382
 21
266.4164135554
 31
0.0
  0
ENDBLK
  5
88
330
83
100
AcDbEntity
  8
0
100
AcDbBlockEnd
  0
BLOCK
  5
8D
330
89
100
AcDbEntity
  8
0
100
AcDbBlockBegin
  2
SEANNOT_GROUP5
 70
     0
 10
0.0
 20
0.0
 30
0.0
  3
SEANNOT_GROUP5
  1

  0
LINE
  5
8B
330
89
100
AcDbEntity
  8
Default
  6
CENTER2
 62
     7
100
AcDbLine
 10
339.3776261912
 20
286.4164131083
 30
0.0
 11
299.3776270853
 21
286.4164131083
 31
0.0
  0
LINE
  5
8C
330
89
100
AcDbEntity
  8
Default
  6
CENTER2
 62
     7
100
AcDbLine
 10
319.3776266382
 20
306.4164126613
 30
0.0
 11
319.3776266382
 21
266.4164135554
 31
0.0
  0
ENDBLK
  5
8E
330
89
100
AcDbEntity
  8
0
100
AcDbBlockEnd
  0
BLOCK
  5
93
330
8F
100
AcDbEntity
  8
0
100
AcDbBlockBegin
  2
SEANNOT_GROUP6
 70
     0
 10
0.0
 20
0.0
 30
0.0
  3
SEANNOT_GROUP6
  1

  0
LINE
  5
91
330
8F
100
AcDbEntity
  8
Default
  6
CENTER2
 62
     7
100
AcDbLine
 10
239.3776261912
 20
286.4164131083
 30
0.0
 11
199.3776270853
 21
286.4164131083
 31
0.0
  0
LINE
  5
92
330
8F
100
AcDbEntity
  8
Default
  6
CENTER2
 62
     7
100
AcDbLine
 10
219.3776266382
 20
306.4164126613
 30
0.0
 11
219.3776266382
 21
266.4164135554
 31
0.0
  0
ENDBLK
  5
94
330
8F
100
AcDbEntity
  8
0
100
AcDbBlockEnd
  0
BLOCK
  5
106
330
95
100
AcDbEntity
  8
0
100
AcDbBlockBegin
  2
SE
 70
     0
 10
0.0
 20
0.0
 30
0.0
  3
SE
  1

  0
LINE
  5
98
330
95
100
AcDbEntity
  8
$DDT_AUDIT_GENERATED_(97)
  6
Continuous
 62
     7
100
AcDbLine
 10
354.3776266382
 20
630.7791994767
 30
0.0
 11
354.3776266382
 21
563.9787121012
 31
0.0
  0
ELLIPSE
  5
99
330
95
100
AcDbEntity
  8
$DDT_AUDIT_GENERATED_(97)
  6
Continuous
 62
     7
100
AcDbEllipse
 10
352.7773829133
 20
630.7787120641
 30
0.0
 11
-1.13171550267133
 21
-1.131715502671329
 31
0.0
210
0.0
220
0.0
230
1.0
 40
0.9996954599
 41
2.35634678343994
 42
3.926838523739719
  0
LINE
  5
9A
330
95
100
AcDbEntity
  8
$DDT_AUDIT_GENERATED_(97)
  6
Continuous
 62
     7
100
AcDbLine
 10
84.3776266382
 20
563.9787121012
 30
0.0
 11
84.3776266382
 21
630.7791994767
 31
0.0
  0
ELLIPSE
  5
9B
330
95
100
AcDbEntity
  8
$DDT_AUDIT_GENERATED_(97)
  6
Continuous
 62
     7
100
AcDbEllipse
 10
85.9778703631
 20
563.9791995138
 30
0.0
 11
1.13171550267133
 21
1.131715502671329
 31
0.0
210
0.0
220
0.0
230
1.0
 40
0.9996954599
 41
2.356346783439931
 42
3.926838523739728
  0
LINE
  5
9C
330
95
100
AcDbEntity
  8
$DDT_AUDIT_GENERATED_(97)
  6
Continuous
 62
     7
100
AcDbLine
 10
85.9773829505
 20
632.3789557889
 30
0.0
 11
352.777870326
 21
632.3789557889
 31
0.0
  0
ELLIPSE
  5
9D
330
95
100
AcDbEntity
  8
$DDT_AUDIT_GENERATED_(97)
  6
Continuous
 62
     7
100
AcDbEllipse
 10
85.9778703631
 20
630.7787120641
 30
0.0
 11
1.131715502671329
 21
-1.13171550267133
 31
0.0
210
0.0
220
0.0
230
1.0
 40
0.9996954599
 41
2.356346783439958
 42
3.926838523739737
  0
LINE
  5
9E
330
95
100
AcDbEntity
  8
$DDT_AUDIT_GENERATED_(97)
  6
Continuous
 62
     7
100
AcDbLine
 10
352.777870326
 20
562.3789557889
 30
0.0
 11
233.8776266382
 21
562.3789557889
 31
0.0
  0
LINE
  5
9F
330
95
100
AcDbEntity
  8
$DDT_AUDIT_GENERATED_(97)
  6
Continuous
 62
     7
100
AcDbLine
 10
204.8776266382
 20
562.3789557889
 30
0.0
 11
85.9773829505
 21
562.3789557889
 31
0.0
  0
ELLIPSE
  5
A0
330
95
100
AcDbEntity
  8
$DDT_AUDIT_GENERATED_(97)
  6
Continuous
 62
     7
100
AcDbEllipse
 10
352.7773829133
 20
563.9791995138
 30
0.0
 11
-1.131715502671329
 21
1.13171550267133
 31
0.0
210
0.0
220
0.0
230
1.0
 40
0.9996954599
 41
2.35634678343994
 42
3.926838523739648
  0
ARC
  5
A1
330
95
100
AcDbEntity
  8
$DDT_AUDIT_GENERATED_(97)
  6
Continuous
 62
     7
100
AcDbCircle
 10
219.3776266382
 20
597.3789557889
 30
0.0
 40
26.25
100
AcDbArc
 50
303.5305100811
 51
0.0
  0
ARC
  5
A2
330
95
100
AcDbEntity
  8
$DDT_AUDIT_GENERATED_(97)
  6
Continuous
 62
     7
100
AcDbCircle
 10
219.3776266382
 20
597.3789557889
 30
0.0
 40
26.25
100
AcDbArc
 50
0.0
 51
236.4694899189
  0
ARC
  5
A3
330
95
100
AcDbEntity
  8
$DDT_AUDIT_GENERATED_(97)
  6
Continuous
 62
     7
100
AcDbCircle
 10
119.3776266382
 20
597.3789557889
 30
0.0
 40
26.25
100
AcDbArc
 50
286.601549599
 51
0.0
  0
ARC
  5
A4
330
95
100
AcDbEntity
  8
$DDT_AUDIT_GENERATED_(97)
  6
Continuous
 62
     7
100
AcDbCircle
 10
119.3776266382
 20
597.3789557889
 30
0.0
 40
26.25
100
AcDbArc
 50
166.601549599
 51
253.398450401
  0
ARC
  5
A5
330
95
100
AcDbEntity
  8
$DDT_AUDIT_GENERATED_(97)
  6
Continuous
 62
     7
100
AcDbCircle
 10
119.3776266382
 20
597.3789557889
 30
0.0
 40
26.25
100
AcDbArc
 50
46.601549599
 51
133.398450401
  0
ARC
  5
A6
330
95
100
AcDbEntity
  8
$DDT_AUDIT_GENERATED_(97)
  6
Continuous
 62
     7
100
AcDbCircle
 10
119.3776266382
 20
597.3789557889
 30
0.0
 40
26.25
100
AcDbArc
 50
0.0
 51
13.398450401
  0
ARC
  5
A7
330
95
100
AcDbEntity
  8
$DDT_AUDIT_GENERATED_(97)
  6
Continuous
 62
     7
100
AcDbCircle
 10
319.3776266382
 20
597.3789557889
 30
0.0
 40
26.25
100
AcDbArc
 50
286.601549599
 51
0.0
  0
ARC
  5
A8
330
95
100
AcDbEntity
  8
$DDT_AUDIT_GENERATED_(97)
  6
Continuous
 62
     7
100
AcDbCircle
 10
319.3776266382
 20
597.3789557889
 30
0.0
 40
26.25
100
AcDbArc
 50
166.601549599
 51
253.398450401
  0
ARC
  5
A9
330
95
100
AcDbEntity
  8
$DDT_AUDIT_GENERATED_(97)
  6
Continuous
 62
     7
100
AcDbCircle
 10
319.3776266382
 20
597.3789557889
 30
0.0
 40
26.25
100
AcDbArc
 50
46.601549599
 51
133.398450401
  0
ARC
  5
AA
330
95
100
AcDbEntity
  8
$DDT_AUDIT_GENERATED_(97)
  6
Continuous
 62
     7
100
AcDbCircle
 10
319.3776266382
 20
597.3789557889
 30
0.0
 40
26.25
100
AcDbArc
 50
0.0
 51
13.398450401
  0
ARC
  5
AC
330
95
100
AcDbEntity
  8
$DDT_AUDIT_GENERATED_(AB)
  6
Continuous
 62
     7
100
AcDbCircle
 10
119.3776266382
 20
597.3789557889
 30
0.0
 40
26.2
100
AcDbArc
 50
286.6341521774
 51
0.0
  0
ARC
  5
AD
330
95
100
AcDbEntity
  8
$DDT_AUDIT_GENERATED_(AB)
  6
Continuous
 62
     7
100
AcDbCircle
 10
119.3776266382
 20
597.3789557889
 30
0.0
 40
26.2
100
AcDbArc
 50
166.6341521774
 51
253.3658478226
  0
ARC
  5
AE
330
95
100
AcDbEntity
  8
$DDT_AUDIT_GENERATED_(AB)
  6
Continuous
 62
     7
100
AcDbCircle
 10
119.3776266382
 20
597.3789557889
 30
0.0
 40
26.2
100
AcDbArc
 50
46.6341521774
 51
133.3658478226
  0
ARC
  5
AF
330
95
100
AcDbEntity
  8
$DDT_AUDIT_GENERATED_(AB)
  6
Continuous
 62
     7
100
AcDbCircle
 10
119.3776266382
 20
597.3789557889
 30
0.0
 40
26.2
100
AcDbArc
 50
0.0
 51
13.3658478226
  0
ARC
  5
B1
330
95
100
AcDbEntity
  8
$DDT_AUDIT_GENERATED_(B0)
  6
Continuous
 62
     7
100
AcDbCircle
 10
319.3776266382
 20
597.3789557889
 30
0.0
 40
15.0
100
AcDbArc
 50
300.0
 51
0.0
  0
ARC
  5
B2
330
95
100
AcDbEntity
  8
$DDT_AUDIT_GENERATED_(B0)
  6
Continuous
 62
     7
100
AcDbCircle
 10
319.3776266382
 20
597.3789557889
 30
0.0
 40
15.0
100
AcDbArc
 50
180.0
 51
240.0
  0
ARC
  5
B3
330
95
100
AcDbEntity
  8
$DDT_AUDIT_GENERATED_(B0)
  6
Continuous
 62
     7
100
AcDbCircle
 10
319.3776266382
 20
597.3789557889
 30
0.0
 40
15.0
100
AcDbArc
 50
60.0
 51
120.0
  0
ARC
  5
B4
330
95
100
AcDbEntity
  8
$DDT_AUDIT_GENERATED_(B0)
  6
Continuous
 62
     7
100
AcDbCircle
 10
319.3776266382
 20
597.3789557889
 30
0.0
 40
18.0
100
AcDbArc
 50
294.6243183522
 51
0.0
  0
ARC
  5
B5
330
95
100
AcDbEntity
  8
$DDT_AUDIT_GENERATED_(B0)
  6
Continuous
 62
     7
100
AcDbCircle
 10
319.3776266382
 20
597.3789557889
 30
0.0
 40
18.0
100
AcDbArc
 50
174.6243183522
 51
245.3756816478
  0
ARC
  5
B6
330
95
100
AcDbEntity
  8
$DDT_AUDIT_GENERATED_(B0)
  6
Continuous
 62
     7
100
AcDbCircle
 10
319.3776266382
 20
597.3789557889
 30
0.0
 40
18.0
100
AcDbArc
 50
54.6243183522
 51
125.3756816478
  0
ARC
  5
B7
330
95
100
AcDbEntity
  8
$DDT_AUDIT_GENERATED_(B0)
  6
Continuous
 62
     7
100
AcDbCircle
 10
319.3776266382
 20
597.3789557889
 30
0.0
 40
18.0
100
AcDbArc
 50
0.0
 51
5.3756816478
  0
ARC
  5
B8
330
95
100
AcDbEntity
  8
$DDT_AUDIT_GENERATED_(B0)
  6
Continuous
 62
     7
100
AcDbCircle
 10
119.3776266382
 20
597.3789557889
 30
0.0
 40
15.0
100
AcDbArc
 50
300.0
 51
0.0
  0
ARC
  5
B9
330
95
100
AcDbEntity
  8
$DDT_AUDIT_GENERATED_(B0)
  6
Continuous
 62
     7
100
AcDbCircle
 10
119.3776266382
 20
597.3789557889
 30
0.0
 40
15.0
100
AcDbArc
 50
180.0
 51
240.0
  0
ARC
  5
BA
330
95
100
AcDbEntity
  8
$DDT_AUDIT_GENERATED_(B0)
  6
Continuous
 62
     7
100
AcDbCircle
 10
119.3776266382
 20
597.3789557889
 30
0.0
 40
15.0
100
AcDbArc
 50
60.0
 51
120.0
  0
ARC
  5
BB
330
95
100
AcDbEntity
  8
$DDT_AUDIT_GENERATED_(B0)
  6
Continuous
 62
     7
100
AcDbCircle
 10
119.3776266382
 20
597.3789557889
 30
0.0
 40
18.0
100
AcDbArc
 50
294.6243183522
 51
0.0
  0
ARC
  5
BC
330
95
100
AcDbEntity
  8
$DDT_AUDIT_GENERATED_(B0)
  6
Continuous
 62
     7
100
AcDbCircle
 10
119.3776266382
 20
597.3789557889
 30
0.0
 40
18.0
100
AcDbArc
 50
174.6243183522
 51
245.3756816478
  0
ARC
  5
BD
330
95
100
AcDbEntity
  8
$DDT_AUDIT_GENERATED_(B0)
  6
Continuous
 62
     7
100
AcDbCircle
 10
119.3776266382
 20
597.3789557889
 30
0.0
 40
18.0
100
AcDbArc
 50
54.6243183522
 51
125.3756816478
  0
ARC
  5
BE
330
95
100
AcDbEntity
  8
$DDT_AUDIT_GENERATED_(B0)
  6
Continuous
 62
     7
100
AcDbCircle
 10
119.3776266382
 20
597.3789557889
 30
0.0
 40
18.0
100
AcDbArc
 50
0.0
 51
5.3756816478
  0
ARC
  5
C0
330
95
100
AcDbEntity
  8
$DDT_AUDIT_GENERATED_(BF)
  6
Continuous
 62
     7
100
AcDbCircle
 10
219.3776266382
 20
597.3789557889
 30
0.0
 40
26.2
100
AcDbArc
 50
303.6029968607
 51
0.0
  0
ARC
  5
C1
330
95
100
AcDbEntity
  8
$DDT_AUDIT_GENERATED_(BF)
  6
Continuous
 62
     7
100
AcDbCircle
 10
219.3776266382
 20
597.3789557889
 30
0.0
 40
26.2
100
AcDbArc
 50
0.0
 51
236.3970031393
  0
LINE
  5
C3
330
95
100
AcDbEntity
  8
$DDT_AUDIT_GENERATED_(C2)
  6
Continuous
 62
     7
100
AcDbLine
 10
204.8776266382
 20
562.275678513
 30
0.0
 11
204.8776266382
 21
563.3999875945
 31
0.0
  0
LINE
  5
C4
330
95
100
AcDbEntity
  8
$DDT_AUDIT_GENERATED_(C2)
  6
Continuous
 62
     7
100
AcDbLine
 10
204.8776266382
 20
563.3999875945
 30
0.0
 11
204.8776266382
 21
568.6908740133
 31
0.0
  0
LINE
  5
C5
330
95
100
AcDbEntity
  8
$DDT_AUDIT_GENERATED_(C2)
  6
Continuous
 62
     7
100
AcDbLine
 10
204.8776266382
 20
568.6908740133
 30
0.0
 11
204.8776266382
 21
603.3789557889
 31
0.0
  0
LINE
  5
C6
330
95
100
AcDbEntity
  8
$DDT_AUDIT_GENERATED_(C2)
  6
Continuous
 62
     7
100
AcDbLine
 10
205.3776266382
 20
603.8789557889
 30
0.0
 11
233.3776266382
 21
603.8789557889
 31
0.0
  0
LINE
  5
C7
330
95
100
AcDbEntity
  8
$DDT_AUDIT_GENERATED_(C2)
  6
Continuous
 62
     7
100
AcDbLine
 10
233.8776266382
 20
603.3789557889
 30
0.0
 11
233.8776266382
 21
568.6908740133
 31
0.0
  0
LINE
  5
C8
330
95
100
AcDbEntity
  8
$DDT_AUDIT_GENERATED_(C2)
  6
Continuous
 62
     7
100
AcDbLine
 10
233.8776266382
 20
568.6908740133
 30
0.0
 11
233.8776266382
 21
563.3999875945
 31
0.0
  0
LINE
  5
C9
330
95
100
AcDbEntity
  8
$DDT_AUDIT_GENERATED_(C2)
  6
Continuous
 62
     7
100
AcDbLine
 10
233.8776266382
 20
563.3999875945
 30
0.0
 11
233.8776266382
 21
562.275678513
 31
0.0
  0
ARC
  5
CA
330
95
100
AcDbEntity
  8
$DDT_AUDIT_GENERATED_(C2)
  6
Continuous
 62
     7
100
AcDbCircle
 10
205.3776266382
 20
603.3789557889
 30
0.0
 40
0.5000000000000004
100
AcDbArc
 50
90.0
 51
180.0
  0
ARC
  5
CB
330
95
100
AcDbEntity
  8
$DDT_AUDIT_GENERATED_(C2)
  6
Continuous
 62
     7
100
AcDbCircle
 10
233.3776266382
 20
603.3789557889
 30
0.0
 40
0.5000000000000004
100
AcDbArc
 50
0.0
 51
90.0
  0
ELLIPSE
  5
CC
330
95
100
AcDbEntity
  8
$DDT_AUDIT_GENERATED_(C2)
  6
Continuous
 62
     7
100
AcDbEllipse
 10
210.1276266382
 20
562.4835426802
 30
0.0
 11
-3.599999999999999
 21
6.938893903907228E-15
 31
0.0
210
0.0
220
0.0
230
1.0
 40
0.0871557427
 41
4.71238898038469
 42
5.643419299994004
  0
ELLIPSE
  5
CD
330
95
100
AcDbEntity
  8
$DDT_AUDIT_GENERATED_(C2)
  6
Continuous
 62
     7
100
AcDbEllipse
 10
228.6276266382
 20
562.4835426802
 30
0.0
 11
-3.600000000000026
 21
0.0
 31
0.0
210
0.0
220
0.0
230
1.0
 40
0.0871557427
 41
3.758800072677445
 42
4.71238898038469
  0
LINE
  5
CE
330
95
100
AcDbEntity
  8
$DDT_AUDIT_GENERATED_(C2)
  6
Continuous
 62
     7
100
AcDbLine
 10
210.1276266382
 20
562.795020173
 30
0.0
 11
210.1276266382
 21
562.7973033541
 31
0.0
  0
LINE
  5
CF
330
95
100
AcDbEntity
  8
$DDT_AUDIT_GENERATED_(C2)
  6
Continuous
 62
     7
100
AcDbLine
 10
228.6276266382
 20
562.7973033541
 30
0.0
 11
228.6276266382
 21
562.795020173
 31
0.0
  0
ARC
  5
D0
330
95
100
AcDbEntity
  8
$DDT_AUDIT_GENERATED_(C2)
  6
Continuous
 62
     7
100
AcDbCircle
 10
233.3776266382
 20
562.275678513
 30
0.0
 40
0.5000000000000004
100
AcDbArc
 50
270.0
 51
0.0
  0
LINE
  5
D1
330
95
100
AcDbEntity
  8
$DDT_AUDIT_GENERATED_(C2)
  6
Continuous
 62
     7
100
AcDbLine
 10
205.3776266382
 20
561.775678513
 30
0.0
 11
233.3776266382
 21
561.775678513
 31
0.0
  0
ARC
  5
D2
330
95
100
AcDbEntity
  8
$DDT_AUDIT_GENERATED_(C2)
  6
Continuous
 62
     7
100
AcDbCircle
 10
205.3776266382
 20
562.275678513
 30
0.0
 40
0.5000000000000004
100
AcDbArc
 50
180.0
 51
270.0
  0
SPLINE
  5
D3
330
95
100
AcDbEntity
  8
$DDT_AUDIT_GENERATED_(C2)
  6
Continuous
 62
     7
100
AcDbSpline
210
0.0
220
0.0
230
1.0
 70
     8
 71
     3
 72
    12
 73
     8
 74
     0
 42
0.0000000115970689
 43
0.0000000001
 40
0.4326432807607831
 40
0.4326432807607831
 40
0.4326432807607831
 40
0.4326432807607831
 40
0.5117217445274167
 40
0.621789591725815
 40
0.7530311932030794
 40
0.9018189136953849
 40
1.0
 40
1.0
 40
1.0
 40
1.0
 10
206.8317274109176
 20
562.5904777187723
 30
0.0
 10
206.8316998642663
 20
562.5904558957052
 30
0.0
 10
206.843464121162
 20
562.5946862560583
 30
0.0
 10
206.8988874800647
 20
562.609284709952
 30
0.0
 10
207.0074476692472
 20
562.6308146748543
 30
0.0
 10
207.1503466836638
 20
562.6534635460082
 30
0.0
 10
207.2609506203135
 20
562.6663126396843
 30
0.0
 10
207.3132728320809
 20
562.6723426105543
 30
0.0
  0
SPLINE
  5
D4
330
95
100
AcDbEntity
  8
$DDT_AUDIT_GENERATED_(C2)
  6
Continuous
 62
     7
100
AcDbSpline
210
0.0
220
0.0
230
1.0
 70
     8
 71
     3
 72
    12
 73
     8
 74
     0
 42
0.0000000125232682
 43
0.0000000001
 40
0.0
 40
0.0
 40
0.0
 40
0.0
 40
0.1555190363957161
 40
0.3049029910950704
 40
0.4365505701431375
 40
0.5443786390776295
 40
0.5531570493167828
 40
0.5531570493167828
 40
0.5531570493167828
 40
0.5531570493167828
 10
231.4891490764206
 20
562.6671098035168
 30
0.0
 10
231.5629961454331
 20
562.6576175286358
 30
0.0
 10
231.6832014705084
 20
562.6420218006372
 30
0.0
 10
231.8203354817026
 20
562.6171769369129
 30
0.0
 10
231.900620177716
 20
562.5982105264968
 30
0.0
 10
231.9227657407099
 20
562.5907905093227
 30
0.0
 10
231.9235197195381
 20
562.5904773698974
 30
0.0
 10
231.9235196632804
 20
562.5904744130759
 30
0.0
  0
LINE
  5
D5
330
95
100
AcDbEntity
  8
$DDT_AUDIT_GENERATED_(C2)
  6
Continuous
 62
     7
100
AcDbLine
 10
210.1276266382
 20
562.795020173
 30
0.0
 11
228.6276266382
 21
562.795020173
 31
0.0
  0
ARC
  5
D6
330
95
100
AcDbEntity
  8
$DDT_AUDIT_GENERATED_(AB)
  6
Continuous
 62
     7
100
AcDbCircle
 10
319.3776266382
 20
597.3789557889
 30
0.0
 40
26.2
100
AcDbArc
 50
286.6341521774
 51
0.0
  0
ARC
  5
D7
330
95
100
AcDbEntity
  8
$DDT_AUDIT_GENERATED_(AB)
  6
Continuous
 62
     7
100
AcDbCircle
 10
319.3776266382
 20
597.3789557889
 30
0.0
 40
26.2
100
AcDbArc
 50
166.6341521774
 51
253.3658478226
  0
ARC
  5
D8
330
95
100
AcDbEntity
  8
$DDT_AUDIT_GENERATED_(AB)
  6
Continuous
 62
     7
100
AcDbCircle
 10
319.3776266382
 20
597.3789557889
 30
0.0
 40
26.2
100
AcDbArc
 50
46.6341521774
 51
133.3658478226
  0
ARC
  5
D9
330
95
100
AcDbEntity
  8
$DDT_AUDIT_GENERATED_(AB)
  6
Continuous
 62
     7
100
AcDbCircle
 10
319.3776266382
 20
597.3789557889
 30
0.0
 40
26.2
100
AcDbArc
 50
0.0
 51
13.3658478226
  0
ARC
  5
DB
330
95
100
AcDbEntity
  8
$DDT_AUDIT_GENERATED_(DA)
  6
Continuous
 62
     7
100
AcDbCircle
 10
319.3776266382
 20
597.3789557889
 30
0.0
 40
14.85
100
AcDbArc
 50
300.3347050581
 51
359.6652949419
  0
ARC
  5
DC
330
95
100
AcDbEntity
  8
$DDT_AUDIT_GENERATED_(DA)
  6
Continuous
 62
     7
100
AcDbCircle
 10
319.3776266382
 20
597.3789557889
 30
0.0
 40
14.85
100
AcDbArc
 50
180.3347050581
 51
239.6652949419
  0
ARC
  5
DD
330
95
100
AcDbEntity
  8
$DDT_AUDIT_GENERATED_(DA)
  6
Continuous
 62
     7
100
AcDbCircle
 10
319.3776266382
 20
597.3789557889
 30
0.0
 40
14.85
100
AcDbArc
 50
60.3347050581
 51
119.6652949419
  0
LINE
  5
DF
330
95
100
AcDbEntity
  8
$DDT_AUDIT_GENERATED_(DE)
  6
Continuous
 62
     7
100
AcDbLine
 10
289.2808391209
 20
607.2497906643
 30
0.0
 11
295.7808391209
 21
618.5081209135
 31
0.0
  0
ARC
  5
E0
330
95
100
AcDbEntity
  8
$DDT_AUDIT_GENERATED_(DE)
  6
Continuous
 62
     7
100
AcDbCircle
 10
296.6468645247
 20
618.0081209135
 30
0.0
 40
0.9999999999999722
100
AcDbArc
 50
60.0
 51
150.0
  0
ARC
  5
E1
330
95
100
AcDbEntity
  8
$DDT_AUDIT_GENERATED_(DE)
  6
Continuous
 62
     7
100
AcDbCircle
 10
290.1468645247
 20
606.7497906643
 30
0.0
 40
0.99999999999999
100
AcDbArc
 50
150.0
 51
240.0
  0
LINE
  5
E2
330
95
100
AcDbEntity
  8
$DDT_AUDIT_GENERATED_(DE)
  6
Continuous
 62
     7
100
AcDbLine
 10
297.1468645247
 20
618.8741463173
 30
0.0
 11
313.1276266382
 21
609.6476490092
 31
0.0
  0
LINE
  5
E3
330
95
100
AcDbEntity
  8
$DDT_AUDIT_GENERATED_(DE)
  6
Continuous
 62
     7
100
AcDbLine
 10
305.6276266382
 20
596.6572679524
 30
0.0
 11
289.6468645247
 21
605.8837652605
 31
0.0
  0
ARC
  5
E4
330
95
100
AcDbEntity
  8
$DDT_AUDIT_GENERATED_(DE)
  6
Continuous
 62
     7
100
AcDbCircle
 10
319.3776266382
 20
620.4729665565
 30
0.0
 40
12.49999999999999
100
AcDbArc
 50
240.0
 51
300.0
  0
ARC
  5
E5
330
95
100
AcDbEntity
  8
$DDT_AUDIT_GENERATED_(DE)
  6
Continuous
 62
     7
100
AcDbCircle
 10
299.3776266382
 20
585.8319504051
 30
0.0
 40
12.49999999999999
100
AcDbArc
 50
0.0
 51
60.0
  0
LINE
  5
E6
330
95
100
AcDbEntity
  8
$DDT_AUDIT_GENERATED_(DE)
  6
Continuous
 62
     7
100
AcDbLine
 10
325.6276266382
 20
609.6476490092
 30
0.0
 11
341.6083887518
 21
618.8741463173
 31
0.0
  0
LINE
  5
E7
330
95
100
AcDbEntity
  8
$DDT_AUDIT_GENERATED_(DE)
  6
Continuous
 62
     7
100
AcDbLine
 10
311.8776266382
 20
567.3789557889
 30
0.0
 11
311.8776266382
 21
585.8319504051
 31
0.0
  0
ARC
  5
E8
330
95
100
AcDbEntity
  8
$DDT_AUDIT_GENERATED_(DE)
  6
Continuous
 62
     7
100
AcDbCircle
 10
342.1083887518
 20
618.0081209135
 30
0.0
 40
0.9999999999999531
100
AcDbArc
 50
30.0
 51
120.0
  0
ARC
  5
E9
330
95
100
AcDbEntity
  8
$DDT_AUDIT_GENERATED_(DE)
  6
Continuous
 62
     7
100
AcDbCircle
 10
312.8776266382
 20
567.3789557889
 30
0.0
 40
0.9999999999999738
100
AcDbArc
 50
180.0
 51
270.0
  0
LINE
  5
EA
330
95
100
AcDbEntity
  8
$DDT_AUDIT_GENERATED_(DE)
  6
Continuous
 62
     7
100
AcDbLine
 10
342.9744141555
 20
618.5081209135
 30
0.0
 11
349.4744141555
 21
607.2497906643
 31
0.0
  0
LINE
  5
EB
330
95
100
AcDbEntity
  8
$DDT_AUDIT_GENERATED_(DE)
  6
Continuous
 62
     7
100
AcDbLine
 10
325.8776266382
 20
566.3789557889
 30
0.0
 11
312.8776266382
 21
566.3789557889
 31
0.0
  0
ARC
  5
EC
330
95
100
AcDbEntity
  8
$DDT_AUDIT_GENERATED_(DE)
  6
Continuous
 62
     7
100
AcDbCircle
 10
348.6083887518
 20
606.7497906643
 30
0.0
 40
0.9999999999999829
100
AcDbArc
 50
300.0
 51
30.0
  0
ARC
  5
ED
330
95
100
AcDbEntity
  8
$DDT_AUDIT_GENERATED_(DE)
  6
Continuous
 62
     7
100
AcDbCircle
 10
325.8776266382
 20
567.3789557889
 30
0.0
 40
0.999999999999929
100
AcDbArc
 50
270.0
 51
0.0
  0
LINE
  5
EE
330
95
100
AcDbEntity
  8
$DDT_AUDIT_GENERATED_(DE)
  6
Continuous
 62
     7
100
AcDbLine
 10
349.1083887518
 20
605.8837652605
 30
0.0
 11
333.1276266382
 21
596.6572679524
 31
0.0
  0
LINE
  5
EF
330
95
100
AcDbEntity
  8
$DDT_AUDIT_GENERATED_(DE)
  6
Continuous
 62
     7
100
AcDbLine
 10
326.8776266382
 20
585.8319504051
 30
0.0
 11
326.8776266382
 21
567.3789557889
 31
0.0
  0
ARC
  5
F0
330
95
100
AcDbEntity
  8
$DDT_AUDIT_GENERATED_(DE)
  6
Continuous
 62
     7
100
AcDbCircle
 10
339.3776266382
 20
585.8319504051
 30
0.0
 40
12.5
100
AcDbArc
 50
120.0
 51
180.0
  0
ARC
  5
F1
330
95
100
AcDbEntity
  8
$DDT_AUDIT_GENERATED_(DA)
  6
Continuous
 62
     7
100
AcDbCircle
 10
119.3776266382
 20
597.3789557889
 30
0.0
 40
14.85
100
AcDbArc
 50
300.3347050581
 51
359.6652949419
  0
ARC
  5
F2
330
95
100
AcDbEntity
  8
$DDT_AUDIT_GENERATED_(DA)
  6
Continuous
 62
     7
100
AcDbCircle
 10
119.3776266382
 20
597.3789557889
 30
0.0
 40
14.85
100
AcDbArc
 50
180.3347050581
 51
239.6652949419
  0
ARC
  5
F3
330
95
100
AcDbEntity
  8
$DDT_AUDIT_GENERATED_(DA)
  6
Continuous
 62
     7
100
AcDbCircle
 10
119.3776266382
 20
597.3789557889
 30
0.0
 40
14.85
100
AcDbArc
 50
60.3347050581
 51
119.6652949419
  0
LINE
  5
F4
330
95
100
AcDbEntity
  8
$DDT_AUDIT_GENERATED_(DE)
  6
Continuous
 62
     7
100
AcDbLine
 10
89.2808391209
 20
607.2497906643
 30
0.0
 11
95.7808391209
 21
618.5081209135
 31
0.0
  0
ARC
  5
F5
330
95
100
AcDbEntity
  8
$DDT_AUDIT_GENERATED_(DE)
  6
Continuous
 62
     7
100
AcDbCircle
 10
96.6468645247
 20
618.0081209135
 30
0.0
 40
0.9999999999999458
100
AcDbArc
 50
60.0
 51
150.0
  0
ARC
  5
F6
330
95
100
AcDbEntity
  8
$DDT_AUDIT_GENERATED_(DE)
  6
Continuous
 62
     7
100
AcDbCircle
 10
90.1468645247
 20
606.7497906643
 30
0.0
 40
0.9999999999999376
100
AcDbArc
 50
150.0
 51
240.0
  0
LINE
  5
F7
330
95
100
AcDbEntity
  8
$DDT_AUDIT_GENERATED_(DE)
  6
Continuous
 62
     7
100
AcDbLine
 10
97.1468645247
 20
618.8741463173
 30
0.0
 11
113.1276266382
 21
609.6476490092
 31
0.0
  0
LINE
  5
F8
330
95
100
AcDbEntity
  8
$DDT_AUDIT_GENERATED_(DE)
  6
Continuous
 62
     7
100
AcDbLine
 10
105.6276266382
 20
596.6572679524
 30
0.0
 11
89.6468645247
 21
605.8837652605
 31
0.0
  0
ARC
  5
F9
330
95
100
AcDbEntity
  8
$DDT_AUDIT_GENERATED_(DE)
  6
Continuous
 62
     7
100
AcDbCircle
 10
119.3776266382
 20
620.4729665565
 30
0.0
 40
12.5
100
AcDbArc
 50
240.0
 51
300.0
  0
ARC
  5
FA
330
95
100
AcDbEntity
  8
$DDT_AUDIT_GENERATED_(DE)
  6
Continuous
 62
     7
100
AcDbCircle
 10
99.3776266382
 20
585.8319504051
 30
0.0
 40
12.49999999999998
100
AcDbArc
 50
0.0
 51
60.0
  0
LINE
  5
FB
330
95
100
AcDbEntity
  8
$DDT_AUDIT_GENERATED_(DE)
  6
Continuous
 62
     7
100
AcDbLine
 10
125.6276266382
 20
609.6476490092
 30
0.0
 11
141.6083887518
 21
618.8741463173
 31
0.0
  0
LINE
  5
FC
330
95
100
AcDbEntity
  8
$DDT_AUDIT_GENERATED_(DE)
  6
Continuous
 62
     7
100
AcDbLine
 10
111.8776266382
 20
567.3789557889
 30
0.0
 11
111.8776266382
 21
585.8319504051
 31
0.0
  0
ARC
  5
FD
330
95
100
AcDbEntity
  8
$DDT_AUDIT_GENERATED_(DE)
  6
Continuous
 62
     7
100
AcDbCircle
 10
142.1083887518
 20
618.0081209135
 30
0.0
 40
0.9999999999999573
100
AcDbArc
 50
30.0
 51
120.0
  0
ARC
  5
FE
330
95
100
AcDbEntity
  8
$DDT_AUDIT_GENERATED_(DE)
  6
Continuous
 62
     7
100
AcDbCircle
 10
112.8776266382
 20
567.3789557889
 30
0.0
 40
0.9999999999999627
100
AcDbArc
 50
180.0
 51
270.0
  0
LINE
  5
FF
330
95
100
AcDbEntity
  8
$DDT_AUDIT_GENERATED_(DE)
  6
Continuous
 62
     7
100
AcDbLine
 10
142.9744141555
 20
618.5081209135
 30
0.0
 11
149.4744141555
 21
607.2497906643
 31
0.0
  0
LINE
  5
100
330
95
100
AcDbEntity
  8
$DDT_AUDIT_GENERATED_(DE)
  6
Continuous
 62
     7
100
AcDbLine
 10
125.8776266382
 20
566.3789557889
 30
0.0
 11
112.8776266382
 21
566.3789557889
 31
0.0
  0
ARC
  5
101
330
95
100
AcDbEntity
  8
$DDT_AUDIT_GENERATED_(DE)
  6
Continuous
 62
     7
100
AcDbCircle
 10
148.6083887518
 20
606.7497906643
 30
0.0
 40
0.9999999999999658
100
AcDbArc
 50
300.0
 51
30.0
  0
ARC
  5
102
330
95
100
AcDbEntity
  8
$DDT_AUDIT_GENERATED_(DE)
  6
Continuous
 62
     7
100
AcDbCircle
 10
125.8776266382
 20
567.3789557889
 30
0.0
 40
0.9999999999999465
100
AcDbArc
 50
270.0
 51
0.0
  0
LINE
  5
103
330
95
100
AcDbEntity
  8
$DDT_AUDIT_GENERATED_(DE)
  6
Continuous
 62
     7
100
AcDbLine
 10
149.1083887518
 20
605.8837652605
 30
0.0
 11
133.1276266382
 21
596.6572679524
 31
0.0
  0
LINE
  5
104
330
95
100
AcDbEntity
  8
$DDT_AUDIT_GENERATED_(DE)
  6
Continuous
 62
     7
100
AcDbLine
 10
126.8776266382
 20
585.8319504051
 30
0.0
 11
126.8776266382
 21
567.3789557889
 31
0.0
  0
ARC
  5
105
330
95
100
AcDbEntity
  8
$DDT_AUDIT_GENERATED_(DE)
  6
Continuous
 62
     7
100
AcDbCircle
 10
139.3776266382
 20
585.8319504051
 30
0.0
 40
12.50000000000001
100
AcDbArc
 50
120.0
 51
180.0
  0
ENDBLK
  5
107
330
95
100
AcDbEntity
  8
0
100
AcDbBlockEnd
  0
BLOCK
  5
18B
330
108
100
AcDbEntity
  8
0
100
AcDbBlockBegin
  2
SE1
 70
     0
 10
0.0
 20
0.0
 30
0.0
  3
SE1
  1

  0
LINE
  5
10A
330
108
100
AcDbEntity
  8
$DDT_AUDIT_GENERATED_(97)
  6
Continuous
 62
     7
100
AcDbLine
 10
352.5366248705
 20
271.4164131083
 30
0.0
 11
86.2186284059
 21
271.4164131083
 31
0.0
  0
LINE
  5
10B
330
108
100
AcDbEntity
  8
$DDT_AUDIT_GENERATED_(97)
  6
Continuous
 62
     7
100
AcDbLine
 10
352.5366248705
 20
271.4164131083
 30
0.0
 11
352.9365639486
 21
271.4164131083
 31
0.0
  0
ARC
  5
10C
330
108
100
AcDbEntity
  8
$DDT_AUDIT_GENERATED_(97)
  6
Continuous
 62
     7
100
AcDbCircle
 10
352.9365639486
 20
272.6164131083
 30
0.0
 40
1.199999999999992
100
AcDbArc
 50
270.0
 51
359.0
  0
LINE
  5
10D
330
108
100
AcDbEntity
  8
$DDT_AUDIT_GENERATED_(97)
  6
Continuous
 62
     7
100
AcDbLine
 10
354.3776266382
 20
286.4164131083
 30
0.0
 11
354.1363811827
 21
272.5954702206
 31
0.0
  0
LINE
  5
10E
330
108
100
AcDbEntity
  8
$DDT_AUDIT_GENERATED_(97)
  6
Continuous
 62
     7
100
AcDbLine
 10
352.777870326
 20
286.4164131083
 30
0.0
 11
354.3776266382
 21
286.4164131083
 31
0.0
  0
LINE
  5
10F
330
108
100
AcDbEntity
  8
$DDT_AUDIT_GENERATED_(97)
  6
Continuous
 62
     7
100
AcDbLine
 10
85.8186893279
 20
271.4164131083
 30
0.0
 11
86.2186284059
 21
271.4164131083
 31
0.0
  0
LINE
  5
110
330
108
100
AcDbEntity
  8
$DDT_AUDIT_GENERATED_(97)
  6
Continuous
 62
     7
100
AcDbLine
 10
84.6188720937
 20
272.5954702206
 30
0.0
 11
84.3776266382
 21
286.4164131083
 31
0.0
  0
LINE
  5
111
330
108
100
AcDbEntity
  8
$DDT_AUDIT_GENERATED_(97)
  6
Continuous
 62
     7
100
AcDbLine
 10
85.9773829505
 20
286.4164131083
 30
0.0
 11
352.777870326
 21
286.4164131083
 31
0.0
  0
LINE
  5
112
330
108
100
AcDbEntity
  8
$DDT_AUDIT_GENERATED_(97)
  6
Continuous
 62
     7
100
AcDbLine
 10
84.3776266382
 20
286.4164131083
 30
0.0
 11
85.9773829505
 21
286.4164131083
 31
0.0
  0
ARC
  5
113
330
108
100
AcDbEntity
  8
$DDT_AUDIT_GENERATED_(97)
  6
Continuous
 62
     7
100
AcDbCircle
 10
85.8186893279
 20
272.6164131083
 30
0.0
 40
1.2
100
AcDbArc
 50
181.0
 51
270.0
  0
LINE
  5
114
330
108
100
AcDbEntity
  8
$DDT_AUDIT_GENERATED_(AB)
  6
Continuous
 62
     7
100
AcDbLine
 10
93.1776266382
 20
271.1164131083
 30
0.0
 11
145.5776266382
 21
271.1164131083
 31
0.0
  0
LINE
  5
115
330
108
100
AcDbEntity
  8
$DDT_AUDIT_GENERATED_(AB)
  6
Continuous
 62
     7
100
AcDbLine
 10
93.1776266382
 20
271.4164131083
 30
0.0
 11
93.1776266382
 21
271.1164131083
 31
0.0
  0
LINE
  5
116
330
108
100
AcDbEntity
  8
$DDT_AUDIT_GENERATED_(AB)
  6
Continuous
 62
     7
100
AcDbLine
 10
145.5776266382
 20
271.1164131083
 30
0.0
 11
145.5776266382
 21
271.4164131083
 31
0.0
  0
LINE
  5
117
330
108
100
AcDbEntity
  8
$DDT_AUDIT_GENERATED_(B0)
  6
Continuous
 62
     7
100
AcDbLine
 10
301.8776266382
 20
230.1164131083
 30
0.0
 11
336.8776266382
 21
230.1164131083
 31
0.0
  0
LINE
  5
118
330
108
100
AcDbEntity
  8
$DDT_AUDIT_GENERATED_(B0)
  6
Continuous
 62
     7
100
AcDbLine
 10
301.3776266382
 20
271.1164131083
 30
0.0
 11
301.3776266382
 21
230.6164131083
 31
0.0
  0
LINE
  5
119
330
108
100
AcDbEntity
  8
$DDT_AUDIT_GENERATED_(B0)
  6
Continuous
 62
     7
100
AcDbLine
 10
337.3776266382
 20
230.6164131083
 30
0.0
 11
337.3776266382
 21
271.1164131083
 31
0.0
  0
ARC
  5
11A
330
108
100
AcDbEntity
  8
$DDT_AUDIT_GENERATED_(B0)
  6
Continuous
 62
     7
100
AcDbCircle
 10
301.8776266382
 20
230.6164131083
 30
0.0
 40
0.5000000000000004
100
AcDbArc
 50
180.0
 51
270.0
  0
ARC
  5
11B
330
108
100
AcDbEntity
  8
$DDT_AUDIT_GENERATED_(B0)
  6
Continuous
 62
     7
100
AcDbCircle
 10
336.8776266382
 20
230.6164131083
 30
0.0
 40
0.5000000000000004
100
AcDbArc
 50
270.0
 51
0.0
  0
LINE
  5
11C
330
108
100
AcDbEntity
  8
$DDT_AUDIT_GENERATED_(B0)
  6
Continuous
 62
     7
100
AcDbLine
 10
136.8776266382
 20
230.1164131083
 30
0.0
 11
101.8776266382
 21
230.1164131083
 31
0.0
  0
LINE
  5
11D
330
108
100
AcDbEntity
  8
$DDT_AUDIT_GENERATED_(B0)
  6
Continuous
 62
     7
100
AcDbLine
 10
101.3776266382
 20
271.1164131083
 30
0.0
 11
101.3776266382
 21
230.6164131083
 31
0.0
  0
LINE
  5
11E
330
108
100
AcDbEntity
  8
$DDT_AUDIT_GENERATED_(B0)
  6
Continuous
 62
     7
100
AcDbLine
 10
137.3776266382
 20
230.6164131083
 30
0.0
 11
137.3776266382
 21
271.1164131083
 31
0.0
  0
ARC
  5
11F
330
108
100
AcDbEntity
  8
$DDT_AUDIT_GENERATED_(B0)
  6
Continuous
 62
     7
100
AcDbCircle
 10
101.8776266382
 20
230.6164131083
 30
0.0
 40
0.5000000000000004
100
AcDbArc
 50
180.0
 51
270.0
  0
ARC
  5
120
330
108
100
AcDbEntity
  8
$DDT_AUDIT_GENERATED_(B0)
  6
Continuous
 62
     7
100
AcDbCircle
 10
136.8776266382
 20
230.6164131083
 30
0.0
 40
0.5000000000000004
100
AcDbArc
 50
270.0
 51
0.0
  0
LINE
  5
121
330
108
100
AcDbEntity
  8
$DDT_AUDIT_GENERATED_(BF)
  6
Continuous
 62
     7
100
AcDbLine
 10
245.2776266382
 20
271.0164131083
 30
0.0
 11
193.4776266382
 21
271.0164131083
 31
0.0
  0
LINE
  5
122
330
108
100
AcDbEntity
  8
$DDT_AUDIT_GENERATED_(BF)
  6
Continuous
 62
     7
100
AcDbLine
 10
193.1776266382
 20
271.4164131083
 30
0.0
 11
193.1776266382
 21
271.3164131083
 31
0.0
  0
LINE
  5
123
330
108
100
AcDbEntity
  8
$DDT_AUDIT_GENERATED_(BF)
  6
Continuous
 62
     7
100
AcDbLine
 10
245.5776266382
 20
271.3164131083
 30
0.0
 11
245.5776266382
 21
271.4164131083
 31
0.0
  0
ARC
  5
124
330
108
100
AcDbEntity
  8
$DDT_AUDIT_GENERATED_(BF)
  6
Continuous
 62
     7
100
AcDbCircle
 10
193.4776266382
 20
271.3164131083
 30
0.0
 40
0.3000000000000017
100
AcDbArc
 50
180.0
 51
270.0
  0
ARC
  5
125
330
108
100
AcDbEntity
  8
$DDT_AUDIT_GENERATED_(BF)
  6
Continuous
 62
     7
100
AcDbCircle
 10
245.2776266382
 20
271.3164131083
 30
0.0
 40
0.2999999999999947
100
AcDbArc
 50
270.0
 51
0.0
  0
LINE
  5
126
330
108
100
AcDbEntity
  8
$DDT_AUDIT_GENERATED_(C2)
  6
Continuous
 62
     7
100
AcDbLine
 10
204.8776266382
 20
108.2828227912
 30
0.0
 11
204.8776266382
 21
108.7457153728
 31
0.0
  0
LINE
  5
127
330
108
100
AcDbEntity
  8
$DDT_AUDIT_GENERATED_(C2)
  6
Continuous
 62
     7
100
AcDbLine
 10
204.8776266382
 20
108.7457153728
 30
0.0
 11
204.8776266382
 21
146.6011139003
 31
0.0
  0
LINE
  5
128
330
108
100
AcDbEntity
  8
$DDT_AUDIT_GENERATED_(C2)
  6
Continuous
 62
     7
100
AcDbLine
 10
204.8776266382
 20
146.6011139003
 30
0.0
 11
204.8776266382
 21
269.4164131083
 31
0.0
  0
LINE
  5
129
330
108
100
AcDbEntity
  8
$DDT_AUDIT_GENERATED_(C2)
  6
Continuous
 62
     7
100
AcDbLine
 10
233.8776266382
 20
269.4164131083
 30
0.0
 11
233.8776266382
 21
146.6011139003
 31
0.0
  0
LINE
  5
12A
330
108
100
AcDbEntity
  8
$DDT_AUDIT_GENERATED_(C2)
  6
Continuous
 62
     7
100
AcDbLine
 10
233.8776266382
 20
146.6011139003
 30
0.0
 11
233.8776266382
 21
108.7457153728
 31
0.0
  0
LINE
  5
12B
330
108
100
AcDbEntity
  8
$DDT_AUDIT_GENERATED_(C2)
  6
Continuous
 62
     7
100
AcDbLine
 10
233.8776266382
 20
108.7457153728
 30
0.0
 11
233.8776266382
 21
108.2828227912
 31
0.0
  0
ARC
  5
12C
330
108
100
AcDbEntity
  8
$DDT_AUDIT_GENERATED_(C2)
  6
Continuous
 62
     7
100
AcDbCircle
 10
205.3776266382
 20
108.2828227912
 30
0.0
 40
0.5000000000000004
100
AcDbArc
 50
180.0
 51
270.0
  0
LINE
  5
12D
330
108
100
AcDbEntity
  8
$DDT_AUDIT_GENERATED_(C2)
  6
Continuous
 62
     7
100
AcDbLine
 10
205.3776266382
 20
107.7828227912
 30
0.0
 11
233.3776266382
 21
107.7828227912
 31
0.0
  0
ARC
  5
12E
330
108
100
AcDbEntity
  8
$DDT_AUDIT_GENERATED_(C2)
  6
Continuous
 62
     7
100
AcDbCircle
 10
233.3776266382
 20
108.2828227912
 30
0.0
 40
0.5000000000000004
100
AcDbArc
 50
270.0
 51
0.0
  0
LINE
  5
130
330
108
100
AcDbEntity
  8
$DDT_AUDIT_GENERATED_(12F)
  6
Continuous
 62
     7
100
AcDbLine
 10
236.8776266382
 20
269.4164131083
 30
0.0
 11
201.8776266382
 21
269.4164131083
 31
0.0
  0
LINE
  5
131
330
108
100
AcDbEntity
  8
$DDT_AUDIT_GENERATED_(12F)
  6
Continuous
 62
     7
100
AcDbLine
 10
236.8776266382
 20
269.4164131083
 30
0.0
 11
236.8776266382
 21
271.0164131083
 31
0.0
  0
LINE
  5
132
330
108
100
AcDbEntity
  8
$DDT_AUDIT_GENERATED_(12F)
  6
Continuous
 62
     7
100
AcDbLine
 10
201.8776266382
 20
271.0164131083
 30
0.0
 11
201.8776266382
 21
269.4164131083
 31
0.0
  0
LINE
  5
133
330
108
100
AcDbEntity
  8
$DDT_AUDIT_GENERATED_(AB)
  6
Continuous
 62
     7
100
AcDbLine
 10
293.1776266382
 20
271.1164131083
 30
0.0
 11
345.5776266382
 21
271.1164131083
 31
0.0
  0
LINE
  5
134
330
108
100
AcDbEntity
  8
$DDT_AUDIT_GENERATED_(AB)
  6
Continuous
 62
     7
100
AcDbLine
 10
293.1776266382
 20
271.4164131083
 30
0.0
 11
293.1776266382
 21
271.1164131083
 31
0.0
  0
LINE
  5
135
330
108
100
AcDbEntity
  8
$DDT_AUDIT_GENERATED_(AB)
  6
Continuous
 62
     7
100
AcDbLine
 10
345.5776266382
 20
271.1164131083
 30
0.0
 11
345.5776266382
 21
271.4164131083
 31
0.0
  0
LINE
  5
136
330
108
100
AcDbEntity
  8
$DDT_AUDIT_GENERATED_(DA)
  6
Continuous
 62
     7
100
AcDbLine
 10
333.7276266382
 20
225.9164131083
 30
0.0
 11
305.0276266382
 21
225.9164131083
 31
0.0
  0
LINE
  5
137
330
108
100
AcDbEntity
  8
$DDT_AUDIT_GENERATED_(DA)
  6
Continuous
 62
     7
100
AcDbLine
 10
304.5276266382
 20
230.1164131083
 30
0.0
 11
304.5276266382
 21
226.4164131083
 31
0.0
  0
LINE
  5
138
330
108
100
AcDbEntity
  8
$DDT_AUDIT_GENERATED_(DA)
  6
Continuous
 62
     7
100
AcDbLine
 10
334.2276266382
 20
226.4164131083
 30
0.0
 11
334.2276266382
 21
230.1164131083
 31
0.0
  0
ARC
  5
139
330
108
100
AcDbEntity
  8
$DDT_AUDIT_GENERATED_(DA)
  6
Continuous
 62
     7
100
AcDbCircle
 10
305.0276266382
 20
226.4164131083
 30
0.0
 40
0.5000000000000004
100
AcDbArc
 50
180.0
 51
270.0
  0
ARC
  5
13A
330
108
100
AcDbEntity
  8
$DDT_AUDIT_GENERATED_(DA)
  6
Continuous
 62
     7
100
AcDbCircle
 10
333.7276266382
 20
226.4164131083
 30
0.0
 40
0.5000000000000004
100
AcDbArc
 50
270.0
 51
0.0
  0
LINE
  5
13B
330
108
100
AcDbEntity
  8
$DDT_AUDIT_GENERATED_(DE)
  6
Continuous
 62
     7
100
AcDbLine
 10
349.1083887518
 20
206.4164131083
 30
0.0
 11
349.0414014536
 21
206.4164131083
 31
0.0
  0
LINE
  5
13C
330
108
100
AcDbEntity
  8
$DDT_AUDIT_GENERATED_(DE)
  6
Continuous
 62
     7
100
AcDbLine
 10
342.5414014536
 20
206.4164131083
 30
0.0
 11
349.0414014536
 21
206.4164131083
 31
0.0
  0
LINE
  5
13D
330
108
100
AcDbEntity
  8
$DDT_AUDIT_GENERATED_(DE)
  6
Continuous
 62
     7
100
AcDbLine
 10
341.8583887518
 20
206.4164131083
 30
0.0
 11
342.5414014536
 21
206.4164131083
 31
0.0
  0
LINE
  5
13E
330
108
100
AcDbEntity
  8
$DDT_AUDIT_GENERATED_(DE)
  6
Continuous
 62
     7
100
AcDbLine
 10
325.8776266382
 20
206.4164131083
 30
0.0
 11
341.8583887518
 21
206.4164131083
 31
0.0
  0
LINE
  5
13F
330
108
100
AcDbEntity
  8
$DDT_AUDIT_GENERATED_(DE)
  6
Continuous
 62
     7
100
AcDbLine
 10
289.7138518228
 20
206.4164131083
 30
0.0
 11
289.6468645247
 21
206.4164131083
 31
0.0
  0
LINE
  5
140
330
108
100
AcDbEntity
  8
$DDT_AUDIT_GENERATED_(DE)
  6
Continuous
 62
     7
100
AcDbLine
 10
289.7138518228
 20
206.4164131083
 30
0.0
 11
296.2138518228
 21
206.4164131083
 31
0.0
  0
LINE
  5
141
330
108
100
AcDbEntity
  8
$DDT_AUDIT_GENERATED_(DE)
  6
Continuous
 62
     7
100
AcDbLine
 10
296.2138518228
 20
206.4164131083
 30
0.0
 11
296.8968645247
 21
206.4164131083
 31
0.0
  0
LINE
  5
142
330
108
100
AcDbEntity
  8
$DDT_AUDIT_GENERATED_(DE)
  6
Continuous
 62
     7
100
AcDbLine
 10
296.8968645247
 20
206.4164131083
 30
0.0
 11
312.8776266382
 21
206.4164131083
 31
0.0
  0
LINE
  5
143
330
108
100
AcDbEntity
  8
$DDT_AUDIT_GENERATED_(DE)
  6
Continuous
 62
     7
100
AcDbLine
 10
312.8776266382
 20
206.4164131083
 30
0.0
 11
316.6191179988
 21
206.4164131083
 31
0.0
  0
ELLIPSE
  5
144
330
108
100
AcDbEntity
  8
$DDT_AUDIT_GENERATED_(DE)
  6
Continuous
 62
     7
100
AcDbEllipse
 10
322.8782115202
 20
3401.8176615262
 30
0.0
 11
-0.0001540138279826353
 21
-3203.393597889658
 31
0.0
210
0.0
220
0.0
230
1.0
 40
0.8660263614
 41
0.0037854824210407
 42
0.0093666985554109
  0
ARC
  5
145
330
108
100
AcDbEntity
  8
$DDT_AUDIT_GENERATED_(DE)
  6
Continuous
 62
     7
100
AcDbCircle
 10
349.0376317497
 20
195.0567058044
 30
0.0
 40
3.512225044461651
100
AcDbArc
 50
89.2142374088
 51
92.8501332333
  0
ARC
  5
146
330
108
100
AcDbEntity
  8
$DDT_AUDIT_GENERATED_(DE)
  6
Continuous
 62
     7
100
AcDbCircle
 10
345.7955248584
 20
999.3823782729
 30
0.0
 40
800.820719602371
100
AcDbArc
 50
269.7674375059
 51
270.2325624941
  0
ELLIPSE
  5
147
330
108
100
AcDbEntity
  8
$DDT_AUDIT_GENERATED_(DE)
  6
Continuous
 62
     7
100
AcDbEllipse
 10
315.877117504
 20
3401.8182776022
 30
0.0
 11
-0.0001489767409990073
 21
-3203.394213876933
 31
0.0
210
0.0
220
0.0
230
0.9999999999999999
 40
0.8660262782
 41
0.0036052229501346
 42
0.0093666962925334
  0
ELLIPSE
  5
148
330
108
100
AcDbEntity
  8
$DDT_AUDIT_GENERATED_(DE)
  6
Continuous
 62
     7
100
AcDbEllipse
 10
315.8770441958
 20
3401.818466394
 30
0.0
 11
0.0001442530130207897
 21
-3203.39440283483
 31
0.0
210
0.0
220
0.0
230
1.0
 40
0.8660262526
 41
6.273818612439554
 42
6.279399825643651
  0
ELLIPSE
  5
149
330
108
100
AcDbEntity
  8
$DDT_AUDIT_GENERATED_(DE)
  6
Continuous
 62
     7
100
AcDbEllipse
 10
322.8781381584
 20
3401.8183918265
 30
0.0
 11
0.0001394321269831966
 21
-3203.394328174629
 31
0.0
210
0.0
220
0.0
230
1.0
 40
0.8660262627
 41
6.273818613634128
 42
6.279580086873905
  0
ARC
  5
14A
330
108
100
AcDbEntity
  8
$DDT_AUDIT_GENERATED_(DE)
  6
Continuous
 62
     7
100
AcDbCircle
 10
289.7174921376
 20
195.0487937937
 30
0.0
 40
3.520133711682076
100
AcDbArc
 50
87.1541668048
 51
90.595132287
  0
ARC
  5
14B
330
108
100
AcDbEntity
  8
$DDT_AUDIT_GENERATED_(DE)
  6
Continuous
 62
     7
100
AcDbCircle
 10
292.9597284181
 20
999.3823782729
 30
0.0
 40
800.8207196023899
100
AcDbArc
 50
269.7674375059
 51
270.2325624941
  0
LINE
  5
14C
330
108
100
AcDbEntity
  8
$DDT_AUDIT_GENERATED_(DE)
  6
Continuous
 62
     7
100
AcDbLine
 10
322.1361352776
 20
206.4164131083
 30
0.0
 11
325.8776266382
 21
206.4164131083
 31
0.0
  0
ARC
  5
14D
330
108
100
AcDbEntity
  8
$DDT_AUDIT_GENERATED_(DE)
  6
Continuous
 62
     7
100
AcDbCircle
 10
322.4128954966
 20
185.887796542
 30
0.0
 40
20.53048207780999
100
AcDbArc
 50
90.7723965141
 51
91.7358834313
  0
ARC
  5
14E
330
108
100
AcDbEntity
  8
$DDT_AUDIT_GENERATED_(DE)
  6
Continuous
 62
     7
100
AcDbCircle
 10
322.4128954966
 20
185.887796542
 30
0.0
 40
20.53048207780999
100
AcDbArc
 50
91.7358834313
 51
94.8248763184
  0
ARC
  5
14F
330
108
100
AcDbEntity
  8
$DDT_AUDIT_GENERATED_(DE)
  6
Continuous
 62
     7
100
AcDbCircle
 10
319.3776266382
 20
236.4082044923
 30
0.0
 40
30.09113760556746
100
AcDbArc
 50
267.5078464494
 51
272.4921535506
  0
ARC
  5
150
330
108
100
AcDbEntity
  8
$DDT_AUDIT_GENERATED_(DE)
  6
Continuous
 62
     7
100
AcDbCircle
 10
316.3420389121
 20
185.8812736352
 30
0.0
 40
20.53700869165689
100
AcDbArc
 50
85.1757678844
 51
87.9498758171
  0
ARC
  5
151
330
108
100
AcDbEntity
  8
$DDT_AUDIT_GENERATED_(DE)
  6
Continuous
 62
     7
100
AcDbCircle
 10
316.3420389121
 20
185.8812736352
 30
0.0
 40
20.53700869165689
100
AcDbArc
 50
87.9498758171
 51
89.226959283
  0
LINE
  5
152
330
108
100
AcDbEntity
  8
$DDT_AUDIT_GENERATED_(DE)
  6
Continuous
 62
     7
100
AcDbLine
 10
329.6276266382
 20
206.9164131083
 30
0.0
 11
329.6276266382
 21
225.9164131083
 31
0.0
  0
LINE
  5
153
330
108
100
AcDbEntity
  8
$DDT_AUDIT_GENERATED_(DE)
  6
Continuous
 62
     7
100
AcDbLine
 10
309.1276266382
 20
225.9164131083
 30
0.0
 11
309.1276266382
 21
206.9164131083
 31
0.0
  0
ARC
  5
154
330
108
100
AcDbEntity
  8
$DDT_AUDIT_GENERATED_(DE)
  6
Continuous
 62
     7
100
AcDbCircle
 10
319.3776266382
 20
3401.8247464416
 30
0.0
 40
3203.408333333316
100
AcDbArc
 50
270.2426007543
 51
270.2504422181
  0
ARC
  5
155
330
108
100
AcDbEntity
  8
$DDT_AUDIT_GENERATED_(DE)
  6
Continuous
 62
     7
100
AcDbCircle
 10
319.3776266382
 20
3401.8247464416
 30
0.0
 40
3203.408333333316
100
AcDbArc
 50
269.7574571174
 51
270.2426007543
  0
ARC
  5
156
330
108
100
AcDbEntity
  8
$DDT_AUDIT_GENERATED_(DE)
  6
Continuous
 62
     7
100
AcDbCircle
 10
319.3776266382
 20
3401.8247464416
 30
0.0
 40
3203.408333333316
100
AcDbArc
 50
269.7495577819
 51
269.7574571174
  0
LINE
  5
157
330
108
100
AcDbEntity
  8
$DDT_AUDIT_GENERATED_(DE)
  6
Continuous
 62
     7
100
AcDbLine
 10
289.1468645247
 20
205.9164131083
 30
0.0
 11
289.1468645247
 21
199.0680868446
 31
0.0
  0
LINE
  5
158
330
108
100
AcDbEntity
  8
$DDT_AUDIT_GENERATED_(DE)
  6
Continuous
 62
     7
100
AcDbLine
 10
349.6083887518
 20
199.068047347
 30
0.0
 11
349.6083887518
 21
205.9164131083
 31
0.0
  0
ARC
  5
159
330
108
100
AcDbEntity
  8
$DDT_AUDIT_GENERATED_(DE)
  6
Continuous
 62
     7
100
AcDbCircle
 10
349.1083887518
 20
205.9164131083
 30
0.0
 40
0.5000000000000004
100
AcDbArc
 50
0.0
 51
90.0
  0
ARC
  5
15A
330
108
100
AcDbEntity
  8
$DDT_AUDIT_GENERATED_(DE)
  6
Continuous
 62
     7
100
AcDbCircle
 10
289.6468645247
 20
205.9164131083
 30
0.0
 40
0.5000000000000004
100
AcDbArc
 50
90.0
 51
180.0
  0
SPLINE
  5
15B
330
108
100
AcDbEntity
  8
$DDT_AUDIT_GENERATED_(DE)
  6
Continuous
 62
     7
100
AcDbSpline
210
0.0
220
0.0
230
1.0
 70
     8
 71
     3
 72
    17
 73
    13
 74
     0
 42
0.0000000121441855
 43
0.0000000001
 40
0.0
 40
0.0
 40
0.0
 40
0.0
 40
0.0991102987638809
 40
0.1367235313823403
 40
0.1571777148458535
 40
0.1763913962211475
 40
0.2264801082717211
 40
0.3609776176109336
 40
0.5738226397738899
 40
0.7619296113746996
 40
0.959979026116615
 40
1.0
 40
1.0
 40
1.0
 40
1.0
 10
349.0829309966002
 20
198.5674391633613
 30
0.0
 10
349.0958030719382
 20
198.5676042769138
 30
0.0
 10
349.1121050421283
 20
198.5678774884304
 30
0.0
 10
349.1237531456153
 20
198.5682399843803
 30
0.0
 10
349.1353029035918
 20
198.5687448105625
 30
0.0
 10
349.1580027526713
 20
198.5702677253932
 30
0.0
 10
349.2200553480046
 20
198.5780697427852
 30
0.0
 10
349.33413153664
 20
198.6127299281551
 30
0.0
 10
349.471575582232
 20
198.7076287278298
 30
0.0
 10
349.5702004700954
 20
198.8573834254173
 30
0.0
 10
349.6151809439634
 20
198.9890198800401
 30
0.0
 10
349.6046322940315
 20
199.056049592718
 30
0.0
 10
349.6025137638156
 20
199.0691084139542
 30
0.0
  0
SPLINE
  5
15C
330
108
100
AcDbEntity
  8
$DDT_AUDIT_GENERATED_(DE)
  6
Continuous
 62
     7
100
AcDbSpline
210
0.0
220
0.0
230
1.0
 70
     8
 71
     3
 72
    20
 73
    16
 74
     0
 42
0.0000000120277214
 43
0.0000000001
 40
0.0
 40
0.0
 40
0.0
 40
0.0
 40
0.0632880303397905
 40
0.2474548472476251
 40
0.3950983143147664
 40
0.5195044217655768
 40
0.6237953611979724
 40
0.7077372607526967
 40
0.7696929250206072
 40
0.8005411700757797
 40
0.8167380295198466
 40
0.8306993333320352
 40
0.8523619164328439
 40
0.9049633340727599
 40
1.0
 40
1.0
 40
1.0
 40
1.0
 10
289.1541567146281
 20
199.0679651337819
 30
0.0
 10
289.151815446275
 20
199.0464301947756
 30
0.0
 10
289.1445527614686
 20
198.9739138509387
 30
0.0
 10
289.1895616876568
 20
198.8500391487472
 30
0.0
 10
289.2685959692649
 20
198.7326356630815
 30
0.0
 10
289.3584216773584
 20
198.6550717137065
 30
0.0
 10
289.4442041615383
 20
198.6081923976024
 30
0.0
 10
289.518389830122
 20
198.5833069204308
 30
0.0
 10
289.5722450679579
 20
198.5730319760502
 30
0.0
 10
289.6056968219704
 20
198.5696619525495
 30
0.0
 10
289.6202856874097
 20
198.5687501219369
 30
0.0
 10
289.6285209179759
 20
198.5683631359988
 30
0.0
 10
289.6378266764586
 20
198.5680383299771
 30
0.0
 10
289.6492433930738
 20
198.567738048383
 30
0.0
 10
289.6704750303054
 20
198.5674192640893
 30
0.0
 10
289.6860601199773
 20
198.5672062495935
 30
0.0
  0
ARC
  5
15D
330
108
100
AcDbEntity
  8
$DDT_AUDIT_GENERATED_(DE)
  6
Continuous
 62
     7
100
AcDbCircle
 10
308.6276266382
 20
206.9164131083
 30
0.0
 40
0.5000000000000004
100
AcDbArc
 50
270.0
 51
0.0
  0
ARC
  5
15E
330
108
100
AcDbEntity
  8
$DDT_AUDIT_GENERATED_(DE)
  6
Continuous
 62
     7
100
AcDbCircle
 10
330.1276266382
 20
206.9164131083
 30
0.0
 40
0.5000000000000004
100
AcDbArc
 50
180.0
 51
270.0
  0
LINE
  5
15F
330
108
100
AcDbEntity
  8
$DDT_AUDIT_GENERATED_(DA)
  6
Continuous
 62
     7
100
AcDbLine
 10
133.7276266382
 20
225.9164131083
 30
0.0
 11
105.0276266382
 21
225.9164131083
 31
0.0
  0
LINE
  5
160
330
108
100
AcDbEntity
  8
$DDT_AUDIT_GENERATED_(DA)
  6
Continuous
 62
     7
100
AcDbLine
 10
104.5276266382
 20
230.1164131083
 30
0.0
 11
104.5276266382
 21
226.4164131083
 31
0.0
  0
LINE
  5
161
330
108
100
AcDbEntity
  8
$DDT_AUDIT_GENERATED_(DA)
  6
Continuous
 62
     7
100
AcDbLine
 10
134.2276266382
 20
226.4164131083
 30
0.0
 11
134.2276266382
 21
230.1164131083
 31
0.0
  0
ARC
  5
162
330
108
100
AcDbEntity
  8
$DDT_AUDIT_GENERATED_(DA)
  6
Continuous
 62
     7
100
AcDbCircle
 10
105.0276266382
 20
226.4164131083
 30
0.0
 40
0.5000000000000004
100
AcDbArc
 50
180.0
 51
270.0
  0
ARC
  5
163
330
108
100
AcDbEntity
  8
$DDT_AUDIT_GENERATED_(DA)
  6
Continuous
 62
     7
100
AcDbCircle
 10
133.7276266382
 20
226.4164131083
 30
0.0
 40
0.5000000000000004
100
AcDbArc
 50
270.0
 51
0.0
  0
LINE
  5
164
330
108
100
AcDbEntity
  8
$DDT_AUDIT_GENERATED_(DE)
  6
Continuous
 62
     7
100
AcDbLine
 10
149.1083887518
 20
206.4164131083
 30
0.0
 11
149.0414014536
 21
206.4164131083
 31
0.0
  0
LINE
  5
165
330
108
100
AcDbEntity
  8
$DDT_AUDIT_GENERATED_(DE)
  6
Continuous
 62
     7
100
AcDbLine
 10
142.5414014536
 20
206.4164131083
 30
0.0
 11
149.0414014536
 21
206.4164131083
 31
0.0
  0
LINE
  5
166
330
108
100
AcDbEntity
  8
$DDT_AUDIT_GENERATED_(DE)
  6
Continuous
 62
     7
100
AcDbLine
 10
141.8583887518
 20
206.4164131083
 30
0.0
 11
142.5414014536
 21
206.4164131083
 31
0.0
  0
LINE
  5
167
330
108
100
AcDbEntity
  8
$DDT_AUDIT_GENERATED_(DE)
  6
Continuous
 62
     7
100
AcDbLine
 10
125.8776266382
 20
206.4164131083
 30
0.0
 11
141.8583887518
 21
206.4164131083
 31
0.0
  0
LINE
  5
168
330
108
100
AcDbEntity
  8
$DDT_AUDIT_GENERATED_(DE)
  6
Continuous
 62
     7
100
AcDbLine
 10
89.7138518228
 20
206.4164131083
 30
0.0
 11
89.6468645247
 21
206.4164131083
 31
0.0
  0
LINE
  5
169
330
108
100
AcDbEntity
  8
$DDT_AUDIT_GENERATED_(DE)
  6
Continuous
 62
     7
100
AcDbLine
 10
89.7138518228
 20
206.4164131083
 30
0.0
 11
96.2138518228
 21
206.4164131083
 31
0.0
  0
LINE
  5
16A
330
108
100
AcDbEntity
  8
$DDT_AUDIT_GENERATED_(DE)
  6
Continuous
 62
     7
100
AcDbLine
 10
96.2138518228
 20
206.4164131083
 30
0.0
 11
96.8968645247
 21
206.4164131083
 31
0.0
  0
LINE
  5
16B
330
108
100
AcDbEntity
  8
$DDT_AUDIT_GENERATED_(DE)
  6
Continuous
 62
     7
100
AcDbLine
 10
96.8968645247
 20
206.4164131083
 30
0.0
 11
112.8776266382
 21
206.4164131083
 31
0.0
  0
LINE
  5
16C
330
108
100
AcDbEntity
  8
$DDT_AUDIT_GENERATED_(DE)
  6
Continuous
 62
     7
100
AcDbLine
 10
112.8776266382
 20
206.4164131083
 30
0.0
 11
116.6191179988
 21
206.4164131083
 31
0.0
  0
ELLIPSE
  5
16D
330
108
100
AcDbEntity
  8
$DDT_AUDIT_GENERATED_(DE)
  6
Continuous
 62
     7
100
AcDbEllipse
 10
122.8782115426
 20
3401.8176572942
 30
0.0
 11
-0.0001541031438290208
 21
-3203.393593649582
 31
0.0
210
0.0
220
0.0
230
1.0
 40
0.866026362
 41
0.0037854817793328
 42
0.0093666985856125
  0
ARC
  5
16E
330
108
100
AcDbEntity
  8
$DDT_AUDIT_GENERATED_(DE)
  6
Continuous
 62
     7
100
AcDbCircle
 10
149.0376317497
 20
195.0567058044
 30
0.0
 40
3.51222504446581
100
AcDbArc
 50
89.2142374088
 51
92.8501332333
  0
ARC
  5
16F
330
108
100
AcDbEntity
  8
$DDT_AUDIT_GENERATED_(DE)
  6
Continuous
 62
     7
100
AcDbCircle
 10
145.7955248584
 20
999.3823782729
 30
0.0
 40
800.820719602371
100
AcDbArc
 50
269.7674375059
 51
270.2325624941
  0
ELLIPSE
  5
170
330
108
100
AcDbEntity
  8
$DDT_AUDIT_GENERATED_(DE)
  6
Continuous
 62
     7
100
AcDbEllipse
 10
115.8771174969
 20
3401.8182786897
 30
0.0
 11
-0.0001489476973981496
 21
-3203.394215010771
 31
0.0
210
0.0
220
0.0
230
0.9999999999999999
 40
0.866026278
 41
0.0036052229417584
 42
0.0093666962832288
  0
ELLIPSE
  5
171
330
108
100
AcDbEntity
  8
$DDT_AUDIT_GENERATED_(DE)
  6
Continuous
 62
     7
100
AcDbEllipse
 10
115.8770441828
 20
3401.8184646798
 30
0.0
 11
0.0001443041807713819
 21
-3203.394401136573
 31
0.0
210
0.0
220
0.0
230
1.0
 40
0.8660262528
 41
6.273818612423185
 42
6.279399825628781
  0
ELLIPSE
  5
172
330
108
100
AcDbEntity
  8
$DDT_AUDIT_GENERATED_(DE)
  6
Continuous
 62
     7
100
AcDbEllipse
 10
122.8781381602
 20
3401.8183919979
 30
0.0
 11
0.0001394248433234102
 21
-3203.394328343383
 31
0.0
210
0.0
220
0.0
230
1.0
 40
0.8660262627
 41
6.273818613636285
 42
6.279580086875907
  0
ARC
  5
173
330
108
100
AcDbEntity
  8
$DDT_AUDIT_GENERATED_(DE)
  6
Continuous
 62
     7
100
AcDbCircle
 10
89.7174921376
 20
195.0487937937
 30
0.0
 40
3.520133711700478
100
AcDbArc
 50
87.1541668048
 51
90.595132287
  0
ARC
  5
174
330
108
100
AcDbEntity
  8
$DDT_AUDIT_GENERATED_(DE)
  6
Continuous
 62
     7
100
AcDbCircle
 10
92.9597284181
 20
999.3823782729
 30
0.0
 40
800.8207196023899
100
AcDbArc
 50
269.7674375059
 51
270.2325624941
  0
LINE
  5
175
330
108
100
AcDbEntity
  8
$DDT_AUDIT_GENERATED_(DE)
  6
Continuous
 62
     7
100
AcDbLine
 10
122.1361352776
 20
206.4164131083
 30
0.0
 11
125.8776266382
 21
206.4164131083
 31
0.0
  0
ARC
  5
176
330
108
100
AcDbEntity
  8
$DDT_AUDIT_GENERATED_(DE)
  6
Continuous
 62
     7
100
AcDbCircle
 10
122.4128954966
 20
185.887796542
 30
0.0
 40
20.53048207781154
100
AcDbArc
 50
90.7723965141
 51
91.7358834313
  0
ARC
  5
177
330
108
100
AcDbEntity
  8
$DDT_AUDIT_GENERATED_(DE)
  6
Continuous
 62
     7
100
AcDbCircle
 10
122.4128954966
 20
185.887796542
 30
0.0
 40
20.53048207781154
100
AcDbArc
 50
91.7358834313
 51
94.8248763184
  0
ARC
  5
178
330
108
100
AcDbEntity
  8
$DDT_AUDIT_GENERATED_(DE)
  6
Continuous
 62
     7
100
AcDbCircle
 10
119.3776266382
 20
236.4082044922
 30
0.0
 40
30.09113760547444
100
AcDbArc
 50
267.5078464494
 51
272.4921535506
  0
ARC
  5
179
330
108
100
AcDbEntity
  8
$DDT_AUDIT_GENERATED_(DE)
  6
Continuous
 62
     7
100
AcDbCircle
 10
116.3420389121
 20
185.8812736352
 30
0.0
 40
20.53700869166294
100
AcDbArc
 50
85.1757678844
 51
87.9498758171
  0
ARC
  5
17A
330
108
100
AcDbEntity
  8
$DDT_AUDIT_GENERATED_(DE)
  6
Continuous
 62
     7
100
AcDbCircle
 10
116.3420389121
 20
185.8812736352
 30
0.0
 40
20.53700869166294
100
AcDbArc
 50
87.9498758171
 51
89.226959283
  0
LINE
  5
17B
330
108
100
AcDbEntity
  8
$DDT_AUDIT_GENERATED_(DE)
  6
Continuous
 62
     7
100
AcDbLine
 10
129.6276266382
 20
206.9164131083
 30
0.0
 11
129.6276266382
 21
225.9164131083
 31
0.0
  0
LINE
  5
17C
330
108
100
AcDbEntity
  8
$DDT_AUDIT_GENERATED_(DE)
  6
Continuous
 62
     7
100
AcDbLine
 10
109.1276266382
 20
225.9164131083
 30
0.0
 11
109.1276266382
 21
206.9164131083
 31
0.0
  0
ARC
  5
17D
330
108
100
AcDbEntity
  8
$DDT_AUDIT_GENERATED_(DE)
  6
Continuous
 62
     7
100
AcDbCircle
 10
119.3776266382
 20
3401.8247464416
 30
0.0
 40
3203.408333333316
100
AcDbArc
 50
270.2426007543
 51
270.2504422181
  0
ARC
  5
17E
330
108
100
AcDbEntity
  8
$DDT_AUDIT_GENERATED_(DE)
  6
Continuous
 62
     7
100
AcDbCircle
 10
119.3776266382
 20
3401.8247464416
 30
0.0
 40
3203.408333333316
100
AcDbArc
 50
269.7574571174
 51
270.2426007543
  0
ARC
  5
17F
330
108
100
AcDbEntity
  8
$DDT_AUDIT_GENERATED_(DE)
  6
Continuous
 62
     7
100
AcDbCircle
 10
119.3776266382
 20
3401.8247464416
 30
0.0
 40
3203.408333333316
100
AcDbArc
 50
269.7495577819
 51
269.7574571174
  0
LINE
  5
180
330
108
100
AcDbEntity
  8
$DDT_AUDIT_GENERATED_(DE)
  6
Continuous
 62
     7
100
AcDbLine
 10
89.1468645247
 20
205.9164131083
 30
0.0
 11
89.1468645247
 21
199.0680868446
 31
0.0
  0
LINE
  5
181
330
108
100
AcDbEntity
  8
$DDT_AUDIT_GENERATED_(DE)
  6
Continuous
 62
     7
100
AcDbLine
 10
149.6083887518
 20
199.068047347
 30
0.0
 11
149.6083887518
 21
205.9164131083
 31
0.0
  0
ARC
  5
182
330
108
100
AcDbEntity
  8
$DDT_AUDIT_GENERATED_(DE)
  6
Continuous
 62
     7
100
AcDbCircle
 10
149.1083887518
 20
205.9164131083
 30
0.0
 40
0.4999999999999866
100
AcDbArc
 50
0.0
 51
90.0
  0
ARC
  5
183
330
108
100
AcDbEntity
  8
$DDT_AUDIT_GENERATED_(DE)
  6
Continuous
 62
     7
100
AcDbCircle
 10
89.6468645247
 20
205.9164131083
 30
0.0
 40
0.5000000000000004
100
AcDbArc
 50
90.0
 51
180.0
  0
SPLINE
  5
184
330
108
100
AcDbEntity
  8
$DDT_AUDIT_GENERATED_(DE)
  6
Continuous
 62
     7
100
AcDbSpline
210
0.0
220
0.0
230
1.0
 70
     8
 71
     3
 72
    17
 73
    13
 74
     0
 42
0.0000000121441855
 43
0.0000000001
 40
0.0
 40
0.0
 40
0.0
 40
0.0
 40
0.0991102987638844
 40
0.136723531382334
 40
0.1571777148458633
 40
0.1763913962211453
 40
0.2264801082717177
 40
0.3609776176109443
 40
0.5738226397738997
 40
0.7619296113746912
 40
0.9599790261166131
 40
1.0
 40
1.0
 40
1.0
 40
1.0
 10
149.0829309965996
 20
198.5674391633611
 30
0.0
 10
149.0958030719376
 20
198.5676042769137
 30
0.0
 10
149.112105042128
 20
198.5678774884304
 30
0.0
 10
149.1237531456145
 20
198.5682399843802
 30
0.0
 10
149.1353029035912
 20
198.5687448105624
 30
0.0
 10
149.1580027526705
 20
198.5702677253931
 30
0.0
 10
149.2200553480042
 20
198.5780697427851
 30
0.0
 10
149.3341315366391
 20
198.612729928155
 30
0.0
 10
149.4715755822316
 20
198.7076287278296
 30
0.0
 10
149.5702004700947
 20
198.8573834254172
 30
0.0
 10
149.6151809439628
 20
198.98901988004
 30
0.0
 10
149.6046322940309
 20
199.0560495927178
 30
0.0
 10
149.602513763815
 20
199.069108413954
 30
0.0
  0
SPLINE
  5
185
330
108
100
AcDbEntity
  8
$DDT_AUDIT_GENERATED_(DE)
  6
Continuous
 62
     7
100
AcDbSpline
210
0.0
220
0.0
230
1.0
 70
     8
 71
     3
 72
    20
 73
    16
 74
     0
 42
0.0000000120277214
 43
0.0000000001
 40
0.0
 40
0.0
 40
0.0
 40
0.0
 40
0.06328803033979
 40
0.2474548472476304
 40
0.3950983143147644
 40
0.5195044217655693
 40
0.6237953611979884
 40
0.7077372607527134
 40
0.7696929250206113
 40
0.8005411700757692
 40
0.8167380295198584
 40
0.8306993333320392
 40
0.8523619164328428
 40
0.9049633340727592
 40
1.0
 40
1.0
 40
1.0
 40
1.0
 10
89.15415671462748
 20
199.0679651337821
 30
0.0
 10
89.15181544627434
 20
199.0464301947758
 30
0.0
 10
89.1445527614679
 20
198.9739138509389
 30
0.0
 10
89.18956168765632
 20
198.8500391487473
 30
0.0
 10
89.26859596926414
 20
198.7326356630817
 30
0.0
 10
89.358421677358
 20
198.6550717137066
 30
0.0
 10
89.44420416153756
 20
198.6081923976026
 30
0.0
 10
89.51838983012165
 20
198.583306920431
 30
0.0
 10
89.57224506795727
 20
198.5730319760503
 30
0.0
 10
89.6056968219697
 20
198.5696619525497
 30
0.0
 10
89.62028568740924
 20
198.5687501219371
 30
0.0
 10
89.6285209179751
 20
198.568363135999
 30
0.0
 10
89.63782667645812
 20
198.5680383299773
 30
0.0
 10
89.64924339307315
 20
198.5677380483832
 30
0.0
 10
89.67047503030481
 20
198.5674192640894
 30
0.0
 10
89.68606011997667
 20
198.5672062495937
 30
0.0
  0
ARC
  5
186
330
108
100
AcDbEntity
  8
$DDT_AUDIT_GENERATED_(DE)
  6
Continuous
 62
     7
100
AcDbCircle
 10
108.6276266382
 20
206.9164131083
 30
0.0
 40
0.5000000000000004
100
AcDbArc
 50
270.0
 51
0.0
  0
ARC
  5
187
330
108
100
AcDbEntity
  8
$DDT_AUDIT_GENERATED_(DE)
  6
Continuous
 62
     7
100
AcDbCircle
 10
130.1276266382
 20
206.9164131083
 30
0.0
 40
0.5000000000000004
100
AcDbArc
 50
180.0
 51
270.0
  0
LINE
  5
189
330
108
100
AcDbEntity
  8
DV2_Default
  6
Continuous
 62
     7
100
AcDbLine
 10
101.3776266382
 20
286.4164131083
 30
0.0
 11
137.3776266382
 21
286.4164131083
 31
0.0
  0
LINE
  5
18A
330
108
100
AcDbEntity
  8
DV2_Default
  6
Continuous
 62
     7
100
AcDbLine
 10
301.3776266382
 20
286.4164131083
 30
0.0
 11
337.3776266382
 21
286.4164131083
 31
0.0
  0
ENDBLK
  5
18C
330
108
100
AcDbEntity
  8
0
100
AcDbBlockEnd
  0
BLOCK
  5
1D3
330
18D
100
AcDbEntity
  8
0
100
AcDbBlockBegin
  2
SE2
 70
     0
 10
0.0
 20
0.0
 30
0.0
  3
SE2
  1

  0
LINE
  5
18F
330
18D
100
AcDbEntity
  8
$DDT_AUDIT_GENERATED_(97)
  6
Continuous
 62
     7
100
AcDbLine
 10
651.0646186308
 20
563.8200184786
 30
0.0
 11
651.0646186308
 21
564.2199575566
 31
0.0
  0
LINE
  5
190
330
18D
100
AcDbEntity
  8
$DDT_AUDIT_GENERATED_(97)
  6
Continuous
 62
     7
100
AcDbLine
 10
649.8855615185
 20
562.6202012444
 30
0.0
 11
636.0646186308
 21
562.3789557889
 31
0.0
  0
LINE
  5
191
330
18D
100
AcDbEntity
  8
$DDT_AUDIT_GENERATED_(97)
  6
Continuous
 62
     7
100
AcDbLine
 10
636.0646186308
 20
563.9787121012
 30
0.0
 11
636.0646186308
 21
630.7791994767
 31
0.0
  0
LINE
  5
192
330
18D
100
AcDbEntity
  8
$DDT_AUDIT_GENERATED_(97)
  6
Continuous
 62
     7
100
AcDbLine
 10
636.0646186308
 20
562.3789557889
 30
0.0
 11
636.0646186308
 21
563.9787121012
 31
0.0
  0
ARC
  5
193
330
18D
100
AcDbEntity
  8
$DDT_AUDIT_GENERATED_(97)
  6
Continuous
 62
     7
100
AcDbCircle
 10
649.8646186308
 20
563.8200184786
 30
0.0
 40
1.2
100
AcDbArc
 50
271.0
 51
0.0
  0
LINE
  5
194
330
18D
100
AcDbEntity
  8
$DDT_AUDIT_GENERATED_(97)
  6
Continuous
 62
     7
100
AcDbLine
 10
651.0646186308
 20
630.5379540212
 30
0.0
 11
651.0646186308
 21
564.2199575566
 31
0.0
  0
LINE
  5
195
330
18D
100
AcDbEntity
  8
$DDT_AUDIT_GENERATED_(97)
  6
Continuous
 62
     7
100
AcDbLine
 10
651.0646186308
 20
630.5379540212
 30
0.0
 11
651.0646186308
 21
630.9378930993
 31
0.0
  0
ARC
  5
196
330
18D
100
AcDbEntity
  8
$DDT_AUDIT_GENERATED_(97)
  6
Continuous
 62
     7
100
AcDbCircle
 10
649.8646186308
 20
630.9378930993
 30
0.0
 40
1.199999999999999
100
AcDbArc
 50
0.0
 51
89.0
  0
LINE
  5
197
330
18D
100
AcDbEntity
  8
$DDT_AUDIT_GENERATED_(97)
  6
Continuous
 62
     7
100
AcDbLine
 10
636.0646186308
 20
630.7791994767
 30
0.0
 11
636.0646186308
 21
632.3789557889
 31
0.0
  0
LINE
  5
198
330
18D
100
AcDbEntity
  8
$DDT_AUDIT_GENERATED_(97)
  6
Continuous
 62
     7
100
AcDbLine
 10
636.0646186308
 20
632.3789557889
 30
0.0
 11
649.8855615185
 21
632.1377103334
 31
0.0
  0
LINE
  5
199
330
18D
100
AcDbEntity
  8
$DDT_AUDIT_GENERATED_(AB)
  6
Continuous
 62
     7
100
AcDbLine
 10
651.3646186308
 20
623.5789557889
 30
0.0
 11
651.3646186308
 21
571.1789557889
 31
0.0
  0
LINE
  5
19A
330
18D
100
AcDbEntity
  8
$DDT_AUDIT_GENERATED_(AB)
  6
Continuous
 62
     7
100
AcDbLine
 10
651.0646186308
 20
571.1789557889
 30
0.0
 11
651.3646186308
 21
571.1789557889
 31
0.0
  0
LINE
  5
19B
330
18D
100
AcDbEntity
  8
$DDT_AUDIT_GENERATED_(AB)
  6
Continuous
 62
     7
100
AcDbLine
 10
651.3646186308
 20
623.5789557889
 30
0.0
 11
651.0646186308
 21
623.5789557889
 31
0.0
  0
LINE
  5
19C
330
18D
100
AcDbEntity
  8
$DDT_AUDIT_GENERATED_(B0)
  6
Continuous
 62
     7
100
AcDbLine
 10
692.3646186308
 20
579.8789557889
 30
0.0
 11
692.3646186308
 21
614.8789557889
 31
0.0
  0
LINE
  5
19D
330
18D
100
AcDbEntity
  8
$DDT_AUDIT_GENERATED_(B0)
  6
Continuous
 62
     7
100
AcDbLine
 10
651.3646186308
 20
579.3789557889
 30
0.0
 11
691.8646186308
 21
579.3789557889
 31
0.0
  0
LINE
  5
19E
330
18D
100
AcDbEntity
  8
$DDT_AUDIT_GENERATED_(B0)
  6
Continuous
 62
     7
100
AcDbLine
 10
691.8646186308
 20
615.3789557889
 30
0.0
 11
651.3646186308
 21
615.3789557889
 31
0.0
  0
ARC
  5
19F
330
18D
100
AcDbEntity
  8
$DDT_AUDIT_GENERATED_(B0)
  6
Continuous
 62
     7
100
AcDbCircle
 10
691.8646186308
 20
579.8789557889
 30
0.0
 40
0.5000000000000004
100
AcDbArc
 50
270.0
 51
0.0
  0
ARC
  5
1A0
330
18D
100
AcDbEntity
  8
$DDT_AUDIT_GENERATED_(B0)
  6
Continuous
 62
     7
100
AcDbCircle
 10
691.8646186308
 20
614.8789557889
 30
0.0
 40
0.5000000000000004
100
AcDbArc
 50
0.0
 51
90.0
  0
LINE
  5
1A1
330
18D
100
AcDbEntity
  8
$DDT_AUDIT_GENERATED_(BF)
  6
Continuous
 62
     7
100
AcDbLine
 10
651.4646186308
 20
623.2789557889
 30
0.0
 11
651.4646186308
 21
615.3789557889
 31
0.0
  0
LINE
  5
1A2
330
18D
100
AcDbEntity
  8
$DDT_AUDIT_GENERATED_(BF)
  6
Continuous
 62
     7
100
AcDbLine
 10
651.4646186308
 20
579.3789557889
 30
0.0
 11
651.4646186308
 21
571.4789557889
 31
0.0
  0
ARC
  5
1A3
330
18D
100
AcDbEntity
  8
$DDT_AUDIT_GENERATED_(BF)
  6
Continuous
 62
     7
100
AcDbCircle
 10
651.1646186308
 20
571.4789557889
 30
0.0
 40
0.3000000000000017
100
AcDbArc
 50
311.8103148956
 51
0.0
  0
ARC
  5
1A4
330
18D
100
AcDbEntity
  8
$DDT_AUDIT_GENERATED_(BF)
  6
Continuous
 62
     7
100
AcDbCircle
 10
651.1646186308
 20
623.2789557889
 30
0.0
 40
0.2999999999999947
100
AcDbArc
 50
0.0
 51
48.1896851044
  0
LINE
  5
1A5
330
18D
100
AcDbEntity
  8
$DDT_AUDIT_GENERATED_(C2)
  6
Continuous
 62
     7
100
AcDbLine
 10
775.8799178388
 20
590.8789557889
 30
0.0
 11
724.0580240854
 21
590.8789557889
 31
0.0
  0
LINE
  5
1A6
330
18D
100
AcDbEntity
  8
$DDT_AUDIT_GENERATED_(C2)
  6
Continuous
 62
     7
100
AcDbLine
 10
724.0580240854
 20
603.8789557889
 30
0.0
 11
775.8799178388
 21
603.8789557889
 31
0.0
  0
ARC
  5
1A7
330
18D
100
AcDbEntity
  8
$DDT_AUDIT_GENERATED_(C2)
  6
Continuous
 62
     7
100
AcDbCircle
 10
774.5216381704
 20
564.9144593304
 30
0.0
 40
25.99999999999999
100
AcDbArc
 50
6.2718476738
 51
87.0054178827
  0
ARC
  5
1A8
330
18D
100
AcDbEntity
  8
$DDT_AUDIT_GENERATED_(C2)
  6
Continuous
 62
     7
100
AcDbCircle
 10
775.8799178388
 20
565.3789557889
 30
0.0
 40
38.50000000000001
100
AcDbArc
 50
5.0
 51
90.0
  0
LINE
  5
1A9
330
18D
100
AcDbEntity
  8
$DDT_AUDIT_GENERATED_(C2)
  6
Continuous
 62
     7
100
AcDbLine
 10
800.8491999935
 20
562.2321006416
 30
0.0
 11
800.3660217616
 21
567.754853104
 31
0.0
  0
LINE
  5
1AA
330
18D
100
AcDbEntity
  8
$DDT_AUDIT_GENERATED_(C2)
  6
Continuous
 62
     7
100
AcDbLine
 10
814.2334137153
 20
568.7344518847
 30
0.0
 11
814.696306297
 21
563.4435654658
 31
0.0
  0
LINE
  5
1AB
330
18D
100
AcDbEntity
  8
$DDT_AUDIT_GENERATED_(C2)
  6
Continuous
 62
     7
100
AcDbLine
 10
814.2417868193
 20
562.9018902454
 30
0.0
 11
801.3908752139
 21
561.777581164
 31
0.0
  0
ARC
  5
1AC
330
18D
100
AcDbEntity
  8
$DDT_AUDIT_GENERATED_(C2)
  6
Continuous
 62
     7
100
AcDbCircle
 10
814.1982089479
 20
563.3999875945
 30
0.0
 40
0.5000000000000058
100
AcDbArc
 50
275.0
 51
5.0
  0
LINE
  5
1AD
330
18D
100
AcDbEntity
  8
$DDT_AUDIT_GENERATED_(C2)
  6
Continuous
 62
     7
100
AcDbLine
 10
800.3660217616
 20
567.754853104
 30
0.0
 11
800.8636377251
 21
567.8039332369
 31
0.0
  0
LINE
  5
1AE
330
18D
100
AcDbEntity
  8
$DDT_AUDIT_GENERATED_(C2)
  6
Continuous
 62
     7
100
AcDbLine
 10
775.8799178388
 20
590.8789557889
 30
0.0
 11
775.8929248651
 21
591.3789557889
 31
0.0
  0
ARC
  5
1AF
330
18D
100
AcDbEntity
  8
$DDT_AUDIT_GENERATED_(C2)
  6
Continuous
 62
     7
100
AcDbCircle
 10
801.3472973426
 20
562.275678513
 30
0.0
 40
0.5000000000000052
100
AcDbArc
 50
185.0
 51
275.0
  0
LINE
  5
1B0
330
18D
100
AcDbEntity
  8
$DDT_AUDIT_GENERATED_(DA)
  6
Continuous
 62
     7
100
AcDbLine
 10
696.5646186308
 20
583.0289557889
 30
0.0
 11
696.5646186308
 21
611.7289557889
 31
0.0
  0
LINE
  5
1B1
330
18D
100
AcDbEntity
  8
$DDT_AUDIT_GENERATED_(DA)
  6
Continuous
 62
     7
100
AcDbLine
 10
692.3646186308
 20
582.5289557889
 30
0.0
 11
696.0646186308
 21
582.5289557889
 31
0.0
  0
LINE
  5
1B2
330
18D
100
AcDbEntity
  8
$DDT_AUDIT_GENERATED_(DA)
  6
Continuous
 62
     7
100
AcDbLine
 10
696.0646186308
 20
612.2289557889
 30
0.0
 11
692.3646186308
 21
612.2289557889
 31
0.0
  0
ARC
  5
1B3
330
18D
100
AcDbEntity
  8
$DDT_AUDIT_GENERATED_(DA)
  6
Continuous
 62
     7
100
AcDbCircle
 10
696.0646186308
 20
583.0289557889
 30
0.0
 40
0.5000000000000004
100
AcDbArc
 50
270.0
 51
0.0
  0
ARC
  5
1B4
330
18D
100
AcDbEntity
  8
$DDT_AUDIT_GENERATED_(DA)
  6
Continuous
 62
     7
100
AcDbCircle
 10
696.0646186308
 20
611.7289557889
 30
0.0
 40
0.5000000000000004
100
AcDbArc
 50
0.0
 51
90.0
  0
LINE
  5
1B5
330
18D
100
AcDbEntity
  8
$DDT_AUDIT_GENERATED_(DE)
  6
Continuous
 62
     7
100
AcDbLine
 10
716.0646186308
 20
566.8789557889
 30
0.0
 11
716.0646186308
 21
567.3789557889
 31
0.0
  0
LINE
  5
1B6
330
18D
100
AcDbEntity
  8
$DDT_AUDIT_GENERATED_(DE)
  6
Continuous
 62
     7
100
AcDbLine
 10
716.0646186308
 20
567.3789557889
 30
0.0
 11
716.0646186308
 21
585.8319504051
 31
0.0
  0
LINE
  5
1B7
330
18D
100
AcDbEntity
  8
$DDT_AUDIT_GENERATED_(DE)
  6
Continuous
 62
     7
100
AcDbLine
 10
716.0646186308
 20
585.8319504051
 30
0.0
 11
716.0646186308
 21
589.7949924452
 31
0.0
  0
LINE
  5
1B8
330
18D
100
AcDbEntity
  8
$DDT_AUDIT_GENERATED_(DE)
  6
Continuous
 62
     7
100
AcDbLine
 10
716.0646186308
 20
597.0902806543
 30
0.0
 11
716.0646186308
 21
606.3167779624
 31
0.0
  0
LINE
  5
1B9
330
18D
100
AcDbEntity
  8
$DDT_AUDIT_GENERATED_(DE)
  6
Continuous
 62
     7
100
AcDbLine
 10
716.0646186308
 20
606.3167779624
 30
0.0
 11
716.0646186308
 21
606.9997906643
 31
0.0
  0
LINE
  5
1BA
330
18D
100
AcDbEntity
  8
$DDT_AUDIT_GENERATED_(DE)
  6
Continuous
 62
     7
100
AcDbLine
 10
716.0646186308
 20
606.9997906643
 30
0.0
 11
716.0646186308
 21
618.2581209135
 31
0.0
  0
LINE
  5
1BB
330
18D
100
AcDbEntity
  8
$DDT_AUDIT_GENERATED_(DE)
  6
Continuous
 62
     7
100
AcDbLine
 10
716.0646186308
 20
618.2581209135
 30
0.0
 11
716.0646186308
 21
618.5081209135
 31
0.0
  0
ARC
  5
1BC
330
18D
100
AcDbEntity
  8
$DDT_AUDIT_GENERATED_(DE)
  6
Continuous
 62
     7
100
AcDbCircle
 10
716.5646186308
 20
566.8789557889
 30
0.0
 40
0.5000000000000004
100
AcDbArc
 50
180.0
 51
270.0
  0
LINE
  5
1BD
330
18D
100
AcDbEntity
  8
$DDT_AUDIT_GENERATED_(DE)
  6
Continuous
 62
     7
100
AcDbLine
 10
724.0361503469
 20
609.2164839532
 30
0.0
 11
724.0487103952
 21
607.4745429342
 31
0.0
  0
ELLIPSE
  5
1BE
330
18D
100
AcDbEntity
  8
$DDT_AUDIT_GENERATED_(DE)
  6
Continuous
 62
     7
100
AcDbEllipse
 10
-2479.3374329407
 20
591.3158524354
 30
0.0
 11
3203.394401068945
 21
-2.777042420268199E-5
 31
0.0
210
0.0
220
0.0
230
1.0
 40
0.5000004902
 41
0.0036051869042264
 42
0.0093666600786792
  0
ELLIPSE
  5
1BF
330
18D
100
AcDbEntity
  8
$DDT_AUDIT_GENERATED_(DE)
  6
Continuous
 62
     7
100
AcDbEllipse
 10
-2479.3373602588
 20
603.4421000952
 30
0.0
 11
3203.394328387252
 21
-2.683242274666025E-5
 31
0.0
210
0.0
220
0.0
230
1.0
 40
0.5000004959
 41
0.003605186798722
 42
0.0093666600384854
  0
ARC
  5
1C0
330
18D
100
AcDbEntity
  8
$DDT_AUDIT_GENERATED_(DE)
  6
Continuous
 62
     7
100
AcDbCircle
 10
-1678.5295919722
 20
612.6313364379
 30
0.0
 40
2402.448965058899
100
AcDbArc
 50
359.8657294898
 51
0.1342705102
  0
LINE
  5
1C1
330
18D
100
AcDbEntity
  8
$DDT_AUDIT_GENERATED_(DE)
  6
Continuous
 62
     7
100
AcDbLine
 10
723.4127998855
 20
566.3789557889
 30
0.0
 11
716.5646186308
 21
566.3789557889
 31
0.0
  0
LINE
  5
1C2
330
18D
100
AcDbEntity
  8
$DDT_AUDIT_GENERATED_(DE)
  6
Continuous
 62
     7
100
AcDbLine
 10
723.4127998855
 20
566.3789557889
 30
0.0
 11
723.4193957594
 21
566.3789557889
 31
0.0
  0
ARC
  5
1C3
330
18D
100
AcDbEntity
  8
$DDT_AUDIT_GENERATED_(DE)
  6
Continuous
 62
     7
100
AcDbCircle
 10
723.4127998855
 20
566.8789557693
 30
0.0
 40
0.4999999803888787
100
AcDbArc
 50
270.0
 51
339.4377311342
  0
ARC
  5
1C4
330
18D
100
AcDbEntity
  8
$DDT_AUDIT_GENERATED_(DE)
  6
Continuous
 62
     7
100
AcDbCircle
 10
693.5916239024
 20
592.1699581916
 30
0.0
 40
22.57234040753461
100
AcDbArc
 50
357.1225149727
 51
2.8774850273
  0
ARC
  5
1C5
330
18D
100
AcDbEntity
  8
$DDT_AUDIT_GENERATED_(DE)
  6
Continuous
 62
     7
100
AcDbCircle
 10
731.2971654318
 20
589.5484251781
 30
0.0
 40
15.23454224656129
100
AcDbArc
 50
174.3933493783
 51
179.0726416077
  0
LINE
  5
1C6
330
18D
100
AcDbEntity
  8
$DDT_AUDIT_GENERATED_(DE)
  6
Continuous
 62
     7
100
AcDbLine
 10
716.0646186308
 20
594.5728695618
 30
0.0
 11
716.0646186308
 21
597.0902806543
 31
0.0
  0
ARC
  5
1C7
330
18D
100
AcDbEntity
  8
$DDT_AUDIT_GENERATED_(DE)
  6
Continuous
 62
     7
100
AcDbCircle
 10
731.6684362702
 20
594.8070985761
 30
0.0
 40
15.60557554705437
100
AcDbArc
 50
180.8600027511
 51
185.5305042946
  0
LINE
  5
1C8
330
18D
100
AcDbEntity
  8
$DDT_AUDIT_GENERATED_(DE)
  6
Continuous
 62
     7
100
AcDbLine
 10
715.7758098157
 20
607.6289557889
 30
0.0
 11
696.5646186308
 21
607.6289557889
 31
0.0
  0
LINE
  5
1C9
330
18D
100
AcDbEntity
  8
$DDT_AUDIT_GENERATED_(DE)
  6
Continuous
 62
     7
100
AcDbLine
 10
696.5646186308
 20
587.1289557889
 30
0.0
 11
715.5646186308
 21
587.1289557889
 31
0.0
  0
ARC
  5
1CA
330
18D
100
AcDbEntity
  8
$DDT_AUDIT_GENERATED_(DE)
  6
Continuous
 62
     7
100
AcDbCircle
 10
-2479.3437147025
 20
597.3789557889
 30
0.0
 40
3203.408333333316
100
AcDbArc
 50
359.4543872302
 51
0.1807211017
  0
LINE
  5
1CB
330
18D
100
AcDbEntity
  8
$DDT_AUDIT_GENERATED_(DE)
  6
Continuous
 62
     7
100
AcDbLine
 10
723.414277188
 20
619.0081209135
 30
0.0
 11
716.5646186308
 21
619.0081209135
 31
0.0
  0
LINE
  5
1CC
330
18D
100
AcDbEntity
  8
$DDT_AUDIT_GENERATED_(DE)
  6
Continuous
 62
     7
100
AcDbLine
 10
723.414307153
 20
619.0081209135
 30
0.0
 11
723.414277188
 21
619.0081209135
 31
0.0
  0
ARC
  5
1CD
330
18D
100
AcDbEntity
  8
$DDT_AUDIT_GENERATED_(DE)
  6
Continuous
 62
     7
100
AcDbCircle
 10
716.5646186308
 20
618.5081209135
 30
0.0
 40
0.5000000000000004
100
AcDbArc
 50
90.0
 51
180.0
  0
ARC
  5
1CE
330
18D
100
AcDbEntity
  8
$DDT_AUDIT_GENERATED_(DE)
  6
Continuous
 62
     7
100
AcDbCircle
 10
723.4193957594
 20
566.8789557889
 30
0.0
 40
0.4999999999999935
100
AcDbArc
 50
270.0000000001
 51
359.4543872302
  0
ARC
  5
1CF
330
18D
100
AcDbEntity
  8
$DDT_AUDIT_GENERATED_(DE)
  6
Continuous
 62
     7
100
AcDbCircle
 10
723.417563881
 20
618.5033689961
 30
0.0
 40
0.5016875431003899
100
AcDbArc
 50
353.8588389843
 51
90.3456783419
  0
SPLINE
  5
1D0
330
18D
100
AcDbEntity
  8
$DDT_AUDIT_GENERATED_(DE)
  6
Continuous
 62
     7
100
AcDbSpline
210
0.0
220
0.0
230
1.0
 70
     8
 71
     3
 72
    10
 73
     6
 74
     0
 42
0.0000000866957783
 43
0.0000000001
 40
0.0
 40
0.0
 40
0.0
 40
0.0
 40
0.1602324839486349
 40
0.5720766073440322
 40
0.7467863554475441
 40
0.7467863554475441
 40
0.7467863554475441
 40
0.7467863554475441
 10
716.0602943024658
 20
607.7518524487065
 30
0.0
 10
716.0598690157117
 20
607.7404164280596
 30
0.0
 10
716.0588841999225
 20
607.706164887961
 30
0.0
 10
716.0420864233549
 20
607.682105253563
 30
0.0
 10
716.0349600429272
 20
607.6750151155536
 30
0.0
 10
716.0341897199511
 20
607.6743266573219
 30
0.0
  0
ARC
  5
1D1
330
18D
100
AcDbEntity
  8
$DDT_AUDIT_GENERATED_(DE)
  6
Continuous
 62
     7
100
AcDbCircle
 10
715.7885919236
 20
608.1245461003
 30
0.0
 40
0.4952648212785898
100
AcDbArc
 50
268.7117791127
 51
299.9294603577
  0
ARC
  5
1D2
330
18D
100
AcDbEntity
  8
$DDT_AUDIT_GENERATED_(DE)
  6
Continuous
 62
     7
100
AcDbCircle
 10
715.5646186308
 20
586.6289557889
 30
0.0
 40
0.5000000000000022
100
AcDbArc
 50
0.0
 51
90.0
  0
ENDBLK
  5
1D4
330
18D
100
AcDbEntity
  8
0
100
AcDbBlockEnd
  0
ENDSEC
  0
SECTION
  2
ENTITIES
  0
INSERT
  5
5F
330
1F
100
AcDbEntity
  8
Default
100
AcDbBlockReference
  2
SEANNOT_GROUP
 10
0.0
 20
0.0
 30
0.0
  0
INSERT
  5
6A
330
1F
100
AcDbEntity
  8
Default
100
AcDbBlockReference
  2
SEANNOT_GROUP1
 10
0.0
 20
0.0
 30
0.0
  0
INSERT
  5
74
330
1F
100
AcDbEntity
  8
Default
100
AcDbBlockReference
  2
SEANNOT_GROUP2
 10
0.0
 20
0.0
 30
0.0
  0
INSERT
  5
7E
330
1F
100
AcDbEntity
  8
Default
100
AcDbBlockReference
  2
SEANNOT_GROUP3
 10
0.0
 20
0.0
 30
0.0
  0
INSERT
  5
84
330
1F
100
AcDbEntity
  8
Default
100
AcDbBlockReference
  2
SEANNOT_GROUP4
 10
0.0
 20
0.0
 30
0.0
  0
INSERT
  5
8A
330
1F
100
AcDbEntity
  8
Default
100
AcDbBlockReference
  2
SEANNOT_GROUP5
 10
0.0
 20
0.0
 30
0.0
  0
INSERT
  5
90
330
1F
100
AcDbEntity
  8
Default
100
AcDbBlockReference
  2
SEANNOT_GROUP6
 10
0.0
 20
0.0
 30
0.0
  0
INSERT
  5
96
330
1F
100
AcDbEntity
  8
Default
100
AcDbBlockReference
  2
SE
 10
0.0
 20
0.0
 30
0.0
  0
INSERT
  5
109
330
1F
100
AcDbEntity
  8
Default
100
AcDbBlockReference
  2
SE1
 10
0.0
 20
0.0
 30
0.0
  0
INSERT
  5
18E
330
1F
100
AcDbEntity
  8
Default
100
AcDbBlockReference
  2
SE2
 10
0.0
 20
0.0
 30
0.0
  0
TEXT
  5
1D6
330
1F
100
AcDbEntity
  8
Default
  6
Continuous
 62
     7
100
AcDbText
 10
5.9362635081
 20
53.4225120485
 30
0.0
 40
10.0
  1
Grohe AG^J
  7
SEACAD_seiso_ttf
 11
5.9362635081
 21
63.4225120485
 31
0.0
100
AcDbText
 73
     3
  0
TEXT
  5
1D7
330
1F
100
AcDbEntity
  8
Default
  6
Continuous
 62
     7
100
AcDbText
 10
5.9362635081
 20
37.0588756849
 30
0.0
 40
10.0
  1
 
  7
SEACAD_seiso_ttf
 11
5.9362635081
 21
47.0588756849
 31
0.0
100
AcDbText
 73
     3
  0
TEXT
  5
1D8
330
1F
100
AcDbEntity
  8
Default
  6
Continuous
 62
     7
100
AcDbText
 10
5.9362635081
 20
20.6952393213
 30
0.0
 40
10.0
  1
ecn: 
  7
SEACAD_seiso_ttf
 11
5.9362635081
 21
30.6952393213
 31
0.0
100
AcDbText
 73
     3
  0
TEXT
  5
1D9
330
1F
100
AcDbEntity
  8
Default
  6
Continuous
 62
     7
100
AcDbText
 10
5.9362635081
 20
4.3316029576
 30
0.0
 40
10.0
  1
unit: mm
  7
SEACAD_seiso_ttf
 11
5.9362635081
 21
14.3316029576
 31
0.0
100
AcDbText
 73
     3
  0
LINE
  5
1DA
330
1F
100
AcDbEntity
  8
Default
  6
Continuous
 62
     7
100
AcDbLine
 10
0.0
 20
0.0
 30
0.0
 11
100.0
 21
0.0
 31
0.0
  0
LINE
  5
1DB
330
1F
100
AcDbEntity
  8
Default
  6
Continuous
 62
     7
100
AcDbLine
 10
0.0
 20
0.0
 30
0.0
 11
0.0
 21
100.0
 31
0.0
  0
TEXT
  5
1DC
330
1F
100
AcDbEntity
  8
Default
  6
Continuous
 62
     7
100
AcDbText
 10
24.3923665681
 20
-18.2375342018
 30
0.0
 40
10.0
  1
100 mm
  7
SEACAD_seiso_ttf
 11
24.3923665681
 21
-8.2375342018
 31
0.0
100
AcDbText
 73
     3
  0
TEXT
  5
1DD
330
1F
100
AcDbEntity
  8
Default
  6
Continuous
 62
     7
100
AcDbText
 10
-7.6150308803
 20
24.6231930421
 30
0.0
 40
10.0
  1
100 mm
 50
90.0
  7
SEACAD_seiso_ttf
 11
-17.6150308803
 21
24.6231930421
 31
0.0
100
AcDbText
 73
     3
  0
TEXT
  5
1DE
330
1F
100
AcDbEntity
  8
Default
  6
Continuous
 62
     7
100
AcDbText
 10
28.4878128572
 20
20.0907663715
 30
0.0
 40
10.0
  1
217300
  7
SEACAD_seiso_ttf
 11
28.4878128572
 21
30.0907663715
 31
0.0
100
AcDbText
 73
     3
  0
TEXT
  5
1DF
330
1F
100
AcDbEntity
  8
Default
  6
Continuous
 62
     7
100
AcDbText
 10
5.9012241913
 20
36.7242780188
 30
0.0
 40
10.0
  1
20190000
  7
SEACAD_seiso_ttf
 11
5.9012241913
 21
46.7242780188
 31
0.0
100
AcDbText
 73
     3
  0
ENDSEC
  0
SECTION
  2
OBJECTS
  0
DICTIONARY
  5
C
330
0
100
AcDbDictionary
281
     1
  3
ACAD_GROUP
350
D
  3
ACAD_LAYOUT
350
1A
  3
ACAD_MLEADERSTYLE
350
1E3
  3
ACAD_MLINESTYLE
350
17
  3
ACAD_PLOTSETTINGS
350
19
  3
ACAD_PLOTSTYLENAME
350
E
  3
ACAD_SCALELIST
350
3B
  3
ACAD_TABLESTYLE
350
1E2
  3
ACAD_VISUALSTYLE
350
2A
  3
AcDbVariableDictionary
350
1E0
  0
DICTIONARY
  5
D
102
{ACAD_REACTORS
330
C
102
}
330
C
100
AcDbDictionary
281
     1
  0
DICTIONARY
  5
1A
102
{ACAD_REACTORS
330
C
102
}
330
C
100
AcDbDictionary
281
     1
  3
Layout1
350
1E
  3
Model
350
22
  0
DICTIONARY
  5
1E3
102
{ACAD_REACTORS
330
C
102
}
330
C
100
AcDbDictionary
281
     1
  0
DICTIONARY
  5
17
102
{ACAD_REACTORS
330
C
102
}
330
C
100
AcDbDictionary
281
     1
  3
Standard
350
18
  0
DICTIONARY
  5
19
102
{ACAD_REACTORS
330
C
102
}
330
C
100
AcDbDictionary
281
     1
  0
ACDBDICTIONARYWDFLT
  5
E
102
{ACAD_REACTORS
330
C
102
}
330
C
100
AcDbDictionary
281
     1
  3
Normal
350
F
100
AcDbDictionaryWithDefault
340
F
  0
DICTIONARY
  5
3B
102
{ACAD_REACTORS
330
C
102
}
330
C
100
AcDbDictionary
281
     1
  3
A0
350
3C
  3
A1
350
3D
  3
A2
350
3E
  3
A3
350
3F
  3
A4
350
40
  3
A5
350
41
  3
A6
350
42
  3
A7
350
43
  3
A8
350
44
  3
A9
350
45
  3
B0
350
46
  3
B1
350
47
  3
B2
350
48
  3
B3
350
49
  3
B4
350
4A
  3
B5
350
4B
  3
B6
350
4C
  3
B7
350
4D
  3
B8
350
4E
  3
B9
350
4F
  3
C0
350
50
  3
C1
350
51
  3
C2
350
52
  3
C3
350
53
  3
C4
350
54
  3
C5
350
55
  3
C6
350
56
  3
C7
350
57
  3
C8
350
58
  3
C9
350
59
  3
D0
350
5A
  3
D1
350
5B
  3
D2
350
5C
  0
DICTIONARY
  5
1E2
102
{ACAD_REACTORS
330
C
102
}
330
C
100
AcDbDictionary
281
     1
  0
DICTIONARY
  5
2A
102
{ACAD_REACTORS
330
C
102
}
330
C
100
AcDbDictionary
281
     1
  3
2dWireframe
350
2F
  3
3D Hidden
350
31
  3
3dWireframe
350
30
  3
Basic
350
32
  3
Brighten
350
36
  3
ColorChange
350
3A
  3
Conceptual
350
34
  3
Dim
350
35
  3
Facepattern
350
39
  3
Flat
350
2B
  3
FlatWithEdges
350
2C
  3
Gouraud
350
2D
  3
GouraudWithEdges
350
2E
  3
Linepattern
350
38
  3
Realistic
350
33
  3
Thicken
350
37
  0
DICTIONARY
  5
1E0
102
{ACAD_REACTORS
330
C
102
}
330
C
100
AcDbDictionary
281
     1
  3
CANNOSCALE
350
1E1
  3
PSOLHEIGHT
350
1E5
  3
PSOLWIDTH
350
1E4
  0
LAYOUT
  5
1E
102
{ACAD_REACTORS
330
1A
102
}
330
1A
100
AcDbPlotSettings
  1

  2
none_device
  4

  6

 40
0.0
 41
0.0
 42
0.0
 43
0.0
 44
0.0
 45
0.0
 46
0.0
 47
0.0
 48
0.0
 49
0.0
140
0.0
141
0.0
142
1.0
143
1.0
 70
   688
 72
     0
 73
     0
 74
     5
  7

 75
    16
147
1.0
148
0.0
149
0.0
100
AcDbLayout
  1
Layout1
 70
     1
 71
     1
 10
0.0
 20
0.0
 11
1682.0
 21
2378.0
 12
0.0
 22
0.0
 32
0.0
 14
0.0
 24
0.0
 34
0.0
 15
1682.0
 25
2378.0
 35
0.0
146
0.0
 13
0.0
 23
0.0
 33
0.0
 16
1.0
 26
0.0
 36
0.0
 17
0.0
 27
1.0
 37
0.0
 76
     0
330
1B
  0
LAYOUT
  5
22
102
{ACAD_REACTORS
330
1A
102
}
330
1A
100
AcDbPlotSettings
  1

  2
none_device
  4

  6

 40
0.0
 41
0.0
 42
0.0
 43
0.0
 44
0.0
 45
0.0
 46
0.0
 47
0.0
 48
0.0
 49
0.0
140
0.0
141
0.0
142
1.0
143
1.0
 70
  1712
 72
     0
 73
     0
 74
     0
  7

 75
     0
147
1.0
148
0.0
149
0.0
100
AcDbLayout
  1
Model
 70
     1
 71
     0
 10
0.0
 20
0.0
 11
1682.0
 21
2378.0
 12
0.0
 22
0.0
 32
0.0
 14
0.0
 24
0.0
 34
0.0
 15
1682.0
 25
2378.0
 35
0.0
146
0.0
 13
0.0
 23
0.0
 33
0.0
 16
1.0
 26
0.0
 36
0.0
 17
0.0
 27
1.0
 37
0.0
 76
     0
330
1F
331
29
  0
MLINESTYLE
  5
18
102
{ACAD_REACTORS
330
17
102
}
330
17
100
AcDbMlineStyle
  2
Standard
 70
     0
  3

 62
   256
 51
90.0
 52
90.0
 71
     2
 49
0.5
 62
   256
  6
BYLAYER
 49
-0.5
 62
   256
  6
BYLAYER
  0
ACDBPLACEHOLDER
  5
F
102
{ACAD_REACTORS
330
E
102
}
330
E
  0
SCALE
  5
3C
102
{ACAD_REACTORS
330
3B
102
}
330
3B
100
AcDbScale
 70
     0
300
1:1
140
1.0
141
1.0
290
     1
  0
SCALE
  5
3D
102
{ACAD_REACTORS
330
3B
102
}
330
3B
100
AcDbScale
 70
     0
300
1:2
140
1.0
141
2.0
290
     0
  0
SCALE
  5
3E
102
{ACAD_REACTORS
330
3B
102
}
330
3B
100
AcDbScale
 70
     0
300
1:4
140
1.0
141
4.0
290
     0
  0
SCALE
  5
3F
102
{ACAD_REACTORS
330
3B
102
}
330
3B
100
AcDbScale
 70
     0
300
1:5
140
1.0
141
5.0
290
     0
  0
SCALE
  5
40
102
{ACAD_REACTORS
330
3B
102
}
330
3B
100
AcDbScale
 70
     0
300
1:8
140
1.0
141
8.0
290
     0
  0
SCALE
  5
41
102
{ACAD_REACTORS
330
3B
102
}
330
3B
100
AcDbScale
 70
     0
300
1:10
140
1.0
141
10.0
290
     0
  0
SCALE
  5
42
102
{ACAD_REACTORS
330
3B
102
}
330
3B
100
AcDbScale
 70
     0
300
1:16
140
1.0
141
16.0
290
     0
  0
SCALE
  5
43
102
{ACAD_REACTORS
330
3B
102
}
330
3B
100
AcDbScale
 70
     0
300
1:20
140
1.0
141
20.0
290
     0
  0
SCALE
  5
44
102
{ACAD_REACTORS
330
3B
102
}
330
3B
100
AcDbScale
 70
     0
300
1:30
140
1.0
141
30.0
290
     0
  0
SCALE
  5
45
102
{ACAD_REACTORS
330
3B
102
}
330
3B
100
AcDbScale
 70
     0
300
1:40
140
1.0
141
40.0
290
     0
  0
SCALE
  5
46
102
{ACAD_REACTORS
330
3B
102
}
330
3B
100
AcDbScale
 70
     0
300
1:50
140
1.0
141
50.0
290
     0
  0
SCALE
  5
47
102
{ACAD_REACTORS
330
3B
102
}
330
3B
100
AcDbScale
 70
     0
300
1:100
140
1.0
141
100.0
290
     0
  0
SCALE
  5
48
102
{ACAD_REACTORS
330
3B
102
}
330
3B
100
AcDbScale
 70
     0
300
2:1
140
2.0
141
1.0
290
     0
  0
SCALE
  5
49
102
{ACAD_REACTORS
330
3B
102
}
330
3B
100
AcDbScale
 70
     0
300
4:1
140
4.0
141
1.0
290
     0
  0
SCALE
  5
4A
102
{ACAD_REACTORS
330
3B
102
}
330
3B
100
AcDbScale
 70
     0
300
8:1
140
8.0
141
1.0
290
     0
  0
SCALE
  5
4B
102
{ACAD_REACTORS
330
3B
102
}
330
3B
100
AcDbScale
 70
     0
300
10:1
140
10.0
141
1.0
290
     0
  0
SCALE
  5
4C
102
{ACAD_REACTORS
330
3B
102
}
330
3B
100
AcDbScale
 70
     0
300
100:1
140
100.0
141
1.0
290
     0
  0
SCALE
  5
4D
102
{ACAD_REACTORS
330
3B
102
}
330
3B
100
AcDbScale
 70
     0
300
1/128" = 1'-0"
140
0.0078125
141
12.0
290
     0
  0
SCALE
  5
4E
102
{ACAD_REACTORS
330
3B
102
}
330
3B
100
AcDbScale
 70
     0
300
1/64" = 1'-0"
140
0.015625
141
12.0
290
     0
  0
SCALE
  5
4F
102
{ACAD_REACTORS
330
3B
102
}
330
3B
100
AcDbScale
 70
     0
300
1/32" = 1'-0"
140
0.03125
141
12.0
290
     0
  0
SCALE
  5
50
102
{ACAD_REACTORS
330
3B
102
}
330
3B
100
AcDbScale
 70
     0
300
1/16" = 1'-0"
140
0.0625
141
12.0
290
     0
  0
SCALE
  5
51
102
{ACAD_REACTORS
330
3B
102
}
330
3B
100
AcDbScale
 70
     0
300
3/32" = 1'-0"
140
0.09375
141
12.0
290
     0
  0
SCALE
  5
52
102
{ACAD_REACTORS
330
3B
102
}
330
3B
100
AcDbScale
 70
     0
300
1/8" = 1'-0"
140
0.125
141
12.0
290
     0
  0
SCALE
  5
53
102
{ACAD_REACTORS
330
3B
102
}
330
3B
100
AcDbScale
 70
     0
300
3/16" = 1'-0"
140
0.1875
141
12.0
290
     0
  0
SCALE
  5
54
102
{ACAD_REACTORS
330
3B
102
}
330
3B
100
AcDbScale
 70
     0
300
1/4" = 1'-0"
140
0.25
141
12.0
290
     0
  0
SCALE
  5
55
102
{ACAD_REACTORS
330
3B
102
}
330
3B
100
AcDbScale
 70
     0
300
3/8" = 1'-0"
140
0.375
141
12.0
290
     0
  0
SCALE
  5
56
102
{ACAD_REACTORS
330
3B
102
}
330
3B
100
AcDbScale
 70
     0
300
1/2" = 1'-0"
140
0.5
141
12.0
290
     0
  0
SCALE
  5
57
102
{ACAD_REACTORS
330
3B
102
}
330
3B
100
AcDbScale
 70
     0
300
3/4" = 1'-0"
140
0.75
141
12.0
290
     0
  0
SCALE
  5
58
102
{ACAD_REACTORS
330
3B
102
}
330
3B
100
AcDbScale
 70
     0
300
1" = 1'-0"
140
1.0
141
12.0
290
     0
  0
SCALE
  5
59
102
{ACAD_REACTORS
330
3B
102
}
330
3B
100
AcDbScale
 70
     0
300
1-1/2" = 1'-0"
140
1.5
141
12.0
290
     0
  0
SCALE
  5
5A
102
{ACAD_REACTORS
330
3B
102
}
330
3B
100
AcDbScale
 70
     0
300
3" = 1'-0"
140
3.0
141
12.0
290
     0
  0
SCALE
  5
5B
102
{ACAD_REACTORS
330
3B
102
}
330
3B
100
AcDbScale
 70
     0
300
6" = 1'-0"
140
6.0
141
12.0
290
     0
  0
SCALE
  5
5C
102
{ACAD_REACTORS
330
3B
102
}
330
3B
100
AcDbScale
 70
     0
300
1'-0" = 1'-0"
140
12.0
141
12.0
290
     0
  0
VISUALSTYLE
  5
2F
102
{ACAD_REACTORS
330
2A
102
}
330
2A
100
AcDbVisualStyle
  2
2dWireframe
 70
     4
 71
     0
 72
     2
 73
     0
 90
        0
 40
-0.6
 41
-30.0
 62
     5
 63
     7
 74
     1
 91
        4
 64
     7
 65
   257
 75
     1
175
     1
 42
1.0
 92
        0
 66
   257
 43
1.0
 76
     1
 77
     6
 78
     2
 67
     7
 79
     5
170
     0
171
     0
290
     0
174
     0
 93
        1
 44
0.0
173
     0
291
     0
 45
0.0
1001
ACAD
1000
AcDbSavedByObjectVersion
1070
     0
  0
VISUALSTYLE
  5
31
102
{ACAD_REACTORS
330
2A
102
}
330
2A
100
AcDbVisualStyle
  2
3D Hidden
 70
     6
 71
     1
 72
     2
 73
     2
 90
        0
 40
-0.6
 41
-30.0
 62
     5
 63
     7
 74
     2
 91
        2
 64
     7
 65
   257
 75
     2
175
     1
 42
40.0
 92
        0
 66
   257
 43
1.0
 76
     1
 77
     6
 78
     2
 67
     7
 79
     3
170
     0
171
     0
290
     0
174
     0
 93
        1
 44
0.0
173
     0
291
     0
 45
0.0
1001
ACAD
1000
AcDbSavedByObjectVersion
1070
     0
  0
VISUALSTYLE
  5
30
102
{ACAD_REACTORS
330
2A
102
}
330
2A
100
AcDbVisualStyle
  2
3dWireframe
 70
     5
 71
     0
 72
     2
 73
     0
 90
        0
 40
-0.6
 41
-30.0
 62
     5
 63
     7
 74
     1
 91
        4
 64
     7
 65
   257
 75
     1
175
     1
 42
1.0
 92
        0
 66
   257
 43
1.0
 76
     1
 77
     6
 78
     2
 67
     7
 79
     5
170
     0
171
     0
290
     0
174
     0
 93
        1
 44
0.0
173
     0
291
     0
 45
0.0
1001
ACAD
1000
AcDbSavedByObjectVersion
1070
     0
  0
VISUALSTYLE
  5
32
102
{ACAD_REACTORS
330
2A
102
}
330
2A
100
AcDbVisualStyle
  2
Basic
 70
     7
 71
     1
 72
     0
 73
     1
 90
        0
 40
-0.6
 41
-30.0
 62
     5
 63
     7
 74
     0
 91
        4
 64
     7
 65
   257
 75
     1
175
     1
 42
1.0
 92
        8
 66
     7
 43
1.0
 76
     1
 77
     6
 78
     2
 67
     7
 79
     5
170
     0
171
     0
290
     0
174
     0
 93
        1
 44
0.0
173
     0
291
     1
 45
0.0
1001
ACAD
1000
AcDbSavedByObjectVersion
1070
     0
  0
VISUALSTYLE
  5
36
102
{ACAD_REACTORS
330
2A
102
}
330
2A
100
AcDbVisualStyle
  2
Brighten
 70
    12
 71
     2
 72
     2
 73
     0
 90
        0
 40
-0.6
 41
-30.0
 62
     5
 63
     7
 74
     1
 91
        4
 64
     7
 65
   257
 75
     1
175
     1
 42
1.0
 92
        8
 66
     7
 43
1.0
 76
     1
 77
     6
 78
     2
 67
     7
 79
     5
170
     0
171
     0
290
     0
174
     0
 93
        1
 44
50.0
173
     0
291
     1
 45
0.0
1001
ACAD
1000
AcDbSavedByObjectVersion
1070
     0
  0
VISUALSTYLE
  5
3A
102
{ACAD_REACTORS
330
2A
102
}
330
2A
100
AcDbVisualStyle
  2
ColorChange
 70
    16
 71
     2
 72
     2
 73
     3
 90
        0
 40
-0.6
 41
-30.0
 62
     5
 63
     8
 74
     1
 91
        4
 64
     7
 65
   257
 75
     1
175
     1
 42
1.0
 92
        8
 66
     8
 43
1.0
 76
     1
 77
     6
 78
     2
 67
     7
 79
     5
170
     0
171
     0
290
     0
174
     0
 93
        1
 44
0.0
173
     0
291
     1
 45
0.0
1001
ACAD
1000
AcDbSavedByObjectVersion
1070
     0
  0
VISUALSTYLE
  5
34
102
{ACAD_REACTORS
330
2A
102
}
330
2A
100
AcDbVisualStyle
  2
Conceptual
 70
     9
 71
     3
 72
     2
 73
     0
 90
        0
 40
-0.6
 41
-30.0
 62
     5
 63
     7
 74
     2
 91
        2
 64
     7
 65
   257
 75
     1
175
     1
 42
40.0
 92
        8
 66
     7
 43
1.0
 76
     1
 77
     6
 78
     2
 67
     7
 79
     3
170
     0
171
     0
290
     0
174
     0
 93
        1
 44
0.0
173
     0
291
     0
 45
0.0
1001
ACAD
1000
AcDbSavedByObjectVersion
1070
     0
  0
VISUALSTYLE
  5
35
102
{ACAD_REACTORS
330
2A
102
}
330
2A
100
AcDbVisualStyle
  2
Dim
 70
    11
 71
     2
 72
     2
 73
     0
 90
        0
 40
-0.6
 41
-30.0
 62
     5
 63
     7
 74
     1
 91
        4
 64
     7
 65
   257
 75
     1
175
     1
 42
1.0
 92
        8
 66
     7
 43
1.0
 76
     1
 77
     6
 78
     2
 67
     7
 79
     5
170
     0
171
     0
290
     0
174
     0
 93
        1
 44
-50.0
173
     0
291
     1
 45
0.0
1001
ACAD
1000
AcDbSavedByObjectVersion
1070
     0
  0
VISUALSTYLE
  5
39
102
{ACAD_REACTORS
330
2A
102
}
330
2A
100
AcDbVisualStyle
  2
Facepattern
 70
    15
 71
     2
 72
     2
 73
     0
 90
        0
 40
-0.6
 41
-30.0
 62
     5
 63
     7
 74
     1
 91
        4
 64
     7
 65
   257
 75
     1
175
     1
 42
1.0
 92
        8
 66
     7
 43
1.0
 76
     1
 77
     6
 78
     2
 67
     7
 79
     5
170
     0
171
     0
290
     0
174
     0
 93
        1
 44
0.0
173
     0
291
     1
 45
0.0
1001
ACAD
1000
AcDbSavedByObjectVersion
1070
     0
  0
VISUALSTYLE
  5
2B
102
{ACAD_REACTORS
330
2A
102
}
330
2A
100
AcDbVisualStyle
  2
Flat
 70
     0
 71
     2
 72
     1
 73
     1
 90
        2
 40
-0.6
 41
30.0
 62
     5
 63
     7
 74
     0
 91
        4
 64
     7
 65
   257
 75
     1
175
     1
 42
1.0
 92
        8
 66
     7
 43
1.0
 76
     1
 77
     6
 78
     2
 67
     7
 79
     5
170
     0
171
     0
290
     0
174
     0
 93
       13
 44
0.0
173
     0
291
     1
 45
0.0
1001
ACAD
1000
AcDbSavedByObjectVersion
1070
     0
  0
VISUALSTYLE
  5
2C
102
{ACAD_REACTORS
330
2A
102
}
330
2A
100
AcDbVisualStyle
  2
FlatWithEdges
 70
     1
 71
     2
 72
     1
 73
     1
 90
        2
 40
-0.6
 41
30.0
 62
     5
 63
     7
 74
     1
 91
        4
 64
     7
 65
   257
 75
     1
175
     1
 42
1.0
 92
        0
 66
   257
 43
1.0
 76
     1
 77
     6
 78
     2
 67
     7
 79
     5
170
     0
171
     0
290
     0
174
     0
 93
       13
 44
0.0
173
     0
291
     1
 45
0.0
1001
ACAD
1000
AcDbSavedByObjectVersion
1070
     0
  0
VISUALSTYLE
  5
2D
102
{ACAD_REACTORS
330
2A
102
}
330
2A
100
AcDbVisualStyle
  2
Gouraud
 70
     2
 71
     2
 72
     2
 73
     1
 90
        2
 40
-0.6
 41
30.0
 62
     5
 63
     7
 74
     0
 91
        4
 64
     7
 65
   257
 75
     1
175
     1
 42
1.0
 92
        0
 66
     7
 43
1.0
 76
     1
 77
     6
 78
     2
 67
     7
 79
     5
170
     0
171
     0
290
     0
174
     0
 93
       13
 44
0.0
173
     0
291
     1
 45
0.0
1001
ACAD
1000
AcDbSavedByObjectVersion
1070
     0
  0
VISUALSTYLE
  5
2E
102
{ACAD_REACTORS
330
2A
102
}
330
2A
100
AcDbVisualStyle
  2
GouraudWithEdges
 70
     3
 71
     2
 72
     2
 73
     1
 90
        2
 40
-0.6
 41
30.0
 62
     5
 63
     7
 74
     1
 91
        4
 64
     7
 65
   257
 75
     1
175
     1
 42
1.0
 92
        0
 66
   257
 43
1.0
 76
     1
 77
     6
 78
     2
 67
     7
 79
     5
170
     0
171
     0
290
     0
174
     0
 93
       13
 44
0.0
173
     0
291
     1
 45
0.0
1001
ACAD
1000
AcDbSavedByObjectVersion
1070
     0
  0
VISUALSTYLE
  5
38
102
{ACAD_REACTORS
330
2A
102
}
330
2A
100
AcDbVisualStyle
  2
Linepattern
 70
    14
 71
     2
 72
     2
 73
     0
 90
        0
 40
-0.6
 41
-30.0
 62
     5
 63
     7
 74
     1
 91
        4
 64
     7
 65
   257
 75
     7
175
     7
 42
1.0
 92
        8
 66
     7
 43
1.0
 76
     1
 77
     6
 78
     2
 67
     7
 79
     5
170
     0
171
     0
290
     0
174
     0
 93
        1
 44
0.0
173
     0
291
     1
 45
0.0
1001
ACAD
1000
AcDbSavedByObjectVersion
1070
     0
  0
VISUALSTYLE
  5
33
102
{ACAD_REACTORS
330
2A
102
}
330
2A
100
AcDbVisualStyle
  2
Realistic
 70
     8
 71
     2
 72
     2
 73
     0
 90
        0
 40
-0.6
 41
-30.0
 62
     5
 63
     7
 74
     1
 91
        0
 64
     7
 65
   257
 75
     1
175
     1
 42
1.0
 92
        8
 66
     8
 43
1.0
 76
     1
 77
     6
 78
     2
 67
     7
 79
     5
170
     0
171
     0
290
     0
174
     0
 93
       13
 44
0.0
173
     0
291
     0
 45
0.0
1001
ACAD
1000
AcDbSavedByObjectVersion
1070
     0
  0
VISUALSTYLE
  5
37
102
{ACAD_REACTORS
330
2A
102
}
330
2A
100
AcDbVisualStyle
  2
Thicken
 70
    13
 71
     2
 72
     2
 73
     0
 90
        0
 40
-0.6
 41
-30.0
 62
     5
 63
     7
 74
     1
 91
        4
 64
     7
 65
   257
 75
     1
175
     1
 42
1.0
 92
       12
 66
     7
 43
1.0
 76
     1
 77
     6
 78
     2
 67
     7
 79
     5
170
     0
171
     0
290
     0
174
     0
 93
        1
 44
0.0
173
     0
291
     1
 45
0.0
1001
ACAD
1000
AcDbSavedByObjectVersion
1070
     0
  0
DICTIONARYVAR
  5
1E1
102
{ACAD_REACTORS
330
1E0
102
}
330
1E0
100
DictionaryVariables
280
     0
  1
1:1
  0
DICTIONARYVAR
  5
1E5
102
{ACAD_REACTORS
330
1E0
102
}
330
1E0
100
DictionaryVariables
280
     0
  1
80.000000
  0
DICTIONARYVAR
  5
1E4
102
{ACAD_REACTORS
330
1E0
102
}
330
1E0
100
DictionaryVariables
280
     0
  1
5.000000
  0
ENDSEC
  0
EOF
