  0
SECTION
  2
HEADER
  9
$ACADVER
  1
AC1015
  9
$ACADMAINTVER
 70
     6
  9
$DWGCODEPAGE
  3
ANSI_1252
  9
$INSBASE
 10
0.0
 20
0.0
 30
0.0
  9
$EXTMIN
 10
0.0
 20
0.0
 30
0.0
  9
$EXTMAX
 10
1682.0
 20
2378.0
 30
0.0
  9
$LIMMIN
 10
0.0
 20
0.0
  9
$LIMMAX
 10
1682.0
 20
2378.0
  9
$ORTHOMODE
 70
     0
  9
$REGENMODE
 70
     1
  9
$FILLMODE
 70
     1
  9
$QTEXTMODE
 70
     0
  9
$MIRRTEXT
 70
     1
  9
$LTSCALE
 40
1.0
  9
$ATTMODE
 70
     1
  9
$TEXTSIZE
 40
2.5
  9
$TRACEWID
 40
1.0
  9
$TEXTSTYLE
  7
Standard
  9
$CLAYER
  8
0
  9
$CELTYPE
  6
ByLayer
  9
$CECOLOR
 62
   256
  9
$CELTSCALE
 40
1.0
  9
$DISPSILH
 70
     0
  9
$DIMSCALE
 40
1.0
  9
$DIMASZ
 40
2.5
  9
$DIMEXO
 40
0.625
  9
$DIMDLI
 40
3.75
  9
$DIMRND
 40
0.0
  9
$DIMDLE
 40
0.0
  9
$DIMEXE
 40
1.25
  9
$DIMTP
 40
0.0
  9
$DIMTM
 40
0.0
  9
$DIMTXT
 40
2.5
  9
$DIMCEN
 40
2.5
  9
$DIMTSZ
 40
0.0
  9
$DIMTOL
 70
     0
  9
$DIMLIM
 70
     0
  9
$DIMTIH
 70
     0
  9
$DIMTOH
 70
     0
  9
$DIMSE1
 70
     0
  9
$DIMSE2
 70
     0
  9
$DIMTAD
 70
     1
  9
$DIMZIN
 70
     8
  9
$DIMBLK
  1

  9
$DIMASO
 70
     1
  9
$DIMSHO
 70
     1
  9
$DIMPOST
  1

  9
$DIMAPOST
  1

  9
$DIMALT
 70
     0
  9
$DIMALTD
 70
     3
  9
$DIMALTF
 40
0.0393700787
  9
$DIMLFAC
 40
1.0
  9
$DIMTOFL
 70
     1
  9
$DIMTVP
 40
0.0
  9
$DIMTIX
 70
     0
  9
$DIMSOXD
 70
     0
  9
$DIMSAH
 70
     0
  9
$DIMBLK1
  1

  9
$DIMBLK2
  1

  9
$DIMSTYLE
  2
ISO-25
  9
$DIMCLRD
 70
     0
  9
$DIMCLRE
 70
     0
  9
$DIMCLRT
 70
     0
  9
$DIMTFAC
 40
1.0
  9
$DIMGAP
 40
0.625
  9
$DIMJUST
 70
     0
  9
$DIMSD1
 70
     0
  9
$DIMSD2
 70
     0
  9
$DIMTOLJ
 70
     0
  9
$DIMTZIN
 70
     8
  9
$DIMALTZ
 70
     0
  9
$DIMALTTZ
 70
     0
  9
$DIMUPT
 70
     0
  9
$DIMDEC
 70
     2
  9
$DIMTDEC
 70
     2
  9
$DIMALTU
 70
     2
  9
$DIMALTTD
 70
     3
  9
$DIMTXSTY
  7
Standard
  9
$DIMAUNIT
 70
     0
  9
$DIMADEC
 70
     0
  9
$DIMALTRND
 40
0.0
  9
$DIMAZIN
 70
     0
  9
$DIMDSEP
 70
    44
  9
$DIMATFIT
 70
     3
  9
$DIMFRAC
 70
     0
  9
$DIMLDRBLK
  1

  9
$DIMLUNIT
 70
     2
  9
$DIMLWD
 70
    -2
  9
$DIMLWE
 70
    -2
  9
$DIMTMOVE
 70
     0
  9
$LUNITS
 70
     2
  9
$LUPREC
 70
     4
  9
$SKETCHINC
 40
1.0
  9
$FILLETRAD
 40
10.0
  9
$AUNITS
 70
     0
  9
$AUPREC
 70
     0
  9
$MENU
  1
.
  9
$ELEVATION
 40
0.0
  9
$PELEVATION
 40
0.0
  9
$THICKNESS
 40
0.0
  9
$LIMCHECK
 70
     0
  9
$CHAMFERA
 40
10.0
  9
$CHAMFERB
 40
10.0
  9
$CHAMFERC
 40
20.0
  9
$CHAMFERD
 40
0.0
  9
$SKPOLY
 70
     0
  9
$TDCREATE
 40
2455464.499187153
  9
$TDUCREATE
 40
2455464.415853819
  9
$TDUPDATE
 40
2455464.499187164
  9
$TDUUPDATE
 40
2455464.415853831
  9
$TDINDWG
 40
0.0000000116
  9
$TDUSRTIMER
 40
0.0000000116
  9
$USRTIMER
 70
     1
  9
$ANGBASE
 50
0.0
  9
$ANGDIR
 70
     0
  9
$PDMODE
 70
     0
  9
$PDSIZE
 40
0.0
  9
$PLINEWID
 40
0.0
  9
$SPLFRAME
 70
     0
  9
$SPLINETYPE
 70
     6
  9
$SPLINESEGS
 70
     8
  9
$HANDSEED
  5
124
  9
$SURFTAB1
 70
     6
  9
$SURFTAB2
 70
     6
  9
$SURFTYPE
 70
     6
  9
$SURFU
 70
     6
  9
$SURFV
 70
     6
  9
$UCSBASE
  2

  9
$UCSNAME
  2

  9
$UCSORG
 10
0.0
 20
0.0
 30
0.0
  9
$UCSXDIR
 10
1.0
 20
0.0
 30
0.0
  9
$UCSYDIR
 10
0.0
 20
1.0
 30
0.0
  9
$UCSORTHOREF
  2

  9
$UCSORTHOVIEW
 70
     0
  9
$UCSORGTOP
 10
0.0
 20
0.0
 30
0.0
  9
$UCSORGBOTTOM
 10
0.0
 20
0.0
 30
0.0
  9
$UCSORGLEFT
 10
0.0
 20
0.0
 30
0.0
  9
$UCSORGRIGHT
 10
0.0
 20
0.0
 30
0.0
  9
$UCSORGFRONT
 10
0.0
 20
0.0
 30
0.0
  9
$UCSORGBACK
 10
0.0
 20
0.0
 30
0.0
  9
$PUCSBASE
  2

  9
$PUCSNAME
  2

  9
$PUCSORG
 10
0.0
 20
0.0
 30
0.0
  9
$PUCSXDIR
 10
1.0
 20
0.0
 30
0.0
  9
$PUCSYDIR
 10
0.0
 20
1.0
 30
0.0
  9
$PUCSORTHOREF
  2

  9
$PUCSORTHOVIEW
 70
     0
  9
$PUCSORGTOP
 10
0.0
 20
0.0
 30
0.0
  9
$PUCSORGBOTTOM
 10
0.0
 20
0.0
 30
0.0
  9
$PUCSORGLEFT
 10
0.0
 20
0.0
 30
0.0
  9
$PUCSORGRIGHT
 10
0.0
 20
0.0
 30
0.0
  9
$PUCSORGFRONT
 10
0.0
 20
0.0
 30
0.0
  9
$PUCSORGBACK
 10
0.0
 20
0.0
 30
0.0
  9
$USERI1
 70
     0
  9
$USERI2
 70
     0
  9
$USERI3
 70
     0
  9
$USERI4
 70
     0
  9
$USERI5
 70
     0
  9
$USERR1
 40
0.0
  9
$USERR2
 40
0.0
  9
$USERR3
 40
0.0
  9
$USERR4
 40
0.0
  9
$USERR5
 40
0.0
  9
$WORLDVIEW
 70
     1
  9
$SHADEDGE
 70
     3
  9
$SHADEDIF
 70
    70
  9
$TILEMODE
 70
     1
  9
$MAXACTVP
 70
    64
  9
$PINSBASE
 10
0.0
 20
0.0
 30
0.0
  9
$PLIMCHECK
 70
     0
  9
$PEXTMIN
 10
0.0
 20
0.0
 30
0.0
  9
$PEXTMAX
 10
1682.0
 20
2378.0
 30
0.0
  9
$PLIMMIN
 10
0.0
 20
0.0
  9
$PLIMMAX
 10
1682.0
 20
2378.0
  9
$UNITMODE
 70
     0
  9
$VISRETAIN
 70
     1
  9
$PLINEGEN
 70
     0
  9
$PSLTSCALE
 70
     1
  9
$TREEDEPTH
 70
  3020
  9
$CMLSTYLE
  2
Standard
  9
$CMLJUST
 70
     0
  9
$CMLSCALE
 40
20.0
  9
$PROXYGRAPHICS
 70
     1
  9
$MEASUREMENT
 70
     1
  9
$CELWEIGHT
370
    -1
  9
$ENDCAPS
280
     0
  9
$JOINSTYLE
280
     0
  9
$LWDISPLAY
290
     0
  9
$INSUNITS
 70
     4
  9
$HYPERLINKBASE
  1

  9
$STYLESHEET
  1

  9
$XEDIT
290
     1
  9
$CEPSNTYPE
380
     0
  9
$PSTYLEMODE
290
     1
  9
$FINGERPRINTGUID
  2
{6B11EF5E-EE6F-4897-903A-7D013F206C40}
  9
$VERSIONGUID
  2
{FAEB1C32-E019-11D5-929B-00C0DF256EC4}
  9
$EXTNAMES
290
     1
  9
$PSVPSCALE
 40
0.0
  9
$OLESTARTUP
290
     0
  0
ENDSEC
  0
SECTION
  2
CLASSES
  0
CLASS
  1
ACDBDICTIONARYWDFLT
  2
AcDbDictionaryWithDefault
  3
ObjectDBX Classes
 90
        0
280
     0
281
     0
  0
CLASS
  1
VISUALSTYLE
  2
AcDbVisualStyle
  3
ObjectDBX Classes
 90
     4095
280
     0
281
     0
  0
CLASS
  1
SCALE
  2
AcDbScale
  3
ObjectDBX Classes
 90
     1153
280
     0
281
     0
  0
CLASS
  1
DICTIONARYVAR
  2
AcDbDictionaryVar
  3
ObjectDBX Classes
 90
        0
280
     0
281
     0
  0
CLASS
  1
ACDBPLACEHOLDER
  2
AcDbPlaceHolder
  3
ObjectDBX Classes
 90
        0
280
     0
281
     0
  0
CLASS
  1
LAYOUT
  2
AcDbLayout
  3
ObjectDBX Classes
 90
        0
280
     0
281
     0
  0
ENDSEC
  0
SECTION
  2
TABLES
  0
TABLE
  2
VPORT
  5
8
330
0
100
AcDbSymbolTable
 70
     1
  0
VPORT
  5
29
330
8
100
AcDbSymbolTableRecord
100
AcDbViewportTableRecord
  2
*Active
 70
     0
 10
0.0
 20
0.0
 11
1.0
 21
1.0
 12
344.1869158879
 22
148.5
 13
0.0
 23
0.0
 14
10.0
 24
10.0
 15
10.0
 25
10.0
 16
0.0
 26
0.0
 36
1.0
 17
0.0
 27
0.0
 37
0.0
 40
297.0
 41
1.9729729729
 42
50.0
 43
0.0
 44
0.0
 50
0.0
 51
0.0
 71
     0
 72
   100
 73
     1
 74
     3
 75
     0
 76
     0
 77
     0
 78
     0
281
     0
 65
     1
110
0.0
120
0.0
130
0.0
111
1.0
121
0.0
131
0.0
112
0.0
122
1.0
132
0.0
 79
     0
146
0.0
  0
ENDTAB
  0
TABLE
  2
LTYPE
  5
5
330
0
100
AcDbSymbolTable
 70
     2
  0
LTYPE
  5
14
330
5
100
AcDbSymbolTableRecord
100
AcDbLinetypeTableRecord
  2
ByBlock
 70
     0
  3

 72
    65
 73
     0
 40
0.0
  0
LTYPE
  5
15
330
5
100
AcDbSymbolTableRecord
100
AcDbLinetypeTableRecord
  2
ByLayer
 70
     0
  3

 72
    65
 73
     0
 40
0.0
  0
LTYPE
  5
16
330
5
100
AcDbSymbolTableRecord
100
AcDbLinetypeTableRecord
  2
Continuous
 70
     0
  3
Solid line
 72
    65
 73
     0
 40
0.0
  0
LTYPE
  5
60
330
5
100
AcDbSymbolTableRecord
100
AcDbLinetypeTableRecord
  2
CENTER2
 70
     0
  3
Center (.5x) ___ _ ___ _ ___ _ ___ _ ___ _ ___
 72
    65
 73
     4
 40
28.575
 49
19.05
 74
     4
 75
     0
340
0
 46
0.0
 50
0.0
 44
0.0
 45
0.0
 49
-3.175
 74
     4
 75
     0
340
0
 46
0.0
 50
0.0
 44
0.0
 45
0.0
 49
3.175
 74
     4
 75
     0
340
0
 46
0.0
 50
0.0
 44
0.0
 45
0.0
 49
-3.175
 74
     4
 75
     0
340
0
 46
0.0
 50
0.0
 44
0.0
 45
0.0
  0
ENDTAB
  0
TABLE
  2
LAYER
  5
2
330
0
100
AcDbSymbolTable
 70
     8
  0
LAYER
  5
10
330
2
100
AcDbSymbolTableRecord
100
AcDbLayerTableRecord
  2
0
 70
     0
 62
     7
  6
Continuous
370
    -3
390
F
  0
LAYER
  5
5D
330
2
100
AcDbSymbolTableRecord
100
AcDbLayerTableRecord
  2
Default
 70
     0
 62
     7
  6
Continuous
370
    -3
390
F
  0
LAYER
  5
87
330
2
100
AcDbSymbolTableRecord
100
AcDbLayerTableRecord
  2
DV1_Standard
 70
     0
 62
     7
  6
Continuous
370
    -3
390
F
  0
LAYER
  5
9A
330
2
100
AcDbSymbolTableRecord
100
AcDbLayerTableRecord
  2
Standard
 70
     0
 62
     7
  6
Continuous
370
    -3
390
F
  0
LAYER
  5
A9
330
2
100
AcDbSymbolTableRecord
100
AcDbLayerTableRecord
  2
DV2_Standard
 70
     0
 62
     7
  6
Continuous
370
    -3
390
F
  0
LAYER
  5
C1
330
2
100
AcDbSymbolTableRecord
100
AcDbLayerTableRecord
  2
DV3_Standard
 70
     0
 62
     7
  6
Continuous
370
    -3
390
F
  0
LAYER
  5
D4
330
2
100
AcDbSymbolTableRecord
100
AcDbLayerTableRecord
  2
DV3_Layer1
 70
     0
 62
     7
  6
Continuous
370
    -3
390
F
  0
LAYER
  5
EE
330
2
100
AcDbSymbolTableRecord
100
AcDbLayerTableRecord
  2
Layer1
 70
     0
 62
     7
  6
Continuous
370
    -3
390
F
  0
ENDTAB
  0
TABLE
  2
STYLE
  5
3
330
0
100
AcDbSymbolTable
 70
     2
  0
STYLE
  5
11
330
3
100
AcDbSymbolTableRecord
100
AcDbTextStyleTableRecord
  2
Standard
 70
     0
 40
0.0
 41
1.0
 50
0.0
 71
     0
 42
2.5
  3
txt
  4

  0
STYLE
  5
113
330
3
100
AcDbSymbolTableRecord
100
AcDbTextStyleTableRecord
  2
SEACAD_seiso_ttf
 70
     0
 40
0.0
 41
1.0
 50
0.0
 71
     0
 42
0.2
  3
seiso.ttf
  4

  0
ENDTAB
  0
TABLE
  2
VIEW
  5
6
330
0
100
AcDbSymbolTable
 70
     0
  0
ENDTAB
  0
TABLE
  2
UCS
  5
7
330
0
100
AcDbSymbolTable
 70
     0
  0
ENDTAB
  0
TABLE
  2
APPID
  5
9
330
0
100
AcDbSymbolTable
 70
     1
  0
APPID
  5
12
330
9
100
AcDbSymbolTableRecord
100
AcDbRegAppTableRecord
  2
ACAD
 70
     0
  0
ENDTAB
  0
TABLE
  2
DIMSTYLE
  5
A
330
0
100
AcDbSymbolTable
 70
     1
100
AcDbDimStyleTable
  0
DIMSTYLE
105
27
330
A
100
AcDbSymbolTableRecord
100
AcDbDimStyleTableRecord
  2
ISO-25
 70
     0
 41
2.5
 42
0.625
 43
3.75
 44
1.25
 73
     0
 74
     0
 77
     1
 78
     8
140
2.5
141
2.5
143
0.0393700787
147
0.625
171
     3
172
     1
271
     2
272
     2
274
     3
278
    44
283
     0
284
     8
340
11
  0
ENDTAB
  0
TABLE
  2
BLOCK_RECORD
  5
1
330
0
100
AcDbSymbolTable
 70
     9
  0
BLOCK_RECORD
  5
1F
330
1
100
AcDbSymbolTableRecord
100
AcDbBlockTableRecord
  2
*Model_Space
340
22
  0
BLOCK_RECORD
  5
1B
330
1
100
AcDbSymbolTableRecord
100
AcDbBlockTableRecord
  2
*Paper_Space
340
1E
  0
BLOCK_RECORD
  5
5E
330
1
100
AcDbSymbolTableRecord
100
AcDbBlockTableRecord
  2
SEANNOT_GROUP
340
0
102
{BLKREFS
331
5F
102
}
  0
BLOCK_RECORD
  5
69
330
1
100
AcDbSymbolTableRecord
100
AcDbBlockTableRecord
  2
SEANNOT_GROUP1
340
0
102
{BLKREFS
331
6A
102
}
  0
BLOCK_RECORD
  5
73
330
1
100
AcDbSymbolTableRecord
100
AcDbBlockTableRecord
  2
SEANNOT_GROUP2
340
0
102
{BLKREFS
331
74
102
}
  0
BLOCK_RECORD
  5
79
330
1
100
AcDbSymbolTableRecord
100
AcDbBlockTableRecord
  2
SEANNOT_GROUP3
340
0
102
{BLKREFS
331
7A
102
}
  0
BLOCK_RECORD
  5
7F
330
1
100
AcDbSymbolTableRecord
100
AcDbBlockTableRecord
  2
SEANNOT_GROUP4
340
0
102
{BLKREFS
331
80
102
}
  0
BLOCK_RECORD
  5
85
330
1
100
AcDbSymbolTableRecord
100
AcDbBlockTableRecord
  2
SE
340
0
102
{BLKREFS
331
86
102
}
  0
BLOCK_RECORD
  5
A7
330
1
100
AcDbSymbolTableRecord
100
AcDbBlockTableRecord
  2
SE1
340
0
102
{BLKREFS
331
A8
102
}
  0
BLOCK_RECORD
  5
BF
330
1
100
AcDbSymbolTableRecord
100
AcDbBlockTableRecord
  2
SE2
340
0
102
{BLKREFS
331
C0
102
}
  0
ENDTAB
  0
ENDSEC
  0
SECTION
  2
BLOCKS
  0
BLOCK
  5
20
330
1F
100
AcDbEntity
  8
0
100
AcDbBlockBegin
  2
*Model_Space
 70
     0
 10
0.0
 20
0.0
 30
0.0
  3
*Model_Space
  1

  0
ENDBLK
  5
21
330
1F
100
AcDbEntity
  8
0
100
AcDbBlockEnd
  0
BLOCK
  5
1C
330
1B
100
AcDbEntity
 67
     1
  8
0
100
AcDbBlockBegin
  2
*Paper_Space
 70
     0
 10
0.0
 20
0.0
 30
0.0
  3
*Paper_Space
  1

  0
ENDBLK
  5
1D
330
1B
100
AcDbEntity
 67
     1
  8
0
100
AcDbBlockEnd
  0
BLOCK
  5
67
330
5E
100
AcDbEntity
  8
0
100
AcDbBlockBegin
  2
SEANNOT_GROUP
 70
     0
 10
0.0
 20
0.0
 30
0.0
  3
SEANNOT_GROUP
  1

  0
LINE
  5
61
330
5E
100
AcDbEntity
  8
Default
  6
CENTER2
 62
     7
100
AcDbLine
 10
110.4993741978
 20
361.65093694
 30
0.0
 11
70.4993750919
 21
361.65093694
 31
0.0
  0
LINE
  5
62
330
5E
100
AcDbEntity
  8
Default
  6
CENTER2
 62
     7
100
AcDbLine
 10
90.4993746449
 20
381.6509364929
 30
0.0
 11
90.4993746449
 21
341.650937387
 31
0.0
  0
LINE
  5
63
330
5E
100
AcDbEntity
  8
Default
  6
CENTER2
 62
     7
100
AcDbLine
 10
115.4993740861
 20
361.65093694
 30
0.0
 11
106.4993746449
 21
361.65093694
 31
0.0
  0
LINE
  5
64
330
5E
100
AcDbEntity
  8
Default
  6
CENTER2
 62
     7
100
AcDbLine
 10
90.4993746449
 20
386.6509363812
 30
0.0
 11
90.4993746449
 21
377.65093694
 31
0.0
  0
LINE
  5
65
330
5E
100
AcDbEntity
  8
Default
  6
CENTER2
 62
     7
100
AcDbLine
 10
65.4993752037
 20
361.65093694
 30
0.0
 11
74.4993746449
 21
361.65093694
 31
0.0
  0
LINE
  5
66
330
5E
100
AcDbEntity
  8
Default
  6
CENTER2
 62
     7
100
AcDbLine
 10
90.4993746449
 20
336.6509374988
 30
0.0
 11
90.4993746449
 21
345.65093694
 31
0.0
  0
ENDBLK
  5
68
330
5E
100
AcDbEntity
  8
0
100
AcDbBlockEnd
  0
BLOCK
  5
71
330
69
100
AcDbEntity
  8
0
100
AcDbBlockBegin
  2
SEANNOT_GROUP1
 70
     0
 10
0.0
 20
0.0
 30
0.0
  3
SEANNOT_GROUP1
  1

  0
LINE
  5
6B
330
69
100
AcDbEntity
  8
Default
  6
CENTER2
 62
     7
100
AcDbLine
 10
780.4993741978
 20
361.65093694
 30
0.0
 11
740.4993750919
 21
361.65093694
 31
0.0
  0
LINE
  5
6C
330
69
100
AcDbEntity
  8
Default
  6
CENTER2
 62
     7
100
AcDbLine
 10
760.4993746449
 20
381.6509364929
 30
0.0
 11
760.4993746449
 21
341.650937387
 31
0.0
  0
LINE
  5
6D
330
69
100
AcDbEntity
  8
Default
  6
CENTER2
 62
     7
100
AcDbLine
 10
785.4993740861
 20
361.65093694
 30
0.0
 11
776.4993746449
 21
361.65093694
 31
0.0
  0
LINE
  5
6E
330
69
100
AcDbEntity
  8
Default
  6
CENTER2
 62
     7
100
AcDbLine
 10
760.4993746449
 20
386.6509363812
 30
0.0
 11
760.4993746449
 21
377.65093694
 31
0.0
  0
LINE
  5
6F
330
69
100
AcDbEntity
  8
Default
  6
CENTER2
 62
     7
100
AcDbLine
 10
735.4993752037
 20
361.65093694
 30
0.0
 11
744.4993746449
 21
361.65093694
 31
0.0
  0
LINE
  5
70
330
69
100
AcDbEntity
  8
Default
  6
CENTER2
 62
     7
100
AcDbLine
 10
760.4993746449
 20
336.6509374988
 30
0.0
 11
760.4993746449
 21
345.65093694
 31
0.0
  0
ENDBLK
  5
72
330
69
100
AcDbEntity
  8
0
100
AcDbBlockEnd
  0
BLOCK
  5
77
330
73
100
AcDbEntity
  8
0
100
AcDbBlockBegin
  2
SEANNOT_GROUP2
 70
     0
 10
0.0
 20
0.0
 30
0.0
  3
SEANNOT_GROUP2
  1

  0
LINE
  5
75
330
73
100
AcDbEntity
  8
Default
  6
CENTER2
 62
     7
100
AcDbLine
 10
1068.8842175312
 20
361.65093694
 30
0.0
 11
1028.8842184253
 21
361.65093694
 31
0.0
  0
LINE
  5
76
330
73
100
AcDbEntity
  8
Default
  6
CENTER2
 62
     7
100
AcDbLine
 10
1048.8842179783
 20
381.6509364929
 30
0.0
 11
1048.8842179783
 21
341.650937387
 31
0.0
  0
ENDBLK
  5
78
330
73
100
AcDbEntity
  8
0
100
AcDbBlockEnd
  0
BLOCK
  5
7D
330
79
100
AcDbEntity
  8
0
100
AcDbBlockBegin
  2
SEANNOT_GROUP3
 70
     0
 10
0.0
 20
0.0
 30
0.0
  3
SEANNOT_GROUP3
  1

  0
LINE
  5
7B
330
79
100
AcDbEntity
  8
Default
  6
CENTER2
 62
     7
100
AcDbLine
 10
780.5441795414
 20
172.35
 30
0.0
 11
740.5441804354
 21
172.35
 31
0.0
  0
LINE
  5
7C
330
79
100
AcDbEntity
  8
Default
  6
CENTER2
 62
     7
100
AcDbLine
 10
760.5441799884
 20
192.349999553
 30
0.0
 11
760.5441799884
 21
152.350000447
 31
0.0
  0
ENDBLK
  5
7E
330
79
100
AcDbEntity
  8
0
100
AcDbBlockEnd
  0
BLOCK
  5
83
330
7F
100
AcDbEntity
  8
0
100
AcDbBlockBegin
  2
SEANNOT_GROUP4
 70
     0
 10
0.0
 20
0.0
 30
0.0
  3
SEANNOT_GROUP4
  1

  0
LINE
  5
81
330
7F
100
AcDbEntity
  8
Default
  6
CENTER2
 62
     7
100
AcDbLine
 10
110.4993741978
 20
172.35
 30
0.0
 11
70.4993750919
 21
172.35
 31
0.0
  0
LINE
  5
82
330
7F
100
AcDbEntity
  8
Default
  6
CENTER2
 62
     7
100
AcDbLine
 10
90.4993746449
 20
192.349999553
 30
0.0
 11
90.4993746449
 21
152.350000447
 31
0.0
  0
ENDBLK
  5
84
330
7F
100
AcDbEntity
  8
0
100
AcDbBlockEnd
  0
BLOCK
  5
A5
330
85
100
AcDbEntity
  8
0
100
AcDbBlockBegin
  2
SE
 70
     0
 10
0.0
 20
0.0
 30
0.0
  3
SE
  1

  0
LINE
  5
88
330
85
100
AcDbEntity
  8
DV1_Standard
  6
Continuous
 62
     7
100
AcDbLine
 10
742.9993746449
 20
355.65093694
 30
0.0
 11
777.6993746449
 21
355.65093694
 31
0.0
  0
LINE
  5
89
330
85
100
AcDbEntity
  8
DV1_Standard
  6
Continuous
 62
     7
100
AcDbLine
 10
777.6993746449
 20
367.65093694
 30
0.0
 11
742.9993746449
 21
367.65093694
 31
0.0
  0
ARC
  5
8A
330
85
100
AcDbEntity
  8
DV1_Standard
  6
Continuous
 62
     7
100
AcDbCircle
 10
777.6993746449
 20
355.95093694
 30
0.0
 40
0.2999999999999999
100
AcDbArc
 50
270.0
 51
0.0
  0
ARC
  5
8B
330
85
100
AcDbEntity
  8
DV1_Standard
  6
Continuous
 62
     7
100
AcDbCircle
 10
777.6993746449
 20
367.35093694
 30
0.0
 40
0.3000000000000225
100
AcDbArc
 50
0.0
 51
90.0
  0
LINE
  5
8C
330
85
100
AcDbEntity
  8
DV1_Standard
  6
Continuous
 62
     7
100
AcDbLine
 10
777.9993746449
 20
355.95093694
 30
0.0
 11
777.9993746449
 21
367.35093694
 31
0.0
  0
ARC
  5
8D
330
85
100
AcDbEntity
  8
DV1_Standard
  6
Continuous
 62
     7
100
AcDbCircle
 10
742.6993746449
 20
353.95093694
 30
0.0
 40
0.2999999999999999
100
AcDbArc
 50
270.0
 51
0.0
  0
ARC
  5
8E
330
85
100
AcDbEntity
  8
DV1_Standard
  6
Continuous
 62
     7
100
AcDbCircle
 10
742.6993746449
 20
369.35093694
 30
0.0
 40
0.3000000000000225
100
AcDbArc
 50
0.0
 51
90.0
  0
LINE
  5
8F
330
85
100
AcDbEntity
  8
DV1_Standard
  6
Continuous
 62
     7
100
AcDbLine
 10
742.9993746449
 20
353.95093694
 30
0.0
 11
742.9993746449
 21
369.35093694
 31
0.0
  0
LINE
  5
90
330
85
100
AcDbEntity
  8
DV1_Standard
  6
Continuous
 62
     7
100
AcDbLine
 10
108.2993746449
 20
353.65093694
 30
0.0
 11
742.6993746449
 21
353.65093694
 31
0.0
  0
LINE
  5
91
330
85
100
AcDbEntity
  8
DV1_Standard
  6
Continuous
 62
     7
100
AcDbLine
 10
742.6993746449
 20
369.65093694
 30
0.0
 11
108.2993746449
 21
369.65093694
 31
0.0
  0
ARC
  5
92
330
85
100
AcDbEntity
  8
DV1_Standard
  6
Continuous
 62
     7
100
AcDbCircle
 10
108.2993746449
 20
353.95093694
 30
0.0
 40
0.3000000000000225
100
AcDbArc
 50
180.0
 51
270.0
  0
ARC
  5
93
330
85
100
AcDbEntity
  8
DV1_Standard
  6
Continuous
 62
     7
100
AcDbCircle
 10
108.2993746449
 20
369.35093694
 30
0.0
 40
0.2999999999999999
100
AcDbArc
 50
90.0
 51
180.0
  0
LINE
  5
94
330
85
100
AcDbEntity
  8
DV1_Standard
  6
Continuous
 62
     7
100
AcDbLine
 10
107.9993746449
 20
369.35093694
 30
0.0
 11
107.9993746449
 21
353.95093694
 31
0.0
  0
LINE
  5
95
330
85
100
AcDbEntity
  8
DV1_Standard
  6
Continuous
 62
     7
100
AcDbLine
 10
73.2993746449
 20
355.65093694
 30
0.0
 11
107.9993746449
 21
355.65093694
 31
0.0
  0
LINE
  5
96
330
85
100
AcDbEntity
  8
DV1_Standard
  6
Continuous
 62
     7
100
AcDbLine
 10
107.9993746449
 20
367.65093694
 30
0.0
 11
73.2993746449
 21
367.65093694
 31
0.0
  0
ARC
  5
97
330
85
100
AcDbEntity
  8
DV1_Standard
  6
Continuous
 62
     7
100
AcDbCircle
 10
73.2993746449
 20
355.95093694
 30
0.0
 40
0.3000000000000225
100
AcDbArc
 50
180.0
 51
270.0
  0
ARC
  5
98
330
85
100
AcDbEntity
  8
DV1_Standard
  6
Continuous
 62
     7
100
AcDbCircle
 10
73.2993746449
 20
367.35093694
 30
0.0
 40
0.2999999999999999
100
AcDbArc
 50
90.0
 51
180.0
  0
LINE
  5
99
330
85
100
AcDbEntity
  8
DV1_Standard
  6
Continuous
 62
     7
100
AcDbLine
 10
72.9993746449
 20
367.35093694
 30
0.0
 11
72.9993746449
 21
355.95093694
 31
0.0
  0
ARC
  5
9B
330
85
100
AcDbEntity
  8
Standard
  6
Continuous
 62
     7
100
AcDbCircle
 10
90.4993746449
 20
361.65093694
 30
0.0
 40
21.0
100
AcDbArc
 50
22.3926878054
 51
337.6073121946
  0
ARC
  5
9C
330
85
100
AcDbEntity
  8
Standard
  6
Continuous
 62
     7
100
AcDbCircle
 10
90.4993746449
 20
361.65093694
 30
0.0
 40
17.5
100
AcDbArc
 50
20.0510425665
 51
159.9489574335
  0
ARC
  5
9D
330
85
100
AcDbEntity
  8
Standard
  6
Continuous
 62
     7
100
AcDbCircle
 10
90.4993746449
 20
361.65093694
 30
0.0
 40
17.5
100
AcDbArc
 50
200.0510425665
 51
339.9489574335
  0
ARC
  5
9E
330
85
100
AcDbEntity
  8
Standard
  6
Continuous
 62
     7
100
AcDbCircle
 10
90.4993746449
 20
361.65093694
 30
0.0
 40
12.50000000000011
100
AcDbArc
 50
28.6854020141
 51
151.3145979859
  0
ARC
  5
9F
330
85
100
AcDbEntity
  8
Standard
  6
Continuous
 62
     7
100
AcDbCircle
 10
90.4993746449
 20
361.65093694
 30
0.0
 40
12.50000000000007
100
AcDbArc
 50
208.6854020141
 51
331.3145979859
  0
ARC
  5
A0
330
85
100
AcDbEntity
  8
Standard
  6
Continuous
 62
     7
100
AcDbCircle
 10
760.4993746449
 20
361.65093694
 30
0.0
 40
21.0
100
AcDbArc
 50
202.3926878054
 51
157.6073121946
  0
ARC
  5
A1
330
85
100
AcDbEntity
  8
Standard
  6
Continuous
 62
     7
100
AcDbCircle
 10
760.4993746449
 20
361.65093694
 30
0.0
 40
17.5
100
AcDbArc
 50
20.0510425665
 51
159.9489574335
  0
ARC
  5
A2
330
85
100
AcDbEntity
  8
Standard
  6
Continuous
 62
     7
100
AcDbCircle
 10
760.4993746449
 20
361.65093694
 30
0.0
 40
17.5
100
AcDbArc
 50
200.0510425665
 51
339.9489574335
  0
ARC
  5
A3
330
85
100
AcDbEntity
  8
Standard
  6
Continuous
 62
     7
100
AcDbCircle
 10
760.4993746449
 20
361.65093694
 30
0.0
 40
12.50000000000007
100
AcDbArc
 50
28.6854020141
 51
151.3145979859
  0
ARC
  5
A4
330
85
100
AcDbEntity
  8
Standard
  6
Continuous
 62
     7
100
AcDbCircle
 10
760.4993746449
 20
361.65093694
 30
0.0
 40
12.50000000000011
100
AcDbArc
 50
208.6854020141
 51
331.3145979859
  0
ENDBLK
  5
A6
330
85
100
AcDbEntity
  8
0
100
AcDbBlockEnd
  0
BLOCK
  5
BD
330
A7
100
AcDbEntity
  8
0
100
AcDbBlockBegin
  2
SE1
 70
     0
 10
0.0
 20
0.0
 30
0.0
  3
SE1
  1

  0
CIRCLE
  5
AA
330
A7
100
AcDbEntity
  8
DV2_Standard
  6
Continuous
 62
     7
100
AcDbCircle
 10
1107.3842179783
 20
361.65093694
 30
0.0
 40
6.0
  0
LINE
  5
AB
330
A7
100
AcDbEntity
  8
DV2_Standard
  6
Continuous
 62
     7
100
AcDbLine
 10
1107.3842179783
 20
355.65093694
 30
0.0
 11
1107.3842179783
 21
349.45093694
 31
0.0
  0
LINE
  5
AC
330
A7
100
AcDbEntity
  8
DV2_Standard
  6
Continuous
 62
     7
100
AcDbLine
 10
1107.3842179783
 20
373.85093694
 30
0.0
 11
1107.3842179783
 21
367.65093694
 31
0.0
  0
LINE
  5
AD
330
A7
100
AcDbEntity
  8
DV2_Standard
  6
Continuous
 62
     7
100
AcDbLine
 10
1058.8842179783
 20
378.8509369467
 30
0.0
 11
1058.8842179783
 21
344.4509369333
 31
0.0
  0
LINE
  5
AE
330
A7
100
AcDbEntity
  8
DV2_Standard
  6
Continuous
 62
     7
100
AcDbLine
 10
1055.3842179783
 20
382.3509369608
 30
0.0
 11
1055.3842179783
 21
340.9509369192
 31
0.0
  0
LINE
  5
AF
330
A7
100
AcDbEntity
  8
DV2_Standard
  6
Continuous
 62
     7
100
AcDbLine
 10
1048.8842179783
 20
382.65093694
 30
0.0
 11
1048.8842179783
 21
340.65093694
 31
0.0
  0
ARC
  5
B0
330
A7
100
AcDbEntity
  8
DV2_Standard
  6
Continuous
 62
     7
100
AcDbCircle
 10
1107.0842179783
 20
349.45093694
 30
0.0
 40
0.2999999999999999
100
AcDbArc
 50
270.0
 51
0.0
  0
LINE
  5
B1
330
A7
100
AcDbEntity
  8
DV2_Standard
  6
Continuous
 62
     7
100
AcDbLine
 10
1107.0842179783
 20
374.15093694
 30
0.0
 11
1058.8842179783
 21
374.15093694
 31
0.0
  0
LINE
  5
B2
330
A7
100
AcDbEntity
  8
DV2_Standard
  6
Continuous
 62
     7
100
AcDbLine
 10
1058.8842179783
 20
349.15093694
 30
0.0
 11
1107.0842179783
 21
349.15093694
 31
0.0
  0
ARC
  5
B3
330
A7
100
AcDbEntity
  8
DV2_Standard
  6
Continuous
 62
     7
100
AcDbCircle
 10
1107.0842179783
 20
373.85093694
 30
0.0
 40
0.3000000000000017
100
AcDbArc
 50
0.0
 51
90.0
  0
ARC
  5
B4
330
A7
100
AcDbEntity
  8
DV2_Standard
  6
Continuous
 62
     7
100
AcDbCircle
 10
1058.5842179783
 20
378.85093694
 30
0.0
 40
0.2999999999999999
100
AcDbArc
 50
0.0000006388
 51
90.0
  0
ARC
  5
B5
330
A7
100
AcDbEntity
  8
DV2_Standard
  6
Continuous
 62
     7
100
AcDbCircle
 10
1058.5842179783
 20
344.45093694
 30
0.0
 40
0.3000000000000017
100
AcDbArc
 50
270.0
 51
359.9999993612
  0
LINE
  5
B6
330
A7
100
AcDbEntity
  8
DV2_Standard
  6
Continuous
 62
     7
100
AcDbLine
 10
1058.5842179783
 20
379.15093694
 30
0.0
 11
1055.3842179783
 21
379.15093694
 31
0.0
  0
LINE
  5
B7
330
A7
100
AcDbEntity
  8
DV2_Standard
  6
Continuous
 62
     7
100
AcDbLine
 10
1055.3842179783
 20
344.15093694
 30
0.0
 11
1058.5842179783
 21
344.15093694
 31
0.0
  0
ARC
  5
B8
330
A7
100
AcDbEntity
  8
DV2_Standard
  6
Continuous
 62
     7
100
AcDbCircle
 10
1055.0842179783
 20
382.35093694
 30
0.0
 40
0.3000000000000001
100
AcDbArc
 50
0.0000019872
 51
90.0
  0
ARC
  5
B9
330
A7
100
AcDbEntity
  8
DV2_Standard
  6
Continuous
 62
     7
100
AcDbCircle
 10
1055.0842179783
 20
340.95093694
 30
0.0
 40
0.2999999999999982
100
AcDbArc
 50
270.0
 51
359.9999980128
  0
LINE
  5
BA
330
A7
100
AcDbEntity
  8
DV2_Standard
  6
Continuous
 62
     7
100
AcDbLine
 10
1055.0842179783
 20
382.65093694
 30
0.0
 11
1048.8842179783
 21
382.65093694
 31
0.0
  0
LINE
  5
BB
330
A7
100
AcDbEntity
  8
DV2_Standard
  6
Continuous
 62
     7
100
AcDbLine
 10
1048.8842179783
 20
340.65093694
 30
0.0
 11
1055.0842179783
 21
340.65093694
 31
0.0
  0
ARC
  5
BC
330
A7
100
AcDbEntity
  8
DV2_Standard
  6
Continuous
 62
     7
100
AcDbCircle
 10
1107.3842179783
 20
361.65093694
 30
0.0
 40
8.0
100
AcDbArc
 50
270.0
 51
90.0
  0
ENDBLK
  5
BE
330
A7
100
AcDbEntity
  8
0
100
AcDbBlockEnd
  0
BLOCK
  5
111
330
BF
100
AcDbEntity
  8
0
100
AcDbBlockBegin
  2
SE2
 70
     0
 10
0.0
 20
0.0
 30
0.0
  3
SE2
  1

  0
LINE
  5
C2
330
BF
100
AcDbEntity
  8
DV3_Standard
  6
Continuous
 62
     7
100
AcDbLine
 10
743.0441799884
 20
108.35
 30
0.0
 11
777.7441799884
 21
108.35
 31
0.0
  0
LINE
  5
C3
330
BF
100
AcDbEntity
  8
DV3_Standard
  6
Continuous
 62
     7
100
AcDbLine
 10
748.5624595041
 20
120.35
 30
0.0
 11
743.0441799884
 21
120.35
 31
0.0
  0
ARC
  5
C4
330
BF
100
AcDbEntity
  8
DV3_Standard
  6
Continuous
 62
     7
100
AcDbCircle
 10
777.7441799884
 20
108.65
 30
0.0
 40
0.2999999999999947
100
AcDbArc
 50
270.0
 51
0.0
  0
ARC
  5
C5
330
BF
100
AcDbEntity
  8
DV3_Standard
  6
Continuous
 62
     7
100
AcDbCircle
 10
777.7441799884
 20
120.05
 30
0.0
 40
0.3000000000000225
100
AcDbArc
 50
0.0
 51
90.0
  0
LINE
  5
C6
330
BF
100
AcDbEntity
  8
DV3_Standard
  6
Continuous
 62
     7
100
AcDbLine
 10
778.0441799884
 20
108.65
 30
0.0
 11
778.0441799884
 21
120.05
 31
0.0
  0
ARC
  5
C7
330
BF
100
AcDbEntity
  8
DV3_Standard
  6
Continuous
 62
     7
100
AcDbCircle
 10
742.7441799884
 20
106.65
 30
0.0
 40
0.2999999999999947
100
AcDbArc
 50
270.0
 51
0.0
  0
ARC
  5
C8
330
BF
100
AcDbEntity
  8
DV3_Standard
  6
Continuous
 62
     7
100
AcDbCircle
 10
742.7441799884
 20
122.05
 30
0.0
 40
0.3000000000000225
100
AcDbArc
 50
0.0
 51
90.0
  0
LINE
  5
C9
330
BF
100
AcDbEntity
  8
DV3_Standard
  6
Continuous
 62
     7
100
AcDbLine
 10
743.0441799884
 20
106.65
 30
0.0
 11
743.0441799884
 21
122.05
 31
0.0
  0
LINE
  5
CA
330
BF
100
AcDbEntity
  8
DV3_Standard
  6
Continuous
 62
     7
100
AcDbLine
 10
108.2993746449
 20
106.35
 30
0.0
 11
742.7441799884
 21
106.35
 31
0.0
  0
LINE
  5
CB
330
BF
100
AcDbEntity
  8
DV3_Standard
  6
Continuous
 62
     7
100
AcDbLine
 10
742.7441799884
 20
122.35
 30
0.0
 11
108.2993746449
 21
122.35
 31
0.0
  0
ARC
  5
CC
330
BF
100
AcDbEntity
  8
DV3_Standard
  6
Continuous
 62
     7
100
AcDbCircle
 10
108.2993746449
 20
106.65
 30
0.0
 40
0.3000000000000225
100
AcDbArc
 50
180.0
 51
270.0
  0
ARC
  5
CD
330
BF
100
AcDbEntity
  8
DV3_Standard
  6
Continuous
 62
     7
100
AcDbCircle
 10
108.2993746449
 20
122.05
 30
0.0
 40
0.3000000000000017
100
AcDbArc
 50
90.0
 51
180.0
  0
LINE
  5
CE
330
BF
100
AcDbEntity
  8
DV3_Standard
  6
Continuous
 62
     7
100
AcDbLine
 10
107.9993746449
 20
122.05
 30
0.0
 11
107.9993746449
 21
106.65
 31
0.0
  0
LINE
  5
CF
330
BF
100
AcDbEntity
  8
DV3_Standard
  6
Continuous
 62
     7
100
AcDbLine
 10
73.2993746449
 20
108.35
 30
0.0
 11
107.9993746449
 21
108.35
 31
0.0
  0
LINE
  5
D0
330
BF
100
AcDbEntity
  8
DV3_Standard
  6
Continuous
 62
     7
100
AcDbLine
 10
107.9993746449
 20
120.35
 30
0.0
 11
102.4841619165
 21
120.35
 31
0.0
  0
ARC
  5
D1
330
BF
100
AcDbEntity
  8
DV3_Standard
  6
Continuous
 62
     7
100
AcDbCircle
 10
73.2993746449
 20
108.65
 30
0.0
 40
0.3000000000000225
100
AcDbArc
 50
180.0
 51
270.0
  0
ARC
  5
D2
330
BF
100
AcDbEntity
  8
DV3_Standard
  6
Continuous
 62
     7
100
AcDbCircle
 10
73.2993746449
 20
120.05
 30
0.0
 40
0.2999999999999947
100
AcDbArc
 50
90.0
 51
180.0
  0
LINE
  5
D3
330
BF
100
AcDbEntity
  8
DV3_Standard
  6
Continuous
 62
     7
100
AcDbLine
 10
72.9993746449
 20
120.05
 30
0.0
 11
72.9993746449
 21
108.65
 31
0.0
  0
LINE
  5
D5
330
BF
100
AcDbEntity
  8
DV3_Layer1
  6
Continuous
 62
     7
100
AcDbLine
 10
100.1664464096
 20
114.35
 30
0.0
 11
80.8323028801
 21
114.35
 31
0.0
  0
LINE
  5
D6
330
BF
100
AcDbEntity
  8
DV3_Layer1
  6
Continuous
 62
     7
100
AcDbLine
 10
111.4993746449
 20
172.35
 30
0.0
 11
69.4993746449
 21
172.35
 31
0.0
  0
ARC
  5
D7
330
BF
100
AcDbEntity
  8
DV3_Layer1
  6
Continuous
 62
     7
100
AcDbCircle
 10
72.5037190414
 20
165.35
 30
0.0
 40
0.5000000000000439
100
AcDbArc
 50
0.5000002143
 51
90.0
  0
LINE
  5
D8
330
BF
100
AcDbEntity
  8
DV3_Layer1
  6
Continuous
 62
     7
100
AcDbLine
 10
77.8919019894
 20
162.1651412364
 30
0.0
 11
78.2516740294
 21
120.9393664863
 31
0.0
  0
LINE
  5
D9
330
BF
100
AcDbEntity
  8
DV3_Layer1
  6
Continuous
 62
     7
100
AcDbLine
 10
111.446975338
 20
166.3456367304
 30
0.0
 11
111.4993746449
 21
172.35
 31
0.0
  0
LINE
  5
DA
330
BF
100
AcDbEntity
  8
DV3_Layer1
  6
Continuous
 62
     7
100
AcDbLine
 10
107.9731559526
 20
162.8456367304
 30
0.0
 11
107.9950492868
 21
165.3543632696
 31
0.0
  0
ARC
  5
DB
330
BF
100
AcDbEntity
  8
DV3_Layer1
  6
Continuous
 62
     7
100
AcDbCircle
 10
77.5037190414
 20
161.85
 30
0.0
 40
0.5000000000000369
100
AcDbArc
 50
39.0709659458
 51
90.0
  0
LINE
  5
DC
330
BF
100
AcDbEntity
  8
DV3_Layer1
  6
Continuous
 62
     7
100
AcDbLine
 10
70.0517549133
 20
165.85
 30
0.0
 11
110.9469943765
 21
165.85
 31
0.0
  0
LINE
  5
DD
330
BF
100
AcDbEntity
  8
DV3_Layer1
  6
Continuous
 62
     7
100
AcDbLine
 10
69.4993746449
 20
172.35
 30
0.0
 11
69.5196541289
 21
170.0262023002
 31
0.0
  0
LINE
  5
DE
330
BF
100
AcDbEntity
  8
DV3_Layer1
  6
Continuous
 62
     7
100
AcDbLine
 10
102.7470752603
 20
120.9393664863
 30
0.0
 11
103.1068473003
 21
162.1651412364
 31
0.0
  0
ARC
  5
DF
330
BF
100
AcDbEntity
  8
DV3_Layer1
  6
Continuous
 62
     7
100
AcDbCircle
 10
108.4950302483
 20
165.35
 30
0.0
 40
0.5000000000000558
100
AcDbArc
 50
90.0
 51
179.4999997857
  0
LINE
  5
E0
330
BF
100
AcDbEntity
  8
DV3_Layer1
  6
Continuous
 62
     7
100
AcDbLine
 10
73.0037000029
 20
165.3543632696
 30
0.0
 11
73.0255933371
 21
162.8456367304
 31
0.0
  0
ARC
  5
E1
330
BF
100
AcDbEntity
  8
DV3_Layer1
  6
Continuous
 62
     7
100
AcDbCircle
 10
80.8323028801
 20
114.85
 30
0.0
 40
0.5000000000000397
100
AcDbArc
 50
183.5637281286
 51
270.0
  0
SPLINE
  5
E2
330
BF
100
AcDbEntity
  8
DV3_Layer1
  6
Continuous
 62
     7
100
AcDbSpline
210
0.0
220
0.0
230
1.0
 70
     8
 71
     3
 72
    10
 73
     6
 74
     0
 42
0.0000000135303771
 43
0.0000000001
 40
0.0
 40
0.0
 40
0.0
 40
0.0
 40
0.8115885021907854
 40
0.8969356539031931
 40
1.0
 40
1.0
 40
1.0
 40
1.0
 10
102.4860862525412
 20
120.3503879867661
 30
0.0
 10
102.6013806799759
 20
120.5638367563887
 30
0.0
 10
102.6804700843258
 20
120.7094442487571
 30
0.0
 10
102.6669585498162
 20
120.6695253912163
 30
0.0
 10
102.7506800118304
 20
120.8493533653366
 30
0.0
 10
102.7462413115187
 20
120.9395192929017
 30
0.0
  0
ARC
  5
E3
330
BF
100
AcDbEntity
  8
DV3_Layer1
  6
Continuous
 62
     7
100
AcDbCircle
 10
73.5255742987
 20
162.85
 30
0.0
 40
0.4999999999999448
100
AcDbArc
 50
180.5000002143
 51
270.0
  0
LINE
  5
E4
330
BF
100
AcDbEntity
  8
DV3_Layer1
  6
Continuous
 62
     7
100
AcDbLine
 10
73.5255742987
 20
162.35
 30
0.0
 11
107.4731749911
 21
162.35
 31
0.0
  0
SPLINE
  5
E5
330
BF
100
AcDbEntity
  8
DV3_Layer1
  6
Continuous
 62
     7
100
AcDbSpline
210
0.0
220
0.0
230
1.0
 70
     8
 71
     3
 72
    10
 73
     6
 74
     0
 42
0.0000000149653431
 43
0.0000000001
 40
0.0
 40
0.0
 40
0.0
 40
0.0
 40
0.1023310469874458
 40
0.1309606444630494
 40
1.0
 40
1.0
 40
1.0
 40
1.0
 10
78.25222206491844
 20
120.9391866460046
 30
0.0
 10
78.25539228184353
 20
120.8493623974548
 30
0.0
 10
78.31699853904139
 20
120.6993054067958
 30
0.0
 10
78.32029632569892
 20
120.7062346073072
 30
0.0
 10
78.39307270260487
 20
120.569562914136
 30
0.0
 10
78.51409082963289
 20
120.3466950480579
 30
0.0
  0
ARC
  5
E6
330
BF
100
AcDbEntity
  8
DV3_Layer1
  6
Continuous
 62
     7
100
AcDbCircle
 10
110.9469943765
 20
166.35
 30
0.0
 40
0.4999999999999744
100
AcDbArc
 50
270.0
 51
359.4999997857
  0
LINE
  5
E7
330
BF
100
AcDbEntity
  8
DV3_Layer1
  6
Continuous
 62
     7
100
AcDbLine
 10
69.517980335
 20
170.218
 30
0.0
 11
69.5517739517
 21
166.3456367304
 31
0.0
  0
ARC
  5
E8
330
BF
100
AcDbEntity
  8
DV3_Layer1
  6
Continuous
 62
     7
100
AcDbCircle
 10
103.4950302483
 20
161.85
 30
0.0
 40
0.5000000000000558
100
AcDbArc
 50
90.0
 51
140.9290340542
  0
ARC
  5
E9
330
BF
100
AcDbEntity
  8
DV3_Layer1
  6
Continuous
 62
     7
100
AcDbCircle
 10
70.0517549133
 20
166.35
 30
0.0
 40
0.5000000000000548
100
AcDbArc
 50
180.5000002143
 51
270.0
  0
ARC
  5
EA
330
BF
100
AcDbEntity
  8
DV3_Layer1
  6
Continuous
 62
     7
100
AcDbCircle
 10
100.1664464096
 20
114.85
 30
0.0
 40
0.4999999999999519
100
AcDbArc
 50
270.0
 51
356.4362718714
  0
SPLINE
  5
EB
330
BF
100
AcDbEntity
  8
DV3_Layer1
  6
Continuous
 62
     7
100
AcDbSpline
210
0.0
220
0.0
230
1.0
 70
     8
 71
     3
 72
    12
 73
     8
 74
     0
 42
0.0000000015543805
 43
0.0000000001
 40
0.0
 40
0.0
 40
0.0
 40
0.0
 40
0.1015524269921784
 40
0.3242238970783499
 40
0.5591417050120844
 40
0.7943906943873056
 40
1.0
 40
1.0
 40
1.0
 40
1.0
 10
78.32949370455134
 20
120.6823188289271
 30
0.0
 10
78.2791670968479
 20
120.7506942279504
 30
0.0
 10
78.40626814604946
 20
120.5679248197809
 30
0.0
 10
78.68929212503095
 20
120.024601886315
 30
0.0
 10
79.37927431684055
 20
118.6906381697941
 30
0.0
 10
80.03932825179072
 20
116.854116628008
 30
0.0
 10
80.28436115047333
 20
115.5520824245114
 30
0.0
 10
80.33209487318128
 20
114.8186082594112
 30
0.0
  0
SPLINE
  5
EC
330
BF
100
AcDbEntity
  8
DV3_Layer1
  6
Continuous
 62
     7
100
AcDbSpline
210
0.0
220
0.0
230
1.0
 70
     8
 71
     3
 72
    12
 73
     8
 74
     0
 42
0.0000000015879461
 43
0.0000000001
 40
0.0
 40
0.0
 40
0.0
 40
0.0
 40
0.2235119741480731
 40
0.484300920742085
 40
0.7443877502578485
 40
0.9865262680578897
 40
1.0
 40
1.0
 40
1.0
 40
1.0
 10
100.6666986174889
 20
114.818658110651
 30
0.0
 10
100.7175102810963
 20
115.6146828387748
 30
0.0
 10
100.9994802771766
 20
117.0315399156794
 30
0.0
 10
101.7638637590251
 20
119.0158525585899
 30
0.0
 10
102.4577356522128
 20
120.2938472935292
 30
0.0
 10
102.6634477671903
 20
120.6913697122341
 30
0.0
 10
102.6843307845996
 20
120.6945308841592
 30
0.0
 10
102.6805316369736
 20
120.6901728102846
 30
0.0
  0
ARC
  5
ED
330
BF
100
AcDbEntity
  8
DV3_Layer1
  6
Continuous
 62
     7
100
AcDbCircle
 10
107.4731749911
 20
162.85
 30
0.0
 40
0.50000000000003
100
AcDbArc
 50
270.0
 51
359.4999997857
  0
SPLINE
  5
EF
330
BF
100
AcDbEntity
  8
Layer1
  6
Continuous
 62
     7
100
AcDbSpline
210
0.0
220
0.0
230
1.0
 70
     8
 71
     3
 72
    12
 73
     8
 74
     0
 42
0.0000000015879461
 43
0.0000000001
 40
0.0
 40
0.0
 40
0.0
 40
0.0
 40
0.2235119741480731
 40
0.484300920742085
 40
0.7443877502578485
 40
0.9865262680578897
 40
1.0
 40
1.0
 40
1.0
 40
1.0
 10
100.6666986174887
 20
114.818658110651
 30
0.0
 10
100.7175102810961
 20
115.6146828387748
 30
0.0
 10
100.9994802771764
 20
117.0315399156794
 30
0.0
 10
101.7638637590249
 20
119.0158525585898
 30
0.0
 10
102.4577356522126
 20
120.2938472935291
 30
0.0
 10
102.66344776719
 20
120.6913697122341
 30
0.0
 10
102.6843307845994
 20
120.6945308841592
 30
0.0
 10
102.6805316369733
 20
120.6901728102845
 30
0.0
  0
SPLINE
  5
F0
330
BF
100
AcDbEntity
  8
Layer1
  6
Continuous
 62
     7
100
AcDbSpline
210
0.0
220
0.0
230
1.0
 70
     8
 71
     3
 72
    12
 73
     8
 74
     0
 42
0.0000000015543805
 43
0.0000000001
 40
0.0
 40
0.0
 40
0.0
 40
0.0
 40
0.1015524269921784
 40
0.3242238970783499
 40
0.5591417050120844
 40
0.7943906943873056
 40
1.0
 40
1.0
 40
1.0
 40
1.0
 10
78.32949370455111
 20
120.682318828927
 30
0.0
 10
78.27916709684769
 20
120.7506942279504
 30
0.0
 10
78.40626814604923
 20
120.5679248197809
 30
0.0
 10
78.68929212503073
 20
120.0246018863149
 30
0.0
 10
79.37927431684034
 20
118.6906381697941
 30
0.0
 10
80.0393282517905
 20
116.854116628008
 30
0.0
 10
80.2843611504731
 20
115.5520824245113
 30
0.0
 10
80.33209487318105
 20
114.8186082594112
 30
0.0
  0
ARC
  5
F1
330
BF
100
AcDbEntity
  8
Layer1
  6
Continuous
 62
     7
100
AcDbCircle
 10
100.1664464096
 20
114.85
 30
0.0
 40
0.4999999999999519
100
AcDbArc
 50
270.0
 51
356.4362718714
  0
SPLINE
  5
F2
330
BF
100
AcDbEntity
  8
Layer1
  6
Continuous
 62
     7
100
AcDbSpline
210
0.0
220
0.0
230
1.0
 70
     8
 71
     3
 72
    10
 73
     6
 74
     0
 42
0.0000000149653431
 43
0.0000000001
 40
0.0
 40
0.0
 40
0.0
 40
0.0
 40
0.1023310469874458
 40
0.1309606444630494
 40
1.0
 40
1.0
 40
1.0
 40
1.0
 10
78.25222206491821
 20
120.9391866460046
 30
0.0
 10
78.2553922818433
 20
120.8493623974547
 30
0.0
 10
78.31699853904117
 20
120.6993054067958
 30
0.0
 10
78.3202963256987
 20
120.7062346073071
 30
0.0
 10
78.39307270260466
 20
120.5695629141359
 30
0.0
 10
78.51409082963268
 20
120.3466950480579
 30
0.0
  0
SPLINE
  5
F3
330
BF
100
AcDbEntity
  8
Layer1
  6
Continuous
 62
     7
100
AcDbSpline
210
0.0
220
0.0
230
1.0
 70
     8
 71
     3
 72
    10
 73
     6
 74
     0
 42
0.0000000135303771
 43
0.0000000001
 40
0.0
 40
0.0
 40
0.0
 40
0.0
 40
0.8115885021907854
 40
0.8969356539031931
 40
1.0
 40
1.0
 40
1.0
 40
1.0
 10
102.486086252541
 20
120.350387986766
 30
0.0
 10
102.6013806799757
 20
120.5638367563886
 30
0.0
 10
102.6804700843256
 20
120.7094442487571
 30
0.0
 10
102.666958549816
 20
120.6695253912163
 30
0.0
 10
102.7506800118302
 20
120.8493533653366
 30
0.0
 10
102.7462413115184
 20
120.9395192929017
 30
0.0
  0
ARC
  5
F4
330
BF
100
AcDbEntity
  8
Layer1
  6
Continuous
 62
     7
100
AcDbCircle
 10
80.8323028801
 20
114.85
 30
0.0
 40
0.5000000000000397
100
AcDbArc
 50
183.5637281286
 51
270.0
  0
LINE
  5
F5
330
BF
100
AcDbEntity
  8
Layer1
  6
Continuous
 62
     7
100
AcDbLine
 10
100.1664464096
 20
114.35
 30
0.0
 11
80.8323028801
 21
114.35
 31
0.0
  0
LINE
  5
F6
330
BF
100
AcDbEntity
  8
DV3_Standard
  6
Continuous
 62
     7
100
AcDbLine
 10
78.5176541606
 20
120.35
 30
0.0
 11
73.2993746449
 21
120.35
 31
0.0
  0
LINE
  5
F7
330
BF
100
AcDbEntity
  8
DV3_Layer1
  6
Continuous
 62
     7
100
AcDbLine
 10
739.5441799884
 20
172.35
 30
0.0
 11
739.5627856785
 21
170.218
 31
0.0
  0
LINE
  5
F8
330
BF
100
AcDbEntity
  8
DV3_Layer1
  6
Continuous
 62
     7
100
AcDbLine
 10
781.5441799884
 20
172.35
 30
0.0
 11
739.5441799884
 21
172.35
 31
0.0
  0
LINE
  5
F9
330
BF
100
AcDbEntity
  8
DV3_Layer1
  6
Continuous
 62
     7
100
AcDbLine
 10
770.2112517532
 20
114.35
 30
0.0
 11
750.8771082236
 21
114.35
 31
0.0
  0
LINE
  5
FA
330
BF
100
AcDbEntity
  8
DV3_Layer1
  6
Continuous
 62
     7
100
AcDbLine
 10
743.5703796422
 20
162.35
 30
0.0
 11
777.5179803346
 21
162.35
 31
0.0
  0
LINE
  5
FB
330
BF
100
AcDbEntity
  8
DV3_Layer1
  6
Continuous
 62
     7
100
AcDbLine
 10
740.0965602568
 20
165.85
 30
0.0
 11
780.99179972
 21
165.85
 31
0.0
  0
LINE
  5
FC
330
BF
100
AcDbEntity
  8
DV3_Layer1
  6
Continuous
 62
     7
100
AcDbLine
 10
778.0179612961
 20
162.8456367304
 30
0.0
 11
778.0398546303
 21
165.3543632696
 31
0.0
  0
LINE
  5
FD
330
BF
100
AcDbEntity
  8
DV3_Layer1
  6
Continuous
 62
     7
100
AcDbLine
 10
781.4917806815
 20
166.3456367304
 30
0.0
 11
781.5441799884
 21
172.35
 31
0.0
  0
ARC
  5
FE
330
BF
100
AcDbEntity
  8
DV3_Layer1
  6
Continuous
 62
     7
100
AcDbCircle
 10
742.548524385
 20
165.35
 30
0.0
 40
0.4999999999999996
100
AcDbArc
 50
0.5000002143
 51
90.0
  0
ARC
  5
FF
330
BF
100
AcDbEntity
  8
DV3_Layer1
  6
Continuous
 62
     7
100
AcDbCircle
 10
747.548524385
 20
161.85
 30
0.0
 40
0.5000000000000004
100
AcDbArc
 50
0.5000002143
 51
90.0
  0
ARC
  5
100
330
BF
100
AcDbEntity
  8
DV3_Layer1
  6
Continuous
 62
     7
100
AcDbCircle
 10
770.2112517532
 20
114.85
 30
0.0
 40
0.5000000000000004
100
AcDbArc
 50
270.0
 51
356.4362718714
  0
ARC
  5
101
330
BF
100
AcDbEntity
  8
DV3_Layer1
  6
Continuous
 62
     7
100
AcDbCircle
 10
740.0965602568
 20
166.35
 30
0.0
 40
0.4999999999999996
100
AcDbArc
 50
180.5000002143
 51
270.0
  0
ARC
  5
102
330
BF
100
AcDbEntity
  8
DV3_Layer1
  6
Continuous
 62
     7
100
AcDbCircle
 10
743.5703796422
 20
162.85
 30
0.0
 40
0.5000000000000001
100
AcDbArc
 50
180.5000002143
 51
270.0
  0
LINE
  5
103
330
BF
100
AcDbEntity
  8
DV3_Layer1
  6
Continuous
 62
     7
100
AcDbLine
 10
772.7918806038
 20
120.9393664863
 30
0.0
 11
773.1516526439
 21
162.1651412364
 31
0.0
  0
LINE
  5
104
330
BF
100
AcDbEntity
  8
DV3_Layer1
  6
Continuous
 62
     7
100
AcDbLine
 10
743.0485053465
 20
165.3543632696
 30
0.0
 11
743.0703986807
 21
162.8456367304
 31
0.0
  0
SPLINE
  5
105
330
BF
100
AcDbEntity
  8
DV3_Layer1
  6
Continuous
 62
     7
100
AcDbSpline
210
0.0
220
0.0
230
1.0
 70
     8
 71
     3
 72
    12
 73
     8
 74
     0
 42
0.0000000015879461
 43
0.0000000001
 40
0.0
 40
0.0
 40
0.0
 40
0.0
 40
0.2235119741483892
 40
0.484300920743025
 40
0.7443877502595649
 40
0.9865262680598811
 40
1.0
 40
1.0
 40
1.0
 40
1.0
 10
770.7115039610327
 20
114.8186581106508
 30
0.0
 10
770.76231562464
 20
115.6146828387741
 30
0.0
 10
771.0442856207251
 20
117.0315399156747
 30
0.0
 10
771.8086691025591
 20
119.0158525585948
 30
0.0
 10
772.5025409957736
 20
120.2938472935168
 30
0.0
 10
772.7082531107067
 20
120.69136971225
 30
0.0
 10
772.7291361281744
 20
120.6945308841586
 30
0.0
 10
772.7253369805468
 20
120.6901728102853
 30
0.0
  0
SPLINE
  5
106
330
BF
100
AcDbEntity
  8
DV3_Layer1
  6
Continuous
 62
     7
100
AcDbSpline
210
0.0
220
0.0
230
1.0
 70
     8
 71
     3
 72
    10
 73
     6
 74
     0
 42
0.0000000149653428
 43
0.0000000001
 40
0.0
 40
0.0
 40
0.0
 40
0.0
 40
0.1023310476367944
 40
0.1309606687175279
 40
1.0
 40
1.0
 40
1.0
 40
1.0
 10
748.29702740845
 20
120.9391866460058
 30
0.0
 10
748.3001976253404
 20
120.8493623974866
 30
0.0
 10
748.3618038865936
 20
120.6993053966973
 30
0.0
 10
748.3651016701199
 20
120.7062346086102
 30
0.0
 10
748.4378780471052
 20
120.5695629142368
 30
0.0
 10
748.558896169547
 20
120.3466950538076
 30
0.0
  0
LINE
  5
107
330
BF
100
AcDbEntity
  8
DV3_Layer1
  6
Continuous
 62
     7
100
AcDbLine
 10
739.5627856785
 20
170.218
 30
0.0
 11
739.5965792953
 21
166.3456367304
 31
0.0
  0
ARC
  5
108
330
BF
100
AcDbEntity
  8
DV3_Layer1
  6
Continuous
 62
     7
100
AcDbCircle
 10
778.5398355918
 20
165.35
 30
0.0
 40
0.5
100
AcDbArc
 50
90.0
 51
179.4999997857
  0
ARC
  5
109
330
BF
100
AcDbEntity
  8
DV3_Layer1
  6
Continuous
 62
     7
100
AcDbCircle
 10
773.5398355918
 20
161.85
 30
0.0
 40
0.5
100
AcDbArc
 50
90.0
 51
179.4999997857
  0
ARC
  5
10A
330
BF
100
AcDbEntity
  8
DV3_Layer1
  6
Continuous
 62
     7
100
AcDbCircle
 10
780.99179972
 20
166.35
 30
0.0
 40
0.4999999999999987
100
AcDbArc
 50
270.0
 51
359.4999997857
  0
ARC
  5
10B
330
BF
100
AcDbEntity
  8
DV3_Layer1
  6
Continuous
 62
     7
100
AcDbCircle
 10
777.5179803346
 20
162.85
 30
0.0
 40
0.5000000000000004
100
AcDbArc
 50
270.0
 51
359.4999997857
  0
LINE
  5
10C
330
BF
100
AcDbEntity
  8
DV3_Layer1
  6
Continuous
 62
     7
100
AcDbLine
 10
747.9367073329
 20
162.1651412364
 30
0.0
 11
748.296479373
 21
120.9393664863
 31
0.0
  0
SPLINE
  5
10D
330
BF
100
AcDbEntity
  8
DV3_Layer1
  6
Continuous
 62
     7
100
AcDbSpline
210
0.0
220
0.0
230
1.0
 70
     8
 71
     3
 72
    10
 73
     6
 74
     0
 42
0.0000000135303771
 43
0.0000000001
 40
0.0
 40
0.0
 40
0.0
 40
0.0
 40
0.8115885022229279
 40
0.8969356538888369
 40
1.0
 40
1.0
 40
1.0
 40
1.0
 10
772.5308915960837
 20
120.3503879867659
 30
0.0
 10
772.646186023515
 20
120.563836756391
 30
0.0
 10
772.7252754278585
 20
120.7094442487599
 30
0.0
 10
772.7117638933872
 20
120.6695253912193
 30
0.0
 10
772.7954853552616
 20
120.8493533652989
 30
0.0
 10
772.791046655166
 20
120.9395192929023
 30
0.0
  0
SPLINE
  5
10E
330
BF
100
AcDbEntity
  8
DV3_Layer1
  6
Continuous
 62
     7
100
AcDbSpline
210
0.0
220
0.0
230
1.0
 70
     8
 71
     3
 72
    12
 73
     8
 74
     0
 42
0.0000000015543805
 43
0.0000000001
 40
0.0
 40
0.0
 40
0.0
 40
0.0
 40
0.1015524262252441
 40
0.3242238962850388
 40
0.5591417042115353
 40
0.7943906936554287
 40
1.0
 40
1.0
 40
1.0
 40
1.0
 10
748.374299047937
 20
120.6823188291494
 30
0.0
 10
748.3239724402905
 20
120.7506942280349
 30
0.0
 10
748.451073489166
 20
120.5679248205337
 30
0.0
 10
748.7340974667086
 20
120.0246018898314
 30
0.0
 10
749.4240796578614
 20
118.6906381751306
 30
0.0
 10
750.0841335944201
 20
116.8541166325836
 30
0.0
 10
750.3291664934844
 20
115.5520824270036
 30
0.0
 10
750.3769002167799
 20
114.8186082594138
 30
0.0
  0
ARC
  5
10F
330
BF
100
AcDbEntity
  8
DV3_Layer1
  6
Continuous
 62
     7
100
AcDbCircle
 10
750.8771082236
 20
114.85
 30
0.0
 40
0.499999999999996
100
AcDbArc
 50
183.5637281286
 51
270.0
  0
LINE
  5
110
330
BF
100
AcDbEntity
  8
DV3_Standard
  6
Continuous
 62
     7
100
AcDbLine
 10
777.7441799884
 20
120.35
 30
0.0
 11
772.52896726
 21
120.35
 31
0.0
  0
ENDBLK
  5
112
330
BF
100
AcDbEntity
  8
0
100
AcDbBlockEnd
  0
ENDSEC
  0
SECTION
  2
ENTITIES
  0
INSERT
  5
5F
330
1F
100
AcDbEntity
  8
Default
100
AcDbBlockReference
  2
SEANNOT_GROUP
 10
0.0
 20
0.0
 30
0.0
  0
INSERT
  5
6A
330
1F
100
AcDbEntity
  8
Default
100
AcDbBlockReference
  2
SEANNOT_GROUP1
 10
0.0
 20
0.0
 30
0.0
  0
INSERT
  5
74
330
1F
100
AcDbEntity
  8
Default
100
AcDbBlockReference
  2
SEANNOT_GROUP2
 10
0.0
 20
0.0
 30
0.0
  0
INSERT
  5
7A
330
1F
100
AcDbEntity
  8
Default
100
AcDbBlockReference
  2
SEANNOT_GROUP3
 10
0.0
 20
0.0
 30
0.0
  0
INSERT
  5
80
330
1F
100
AcDbEntity
  8
Default
100
AcDbBlockReference
  2
SEANNOT_GROUP4
 10
0.0
 20
0.0
 30
0.0
  0
INSERT
  5
86
330
1F
100
AcDbEntity
  8
Default
100
AcDbBlockReference
  2
SE
 10
0.0
 20
0.0
 30
0.0
  0
INSERT
  5
A8
330
1F
100
AcDbEntity
  8
Default
100
AcDbBlockReference
  2
SE1
 10
0.0
 20
0.0
 30
0.0
  0
INSERT
  5
C0
330
1F
100
AcDbEntity
  8
Default
100
AcDbBlockReference
  2
SE2
 10
0.0
 20
0.0
 30
0.0
  0
TEXT
  5
114
330
1F
100
AcDbEntity
  8
Default
  6
Continuous
 62
     7
100
AcDbText
 10
5.9362635081
 20
53.4225120485
 30
0.0
 40
10.0
  1
Grohe AG^J
  7
SEACAD_seiso_ttf
 11
5.9362635081
 21
63.4225120485
 31
0.0
100
AcDbText
 73
     3
  0
TEXT
  5
115
330
1F
100
AcDbEntity
  8
Default
  6
Continuous
 62
     7
100
AcDbText
 10
5.9362635081
 20
37.0588756849
 30
0.0
 40
10.0
  1
 
  7
SEACAD_seiso_ttf
 11
5.9362635081
 21
47.0588756849
 31
0.0
100
AcDbText
 73
     3
  0
TEXT
  5
116
330
1F
100
AcDbEntity
  8
Default
  6
Continuous
 62
     7
100
AcDbText
 10
5.9362635081
 20
20.6952393213
 30
0.0
 40
10.0
  1
ecn: 
  7
SEACAD_seiso_ttf
 11
5.9362635081
 21
30.6952393213
 31
0.0
100
AcDbText
 73
     3
  0
TEXT
  5
117
330
1F
100
AcDbEntity
  8
Default
  6
Continuous
 62
     7
100
AcDbText
 10
5.9362635081
 20
4.3316029576
 30
0.0
 40
10.0
  1
unit: mm
  7
SEACAD_seiso_ttf
 11
5.9362635081
 21
14.3316029576
 31
0.0
100
AcDbText
 73
     3
  0
LINE
  5
118
330
1F
100
AcDbEntity
  8
Default
  6
Continuous
 62
     7
100
AcDbLine
 10
0.0
 20
0.0
 30
0.0
 11
100.0
 21
0.0
 31
0.0
  0
LINE
  5
119
330
1F
100
AcDbEntity
  8
Default
  6
Continuous
 62
     7
100
AcDbLine
 10
0.0
 20
0.0
 30
0.0
 11
0.0
 21
100.0
 31
0.0
  0
TEXT
  5
11A
330
1F
100
AcDbEntity
  8
Default
  6
Continuous
 62
     7
100
AcDbText
 10
24.3923665681
 20
-18.2375342018
 30
0.0
 40
10.0
  1
100 mm
  7
SEACAD_seiso_ttf
 11
24.3923665681
 21
-8.2375342018
 31
0.0
100
AcDbText
 73
     3
  0
TEXT
  5
11B
330
1F
100
AcDbEntity
  8
Default
  6
Continuous
 62
     7
100
AcDbText
 10
-7.6150308803
 20
24.6231930421
 30
0.0
 40
10.0
  1
100 mm
 50
90.0
  7
SEACAD_seiso_ttf
 11
-17.6150308803
 21
24.6231930421
 31
0.0
100
AcDbText
 73
     3
  0
TEXT
  5
11C
330
1F
100
AcDbEntity
  8
Default
  6
Continuous
 62
     7
100
AcDbText
 10
28.4878128572
 20
20.0907663715
 30
0.0
 40
10.0
  1
205249
  7
SEACAD_seiso_ttf
 11
28.4878128572
 21
30.0907663715
 31
0.0
100
AcDbText
 73
     3
  0
TEXT
  5
11D
330
1F
100
AcDbEntity
  8
Default
  6
Continuous
 62
     7
100
AcDbText
 10
5.9012241913
 20
36.7242780188
 30
0.0
 40
10.0
  1
40309000
  7
SEACAD_seiso_ttf
 11
5.9012241913
 21
46.7242780188
 31
0.0
100
AcDbText
 73
     3
  0
ENDSEC
  0
SECTION
  2
OBJECTS
  0
DICTIONARY
  5
C
330
0
100
AcDbDictionary
281
     1
  3
ACAD_GROUP
350
D
  3
ACAD_LAYOUT
350
1A
  3
ACAD_MLEADERSTYLE
350
121
  3
ACAD_MLINESTYLE
350
17
  3
ACAD_PLOTSETTINGS
350
19
  3
ACAD_PLOTSTYLENAME
350
E
  3
ACAD_SCALELIST
350
3B
  3
ACAD_TABLESTYLE
350
120
  3
ACAD_VISUALSTYLE
350
2A
  3
AcDbVariableDictionary
350
11E
  0
DICTIONARY
  5
D
102
{ACAD_REACTORS
330
C
102
}
330
C
100
AcDbDictionary
281
     1
  0
DICTIONARY
  5
1A
102
{ACAD_REACTORS
330
C
102
}
330
C
100
AcDbDictionary
281
     1
  3
Layout1
350
1E
  3
Model
350
22
  0
DICTIONARY
  5
121
102
{ACAD_REACTORS
330
C
102
}
330
C
100
AcDbDictionary
281
     1
  0
DICTIONARY
  5
17
102
{ACAD_REACTORS
330
C
102
}
330
C
100
AcDbDictionary
281
     1
  3
Standard
350
18
  0
DICTIONARY
  5
19
102
{ACAD_REACTORS
330
C
102
}
330
C
100
AcDbDictionary
281
     1
  0
ACDBDICTIONARYWDFLT
  5
E
102
{ACAD_REACTORS
330
C
102
}
330
C
100
AcDbDictionary
281
     1
  3
Normal
350
F
100
AcDbDictionaryWithDefault
340
F
  0
DICTIONARY
  5
3B
102
{ACAD_REACTORS
330
C
102
}
330
C
100
AcDbDictionary
281
     1
  3
A0
350
3C
  3
A1
350
3D
  3
A2
350
3E
  3
A3
350
3F
  3
A4
350
40
  3
A5
350
41
  3
A6
350
42
  3
A7
350
43
  3
A8
350
44
  3
A9
350
45
  3
B0
350
46
  3
B1
350
47
  3
B2
350
48
  3
B3
350
49
  3
B4
350
4A
  3
B5
350
4B
  3
B6
350
4C
  3
B7
350
4D
  3
B8
350
4E
  3
B9
350
4F
  3
C0
350
50
  3
C1
350
51
  3
C2
350
52
  3
C3
350
53
  3
C4
350
54
  3
C5
350
55
  3
C6
350
56
  3
C7
350
57
  3
C8
350
58
  3
C9
350
59
  3
D0
350
5A
  3
D1
350
5B
  3
D2
350
5C
  0
DICTIONARY
  5
120
102
{ACAD_REACTORS
330
C
102
}
330
C
100
AcDbDictionary
281
     1
  0
DICTIONARY
  5
2A
102
{ACAD_REACTORS
330
C
102
}
330
C
100
AcDbDictionary
281
     1
  3
2dWireframe
350
2F
  3
3D Hidden
350
31
  3
3dWireframe
350
30
  3
Basic
350
32
  3
Brighten
350
36
  3
ColorChange
350
3A
  3
Conceptual
350
34
  3
Dim
350
35
  3
Facepattern
350
39
  3
Flat
350
2B
  3
FlatWithEdges
350
2C
  3
Gouraud
350
2D
  3
GouraudWithEdges
350
2E
  3
Linepattern
350
38
  3
Realistic
350
33
  3
Thicken
350
37
  0
DICTIONARY
  5
11E
102
{ACAD_REACTORS
330
C
102
}
330
C
100
AcDbDictionary
281
     1
  3
CANNOSCALE
350
11F
  3
PSOLHEIGHT
350
123
  3
PSOLWIDTH
350
122
  0
LAYOUT
  5
1E
102
{ACAD_REACTORS
330
1A
102
}
330
1A
100
AcDbPlotSettings
  1

  2
none_device
  4

  6

 40
0.0
 41
0.0
 42
0.0
 43
0.0
 44
0.0
 45
0.0
 46
0.0
 47
0.0
 48
0.0
 49
0.0
140
0.0
141
0.0
142
1.0
143
1.0
 70
   688
 72
     0
 73
     0
 74
     5
  7

 75
    16
147
1.0
148
0.0
149
0.0
100
AcDbLayout
  1
Layout1
 70
     1
 71
     1
 10
0.0
 20
0.0
 11
1682.0
 21
2378.0
 12
0.0
 22
0.0
 32
0.0
 14
0.0
 24
0.0
 34
0.0
 15
1682.0
 25
2378.0
 35
0.0
146
0.0
 13
0.0
 23
0.0
 33
0.0
 16
1.0
 26
0.0
 36
0.0
 17
0.0
 27
1.0
 37
0.0
 76
     0
330
1B
  0
LAYOUT
  5
22
102
{ACAD_REACTORS
330
1A
102
}
330
1A
100
AcDbPlotSettings
  1

  2
none_device
  4

  6

 40
0.0
 41
0.0
 42
0.0
 43
0.0
 44
0.0
 45
0.0
 46
0.0
 47
0.0
 48
0.0
 49
0.0
140
0.0
141
0.0
142
1.0
143
1.0
 70
  1712
 72
     0
 73
     0
 74
     0
  7

 75
     0
147
1.0
148
0.0
149
0.0
100
AcDbLayout
  1
Model
 70
     1
 71
     0
 10
0.0
 20
0.0
 11
1682.0
 21
2378.0
 12
0.0
 22
0.0
 32
0.0
 14
0.0
 24
0.0
 34
0.0
 15
1682.0
 25
2378.0
 35
0.0
146
0.0
 13
0.0
 23
0.0
 33
0.0
 16
1.0
 26
0.0
 36
0.0
 17
0.0
 27
1.0
 37
0.0
 76
     0
330
1F
331
29
  0
MLINESTYLE
  5
18
102
{ACAD_REACTORS
330
17
102
}
330
17
100
AcDbMlineStyle
  2
Standard
 70
     0
  3

 62
   256
 51
90.0
 52
90.0
 71
     2
 49
0.5
 62
   256
  6
BYLAYER
 49
-0.5
 62
   256
  6
BYLAYER
  0
ACDBPLACEHOLDER
  5
F
102
{ACAD_REACTORS
330
E
102
}
330
E
  0
SCALE
  5
3C
102
{ACAD_REACTORS
330
3B
102
}
330
3B
100
AcDbScale
 70
     0
300
1:1
140
1.0
141
1.0
290
     1
  0
SCALE
  5
3D
102
{ACAD_REACTORS
330
3B
102
}
330
3B
100
AcDbScale
 70
     0
300
1:2
140
1.0
141
2.0
290
     0
  0
SCALE
  5
3E
102
{ACAD_REACTORS
330
3B
102
}
330
3B
100
AcDbScale
 70
     0
300
1:4
140
1.0
141
4.0
290
     0
  0
SCALE
  5
3F
102
{ACAD_REACTORS
330
3B
102
}
330
3B
100
AcDbScale
 70
     0
300
1:5
140
1.0
141
5.0
290
     0
  0
SCALE
  5
40
102
{ACAD_REACTORS
330
3B
102
}
330
3B
100
AcDbScale
 70
     0
300
1:8
140
1.0
141
8.0
290
     0
  0
SCALE
  5
41
102
{ACAD_REACTORS
330
3B
102
}
330
3B
100
AcDbScale
 70
     0
300
1:10
140
1.0
141
10.0
290
     0
  0
SCALE
  5
42
102
{ACAD_REACTORS
330
3B
102
}
330
3B
100
AcDbScale
 70
     0
300
1:16
140
1.0
141
16.0
290
     0
  0
SCALE
  5
43
102
{ACAD_REACTORS
330
3B
102
}
330
3B
100
AcDbScale
 70
     0
300
1:20
140
1.0
141
20.0
290
     0
  0
SCALE
  5
44
102
{ACAD_REACTORS
330
3B
102
}
330
3B
100
AcDbScale
 70
     0
300
1:30
140
1.0
141
30.0
290
     0
  0
SCALE
  5
45
102
{ACAD_REACTORS
330
3B
102
}
330
3B
100
AcDbScale
 70
     0
300
1:40
140
1.0
141
40.0
290
     0
  0
SCALE
  5
46
102
{ACAD_REACTORS
330
3B
102
}
330
3B
100
AcDbScale
 70
     0
300
1:50
140
1.0
141
50.0
290
     0
  0
SCALE
  5
47
102
{ACAD_REACTORS
330
3B
102
}
330
3B
100
AcDbScale
 70
     0
300
1:100
140
1.0
141
100.0
290
     0
  0
SCALE
  5
48
102
{ACAD_REACTORS
330
3B
102
}
330
3B
100
AcDbScale
 70
     0
300
2:1
140
2.0
141
1.0
290
     0
  0
SCALE
  5
49
102
{ACAD_REACTORS
330
3B
102
}
330
3B
100
AcDbScale
 70
     0
300
4:1
140
4.0
141
1.0
290
     0
  0
SCALE
  5
4A
102
{ACAD_REACTORS
330
3B
102
}
330
3B
100
AcDbScale
 70
     0
300
8:1
140
8.0
141
1.0
290
     0
  0
SCALE
  5
4B
102
{ACAD_REACTORS
330
3B
102
}
330
3B
100
AcDbScale
 70
     0
300
10:1
140
10.0
141
1.0
290
     0
  0
SCALE
  5
4C
102
{ACAD_REACTORS
330
3B
102
}
330
3B
100
AcDbScale
 70
     0
300
100:1
140
100.0
141
1.0
290
     0
  0
SCALE
  5
4D
102
{ACAD_REACTORS
330
3B
102
}
330
3B
100
AcDbScale
 70
     0
300
1/128" = 1'-0"
140
0.0078125
141
12.0
290
     0
  0
SCALE
  5
4E
102
{ACAD_REACTORS
330
3B
102
}
330
3B
100
AcDbScale
 70
     0
300
1/64" = 1'-0"
140
0.015625
141
12.0
290
     0
  0
SCALE
  5
4F
102
{ACAD_REACTORS
330
3B
102
}
330
3B
100
AcDbScale
 70
     0
300
1/32" = 1'-0"
140
0.03125
141
12.0
290
     0
  0
SCALE
  5
50
102
{ACAD_REACTORS
330
3B
102
}
330
3B
100
AcDbScale
 70
     0
300
1/16" = 1'-0"
140
0.0625
141
12.0
290
     0
  0
SCALE
  5
51
102
{ACAD_REACTORS
330
3B
102
}
330
3B
100
AcDbScale
 70
     0
300
3/32" = 1'-0"
140
0.09375
141
12.0
290
     0
  0
SCALE
  5
52
102
{ACAD_REACTORS
330
3B
102
}
330
3B
100
AcDbScale
 70
     0
300
1/8" = 1'-0"
140
0.125
141
12.0
290
     0
  0
SCALE
  5
53
102
{ACAD_REACTORS
330
3B
102
}
330
3B
100
AcDbScale
 70
     0
300
3/16" = 1'-0"
140
0.1875
141
12.0
290
     0
  0
SCALE
  5
54
102
{ACAD_REACTORS
330
3B
102
}
330
3B
100
AcDbScale
 70
     0
300
1/4" = 1'-0"
140
0.25
141
12.0
290
     0
  0
SCALE
  5
55
102
{ACAD_REACTORS
330
3B
102
}
330
3B
100
AcDbScale
 70
     0
300
3/8" = 1'-0"
140
0.375
141
12.0
290
     0
  0
SCALE
  5
56
102
{ACAD_REACTORS
330
3B
102
}
330
3B
100
AcDbScale
 70
     0
300
1/2" = 1'-0"
140
0.5
141
12.0
290
     0
  0
SCALE
  5
57
102
{ACAD_REACTORS
330
3B
102
}
330
3B
100
AcDbScale
 70
     0
300
3/4" = 1'-0"
140
0.75
141
12.0
290
     0
  0
SCALE
  5
58
102
{ACAD_REACTORS
330
3B
102
}
330
3B
100
AcDbScale
 70
     0
300
1" = 1'-0"
140
1.0
141
12.0
290
     0
  0
SCALE
  5
59
102
{ACAD_REACTORS
330
3B
102
}
330
3B
100
AcDbScale
 70
     0
300
1-1/2" = 1'-0"
140
1.5
141
12.0
290
     0
  0
SCALE
  5
5A
102
{ACAD_REACTORS
330
3B
102
}
330
3B
100
AcDbScale
 70
     0
300
3" = 1'-0"
140
3.0
141
12.0
290
     0
  0
SCALE
  5
5B
102
{ACAD_REACTORS
330
3B
102
}
330
3B
100
AcDbScale
 70
     0
300
6" = 1'-0"
140
6.0
141
12.0
290
     0
  0
SCALE
  5
5C
102
{ACAD_REACTORS
330
3B
102
}
330
3B
100
AcDbScale
 70
     0
300
1'-0" = 1'-0"
140
12.0
141
12.0
290
     0
  0
VISUALSTYLE
  5
2F
102
{ACAD_REACTORS
330
2A
102
}
330
2A
100
AcDbVisualStyle
  2
2dWireframe
 70
     4
 71
     0
 72
     2
 73
     0
 90
        0
 40
-0.6
 41
-30.0
 62
     5
 63
     7
 74
     1
 91
        4
 64
     7
 65
   257
 75
     1
175
     1
 42
1.0
 92
        0
 66
   257
 43
1.0
 76
     1
 77
     6
 78
     2
 67
     7
 79
     5
170
     0
171
     0
290
     0
174
     0
 93
        1
 44
0.0
173
     0
291
     0
 45
0.0
1001
ACAD
1000
AcDbSavedByObjectVersion
1070
     0
  0
VISUALSTYLE
  5
31
102
{ACAD_REACTORS
330
2A
102
}
330
2A
100
AcDbVisualStyle
  2
3D Hidden
 70
     6
 71
     1
 72
     2
 73
     2
 90
        0
 40
-0.6
 41
-30.0
 62
     5
 63
     7
 74
     2
 91
        2
 64
     7
 65
   257
 75
     2
175
     1
 42
40.0
 92
        0
 66
   257
 43
1.0
 76
     1
 77
     6
 78
     2
 67
     7
 79
     3
170
     0
171
     0
290
     0
174
     0
 93
        1
 44
0.0
173
     0
291
     0
 45
0.0
1001
ACAD
1000
AcDbSavedByObjectVersion
1070
     0
  0
VISUALSTYLE
  5
30
102
{ACAD_REACTORS
330
2A
102
}
330
2A
100
AcDbVisualStyle
  2
3dWireframe
 70
     5
 71
     0
 72
     2
 73
     0
 90
        0
 40
-0.6
 41
-30.0
 62
     5
 63
     7
 74
     1
 91
        4
 64
     7
 65
   257
 75
     1
175
     1
 42
1.0
 92
        0
 66
   257
 43
1.0
 76
     1
 77
     6
 78
     2
 67
     7
 79
     5
170
     0
171
     0
290
     0
174
     0
 93
        1
 44
0.0
173
     0
291
     0
 45
0.0
1001
ACAD
1000
AcDbSavedByObjectVersion
1070
     0
  0
VISUALSTYLE
  5
32
102
{ACAD_REACTORS
330
2A
102
}
330
2A
100
AcDbVisualStyle
  2
Basic
 70
     7
 71
     1
 72
     0
 73
     1
 90
        0
 40
-0.6
 41
-30.0
 62
     5
 63
     7
 74
     0
 91
        4
 64
     7
 65
   257
 75
     1
175
     1
 42
1.0
 92
        8
 66
     7
 43
1.0
 76
     1
 77
     6
 78
     2
 67
     7
 79
     5
170
     0
171
     0
290
     0
174
     0
 93
        1
 44
0.0
173
     0
291
     1
 45
0.0
1001
ACAD
1000
AcDbSavedByObjectVersion
1070
     0
  0
VISUALSTYLE
  5
36
102
{ACAD_REACTORS
330
2A
102
}
330
2A
100
AcDbVisualStyle
  2
Brighten
 70
    12
 71
     2
 72
     2
 73
     0
 90
        0
 40
-0.6
 41
-30.0
 62
     5
 63
     7
 74
     1
 91
        4
 64
     7
 65
   257
 75
     1
175
     1
 42
1.0
 92
        8
 66
     7
 43
1.0
 76
     1
 77
     6
 78
     2
 67
     7
 79
     5
170
     0
171
     0
290
     0
174
     0
 93
        1
 44
50.0
173
     0
291
     1
 45
0.0
1001
ACAD
1000
AcDbSavedByObjectVersion
1070
     0
  0
VISUALSTYLE
  5
3A
102
{ACAD_REACTORS
330
2A
102
}
330
2A
100
AcDbVisualStyle
  2
ColorChange
 70
    16
 71
     2
 72
     2
 73
     3
 90
        0
 40
-0.6
 41
-30.0
 62
     5
 63
     8
 74
     1
 91
        4
 64
     7
 65
   257
 75
     1
175
     1
 42
1.0
 92
        8
 66
     8
 43
1.0
 76
     1
 77
     6
 78
     2
 67
     7
 79
     5
170
     0
171
     0
290
     0
174
     0
 93
        1
 44
0.0
173
     0
291
     1
 45
0.0
1001
ACAD
1000
AcDbSavedByObjectVersion
1070
     0
  0
VISUALSTYLE
  5
34
102
{ACAD_REACTORS
330
2A
102
}
330
2A
100
AcDbVisualStyle
  2
Conceptual
 70
     9
 71
     3
 72
     2
 73
     0
 90
        0
 40
-0.6
 41
-30.0
 62
     5
 63
     7
 74
     2
 91
        2
 64
     7
 65
   257
 75
     1
175
     1
 42
40.0
 92
        8
 66
     7
 43
1.0
 76
     1
 77
     6
 78
     2
 67
     7
 79
     3
170
     0
171
     0
290
     0
174
     0
 93
        1
 44
0.0
173
     0
291
     0
 45
0.0
1001
ACAD
1000
AcDbSavedByObjectVersion
1070
     0
  0
VISUALSTYLE
  5
35
102
{ACAD_REACTORS
330
2A
102
}
330
2A
100
AcDbVisualStyle
  2
Dim
 70
    11
 71
     2
 72
     2
 73
     0
 90
        0
 40
-0.6
 41
-30.0
 62
     5
 63
     7
 74
     1
 91
        4
 64
     7
 65
   257
 75
     1
175
     1
 42
1.0
 92
        8
 66
     7
 43
1.0
 76
     1
 77
     6
 78
     2
 67
     7
 79
     5
170
     0
171
     0
290
     0
174
     0
 93
        1
 44
-50.0
173
     0
291
     1
 45
0.0
1001
ACAD
1000
AcDbSavedByObjectVersion
1070
     0
  0
VISUALSTYLE
  5
39
102
{ACAD_REACTORS
330
2A
102
}
330
2A
100
AcDbVisualStyle
  2
Facepattern
 70
    15
 71
     2
 72
     2
 73
     0
 90
        0
 40
-0.6
 41
-30.0
 62
     5
 63
     7
 74
     1
 91
        4
 64
     7
 65
   257
 75
     1
175
     1
 42
1.0
 92
        8
 66
     7
 43
1.0
 76
     1
 77
     6
 78
     2
 67
     7
 79
     5
170
     0
171
     0
290
     0
174
     0
 93
        1
 44
0.0
173
     0
291
     1
 45
0.0
1001
ACAD
1000
AcDbSavedByObjectVersion
1070
     0
  0
VISUALSTYLE
  5
2B
102
{ACAD_REACTORS
330
2A
102
}
330
2A
100
AcDbVisualStyle
  2
Flat
 70
     0
 71
     2
 72
     1
 73
     1
 90
        2
 40
-0.6
 41
30.0
 62
     5
 63
     7
 74
     0
 91
        4
 64
     7
 65
   257
 75
     1
175
     1
 42
1.0
 92
        8
 66
     7
 43
1.0
 76
     1
 77
     6
 78
     2
 67
     7
 79
     5
170
     0
171
     0
290
     0
174
     0
 93
       13
 44
0.0
173
     0
291
     1
 45
0.0
1001
ACAD
1000
AcDbSavedByObjectVersion
1070
     0
  0
VISUALSTYLE
  5
2C
102
{ACAD_REACTORS
330
2A
102
}
330
2A
100
AcDbVisualStyle
  2
FlatWithEdges
 70
     1
 71
     2
 72
     1
 73
     1
 90
        2
 40
-0.6
 41
30.0
 62
     5
 63
     7
 74
     1
 91
        4
 64
     7
 65
   257
 75
     1
175
     1
 42
1.0
 92
        0
 66
   257
 43
1.0
 76
     1
 77
     6
 78
     2
 67
     7
 79
     5
170
     0
171
     0
290
     0
174
     0
 93
       13
 44
0.0
173
     0
291
     1
 45
0.0
1001
ACAD
1000
AcDbSavedByObjectVersion
1070
     0
  0
VISUALSTYLE
  5
2D
102
{ACAD_REACTORS
330
2A
102
}
330
2A
100
AcDbVisualStyle
  2
Gouraud
 70
     2
 71
     2
 72
     2
 73
     1
 90
        2
 40
-0.6
 41
30.0
 62
     5
 63
     7
 74
     0
 91
        4
 64
     7
 65
   257
 75
     1
175
     1
 42
1.0
 92
        0
 66
     7
 43
1.0
 76
     1
 77
     6
 78
     2
 67
     7
 79
     5
170
     0
171
     0
290
     0
174
     0
 93
       13
 44
0.0
173
     0
291
     1
 45
0.0
1001
ACAD
1000
AcDbSavedByObjectVersion
1070
     0
  0
VISUALSTYLE
  5
2E
102
{ACAD_REACTORS
330
2A
102
}
330
2A
100
AcDbVisualStyle
  2
GouraudWithEdges
 70
     3
 71
     2
 72
     2
 73
     1
 90
        2
 40
-0.6
 41
30.0
 62
     5
 63
     7
 74
     1
 91
        4
 64
     7
 65
   257
 75
     1
175
     1
 42
1.0
 92
        0
 66
   257
 43
1.0
 76
     1
 77
     6
 78
     2
 67
     7
 79
     5
170
     0
171
     0
290
     0
174
     0
 93
       13
 44
0.0
173
     0
291
     1
 45
0.0
1001
ACAD
1000
AcDbSavedByObjectVersion
1070
     0
  0
VISUALSTYLE
  5
38
102
{ACAD_REACTORS
330
2A
102
}
330
2A
100
AcDbVisualStyle
  2
Linepattern
 70
    14
 71
     2
 72
     2
 73
     0
 90
        0
 40
-0.6
 41
-30.0
 62
     5
 63
     7
 74
     1
 91
        4
 64
     7
 65
   257
 75
     7
175
     7
 42
1.0
 92
        8
 66
     7
 43
1.0
 76
     1
 77
     6
 78
     2
 67
     7
 79
     5
170
     0
171
     0
290
     0
174
     0
 93
        1
 44
0.0
173
     0
291
     1
 45
0.0
1001
ACAD
1000
AcDbSavedByObjectVersion
1070
     0
  0
VISUALSTYLE
  5
33
102
{ACAD_REACTORS
330
2A
102
}
330
2A
100
AcDbVisualStyle
  2
Realistic
 70
     8
 71
     2
 72
     2
 73
     0
 90
        0
 40
-0.6
 41
-30.0
 62
     5
 63
     7
 74
     1
 91
        0
 64
     7
 65
   257
 75
     1
175
     1
 42
1.0
 92
        8
 66
     8
 43
1.0
 76
     1
 77
     6
 78
     2
 67
     7
 79
     5
170
     0
171
     0
290
     0
174
     0
 93
       13
 44
0.0
173
     0
291
     0
 45
0.0
1001
ACAD
1000
AcDbSavedByObjectVersion
1070
     0
  0
VISUALSTYLE
  5
37
102
{ACAD_REACTORS
330
2A
102
}
330
2A
100
AcDbVisualStyle
  2
Thicken
 70
    13
 71
     2
 72
     2
 73
     0
 90
        0
 40
-0.6
 41
-30.0
 62
     5
 63
     7
 74
     1
 91
        4
 64
     7
 65
   257
 75
     1
175
     1
 42
1.0
 92
       12
 66
     7
 43
1.0
 76
     1
 77
     6
 78
     2
 67
     7
 79
     5
170
     0
171
     0
290
     0
174
     0
 93
        1
 44
0.0
173
     0
291
     1
 45
0.0
1001
ACAD
1000
AcDbSavedByObjectVersion
1070
     0
  0
DICTIONARYVAR
  5
11F
102
{ACAD_REACTORS
330
11E
102
}
330
11E
100
DictionaryVariables
280
     0
  1
1:1
  0
DICTIONARYVAR
  5
123
102
{ACAD_REACTORS
330
11E
102
}
330
11E
100
DictionaryVariables
280
     0
  1
80.000000
  0
DICTIONARYVAR
  5
122
102
{ACAD_REACTORS
330
11E
102
}
330
11E
100
DictionaryVariables
280
     0
  1
5.000000
  0
ENDSEC
  0
EOF
