  0
SECTION
  2
HEADER
  9
$ACADVER
  1
AC1009
  9
$DWGCODEPAGE
  3
ansi_1252
  9
$INSBASE
 10
0.0
 20
0.0
 30
0.0
  9
$EXTMIN
 10
1.000000000000000E+20
 20
1.000000000000000E+20
 30
1.000000000000000E+20
  9
$EXTMAX
 10
-1.000000000000000E+20
 20
-1.000000000000000E+20
 30
-1.000000000000000E+20
  9
$LIMMIN
 10
0.0
 20
0.0
  9
$LIMMAX
 10
12.0
 20
9.0
  9
$ORTHOMODE
 70
     0
  9
$REGENMODE
 70
     1
  9
$FILLMODE
 70
     1
  9
$QTEXTMODE
 70
     0
  9
$MIRRTEXT
 70
     1
  9
$DRAGMODE
 70
     2
  9
$LTSCALE
 40
1.0
  9
$OSMODE
 70
    37
  9
$ATTMODE
 70
     1
  9
$TEXTSIZE
 40
0.2
  9
$TRACEWID
 40
0.05
  9
$TEXTSTYLE
  7
STANDARD
  9
$CLAYER
  8
0
  9
$CELTYPE
  6
BYLAYER
  9
$CECOLOR
 62
   256
  9
$DIMSCALE
 40
1.0
  9
$DIMASZ
 40
0.18
  9
$DIMEXO
 40
0.0625
  9
$DIMDLI
 40
0.38
  9
$DIMRND
 40
0.0
  9
$DIMDLE
 40
0.0
  9
$DIMEXE
 40
0.18
  9
$DIMTP
 40
0.0
  9
$DIMTM
 40
0.0
  9
$DIMTXT
 40
0.18
  9
$DIMCEN
 40
0.09
  9
$DIMTSZ
 40
0.0
  9
$DIMTOL
 70
     0
  9
$DIMLIM
 70
     0
  9
$DIMTIH
 70
     1
  9
$DIMTOH
 70
     1
  9
$DIMSE1
 70
     0
  9
$DIMSE2
 70
     0
  9
$DIMTAD
 70
     0
  9
$DIMZIN
 70
     0
  9
$DIMBLK
  1

  9
$DIMASO
 70
     1
  9
$DIMSHO
 70
     1
  9
$DIMPOST
  1

  9
$DIMAPOST
  1

  9
$DIMALT
 70
     0
  9
$DIMALTD
 70
     2
  9
$DIMALTF
 40
25.4
  9
$DIMLFAC
 40
1.0
  9
$DIMTOFL
 70
     0
  9
$DIMTVP
 40
0.0
  9
$DIMTIX
 70
     0
  9
$DIMSOXD
 70
     0
  9
$DIMSAH
 70
     0
  9
$DIMBLK1
  1

  9
$DIMBLK2
  1

  9
$DIMSTYLE
  2
STANDARD
  9
$DIMCLRD
 70
     0
  9
$DIMCLRE
 70
     0
  9
$DIMCLRT
 70
     0
  9
$DIMTFAC
 40
1.0
  9
$DIMGAP
 40
0.09
  9
$LUNITS
 70
     2
  9
$LUPREC
 70
     4
  9
$SKETCHINC
 40
0.1
  9
$FILLETRAD
 40
0.5
  9
$AUNITS
 70
     0
  9
$AUPREC
 70
     0
  9
$MENU
  1
.
  9
$ELEVATION
 40
0.0
  9
$PELEVATION
 40
0.0
  9
$THICKNESS
 40
0.0
  9
$LIMCHECK
 70
     0
  9
$CHAMFERA
 40
0.5
  9
$CHAMFERB
 40
0.5
  9
$SKPOLY
 70
     0
  9
$TDCREATE
 40
2455461.427722743
  9
$TDUPDATE
 40
2455461.427722743
  9
$TDINDWG
 40
0.0000000116
  9
$TDUSRTIMER
 40
0.0000000116
  9
$USRTIMER
 70
     1
  9
$ANGBASE
 50
0.0
  9
$ANGDIR
 70
     0
  9
$PDMODE
 70
     0
  9
$PDSIZE
 40
0.0
  9
$PLINEWID
 40
0.0
  9
$COORDS
 70
     1
  9
$SPLFRAME
 70
     0
  9
$SPLINETYPE
 70
     6
  9
$SPLINESEGS
 70
     8
  9
$ATTDIA
 70
     0
  9
$ATTREQ
 70
     1
  9
$HANDLING
 70
     1
  9
$HANDSEED
  5
541
  9
$SURFTAB1
 70
     6
  9
$SURFTAB2
 70
     6
  9
$SURFTYPE
 70
     6
  9
$SURFU
 70
     6
  9
$SURFV
 70
     6
  9
$UCSNAME
  2

  9
$UCSORG
 10
0.0
 20
0.0
 30
0.0
  9
$UCSXDIR
 10
1.0
 20
0.0
 30
0.0
  9
$UCSYDIR
 10
0.0
 20
1.0
 30
0.0
  9
$PUCSNAME
  2

  9
$PUCSORG
 10
0.0
 20
0.0
 30
0.0
  9
$PUCSXDIR
 10
1.0
 20
0.0
 30
0.0
  9
$PUCSYDIR
 10
0.0
 20
1.0
 30
0.0
  9
$USERI1
 70
     0
  9
$USERI2
 70
     0
  9
$USERI3
 70
     0
  9
$USERI4
 70
     0
  9
$USERI5
 70
     0
  9
$USERR1
 40
0.0
  9
$USERR2
 40
0.0
  9
$USERR3
 40
0.0
  9
$USERR4
 40
0.0
  9
$USERR5
 40
0.0
  9
$WORLDVIEW
 70
     1
  9
$SHADEDGE
 70
     3
  9
$SHADEDIF
 70
    70
  9
$TILEMODE
 70
     1
  9
$MAXACTVP
 70
    64
  9
$PLIMCHECK
 70
     0
  9
$PEXTMIN
 10
1.000000000000000E+20
 20
1.000000000000000E+20
 30
1.000000000000000E+20
  9
$PEXTMAX
 10
-1.000000000000000E+20
 20
-1.000000000000000E+20
 30
-1.000000000000000E+20
  9
$PLIMMIN
 10
0.0
 20
0.0
  9
$PLIMMAX
 10
12.0
 20
9.0
  9
$UNITMODE
 70
     0
  9
$VISRETAIN
 70
     1
  9
$PLINEGEN
 70
     0
  9
$PSLTSCALE
 70
     1
  0
ENDSEC
  0
SECTION
  2
TABLES
  0
TABLE
  2
VPORT
 70
     1
  0
VPORT
  2
*ACTIVE
 70
     0
 10
0.0
 20
0.0
 11
1.0
 21
1.0
 12
0.0
 22
0.0
 13
0.0
 23
0.0
 14
0.5
 24
0.5
 15
0.5
 25
0.5
 16
283.1513366699219
 26
-264.0428771972656
 36
111.0165176391602
 17
48.5548095703125
 27
0.0
 37
74.83661651611328
 40
238.1615140880067
 41
1.972972972850329
 42
50.0
 43
0.0
 44
0.0
 50
0.0
 51
0.0
 71
     0
 72
   100
 73
     1
 74
     3
 75
     0
 76
     0
 77
     0
 78
     0
  0
ENDTAB
  0
TABLE
  2
LTYPE
 70
     1
  0
LTYPE
  2
CONTINUOUS
 70
     0
  3
Solid line
 72
    65
 73
     0
 40
0.0
  0
ENDTAB
  0
TABLE
  2
LAYER
 70
     2
  0
LAYER
  2
0
 70
     0
 62
     7
  6
CONTINUOUS
  0
LAYER
  2
LAYER_1
 70
     0
 62
     7
  6
CONTINUOUS
  0
ENDTAB
  0
TABLE
  2
STYLE
 70
     1
  0
STYLE
  2
STANDARD
 70
     0
 40
0.0
 41
1.0
 50
0.0
 71
     0
 42
0.2
  3
txt
  4

  0
ENDTAB
  0
TABLE
  2
VIEW
 70
     0
  0
ENDTAB
  0
TABLE
  2
UCS
 70
     0
  0
ENDTAB
  0
TABLE
  2
APPID
 70
     1
  0
APPID
  2
ACAD
 70
     0
  0
ENDTAB
  0
TABLE
  2
DIMSTYLE
 70
     1
  0
DIMSTYLE
  2
STANDARD
 70
     0
  3

  4

  5

  6

  7

 40
1.0
 41
0.18
 42
0.0625
 43
0.38
 44
0.18
 45
0.0
 46
0.0
 47
0.0
 48
0.0
140
0.18
141
0.09
142
0.0
143
25.4
144
1.0
145
0.0
146
1.0
147
0.09
 71
     0
 72
     0
 73
     1
 74
     1
 75
     0
 76
     0
 77
     0
 78
     0
170
     0
171
     2
172
     0
173
     0
174
     0
175
     0
176
     0
177
     0
178
     0
  0
ENDTAB
  0
ENDSEC
  0
SECTION
  2
BLOCKS
  0
BLOCK
  8
0
  2
$MODEL_SPACE
 70
     0
 10
0.0
 20
0.0
 30
0.0
  3
$MODEL_SPACE
  1

  0
ENDBLK
  5
21
  8
0
  0
BLOCK
 67
     1
  8
0
  2
$PAPER_SPACE
 70
     0
 10
0.0
 20
0.0
 30
0.0
  3
$PAPER_SPACE
  1

  0
ENDBLK
  5
1D
 67
     1
  8
0
  0
BLOCK
  8
0
  2
A4281011_M2_BASIN_MIXER_2_
 70
     0
 10
0.0
 20
0.0
 30
0.0
  3
A4281011_M2_BASIN_MIXER_2_
  1

  0
POLYLINE
  5
3C
  8
0
 62
   151
 66
     1
 10
0.0
 20
0.0
 30
0.0
 70
    64
 71
   136
 72
   440
  0
VERTEX
  5
3D
  8
0
 10
-19.74164199829102
 20
-11.27653694152832
 30
116.5
 70
   192
  0
VERTEX
  5
3E
  8
0
 10
-22.39564514160156
 20
-5.193617820739746
 30
0.0
 70
   192
  0
VERTEX
  5
3F
  8
0
 10
-17.94060516357422
 20
-14.38418197631836
 30
0.0
 70
   192
  0
VERTEX
  5
40
  8
0
 10
-21.88475227355957
 20
-7.089669227600098
 30
116.5
 70
   192
  0
VERTEX
  5
41
  8
0
 10
-22.8903694152832
 20
-2.358431577682495
 30
116.5
 70
   192
  0
VERTEX
  5
42
  8
0
 10
-22.80881881713867
 20
2.423659801483154
 30
116.5
 70
   192
  0
VERTEX
  5
43
  8
0
 10
-22.42830467224121
 20
5.029542922973633
 30
0.0
 70
   192
  0
VERTEX
  5
44
  8
0
 10
-21.75617599487305
 20
7.046545028686523
 30
116.5
 70
   192
  0
VERTEX
  5
45
  8
0
 10
-19.77988243103027
 20
11.42915439605713
 30
116.5
 70
   192
  0
VERTEX
  5
46
  8
0
 10
-16.99500846862793
 20
15.35419082641602
 30
116.5
 70
   192
  0
VERTEX
  5
47
  8
0
 10
-18.01804161071777
 20
14.26825428009033
 30
0.0
 70
   192
  0
VERTEX
  5
48
  8
0
 10
-13.50554275512695
 20
18.5889892578125
 30
116.5
 70
   192
  0
VERTEX
  5
49
  8
0
 10
-10.01925849914551
 20
20.68852996826172
 30
0.0
 70
   192
  0
VERTEX
  5
4A
  8
0
 10
-9.294761657714844
 20
21.00302886962891
 30
116.5
 70
   192
  0
VERTEX
  5
4B
  8
0
 10
-4.792913913726807
 20
22.47336578369141
 30
116.5
 70
   192
  0
VERTEX
  5
4C
  8
0
 10
-0.0000000000000014
 20
23.0
 30
0.0
 70
   192
  0
VERTEX
  5
4D
  8
0
 10
-0.0000000000000014
 20
23.0
 30
116.5
 70
   192
  0
VERTEX
  5
4E
  8
0
 10
-16.79659652709961
 20
-15.09031009674072
 30
116.5
 70
   192
  0
VERTEX
  5
4F
  8
0
 10
-9.949702262878418
 20
-20.73499298095703
 30
0.0
 70
   192
  0
VERTEX
  5
50
  8
0
 10
-13.52625465393066
 20
-18.61884498596191
 30
116.5
 70
   192
  0
VERTEX
  5
51
  8
0
 10
-9.443501472473145
 20
-21.04990768432617
 30
116.5
 70
   192
  0
VERTEX
  5
52
  8
0
 10
-4.827827930450439
 20
-22.52022552490234
 30
116.5
 70
   192
  0
VERTEX
  5
53
  8
0
 10
0.0000000000000042
 20
-23.0
 30
0.0
 70
   192
  0
VERTEX
  5
54
  8
0
 10
0.0000000000000042
 20
-23.0
 30
116.5
 70
   192
  0
VERTEX
  5
55
  8
0
 10
34.69509887695312
 20
15.5
 30
64.99969482421875
 70
   192
  0
VERTEX
  5
56
  8
0
 10
38.0
 20
-0.0000000000003387
 30
64.99969482421875
 70
   192
  0
VERTEX
  5
57
  8
0
 10
30.58963394165039
 20
-0.0000000000002819
 30
63.02699661254883
 70
   192
  0
VERTEX
  5
58
  8
0
 10
18.28151893615723
 20
16.64581298828125
 30
56.98246002197266
 70
   192
  0
VERTEX
  5
59
  8
0
 10
20.13875579833984
 20
11.0962495803833
 30
49.99969863891602
 70
   192
  0
VERTEX
  5
5A
  8
0
 10
12.34493637084961
 20
19.40625
 30
49.99969863891602
 70
   192
  0
VERTEX
  5
5B
  8
0
 10
24.91246604919434
 20
-0.0000000000002291
 30
57.2646484375
 70
   192
  0
VERTEX
  5
5C
  8
0
 10
23.0
 20
-0.0000000000002043
 30
49.99969863891602
 70
   192
  0
VERTEX
  5
5D
  8
0
 10
22.08658599853516
 20
12.21345329284668
 30
57.7611198425293
 70
   192
  0
VERTEX
  5
5E
  8
0
 10
25.76334571838379
 20
15.5
 30
62.73001861572266
 70
   192
  0
VERTEX
  5
5F
  8
0
 10
18.00247955322266
 20
-13.54596614837646
 30
116.5
 70
   192
  0
VERTEX
  5
60
  8
0
 10
20.48819923400879
 20
-10.08991432189941
 30
116.5
 70
   192
  0
VERTEX
  5
61
  8
0
 10
19.43059730529785
 20
-11.31267356872559
 30
117.0
 70
   192
  0
VERTEX
  5
62
  8
0
 10
21.38296318054199
 20
-6.993152141571045
 30
117.0
 70
   192
  0
VERTEX
  5
63
  8
0
 10
22.13840103149414
 20
-6.253352165222168
 30
116.5
 70
   192
  0
VERTEX
  5
64
  8
0
 10
22.35269165039062
 20
-2.424264192581177
 30
117.0
 70
   192
  0
VERTEX
  5
65
  8
0
 10
16.70016479492188
 20
-15.07657909393311
 30
117.0
 70
   192
  0
VERTEX
  5
66
  8
0
 10
13.14738273620605
 20
-18.2405891418457
 30
117.0
 70
   192
  0
VERTEX
  5
67
  8
0
 10
15.31792545318604
 20
-16.78997611999512
 30
116.5
 70
   192
  0
VERTEX
  5
68
  8
0
 10
12.17055320739746
 20
-19.58430290222168
 30
116.5
 70
   192
  0
VERTEX
  5
69
  8
0
 10
9.137775421142578
 20
-20.56054306030273
 30
117.0
 70
   192
  0
VERTEX
  5
6A
  8
0
 10
8.374326705932617
 20
-21.48518562316895
 30
116.5
 70
   192
  0
VERTEX
  5
6B
  8
0
 10
22.91687202453613
 20
-2.080720186233521
 30
116.5
 70
   192
  0
VERTEX
  5
6C
  8
0
 10
4.755314826965332
 20
-21.9803466796875
 30
117.0
 70
   192
  0
VERTEX
  5
6D
  8
0
 10
4.276409149169922
 20
-22.62756538391113
 30
116.5
 70
   192
  0
VERTEX
  5
6E
  8
0
 10
0.0
 20
-22.5
 30
117.0
 70
   192
  0
VERTEX
  5
6F
  8
0
 10
22.37820434570312
 20
2.296095609664917
 30
117.0
 70
   192
  0
VERTEX
  5
70
  8
0
 10
22.8429069519043
 20
2.142406225204468
 30
116.5
 70
   192
  0
VERTEX
  5
71
  8
0
 10
21.40383720397949
 20
6.88828706741333
 30
117.0
 70
   192
  0
VERTEX
  5
72
  8
0
 10
22.00687789916992
 20
6.252486228942871
 30
116.5
 70
   192
  0
VERTEX
  5
73
  8
0
 10
20.44148254394531
 20
10.19570159912109
 30
116.5
 70
   192
  0
VERTEX
  5
74
  8
0
 10
19.51308441162109
 20
11.18918609619141
 30
117.0
 70
   192
  0
VERTEX
  5
75
  8
0
 10
18.24720191955566
 20
13.77650833129883
 30
116.5
 70
   192
  0
VERTEX
  5
76
  8
0
 10
16.74305725097656
 20
15.01236629486084
 30
117.0
 70
   192
  0
VERTEX
  5
77
  8
0
 10
13.28074932098389
 20
18.15150451660156
 30
117.0
 70
   192
  0
VERTEX
  5
78
  8
0
 10
15.43204021453857
 20
16.98175239562988
 30
116.5
 70
   192
  0
VERTEX
  5
79
  8
0
 10
12.05262088775635
 20
19.54876136779785
 30
116.5
 70
   192
  0
VERTEX
  5
7A
  8
0
 10
9.17235279083252
 20
20.53744506835938
 30
117.0
 70
   192
  0
VERTEX
  5
7B
  8
0
 10
8.261689186096191
 20
21.43389129638672
 30
116.5
 70
   192
  0
VERTEX
  5
7C
  8
0
 10
4.755314826965332
 20
21.9803466796875
 30
117.0
 70
   192
  0
VERTEX
  5
7D
  8
0
 10
0.0000000000000028
 20
22.5
 30
117.0
 70
   192
  0
VERTEX
  5
7E
  8
0
 10
4.244149208068848
 20
22.58430480957031
 30
116.5
 70
   192
  0
VERTEX
  5
7F
  8
0
 10
34.69509887695312
 20
-15.5
 30
64.99969482421875
 70
   192
  0
VERTEX
  5
80
  8
0
 10
112.0
 20
-15.5
 30
64.99969482421875
 70
   192
  0
VERTEX
  5
81
  8
0
 10
112.0
 20
-15.5
 30
86.99969482421875
 70
   192
  0
VERTEX
  5
82
  8
0
 10
25.76334571838379
 20
-15.5
 30
86.99969482421875
 70
   192
  0
VERTEX
  5
83
  8
0
 10
25.76334571838379
 20
-15.5
 30
62.73001861572266
 70
   192
  0
VERTEX
  5
84
  8
0
 10
120.0
 20
7.5
 30
86.99969482421875
 70
   192
  0
VERTEX
  5
85
  8
0
 10
120.0
 20
-7.5
 30
64.99969482421875
 70
   192
  0
VERTEX
  5
86
  8
0
 10
120.0
 20
7.5
 30
64.99969482421875
 70
   192
  0
VERTEX
  5
87
  8
0
 10
120.0
 20
-7.5
 30
86.99969482421875
 70
   192
  0
VERTEX
  5
88
  8
0
 10
-16.62555122375488
 20
-15.02040386199951
 30
117.0
 70
   192
  0
VERTEX
  5
89
  8
0
 10
-16.43145370483398
 20
14.76226043701172
 30
117.0
 70
   192
  0
VERTEX
  5
8A
  8
0
 10
-19.31247520446777
 20
11.03139495849609
 30
117.0
 70
   192
  0
VERTEX
  5
8B
  8
0
 10
-13.23220539093018
 20
18.21408653259277
 30
117.0
 70
   192
  0
VERTEX
  5
8C
  8
0
 10
-4.722875118255615
 20
22.03065490722656
 30
117.0
 70
   192
  0
VERTEX
  5
8D
  8
0
 10
-9.238207817077637
 20
20.59230041503906
 30
117.0
 70
   192
  0
VERTEX
  5
8E
  8
0
 10
-21.40899658203125
 20
6.935545921325684
 30
117.0
 70
   192
  0
VERTEX
  5
8F
  8
0
 10
-22.39275360107422
 20
2.307161331176758
 30
117.0
 70
   192
  0
VERTEX
  5
90
  8
0
 10
-21.28321647644043
 20
-6.893359184265137
 30
117.0
 70
   192
  0
VERTEX
  5
91
  8
0
 10
-22.31297492980957
 20
-2.370971441268921
 30
117.0
 70
   192
  0
VERTEX
  5
92
  8
0
 10
-9.09270191192627
 20
-20.54644203186035
 30
117.0
 70
   192
  0
VERTEX
  5
93
  8
0
 10
-4.688720226287842
 20
-21.98481559753418
 30
117.0
 70
   192
  0
VERTEX
  5
94
  8
0
 10
-13.21194458007812
 20
-18.18488121032715
 30
117.0
 70
   192
  0
VERTEX
  5
95
  8
0
 10
-19.34988403320312
 20
-11.18069458007812
 30
117.0
 70
   192
  0
VERTEX
  5
96
  8
0
 10
112.0
 20
15.5
 30
86.99969482421875
 70
   192
  0
VERTEX
  5
97
  8
0
 10
112.0
 20
15.5
 30
64.99969482421875
 70
   192
  0
VERTEX
  5
98
  8
0
 10
25.76334571838379
 20
15.5
 30
86.99969482421875
 70
   192
  0
VERTEX
  5
99
  8
0
 10
21.52744674682617
 20
8.118351936340332
 30
86.99969482421875
 70
   192
  0
VERTEX
  5
9A
  8
0
 10
21.47743225097656
 20
-8.167417526245117
 30
86.99969482421875
 70
   192
  0
VERTEX
  5
9B
  8
0
 10
18.77563285827637
 20
16.49641990661621
 30
86.99969482421875
 70
   192
  0
VERTEX
  5
9C
  8
0
 10
12.34493637084961
 20
19.40625
 30
86.99969482421875
 70
   192
  0
VERTEX
  5
9D
  8
0
 10
117.656852722168
 20
13.1568546295166
 30
86.99969482421875
 70
   192
  0
VERTEX
  5
9E
  8
0
 10
12.34493637084961
 20
-19.40625
 30
86.99969482421875
 70
   192
  0
VERTEX
  5
9F
  8
0
 10
18.77563285827637
 20
-16.49641990661621
 30
86.99969482421875
 70
   192
  0
VERTEX
  5
A0
  8
0
 10
117.656852722168
 20
-13.1568546295166
 30
86.99969482421875
 70
   192
  0
VERTEX
  5
A1
  8
0
 10
117.656852722168
 20
13.1568546295166
 30
64.99969482421875
 70
   192
  0
VERTEX
  5
A2
  8
0
 10
117.656852722168
 20
-13.1568546295166
 30
64.99969482421875
 70
   192
  0
VERTEX
  5
A3
  8
0
 10
12.34493637084961
 20
-19.40625
 30
49.99969863891602
 70
   192
  0
VERTEX
  5
A4
  8
0
 10
18.28151893615723
 20
-16.64581298828125
 30
56.98246002197266
 70
   192
  0
VERTEX
  5
A5
  8
0
 10
20.1638126373291
 20
-11.0716667175293
 30
49.99969863891602
 70
   192
  0
VERTEX
  5
A6
  8
0
 10
22.08658599853516
 20
-12.21345329284668
 30
57.7611198425293
 70
   192
  0
VERTEX
  5
A7
  8
0
 10
9.949702262878418
 20
20.73499298095703
 30
0.0
 70
   192
  0
VERTEX
  5
A8
  8
0
 10
17.94060516357422
 20
14.38418197631836
 30
0.0
 70
   192
  0
VERTEX
  5
A9
  8
0
 10
10.01925849914551
 20
-20.68852996826172
 30
0.0
 70
   192
  0
VERTEX
  5
AA
  8
0
 10
18.01804161071777
 20
-14.26825428009033
 30
0.0
 70
   192
  0
VERTEX
  5
AB
  8
0
 10
22.42830467224121
 20
-5.029542922973633
 30
0.0
 70
   192
  0
VERTEX
  5
AC
  8
0
 10
22.39564514160156
 20
5.193617820739746
 30
0.0
 70
   192
  0
VERTEX
  5
AD
  8
0
 10
9.914122581481934
 20
-20.71594429016113
 30
0.0
 70
   192
  0
VERTEX
  5
AE
  8
0
 10
17.87531661987305
 20
-14.27469539642334
 30
0.0
 70
   192
  0
VERTEX
  5
AF
  8
0
 10
10.07247161865234
 20
20.76021766662598
 30
0.0
 70
   192
  0
VERTEX
  5
B0
  8
0
 10
17.64204978942871
 20
14.02438831329346
 30
0.0
 70
   192
  0
VERTEX
  5
B1
  8
0
 10
22.44411659240723
 20
5.059648990631104
 30
0.0
 70
   192
  0
VERTEX
  5
B2
  8
0
 10
22.31674194335938
 20
-5.101950645446777
 30
0.0
 70
   192
  0
VERTEX
  5
B3
  8
0
 10
21.71342658996582
 20
7.576184272766113
 30
86.99969482421875
 70
   192
  0
VERTEX
  5
B4
  8
0
 10
21.72817993164062
 20
-7.538872718811035
 30
86.99969482421875
 70
   192
  0
VERTEX
  5
B5
  8
0
 10
18.77564430236816
 20
16.49645614624023
 30
86.99969482421875
 70
   192
  0
VERTEX
  5
B6
  8
0
 10
18.77564430236816
 20
-16.49645614624023
 30
86.99969482421875
 70
   192
  0
VERTEX
  5
B7
  8
0
 10
-4.755314826965332
 20
-21.9803466796875
 30
117.0
 70
   192
  0
VERTEX
  5
B8
  8
0
 10
-9.17235279083252
 20
-20.53744506835938
 30
117.0
 70
   192
  0
VERTEX
  5
B9
  8
0
 10
-19.51308441162109
 20
-11.18918609619141
 30
117.0
 70
   192
  0
VERTEX
  5
BA
  8
0
 10
-21.40383720397949
 20
-6.88828706741333
 30
117.0
 70
   192
  0
VERTEX
  5
BB
  8
0
 10
-16.74305725097656
 20
-15.01236629486084
 30
117.0
 70
   192
  0
VERTEX
  5
BC
  8
0
 10
-21.38296318054199
 20
6.993152141571045
 30
117.0
 70
   192
  0
VERTEX
  5
BD
  8
0
 10
-22.35269165039062
 20
2.424264192581177
 30
117.0
 70
   192
  0
VERTEX
  5
BE
  8
0
 10
-22.37820434570312
 20
-2.296095609664917
 30
117.0
 70
   192
  0
VERTEX
  5
BF
  8
0
 10
-16.70016479492188
 20
15.07657909393311
 30
117.0
 70
   192
  0
VERTEX
  5
C0
  8
0
 10
-19.43059730529785
 20
11.31267356872559
 30
117.0
 70
   192
  0
VERTEX
  5
C1
  8
0
 10
-13.14738273620605
 20
18.2405891418457
 30
117.0
 70
   192
  0
VERTEX
  5
C2
  8
0
 10
-9.137775421142578
 20
20.56054306030273
 30
117.0
 70
   192
  0
VERTEX
  5
C3
  8
0
 10
-4.755314826965332
 20
21.9803466796875
 30
117.0
 70
   192
  0
VERTEX
  5
C4
  8
0
 10
-13.28074932098389
 20
-18.15150451660156
 30
117.0
 70
   192
  0
VERTEX
  5
C5
  8
0
 62
   151
 10
0.0
 20
0.0
 30
0.0
 70
   128
 71
     3
 72
     2
 73
     1
  0
VERTEX
  5
C6
  8
0
 62
   151
 10
0.0
 20
0.0
 30
0.0
 70
   128
 71
     2
 72
     5
 73
     4
  0
VERTEX
  5
C7
  8
0
 62
   151
 10
0.0
 20
0.0
 30
0.0
 70
   128
 71
     1
 72
     2
 73
     4
  0
VERTEX
  5
C8
  8
0
 62
   151
 10
0.0
 20
0.0
 30
0.0
 70
   128
 71
     7
 72
     6
 73
     2
  0
VERTEX
  5
C9
  8
0
 62
   151
 10
0.0
 20
0.0
 30
0.0
 70
   128
 71
     5
 72
     2
 73
     6
  0
VERTEX
  5
CA
  8
0
 62
   151
 10
0.0
 20
0.0
 30
0.0
 70
   128
 71
     9
 72
     8
 73
     7
  0
VERTEX
  5
CB
  8
0
 62
   151
 10
0.0
 20
0.0
 30
0.0
 70
   128
 71
     7
 72
     8
 73
     6
  0
VERTEX
  5
CC
  8
0
 62
   151
 10
0.0
 20
0.0
 30
0.0
 70
   128
 71
     9
 72
    11
 73
    10
  0
VERTEX
  5
CD
  8
0
 62
   151
 10
0.0
 20
0.0
 30
0.0
 70
   128
 71
    11
 72
     9
 73
     7
  0
VERTEX
  5
CE
  8
0
 62
   151
 10
0.0
 20
0.0
 30
0.0
 70
   128
 71
    11
 72
    13
 73
    12
  0
VERTEX
  5
CF
  8
0
 62
   151
 10
0.0
 20
0.0
 30
0.0
 70
   128
 71
    12
 72
    10
 73
    11
  0
VERTEX
  5
D0
  8
0
 62
   151
 10
0.0
 20
0.0
 30
0.0
 70
   128
 71
    13
 72
    15
 73
    14
  0
VERTEX
  5
D1
  8
0
 62
   151
 10
0.0
 20
0.0
 30
0.0
 70
   128
 71
    12
 72
    13
 73
    14
  0
VERTEX
  5
D2
  8
0
 62
   151
 10
0.0
 20
0.0
 30
0.0
 70
   128
 71
    13
 72
    16
 73
    15
  0
VERTEX
  5
D3
  8
0
 62
   151
 10
0.0
 20
0.0
 30
0.0
 70
   128
 71
    16
 72
    17
 73
    15
  0
VERTEX
  5
D4
  8
0
 62
   151
 10
0.0
 20
0.0
 30
0.0
 70
   128
 71
    18
 72
     3
 73
     1
  0
VERTEX
  5
D5
  8
0
 62
   151
 10
0.0
 20
0.0
 30
0.0
 70
   128
 71
     3
 72
    20
 73
    19
  0
VERTEX
  5
D6
  8
0
 62
   151
 10
0.0
 20
0.0
 30
0.0
 70
   128
 71
    20
 72
     3
 73
    18
  0
VERTEX
  5
D7
  8
0
 62
   151
 10
0.0
 20
0.0
 30
0.0
 70
   128
 71
    22
 72
    19
 73
    21
  0
VERTEX
  5
D8
  8
0
 62
   151
 10
0.0
 20
0.0
 30
0.0
 70
   128
 71
    19
 72
    20
 73
    21
  0
VERTEX
  5
D9
  8
0
 62
   151
 10
0.0
 20
0.0
 30
0.0
 70
   128
 71
    22
 72
    23
 73
    19
  0
VERTEX
  5
DA
  8
0
 62
   151
 10
0.0
 20
0.0
 30
0.0
 70
   128
 71
    24
 72
    23
 73
    22
  0
VERTEX
  5
DB
  8
0
 62
   151
 10
0.0
 20
0.0
 30
0.0
 70
   128
 71
    27
 72
    26
 73
    25
  0
VERTEX
  5
DC
  8
0
 62
   151
 10
0.0
 20
0.0
 30
0.0
 70
   128
 71
    30
 72
    29
 73
    28
  0
VERTEX
  5
DD
  8
0
 62
   151
 10
0.0
 20
0.0
 30
0.0
 70
   128
 71
    33
 72
    32
 73
    31
  0
VERTEX
  5
DE
  8
0
 62
   151
 10
0.0
 20
0.0
 30
0.0
 70
   128
 71
    32
 72
    33
 73
    29
  0
VERTEX
  5
DF
  8
0
 62
   151
 10
0.0
 20
0.0
 30
0.0
 70
   128
 71
    29
 72
    33
 73
    28
  0
VERTEX
  5
E0
  8
0
 62
   151
 10
0.0
 20
0.0
 30
0.0
 70
   128
 71
    27
 72
    34
 73
    31
  0
VERTEX
  5
E1
  8
0
 62
   151
 10
0.0
 20
0.0
 30
0.0
 70
   128
 71
    33
 72
    34
 73
    28
  0
VERTEX
  5
E2
  8
0
 62
   151
 10
0.0
 20
0.0
 30
0.0
 70
   128
 71
    33
 72
    31
 73
    34
  0
VERTEX
  5
E3
  8
0
 62
   151
 10
0.0
 20
0.0
 30
0.0
 70
   128
 71
    27
 72
    25
 73
    34
  0
VERTEX
  5
E4
  8
0
 62
   151
 10
0.0
 20
0.0
 30
0.0
 70
   128
 71
    37
 72
    36
 73
    35
  0
VERTEX
  5
E5
  8
0
 62
   151
 10
0.0
 20
0.0
 30
0.0
 70
   128
 71
    40
 72
    39
 73
    38
  0
VERTEX
  5
E6
  8
0
 62
   151
 10
0.0
 20
0.0
 30
0.0
 70
   128
 71
    38
 72
    36
 73
    37
  0
VERTEX
  5
E7
  8
0
 62
   151
 10
0.0
 20
0.0
 30
0.0
 70
   128
 71
    41
 72
    37
 73
    35
  0
VERTEX
  5
E8
  8
0
 62
   151
 10
0.0
 20
0.0
 30
0.0
 70
   128
 71
    41
 72
    43
 73
    42
  0
VERTEX
  5
E9
  8
0
 62
   151
 10
0.0
 20
0.0
 30
0.0
 70
   128
 71
    39
 72
    36
 73
    38
  0
VERTEX
  5
EA
  8
0
 62
   151
 10
0.0
 20
0.0
 30
0.0
 70
   128
 71
    35
 72
    43
 73
    41
  0
VERTEX
  5
EB
  8
0
 62
   151
 10
0.0
 20
0.0
 30
0.0
 70
   128
 71
    42
 72
    43
 73
    44
  0
VERTEX
  5
EC
  8
0
 62
   151
 10
0.0
 20
0.0
 30
0.0
 70
   128
 71
    46
 72
    45
 73
    44
  0
VERTEX
  5
ED
  8
0
 62
   151
 10
0.0
 20
0.0
 30
0.0
 70
   128
 71
    47
 72
    39
 73
    40
  0
VERTEX
  5
EE
  8
0
 62
   151
 10
0.0
 20
0.0
 30
0.0
 70
   128
 71
    46
 72
    49
 73
    48
  0
VERTEX
  5
EF
  8
0
 62
   151
 10
0.0
 20
0.0
 30
0.0
 70
   128
 71
    45
 72
    46
 73
    48
  0
VERTEX
  5
F0
  8
0
 62
   151
 10
0.0
 20
0.0
 30
0.0
 70
   128
 71
    50
 72
    48
 73
    49
  0
VERTEX
  5
F1
  8
0
 62
   151
 10
0.0
 20
0.0
 30
0.0
 70
   128
 71
    49
 72
    24
 73
    50
  0
VERTEX
  5
F2
  8
0
 62
   151
 10
0.0
 20
0.0
 30
0.0
 70
   128
 71
    44
 72
    45
 73
    42
  0
VERTEX
  5
F3
  8
0
 62
   151
 10
0.0
 20
0.0
 30
0.0
 70
   128
 71
    52
 72
    47
 73
    51
  0
VERTEX
  5
F4
  8
0
 62
   151
 10
0.0
 20
0.0
 30
0.0
 70
   128
 71
    40
 72
    51
 73
    47
  0
VERTEX
  5
F5
  8
0
 62
   151
 10
0.0
 20
0.0
 30
0.0
 70
   128
 71
    54
 72
    51
 73
    53
  0
VERTEX
  5
F6
  8
0
 62
   151
 10
0.0
 20
0.0
 30
0.0
 70
   128
 71
    51
 72
    54
 73
    52
  0
VERTEX
  5
F7
  8
0
 62
   151
 10
0.0
 20
0.0
 30
0.0
 70
   128
 71
    53
 72
    56
 73
    55
  0
VERTEX
  5
F8
  8
0
 62
   151
 10
0.0
 20
0.0
 30
0.0
 70
   128
 71
    55
 72
    54
 73
    53
  0
VERTEX
  5
F9
  8
0
 62
   151
 10
0.0
 20
0.0
 30
0.0
 70
   128
 71
    58
 72
    57
 73
    56
  0
VERTEX
  5
FA
  8
0
 62
   151
 10
0.0
 20
0.0
 30
0.0
 70
   128
 71
    55
 72
    56
 73
    57
  0
VERTEX
  5
FB
  8
0
 62
   151
 10
0.0
 20
0.0
 30
0.0
 70
   128
 71
    60
 72
    58
 73
    59
  0
VERTEX
  5
FC
  8
0
 62
   151
 10
0.0
 20
0.0
 30
0.0
 70
   128
 71
    58
 72
    60
 73
    57
  0
VERTEX
  5
FD
  8
0
 62
   151
 10
0.0
 20
0.0
 30
0.0
 70
   128
 71
    59
 72
    62
 73
    61
  0
VERTEX
  5
FE
  8
0
 62
   151
 10
0.0
 20
0.0
 30
0.0
 70
   128
 71
    61
 72
    60
 73
    59
  0
VERTEX
  5
FF
  8
0
 62
   151
 10
0.0
 20
0.0
 30
0.0
 70
   128
 71
    64
 72
    63
 73
    62
  0
VERTEX
  5
100
  8
0
 62
   151
 10
0.0
 20
0.0
 30
0.0
 70
   128
 71
    61
 72
    62
 73
    63
  0
VERTEX
  5
101
  8
0
 62
   151
 10
0.0
 20
0.0
 30
0.0
 70
   128
 71
    66
 72
    64
 73
    65
  0
VERTEX
  5
102
  8
0
 62
   151
 10
0.0
 20
0.0
 30
0.0
 70
   128
 71
    64
 72
    66
 73
    63
  0
VERTEX
  5
103
  8
0
 62
   151
 10
0.0
 20
0.0
 30
0.0
 70
   128
 71
    17
 72
    66
 73
    65
  0
VERTEX
  5
104
  8
0
 62
   151
 10
0.0
 20
0.0
 30
0.0
 70
   128
 71
    69
 72
    68
 73
    67
  0
VERTEX
  5
105
  8
0
 62
   151
 10
0.0
 20
0.0
 30
0.0
 70
   128
 71
    70
 72
    69
 73
    67
  0
VERTEX
  5
106
  8
0
 62
   151
 10
0.0
 20
0.0
 30
0.0
 70
   128
 71
    71
 72
    70
 73
    67
  0
VERTEX
  5
107
  8
0
 62
   151
 10
0.0
 20
0.0
 30
0.0
 70
   128
 71
    74
 72
    73
 73
    72
  0
VERTEX
  5
108
  8
0
 62
   151
 10
0.0
 20
0.0
 30
0.0
 70
   128
 71
    75
 72
    72
 73
    73
  0
VERTEX
  5
109
  8
0
 62
   151
 10
0.0
 20
0.0
 30
0.0
 70
   128
 71
    76
 72
    59
 73
    58
  0
VERTEX
  5
10A
  8
0
 62
   151
 10
0.0
 20
0.0
 30
0.0
 70
   128
 71
    79
 72
    78
 73
    77
  0
VERTEX
  5
10B
  8
0
 62
   151
 10
0.0
 20
0.0
 30
0.0
 70
   128
 71
    79
 72
    81
 73
    80
  0
VERTEX
  5
10C
  8
0
 62
   151
 10
0.0
 20
0.0
 30
0.0
 70
   128
 71
    78
 72
    83
 73
    82
  0
VERTEX
  5
10D
  8
0
 62
   151
 10
0.0
 20
0.0
 30
0.0
 70
   128
 71
    78
 72
    79
 73
    80
  0
VERTEX
  5
10E
  8
0
 62
   151
 10
0.0
 20
0.0
 30
0.0
 70
   128
 71
    80
 72
    64
 73
    83
  0
VERTEX
  5
10F
  8
0
 62
   151
 10
0.0
 20
0.0
 30
0.0
 70
   128
 71
    83
 72
    78
 73
    80
  0
VERTEX
  5
110
  8
0
 62
   151
 10
0.0
 20
0.0
 30
0.0
 70
   128
 71
    83
 72
    64
 73
    84
  0
VERTEX
  5
111
  8
0
 62
   151
 10
0.0
 20
0.0
 30
0.0
 70
   128
 71
    83
 72
    84
 73
    85
  0
VERTEX
  5
112
  8
0
 62
   151
 10
0.0
 20
0.0
 30
0.0
 70
   128
 71
    53
 72
    87
 73
    86
  0
VERTEX
  5
113
  8
0
 62
   151
 10
0.0
 20
0.0
 30
0.0
 70
   128
 71
    76
 72
    58
 73
    88
  0
VERTEX
  5
114
  8
0
 62
   151
 10
0.0
 20
0.0
 30
0.0
 70
   128
 71
    87
 72
    40
 73
    48
  0
VERTEX
  5
115
  8
0
 62
   151
 10
0.0
 20
0.0
 30
0.0
 70
   128
 71
    48
 72
    50
 73
    87
  0
VERTEX
  5
116
  8
0
 62
   151
 10
0.0
 20
0.0
 30
0.0
 70
   128
 71
    37
 72
    40
 73
    38
  0
VERTEX
  5
117
  8
0
 62
   151
 10
0.0
 20
0.0
 30
0.0
 70
   128
 71
    42
 72
    45
 73
    48
  0
VERTEX
  5
118
  8
0
 62
   151
 10
0.0
 20
0.0
 30
0.0
 70
   128
 71
    42
 72
    48
 73
    37
  0
VERTEX
  5
119
  8
0
 62
   151
 10
0.0
 20
0.0
 30
0.0
 70
   128
 71
    40
 72
    37
 73
    48
  0
VERTEX
  5
11A
  8
0
 62
   151
 10
0.0
 20
0.0
 30
0.0
 70
   128
 71
    37
 72
    41
 73
    42
  0
VERTEX
  5
11B
  8
0
 62
   151
 10
0.0
 20
0.0
 30
0.0
 70
   128
 71
    51
 72
    40
 73
    53
  0
VERTEX
  5
11C
  8
0
 62
   151
 10
0.0
 20
0.0
 30
0.0
 70
   128
 71
    53
 72
    86
 73
    88
  0
VERTEX
  5
11D
  8
0
 62
   151
 10
0.0
 20
0.0
 30
0.0
 70
   128
 71
    87
 72
    53
 73
    40
  0
VERTEX
  5
11E
  8
0
 62
   151
 10
0.0
 20
0.0
 30
0.0
 70
   128
 71
    88
 72
    58
 73
    56
  0
VERTEX
  5
11F
  8
0
 62
   151
 10
0.0
 20
0.0
 30
0.0
 70
   128
 71
    53
 72
    88
 73
    56
  0
VERTEX
  5
120
  8
0
 62
   151
 10
0.0
 20
0.0
 30
0.0
 70
   128
 71
    84
 72
    59
 73
    89
  0
VERTEX
  5
121
  8
0
 62
   151
 10
0.0
 20
0.0
 30
0.0
 70
   128
 71
    76
 72
    89
 73
    59
  0
VERTEX
  5
122
  8
0
 62
   151
 10
0.0
 20
0.0
 30
0.0
 70
   128
 71
    64
 72
    62
 73
    84
  0
VERTEX
  5
123
  8
0
 62
   151
 10
0.0
 20
0.0
 30
0.0
 70
   128
 71
    84
 72
    62
 73
    59
  0
VERTEX
  5
124
  8
0
 62
   151
 10
0.0
 20
0.0
 30
0.0
 70
   128
 71
    64
 72
    80
 73
    65
  0
VERTEX
  5
125
  8
0
 62
   151
 10
0.0
 20
0.0
 30
0.0
 70
   128
 71
    87
 72
    50
 73
    22
  0
VERTEX
  5
126
  8
0
 62
   151
 10
0.0
 20
0.0
 30
0.0
 70
   128
 71
    21
 72
    20
 73
    86
  0
VERTEX
  5
127
  8
0
 62
   151
 10
0.0
 20
0.0
 30
0.0
 70
   128
 71
     4
 72
    84
 73
    89
  0
VERTEX
  5
128
  8
0
 62
   151
 10
0.0
 20
0.0
 30
0.0
 70
   128
 71
    76
 72
    18
 73
     1
  0
VERTEX
  5
129
  8
0
 62
   151
 10
0.0
 20
0.0
 30
0.0
 70
   128
 71
    83
 72
     8
 73
    82
  0
VERTEX
  5
12A
  8
0
 62
   151
 10
0.0
 20
0.0
 30
0.0
 70
   128
 71
    85
 72
     5
 73
     6
  0
VERTEX
  5
12B
  8
0
 62
   151
 10
0.0
 20
0.0
 30
0.0
 70
   128
 71
    77
 72
    10
 73
    12
  0
VERTEX
  5
12C
  8
0
 62
   151
 10
0.0
 20
0.0
 30
0.0
 70
   128
 71
    78
 72
    82
 73
     9
  0
VERTEX
  5
12D
  8
0
 62
   151
 10
0.0
 20
0.0
 30
0.0
 70
   128
 71
    12
 72
    14
 73
    79
  0
VERTEX
  5
12E
  8
0
 62
   151
 10
0.0
 20
0.0
 30
0.0
 70
   128
 71
    79
 72
    77
 73
    12
  0
VERTEX
  5
12F
  8
0
 62
   151
 10
0.0
 20
0.0
 30
0.0
 70
   128
 71
    15
 72
    81
 73
    14
  0
VERTEX
  5
130
  8
0
 62
   151
 10
0.0
 20
0.0
 30
0.0
 70
   128
 71
    79
 72
    14
 73
    81
  0
VERTEX
  5
131
  8
0
 62
   151
 10
0.0
 20
0.0
 30
0.0
 70
   128
 71
    80
 72
    15
 73
    17
  0
VERTEX
  5
132
  8
0
 62
   151
 10
0.0
 20
0.0
 30
0.0
 70
   128
 71
    15
 72
    80
 73
    81
  0
VERTEX
  5
133
  8
0
 62
   151
 10
0.0
 20
0.0
 30
0.0
 70
   128
 71
    78
 72
    10
 73
    77
  0
VERTEX
  5
134
  8
0
 62
   151
 10
0.0
 20
0.0
 30
0.0
 70
   128
 71
    65
 72
    80
 73
    17
  0
VERTEX
  5
135
  8
0
 62
   151
 10
0.0
 20
0.0
 30
0.0
 70
   128
 71
     9
 72
    10
 73
    78
  0
VERTEX
  5
136
  8
0
 62
   151
 10
0.0
 20
0.0
 30
0.0
 70
   128
 71
    82
 72
     8
 73
     9
  0
VERTEX
  5
137
  8
0
 62
   151
 10
0.0
 20
0.0
 30
0.0
 70
   128
 71
     1
 72
     4
 73
    89
  0
VERTEX
  5
138
  8
0
 62
   151
 10
0.0
 20
0.0
 30
0.0
 70
   128
 71
     6
 72
    83
 73
    85
  0
VERTEX
  5
139
  8
0
 62
   151
 10
0.0
 20
0.0
 30
0.0
 70
   128
 71
     6
 72
     8
 73
    83
  0
VERTEX
  5
13A
  8
0
 62
   151
 10
0.0
 20
0.0
 30
0.0
 70
   128
 71
     5
 72
    84
 73
     4
  0
VERTEX
  5
13B
  8
0
 62
   151
 10
0.0
 20
0.0
 30
0.0
 70
   128
 71
     5
 72
    85
 73
    84
  0
VERTEX
  5
13C
  8
0
 62
   151
 10
0.0
 20
0.0
 30
0.0
 70
   128
 71
    50
 72
    24
 73
    22
  0
VERTEX
  5
13D
  8
0
 62
   151
 10
0.0
 20
0.0
 30
0.0
 70
   128
 71
    89
 72
    76
 73
     1
  0
VERTEX
  5
13E
  8
0
 62
   151
 10
0.0
 20
0.0
 30
0.0
 70
   128
 71
    18
 72
    76
 73
    88
  0
VERTEX
  5
13F
  8
0
 62
   151
 10
0.0
 20
0.0
 30
0.0
 70
   128
 71
    20
 72
    88
 73
    86
  0
VERTEX
  5
140
  8
0
 62
   151
 10
0.0
 20
0.0
 30
0.0
 70
   128
 71
    88
 72
    20
 73
    18
  0
VERTEX
  5
141
  8
0
 62
   151
 10
0.0
 20
0.0
 30
0.0
 70
   128
 71
    87
 72
    21
 73
    86
  0
VERTEX
  5
142
  8
0
 62
   151
 10
0.0
 20
0.0
 30
0.0
 70
   128
 71
    22
 72
    21
 73
    87
  0
VERTEX
  5
143
  8
0
 62
   151
 10
0.0
 20
0.0
 30
0.0
 70
   128
 71
    91
 72
    90
 73
    25
  0
VERTEX
  5
144
  8
0
 62
   151
 10
0.0
 20
0.0
 30
0.0
 70
   128
 71
    34
 72
    25
 73
    92
  0
VERTEX
  5
145
  8
0
 62
   151
 10
0.0
 20
0.0
 30
0.0
 70
   128
 71
    92
 72
    25
 73
    90
  0
VERTEX
  5
146
  8
0
 62
   151
 10
0.0
 20
0.0
 30
0.0
 70
   128
 71
    94
 72
    93
 73
    92
  0
VERTEX
  5
147
  8
0
 62
   151
 10
0.0
 20
0.0
 30
0.0
 70
   128
 71
    93
 72
    96
 73
    95
  0
VERTEX
  5
148
  8
0
 62
   151
 10
0.0
 20
0.0
 30
0.0
 70
   128
 71
    93
 72
    95
 73
    92
  0
VERTEX
  5
149
  8
0
 62
   151
 10
0.0
 20
0.0
 30
0.0
 70
   128
 71
    72
 72
    90
 73
    97
  0
VERTEX
  5
14A
  8
0
 62
   151
 10
0.0
 20
0.0
 30
0.0
 70
   128
 71
    70
 72
    94
 73
    92
  0
VERTEX
  5
14B
  8
0
 62
   151
 10
0.0
 20
0.0
 30
0.0
 70
   128
 71
    94
 72
    99
 73
    98
  0
VERTEX
  5
14C
  8
0
 62
   151
 10
0.0
 20
0.0
 30
0.0
 70
   128
 71
    94
 72
    70
 73
    99
  0
VERTEX
  5
14D
  8
0
 62
   151
 10
0.0
 20
0.0
 30
0.0
 70
   128
 71
    69
 72
    70
 73
    90
  0
VERTEX
  5
14E
  8
0
 62
   151
 10
0.0
 20
0.0
 30
0.0
 70
   128
 71
    69
 72
    75
 73
   100
  0
VERTEX
  5
14F
  8
0
 62
   151
 10
0.0
 20
0.0
 30
0.0
 70
   128
 71
    69
 72
    72
 73
    75
  0
VERTEX
  5
150
  8
0
 62
   151
 10
0.0
 20
0.0
 30
0.0
 70
   128
 71
    70
 72
    92
 73
    90
  0
VERTEX
  5
151
  8
0
 62
   151
 10
0.0
 20
0.0
 30
0.0
 70
   128
 71
    90
 72
    72
 73
    69
  0
VERTEX
  5
152
  8
0
 62
   151
 10
0.0
 20
0.0
 30
0.0
 70
   128
 71
    74
 72
   101
 73
    91
  0
VERTEX
  5
153
  8
0
 62
   151
 10
0.0
 20
0.0
 30
0.0
 70
   128
 71
    74
 72
    91
 73
    73
  0
VERTEX
  5
154
  8
0
 62
   151
 10
0.0
 20
0.0
 30
0.0
 70
   128
 71
   102
 72
    73
 73
    68
  0
VERTEX
  5
155
  8
0
 62
   151
 10
0.0
 20
0.0
 30
0.0
 70
   128
 71
    68
 72
    73
 73
    91
  0
VERTEX
  5
156
  8
0
 62
   151
 10
0.0
 20
0.0
 30
0.0
 70
   128
 71
    91
 72
    26
 73
    68
  0
VERTEX
  5
157
  8
0
 62
   151
 10
0.0
 20
0.0
 30
0.0
 70
   128
 71
    25
 72
    26
 73
    91
  0
VERTEX
  5
158
  8
0
 62
   151
 10
0.0
 20
0.0
 30
0.0
 70
   128
 71
    26
 72
    67
 73
    68
  0
VERTEX
  5
159
  8
0
 62
   151
 10
0.0
 20
0.0
 30
0.0
 70
   128
 71
    99
 72
    70
 73
    71
  0
VERTEX
  5
15A
  8
0
 62
   151
 10
0.0
 20
0.0
 30
0.0
 70
   128
 71
    98
 72
   104
 73
   103
  0
VERTEX
  5
15B
  8
0
 62
   151
 10
0.0
 20
0.0
 30
0.0
 70
   128
 71
   104
 72
    99
 73
    71
  0
VERTEX
  5
15C
  8
0
 62
   151
 10
0.0
 20
0.0
 30
0.0
 70
   128
 71
    99
 72
   104
 73
    98
  0
VERTEX
  5
15D
  8
0
 62
   151
 10
0.0
 20
0.0
 30
0.0
 70
   128
 71
    96
 72
    30
 73
    28
  0
VERTEX
  5
15E
  8
0
 62
   151
 10
0.0
 20
0.0
 30
0.0
 70
   128
 71
    95
 72
    96
 73
    28
  0
VERTEX
  5
15F
  8
0
 62
   151
 10
0.0
 20
0.0
 30
0.0
 70
   128
 71
    34
 72
    95
 73
    28
  0
VERTEX
  5
160
  8
0
 62
   151
 10
0.0
 20
0.0
 30
0.0
 70
   128
 71
    92
 72
    95
 73
    34
  0
VERTEX
  5
161
  8
0
 62
   151
 10
0.0
 20
0.0
 30
0.0
 70
   128
 71
    32
 72
   105
 73
    31
  0
VERTEX
  5
162
  8
0
 62
   151
 10
0.0
 20
0.0
 30
0.0
 70
   128
 71
    71
 72
    27
 73
   106
  0
VERTEX
  5
163
  8
0
 62
   151
 10
0.0
 20
0.0
 30
0.0
 70
   128
 71
    26
 72
    27
 73
    71
  0
VERTEX
  5
164
  8
0
 62
   151
 10
0.0
 20
0.0
 30
0.0
 70
   128
 71
    31
 72
   105
 73
   106
  0
VERTEX
  5
165
  8
0
 62
   151
 10
0.0
 20
0.0
 30
0.0
 70
   128
 71
   106
 72
   105
 73
   104
  0
VERTEX
  5
166
  8
0
 62
   151
 10
0.0
 20
0.0
 30
0.0
 70
   128
 71
   105
 72
   103
 73
   104
  0
VERTEX
  5
167
  8
0
 62
   151
 10
0.0
 20
0.0
 30
0.0
 70
   128
 71
    31
 72
   106
 73
    27
  0
VERTEX
  5
168
  8
0
 62
   151
 10
0.0
 20
0.0
 30
0.0
 70
   128
 71
   106
 72
   104
 73
    71
  0
VERTEX
  5
169
  8
0
 62
   151
 10
0.0
 20
0.0
 30
0.0
 70
   128
 71
    26
 72
    71
 73
    67
  0
VERTEX
  5
16A
  8
0
 62
   151
 10
0.0
 20
0.0
 30
0.0
 70
   128
 71
   100
 72
   102
 73
    69
  0
VERTEX
  5
16B
  8
0
 62
   151
 10
0.0
 20
0.0
 30
0.0
 70
   128
 71
    69
 72
   102
 73
    68
  0
VERTEX
  5
16C
  8
0
 62
   151
 10
0.0
 20
0.0
 30
0.0
 70
   128
 71
   102
 72
   100
 73
    73
  0
VERTEX
  5
16D
  8
0
 62
   151
 10
0.0
 20
0.0
 30
0.0
 70
   128
 71
    75
 72
    73
 73
   100
  0
VERTEX
  5
16E
  8
0
 62
   151
 10
0.0
 20
0.0
 30
0.0
 70
   128
 71
    97
 72
   101
 73
    72
  0
VERTEX
  5
16F
  8
0
 62
   151
 10
0.0
 20
0.0
 30
0.0
 70
   128
 71
    72
 72
   101
 73
    74
  0
VERTEX
  5
170
  8
0
 62
   151
 10
0.0
 20
0.0
 30
0.0
 70
   128
 71
   101
 72
    97
 73
    91
  0
VERTEX
  5
171
  8
0
 62
   151
 10
0.0
 20
0.0
 30
0.0
 70
   128
 71
    90
 72
    91
 73
    97
  0
VERTEX
  5
172
  8
0
 62
   151
 10
0.0
 20
0.0
 30
0.0
 70
   128
 71
    17
 72
    16
 73
    66
  0
VERTEX
  5
173
  8
0
 62
   151
 10
0.0
 20
0.0
 30
0.0
 70
   128
 71
    96
 72
    57
 73
    60
  0
VERTEX
  5
174
  8
0
 62
   151
 10
0.0
 20
0.0
 30
0.0
 70
   128
 71
   107
 72
    63
 73
    66
  0
VERTEX
  5
175
  8
0
 62
   151
 10
0.0
 20
0.0
 30
0.0
 70
   128
 71
   108
 72
    29
 73
    30
  0
VERTEX
  5
176
  8
0
 62
   151
 10
0.0
 20
0.0
 30
0.0
 70
   128
 71
    96
 72
    93
 73
    57
  0
VERTEX
  5
177
  8
0
 62
   151
 10
0.0
 20
0.0
 30
0.0
 70
   128
 71
    94
 72
    47
 73
    52
  0
VERTEX
  5
178
  8
0
 62
   151
 10
0.0
 20
0.0
 30
0.0
 70
   128
 71
    52
 72
    93
 73
    94
  0
VERTEX
  5
179
  8
0
 62
   151
 10
0.0
 20
0.0
 30
0.0
 70
   128
 71
    36
 72
    94
 73
    35
  0
VERTEX
  5
17A
  8
0
 62
   151
 10
0.0
 20
0.0
 30
0.0
 70
   128
 71
    47
 72
    94
 73
    39
  0
VERTEX
  5
17B
  8
0
 62
   151
 10
0.0
 20
0.0
 30
0.0
 70
   128
 71
    98
 72
    43
 73
    35
  0
VERTEX
  5
17C
  8
0
 62
   151
 10
0.0
 20
0.0
 30
0.0
 70
   128
 71
    35
 72
    94
 73
    98
  0
VERTEX
  5
17D
  8
0
 62
   151
 10
0.0
 20
0.0
 30
0.0
 70
   128
 71
   103
 72
   110
 73
   109
  0
VERTEX
  5
17E
  8
0
 62
   151
 10
0.0
 20
0.0
 30
0.0
 70
   128
 71
   105
 72
   111
 73
   110
  0
VERTEX
  5
17F
  8
0
 62
   151
 10
0.0
 20
0.0
 30
0.0
 70
   128
 71
    46
 72
   109
 73
    49
  0
VERTEX
  5
180
  8
0
 62
   151
 10
0.0
 20
0.0
 30
0.0
 70
   128
 71
    46
 72
    44
 73
   109
  0
VERTEX
  5
181
  8
0
 62
   151
 10
0.0
 20
0.0
 30
0.0
 70
   128
 71
    23
 72
    24
 73
    49
  0
VERTEX
  5
182
  8
0
 62
   151
 10
0.0
 20
0.0
 30
0.0
 70
   128
 71
    49
 72
   109
 73
    23
  0
VERTEX
  5
183
  8
0
 62
   151
 10
0.0
 20
0.0
 30
0.0
 70
   128
 71
   105
 72
    32
 73
   111
  0
VERTEX
  5
184
  8
0
 62
   151
 10
0.0
 20
0.0
 30
0.0
 70
   128
 71
    55
 72
    57
 73
    93
  0
VERTEX
  5
185
  8
0
 62
   151
 10
0.0
 20
0.0
 30
0.0
 70
   128
 71
    93
 72
    52
 73
    54
  0
VERTEX
  5
186
  8
0
 62
   151
 10
0.0
 20
0.0
 30
0.0
 70
   128
 71
    61
 72
    63
 73
   107
  0
VERTEX
  5
187
  8
0
 62
   151
 10
0.0
 20
0.0
 30
0.0
 70
   128
 71
   108
 72
    30
 73
   107
  0
VERTEX
  5
188
  8
0
 62
   151
 10
0.0
 20
0.0
 30
0.0
 70
   128
 71
    16
 72
   107
 73
    66
  0
VERTEX
  5
189
  8
0
 62
   151
 10
0.0
 20
0.0
 30
0.0
 70
   128
 71
   103
 72
    44
 73
    98
  0
VERTEX
  5
18A
  8
0
 62
   151
 10
0.0
 20
0.0
 30
0.0
 70
   128
 71
   103
 72
   109
 73
    44
  0
VERTEX
  5
18B
  8
0
 62
   151
 10
0.0
 20
0.0
 30
0.0
 70
   128
 71
   110
 72
   103
 73
   105
  0
VERTEX
  5
18C
  8
0
 62
   151
 10
0.0
 20
0.0
 30
0.0
 70
   128
 71
    98
 72
    44
 73
    43
  0
VERTEX
  5
18D
  8
0
 62
   151
 10
0.0
 20
0.0
 30
0.0
 70
   128
 71
    32
 72
   112
 73
   111
  0
VERTEX
  5
18E
  8
0
 62
   151
 10
0.0
 20
0.0
 30
0.0
 70
   128
 71
    94
 72
    36
 73
    39
  0
VERTEX
  5
18F
  8
0
 62
   151
 10
0.0
 20
0.0
 30
0.0
 70
   128
 71
   108
 72
   112
 73
    29
  0
VERTEX
  5
190
  8
0
 62
   151
 10
0.0
 20
0.0
 30
0.0
 70
   128
 71
    93
 72
    54
 73
    55
  0
VERTEX
  5
191
  8
0
 62
   151
 10
0.0
 20
0.0
 30
0.0
 70
   128
 71
    96
 72
    61
 73
   107
  0
VERTEX
  5
192
  8
0
 62
   151
 10
0.0
 20
0.0
 30
0.0
 70
   128
 71
    96
 72
    60
 73
    61
  0
VERTEX
  5
193
  8
0
 62
   151
 10
0.0
 20
0.0
 30
0.0
 70
   128
 71
    30
 72
    96
 73
   107
  0
VERTEX
  5
194
  8
0
 62
   151
 10
0.0
 20
0.0
 30
0.0
 70
   128
 71
   112
 72
    32
 73
    29
  0
VERTEX
  5
195
  8
0
 62
   151
 10
0.0
 20
0.0
 30
0.0
 70
   128
 71
     2
 72
     3
 73
    19
  0
VERTEX
  5
196
  8
0
 62
   151
 10
0.0
 20
0.0
 30
0.0
 70
   128
 71
   109
 72
    11
 73
     7
  0
VERTEX
  5
197
  8
0
 62
   151
 10
0.0
 20
0.0
 30
0.0
 70
   128
 71
     2
 72
    19
 73
    23
  0
VERTEX
  5
198
  8
0
 62
   151
 10
0.0
 20
0.0
 30
0.0
 70
   128
 71
   109
 72
   110
 73
    11
  0
VERTEX
  5
199
  8
0
 62
   151
 10
0.0
 20
0.0
 30
0.0
 70
   128
 71
    23
 72
     7
 73
     2
  0
VERTEX
  5
19A
  8
0
 62
   151
 10
0.0
 20
0.0
 30
0.0
 70
   128
 71
   112
 72
   108
 73
   107
  0
VERTEX
  5
19B
  8
0
 62
   151
 10
0.0
 20
0.0
 30
0.0
 70
   128
 71
    16
 72
    13
 73
   111
  0
VERTEX
  5
19C
  8
0
 62
   151
 10
0.0
 20
0.0
 30
0.0
 70
   128
 71
    16
 72
   111
 73
   112
  0
VERTEX
  5
19D
  8
0
 62
   151
 10
0.0
 20
0.0
 30
0.0
 70
   128
 71
   112
 72
   107
 73
    16
  0
VERTEX
  5
19E
  8
0
 62
   151
 10
0.0
 20
0.0
 30
0.0
 70
   128
 71
    11
 72
   110
 73
    13
  0
VERTEX
  5
19F
  8
0
 62
   151
 10
0.0
 20
0.0
 30
0.0
 70
   128
 71
   110
 72
   111
 73
    13
  0
VERTEX
  5
1A0
  8
0
 62
   151
 10
0.0
 20
0.0
 30
0.0
 70
   128
 71
    23
 72
   109
 73
     7
  0
VERTEX
  5
1A1
  8
0
 62
   151
 10
0.0
 20
0.0
 30
0.0
 70
   128
 71
     3
 72
     2
 73
     1
  0
VERTEX
  5
1A2
  8
0
 62
   151
 10
0.0
 20
0.0
 30
0.0
 70
   128
 71
     2
 72
     5
 73
     4
  0
VERTEX
  5
1A3
  8
0
 62
   151
 10
0.0
 20
0.0
 30
0.0
 70
   128
 71
     1
 72
     2
 73
     4
  0
VERTEX
  5
1A4
  8
0
 62
   151
 10
0.0
 20
0.0
 30
0.0
 70
   128
 71
     7
 72
     6
 73
     2
  0
VERTEX
  5
1A5
  8
0
 62
   151
 10
0.0
 20
0.0
 30
0.0
 70
   128
 71
     5
 72
     2
 73
     6
  0
VERTEX
  5
1A6
  8
0
 62
   151
 10
0.0
 20
0.0
 30
0.0
 70
   128
 71
     9
 72
     8
 73
     7
  0
VERTEX
  5
1A7
  8
0
 62
   151
 10
0.0
 20
0.0
 30
0.0
 70
   128
 71
     7
 72
     8
 73
     6
  0
VERTEX
  5
1A8
  8
0
 62
   151
 10
0.0
 20
0.0
 30
0.0
 70
   128
 71
     9
 72
    11
 73
    10
  0
VERTEX
  5
1A9
  8
0
 62
   151
 10
0.0
 20
0.0
 30
0.0
 70
   128
 71
    11
 72
     9
 73
     7
  0
VERTEX
  5
1AA
  8
0
 62
   151
 10
0.0
 20
0.0
 30
0.0
 70
   128
 71
    11
 72
    13
 73
    12
  0
VERTEX
  5
1AB
  8
0
 62
   151
 10
0.0
 20
0.0
 30
0.0
 70
   128
 71
    12
 72
    10
 73
    11
  0
VERTEX
  5
1AC
  8
0
 62
   151
 10
0.0
 20
0.0
 30
0.0
 70
   128
 71
    13
 72
    15
 73
    14
  0
VERTEX
  5
1AD
  8
0
 62
   151
 10
0.0
 20
0.0
 30
0.0
 70
   128
 71
    12
 72
    13
 73
    14
  0
VERTEX
  5
1AE
  8
0
 62
   151
 10
0.0
 20
0.0
 30
0.0
 70
   128
 71
    13
 72
    16
 73
    15
  0
VERTEX
  5
1AF
  8
0
 62
   151
 10
0.0
 20
0.0
 30
0.0
 70
   128
 71
    16
 72
    17
 73
    15
  0
VERTEX
  5
1B0
  8
0
 62
   151
 10
0.0
 20
0.0
 30
0.0
 70
   128
 71
    18
 72
     3
 73
     1
  0
VERTEX
  5
1B1
  8
0
 62
   151
 10
0.0
 20
0.0
 30
0.0
 70
   128
 71
     3
 72
    20
 73
    19
  0
VERTEX
  5
1B2
  8
0
 62
   151
 10
0.0
 20
0.0
 30
0.0
 70
   128
 71
    20
 72
     3
 73
    18
  0
VERTEX
  5
1B3
  8
0
 62
   151
 10
0.0
 20
0.0
 30
0.0
 70
   128
 71
    22
 72
    19
 73
    21
  0
VERTEX
  5
1B4
  8
0
 62
   151
 10
0.0
 20
0.0
 30
0.0
 70
   128
 71
    19
 72
    20
 73
    21
  0
VERTEX
  5
1B5
  8
0
 62
   151
 10
0.0
 20
0.0
 30
0.0
 70
   128
 71
    22
 72
    23
 73
    19
  0
VERTEX
  5
1B6
  8
0
 62
   151
 10
0.0
 20
0.0
 30
0.0
 70
   128
 71
    24
 72
    23
 73
    22
  0
VERTEX
  5
1B7
  8
0
 62
   151
 10
0.0
 20
0.0
 30
0.0
 70
   128
 71
    27
 72
    26
 73
    25
  0
VERTEX
  5
1B8
  8
0
 62
   151
 10
0.0
 20
0.0
 30
0.0
 70
   128
 71
    30
 72
    29
 73
    28
  0
VERTEX
  5
1B9
  8
0
 62
   151
 10
0.0
 20
0.0
 30
0.0
 70
   128
 71
    33
 72
    32
 73
    31
  0
VERTEX
  5
1BA
  8
0
 62
   151
 10
0.0
 20
0.0
 30
0.0
 70
   128
 71
    32
 72
    33
 73
    29
  0
VERTEX
  5
1BB
  8
0
 62
   151
 10
0.0
 20
0.0
 30
0.0
 70
   128
 71
    29
 72
    33
 73
    28
  0
VERTEX
  5
1BC
  8
0
 62
   151
 10
0.0
 20
0.0
 30
0.0
 70
   128
 71
    27
 72
    34
 73
    31
  0
VERTEX
  5
1BD
  8
0
 62
   151
 10
0.0
 20
0.0
 30
0.0
 70
   128
 71
    33
 72
    34
 73
    28
  0
VERTEX
  5
1BE
  8
0
 62
   151
 10
0.0
 20
0.0
 30
0.0
 70
   128
 71
    33
 72
    31
 73
    34
  0
VERTEX
  5
1BF
  8
0
 62
   151
 10
0.0
 20
0.0
 30
0.0
 70
   128
 71
    27
 72
    25
 73
    34
  0
VERTEX
  5
1C0
  8
0
 62
   151
 10
0.0
 20
0.0
 30
0.0
 70
   128
 71
    37
 72
    36
 73
    35
  0
VERTEX
  5
1C1
  8
0
 62
   151
 10
0.0
 20
0.0
 30
0.0
 70
   128
 71
    40
 72
    39
 73
    38
  0
VERTEX
  5
1C2
  8
0
 62
   151
 10
0.0
 20
0.0
 30
0.0
 70
   128
 71
    38
 72
    36
 73
    37
  0
VERTEX
  5
1C3
  8
0
 62
   151
 10
0.0
 20
0.0
 30
0.0
 70
   128
 71
    41
 72
    37
 73
    35
  0
VERTEX
  5
1C4
  8
0
 62
   151
 10
0.0
 20
0.0
 30
0.0
 70
   128
 71
    41
 72
    43
 73
    42
  0
VERTEX
  5
1C5
  8
0
 62
   151
 10
0.0
 20
0.0
 30
0.0
 70
   128
 71
    39
 72
    36
 73
    38
  0
VERTEX
  5
1C6
  8
0
 62
   151
 10
0.0
 20
0.0
 30
0.0
 70
   128
 71
    35
 72
    43
 73
    41
  0
VERTEX
  5
1C7
  8
0
 62
   151
 10
0.0
 20
0.0
 30
0.0
 70
   128
 71
    42
 72
    43
 73
    44
  0
VERTEX
  5
1C8
  8
0
 62
   151
 10
0.0
 20
0.0
 30
0.0
 70
   128
 71
    46
 72
    45
 73
    44
  0
VERTEX
  5
1C9
  8
0
 62
   151
 10
0.0
 20
0.0
 30
0.0
 70
   128
 71
    47
 72
    39
 73
    40
  0
VERTEX
  5
1CA
  8
0
 62
   151
 10
0.0
 20
0.0
 30
0.0
 70
   128
 71
    46
 72
    49
 73
    48
  0
VERTEX
  5
1CB
  8
0
 62
   151
 10
0.0
 20
0.0
 30
0.0
 70
   128
 71
    45
 72
    46
 73
    48
  0
VERTEX
  5
1CC
  8
0
 62
   151
 10
0.0
 20
0.0
 30
0.0
 70
   128
 71
    50
 72
    48
 73
    49
  0
VERTEX
  5
1CD
  8
0
 62
   151
 10
0.0
 20
0.0
 30
0.0
 70
   128
 71
    49
 72
    24
 73
    50
  0
VERTEX
  5
1CE
  8
0
 62
   151
 10
0.0
 20
0.0
 30
0.0
 70
   128
 71
    44
 72
    45
 73
    42
  0
VERTEX
  5
1CF
  8
0
 62
   151
 10
0.0
 20
0.0
 30
0.0
 70
   128
 71
    52
 72
    47
 73
    51
  0
VERTEX
  5
1D0
  8
0
 62
   151
 10
0.0
 20
0.0
 30
0.0
 70
   128
 71
    40
 72
    51
 73
    47
  0
VERTEX
  5
1D1
  8
0
 62
   151
 10
0.0
 20
0.0
 30
0.0
 70
   128
 71
    54
 72
    51
 73
    53
  0
VERTEX
  5
1D2
  8
0
 62
   151
 10
0.0
 20
0.0
 30
0.0
 70
   128
 71
    51
 72
    54
 73
    52
  0
VERTEX
  5
1D3
  8
0
 62
   151
 10
0.0
 20
0.0
 30
0.0
 70
   128
 71
    53
 72
    56
 73
    55
  0
VERTEX
  5
1D4
  8
0
 62
   151
 10
0.0
 20
0.0
 30
0.0
 70
   128
 71
    55
 72
    54
 73
    53
  0
VERTEX
  5
1D5
  8
0
 62
   151
 10
0.0
 20
0.0
 30
0.0
 70
   128
 71
    58
 72
    57
 73
    56
  0
VERTEX
  5
1D6
  8
0
 62
   151
 10
0.0
 20
0.0
 30
0.0
 70
   128
 71
    55
 72
    56
 73
    57
  0
VERTEX
  5
1D7
  8
0
 62
   151
 10
0.0
 20
0.0
 30
0.0
 70
   128
 71
    60
 72
    58
 73
    59
  0
VERTEX
  5
1D8
  8
0
 62
   151
 10
0.0
 20
0.0
 30
0.0
 70
   128
 71
    58
 72
    60
 73
    57
  0
VERTEX
  5
1D9
  8
0
 62
   151
 10
0.0
 20
0.0
 30
0.0
 70
   128
 71
    59
 72
    62
 73
    61
  0
VERTEX
  5
1DA
  8
0
 62
   151
 10
0.0
 20
0.0
 30
0.0
 70
   128
 71
    61
 72
    60
 73
    59
  0
VERTEX
  5
1DB
  8
0
 62
   151
 10
0.0
 20
0.0
 30
0.0
 70
   128
 71
    64
 72
    63
 73
    62
  0
VERTEX
  5
1DC
  8
0
 62
   151
 10
0.0
 20
0.0
 30
0.0
 70
   128
 71
    61
 72
    62
 73
    63
  0
VERTEX
  5
1DD
  8
0
 62
   151
 10
0.0
 20
0.0
 30
0.0
 70
   128
 71
    66
 72
    64
 73
    65
  0
VERTEX
  5
1DE
  8
0
 62
   151
 10
0.0
 20
0.0
 30
0.0
 70
   128
 71
    64
 72
    66
 73
    63
  0
VERTEX
  5
1DF
  8
0
 62
   151
 10
0.0
 20
0.0
 30
0.0
 70
   128
 71
    17
 72
    66
 73
    65
  0
VERTEX
  5
1E0
  8
0
 62
   151
 10
0.0
 20
0.0
 30
0.0
 70
   128
 71
     2
 72
     3
 73
    19
  0
VERTEX
  5
1E1
  8
0
 62
   151
 10
0.0
 20
0.0
 30
0.0
 70
   128
 71
   113
 72
    11
 73
     7
  0
VERTEX
  5
1E2
  8
0
 62
   151
 10
0.0
 20
0.0
 30
0.0
 70
   128
 71
     2
 72
    19
 73
    23
  0
VERTEX
  5
1E3
  8
0
 62
   151
 10
0.0
 20
0.0
 30
0.0
 70
   128
 71
   113
 72
   114
 73
    11
  0
VERTEX
  5
1E4
  8
0
 62
   151
 10
0.0
 20
0.0
 30
0.0
 70
   128
 71
    23
 72
     7
 73
     2
  0
VERTEX
  5
1E5
  8
0
 62
   151
 10
0.0
 20
0.0
 30
0.0
 70
   128
 71
   117
 72
   116
 73
   115
  0
VERTEX
  5
1E6
  8
0
 62
   151
 10
0.0
 20
0.0
 30
0.0
 70
   128
 71
    16
 72
    13
 73
   118
  0
VERTEX
  5
1E7
  8
0
 62
   151
 10
0.0
 20
0.0
 30
0.0
 70
   128
 71
    16
 72
   118
 73
   117
  0
VERTEX
  5
1E8
  8
0
 62
   151
 10
0.0
 20
0.0
 30
0.0
 70
   128
 71
   117
 72
   115
 73
    16
  0
VERTEX
  5
1E9
  8
0
 62
   151
 10
0.0
 20
0.0
 30
0.0
 70
   128
 71
    11
 72
   114
 73
    13
  0
VERTEX
  5
1EA
  8
0
 62
   151
 10
0.0
 20
0.0
 30
0.0
 70
   128
 71
   114
 72
   118
 73
    13
  0
VERTEX
  5
1EB
  8
0
 62
   151
 10
0.0
 20
0.0
 30
0.0
 70
   128
 71
    23
 72
   113
 73
     7
  0
VERTEX
  5
1EC
  8
0
 62
   151
 10
0.0
 20
0.0
 30
0.0
 70
   128
 71
    17
 72
    16
 73
    66
  0
VERTEX
  5
1ED
  8
0
 62
   151
 10
0.0
 20
0.0
 30
0.0
 70
   128
 71
    96
 72
    57
 73
    60
  0
VERTEX
  5
1EE
  8
0
 62
   151
 10
0.0
 20
0.0
 30
0.0
 70
   128
 71
   115
 72
    63
 73
    66
  0
VERTEX
  5
1EF
  8
0
 62
   151
 10
0.0
 20
0.0
 30
0.0
 70
   128
 71
   116
 72
    29
 73
    30
  0
VERTEX
  5
1F0
  8
0
 62
   151
 10
0.0
 20
0.0
 30
0.0
 70
   128
 71
    96
 72
   119
 73
    57
  0
VERTEX
  5
1F1
  8
0
 62
   151
 10
0.0
 20
0.0
 30
0.0
 70
   128
 71
   120
 72
    47
 73
    52
  0
VERTEX
  5
1F2
  8
0
 62
   151
 10
0.0
 20
0.0
 30
0.0
 70
   128
 71
    52
 72
   119
 73
   120
  0
VERTEX
  5
1F3
  8
0
 62
   151
 10
0.0
 20
0.0
 30
0.0
 70
   128
 71
    36
 72
   120
 73
    35
  0
VERTEX
  5
1F4
  8
0
 62
   151
 10
0.0
 20
0.0
 30
0.0
 70
   128
 71
    47
 72
   120
 73
    39
  0
VERTEX
  5
1F5
  8
0
 62
   151
 10
0.0
 20
0.0
 30
0.0
 70
   128
 71
    98
 72
    43
 73
    35
  0
VERTEX
  5
1F6
  8
0
 62
   151
 10
0.0
 20
0.0
 30
0.0
 70
   128
 71
    35
 72
   120
 73
    98
  0
VERTEX
  5
1F7
  8
0
 62
   151
 10
0.0
 20
0.0
 30
0.0
 70
   128
 71
   103
 72
   114
 73
   113
  0
VERTEX
  5
1F8
  8
0
 62
   151
 10
0.0
 20
0.0
 30
0.0
 70
   128
 71
   105
 72
   118
 73
   114
  0
VERTEX
  5
1F9
  8
0
 62
   151
 10
0.0
 20
0.0
 30
0.0
 70
   128
 71
    46
 72
   113
 73
    49
  0
VERTEX
  5
1FA
  8
0
 62
   151
 10
0.0
 20
0.0
 30
0.0
 70
   128
 71
    46
 72
    44
 73
   113
  0
VERTEX
  5
1FB
  8
0
 62
   151
 10
0.0
 20
0.0
 30
0.0
 70
   128
 71
    23
 72
    24
 73
    49
  0
VERTEX
  5
1FC
  8
0
 62
   151
 10
0.0
 20
0.0
 30
0.0
 70
   128
 71
    49
 72
   113
 73
    23
  0
VERTEX
  5
1FD
  8
0
 62
   151
 10
0.0
 20
0.0
 30
0.0
 70
   128
 71
   105
 72
    32
 73
   118
  0
VERTEX
  5
1FE
  8
0
 62
   151
 10
0.0
 20
0.0
 30
0.0
 70
   128
 71
    55
 72
    57
 73
   119
  0
VERTEX
  5
1FF
  8
0
 62
   151
 10
0.0
 20
0.0
 30
0.0
 70
   128
 71
   119
 72
    52
 73
    54
  0
VERTEX
  5
200
  8
0
 62
   151
 10
0.0
 20
0.0
 30
0.0
 70
   128
 71
    61
 72
    63
 73
   115
  0
VERTEX
  5
201
  8
0
 62
   151
 10
0.0
 20
0.0
 30
0.0
 70
   128
 71
   116
 72
    30
 73
   115
  0
VERTEX
  5
202
  8
0
 62
   151
 10
0.0
 20
0.0
 30
0.0
 70
   128
 71
    16
 72
   115
 73
    66
  0
VERTEX
  5
203
  8
0
 62
   151
 10
0.0
 20
0.0
 30
0.0
 70
   128
 71
   103
 72
    44
 73
    98
  0
VERTEX
  5
204
  8
0
 62
   151
 10
0.0
 20
0.0
 30
0.0
 70
   128
 71
   103
 72
   113
 73
    44
  0
VERTEX
  5
205
  8
0
 62
   151
 10
0.0
 20
0.0
 30
0.0
 70
   128
 71
   114
 72
   103
 73
   105
  0
VERTEX
  5
206
  8
0
 62
   151
 10
0.0
 20
0.0
 30
0.0
 70
   128
 71
    98
 72
    44
 73
    43
  0
VERTEX
  5
207
  8
0
 62
   151
 10
0.0
 20
0.0
 30
0.0
 70
   128
 71
    32
 72
   117
 73
   118
  0
VERTEX
  5
208
  8
0
 62
   151
 10
0.0
 20
0.0
 30
0.0
 70
   128
 71
   120
 72
    36
 73
    39
  0
VERTEX
  5
209
  8
0
 62
   151
 10
0.0
 20
0.0
 30
0.0
 70
   128
 71
   116
 72
   117
 73
    29
  0
VERTEX
  5
20A
  8
0
 62
   151
 10
0.0
 20
0.0
 30
0.0
 70
   128
 71
   119
 72
    54
 73
    55
  0
VERTEX
  5
20B
  8
0
 62
   151
 10
0.0
 20
0.0
 30
0.0
 70
   128
 71
    96
 72
    61
 73
   115
  0
VERTEX
  5
20C
  8
0
 62
   151
 10
0.0
 20
0.0
 30
0.0
 70
   128
 71
    96
 72
    60
 73
    61
  0
VERTEX
  5
20D
  8
0
 62
   151
 10
0.0
 20
0.0
 30
0.0
 70
   128
 71
    30
 72
    96
 73
   115
  0
VERTEX
  5
20E
  8
0
 62
   151
 10
0.0
 20
0.0
 30
0.0
 70
   128
 71
   117
 72
    32
 73
    29
  0
VERTEX
  5
20F
  8
0
 62
   151
 10
0.0
 20
0.0
 30
0.0
 70
   128
 71
    97
 72
   101
 73
    72
  0
VERTEX
  5
210
  8
0
 62
   151
 10
0.0
 20
0.0
 30
0.0
 70
   128
 71
    72
 72
   101
 73
    74
  0
VERTEX
  5
211
  8
0
 62
   151
 10
0.0
 20
0.0
 30
0.0
 70
   128
 71
   101
 72
    97
 73
    91
  0
VERTEX
  5
212
  8
0
 62
   151
 10
0.0
 20
0.0
 30
0.0
 70
   128
 71
    90
 72
    91
 73
    97
  0
VERTEX
  5
213
  8
0
 62
   151
 10
0.0
 20
0.0
 30
0.0
 70
   128
 71
   100
 72
   102
 73
    69
  0
VERTEX
  5
214
  8
0
 62
   151
 10
0.0
 20
0.0
 30
0.0
 70
   128
 71
    69
 72
   102
 73
    68
  0
VERTEX
  5
215
  8
0
 62
   151
 10
0.0
 20
0.0
 30
0.0
 70
   128
 71
   102
 72
   100
 73
    73
  0
VERTEX
  5
216
  8
0
 62
   151
 10
0.0
 20
0.0
 30
0.0
 70
   128
 71
    75
 72
    73
 73
   100
  0
VERTEX
  5
217
  8
0
 62
   151
 10
0.0
 20
0.0
 30
0.0
 70
   128
 71
    32
 72
   105
 73
    31
  0
VERTEX
  5
218
  8
0
 62
   151
 10
0.0
 20
0.0
 30
0.0
 70
   128
 71
    71
 72
    27
 73
   106
  0
VERTEX
  5
219
  8
0
 62
   151
 10
0.0
 20
0.0
 30
0.0
 70
   128
 71
    26
 72
    27
 73
    71
  0
VERTEX
  5
21A
  8
0
 62
   151
 10
0.0
 20
0.0
 30
0.0
 70
   128
 71
    31
 72
   105
 73
   106
  0
VERTEX
  5
21B
  8
0
 62
   151
 10
0.0
 20
0.0
 30
0.0
 70
   128
 71
   106
 72
   105
 73
   104
  0
VERTEX
  5
21C
  8
0
 62
   151
 10
0.0
 20
0.0
 30
0.0
 70
   128
 71
   105
 72
   103
 73
   104
  0
VERTEX
  5
21D
  8
0
 62
   151
 10
0.0
 20
0.0
 30
0.0
 70
   128
 71
    31
 72
   106
 73
    27
  0
VERTEX
  5
21E
  8
0
 62
   151
 10
0.0
 20
0.0
 30
0.0
 70
   128
 71
   106
 72
   104
 73
    71
  0
VERTEX
  5
21F
  8
0
 62
   151
 10
0.0
 20
0.0
 30
0.0
 70
   128
 71
    26
 72
    71
 73
    67
  0
VERTEX
  5
220
  8
0
 62
   151
 10
0.0
 20
0.0
 30
0.0
 70
   128
 71
    96
 72
    30
 73
    28
  0
VERTEX
  5
221
  8
0
 62
   151
 10
0.0
 20
0.0
 30
0.0
 70
   128
 71
   121
 72
    96
 73
    28
  0
VERTEX
  5
222
  8
0
 62
   151
 10
0.0
 20
0.0
 30
0.0
 70
   128
 71
    34
 72
   121
 73
    28
  0
VERTEX
  5
223
  8
0
 62
   151
 10
0.0
 20
0.0
 30
0.0
 70
   128
 71
    92
 72
   121
 73
    34
  0
VERTEX
  5
224
  8
0
 62
   151
 10
0.0
 20
0.0
 30
0.0
 70
   128
 71
   122
 72
    70
 73
    71
  0
VERTEX
  5
225
  8
0
 62
   151
 10
0.0
 20
0.0
 30
0.0
 70
   128
 71
    98
 72
   104
 73
   103
  0
VERTEX
  5
226
  8
0
 62
   151
 10
0.0
 20
0.0
 30
0.0
 70
   128
 71
   104
 72
   122
 73
    71
  0
VERTEX
  5
227
  8
0
 62
   151
 10
0.0
 20
0.0
 30
0.0
 70
   128
 71
   122
 72
   104
 73
    98
  0
VERTEX
  5
228
  8
0
 62
   151
 10
0.0
 20
0.0
 30
0.0
 70
   128
 71
    74
 72
   101
 73
    91
  0
VERTEX
  5
229
  8
0
 62
   151
 10
0.0
 20
0.0
 30
0.0
 70
   128
 71
    74
 72
    91
 73
    73
  0
VERTEX
  5
22A
  8
0
 62
   151
 10
0.0
 20
0.0
 30
0.0
 70
   128
 71
   102
 72
    73
 73
    68
  0
VERTEX
  5
22B
  8
0
 62
   151
 10
0.0
 20
0.0
 30
0.0
 70
   128
 71
    68
 72
    73
 73
    91
  0
VERTEX
  5
22C
  8
0
 62
   151
 10
0.0
 20
0.0
 30
0.0
 70
   128
 71
    91
 72
    26
 73
    68
  0
VERTEX
  5
22D
  8
0
 62
   151
 10
0.0
 20
0.0
 30
0.0
 70
   128
 71
    25
 72
    26
 73
    91
  0
VERTEX
  5
22E
  8
0
 62
   151
 10
0.0
 20
0.0
 30
0.0
 70
   128
 71
    26
 72
    67
 73
    68
  0
VERTEX
  5
22F
  8
0
 62
   151
 10
0.0
 20
0.0
 30
0.0
 70
   128
 71
   120
 72
   119
 73
    92
  0
VERTEX
  5
230
  8
0
 62
   151
 10
0.0
 20
0.0
 30
0.0
 70
   128
 71
   119
 72
    96
 73
   121
  0
VERTEX
  5
231
  8
0
 62
   151
 10
0.0
 20
0.0
 30
0.0
 70
   128
 71
   119
 72
   121
 73
    92
  0
VERTEX
  5
232
  8
0
 62
   151
 10
0.0
 20
0.0
 30
0.0
 70
   128
 71
    72
 72
    90
 73
    97
  0
VERTEX
  5
233
  8
0
 62
   151
 10
0.0
 20
0.0
 30
0.0
 70
   128
 71
    70
 72
   120
 73
    92
  0
VERTEX
  5
234
  8
0
 62
   151
 10
0.0
 20
0.0
 30
0.0
 70
   128
 71
   120
 72
   122
 73
    98
  0
VERTEX
  5
235
  8
0
 62
   151
 10
0.0
 20
0.0
 30
0.0
 70
   128
 71
   120
 72
    70
 73
   122
  0
VERTEX
  5
236
  8
0
 62
   151
 10
0.0
 20
0.0
 30
0.0
 70
   128
 71
    69
 72
    70
 73
    90
  0
VERTEX
  5
237
  8
0
 62
   151
 10
0.0
 20
0.0
 30
0.0
 70
   128
 71
    69
 72
    75
 73
   100
  0
VERTEX
  5
238
  8
0
 62
   151
 10
0.0
 20
0.0
 30
0.0
 70
   128
 71
    69
 72
    72
 73
    75
  0
VERTEX
  5
239
  8
0
 62
   151
 10
0.0
 20
0.0
 30
0.0
 70
   128
 71
    70
 72
    92
 73
    90
  0
VERTEX
  5
23A
  8
0
 62
   151
 10
0.0
 20
0.0
 30
0.0
 70
   128
 71
    90
 72
    72
 73
    69
  0
VERTEX
  5
23B
  8
0
 62
   151
 10
0.0
 20
0.0
 30
0.0
 70
   128
 71
    91
 72
    90
 73
    25
  0
VERTEX
  5
23C
  8
0
 62
   151
 10
0.0
 20
0.0
 30
0.0
 70
   128
 71
    34
 72
    25
 73
    92
  0
VERTEX
  5
23D
  8
0
 62
   151
 10
0.0
 20
0.0
 30
0.0
 70
   128
 71
    92
 72
    25
 73
    90
  0
VERTEX
  5
23E
  8
0
 62
   151
 10
0.0
 20
0.0
 30
0.0
 70
   128
 71
   123
 72
    50
 73
    22
  0
VERTEX
  5
23F
  8
0
 62
   151
 10
0.0
 20
0.0
 30
0.0
 70
   128
 71
    21
 72
    20
 73
   124
  0
VERTEX
  5
240
  8
0
 62
   151
 10
0.0
 20
0.0
 30
0.0
 70
   128
 71
     4
 72
   126
 73
   125
  0
VERTEX
  5
241
  8
0
 62
   151
 10
0.0
 20
0.0
 30
0.0
 70
   128
 71
   127
 72
    18
 73
     1
  0
VERTEX
  5
242
  8
0
 62
   151
 10
0.0
 20
0.0
 30
0.0
 70
   128
 71
   129
 72
     8
 73
   128
  0
VERTEX
  5
243
  8
0
 62
   151
 10
0.0
 20
0.0
 30
0.0
 70
   128
 71
   130
 72
     5
 73
     6
  0
VERTEX
  5
244
  8
0
 62
   151
 10
0.0
 20
0.0
 30
0.0
 70
   128
 71
   131
 72
    10
 73
    12
  0
VERTEX
  5
245
  8
0
 62
   151
 10
0.0
 20
0.0
 30
0.0
 70
   128
 71
   132
 72
   128
 73
     9
  0
VERTEX
  5
246
  8
0
 62
   151
 10
0.0
 20
0.0
 30
0.0
 70
   128
 71
    12
 72
    14
 73
   133
  0
VERTEX
  5
247
  8
0
 62
   151
 10
0.0
 20
0.0
 30
0.0
 70
   128
 71
   133
 72
   131
 73
    12
  0
VERTEX
  5
248
  8
0
 62
   151
 10
0.0
 20
0.0
 30
0.0
 70
   128
 71
    15
 72
   134
 73
    14
  0
VERTEX
  5
249
  8
0
 62
   151
 10
0.0
 20
0.0
 30
0.0
 70
   128
 71
   133
 72
    14
 73
   134
  0
VERTEX
  5
24A
  8
0
 62
   151
 10
0.0
 20
0.0
 30
0.0
 70
   128
 71
   135
 72
    15
 73
    17
  0
VERTEX
  5
24B
  8
0
 62
   151
 10
0.0
 20
0.0
 30
0.0
 70
   128
 71
    15
 72
   135
 73
   134
  0
VERTEX
  5
24C
  8
0
 62
   151
 10
0.0
 20
0.0
 30
0.0
 70
   128
 71
   132
 72
    10
 73
   131
  0
VERTEX
  5
24D
  8
0
 62
   151
 10
0.0
 20
0.0
 30
0.0
 70
   128
 71
    65
 72
   135
 73
    17
  0
VERTEX
  5
24E
  8
0
 62
   151
 10
0.0
 20
0.0
 30
0.0
 70
   128
 71
     9
 72
    10
 73
   132
  0
VERTEX
  5
24F
  8
0
 62
   151
 10
0.0
 20
0.0
 30
0.0
 70
   128
 71
   128
 72
     8
 73
     9
  0
VERTEX
  5
250
  8
0
 62
   151
 10
0.0
 20
0.0
 30
0.0
 70
   128
 71
     1
 72
     4
 73
   125
  0
VERTEX
  5
251
  8
0
 62
   151
 10
0.0
 20
0.0
 30
0.0
 70
   128
 71
     6
 72
   129
 73
   130
  0
VERTEX
  5
252
  8
0
 62
   151
 10
0.0
 20
0.0
 30
0.0
 70
   128
 71
     6
 72
     8
 73
   129
  0
VERTEX
  5
253
  8
0
 62
   151
 10
0.0
 20
0.0
 30
0.0
 70
   128
 71
     5
 72
   126
 73
     4
  0
VERTEX
  5
254
  8
0
 62
   151
 10
0.0
 20
0.0
 30
0.0
 70
   128
 71
     5
 72
   130
 73
   126
  0
VERTEX
  5
255
  8
0
 62
   151
 10
0.0
 20
0.0
 30
0.0
 70
   128
 71
    50
 72
    24
 73
    22
  0
VERTEX
  5
256
  8
0
 62
   151
 10
0.0
 20
0.0
 30
0.0
 70
   128
 71
   125
 72
   127
 73
     1
  0
VERTEX
  5
257
  8
0
 62
   151
 10
0.0
 20
0.0
 30
0.0
 70
   128
 71
    18
 72
   127
 73
   136
  0
VERTEX
  5
258
  8
0
 62
   151
 10
0.0
 20
0.0
 30
0.0
 70
   128
 71
    20
 72
   136
 73
   124
  0
VERTEX
  5
259
  8
0
 62
   151
 10
0.0
 20
0.0
 30
0.0
 70
   128
 71
   136
 72
    20
 73
    18
  0
VERTEX
  5
25A
  8
0
 62
   151
 10
0.0
 20
0.0
 30
0.0
 70
   128
 71
   123
 72
    21
 73
   124
  0
VERTEX
  5
25B
  8
0
 62
   151
 10
0.0
 20
0.0
 30
0.0
 70
   128
 71
    22
 72
    21
 73
   123
  0
VERTEX
  5
25C
  8
0
 62
   151
 10
0.0
 20
0.0
 30
0.0
 70
   128
 71
   127
 72
    59
 73
    58
  0
VERTEX
  5
25D
  8
0
 62
   151
 10
0.0
 20
0.0
 30
0.0
 70
   128
 71
   133
 72
   132
 73
   131
  0
VERTEX
  5
25E
  8
0
 62
   151
 10
0.0
 20
0.0
 30
0.0
 70
   128
 71
   133
 72
   134
 73
   135
  0
VERTEX
  5
25F
  8
0
 62
   151
 10
0.0
 20
0.0
 30
0.0
 70
   128
 71
   132
 72
   129
 73
   128
  0
VERTEX
  5
260
  8
0
 62
   151
 10
0.0
 20
0.0
 30
0.0
 70
   128
 71
   132
 72
   133
 73
   135
  0
VERTEX
  5
261
  8
0
 62
   151
 10
0.0
 20
0.0
 30
0.0
 70
   128
 71
   135
 72
    64
 73
   129
  0
VERTEX
  5
262
  8
0
 62
   151
 10
0.0
 20
0.0
 30
0.0
 70
   128
 71
   129
 72
   132
 73
   135
  0
VERTEX
  5
263
  8
0
 62
   151
 10
0.0
 20
0.0
 30
0.0
 70
   128
 71
   129
 72
    64
 73
   126
  0
VERTEX
  5
264
  8
0
 62
   151
 10
0.0
 20
0.0
 30
0.0
 70
   128
 71
   129
 72
   126
 73
   130
  0
VERTEX
  5
265
  8
0
 62
   151
 10
0.0
 20
0.0
 30
0.0
 70
   128
 71
    53
 72
   123
 73
   124
  0
VERTEX
  5
266
  8
0
 62
   151
 10
0.0
 20
0.0
 30
0.0
 70
   128
 71
   127
 72
    58
 73
   136
  0
VERTEX
  5
267
  8
0
 62
   151
 10
0.0
 20
0.0
 30
0.0
 70
   128
 71
   123
 72
    40
 73
    48
  0
VERTEX
  5
268
  8
0
 62
   151
 10
0.0
 20
0.0
 30
0.0
 70
   128
 71
    48
 72
    50
 73
   123
  0
VERTEX
  5
269
  8
0
 62
   151
 10
0.0
 20
0.0
 30
0.0
 70
   128
 71
    37
 72
    40
 73
    38
  0
VERTEX
  5
26A
  8
0
 62
   151
 10
0.0
 20
0.0
 30
0.0
 70
   128
 71
    42
 72
    45
 73
    48
  0
VERTEX
  5
26B
  8
0
 62
   151
 10
0.0
 20
0.0
 30
0.0
 70
   128
 71
    42
 72
    48
 73
    37
  0
VERTEX
  5
26C
  8
0
 62
   151
 10
0.0
 20
0.0
 30
0.0
 70
   128
 71
    40
 72
    37
 73
    48
  0
VERTEX
  5
26D
  8
0
 62
   151
 10
0.0
 20
0.0
 30
0.0
 70
   128
 71
    37
 72
    41
 73
    42
  0
VERTEX
  5
26E
  8
0
 62
   151
 10
0.0
 20
0.0
 30
0.0
 70
   128
 71
    51
 72
    40
 73
    53
  0
VERTEX
  5
26F
  8
0
 62
   151
 10
0.0
 20
0.0
 30
0.0
 70
   128
 71
    53
 72
   124
 73
   136
  0
VERTEX
  5
270
  8
0
 62
   151
 10
0.0
 20
0.0
 30
0.0
 70
   128
 71
   123
 72
    53
 73
    40
  0
VERTEX
  5
271
  8
0
 62
   151
 10
0.0
 20
0.0
 30
0.0
 70
   128
 71
   136
 72
    58
 73
    56
  0
VERTEX
  5
272
  8
0
 62
   151
 10
0.0
 20
0.0
 30
0.0
 70
   128
 71
    53
 72
   136
 73
    56
  0
VERTEX
  5
273
  8
0
 62
   151
 10
0.0
 20
0.0
 30
0.0
 70
   128
 71
   126
 72
    59
 73
   125
  0
VERTEX
  5
274
  8
0
 62
   151
 10
0.0
 20
0.0
 30
0.0
 70
   128
 71
   127
 72
   125
 73
    59
  0
VERTEX
  5
275
  8
0
 62
   151
 10
0.0
 20
0.0
 30
0.0
 70
   128
 71
    64
 72
    62
 73
   126
  0
VERTEX
  5
276
  8
0
 62
   151
 10
0.0
 20
0.0
 30
0.0
 70
   128
 71
   126
 72
    62
 73
    59
  0
VERTEX
  5
277
  8
0
 62
   151
 10
0.0
 20
0.0
 30
0.0
 70
   128
 71
    64
 72
   135
 73
    65
  0
VERTEX
  5
278
  8
0
 62
   151
 10
0.0
 20
0.0
 30
0.0
 70
   128
 71
    74
 72
    73
 73
    72
  0
VERTEX
  5
279
  8
0
 62
   151
 10
0.0
 20
0.0
 30
0.0
 70
   128
 71
    75
 72
    72
 73
    73
  0
VERTEX
  5
27A
  8
0
 62
   151
 10
0.0
 20
0.0
 30
0.0
 70
   128
 71
    69
 72
    68
 73
    67
  0
VERTEX
  5
27B
  8
0
 62
   151
 10
0.0
 20
0.0
 30
0.0
 70
   128
 71
    70
 72
    69
 73
    67
  0
VERTEX
  5
27C
  8
0
 62
   151
 10
0.0
 20
0.0
 30
0.0
 70
   128
 71
    71
 72
    70
 73
    67
  0
SEQEND
  5
27D
  8
0
 62
   151
  0
ENDBLK
  5
281
  8
0
  0
BLOCK
  8
0
  2
39
 70
     0
 10
0.0
 20
0.0
 30
0.0
  3
39
  1

  0
POLYLINE
  5
283
  8
0
 62
   151
 66
     1
 10
0.0
 20
0.0
 30
0.0
 70
    64
 71
    88
 72
   136
  0
VERTEX
  5
284
  8
0
 10
0.000000000000001
 20
-17.08412742614746
 30
124.2654342651367
 70
   192
  0
VERTEX
  5
285
  8
0
 10
0.0000000000000014
 20
-19.42785835266113
 30
120.4893798828125
 70
   192
  0
VERTEX
  5
286
  8
0
 10
-3.333041429519653
 20
-19.11293411254883
 30
120.5234832763672
 70
   192
  0
VERTEX
  5
287
  8
0
 10
-19.12131690979004
 20
-3.365615844726562
 30
120.5234832763672
 70
   192
  0
VERTEX
  5
288
  8
0
 10
-16.86111450195312
 20
-2.967789173126221
 30
124.2234878540039
 70
   192
  0
VERTEX
  5
289
  8
0
 10
-15.23142623901367
 20
-7.808222770690918
 30
124.2234878540039
 70
   192
  0
VERTEX
  5
28A
  8
0
 10
-17.04458999633789
 20
-12.16022682189941
 30
116.3499984741211
 70
   192
  0
VERTEX
  5
28B
  8
0
 10
-20.0102424621582
 20
-6.138294219970703
 30
116.3499984741211
 70
   192
  0
VERTEX
  5
28C
  8
0
 10
-17.27317237854004
 20
-8.854901313781738
 30
120.5234832763672
 70
   192
  0
VERTEX
  5
28D
  8
0
 10
-14.05702686309814
 20
0.0000000000000021
 30
127.4499969482422
 70
   192
  0
VERTEX
  5
28E
  8
0
 10
-17.0926628112793
 20
0.0000000000000004
 30
124.2554702758789
 70
   192
  0
VERTEX
  5
28F
  8
0
 10
-20.93967437744141
 20
-0.000000000000003
 30
116.3499984741211
 70
   192
  0
VERTEX
  5
290
  8
0
 10
-13.69486522674561
 20
-13.74377346038818
 30
120.5234832763672
 70
   192
  0
VERTEX
  5
291
  8
0
 10
-12.17830181121826
 20
-17.03271865844727
 30
116.3499984741211
 70
   192
  0
VERTEX
  5
292
  8
0
 10
-6.166399955749512
 20
-20.01640701293945
 30
116.3499984741211
 70
   192
  0
VERTEX
  5
293
  8
0
 10
-8.79745101928711
 20
-17.28835868835449
 30
120.5234832763672
 70
   192
  0
VERTEX
  5
294
  8
0
 10
-7.757564067840576
 20
-15.24481773376465
 30
124.2234878540039
 70
   192
  0
VERTEX
  5
295
  8
0
 10
-4.120702266693115
 20
-13.43308925628662
 30
127.4499969482422
 70
   192
  0
VERTEX
  5
296
  8
0
 10
-2.939064979553223
 20
-16.85372352600098
 30
124.2234878540039
 70
   192
  0
VERTEX
  5
297
  8
0
 10
0.0000000000000037
 20
-20.93967437744141
 30
116.3499984741211
 70
   192
  0
VERTEX
  5
298
  8
0
 10
0.0000000000000008
 20
-14.05702686309814
 30
127.4499969482422
 70
   192
  0
VERTEX
  5
299
  8
0
 10
-8.163289070129395
 20
-11.44221496582031
 30
127.4499969482422
 70
   192
  0
VERTEX
  5
29A
  8
0
 10
-12.07608699798584
 20
-12.11921405792236
 30
124.2234878540039
 70
   192
  0
VERTEX
  5
29B
  8
0
 10
-19.4329833984375
 20
0.0
 30
120.4773101806641
 70
   192
  0
VERTEX
  5
29C
  8
0
 10
-11.43424415588379
 20
-8.175423622131348
 30
127.4499969482422
 70
   192
  0
VERTEX
  5
29D
  8
0
 10
-13.43722724914551
 20
-4.139570236206055
 30
127.4499969482422
 70
   192
  0
VERTEX
  5
29E
  8
0
 10
17.08412742614746
 20
0.0000000000000074
 30
124.2654342651367
 70
   192
  0
VERTEX
  5
29F
  8
0
 10
19.42785835266113
 20
0.0000000000000078
 30
120.4893798828125
 70
   192
  0
VERTEX
  5
2A0
  8
0
 10
19.11293411254883
 20
-3.333041429519653
 30
120.5234832763672
 70
   192
  0
VERTEX
  5
2A1
  8
0
 10
3.365615844726562
 20
-19.12131690979004
 30
120.5234832763672
 70
   192
  0
VERTEX
  5
2A2
  8
0
 10
2.967789173126221
 20
-16.86111450195312
 30
124.2234878540039
 70
   192
  0
VERTEX
  5
2A3
  8
0
 10
7.808222770690918
 20
-15.23142623901367
 30
124.2234878540039
 70
   192
  0
VERTEX
  5
2A4
  8
0
 10
12.16022682189941
 20
-17.04458999633789
 30
116.3499984741211
 70
   192
  0
VERTEX
  5
2A5
  8
0
 10
6.138294219970703
 20
-20.0102424621582
 30
116.3499984741211
 70
   192
  0
VERTEX
  5
2A6
  8
0
 10
8.854901313781738
 20
-17.27317237854004
 30
120.5234832763672
 70
   192
  0
VERTEX
  5
2A7
  8
0
 10
13.74377346038818
 20
-13.69486522674561
 30
120.5234832763672
 70
   192
  0
VERTEX
  5
2A8
  8
0
 10
17.03271865844727
 20
-12.17830181121826
 30
116.3499984741211
 70
   192
  0
VERTEX
  5
2A9
  8
0
 10
20.01640701293945
 20
-6.166399955749512
 30
116.3499984741211
 70
   192
  0
VERTEX
  5
2AA
  8
0
 10
17.28835868835449
 20
-8.79745101928711
 30
120.5234832763672
 70
   192
  0
VERTEX
  5
2AB
  8
0
 10
15.24481773376465
 20
-7.757564067840576
 30
124.2234878540039
 70
   192
  0
VERTEX
  5
2AC
  8
0
 10
13.43308925628662
 20
-4.120702266693115
 30
127.4499969482422
 70
   192
  0
VERTEX
  5
2AD
  8
0
 10
16.85372352600098
 20
-2.939064979553223
 30
124.2234878540039
 70
   192
  0
VERTEX
  5
2AE
  8
0
 10
20.93967437744141
 20
0.0000000000000084
 30
116.3499984741211
 70
   192
  0
VERTEX
  5
2AF
  8
0
 10
14.05702686309814
 20
0.0000000000000159
 30
127.4499969482422
 70
   192
  0
VERTEX
  5
2B0
  8
0
 10
11.44221496582031
 20
-8.163289070129395
 30
127.4499969482422
 70
   192
  0
VERTEX
  5
2B1
  8
0
 10
12.11921405792236
 20
-12.07608699798584
 30
124.2234878540039
 70
   192
  0
VERTEX
  5
2B2
  8
0
 10
8.175423622131348
 20
-11.43424415588379
 30
127.4499969482422
 70
   192
  0
VERTEX
  5
2B3
  8
0
 10
4.139570236206055
 20
-13.43722724914551
 30
127.4499969482422
 70
   192
  0
VERTEX
  5
2B4
  8
0
 10
0.0000000000000001
 20
17.08412742614746
 30
124.2654342651367
 70
   192
  0
VERTEX
  5
2B5
  8
0
 10
0.0000000000000002
 20
19.42785835266113
 30
120.4893798828125
 70
   192
  0
VERTEX
  5
2B6
  8
0
 10
3.333041429519653
 20
19.11293411254883
 30
120.5234832763672
 70
   192
  0
VERTEX
  5
2B7
  8
0
 10
19.12131690979004
 20
3.365615844726562
 30
120.5234832763672
 70
   192
  0
VERTEX
  5
2B8
  8
0
 10
16.86111450195312
 20
2.967789173126221
 30
124.2234878540039
 70
   192
  0
VERTEX
  5
2B9
  8
0
 10
15.23142623901367
 20
7.808222770690918
 30
124.2234878540039
 70
   192
  0
VERTEX
  5
2BA
  8
0
 10
17.04458999633789
 20
12.16022682189941
 30
116.3499984741211
 70
   192
  0
VERTEX
  5
2BB
  8
0
 10
20.0102424621582
 20
6.138294219970703
 30
116.3499984741211
 70
   192
  0
VERTEX
  5
2BC
  8
0
 10
17.27317237854004
 20
8.854901313781738
 30
120.5234832763672
 70
   192
  0
VERTEX
  5
2BD
  8
0
 10
13.69486522674561
 20
13.74377346038818
 30
120.5234832763672
 70
   192
  0
VERTEX
  5
2BE
  8
0
 10
12.17830181121826
 20
17.03271865844727
 30
116.3499984741211
 70
   192
  0
VERTEX
  5
2BF
  8
0
 10
6.166399955749512
 20
20.01640701293945
 30
116.3499984741211
 70
   192
  0
VERTEX
  5
2C0
  8
0
 10
8.79745101928711
 20
17.28835868835449
 30
120.5234832763672
 70
   192
  0
VERTEX
  5
2C1
  8
0
 10
7.757564067840576
 20
15.24481773376465
 30
124.2234878540039
 70
   192
  0
VERTEX
  5
2C2
  8
0
 10
4.120702266693115
 20
13.43308925628662
 30
127.4499969482422
 70
   192
  0
VERTEX
  5
2C3
  8
0
 10
2.939064979553223
 20
16.85372352600098
 30
124.2234878540039
 70
   192
  0
VERTEX
  5
2C4
  8
0
 10
-0.0000000000000015
 20
20.93967437744141
 30
116.3499984741211
 70
   192
  0
VERTEX
  5
2C5
  8
0
 10
-0.0000000000000023
 20
14.05702686309814
 30
127.4499969482422
 70
   192
  0
VERTEX
  5
2C6
  8
0
 10
8.163289070129395
 20
11.44221496582031
 30
127.4499969482422
 70
   192
  0
VERTEX
  5
2C7
  8
0
 10
12.07608699798584
 20
12.11921405792236
 30
124.2234878540039
 70
   192
  0
VERTEX
  5
2C8
  8
0
 10
11.43424415588379
 20
8.175423622131348
 30
127.4499969482422
 70
   192
  0
VERTEX
  5
2C9
  8
0
 10
13.43722724914551
 20
4.139570236206055
 30
127.4499969482422
 70
   192
  0
VERTEX
  5
2CA
  8
0
 10
-17.28835868835449
 20
8.79745101928711
 30
120.5234832763672
 70
   192
  0
VERTEX
  5
2CB
  8
0
 10
-20.01640701293945
 20
6.166399955749512
 30
116.3499984741211
 70
   192
  0
VERTEX
  5
2CC
  8
0
 10
-17.03271865844727
 20
12.17830181121826
 30
116.3499984741211
 70
   192
  0
VERTEX
  5
2CD
  8
0
 10
-7.808222770690918
 20
15.23142623901367
 30
124.2234878540039
 70
   192
  0
VERTEX
  5
2CE
  8
0
 10
-8.854901313781738
 20
17.27317237854004
 30
120.5234832763672
 70
   192
  0
VERTEX
  5
2CF
  8
0
 10
-3.365615844726562
 20
19.12131690979004
 30
120.5234832763672
 70
   192
  0
VERTEX
  5
2D0
  8
0
 10
-13.43308925628662
 20
4.120702266693115
 30
127.4499969482422
 70
   192
  0
VERTEX
  5
2D1
  8
0
 10
-16.85372352600098
 20
2.939064979553223
 30
124.2234878540039
 70
   192
  0
VERTEX
  5
2D2
  8
0
 10
-15.24481773376465
 20
7.757564067840576
 30
124.2234878540039
 70
   192
  0
VERTEX
  5
2D3
  8
0
 10
-6.138294219970703
 20
20.0102424621582
 30
116.3499984741211
 70
   192
  0
VERTEX
  5
2D4
  8
0
 10
-12.16022682189941
 20
17.04458999633789
 30
116.3499984741211
 70
   192
  0
VERTEX
  5
2D5
  8
0
 10
-2.967789173126221
 20
16.86111450195312
 30
124.2234878540039
 70
   192
  0
VERTEX
  5
2D6
  8
0
 10
-13.74377346038818
 20
13.69486522674561
 30
120.5234832763672
 70
   192
  0
VERTEX
  5
2D7
  8
0
 10
-19.11293411254883
 20
3.333041429519653
 30
120.5234832763672
 70
   192
  0
VERTEX
  5
2D8
  8
0
 10
-11.44221496582031
 20
8.163289070129395
 30
127.4499969482422
 70
   192
  0
VERTEX
  5
2D9
  8
0
 10
-12.11921405792236
 20
12.07608699798584
 30
124.2234878540039
 70
   192
  0
VERTEX
  5
2DA
  8
0
 10
-8.175423622131348
 20
11.43424415588379
 30
127.4499969482422
 70
   192
  0
VERTEX
  5
2DB
  8
0
 10
-4.139570236206055
 20
13.43722724914551
 30
127.4499969482422
 70
   192
  0
VERTEX
  5
2DC
  8
0
 62
   151
 10
0.0
 20
0.0
 30
0.0
 70
   128
 71
     3
 72
     2
 73
     1
  0
VERTEX
  5
2DD
  8
0
 62
   151
 10
0.0
 20
0.0
 30
0.0
 70
   128
 71
     6
 72
     5
 73
     4
  0
VERTEX
  5
2DE
  8
0
 62
   151
 10
0.0
 20
0.0
 30
0.0
 70
   128
 71
     9
 72
     8
 73
     7
  0
VERTEX
  5
2DF
  8
0
 62
   151
 10
0.0
 20
0.0
 30
0.0
 70
   128
 71
    11
 72
     5
 73
    10
  0
VERTEX
  5
2E0
  8
0
 62
   151
 10
0.0
 20
0.0
 30
0.0
 70
   128
 71
     4
 72
     9
 73
     6
  0
VERTEX
  5
2E1
  8
0
 62
   151
 10
0.0
 20
0.0
 30
0.0
 70
   128
 71
     8
 72
     4
 73
    12
  0
VERTEX
  5
2E2
  8
0
 62
   151
 10
0.0
 20
0.0
 30
0.0
 70
   128
 71
    14
 72
    13
 73
     7
  0
VERTEX
  5
2E3
  8
0
 62
   151
 10
0.0
 20
0.0
 30
0.0
 70
   128
 71
     7
 72
    13
 73
     9
  0
VERTEX
  5
2E4
  8
0
 62
   151
 10
0.0
 20
0.0
 30
0.0
 70
   128
 71
    16
 72
    14
 73
    15
  0
VERTEX
  5
2E5
  8
0
 62
   151
 10
0.0
 20
0.0
 30
0.0
 70
   128
 71
    14
 72
    16
 73
    13
  0
VERTEX
  5
2E6
  8
0
 62
   151
 10
0.0
 20
0.0
 30
0.0
 70
   128
 71
    19
 72
    18
 73
    17
  0
VERTEX
  5
2E7
  8
0
 62
   151
 10
0.0
 20
0.0
 30
0.0
 70
   128
 71
    15
 72
    20
 73
     3
  0
VERTEX
  5
2E8
  8
0
 62
   151
 10
0.0
 20
0.0
 30
0.0
 70
   128
 71
     2
 72
     3
 73
    20
  0
VERTEX
  5
2E9
  8
0
 62
   151
 10
0.0
 20
0.0
 30
0.0
 70
   128
 71
    19
 72
    21
 73
    18
  0
VERTEX
  5
2EA
  8
0
 62
   151
 10
0.0
 20
0.0
 30
0.0
 70
   128
 71
    22
 72
    17
 73
    18
  0
VERTEX
  5
2EB
  8
0
 62
   151
 10
0.0
 20
0.0
 30
0.0
 70
   128
 71
     3
 72
    16
 73
    15
  0
VERTEX
  5
2EC
  8
0
 62
   151
 10
0.0
 20
0.0
 30
0.0
 70
   128
 71
     1
 72
    19
 73
     3
  0
VERTEX
  5
2ED
  8
0
 62
   151
 10
0.0
 20
0.0
 30
0.0
 70
   128
 71
    13
 72
    17
 73
    23
  0
VERTEX
  5
2EE
  8
0
 62
   151
 10
0.0
 20
0.0
 30
0.0
 70
   128
 71
    16
 72
    17
 73
    13
  0
VERTEX
  5
2EF
  8
0
 62
   151
 10
0.0
 20
0.0
 30
0.0
 70
   128
 71
    23
 72
     6
 73
     9
  0
VERTEX
  5
2F0
  8
0
 62
   151
 10
0.0
 20
0.0
 30
0.0
 70
   128
 71
    23
 72
     9
 73
    13
  0
VERTEX
  5
2F1
  8
0
 62
   151
 10
0.0
 20
0.0
 30
0.0
 70
   128
 71
     5
 72
    24
 73
     4
  0
VERTEX
  5
2F2
  8
0
 62
   151
 10
0.0
 20
0.0
 30
0.0
 70
   128
 71
     4
 72
    24
 73
    12
  0
VERTEX
  5
2F3
  8
0
 62
   151
 10
0.0
 20
0.0
 30
0.0
 70
   128
 71
     9
 72
     4
 73
     8
  0
VERTEX
  5
2F4
  8
0
 62
   151
 10
0.0
 20
0.0
 30
0.0
 70
   128
 71
    19
 72
    16
 73
     3
  0
VERTEX
  5
2F5
  8
0
 62
   151
 10
0.0
 20
0.0
 30
0.0
 70
   128
 71
    19
 72
     1
 73
    21
  0
VERTEX
  5
2F6
  8
0
 62
   151
 10
0.0
 20
0.0
 30
0.0
 70
   128
 71
    22
 72
    23
 73
    17
  0
VERTEX
  5
2F7
  8
0
 62
   151
 10
0.0
 20
0.0
 30
0.0
 70
   128
 71
    19
 72
    17
 73
    16
  0
VERTEX
  5
2F8
  8
0
 62
   151
 10
0.0
 20
0.0
 30
0.0
 70
   128
 71
    25
 72
    23
 73
    22
  0
VERTEX
  5
2F9
  8
0
 62
   151
 10
0.0
 20
0.0
 30
0.0
 70
   128
 71
    25
 72
     6
 73
    23
  0
VERTEX
  5
2FA
  8
0
 62
   151
 10
0.0
 20
0.0
 30
0.0
 70
   128
 71
    26
 72
     6
 73
    25
  0
VERTEX
  5
2FB
  8
0
 62
   151
 10
0.0
 20
0.0
 30
0.0
 70
   128
 71
     5
 72
    26
 73
    10
  0
VERTEX
  5
2FC
  8
0
 62
   151
 10
0.0
 20
0.0
 30
0.0
 70
   128
 71
     5
 72
     6
 73
    26
  0
VERTEX
  5
2FD
  8
0
 62
   151
 10
0.0
 20
0.0
 30
0.0
 70
   128
 71
     5
 72
    11
 73
    24
  0
VERTEX
  5
2FE
  8
0
 62
   151
 10
0.0
 20
0.0
 30
0.0
 70
   128
 71
    29
 72
    28
 73
    27
  0
VERTEX
  5
2FF
  8
0
 62
   151
 10
0.0
 20
0.0
 30
0.0
 70
   128
 71
    32
 72
    31
 73
    30
  0
VERTEX
  5
300
  8
0
 62
   151
 10
0.0
 20
0.0
 30
0.0
 70
   128
 71
    35
 72
    34
 73
    33
  0
VERTEX
  5
301
  8
0
 62
   151
 10
0.0
 20
0.0
 30
0.0
 70
   128
 71
     1
 72
    31
 73
    21
  0
VERTEX
  5
302
  8
0
 62
   151
 10
0.0
 20
0.0
 30
0.0
 70
   128
 71
    30
 72
    35
 73
    32
  0
VERTEX
  5
303
  8
0
 62
   151
 10
0.0
 20
0.0
 30
0.0
 70
   128
 71
    34
 72
    30
 73
    20
  0
VERTEX
  5
304
  8
0
 62
   151
 10
0.0
 20
0.0
 30
0.0
 70
   128
 71
    37
 72
    36
 73
    33
  0
VERTEX
  5
305
  8
0
 62
   151
 10
0.0
 20
0.0
 30
0.0
 70
   128
 71
    33
 72
    36
 73
    35
  0
VERTEX
  5
306
  8
0
 62
   151
 10
0.0
 20
0.0
 30
0.0
 70
   128
 71
    39
 72
    37
 73
    38
  0
VERTEX
  5
307
  8
0
 62
   151
 10
0.0
 20
0.0
 30
0.0
 70
   128
 71
    37
 72
    39
 73
    36
  0
VERTEX
  5
308
  8
0
 62
   151
 10
0.0
 20
0.0
 30
0.0
 70
   128
 71
    42
 72
    41
 73
    40
  0
VERTEX
  5
309
  8
0
 62
   151
 10
0.0
 20
0.0
 30
0.0
 70
   128
 71
    38
 72
    43
 73
    29
  0
VERTEX
  5
30A
  8
0
 62
   151
 10
0.0
 20
0.0
 30
0.0
 70
   128
 71
    28
 72
    29
 73
    43
  0
VERTEX
  5
30B
  8
0
 62
   151
 10
0.0
 20
0.0
 30
0.0
 70
   128
 71
    42
 72
    44
 73
    41
  0
VERTEX
  5
30C
  8
0
 62
   151
 10
0.0
 20
0.0
 30
0.0
 70
   128
 71
    45
 72
    40
 73
    41
  0
VERTEX
  5
30D
  8
0
 62
   151
 10
0.0
 20
0.0
 30
0.0
 70
   128
 71
    29
 72
    39
 73
    38
  0
VERTEX
  5
30E
  8
0
 62
   151
 10
0.0
 20
0.0
 30
0.0
 70
   128
 71
    27
 72
    42
 73
    29
  0
VERTEX
  5
30F
  8
0
 62
   151
 10
0.0
 20
0.0
 30
0.0
 70
   128
 71
    36
 72
    40
 73
    46
  0
VERTEX
  5
310
  8
0
 62
   151
 10
0.0
 20
0.0
 30
0.0
 70
   128
 71
    39
 72
    40
 73
    36
  0
VERTEX
  5
311
  8
0
 62
   151
 10
0.0
 20
0.0
 30
0.0
 70
   128
 71
    46
 72
    32
 73
    35
  0
VERTEX
  5
312
  8
0
 62
   151
 10
0.0
 20
0.0
 30
0.0
 70
   128
 71
    46
 72
    35
 73
    36
  0
VERTEX
  5
313
  8
0
 62
   151
 10
0.0
 20
0.0
 30
0.0
 70
   128
 71
    31
 72
     2
 73
    30
  0
VERTEX
  5
314
  8
0
 62
   151
 10
0.0
 20
0.0
 30
0.0
 70
   128
 71
    30
 72
     2
 73
    20
  0
VERTEX
  5
315
  8
0
 62
   151
 10
0.0
 20
0.0
 30
0.0
 70
   128
 71
    35
 72
    30
 73
    34
  0
VERTEX
  5
316
  8
0
 62
   151
 10
0.0
 20
0.0
 30
0.0
 70
   128
 71
    42
 72
    39
 73
    29
  0
VERTEX
  5
317
  8
0
 62
   151
 10
0.0
 20
0.0
 30
0.0
 70
   128
 71
    42
 72
    27
 73
    44
  0
VERTEX
  5
318
  8
0
 62
   151
 10
0.0
 20
0.0
 30
0.0
 70
   128
 71
    45
 72
    46
 73
    40
  0
VERTEX
  5
319
  8
0
 62
   151
 10
0.0
 20
0.0
 30
0.0
 70
   128
 71
    42
 72
    40
 73
    39
  0
VERTEX
  5
31A
  8
0
 62
   151
 10
0.0
 20
0.0
 30
0.0
 70
   128
 71
    47
 72
    46
 73
    45
  0
VERTEX
  5
31B
  8
0
 62
   151
 10
0.0
 20
0.0
 30
0.0
 70
   128
 71
    47
 72
    32
 73
    46
  0
VERTEX
  5
31C
  8
0
 62
   151
 10
0.0
 20
0.0
 30
0.0
 70
   128
 71
    48
 72
    32
 73
    47
  0
VERTEX
  5
31D
  8
0
 62
   151
 10
0.0
 20
0.0
 30
0.0
 70
   128
 71
    31
 72
    48
 73
    21
  0
VERTEX
  5
31E
  8
0
 62
   151
 10
0.0
 20
0.0
 30
0.0
 70
   128
 71
    31
 72
    32
 73
    48
  0
VERTEX
  5
31F
  8
0
 62
   151
 10
0.0
 20
0.0
 30
0.0
 70
   128
 71
    31
 72
     1
 73
     2
  0
VERTEX
  5
320
  8
0
 62
   151
 10
0.0
 20
0.0
 30
0.0
 70
   128
 71
    51
 72
    50
 73
    49
  0
VERTEX
  5
321
  8
0
 62
   151
 10
0.0
 20
0.0
 30
0.0
 70
   128
 71
    54
 72
    53
 73
    52
  0
VERTEX
  5
322
  8
0
 62
   151
 10
0.0
 20
0.0
 30
0.0
 70
   128
 71
    57
 72
    56
 73
    55
  0
VERTEX
  5
323
  8
0
 62
   151
 10
0.0
 20
0.0
 30
0.0
 70
   128
 71
    27
 72
    53
 73
    44
  0
VERTEX
  5
324
  8
0
 62
   151
 10
0.0
 20
0.0
 30
0.0
 70
   128
 71
    52
 72
    57
 73
    54
  0
VERTEX
  5
325
  8
0
 62
   151
 10
0.0
 20
0.0
 30
0.0
 70
   128
 71
    56
 72
    52
 73
    43
  0
VERTEX
  5
326
  8
0
 62
   151
 10
0.0
 20
0.0
 30
0.0
 70
   128
 71
    59
 72
    58
 73
    55
  0
VERTEX
  5
327
  8
0
 62
   151
 10
0.0
 20
0.0
 30
0.0
 70
   128
 71
    55
 72
    58
 73
    57
  0
VERTEX
  5
328
  8
0
 62
   151
 10
0.0
 20
0.0
 30
0.0
 70
   128
 71
    61
 72
    59
 73
    60
  0
VERTEX
  5
329
  8
0
 62
   151
 10
0.0
 20
0.0
 30
0.0
 70
   128
 71
    59
 72
    61
 73
    58
  0
VERTEX
  5
32A
  8
0
 62
   151
 10
0.0
 20
0.0
 30
0.0
 70
   128
 71
    64
 72
    63
 73
    62
  0
VERTEX
  5
32B
  8
0
 62
   151
 10
0.0
 20
0.0
 30
0.0
 70
   128
 71
    60
 72
    65
 73
    51
  0
VERTEX
  5
32C
  8
0
 62
   151
 10
0.0
 20
0.0
 30
0.0
 70
   128
 71
    50
 72
    51
 73
    65
  0
VERTEX
  5
32D
  8
0
 62
   151
 10
0.0
 20
0.0
 30
0.0
 70
   128
 71
    64
 72
    66
 73
    63
  0
VERTEX
  5
32E
  8
0
 62
   151
 10
0.0
 20
0.0
 30
0.0
 70
   128
 71
    67
 72
    62
 73
    63
  0
VERTEX
  5
32F
  8
0
 62
   151
 10
0.0
 20
0.0
 30
0.0
 70
   128
 71
    51
 72
    61
 73
    60
  0
VERTEX
  5
330
  8
0
 62
   151
 10
0.0
 20
0.0
 30
0.0
 70
   128
 71
    49
 72
    64
 73
    51
  0
VERTEX
  5
331
  8
0
 62
   151
 10
0.0
 20
0.0
 30
0.0
 70
   128
 71
    58
 72
    62
 73
    68
  0
VERTEX
  5
332
  8
0
 62
   151
 10
0.0
 20
0.0
 30
0.0
 70
   128
 71
    61
 72
    62
 73
    58
  0
VERTEX
  5
333
  8
0
 62
   151
 10
0.0
 20
0.0
 30
0.0
 70
   128
 71
    68
 72
    54
 73
    57
  0
VERTEX
  5
334
  8
0
 62
   151
 10
0.0
 20
0.0
 30
0.0
 70
   128
 71
    68
 72
    57
 73
    58
  0
VERTEX
  5
335
  8
0
 62
   151
 10
0.0
 20
0.0
 30
0.0
 70
   128
 71
    53
 72
    28
 73
    52
  0
VERTEX
  5
336
  8
0
 62
   151
 10
0.0
 20
0.0
 30
0.0
 70
   128
 71
    52
 72
    28
 73
    43
  0
VERTEX
  5
337
  8
0
 62
   151
 10
0.0
 20
0.0
 30
0.0
 70
   128
 71
    57
 72
    52
 73
    56
  0
VERTEX
  5
338
  8
0
 62
   151
 10
0.0
 20
0.0
 30
0.0
 70
   128
 71
    64
 72
    61
 73
    51
  0
VERTEX
  5
339
  8
0
 62
   151
 10
0.0
 20
0.0
 30
0.0
 70
   128
 71
    64
 72
    49
 73
    66
  0
VERTEX
  5
33A
  8
0
 62
   151
 10
0.0
 20
0.0
 30
0.0
 70
   128
 71
    67
 72
    68
 73
    62
  0
VERTEX
  5
33B
  8
0
 62
   151
 10
0.0
 20
0.0
 30
0.0
 70
   128
 71
    64
 72
    62
 73
    61
  0
VERTEX
  5
33C
  8
0
 62
   151
 10
0.0
 20
0.0
 30
0.0
 70
   128
 71
    69
 72
    68
 73
    67
  0
VERTEX
  5
33D
  8
0
 62
   151
 10
0.0
 20
0.0
 30
0.0
 70
   128
 71
    69
 72
    54
 73
    68
  0
VERTEX
  5
33E
  8
0
 62
   151
 10
0.0
 20
0.0
 30
0.0
 70
   128
 71
    70
 72
    54
 73
    69
  0
VERTEX
  5
33F
  8
0
 62
   151
 10
0.0
 20
0.0
 30
0.0
 70
   128
 71
    53
 72
    70
 73
    44
  0
VERTEX
  5
340
  8
0
 62
   151
 10
0.0
 20
0.0
 30
0.0
 70
   128
 71
    53
 72
    54
 73
    70
  0
VERTEX
  5
341
  8
0
 62
   151
 10
0.0
 20
0.0
 30
0.0
 70
   128
 71
    53
 72
    27
 73
    28
  0
VERTEX
  5
342
  8
0
 62
   151
 10
0.0
 20
0.0
 30
0.0
 70
   128
 71
    73
 72
    72
 73
    71
  0
VERTEX
  5
343
  8
0
 62
   151
 10
0.0
 20
0.0
 30
0.0
 70
   128
 71
    76
 72
    75
 73
    74
  0
VERTEX
  5
344
  8
0
 62
   151
 10
0.0
 20
0.0
 30
0.0
 70
   128
 71
    79
 72
    78
 73
    77
  0
VERTEX
  5
345
  8
0
 62
   151
 10
0.0
 20
0.0
 30
0.0
 70
   128
 71
    81
 72
    75
 73
    80
  0
VERTEX
  5
346
  8
0
 62
   151
 10
0.0
 20
0.0
 30
0.0
 70
   128
 71
    77
 72
    78
 73
    10
  0
VERTEX
  5
347
  8
0
 62
   151
 10
0.0
 20
0.0
 30
0.0
 70
   128
 71
    66
 72
    49
 73
    82
  0
VERTEX
  5
348
  8
0
 62
   151
 10
0.0
 20
0.0
 30
0.0
 70
   128
 71
    76
 72
    65
 73
    80
  0
VERTEX
  5
349
  8
0
 62
   151
 10
0.0
 20
0.0
 30
0.0
 70
   128
 71
    82
 72
    76
 73
    74
  0
VERTEX
  5
34A
  8
0
 62
   151
 10
0.0
 20
0.0
 30
0.0
 70
   128
 71
    83
 72
    75
 73
    81
  0
VERTEX
  5
34B
  8
0
 62
   151
 10
0.0
 20
0.0
 30
0.0
 70
   128
 71
    71
 72
    83
 73
    73
  0
VERTEX
  5
34C
  8
0
 62
   151
 10
0.0
 20
0.0
 30
0.0
 70
   128
 71
    81
 72
    73
 73
    83
  0
VERTEX
  5
34D
  8
0
 62
   151
 10
0.0
 20
0.0
 30
0.0
 70
   128
 71
    12
 72
    84
 73
    72
  0
VERTEX
  5
34E
  8
0
 62
   151
 10
0.0
 20
0.0
 30
0.0
 70
   128
 71
    84
 72
    12
 73
    24
  0
VERTEX
  5
34F
  8
0
 62
   151
 10
0.0
 20
0.0
 30
0.0
 70
   128
 71
    24
 72
    11
 73
    84
  0
VERTEX
  5
350
  8
0
 62
   151
 10
0.0
 20
0.0
 30
0.0
 70
   128
 71
    85
 72
    79
 73
    77
  0
VERTEX
  5
351
  8
0
 62
   151
 10
0.0
 20
0.0
 30
0.0
 70
   128
 71
    84
 72
    71
 73
    72
  0
VERTEX
  5
352
  8
0
 62
   151
 10
0.0
 20
0.0
 30
0.0
 70
   128
 71
    11
 72
    78
 73
    84
  0
VERTEX
  5
353
  8
0
 62
   151
 10
0.0
 20
0.0
 30
0.0
 70
   128
 71
    83
 72
    79
 73
    86
  0
VERTEX
  5
354
  8
0
 62
   151
 10
0.0
 20
0.0
 30
0.0
 70
   128
 71
    71
 72
    79
 73
    83
  0
VERTEX
  5
355
  8
0
 62
   151
 10
0.0
 20
0.0
 30
0.0
 70
   128
 71
    86
 72
    74
 73
    75
  0
VERTEX
  5
356
  8
0
 62
   151
 10
0.0
 20
0.0
 30
0.0
 70
   128
 71
    86
 72
    75
 73
    83
  0
VERTEX
  5
357
  8
0
 62
   151
 10
0.0
 20
0.0
 30
0.0
 70
   128
 71
    82
 72
    50
 73
    76
  0
VERTEX
  5
358
  8
0
 62
   151
 10
0.0
 20
0.0
 30
0.0
 70
   128
 71
    76
 72
    50
 73
    65
  0
VERTEX
  5
359
  8
0
 62
   151
 10
0.0
 20
0.0
 30
0.0
 70
   128
 71
    75
 72
    76
 73
    80
  0
VERTEX
  5
35A
  8
0
 62
   151
 10
0.0
 20
0.0
 30
0.0
 70
   128
 71
    78
 72
    71
 73
    84
  0
VERTEX
  5
35B
  8
0
 62
   151
 10
0.0
 20
0.0
 30
0.0
 70
   128
 71
    78
 72
    11
 73
    10
  0
VERTEX
  5
35C
  8
0
 62
   151
 10
0.0
 20
0.0
 30
0.0
 70
   128
 71
    85
 72
    86
 73
    79
  0
VERTEX
  5
35D
  8
0
 62
   151
 10
0.0
 20
0.0
 30
0.0
 70
   128
 71
    78
 72
    79
 73
    71
  0
VERTEX
  5
35E
  8
0
 62
   151
 10
0.0
 20
0.0
 30
0.0
 70
   128
 71
    87
 72
    86
 73
    85
  0
VERTEX
  5
35F
  8
0
 62
   151
 10
0.0
 20
0.0
 30
0.0
 70
   128
 71
    87
 72
    74
 73
    86
  0
VERTEX
  5
360
  8
0
 62
   151
 10
0.0
 20
0.0
 30
0.0
 70
   128
 71
    88
 72
    74
 73
    87
  0
VERTEX
  5
361
  8
0
 62
   151
 10
0.0
 20
0.0
 30
0.0
 70
   128
 71
    82
 72
    88
 73
    66
  0
VERTEX
  5
362
  8
0
 62
   151
 10
0.0
 20
0.0
 30
0.0
 70
   128
 71
    82
 72
    74
 73
    88
  0
VERTEX
  5
363
  8
0
 62
   151
 10
0.0
 20
0.0
 30
0.0
 70
   128
 71
    82
 72
    49
 73
    50
  0
SEQEND
  5
364
  8
0
 62
   151
  0
ENDBLK
  5
367
  8
0
  0
BLOCK
  8
0
  2
40
 70
     0
 10
0.0
 20
0.0
 30
0.0
  3
40
  1

  0
POLYLINE
  5
369
  8
0
 62
   172
 66
     1
 10
0.0
 20
0.0
 30
0.0
 70
    64
 71
    60
 72
    88
  0
VERTEX
  5
36A
  8
0
 10
-21.76789474487305
 20
-0.3485664427280426
 30
141.0632934570312
 70
   192
  0
VERTEX
  5
36B
  8
0
 10
-22.26585578918457
 20
0.3540681600570679
 30
141.1084289550781
 70
   192
  0
VERTEX
  5
36C
  8
0
 10
-22.26590919494629
 20
-0.3501847386360168
 30
141.1078186035156
 70
   192
  0
VERTEX
  5
36D
  8
0
 10
-22.25322723388672
 20
-1.035575270652771
 30
141.2527770996094
 70
   192
  0
VERTEX
  5
36E
  8
0
 10
-21.7537727355957
 20
-1.027859568595886
 30
141.2247009277344
 70
   192
  0
VERTEX
  5
36F
  8
0
 10
-21.73036766052246
 20
-1.675218343734741
 30
141.4922332763672
 70
   192
  0
VERTEX
  5
370
  8
0
 10
-22.22854804992676
 20
-1.671807289123535
 30
141.5348510742188
 70
   192
  0
VERTEX
  5
371
  8
0
 10
-22.19266700744629
 20
-2.239238739013672
 30
141.9449768066406
 70
   192
  0
VERTEX
  5
372
  8
0
 10
-21.69449424743652
 20
-2.241860628128052
 30
141.9022521972656
 70
   192
  0
VERTEX
  5
373
  8
0
 10
-22.14706802368164
 20
-2.710834264755249
 30
142.4661712646484
 70
   192
  0
VERTEX
  5
374
  8
0
 10
-21.64923095703125
 20
-2.711472511291504
 30
142.4196319580078
 70
   192
  0
VERTEX
  5
375
  8
0
 10
-21.59634590148926
 20
-3.06208324432373
 30
143.0241088867188
 70
   192
  0
VERTEX
  5
376
  8
0
 10
-22.09431457519531
 20
-3.060329914093018
 30
143.0691528320312
 70
   192
  0
VERTEX
  5
377
  8
0
 10
-22.03653907775879
 20
-3.276028633117676
 30
143.7295227050781
 70
   192
  0
VERTEX
  5
378
  8
0
 10
-21.53823089599609
 20
-3.278368473052979
 30
143.6883544921875
 70
   192
  0
VERTEX
  5
379
  8
0
 10
-21.47744941711426
 20
-3.349999904632568
 30
144.3830871582031
 70
   192
  0
VERTEX
  5
37A
  8
0
 10
-21.97554779052734
 20
-3.349999904632568
 30
144.4266662597656
 70
   192
  0
VERTEX
  5
37B
  8
0
 10
-21.76739501953125
 20
0.3498806655406952
 30
141.0690002441406
 70
   192
  0
VERTEX
  5
37C
  8
0
 10
-22.25315093994141
 20
1.037685513496399
 30
141.2536468505859
 70
   192
  0
VERTEX
  5
37D
  8
0
 10
-21.75487518310547
 20
1.034974694252014
 30
141.2121124267578
 70
   192
  0
VERTEX
  5
37E
  8
0
 10
-21.73017120361328
 20
1.674315214157104
 30
141.4944763183594
 70
   192
  0
VERTEX
  5
37F
  8
0
 10
-22.22847747802734
 20
1.673761248588562
 30
141.5356597900391
 70
   192
  0
VERTEX
  5
380
  8
0
 10
-21.69426536560059
 20
2.242195844650269
 30
141.9048614501953
 70
   192
  0
VERTEX
  5
381
  8
0
 10
-22.19250869750977
 20
2.241731882095337
 30
141.9467926025391
 70
   192
  0
VERTEX
  5
382
  8
0
 10
-22.14689064025879
 20
2.712324857711792
 30
142.4682006835938
 70
   192
  0
VERTEX
  5
383
  8
0
 10
-21.64880180358887
 20
2.709938287734985
 30
142.4245300292969
 70
   192
  0
VERTEX
  5
384
  8
0
 10
-21.59597396850586
 20
3.059400081634521
 30
143.0283508300781
 70
   192
  0
VERTEX
  5
385
  8
0
 10
-22.0942268371582
 20
3.060750722885132
 30
143.0701599121094
 70
   192
  0
VERTEX
  5
386
  8
0
 10
-21.53801727294922
 20
3.275800228118896
 30
143.6907958984375
 70
   192
  0
VERTEX
  5
387
  8
0
 10
-22.03649139404297
 20
3.276255130767822
 30
143.7300567626953
 70
   192
  0
VERTEX
  5
388
  8
0
 10
-21.97554779052734
 20
3.349999904632568
 30
144.4266662597656
 70
   192
  0
VERTEX
  5
389
  8
0
 10
-21.47744941711426
 20
3.349999904632568
 30
144.3830871582031
 70
   192
  0
VERTEX
  5
38A
  8
0
 10
-21.85665321350098
 20
-3.06208324432373
 30
145.78564453125
 70
   192
  0
VERTEX
  5
38B
  8
0
 10
-21.91476631164551
 20
-3.278368473052979
 30
145.1213836669922
 70
   192
  0
VERTEX
  5
38C
  8
0
 10
-21.80376625061035
 20
-2.711472511291504
 30
146.3901214599609
 70
   192
  0
VERTEX
  5
38D
  8
0
 10
-21.75850296020508
 20
-2.241860628128052
 30
146.9074859619141
 70
   192
  0
VERTEX
  5
38E
  8
0
 10
-21.72262954711914
 20
-1.675218343734741
 30
147.3175201416016
 70
   192
  0
VERTEX
  5
38F
  8
0
 10
-21.6992244720459
 20
-1.027859568595886
 30
147.5850524902344
 70
   192
  0
VERTEX
  5
390
  8
0
 10
-21.68510437011719
 20
-0.3485664427280426
 30
147.7464447021484
 70
   192
  0
VERTEX
  5
391
  8
0
 10
-21.68560218811035
 20
0.3498806655406952
 30
147.7407531738281
 70
   192
  0
VERTEX
  5
392
  8
0
 10
-21.91497993469238
 20
3.275800228118896
 30
145.1189575195312
 70
   192
  0
VERTEX
  5
393
  8
0
 10
-21.85702323913574
 20
3.059400081634521
 30
145.7813873291016
 70
   192
  0
VERTEX
  5
394
  8
0
 10
-21.75873184204102
 20
2.242195844650269
 30
146.9048767089844
 70
   192
  0
VERTEX
  5
395
  8
0
 10
-21.72282600402832
 20
1.674315214157104
 30
147.3152770996094
 70
   192
  0
VERTEX
  5
396
  8
0
 10
-21.69812393188477
 20
1.034974694252014
 30
147.5976409912109
 70
   192
  0
VERTEX
  5
397
  8
0
 10
-21.80419540405273
 20
2.709938287734985
 30
146.3852233886719
 70
   192
  0
VERTEX
  5
398
  8
0
 10
-21.41688346862793
 20
-3.275800228118896
 30
145.0753784179688
 70
   192
  0
VERTEX
  5
399
  8
0
 10
-21.26063346862793
 20
-2.242195844650269
 30
146.8612976074219
 70
   192
  0
VERTEX
  5
39A
  8
0
 10
-21.30609893798828
 20
-2.709938287734985
 30
146.3416442871094
 70
   192
  0
VERTEX
  5
39B
  8
0
 10
-21.35892677307129
 20
-3.059400081634521
 30
145.7378234863281
 70
   192
  0
VERTEX
  5
39C
  8
0
 10
-21.1875057220459
 20
-0.3498806655406952
 30
147.6971740722656
 70
   192
  0
VERTEX
  5
39D
  8
0
 10
-21.1870059967041
 20
0.3485664427280426
 30
147.702880859375
 70
   192
  0
VERTEX
  5
39E
  8
0
 10
-21.22472953796387
 20
-1.674315214157104
 30
147.2716979980469
 70
   192
  0
VERTEX
  5
39F
  8
0
 10
-21.20002555847168
 20
-1.034974694252014
 30
147.5540618896484
 70
   192
  0
VERTEX
  5
3A0
  8
0
 10
-21.20112609863281
 20
1.027859568595886
 30
147.5414733886719
 70
   192
  0
VERTEX
  5
3A1
  8
0
 10
-21.22453308105469
 20
1.675218343734741
 30
147.2739410400391
 70
   192
  0
VERTEX
  5
3A2
  8
0
 10
-21.26040649414062
 20
2.241860628128052
 30
146.8639068603516
 70
   192
  0
VERTEX
  5
3A3
  8
0
 10
-21.3056697845459
 20
2.711472511291504
 30
146.3465423583984
 70
   192
  0
VERTEX
  5
3A4
  8
0
 10
-21.35855484008789
 20
3.06208324432373
 30
145.7420654296875
 70
   192
  0
VERTEX
  5
3A5
  8
0
 10
-21.41666984558105
 20
3.278368473052979
 30
145.0778045654297
 70
   192
  0
VERTEX
  5
3A6
  8
0
 62
   172
 10
0.0
 20
0.0
 30
0.0
 70
   128
 71
     3
 72
     2
 73
     1
  0
VERTEX
  5
3A7
  8
0
 62
   172
 10
0.0
 20
0.0
 30
0.0
 70
   128
 71
     1
 72
     5
 73
     4
  0
VERTEX
  5
3A8
  8
0
 62
   172
 10
0.0
 20
0.0
 30
0.0
 70
   128
 71
     4
 72
     3
 73
     1
  0
VERTEX
  5
3A9
  8
0
 62
   172
 10
0.0
 20
0.0
 30
0.0
 70
   128
 71
     7
 72
     5
 73
     6
  0
VERTEX
  5
3AA
  8
0
 62
   172
 10
0.0
 20
0.0
 30
0.0
 70
   128
 71
     5
 72
     7
 73
     4
  0
VERTEX
  5
3AB
  8
0
 62
   172
 10
0.0
 20
0.0
 30
0.0
 70
   128
 71
     9
 72
     8
 73
     6
  0
VERTEX
  5
3AC
  8
0
 62
   172
 10
0.0
 20
0.0
 30
0.0
 70
   128
 71
     7
 72
     6
 73
     8
  0
VERTEX
  5
3AD
  8
0
 62
   172
 10
0.0
 20
0.0
 30
0.0
 70
   128
 71
     9
 72
    11
 73
    10
  0
VERTEX
  5
3AE
  8
0
 62
   172
 10
0.0
 20
0.0
 30
0.0
 70
   128
 71
    10
 72
     8
 73
     9
  0
VERTEX
  5
3AF
  8
0
 62
   172
 10
0.0
 20
0.0
 30
0.0
 70
   128
 71
    13
 72
    11
 73
    12
  0
VERTEX
  5
3B0
  8
0
 62
   172
 10
0.0
 20
0.0
 30
0.0
 70
   128
 71
    11
 72
    13
 73
    10
  0
VERTEX
  5
3B1
  8
0
 62
   172
 10
0.0
 20
0.0
 30
0.0
 70
   128
 71
    15
 72
    14
 73
    12
  0
VERTEX
  5
3B2
  8
0
 62
   172
 10
0.0
 20
0.0
 30
0.0
 70
   128
 71
    13
 72
    12
 73
    14
  0
VERTEX
  5
3B3
  8
0
 62
   172
 10
0.0
 20
0.0
 30
0.0
 70
   128
 71
    14
 72
    15
 73
    16
  0
VERTEX
  5
3B4
  8
0
 62
   172
 10
0.0
 20
0.0
 30
0.0
 70
   128
 71
    17
 72
    14
 73
    16
  0
VERTEX
  5
3B5
  8
0
 62
   172
 10
0.0
 20
0.0
 30
0.0
 70
   128
 71
     2
 72
    18
 73
     1
  0
VERTEX
  5
3B6
  8
0
 62
   172
 10
0.0
 20
0.0
 30
0.0
 70
   128
 71
    20
 72
     2
 73
    19
  0
VERTEX
  5
3B7
  8
0
 62
   172
 10
0.0
 20
0.0
 30
0.0
 70
   128
 71
     2
 72
    20
 73
    18
  0
VERTEX
  5
3B8
  8
0
 62
   172
 10
0.0
 20
0.0
 30
0.0
 70
   128
 71
    22
 72
    21
 73
    19
  0
VERTEX
  5
3B9
  8
0
 62
   172
 10
0.0
 20
0.0
 30
0.0
 70
   128
 71
    20
 72
    19
 73
    21
  0
VERTEX
  5
3BA
  8
0
 62
   172
 10
0.0
 20
0.0
 30
0.0
 70
   128
 71
    22
 72
    24
 73
    23
  0
VERTEX
  5
3BB
  8
0
 62
   172
 10
0.0
 20
0.0
 30
0.0
 70
   128
 71
    23
 72
    21
 73
    22
  0
VERTEX
  5
3BC
  8
0
 62
   172
 10
0.0
 20
0.0
 30
0.0
 70
   128
 71
    26
 72
    24
 73
    25
  0
VERTEX
  5
3BD
  8
0
 62
   172
 10
0.0
 20
0.0
 30
0.0
 70
   128
 71
    24
 72
    26
 73
    23
  0
VERTEX
  5
3BE
  8
0
 62
   172
 10
0.0
 20
0.0
 30
0.0
 70
   128
 71
    28
 72
    27
 73
    25
  0
VERTEX
  5
3BF
  8
0
 62
   172
 10
0.0
 20
0.0
 30
0.0
 70
   128
 71
    26
 72
    25
 73
    27
  0
VERTEX
  5
3C0
  8
0
 62
   172
 10
0.0
 20
0.0
 30
0.0
 70
   128
 71
    28
 72
    30
 73
    29
  0
VERTEX
  5
3C1
  8
0
 62
   172
 10
0.0
 20
0.0
 30
0.0
 70
   128
 71
    29
 72
    27
 73
    28
  0
VERTEX
  5
3C2
  8
0
 62
   172
 10
0.0
 20
0.0
 30
0.0
 70
   128
 71
    31
 72
    29
 73
    30
  0
VERTEX
  5
3C3
  8
0
 62
   172
 10
0.0
 20
0.0
 30
0.0
 70
   128
 71
    31
 72
    32
 73
    29
  0
VERTEX
  5
3C4
  8
0
 62
   172
 10
0.0
 20
0.0
 30
0.0
 70
   128
 71
    19
 72
    33
 73
    22
  0
VERTEX
  5
3C5
  8
0
 62
   172
 10
0.0
 20
0.0
 30
0.0
 70
   128
 71
     3
 72
     4
 73
    14
  0
VERTEX
  5
3C6
  8
0
 62
   172
 10
0.0
 20
0.0
 30
0.0
 70
   128
 71
     7
 72
    14
 73
     4
  0
VERTEX
  5
3C7
  8
0
 62
   172
 10
0.0
 20
0.0
 30
0.0
 70
   128
 71
     2
 72
    17
 73
    34
  0
VERTEX
  5
3C8
  8
0
 62
   172
 10
0.0
 20
0.0
 30
0.0
 70
   128
 71
    10
 72
    13
 73
     8
  0
VERTEX
  5
3C9
  8
0
 62
   172
 10
0.0
 20
0.0
 30
0.0
 70
   128
 71
    14
 72
     8
 73
    13
  0
VERTEX
  5
3CA
  8
0
 62
   172
 10
0.0
 20
0.0
 30
0.0
 70
   128
 71
     3
 72
    14
 73
    17
  0
VERTEX
  5
3CB
  8
0
 62
   172
 10
0.0
 20
0.0
 30
0.0
 70
   128
 71
    14
 72
     7
 73
     8
  0
VERTEX
  5
3CC
  8
0
 62
   172
 10
0.0
 20
0.0
 30
0.0
 70
   128
 71
    17
 72
     2
 73
     3
  0
VERTEX
  5
3CD
  8
0
 62
   172
 10
0.0
 20
0.0
 30
0.0
 70
   128
 71
    19
 72
    34
 73
    33
  0
VERTEX
  5
3CE
  8
0
 62
   172
 10
0.0
 20
0.0
 30
0.0
 70
   128
 71
    19
 72
     2
 73
    34
  0
VERTEX
  5
3CF
  8
0
 62
   172
 10
0.0
 20
0.0
 30
0.0
 70
   128
 71
    24
 72
    22
 73
    35
  0
VERTEX
  5
3D0
  8
0
 62
   172
 10
0.0
 20
0.0
 30
0.0
 70
   128
 71
    35
 72
    22
 73
    33
  0
VERTEX
  5
3D1
  8
0
 62
   172
 10
0.0
 20
0.0
 30
0.0
 70
   128
 71
    24
 72
    35
 73
    36
  0
VERTEX
  5
3D2
  8
0
 62
   172
 10
0.0
 20
0.0
 30
0.0
 70
   128
 71
    25
 72
    24
 73
    36
  0
VERTEX
  5
3D3
  8
0
 62
   172
 10
0.0
 20
0.0
 30
0.0
 70
   128
 71
    25
 72
    37
 73
    28
  0
VERTEX
  5
3D4
  8
0
 62
   172
 10
0.0
 20
0.0
 30
0.0
 70
   128
 71
    37
 72
    25
 73
    36
  0
VERTEX
  5
3D5
  8
0
 62
   172
 10
0.0
 20
0.0
 30
0.0
 70
   128
 71
    28
 72
    37
 73
    38
  0
VERTEX
  5
3D6
  8
0
 62
   172
 10
0.0
 20
0.0
 30
0.0
 70
   128
 71
    38
 72
    39
 73
    30
  0
VERTEX
  5
3D7
  8
0
 62
   172
 10
0.0
 20
0.0
 30
0.0
 70
   128
 71
    30
 72
    28
 73
    38
  0
VERTEX
  5
3D8
  8
0
 62
   172
 10
0.0
 20
0.0
 30
0.0
 70
   128
 71
    31
 72
    39
 73
    40
  0
VERTEX
  5
3D9
  8
0
 62
   172
 10
0.0
 20
0.0
 30
0.0
 70
   128
 71
    39
 72
    31
 73
    30
  0
VERTEX
  5
3DA
  8
0
 62
   172
 10
0.0
 20
0.0
 30
0.0
 70
   128
 71
    43
 72
    42
 73
    41
  0
VERTEX
  5
3DB
  8
0
 62
   172
 10
0.0
 20
0.0
 30
0.0
 70
   128
 71
    41
 72
    45
 73
    44
  0
VERTEX
  5
3DC
  8
0
 62
   172
 10
0.0
 20
0.0
 30
0.0
 70
   128
 71
    43
 72
    46
 73
    42
  0
VERTEX
  5
3DD
  8
0
 62
   172
 10
0.0
 20
0.0
 30
0.0
 70
   128
 71
    43
 72
    41
 73
    44
  0
VERTEX
  5
3DE
  8
0
 62
   172
 10
0.0
 20
0.0
 30
0.0
 70
   128
 71
    40
 72
    41
 73
    31
  0
VERTEX
  5
3DF
  8
0
 62
   172
 10
0.0
 20
0.0
 30
0.0
 70
   128
 71
    41
 72
    40
 73
    45
  0
VERTEX
  5
3E0
  8
0
 62
   172
 10
0.0
 20
0.0
 30
0.0
 70
   128
 71
    17
 72
    16
 73
    47
  0
VERTEX
  5
3E1
  8
0
 62
   172
 10
0.0
 20
0.0
 30
0.0
 70
   128
 71
    36
 72
    49
 73
    48
  0
VERTEX
  5
3E2
  8
0
 62
   172
 10
0.0
 20
0.0
 30
0.0
 70
   128
 71
    35
 72
    33
 73
    50
  0
VERTEX
  5
3E3
  8
0
 62
   172
 10
0.0
 20
0.0
 30
0.0
 70
   128
 71
    52
 72
    39
 73
    51
  0
VERTEX
  5
3E4
  8
0
 62
   172
 10
0.0
 20
0.0
 30
0.0
 70
   128
 71
    54
 72
    38
 73
    53
  0
VERTEX
  5
3E5
  8
0
 62
   172
 10
0.0
 20
0.0
 30
0.0
 70
   128
 71
    56
 72
    44
 73
    55
  0
VERTEX
  5
3E6
  8
0
 62
   172
 10
0.0
 20
0.0
 30
0.0
 70
   128
 71
    45
 72
    52
 73
    55
  0
VERTEX
  5
3E7
  8
0
 62
   172
 10
0.0
 20
0.0
 30
0.0
 70
   128
 71
    58
 72
    46
 73
    57
  0
VERTEX
  5
3E8
  8
0
 62
   172
 10
0.0
 20
0.0
 30
0.0
 70
   128
 71
    43
 72
    56
 73
    57
  0
VERTEX
  5
3E9
  8
0
 62
   172
 10
0.0
 20
0.0
 30
0.0
 70
   128
 71
    58
 72
    59
 73
    42
  0
VERTEX
  5
3EA
  8
0
 62
   172
 10
0.0
 20
0.0
 30
0.0
 70
   128
 71
    42
 72
    46
 73
    58
  0
VERTEX
  5
3EB
  8
0
 62
   172
 10
0.0
 20
0.0
 30
0.0
 70
   128
 71
    41
 72
    59
 73
    60
  0
VERTEX
  5
3EC
  8
0
 62
   172
 10
0.0
 20
0.0
 30
0.0
 70
   128
 71
    59
 72
    41
 73
    42
  0
VERTEX
  5
3ED
  8
0
 62
   172
 10
0.0
 20
0.0
 30
0.0
 70
   128
 71
    31
 72
    41
 73
    32
  0
VERTEX
  5
3EE
  8
0
 62
   172
 10
0.0
 20
0.0
 30
0.0
 70
   128
 71
    60
 72
    32
 73
    41
  0
VERTEX
  5
3EF
  8
0
 62
   172
 10
0.0
 20
0.0
 30
0.0
 70
   128
 71
    56
 72
    43
 73
    44
  0
VERTEX
  5
3F0
  8
0
 62
   172
 10
0.0
 20
0.0
 30
0.0
 70
   128
 71
    46
 72
    43
 73
    57
  0
VERTEX
  5
3F1
  8
0
 62
   172
 10
0.0
 20
0.0
 30
0.0
 70
   128
 71
    40
 72
    52
 73
    45
  0
VERTEX
  5
3F2
  8
0
 62
   172
 10
0.0
 20
0.0
 30
0.0
 70
   128
 71
    44
 72
    45
 73
    55
  0
VERTEX
  5
3F3
  8
0
 62
   172
 10
0.0
 20
0.0
 30
0.0
 70
   128
 71
    51
 72
    39
 73
    54
  0
VERTEX
  5
3F4
  8
0
 62
   172
 10
0.0
 20
0.0
 30
0.0
 70
   128
 71
    40
 72
    39
 73
    52
  0
VERTEX
  5
3F5
  8
0
 62
   172
 10
0.0
 20
0.0
 30
0.0
 70
   128
 71
    53
 72
    38
 73
    37
  0
VERTEX
  5
3F6
  8
0
 62
   172
 10
0.0
 20
0.0
 30
0.0
 70
   128
 71
    54
 72
    39
 73
    38
  0
VERTEX
  5
3F7
  8
0
 62
   172
 10
0.0
 20
0.0
 30
0.0
 70
   128
 71
    37
 72
    36
 73
    48
  0
VERTEX
  5
3F8
  8
0
 62
   172
 10
0.0
 20
0.0
 30
0.0
 70
   128
 71
    48
 72
    53
 73
    37
  0
VERTEX
  5
3F9
  8
0
 62
   172
 10
0.0
 20
0.0
 30
0.0
 70
   128
 71
    35
 72
    50
 73
    49
  0
VERTEX
  5
3FA
  8
0
 62
   172
 10
0.0
 20
0.0
 30
0.0
 70
   128
 71
    35
 72
    49
 73
    36
  0
VERTEX
  5
3FB
  8
0
 62
   172
 10
0.0
 20
0.0
 30
0.0
 70
   128
 71
    33
 72
    34
 73
    47
  0
VERTEX
  5
3FC
  8
0
 62
   172
 10
0.0
 20
0.0
 30
0.0
 70
   128
 71
    33
 72
    47
 73
    50
  0
VERTEX
  5
3FD
  8
0
 62
   172
 10
0.0
 20
0.0
 30
0.0
 70
   128
 71
    47
 72
    34
 73
    17
  0
SEQEND
  5
3FE
  8
0
 62
   172
  0
ENDBLK
  5
401
  8
0
  0
BLOCK
  8
0
  2
41
 70
     0
 10
0.0
 20
0.0
 30
0.0
  3
41
  1

  0
POLYLINE
  5
403
  8
0
 62
     8
 66
     1
 10
0.0
 20
0.0
 30
0.0
 70
    64
 71
    40
 72
    58
  0
VERTEX
  5
404
  8
0
 10
103.8884735107422
 20
11.01011657714844
 30
72.18375396728516
 70
   192
  0
VERTEX
  5
405
  8
0
 10
100.653450012207
 20
11.57499980926514
 30
70.67523956298828
 70
   192
  0
VERTEX
  5
406
  8
0
 10
107.7745666503906
 20
11.57499980926514
 30
55.40395355224609
 70
   192
  0
VERTEX
  5
407
  8
0
 10
111.0111923217773
 20
11.00988101959229
 30
56.91321563720703
 70
   192
  0
VERTEX
  5
408
  8
0
 10
113.9320755004883
 20
9.369784355163574
 30
58.27524566650391
 70
   192
  0
VERTEX
  5
409
  8
0
 10
116.2574768066406
 20
6.80947732925415
 30
59.35959625244141
 70
   192
  0
VERTEX
  5
40A
  8
0
 10
106.8160400390625
 20
9.370687484741211
 30
73.54890441894531
 70
   192
  0
VERTEX
  5
40B
  8
0
 10
110.5937957763672
 20
3.580410718917847
 30
75.31050109863281
 70
   192
  0
VERTEX
  5
40C
  8
0
 10
109.1404418945312
 20
6.810188770294189
 30
74.6327896118164
 70
   192
  0
VERTEX
  5
40D
  8
0
 10
117.75
 20
3.581612110137939
 30
60.05557632446289
 70
   192
  0
VERTEX
  5
40E
  8
0
 10
111.1439666748047
 20
0.0000000000000005
 30
75.56704711914062
 70
   192
  0
VERTEX
  5
40F
  8
0
 10
118.2650833129883
 20
0.0000000000000023
 30
60.29576110839844
 70
   192
  0
VERTEX
  5
410
  8
0
 10
104.5285263061523
 20
11.00667190551758
 30
53.89030075073242
 70
   192
  0
VERTEX
  5
411
  8
0
 10
94.4846420288086
 20
9.356585502624512
 30
67.79867553710938
 70
   192
  0
VERTEX
  5
412
  8
0
 10
97.40351104736328
 20
11.00241756439209
 30
69.1597671508789
 70
   192
  0
VERTEX
  5
413
  8
0
 10
101.6030883789062
 20
9.359850883483887
 30
52.52614593505859
 70
   192
  0
VERTEX
  5
414
  8
0
 10
92.16092681884766
 20
6.79650354385376
 30
66.7151107788086
 70
   192
  0
VERTEX
  5
415
  8
0
 10
99.28266143798828
 20
6.794055461883545
 30
51.44411087036133
 70
   192
  0
VERTEX
  5
416
  8
0
 10
97.7965087890625
 20
3.57319974899292
 30
50.75110626220703
 70
   192
  0
VERTEX
  5
417
  8
0
 10
90.73406219482422
 20
3.561178922653198
 30
66.04975128173828
 70
   192
  0
VERTEX
  5
418
  8
0
 10
97.2840576171875
 20
0.0000000000000044
 30
50.51214599609375
 70
   192
  0
VERTEX
  5
419
  8
0
 10
90.1629409790039
 20
0.0000000000000025
 30
65.78343200683594
 70
   192
  0
VERTEX
  5
41A
  8
0
 10
110.5728378295898
 20
-3.561178922653198
 30
75.30072784423828
 70
   192
  0
VERTEX
  5
41B
  8
0
 10
111.0206146240234
 20
-11.00667190551758
 30
56.91761016845703
 70
   192
  0
VERTEX
  5
41C
  8
0
 10
100.653450012207
 20
-11.57499980926514
 30
70.67523956298828
 70
   192
  0
VERTEX
  5
41D
  8
0
 10
103.9033966064453
 20
-11.00241756439209
 30
72.19071197509766
 70
   192
  0
VERTEX
  5
41E
  8
0
 10
109.1459732055664
 20
-6.79650354385376
 30
74.63536834716797
 70
   192
  0
VERTEX
  5
41F
  8
0
 10
116.2664794921875
 20
-6.794055461883545
 30
59.36379623413086
 70
   192
  0
VERTEX
  5
420
  8
0
 10
113.9460525512695
 20
-9.359850883483887
 30
58.28176498413086
 70
   192
  0
VERTEX
  5
421
  8
0
 10
101.6170654296875
 20
-9.369784355163574
 30
52.53266143798828
 70
   192
  0
VERTEX
  5
422
  8
0
 10
94.49085998535156
 20
-9.370687484741211
 30
67.80157470703125
 70
   192
  0
VERTEX
  5
423
  8
0
 10
97.4184341430664
 20
-11.01011657714844
 30
69.1667251586914
 70
   192
  0
VERTEX
  5
424
  8
0
 10
107.7745666503906
 20
-11.57499980926514
 30
55.40395355224609
 70
   192
  0
VERTEX
  5
425
  8
0
 10
104.5379409790039
 20
-11.00988101959229
 30
53.89469146728516
 70
   192
  0
VERTEX
  5
426
  8
0
 10
99.29166412353516
 20
-6.80947732925415
 30
51.44831085205078
 70
   192
  0
VERTEX
  5
427
  8
0
 10
90.71310424804688
 20
-3.580410718917847
 30
66.03998565673828
 70
   192
  0
VERTEX
  5
428
  8
0
 10
92.16646575927734
 20
-6.810188770294189
 30
66.71768951416016
 70
   192
  0
VERTEX
  5
429
  8
0
 10
97.79913330078125
 20
-3.581612110137939
 30
50.75233459472656
 70
   192
  0
VERTEX
  5
42A
  8
0
 10
106.8222579956055
 20
-9.356585502624512
 30
73.55180358886719
 70
   192
  0
VERTEX
  5
42B
  8
0
 10
117.7526321411133
 20
-3.57319974899292
 30
60.05680084228516
 70
   192
  0
VERTEX
  5
42C
  8
0
 62
     8
 10
0.0
 20
0.0
 30
0.0
 70
   128
 71
     3
 72
     2
 73
     1
  0
VERTEX
  5
42D
  8
0
 62
     8
 10
0.0
 20
0.0
 30
0.0
 70
   128
 71
     1
 72
     5
 73
     4
  0
VERTEX
  5
42E
  8
0
 62
     8
 10
0.0
 20
0.0
 30
0.0
 70
   128
 71
     3
 72
     1
 73
     4
  0
VERTEX
  5
42F
  8
0
 62
     8
 10
0.0
 20
0.0
 30
0.0
 70
   128
 71
     5
 72
     7
 73
     6
  0
VERTEX
  5
430
  8
0
 62
     8
 10
0.0
 20
0.0
 30
0.0
 70
   128
 71
     7
 72
     5
 73
     1
  0
VERTEX
  5
431
  8
0
 62
     8
 10
0.0
 20
0.0
 30
0.0
 70
   128
 71
     6
 72
     9
 73
     8
  0
VERTEX
  5
432
  8
0
 62
     8
 10
0.0
 20
0.0
 30
0.0
 70
   128
 71
     7
 72
     9
 73
     6
  0
VERTEX
  5
433
  8
0
 62
     8
 10
0.0
 20
0.0
 30
0.0
 70
   128
 71
    11
 72
    10
 73
     8
  0
VERTEX
  5
434
  8
0
 62
     8
 10
0.0
 20
0.0
 30
0.0
 70
   128
 71
     6
 72
     8
 73
    10
  0
VERTEX
  5
435
  8
0
 62
     8
 10
0.0
 20
0.0
 30
0.0
 70
   128
 71
    12
 72
    10
 73
    11
  0
VERTEX
  5
436
  8
0
 62
     8
 10
0.0
 20
0.0
 30
0.0
 70
   128
 71
     2
 72
     3
 73
    13
  0
VERTEX
  5
437
  8
0
 62
     8
 10
0.0
 20
0.0
 30
0.0
 70
   128
 71
    15
 72
    13
 73
    14
  0
VERTEX
  5
438
  8
0
 62
     8
 10
0.0
 20
0.0
 30
0.0
 70
   128
 71
    15
 72
     2
 73
    13
  0
VERTEX
  5
439
  8
0
 62
     8
 10
0.0
 20
0.0
 30
0.0
 70
   128
 71
    17
 72
    14
 73
    16
  0
VERTEX
  5
43A
  8
0
 62
     8
 10
0.0
 20
0.0
 30
0.0
 70
   128
 71
    13
 72
    16
 73
    14
  0
VERTEX
  5
43B
  8
0
 62
     8
 10
0.0
 20
0.0
 30
0.0
 70
   128
 71
    19
 72
    17
 73
    18
  0
VERTEX
  5
43C
  8
0
 62
     8
 10
0.0
 20
0.0
 30
0.0
 70
   128
 71
    17
 72
    16
 73
    18
  0
VERTEX
  5
43D
  8
0
 62
     8
 10
0.0
 20
0.0
 30
0.0
 70
   128
 71
    19
 72
    21
 73
    20
  0
VERTEX
  5
43E
  8
0
 62
     8
 10
0.0
 20
0.0
 30
0.0
 70
   128
 71
    20
 72
    17
 73
    19
  0
VERTEX
  5
43F
  8
0
 62
     8
 10
0.0
 20
0.0
 30
0.0
 70
   128
 71
    21
 72
    22
 73
    20
  0
VERTEX
  5
440
  8
0
 62
     8
 10
0.0
 20
0.0
 30
0.0
 70
   128
 71
    12
 72
    11
 73
    23
  0
VERTEX
  5
441
  8
0
 62
     8
 10
0.0
 20
0.0
 30
0.0
 70
   128
 71
    26
 72
    25
 73
    24
  0
VERTEX
  5
442
  8
0
 62
     8
 10
0.0
 20
0.0
 30
0.0
 70
   128
 71
    29
 72
    28
 73
    27
  0
VERTEX
  5
443
  8
0
 62
     8
 10
0.0
 20
0.0
 30
0.0
 70
   128
 71
    32
 72
    31
 73
    30
  0
VERTEX
  5
444
  8
0
 62
     8
 10
0.0
 20
0.0
 30
0.0
 70
   128
 71
    34
 72
    33
 73
    32
  0
VERTEX
  5
445
  8
0
 62
     8
 10
0.0
 20
0.0
 30
0.0
 70
   128
 71
    37
 72
    36
 73
    35
  0
VERTEX
  5
446
  8
0
 62
     8
 10
0.0
 20
0.0
 30
0.0
 70
   128
 71
    37
 72
    35
 73
    31
  0
VERTEX
  5
447
  8
0
 62
     8
 10
0.0
 20
0.0
 30
0.0
 70
   128
 71
    38
 72
    36
 73
    22
  0
VERTEX
  5
448
  8
0
 62
     8
 10
0.0
 20
0.0
 30
0.0
 70
   128
 71
    36
 72
    38
 73
    35
  0
VERTEX
  5
449
  8
0
 62
     8
 10
0.0
 20
0.0
 30
0.0
 70
   128
 71
    38
 72
    22
 73
    21
  0
VERTEX
  5
44A
  8
0
 62
     8
 10
0.0
 20
0.0
 30
0.0
 70
   128
 71
    32
 72
    30
 73
    34
  0
VERTEX
  5
44B
  8
0
 62
     8
 10
0.0
 20
0.0
 30
0.0
 70
   128
 71
    31
 72
    35
 73
    30
  0
VERTEX
  5
44C
  8
0
 62
     8
 10
0.0
 20
0.0
 30
0.0
 70
   128
 71
    25
 72
    33
 73
    24
  0
VERTEX
  5
44D
  8
0
 62
     8
 10
0.0
 20
0.0
 30
0.0
 70
   128
 71
    32
 72
    33
 73
    25
  0
VERTEX
  5
44E
  8
0
 62
     8
 10
0.0
 20
0.0
 30
0.0
 70
   128
 71
    29
 72
    39
 73
    24
  0
VERTEX
  5
44F
  8
0
 62
     8
 10
0.0
 20
0.0
 30
0.0
 70
   128
 71
    39
 72
    26
 73
    24
  0
VERTEX
  5
450
  8
0
 62
     8
 10
0.0
 20
0.0
 30
0.0
 70
   128
 71
    40
 72
    27
 73
    28
  0
VERTEX
  5
451
  8
0
 62
     8
 10
0.0
 20
0.0
 30
0.0
 70
   128
 71
    29
 72
    27
 73
    39
  0
VERTEX
  5
452
  8
0
 62
     8
 10
0.0
 20
0.0
 30
0.0
 70
   128
 71
    23
 72
    40
 73
    12
  0
VERTEX
  5
453
  8
0
 62
     8
 10
0.0
 20
0.0
 30
0.0
 70
   128
 71
    40
 72
    23
 73
    27
  0
VERTEX
  5
454
  8
0
 62
     8
 10
0.0
 20
0.0
 30
0.0
 70
   128
 71
    29
 72
    24
 73
    28
  0
VERTEX
  5
455
  8
0
 62
     8
 10
0.0
 20
0.0
 30
0.0
 70
   128
 71
    30
 72
    35
 73
     5
  0
VERTEX
  5
456
  8
0
 62
     8
 10
0.0
 20
0.0
 30
0.0
 70
   128
 71
    12
 72
    40
 73
    24
  0
VERTEX
  5
457
  8
0
 62
     8
 10
0.0
 20
0.0
 30
0.0
 70
   128
 71
    24
 72
    40
 73
    28
  0
VERTEX
  5
458
  8
0
 62
     8
 10
0.0
 20
0.0
 30
0.0
 70
   128
 71
    33
 72
    12
 73
    24
  0
VERTEX
  5
459
  8
0
 62
     8
 10
0.0
 20
0.0
 30
0.0
 70
   128
 71
     6
 72
    10
 73
    30
  0
VERTEX
  5
45A
  8
0
 62
     8
 10
0.0
 20
0.0
 30
0.0
 70
   128
 71
    34
 72
    12
 73
    33
  0
VERTEX
  5
45B
  8
0
 62
     8
 10
0.0
 20
0.0
 30
0.0
 70
   128
 71
     4
 72
    21
 73
     3
  0
VERTEX
  5
45C
  8
0
 62
     8
 10
0.0
 20
0.0
 30
0.0
 70
   128
 71
    38
 72
     4
 73
     5
  0
VERTEX
  5
45D
  8
0
 62
     8
 10
0.0
 20
0.0
 30
0.0
 70
   128
 71
    13
 72
    18
 73
    16
  0
VERTEX
  5
45E
  8
0
 62
     8
 10
0.0
 20
0.0
 30
0.0
 70
   128
 71
    21
 72
    19
 73
    13
  0
VERTEX
  5
45F
  8
0
 62
     8
 10
0.0
 20
0.0
 30
0.0
 70
   128
 71
    13
 72
    19
 73
    18
  0
VERTEX
  5
460
  8
0
 62
     8
 10
0.0
 20
0.0
 30
0.0
 70
   128
 71
    21
 72
     4
 73
    38
  0
VERTEX
  5
461
  8
0
 62
     8
 10
0.0
 20
0.0
 30
0.0
 70
   128
 71
    21
 72
    13
 73
     3
  0
VERTEX
  5
462
  8
0
 62
     8
 10
0.0
 20
0.0
 30
0.0
 70
   128
 71
    30
 72
     5
 73
     6
  0
VERTEX
  5
463
  8
0
 62
     8
 10
0.0
 20
0.0
 30
0.0
 70
   128
 71
     5
 72
    35
 73
    38
  0
VERTEX
  5
464
  8
0
 62
     8
 10
0.0
 20
0.0
 30
0.0
 70
   128
 71
    30
 72
    10
 73
    34
  0
VERTEX
  5
465
  8
0
 62
     8
 10
0.0
 20
0.0
 30
0.0
 70
   128
 71
    10
 72
    12
 73
    34
  0
SEQEND
  5
466
  8
0
 62
     8
  0
ENDBLK
  5
469
  8
0
  0
BLOCK
  8
0
  2
42
 70
     0
 10
0.0
 20
0.0
 30
0.0
  3
42
  1

  0
POLYLINE
  5
46B
  8
0
 62
   151
 66
     1
 10
0.0
 20
0.0
 30
0.0
 70
    64
 71
    70
 72
   136
  0
VERTEX
  5
46C
  8
0
 10
-2.095963954925537
 20
22.79035186767578
 30
149.1510772705078
 70
   192
  0
VERTEX
  5
46D
  8
0
 10
1.59869647026062
 20
22.95516586303711
 30
118.7998123168945
 70
   192
  0
VERTEX
  5
46E
  8
0
 10
-4.103021144866943
 20
22.58394813537598
 30
122.5736999511719
 70
   192
  0
VERTEX
  5
46F
  8
0
 10
22.19115829467773
 20
6.548639297485352
 30
117.804573059082
 70
   192
  0
VERTEX
  5
470
  8
0
 10
22.78534317016602
 20
6.328090190887451
 30
137.9959411621094
 70
   192
  0
VERTEX
  5
471
  8
0
 10
23.14130210876465
 20
0.0000023460393095
 30
117.7796936035156
 70
   192
  0
VERTEX
  5
472
  8
0
 10
19.43000602722168
 20
12.53237819671631
 30
117.8768768310547
 70
   192
  0
VERTEX
  5
473
  8
0
 10
20.19177436828613
 20
12.1677417755127
 30
138.0638580322266
 70
   192
  0
VERTEX
  5
474
  8
0
 10
-18.68863296508789
 20
12.67618370056152
 30
132.2277069091797
 70
   192
  0
VERTEX
  5
475
  8
0
 10
-13.98803806304932
 20
17.47520065307617
 30
149.4624786376953
 70
   192
  0
VERTEX
  5
476
  8
0
 10
-14.57210826873779
 20
17.42667388916016
 30
129.5030364990234
 70
   192
  0
VERTEX
  5
477
  8
0
 10
-8.422975540161133
 20
20.99429321289062
 30
149.3167572021484
 70
   192
  0
VERTEX
  5
478
  8
0
 10
-9.593710899353027
 20
20.74078750610352
 30
126.2079086303711
 70
   192
  0
VERTEX
  5
479
  8
0
 10
23.67274284362793
 20
0.0000000000000144
 30
137.9727020263672
 70
   192
  0
VERTEX
  5
47A
  8
0
 10
9.510961532592773
 20
21.00759506225586
 30
118.1366119384766
 70
   192
  0
VERTEX
  5
47B
  8
0
 10
4.478866577148438
 20
22.72062301635742
 30
148.9789123535156
 70
   192
  0
VERTEX
  5
47C
  8
0
 10
10.7626838684082
 20
20.79418563842773
 30
148.8143615722656
 70
   192
  0
VERTEX
  5
47D
  8
0
 10
15.08017921447754
 20
17.49079895019531
 30
117.9907760620117
 70
   192
  0
VERTEX
  5
47E
  8
0
 10
16.21509552001953
 20
17.20385551452637
 30
148.6715850830078
 70
   192
  0
VERTEX
  5
47F
  8
0
 10
-18.3331241607666
 20
12.5150842666626
 30
149.5762634277344
 70
   192
  0
VERTEX
  5
480
  8
0
 10
-22.42864227294922
 20
-0.0000000000000084
 30
134.7031707763672
 70
   192
  0
VERTEX
  5
481
  8
0
 10
-21.09212875366211
 20
6.523626327514648
 30
149.6485137939453
 70
   192
  0
VERTEX
  5
482
  8
0
 10
-21.44858169555664
 20
6.704916000366211
 30
134.0544738769531
 70
   192
  0
VERTEX
  5
483
  8
0
 10
-22.03663635253906
 20
-0.0000000000000101
 30
149.6732330322266
 70
   192
  0
VERTEX
  5
484
  8
0
 10
3.175976514816284
 20
22.80018424987793
 30
118.3024978637695
 70
   192
  0
VERTEX
  5
485
  8
0
 10
20.46663284301758
 20
12.1677417755127
 30
148.5602569580078
 70
   192
  0
VERTEX
  5
486
  8
0
 10
1.59869647026062
 20
0.0000000000000071
 30
118.7998123168945
 70
   192
  0
VERTEX
  5
487
  8
0
 10
1.59869647026062
 20
-22.95516586303711
 30
118.7998123168945
 70
   192
  0
VERTEX
  5
488
  8
0
 10
-4.103021621704102
 20
-22.58395195007324
 30
122.5736999511719
 70
   192
  0
VERTEX
  5
489
  8
0
 10
-9.593714714050293
 20
-20.74079322814941
 30
126.2079086303711
 70
   192
  0
VERTEX
  5
48A
  8
0
 10
-14.57210826873779
 20
-17.42667388916016
 30
129.5030364990234
 70
   192
  0
VERTEX
  5
48B
  8
0
 10
-18.68863677978516
 20
-12.67618656158447
 30
132.2277069091797
 70
   192
  0
VERTEX
  5
48C
  8
0
 10
-21.44858932495117
 20
-6.704917907714844
 30
134.0544891357422
 70
   192
  0
VERTEX
  5
48D
  8
0
 10
3.175976514816284
 20
0.0
 30
118.3024978637695
 70
   192
  0
VERTEX
  5
48E
  8
0
 10
3.175976514816284
 20
-22.80018424987793
 30
118.3024978637695
 70
   192
  0
VERTEX
  5
48F
  8
0
 10
15.10668182373047
 20
-17.46889114379883
 30
117.9900817871094
 70
   192
  0
VERTEX
  5
490
  8
0
 10
9.528502464294434
 20
-21.00045013427734
 30
118.1361541748047
 70
   192
  0
VERTEX
  5
491
  8
0
 10
22.203857421875
 20
-6.508203029632568
 30
117.8042373657227
 70
   192
  0
VERTEX
  5
492
  8
0
 10
19.44757843017578
 20
-12.50578594207764
 30
117.8764114379883
 70
   192
  0
VERTEX
  5
493
  8
0
 10
22.78534317016602
 20
-6.328090190887451
 30
137.9959411621094
 70
   192
  0
VERTEX
  5
494
  8
0
 10
20.19177436828613
 20
-12.1677417755127
 30
138.0638580322266
 70
   192
  0
VERTEX
  5
495
  8
0
 10
20.46663284301758
 20
-12.1677417755127
 30
148.5602569580078
 70
   192
  0
VERTEX
  5
496
  8
0
 10
16.21509552001953
 20
-17.20385551452637
 30
148.6715850830078
 70
   192
  0
VERTEX
  5
497
  8
0
 10
-2.188795328140259
 20
-22.77899932861328
 30
149.1535034179688
 70
   192
  0
VERTEX
  5
498
  8
0
 10
-8.507755279541016
 20
-20.95479774475098
 30
149.3189697265625
 70
   192
  0
VERTEX
  5
499
  8
0
 10
-14.05029201507568
 20
-17.41613578796387
 30
149.464111328125
 70
   192
  0
VERTEX
  5
49A
  8
0
 10
4.394801139831543
 20
-22.7377986907959
 30
148.9811096191406
 70
   192
  0
VERTEX
  5
49B
  8
0
 10
-21.09212875366211
 20
-6.523626327514648
 30
149.6485137939453
 70
   192
  0
VERTEX
  5
49C
  8
0
 10
-18.36395263671875
 20
-12.45587730407715
 30
149.5770721435547
 70
   192
  0
VERTEX
  5
49D
  8
0
 10
10.7052116394043
 20
-20.8281135559082
 30
148.8158721923828
 70
   192
  0
VERTEX
  5
49E
  8
0
 10
85.92635345458984
 20
8.399999618530273
 30
146.8461303710938
 70
   192
  0
VERTEX
  5
49F
  8
0
 10
88.92532348632812
 20
5.400000095367432
 30
146.7675933837891
 70
   192
  0
VERTEX
  5
4A0
  8
0
 10
88.04695129394531
 20
7.521320343017578
 30
146.7906036376953
 70
   192
  0
VERTEX
  5
4A1
  8
0
 10
85.92635345458984
 20
-8.399999618530273
 30
146.8461303710938
 70
   192
  0
VERTEX
  5
4A2
  8
0
 10
27.25312042236328
 20
8.399999618530273
 30
148.3825378417969
 70
   192
  0
VERTEX
  5
4A3
  8
0
 10
27.25312042236328
 20
-8.399999618530273
 30
148.3825378417969
 70
   192
  0
VERTEX
  5
4A4
  8
0
 10
23.37231636047363
 20
9.405071258544922
 30
148.4841613769531
 70
   192
  0
VERTEX
  5
4A5
  8
0
 10
23.37231636047363
 20
-9.405071258544922
 30
148.4841613769531
 70
   192
  0
VERTEX
  5
4A6
  8
0
 10
88.04695129394531
 20
-7.521320343017578
 30
146.7906036376953
 70
   192
  0
VERTEX
  5
4A7
  8
0
 10
88.92532348632812
 20
-5.400000095367432
 30
146.7675933837891
 70
   192
  0
VERTEX
  5
4A8
  8
0
 10
26.97826194763184
 20
-8.399999618530273
 30
137.8861389160156
 70
   192
  0
VERTEX
  5
4A9
  8
0
 10
85.65149688720703
 20
-8.399999618530273
 30
136.3497314453125
 70
   192
  0
VERTEX
  5
4AA
  8
0
 10
88.65046691894531
 20
5.400000095367432
 30
136.2711944580078
 70
   192
  0
VERTEX
  5
4AB
  8
0
 10
88.65046691894531
 20
-5.400000095367432
 30
136.2711944580078
 70
   192
  0
VERTEX
  5
4AC
  8
0
 10
85.65149688720703
 20
8.399999618530273
 30
136.3497314453125
 70
   192
  0
VERTEX
  5
4AD
  8
0
 10
26.97826194763184
 20
8.399999618530273
 30
137.8861389160156
 70
   192
  0
VERTEX
  5
4AE
  8
0
 10
23.09745788574219
 20
9.405071258544922
 30
137.9877624511719
 70
   192
  0
VERTEX
  5
4AF
  8
0
 10
87.77208709716797
 20
7.521320343017578
 30
136.2942047119141
 70
   192
  0
VERTEX
  5
4B0
  8
0
 10
87.77208709716797
 20
-7.521320343017578
 30
136.2942047119141
 70
   192
  0
VERTEX
  5
4B1
  8
0
 10
23.09745788574219
 20
-9.405071258544922
 30
137.9877624511719
 70
   192
  0
VERTEX
  5
4B2
  8
0
 62
   151
 10
0.0
 20
0.0
 30
0.0
 70
   128
 71
     3
 72
     2
 73
     1
  0
VERTEX
  5
4B3
  8
0
 62
   151
 10
0.0
 20
0.0
 30
0.0
 70
   128
 71
     6
 72
     5
 73
     4
  0
VERTEX
  5
4B4
  8
0
 62
   151
 10
0.0
 20
0.0
 30
0.0
 70
   128
 71
     4
 72
     8
 73
     7
  0
VERTEX
  5
4B5
  8
0
 62
   151
 10
0.0
 20
0.0
 30
0.0
 70
   128
 71
    11
 72
    10
 73
     9
  0
VERTEX
  5
4B6
  8
0
 62
   151
 10
0.0
 20
0.0
 30
0.0
 70
   128
 71
    10
 72
    13
 73
    12
  0
VERTEX
  5
4B7
  8
0
 62
   151
 10
0.0
 20
0.0
 30
0.0
 70
   128
 71
     6
 72
    14
 73
     5
  0
VERTEX
  5
4B8
  8
0
 62
   151
 10
0.0
 20
0.0
 30
0.0
 70
   128
 71
     5
 72
     8
 73
     4
  0
VERTEX
  5
4B9
  8
0
 62
   151
 10
0.0
 20
0.0
 30
0.0
 70
   128
 71
    17
 72
    16
 73
    15
  0
VERTEX
  5
4BA
  8
0
 62
   151
 10
0.0
 20
0.0
 30
0.0
 70
   128
 71
    19
 72
    18
 73
     7
  0
VERTEX
  5
4BB
  8
0
 62
   151
 10
0.0
 20
0.0
 30
0.0
 70
   128
 71
     1
 72
     2
 73
    16
  0
VERTEX
  5
4BC
  8
0
 62
   151
 10
0.0
 20
0.0
 30
0.0
 70
   128
 71
    12
 72
     3
 73
     1
  0
VERTEX
  5
4BD
  8
0
 62
   151
 10
0.0
 20
0.0
 30
0.0
 70
   128
 71
    13
 72
     3
 73
    12
  0
VERTEX
  5
4BE
  8
0
 62
   151
 10
0.0
 20
0.0
 30
0.0
 70
   128
 71
     9
 72
    10
 73
    20
  0
VERTEX
  5
4BF
  8
0
 62
   151
 10
0.0
 20
0.0
 30
0.0
 70
   128
 71
    11
 72
    13
 73
    10
  0
VERTEX
  5
4C0
  8
0
 62
   151
 10
0.0
 20
0.0
 30
0.0
 70
   128
 71
    23
 72
    22
 73
    21
  0
VERTEX
  5
4C1
  8
0
 62
   151
 10
0.0
 20
0.0
 30
0.0
 70
   128
 71
    22
 72
    23
 73
    20
  0
VERTEX
  5
4C2
  8
0
 62
   151
 10
0.0
 20
0.0
 30
0.0
 70
   128
 71
    21
 72
    22
 73
    24
  0
VERTEX
  5
4C3
  8
0
 62
   151
 10
0.0
 20
0.0
 30
0.0
 70
   128
 71
    23
 72
     9
 73
    20
  0
VERTEX
  5
4C4
  8
0
 62
   151
 10
0.0
 20
0.0
 30
0.0
 70
   128
 71
    16
 72
    25
 73
    15
  0
VERTEX
  5
4C5
  8
0
 62
   151
 10
0.0
 20
0.0
 30
0.0
 70
   128
 71
    16
 72
     2
 73
    25
  0
VERTEX
  5
4C6
  8
0
 62
   151
 10
0.0
 20
0.0
 30
0.0
 70
   128
 71
    17
 72
    18
 73
    19
  0
VERTEX
  5
4C7
  8
0
 62
   151
 10
0.0
 20
0.0
 30
0.0
 70
   128
 71
    15
 72
    18
 73
    17
  0
VERTEX
  5
4C8
  8
0
 62
   151
 10
0.0
 20
0.0
 30
0.0
 70
   128
 71
     7
 72
     8
 73
    26
  0
VERTEX
  5
4C9
  8
0
 62
   151
 10
0.0
 20
0.0
 30
0.0
 70
   128
 71
     7
 72
    26
 73
    19
  0
VERTEX
  5
4CA
  8
0
 62
   151
 10
0.0
 20
0.0
 30
0.0
 70
   128
 71
    29
 72
    28
 73
    27
  0
VERTEX
  5
4CB
  8
0
 62
   151
 10
0.0
 20
0.0
 30
0.0
 70
   128
 71
    27
 72
    11
 73
     9
  0
VERTEX
  5
4CC
  8
0
 62
   151
 10
0.0
 20
0.0
 30
0.0
 70
   128
 71
    27
 72
     9
 73
    23
  0
VERTEX
  5
4CD
  8
0
 62
   151
 10
0.0
 20
0.0
 30
0.0
 70
   128
 71
    27
 72
     3
 73
    13
  0
VERTEX
  5
4CE
  8
0
 62
   151
 10
0.0
 20
0.0
 30
0.0
 70
   128
 71
    11
 72
    27
 73
    13
  0
VERTEX
  5
4CF
  8
0
 62
   151
 10
0.0
 20
0.0
 30
0.0
 70
   128
 71
     3
 72
    27
 73
     2
  0
VERTEX
  5
4D0
  8
0
 62
   151
 10
0.0
 20
0.0
 30
0.0
 70
   128
 71
    23
 72
    21
 73
    27
  0
VERTEX
  5
4D1
  8
0
 62
   151
 10
0.0
 20
0.0
 30
0.0
 70
   128
 71
    27
 72
    30
 73
    29
  0
VERTEX
  5
4D2
  8
0
 62
   151
 10
0.0
 20
0.0
 30
0.0
 70
   128
 71
    32
 72
    31
 73
    27
  0
VERTEX
  5
4D3
  8
0
 62
   151
 10
0.0
 20
0.0
 30
0.0
 70
   128
 71
    27
 72
    31
 73
    30
  0
VERTEX
  5
4D4
  8
0
 62
   151
 10
0.0
 20
0.0
 30
0.0
 70
   128
 71
    33
 72
    27
 73
    21
  0
VERTEX
  5
4D5
  8
0
 62
   151
 10
0.0
 20
0.0
 30
0.0
 70
   128
 71
    27
 72
    33
 73
    32
  0
VERTEX
  5
4D6
  8
0
 62
   151
 10
0.0
 20
0.0
 30
0.0
 70
   128
 71
    25
 72
     2
 73
    27
  0
VERTEX
  5
4D7
  8
0
 62
   151
 10
0.0
 20
0.0
 30
0.0
 70
   128
 71
    34
 72
    25
 73
    27
  0
VERTEX
  5
4D8
  8
0
 62
   151
 10
0.0
 20
0.0
 30
0.0
 70
   128
 71
    27
 72
    35
 73
    34
  0
VERTEX
  5
4D9
  8
0
 62
   151
 10
0.0
 20
0.0
 30
0.0
 70
   128
 71
    28
 72
    35
 73
    27
  0
VERTEX
  5
4DA
  8
0
 62
   151
 10
0.0
 20
0.0
 30
0.0
 70
   128
 71
    34
 72
    37
 73
    36
  0
VERTEX
  5
4DB
  8
0
 62
   151
 10
0.0
 20
0.0
 30
0.0
 70
   128
 71
    15
 72
    25
 73
    34
  0
VERTEX
  5
4DC
  8
0
 62
   151
 10
0.0
 20
0.0
 30
0.0
 70
   128
 71
    18
 72
    15
 73
    34
  0
VERTEX
  5
4DD
  8
0
 62
   151
 10
0.0
 20
0.0
 30
0.0
 70
   128
 71
     7
 72
    18
 73
    34
  0
VERTEX
  5
4DE
  8
0
 62
   151
 10
0.0
 20
0.0
 30
0.0
 70
   128
 71
     6
 72
     4
 73
    34
  0
VERTEX
  5
4DF
  8
0
 62
   151
 10
0.0
 20
0.0
 30
0.0
 70
   128
 71
    34
 72
     4
 73
     7
  0
VERTEX
  5
4E0
  8
0
 62
   151
 10
0.0
 20
0.0
 30
0.0
 70
   128
 71
    39
 72
    38
 73
    34
  0
VERTEX
  5
4E1
  8
0
 62
   151
 10
0.0
 20
0.0
 30
0.0
 70
   128
 71
    34
 72
    38
 73
     6
  0
VERTEX
  5
4E2
  8
0
 62
   151
 10
0.0
 20
0.0
 30
0.0
 70
   128
 71
    34
 72
    36
 73
    39
  0
VERTEX
  5
4E3
  8
0
 62
   151
 10
0.0
 20
0.0
 30
0.0
 70
   128
 71
    35
 72
    37
 73
    34
  0
VERTEX
  5
4E4
  8
0
 62
   151
 10
0.0
 20
0.0
 30
0.0
 70
   128
 71
    14
 72
     6
 73
    40
  0
VERTEX
  5
4E5
  8
0
 62
   151
 10
0.0
 20
0.0
 30
0.0
 70
   128
 71
    42
 72
    41
 73
    39
  0
VERTEX
  5
4E6
  8
0
 62
   151
 10
0.0
 20
0.0
 30
0.0
 70
   128
 71
    43
 72
    42
 73
    39
  0
VERTEX
  5
4E7
  8
0
 62
   151
 10
0.0
 20
0.0
 30
0.0
 70
   128
 71
    29
 72
    45
 73
    44
  0
VERTEX
  5
4E8
  8
0
 62
   151
 10
0.0
 20
0.0
 30
0.0
 70
   128
 71
    45
 72
    30
 73
    46
  0
VERTEX
  5
4E9
  8
0
 62
   151
 10
0.0
 20
0.0
 30
0.0
 70
   128
 71
    47
 72
    37
 73
    35
  0
VERTEX
  5
4EA
  8
0
 62
   151
 10
0.0
 20
0.0
 30
0.0
 70
   128
 71
    46
 72
    31
 73
    32
  0
VERTEX
  5
4EB
  8
0
 62
   151
 10
0.0
 20
0.0
 30
0.0
 70
   128
 71
    46
 72
    30
 73
    31
  0
VERTEX
  5
4EC
  8
0
 62
   151
 10
0.0
 20
0.0
 30
0.0
 70
   128
 71
    49
 72
    33
 73
    48
  0
VERTEX
  5
4ED
  8
0
 62
   151
 10
0.0
 20
0.0
 30
0.0
 70
   128
 71
    33
 72
    49
 73
    32
  0
VERTEX
  5
4EE
  8
0
 62
   151
 10
0.0
 20
0.0
 30
0.0
 70
   128
 71
    21
 72
    24
 73
    48
  0
VERTEX
  5
4EF
  8
0
 62
   151
 10
0.0
 20
0.0
 30
0.0
 70
   128
 71
    48
 72
    33
 73
    21
  0
VERTEX
  5
4F0
  8
0
 62
   151
 10
0.0
 20
0.0
 30
0.0
 70
   128
 71
    32
 72
    49
 73
    46
  0
VERTEX
  5
4F1
  8
0
 62
   151
 10
0.0
 20
0.0
 30
0.0
 70
   128
 71
    44
 72
    47
 73
    28
  0
VERTEX
  5
4F2
  8
0
 62
   151
 10
0.0
 20
0.0
 30
0.0
 70
   128
 71
    30
 72
    45
 73
    29
  0
VERTEX
  5
4F3
  8
0
 62
   151
 10
0.0
 20
0.0
 30
0.0
 70
   128
 71
    44
 72
    28
 73
    29
  0
VERTEX
  5
4F4
  8
0
 62
   151
 10
0.0
 20
0.0
 30
0.0
 70
   128
 71
    50
 72
    37
 73
    47
  0
VERTEX
  5
4F5
  8
0
 62
   151
 10
0.0
 20
0.0
 30
0.0
 70
   128
 71
    35
 72
    28
 73
    47
  0
VERTEX
  5
4F6
  8
0
 62
   151
 10
0.0
 20
0.0
 30
0.0
 70
   128
 71
    36
 72
    37
 73
    50
  0
VERTEX
  5
4F7
  8
0
 62
   151
 10
0.0
 20
0.0
 30
0.0
 70
   128
 71
    43
 72
    39
 73
    36
  0
VERTEX
  5
4F8
  8
0
 62
   151
 10
0.0
 20
0.0
 30
0.0
 70
   128
 71
    50
 72
    43
 73
    36
  0
VERTEX
  5
4F9
  8
0
 62
   151
 10
0.0
 20
0.0
 30
0.0
 70
   128
 71
    40
 72
    38
 73
    41
  0
VERTEX
  5
4FA
  8
0
 62
   151
 10
0.0
 20
0.0
 30
0.0
 70
   128
 71
    41
 72
    38
 73
    39
  0
VERTEX
  5
4FB
  8
0
 62
   151
 10
0.0
 20
0.0
 30
0.0
 70
   128
 71
    38
 72
    40
 73
     6
  0
VERTEX
  5
4FC
  8
0
 62
   151
 10
0.0
 20
0.0
 30
0.0
 70
   128
 71
    53
 72
    52
 73
    51
  0
VERTEX
  5
4FD
  8
0
 62
   151
 10
0.0
 20
0.0
 30
0.0
 70
   128
 71
    17
 72
    49
 73
    48
  0
VERTEX
  5
4FE
  8
0
 62
   151
 10
0.0
 20
0.0
 30
0.0
 70
   128
 71
    51
 72
    52
 73
    54
  0
VERTEX
  5
4FF
  8
0
 62
   151
 10
0.0
 20
0.0
 30
0.0
 70
   128
 71
    51
 72
    56
 73
    55
  0
VERTEX
  5
500
  8
0
 62
   151
 10
0.0
 20
0.0
 30
0.0
 70
   128
 71
    48
 72
    16
 73
    17
  0
VERTEX
  5
501
  8
0
 62
   151
 10
0.0
 20
0.0
 30
0.0
 70
   128
 71
    22
 72
    12
 73
     1
  0
VERTEX
  5
502
  8
0
 62
   151
 10
0.0
 20
0.0
 30
0.0
 70
   128
 71
    12
 72
    20
 73
    10
  0
VERTEX
  5
503
  8
0
 62
   151
 10
0.0
 20
0.0
 30
0.0
 70
   128
 71
     1
 72
    24
 73
    22
  0
VERTEX
  5
504
  8
0
 62
   151
 10
0.0
 20
0.0
 30
0.0
 70
   128
 71
    20
 72
    12
 73
    22
  0
VERTEX
  5
505
  8
0
 62
   151
 10
0.0
 20
0.0
 30
0.0
 70
   128
 71
    16
 72
    24
 73
     1
  0
VERTEX
  5
506
  8
0
 62
   151
 10
0.0
 20
0.0
 30
0.0
 70
   128
 71
    19
 72
    49
 73
    17
  0
VERTEX
  5
507
  8
0
 62
   151
 10
0.0
 20
0.0
 30
0.0
 70
   128
 71
    24
 72
    16
 73
    48
  0
VERTEX
  5
508
  8
0
 62
   151
 10
0.0
 20
0.0
 30
0.0
 70
   128
 71
    26
 72
    46
 73
    19
  0
VERTEX
  5
509
  8
0
 62
   151
 10
0.0
 20
0.0
 30
0.0
 70
   128
 71
    49
 72
    19
 73
    46
  0
VERTEX
  5
50A
  8
0
 62
   151
 10
0.0
 20
0.0
 30
0.0
 70
   128
 71
    26
 72
    45
 73
    46
  0
VERTEX
  5
50B
  8
0
 62
   151
 10
0.0
 20
0.0
 30
0.0
 70
   128
 71
    26
 72
    44
 73
    45
  0
VERTEX
  5
50C
  8
0
 62
   151
 10
0.0
 20
0.0
 30
0.0
 70
   128
 71
    43
 72
    50
 73
    42
  0
VERTEX
  5
50D
  8
0
 62
   151
 10
0.0
 20
0.0
 30
0.0
 70
   128
 71
    42
 72
    47
 73
    44
  0
VERTEX
  5
50E
  8
0
 62
   151
 10
0.0
 20
0.0
 30
0.0
 70
   128
 71
    50
 72
    47
 73
    42
  0
VERTEX
  5
50F
  8
0
 62
   151
 10
0.0
 20
0.0
 30
0.0
 70
   128
 71
    57
 72
    42
 73
    26
  0
VERTEX
  5
510
  8
0
 62
   151
 10
0.0
 20
0.0
 30
0.0
 70
   128
 71
    26
 72
    42
 73
    44
  0
VERTEX
  5
511
  8
0
 62
   151
 10
0.0
 20
0.0
 30
0.0
 70
   128
 71
    57
 72
    58
 73
    42
  0
VERTEX
  5
512
  8
0
 62
   151
 10
0.0
 20
0.0
 30
0.0
 70
   128
 71
    55
 72
    58
 73
    57
  0
VERTEX
  5
513
  8
0
 62
   151
 10
0.0
 20
0.0
 30
0.0
 70
   128
 71
    51
 72
    54
 73
    56
  0
VERTEX
  5
514
  8
0
 62
   151
 10
0.0
 20
0.0
 30
0.0
 70
   128
 71
    56
 72
    58
 73
    55
  0
VERTEX
  5
515
  8
0
 62
   151
 10
0.0
 20
0.0
 30
0.0
 70
   128
 71
    54
 72
    60
 73
    59
  0
VERTEX
  5
516
  8
0
 62
   151
 10
0.0
 20
0.0
 30
0.0
 70
   128
 71
    52
 72
    60
 73
    54
  0
VERTEX
  5
517
  8
0
 62
   151
 10
0.0
 20
0.0
 30
0.0
 70
   128
 71
    62
 72
    61
 73
    54
  0
VERTEX
  5
518
  8
0
 62
   151
 10
0.0
 20
0.0
 30
0.0
 70
   128
 71
    56
 72
    54
 73
    61
  0
VERTEX
  5
519
  8
0
 62
   151
 10
0.0
 20
0.0
 30
0.0
 70
   128
 71
    60
 72
    52
 73
    63
  0
VERTEX
  5
51A
  8
0
 62
   151
 10
0.0
 20
0.0
 30
0.0
 70
   128
 71
    64
 72
    60
 73
    63
  0
VERTEX
  5
51B
  8
0
 62
   151
 10
0.0
 20
0.0
 30
0.0
 70
   128
 71
    55
 72
    66
 73
    65
  0
VERTEX
  5
51C
  8
0
 62
   151
 10
0.0
 20
0.0
 30
0.0
 70
   128
 71
    51
 72
    55
 73
    65
  0
VERTEX
  5
51D
  8
0
 62
   151
 10
0.0
 20
0.0
 30
0.0
 70
   128
 71
    67
 72
     5
 73
    66
  0
VERTEX
  5
51E
  8
0
 62
   151
 10
0.0
 20
0.0
 30
0.0
 70
   128
 71
    63
 72
    68
 73
    65
  0
VERTEX
  5
51F
  8
0
 62
   151
 10
0.0
 20
0.0
 30
0.0
 70
   128
 71
    61
 72
    14
 73
    40
  0
VERTEX
  5
520
  8
0
 62
   151
 10
0.0
 20
0.0
 30
0.0
 70
   128
 71
    67
 72
     8
 73
     5
  0
VERTEX
  5
521
  8
0
 62
   151
 10
0.0
 20
0.0
 30
0.0
 70
   128
 71
    62
 72
    69
 73
    64
  0
VERTEX
  5
522
  8
0
 62
   151
 10
0.0
 20
0.0
 30
0.0
 70
   128
 71
    14
 72
    66
 73
     5
  0
VERTEX
  5
523
  8
0
 62
   151
 10
0.0
 20
0.0
 30
0.0
 70
   128
 71
    63
 72
    65
 73
    64
  0
VERTEX
  5
524
  8
0
 62
   151
 10
0.0
 20
0.0
 30
0.0
 70
   128
 71
    64
 72
    65
 73
    62
  0
VERTEX
  5
525
  8
0
 62
   151
 10
0.0
 20
0.0
 30
0.0
 70
   128
 71
    62
 72
    65
 73
    66
  0
VERTEX
  5
526
  8
0
 62
   151
 10
0.0
 20
0.0
 30
0.0
 70
   128
 71
    66
 72
    61
 73
    62
  0
VERTEX
  5
527
  8
0
 62
   151
 10
0.0
 20
0.0
 30
0.0
 70
   128
 71
    70
 72
    61
 73
    40
  0
VERTEX
  5
528
  8
0
 62
   151
 10
0.0
 20
0.0
 30
0.0
 70
   128
 71
    14
 72
    61
 73
    66
  0
VERTEX
  5
529
  8
0
 62
   151
 10
0.0
 20
0.0
 30
0.0
 70
   128
 71
    40
 72
    41
 73
    70
  0
VERTEX
  5
52A
  8
0
 62
   151
 10
0.0
 20
0.0
 30
0.0
 70
   128
 71
    59
 72
    64
 73
    69
  0
VERTEX
  5
52B
  8
0
 62
   151
 10
0.0
 20
0.0
 30
0.0
 70
   128
 71
    59
 72
    60
 73
    64
  0
VERTEX
  5
52C
  8
0
 62
   151
 10
0.0
 20
0.0
 30
0.0
 70
   128
 71
    59
 72
    69
 73
    54
  0
VERTEX
  5
52D
  8
0
 62
   151
 10
0.0
 20
0.0
 30
0.0
 70
   128
 71
    62
 72
    54
 73
    69
  0
VERTEX
  5
52E
  8
0
 62
   151
 10
0.0
 20
0.0
 30
0.0
 70
   128
 71
    53
 72
    65
 73
    68
  0
VERTEX
  5
52F
  8
0
 62
   151
 10
0.0
 20
0.0
 30
0.0
 70
   128
 71
    53
 72
    51
 73
    65
  0
VERTEX
  5
530
  8
0
 62
   151
 10
0.0
 20
0.0
 30
0.0
 70
   128
 71
    53
 72
    68
 73
    52
  0
VERTEX
  5
531
  8
0
 62
   151
 10
0.0
 20
0.0
 30
0.0
 70
   128
 71
    63
 72
    52
 73
    68
  0
VERTEX
  5
532
  8
0
 62
   151
 10
0.0
 20
0.0
 30
0.0
 70
   128
 71
    56
 72
    61
 73
    70
  0
VERTEX
  5
533
  8
0
 62
   151
 10
0.0
 20
0.0
 30
0.0
 70
   128
 71
    58
 72
    56
 73
    70
  0
VERTEX
  5
534
  8
0
 62
   151
 10
0.0
 20
0.0
 30
0.0
 70
   128
 71
    41
 72
    58
 73
    70
  0
VERTEX
  5
535
  8
0
 62
   151
 10
0.0
 20
0.0
 30
0.0
 70
   128
 71
    42
 72
    58
 73
    41
  0
VERTEX
  5
536
  8
0
 62
   151
 10
0.0
 20
0.0
 30
0.0
 70
   128
 71
    26
 72
     8
 73
    67
  0
VERTEX
  5
537
  8
0
 62
   151
 10
0.0
 20
0.0
 30
0.0
 70
   128
 71
    57
 72
    26
 73
    67
  0
VERTEX
  5
538
  8
0
 62
   151
 10
0.0
 20
0.0
 30
0.0
 70
   128
 71
    66
 72
    57
 73
    67
  0
VERTEX
  5
539
  8
0
 62
   151
 10
0.0
 20
0.0
 30
0.0
 70
   128
 71
    55
 72
    57
 73
    66
  0
SEQEND
  5
53A
  8
0
 62
   151
  0
ENDBLK
  5
53D
  8
0
  0
ENDSEC
  0
SECTION
  2
ENTITIES
  0
INSERT
  5
27E
  8
LAYER_1
  2
A4281011_M2_BASIN_MIXER_2_
 10
0.0
 20
0.0
 30
0.0
  0
INSERT
  5
365
  8
LAYER_1
  2
39
 10
0.0
 20
0.0
 30
0.0
  0
INSERT
  5
3FF
  8
LAYER_1
  2
40
 10
0.0
 20
0.0
 30
0.0
  0
INSERT
  5
467
  8
LAYER_1
  2
41
 10
0.0
 20
0.0
 30
0.0
  0
INSERT
  5
53B
  8
LAYER_1
  2
42
 10
0.0
 20
0.0
 30
0.0
  0
ENDSEC
  0
EOF
