  0
SECTION
  2
HEADER
  9
$ACADVER
  1
AC1009
  9
$DWGCODEPAGE
  3
ansi_1252
  9
$INSBASE
 10
0.0
 20
0.0
 30
0.0
  9
$EXTMIN
 10
1.000000000000000E+20
 20
1.000000000000000E+20
 30
1.000000000000000E+20
  9
$EXTMAX
 10
-1.000000000000000E+20
 20
-1.000000000000000E+20
 30
-1.000000000000000E+20
  9
$LIMMIN
 10
0.0
 20
0.0
  9
$LIMMAX
 10
12.0
 20
9.0
  9
$ORTHOMODE
 70
     0
  9
$REGENMODE
 70
     1
  9
$FILLMODE
 70
     1
  9
$QTEXTMODE
 70
     0
  9
$MIRRTEXT
 70
     1
  9
$DRAGMODE
 70
     2
  9
$LTSCALE
 40
1.0
  9
$OSMODE
 70
    37
  9
$ATTMODE
 70
     1
  9
$TEXTSIZE
 40
0.2
  9
$TRACEWID
 40
0.05
  9
$TEXTSTYLE
  7
STANDARD
  9
$CLAYER
  8
0
  9
$CELTYPE
  6
BYLAYER
  9
$CECOLOR
 62
   256
  9
$DIMSCALE
 40
1.0
  9
$DIMASZ
 40
0.18
  9
$DIMEXO
 40
0.0625
  9
$DIMDLI
 40
0.38
  9
$DIMRND
 40
0.0
  9
$DIMDLE
 40
0.0
  9
$DIMEXE
 40
0.18
  9
$DIMTP
 40
0.0
  9
$DIMTM
 40
0.0
  9
$DIMTXT
 40
0.18
  9
$DIMCEN
 40
0.09
  9
$DIMTSZ
 40
0.0
  9
$DIMTOL
 70
     0
  9
$DIMLIM
 70
     0
  9
$DIMTIH
 70
     1
  9
$DIMTOH
 70
     1
  9
$DIMSE1
 70
     0
  9
$DIMSE2
 70
     0
  9
$DIMTAD
 70
     0
  9
$DIMZIN
 70
     0
  9
$DIMBLK
  1

  9
$DIMASO
 70
     1
  9
$DIMSHO
 70
     1
  9
$DIMPOST
  1

  9
$DIMAPOST
  1

  9
$DIMALT
 70
     0
  9
$DIMALTD
 70
     2
  9
$DIMALTF
 40
25.4
  9
$DIMLFAC
 40
1.0
  9
$DIMTOFL
 70
     0
  9
$DIMTVP
 40
0.0
  9
$DIMTIX
 70
     0
  9
$DIMSOXD
 70
     0
  9
$DIMSAH
 70
     0
  9
$DIMBLK1
  1

  9
$DIMBLK2
  1

  9
$DIMSTYLE
  2
STANDARD
  9
$DIMCLRD
 70
     0
  9
$DIMCLRE
 70
     0
  9
$DIMCLRT
 70
     0
  9
$DIMTFAC
 40
1.0
  9
$DIMGAP
 40
0.09
  9
$LUNITS
 70
     2
  9
$LUPREC
 70
     4
  9
$SKETCHINC
 40
0.1
  9
$FILLETRAD
 40
0.5
  9
$AUNITS
 70
     0
  9
$AUPREC
 70
     0
  9
$MENU
  1
.
  9
$ELEVATION
 40
0.0
  9
$PELEVATION
 40
0.0
  9
$THICKNESS
 40
0.0
  9
$LIMCHECK
 70
     0
  9
$CHAMFERA
 40
0.5
  9
$CHAMFERB
 40
0.5
  9
$SKPOLY
 70
     0
  9
$TDCREATE
 40
2455446.725920313
  9
$TDUPDATE
 40
2455446.725920313
  9
$TDINDWG
 40
0.0000000116
  9
$TDUSRTIMER
 40
0.0000000116
  9
$USRTIMER
 70
     1
  9
$ANGBASE
 50
0.0
  9
$ANGDIR
 70
     0
  9
$PDMODE
 70
     0
  9
$PDSIZE
 40
0.0
  9
$PLINEWID
 40
0.0
  9
$COORDS
 70
     1
  9
$SPLFRAME
 70
     0
  9
$SPLINETYPE
 70
     6
  9
$SPLINESEGS
 70
     8
  9
$ATTDIA
 70
     0
  9
$ATTREQ
 70
     1
  9
$HANDLING
 70
     1
  9
$HANDSEED
  5
C00
  9
$SURFTAB1
 70
     6
  9
$SURFTAB2
 70
     6
  9
$SURFTYPE
 70
     6
  9
$SURFU
 70
     6
  9
$SURFV
 70
     6
  9
$UCSNAME
  2

  9
$UCSORG
 10
0.0
 20
0.0
 30
0.0
  9
$UCSXDIR
 10
1.0
 20
0.0
 30
0.0
  9
$UCSYDIR
 10
0.0
 20
1.0
 30
0.0
  9
$PUCSNAME
  2

  9
$PUCSORG
 10
0.0
 20
0.0
 30
0.0
  9
$PUCSXDIR
 10
1.0
 20
0.0
 30
0.0
  9
$PUCSYDIR
 10
0.0
 20
1.0
 30
0.0
  9
$USERI1
 70
     0
  9
$USERI2
 70
     0
  9
$USERI3
 70
     0
  9
$USERI4
 70
     0
  9
$USERI5
 70
     0
  9
$USERR1
 40
0.0
  9
$USERR2
 40
0.0
  9
$USERR3
 40
0.0
  9
$USERR4
 40
0.0
  9
$USERR5
 40
0.0
  9
$WORLDVIEW
 70
     1
  9
$SHADEDGE
 70
     3
  9
$SHADEDIF
 70
    70
  9
$TILEMODE
 70
     1
  9
$MAXACTVP
 70
    64
  9
$PLIMCHECK
 70
     0
  9
$PEXTMIN
 10
1.000000000000000E+20
 20
1.000000000000000E+20
 30
1.000000000000000E+20
  9
$PEXTMAX
 10
-1.000000000000000E+20
 20
-1.000000000000000E+20
 30
-1.000000000000000E+20
  9
$PLIMMIN
 10
0.0
 20
0.0
  9
$PLIMMAX
 10
12.0
 20
9.0
  9
$UNITMODE
 70
     0
  9
$VISRETAIN
 70
     1
  9
$PLINEGEN
 70
     0
  9
$PSLTSCALE
 70
     1
  0
ENDSEC
  0
SECTION
  2
TABLES
  0
TABLE
  2
VPORT
 70
     1
  0
VPORT
  2
*ACTIVE
 70
     0
 10
0.0
 20
0.0
 11
1.0
 21
1.0
 12
0.0
 22
0.0
 13
0.0
 23
0.0
 14
0.5
 24
0.5
 15
0.5
 25
0.5
 16
254.8660125732422
 26
145.6251831054688
 36
254.8659973144531
 17
40.84550476074219
 27
-0.009002685546875
 37
67.47149658203125
 40
139.4716972542285
 41
1.972972972850329
 42
50.0
 43
0.0
 44
0.0
 50
0.0
 51
0.0
 71
     0
 72
   100
 73
     1
 74
     3
 75
     0
 76
     0
 77
     0
 78
     0
  0
ENDTAB
  0
TABLE
  2
LTYPE
 70
     1
  0
LTYPE
  2
CONTINUOUS
 70
     0
  3
Solid line
 72
    65
 73
     0
 40
0.0
  0
ENDTAB
  0
TABLE
  2
LAYER
 70
     2
  0
LAYER
  2
0
 70
     0
 62
     7
  6
CONTINUOUS
  0
LAYER
  2
LAYER_1
 70
     0
 62
     7
  6
CONTINUOUS
  0
ENDTAB
  0
TABLE
  2
STYLE
 70
     1
  0
STYLE
  2
STANDARD
 70
     0
 40
0.0
 41
1.0
 50
0.0
 71
     0
 42
0.2
  3
txt
  4

  0
ENDTAB
  0
TABLE
  2
VIEW
 70
     0
  0
ENDTAB
  0
TABLE
  2
UCS
 70
     0
  0
ENDTAB
  0
TABLE
  2
APPID
 70
     1
  0
APPID
  2
ACAD
 70
     0
  0
ENDTAB
  0
TABLE
  2
DIMSTYLE
 70
     1
  0
DIMSTYLE
  2
STANDARD
 70
     0
  3

  4

  5

  6

  7

 40
1.0
 41
0.18
 42
0.0625
 43
0.38
 44
0.18
 45
0.0
 46
0.0
 47
0.0
 48
0.0
140
0.18
141
0.09
142
0.0
143
25.4
144
1.0
145
0.0
146
1.0
147
0.09
 71
     0
 72
     0
 73
     1
 74
     1
 75
     0
 76
     0
 77
     0
 78
     0
170
     0
171
     2
172
     0
173
     0
174
     0
175
     0
176
     0
177
     0
178
     0
  0
ENDTAB
  0
ENDSEC
  0
SECTION
  2
BLOCKS
  0
BLOCK
  8
0
  2
$MODEL_SPACE
 70
     0
 10
0.0
 20
0.0
 30
0.0
  3
$MODEL_SPACE
  1

  0
ENDBLK
  5
21
  8
0
  0
BLOCK
 67
     1
  8
0
  2
$PAPER_SPACE
 70
     0
 10
0.0
 20
0.0
 30
0.0
  3
$PAPER_SPACE
  1

  0
ENDBLK
  5
1D
 67
     1
  8
0
  0
BLOCK
  8
0
  2
E3_NODE
 70
     0
 10
0.0
 20
0.0
 30
0.0
  3
E3_NODE
  1

  0
POLYLINE
  5
3C
  8
0
 62
     9
 66
     1
 10
0.0
 20
0.0
 30
0.0
 70
    64
 71
     7
 72
     5
  0
VERTEX
  5
3D
  8
0
 10
113.5650024414062
 20
-9.984000205993652
 30
72.13600158691406
 70
   192
  0
VERTEX
  5
3E
  8
0
 10
113.5650024414062
 20
8.664999961853027
 30
66.44400024414062
 70
   192
  0
VERTEX
  5
3F
  8
0
 10
113.5650024414062
 20
9.288000106811523
 30
75.0999984741211
 70
   192
  0
VERTEX
  5
40
  8
0
 10
113.5650024414062
 20
-6.789999961853027
 30
64.06800079345703
 70
   192
  0
VERTEX
  5
41
  8
0
 10
113.5650024414062
 20
1.509999990463257
 30
61.53499984741211
 70
   192
  0
VERTEX
  5
42
  8
0
 10
113.5650024414062
 20
2.908999919891357
 30
80.98300170898438
 70
   192
  0
VERTEX
  5
43
  8
0
 10
113.5650024414062
 20
-5.668000221252441
 30
79.66400146484375
 70
   192
  0
VERTEX
  5
44
  8
0
 62
     9
 10
0.0
 20
0.0
 30
0.0
 70
   128
 71
     3
 72
     2
 73
     1
  0
VERTEX
  5
45
  8
0
 62
     9
 10
0.0
 20
0.0
 30
0.0
 70
   128
 71
     5
 72
     4
 73
     1
  0
VERTEX
  5
46
  8
0
 62
     9
 10
0.0
 20
0.0
 30
0.0
 70
   128
 71
     1
 72
     6
 73
     3
  0
VERTEX
  5
47
  8
0
 62
     9
 10
0.0
 20
0.0
 30
0.0
 70
   128
 71
     1
 72
     7
 73
     6
  0
VERTEX
  5
48
  8
0
 62
     9
 10
0.0
 20
0.0
 30
0.0
 70
   128
 71
     1
 72
     2
 73
     5
  0
SEQEND
  5
49
  8
0
 62
     9
  0
ENDBLK
  5
4D
  8
0
  0
BLOCK
  8
0
  2
E3_NODE_1_
 70
     0
 10
0.0
 20
0.0
 30
0.0
  3
E3_NODE_1_
  1

  0
POLYLINE
  5
4F
  8
0
 62
     9
 66
     1
 10
0.0
 20
0.0
 30
0.0
 70
    64
 71
    15
 72
    15
  0
VERTEX
  5
50
  8
0
 10
113.5650024414062
 20
8.664999961853027
 30
66.44400024414062
 70
   192
  0
VERTEX
  5
51
  8
0
 10
113.5650024414062
 20
1.509999990463257
 30
61.53499984741211
 70
   192
  0
VERTEX
  5
52
  8
0
 10
89.56500244140625
 20
1.509999990463257
 30
61.53499984741211
 70
   192
  0
VERTEX
  5
53
  8
0
 10
89.56500244140625
 20
9.288000106811523
 30
75.0999984741211
 70
   192
  0
VERTEX
  5
54
  8
0
 10
113.5650024414062
 20
9.288000106811523
 30
75.0999984741211
 70
   192
  0
VERTEX
  5
55
  8
0
 10
89.56500244140625
 20
2.908999919891357
 30
80.98300170898438
 70
   192
  0
VERTEX
  5
56
  8
0
 10
113.5650024414062
 20
2.908999919891357
 30
80.98300170898438
 70
   192
  0
VERTEX
  5
57
  8
0
 10
113.5650024414062
 20
-5.668000221252441
 30
79.66400146484375
 70
   192
  0
VERTEX
  5
58
  8
0
 10
89.56500244140625
 20
-0.0099999997764826
 30
81.41899871826172
 70
   192
  0
VERTEX
  5
59
  8
0
 10
89.56500244140625
 20
-9.984000205993652
 30
72.13600158691406
 70
   192
  0
VERTEX
  5
5A
  8
0
 10
113.5650024414062
 20
-9.984000205993652
 30
72.13600158691406
 70
   192
  0
VERTEX
  5
5B
  8
0
 10
89.56500244140625
 20
-6.789999961853027
 30
64.06800079345703
 70
   192
  0
VERTEX
  5
5C
  8
0
 10
113.5650024414062
 20
-6.789999961853027
 30
64.06800079345703
 70
   192
  0
VERTEX
  5
5D
  8
0
 10
89.56500244140625
 20
-5.668000221252441
 30
79.66400146484375
 70
   192
  0
VERTEX
  5
5E
  8
0
 10
89.56500244140625
 20
8.664999961853027
 30
66.44400024414062
 70
   192
  0
VERTEX
  5
5F
  8
0
 62
     9
 10
0.0
 20
0.0
 30
0.0
 70
   128
 71
     3
 72
     2
 73
     1
  0
VERTEX
  5
60
  8
0
 62
     9
 10
0.0
 20
0.0
 30
0.0
 70
   128
 71
     1
 72
     5
 73
     4
  0
VERTEX
  5
61
  8
0
 62
     9
 10
0.0
 20
0.0
 30
0.0
 70
   128
 71
     5
 72
     7
 73
     6
  0
VERTEX
  5
62
  8
0
 62
     9
 10
0.0
 20
0.0
 30
0.0
 70
   128
 71
     9
 72
     7
 73
     8
  0
VERTEX
  5
63
  8
0
 62
     9
 10
0.0
 20
0.0
 30
0.0
 70
   128
 71
     9
 72
     6
 73
     7
  0
VERTEX
  5
64
  8
0
 62
     9
 10
0.0
 20
0.0
 30
0.0
 70
   128
 71
     8
 72
    11
 73
    10
  0
VERTEX
  5
65
  8
0
 62
     9
 10
0.0
 20
0.0
 30
0.0
 70
   128
 71
    11
 72
    13
 73
    12
  0
VERTEX
  5
66
  8
0
 62
     9
 10
0.0
 20
0.0
 30
0.0
 70
   128
 71
    12
 72
    13
 73
     2
  0
VERTEX
  5
67
  8
0
 62
     9
 10
0.0
 20
0.0
 30
0.0
 70
   128
 71
     2
 72
     3
 73
    12
  0
VERTEX
  5
68
  8
0
 62
     9
 10
0.0
 20
0.0
 30
0.0
 70
   128
 71
    12
 72
    10
 73
    11
  0
VERTEX
  5
69
  8
0
 62
     9
 10
0.0
 20
0.0
 30
0.0
 70
   128
 71
    10
 72
    14
 73
     8
  0
VERTEX
  5
6A
  8
0
 62
     9
 10
0.0
 20
0.0
 30
0.0
 70
   128
 71
     8
 72
    14
 73
     9
  0
VERTEX
  5
6B
  8
0
 62
     9
 10
0.0
 20
0.0
 30
0.0
 70
   128
 71
     6
 72
     4
 73
     5
  0
VERTEX
  5
6C
  8
0
 62
     9
 10
0.0
 20
0.0
 30
0.0
 70
   128
 71
     4
 72
    15
 73
     1
  0
VERTEX
  5
6D
  8
0
 62
     9
 10
0.0
 20
0.0
 30
0.0
 70
   128
 71
     1
 72
    15
 73
     3
  0
SEQEND
  5
6E
  8
0
 62
     9
  0
ENDBLK
  5
71
  8
0
  0
BLOCK
  8
0
  2
E3_NODE_2_
 70
     0
 10
0.0
 20
0.0
 30
0.0
  3
E3_NODE_2_
  1

  0
POLYLINE
  5
73
  8
0
 62
     9
 66
     1
 10
0.0
 20
0.0
 30
0.0
 70
    64
 71
    14
 72
    14
  0
VERTEX
  5
74
  8
0
 10
89.56500244140625
 20
9.288000106811523
 30
75.0999984741211
 70
   192
  0
VERTEX
  5
75
  8
0
 10
89.56500244140625
 20
4.677999973297119
 30
70.65399932861328
 70
   192
  0
VERTEX
  5
76
  8
0
 10
89.56500244140625
 20
2.164999961853027
 30
75.64099884033203
 70
   192
  0
VERTEX
  5
77
  8
0
 10
89.56500244140625
 20
2.908999919891357
 30
80.98300170898438
 70
   192
  0
VERTEX
  5
78
  8
0
 10
89.56500244140625
 20
-0.0099999997764826
 30
76.16899871826172
 70
   192
  0
VERTEX
  5
79
  8
0
 10
89.56500244140625
 20
8.664999961853027
 30
66.44400024414062
 70
   192
  0
VERTEX
  5
7A
  8
0
 10
89.56500244140625
 20
1.509999990463257
 30
61.53499984741211
 70
   192
  0
VERTEX
  5
7B
  8
0
 10
89.56500244140625
 20
0.7120000123977661
 30
66.7239990234375
 70
   192
  0
VERTEX
  5
7C
  8
0
 10
89.56500244140625
 20
-6.789999961853027
 30
64.06800079345703
 70
   192
  0
VERTEX
  5
7D
  8
0
 10
89.56500244140625
 20
-4.251999855041504
 30
69.28099822998047
 70
   192
  0
VERTEX
  5
7E
  8
0
 10
89.56500244140625
 20
-9.984000205993652
 30
72.13600158691406
 70
   192
  0
VERTEX
  5
7F
  8
0
 10
89.56500244140625
 20
-5.668000221252441
 30
79.66400146484375
 70
   192
  0
VERTEX
  5
80
  8
0
 10
89.56500244140625
 20
-3.354000091552734
 30
74.79199981689453
 70
   192
  0
VERTEX
  5
81
  8
0
 10
89.56500244140625
 20
-0.0099999997764826
 30
81.41899871826172
 70
   192
  0
VERTEX
  5
82
  8
0
 62
     9
 10
0.0
 20
0.0
 30
0.0
 70
   128
 71
     3
 72
     2
 73
     1
  0
VERTEX
  5
83
  8
0
 62
     9
 10
0.0
 20
0.0
 30
0.0
 70
   128
 71
     5
 72
     3
 73
     4
  0
VERTEX
  5
84
  8
0
 62
     9
 10
0.0
 20
0.0
 30
0.0
 70
   128
 71
     2
 72
     6
 73
     1
  0
VERTEX
  5
85
  8
0
 62
     9
 10
0.0
 20
0.0
 30
0.0
 70
   128
 71
     8
 72
     7
 73
     6
  0
VERTEX
  5
86
  8
0
 62
     9
 10
0.0
 20
0.0
 30
0.0
 70
   128
 71
     8
 72
    10
 73
     9
  0
VERTEX
  5
87
  8
0
 62
     9
 10
0.0
 20
0.0
 30
0.0
 70
   128
 71
    13
 72
    12
 73
    11
  0
VERTEX
  5
88
  8
0
 62
     9
 10
0.0
 20
0.0
 30
0.0
 70
   128
 71
     1
 72
     4
 73
     3
  0
VERTEX
  5
89
  8
0
 62
     9
 10
0.0
 20
0.0
 30
0.0
 70
   128
 71
     9
 72
     7
 73
     8
  0
VERTEX
  5
8A
  8
0
 62
     9
 10
0.0
 20
0.0
 30
0.0
 70
   128
 71
    11
 72
    10
 73
    13
  0
VERTEX
  5
8B
  8
0
 62
     9
 10
0.0
 20
0.0
 30
0.0
 70
   128
 71
     5
 72
    14
 73
    12
  0
VERTEX
  5
8C
  8
0
 62
     9
 10
0.0
 20
0.0
 30
0.0
 70
   128
 71
     6
 72
     2
 73
     8
  0
VERTEX
  5
8D
  8
0
 62
     9
 10
0.0
 20
0.0
 30
0.0
 70
   128
 71
    12
 72
    13
 73
     5
  0
VERTEX
  5
8E
  8
0
 62
     9
 10
0.0
 20
0.0
 30
0.0
 70
   128
 71
    11
 72
     9
 73
    10
  0
VERTEX
  5
8F
  8
0
 62
     9
 10
0.0
 20
0.0
 30
0.0
 70
   128
 71
     4
 72
    14
 73
     5
  0
SEQEND
  5
90
  8
0
 62
     9
  0
ENDBLK
  5
93
  8
0
  0
BLOCK
  8
0
  2
E3_NODE_3_
 70
     0
 10
0.0
 20
0.0
 30
0.0
  3
E3_NODE_3_
  1

  0
POLYLINE
  5
95
  8
0
 62
     9
 66
     1
 10
0.0
 20
0.0
 30
0.0
 70
    64
 71
    12
 72
    12
  0
VERTEX
  5
96
  8
0
 10
85.06199645996094
 20
4.677999973297119
 30
70.65399932861328
 70
   192
  0
VERTEX
  5
97
  8
0
 10
89.56500244140625
 20
4.677999973297119
 30
70.65399932861328
 70
   192
  0
VERTEX
  5
98
  8
0
 10
89.56500244140625
 20
0.7120000123977661
 30
66.7239990234375
 70
   192
  0
VERTEX
  5
99
  8
0
 10
85.06199645996094
 20
2.164999961853027
 30
75.64099884033203
 70
   192
  0
VERTEX
  5
9A
  8
0
 10
89.56500244140625
 20
2.164999961853027
 30
75.64099884033203
 70
   192
  0
VERTEX
  5
9B
  8
0
 10
85.06199645996094
 20
-3.354000091552734
 30
74.79199981689453
 70
   192
  0
VERTEX
  5
9C
  8
0
 10
89.56500244140625
 20
-3.354000091552734
 30
74.79199981689453
 70
   192
  0
VERTEX
  5
9D
  8
0
 10
89.56500244140625
 20
-0.0099999997764826
 30
76.16899871826172
 70
   192
  0
VERTEX
  5
9E
  8
0
 10
85.06199645996094
 20
-4.760000228881836
 30
71.41899871826172
 70
   192
  0
VERTEX
  5
9F
  8
0
 10
89.56500244140625
 20
-4.251999855041504
 30
69.28099822998047
 70
   192
  0
VERTEX
  5
A0
  8
0
 10
85.06199645996094
 20
0.7120000123977661
 30
66.7239990234375
 70
   192
  0
VERTEX
  5
A1
  8
0
 10
85.06199645996094
 20
-4.251999855041504
 30
69.28099822998047
 70
   192
  0
VERTEX
  5
A2
  8
0
 62
     9
 10
0.0
 20
0.0
 30
0.0
 70
   128
 71
     3
 72
     2
 73
     1
  0
VERTEX
  5
A3
  8
0
 62
     9
 10
0.0
 20
0.0
 30
0.0
 70
   128
 71
     2
 72
     5
 73
     4
  0
VERTEX
  5
A4
  8
0
 62
     9
 10
0.0
 20
0.0
 30
0.0
 70
   128
 71
     8
 72
     7
 73
     6
  0
VERTEX
  5
A5
  8
0
 62
     9
 10
0.0
 20
0.0
 30
0.0
 70
   128
 71
     6
 72
     4
 73
     8
  0
VERTEX
  5
A6
  8
0
 62
     9
 10
0.0
 20
0.0
 30
0.0
 70
   128
 71
     9
 72
     6
 73
     7
  0
VERTEX
  5
A7
  8
0
 62
     9
 10
0.0
 20
0.0
 30
0.0
 70
   128
 71
     7
 72
    10
 73
     9
  0
VERTEX
  5
A8
  8
0
 62
     9
 10
0.0
 20
0.0
 30
0.0
 70
   128
 71
    10
 72
     3
 73
    11
  0
VERTEX
  5
A9
  8
0
 62
     9
 10
0.0
 20
0.0
 30
0.0
 70
   128
 71
    11
 72
    12
 73
    10
  0
VERTEX
  5
AA
  8
0
 62
     9
 10
0.0
 20
0.0
 30
0.0
 70
   128
 71
    10
 72
    12
 73
     9
  0
VERTEX
  5
AB
  8
0
 62
     9
 10
0.0
 20
0.0
 30
0.0
 70
   128
 71
     4
 72
     5
 73
     8
  0
VERTEX
  5
AC
  8
0
 62
     9
 10
0.0
 20
0.0
 30
0.0
 70
   128
 71
     4
 72
     1
 73
     2
  0
VERTEX
  5
AD
  8
0
 62
     9
 10
0.0
 20
0.0
 30
0.0
 70
   128
 71
     1
 72
    11
 73
     3
  0
SEQEND
  5
AE
  8
0
 62
     9
  0
ENDBLK
  5
B1
  8
0
  0
BLOCK
  8
0
  2
E3_NODE_4_
 70
     0
 10
0.0
 20
0.0
 30
0.0
  3
E3_NODE_4_
  1

  0
POLYLINE
  5
B3
  8
0
 62
     9
 66
     1
 10
0.0
 20
0.0
 30
0.0
 70
    64
 71
    23
 72
    21
  0
VERTEX
  5
B4
  8
0
 10
69.21900177001953
 20
-1.02400004863739
 30
132.7879943847656
 70
   192
  0
VERTEX
  5
B5
  8
0
 10
85.92500305175781
 20
-6.485000133514404
 30
134.7980041503906
 70
   192
  0
VERTEX
  5
B6
  8
0
 10
86.96199798583984
 20
-2.357000112533569
 30
134.9429931640625
 70
   192
  0
VERTEX
  5
B7
  8
0
 10
81.99099731445312
 20
-12.50300025939941
 30
134.2319946289062
 70
   192
  0
VERTEX
  5
B8
  8
0
 10
84.16799926757812
 20
-9.942000389099121
 30
134.5480041503906
 70
   192
  0
VERTEX
  5
B9
  8
0
 10
77.5719985961914
 20
-16.0
 30
133.5740051269531
 70
   192
  0
VERTEX
  5
BA
  8
0
 10
81.19400024414062
 20
-13.44099998474121
 30
134.1159973144531
 70
   192
  0
VERTEX
  5
BB
  8
0
 10
76.2760009765625
 20
-16.50699996948242
 30
133.3739929199219
 70
   192
  0
VERTEX
  5
BC
  8
0
 10
69.22000122070312
 20
-18.09900093078613
 30
132.2899932861328
 70
   192
  0
VERTEX
  5
BD
  8
0
 10
73.65899658203125
 20
-17.5310001373291
 30
132.9709930419922
 70
   192
  0
VERTEX
  5
BE
  8
0
 10
86.96199798583984
 20
-0.0089999996125698
 30
134.9429931640625
 70
   192
  0
VERTEX
  5
BF
  8
0
 10
69.21900177001953
 20
-0.0089999996125698
 30
132.7619934082031
 70
   192
  0
VERTEX
  5
C0
  8
0
 10
76.26599884033203
 20
16.47599983215332
 30
133.3719940185547
 70
   192
  0
VERTEX
  5
C1
  8
0
 10
74.20099639892578
 20
17.36400032043457
 30
133.0549926757812
 70
   192
  0
VERTEX
  5
C2
  8
0
 10
70.03299713134766
 20
18.0629997253418
 30
132.4120025634766
 70
   192
  0
VERTEX
  5
C3
  8
0
 10
81.74400329589844
 20
12.90100002288818
 30
134.1970062255859
 70
   192
  0
VERTEX
  5
C4
  8
0
 10
78.10800170898438
 20
15.68400001525879
 30
133.6549987792969
 70
   192
  0
VERTEX
  5
C5
  8
0
 10
82.04299926757812
 20
12.53299999237061
 30
134.2400054931641
 70
   192
  0
VERTEX
  5
C6
  8
0
 10
85.77899932861328
 20
6.71999979019165
 30
134.7769927978516
 70
   192
  0
VERTEX
  5
C7
  8
0
 10
84.18599700927734
 20
9.897000312805176
 30
134.5509948730469
 70
   192
  0
VERTEX
  5
C8
  8
0
 10
86.96199798583984
 20
2.33899998664856
 30
134.9429931640625
 70
   192
  0
VERTEX
  5
C9
  8
0
 10
85.98200225830078
 20
6.315000057220459
 30
134.8059997558594
 70
   192
  0
VERTEX
  5
CA
  8
0
 10
69.22000122070312
 20
18.08200073242188
 30
132.2899932861328
 70
   192
  0
VERTEX
  5
CB
  8
0
 62
     9
 10
0.0
 20
0.0
 30
0.0
 70
   128
 71
     3
 72
     2
 73
     1
  0
VERTEX
  5
CC
  8
0
 62
     9
 10
0.0
 20
0.0
 30
0.0
 70
   128
 71
     5
 72
     4
 73
     1
  0
VERTEX
  5
CD
  8
0
 62
     9
 10
0.0
 20
0.0
 30
0.0
 70
   128
 71
     1
 72
     2
 73
     5
  0
VERTEX
  5
CE
  8
0
 62
     9
 10
0.0
 20
0.0
 30
0.0
 70
   128
 71
     7
 72
     6
 73
     1
  0
VERTEX
  5
CF
  8
0
 62
     9
 10
0.0
 20
0.0
 30
0.0
 70
   128
 71
     6
 72
     8
 73
     1
  0
VERTEX
  5
D0
  8
0
 62
     9
 10
0.0
 20
0.0
 30
0.0
 70
   128
 71
     1
 72
     4
 73
     7
  0
VERTEX
  5
D1
  8
0
 62
     9
 10
0.0
 20
0.0
 30
0.0
 70
   128
 71
    10
 72
     9
 73
     1
  0
VERTEX
  5
D2
  8
0
 62
     9
 10
0.0
 20
0.0
 30
0.0
 70
   128
 71
     1
 72
     8
 73
    10
  0
VERTEX
  5
D3
  8
0
 62
     9
 10
0.0
 20
0.0
 30
0.0
 70
   128
 71
     1
 72
    12
 73
    11
  0
VERTEX
  5
D4
  8
0
 62
     9
 10
0.0
 20
0.0
 30
0.0
 70
   128
 71
    14
 72
    13
 73
    12
  0
VERTEX
  5
D5
  8
0
 62
     9
 10
0.0
 20
0.0
 30
0.0
 70
   128
 71
    12
 72
    15
 73
    14
  0
VERTEX
  5
D6
  8
0
 62
     9
 10
0.0
 20
0.0
 30
0.0
 70
   128
 71
    17
 72
    16
 73
    12
  0
VERTEX
  5
D7
  8
0
 62
     9
 10
0.0
 20
0.0
 30
0.0
 70
   128
 71
    16
 72
    18
 73
    12
  0
VERTEX
  5
D8
  8
0
 62
     9
 10
0.0
 20
0.0
 30
0.0
 70
   128
 71
    12
 72
    13
 73
    17
  0
VERTEX
  5
D9
  8
0
 62
     9
 10
0.0
 20
0.0
 30
0.0
 70
   128
 71
    20
 72
    19
 73
    12
  0
VERTEX
  5
DA
  8
0
 62
     9
 10
0.0
 20
0.0
 30
0.0
 70
   128
 71
    21
 72
    11
 73
    12
  0
VERTEX
  5
DB
  8
0
 62
     9
 10
0.0
 20
0.0
 30
0.0
 70
   128
 71
    12
 72
    22
 73
    21
  0
VERTEX
  5
DC
  8
0
 62
     9
 10
0.0
 20
0.0
 30
0.0
 70
   128
 71
    12
 72
    19
 73
    22
  0
VERTEX
  5
DD
  8
0
 62
     9
 10
0.0
 20
0.0
 30
0.0
 70
   128
 71
    12
 72
    18
 73
    20
  0
VERTEX
  5
DE
  8
0
 62
     9
 10
0.0
 20
0.0
 30
0.0
 70
   128
 71
    12
 72
    23
 73
    15
  0
VERTEX
  5
DF
  8
0
 62
     9
 10
0.0
 20
0.0
 30
0.0
 70
   128
 71
     1
 72
    11
 73
     3
  0
SEQEND
  5
E0
  8
0
 62
     9
  0
ENDBLK
  5
E3
  8
0
  0
BLOCK
  8
0
  2
E3_NODE_5_
 70
     0
 10
0.0
 20
0.0
 30
0.0
  3
E3_NODE_5_
  1

  0
POLYLINE
  5
E5
  8
0
 62
     9
 66
     1
 10
0.0
 20
0.0
 30
0.0
 70
    64
 71
    52
 72
    57
  0
VERTEX
  5
E6
  8
0
 10
69.2229995727539
 20
-18.37700080871582
 30
130.5480041503906
 70
   192
  0
VERTEX
  5
E7
  8
0
 10
70.45099639892578
 20
-18.61899948120117
 30
128.9459991455078
 70
   192
  0
VERTEX
  5
E8
  8
0
 10
74.66100311279297
 20
-17.83200073242188
 30
129.5370025634766
 70
   192
  0
VERTEX
  5
E9
  8
0
 10
76.43399810791016
 20
-16.8700008392334
 30
131.5789947509766
 70
   192
  0
VERTEX
  5
EA
  8
0
 10
69.22599792480469
 20
-18.6609992980957
 30
128.7680053710938
 70
   192
  0
VERTEX
  5
EB
  8
0
 10
82.29000091552734
 20
-12.77600002288818
 30
132.4160003662109
 70
   192
  0
VERTEX
  5
EC
  8
0
 10
78.60600280761719
 20
-16.0629997253418
 30
130.1260070800781
 70
   192
  0
VERTEX
  5
ED
  8
0
 10
76.4990005493164
 20
-17.00799942016602
 30
129.8110046386719
 70
   192
  0
VERTEX
  5
EE
  8
0
 10
82.2229995727539
 20
-13.22799968719482
 30
130.6909942626953
 70
   192
  0
VERTEX
  5
EF
  8
0
 10
86.08699798583984
 20
-6.861999988555908
 30
132.9589996337891
 70
   192
  0
VERTEX
  5
F0
  8
0
 10
84.6709976196289
 20
-10.17899990081787
 30
131.0709991455078
 70
   192
  0
VERTEX
  5
F1
  8
0
 10
82.45800018310547
 20
-12.9350004196167
 30
130.7270050048828
 70
   192
  0
VERTEX
  5
F2
  8
0
 10
86.59600067138672
 20
-6.24399995803833
 30
131.3650054931641
 70
   192
  0
VERTEX
  5
F3
  8
0
 10
87.55999755859375
 20
-1.932000041007996
 30
131.5090026855469
 70
   192
  0
VERTEX
  5
F4
  8
0
 10
87.4000015258789
 20
-0.0089999996125698
 30
133.14599609375
 70
   192
  0
VERTEX
  5
F5
  8
0
 10
86.26399993896484
 20
-6.922999858856201
 30
131.3139953613281
 70
   192
  0
VERTEX
  5
F6
  8
0
 10
86.08699798583984
 20
6.843999862670898
 30
132.9589996337891
 70
   192
  0
VERTEX
  5
F7
  8
0
 10
87.53399658203125
 20
-0.0089999996125698
 30
131.5050048828125
 70
   192
  0
VERTEX
  5
F8
  8
0
 10
87.50199890136719
 20
2.417999982833862
 30
131.5
 70
   192
  0
VERTEX
  5
F9
  8
0
 10
87.53399658203125
 20
-0.0099999997764826
 30
131.5050048828125
 70
   192
  0
VERTEX
  5
FA
  8
0
 10
86.43199920654297
 20
6.672999858856201
 30
131.3399963378906
 70
   192
  0
VERTEX
  5
FB
  8
0
 10
84.51499938964844
 20
10.39900016784668
 30
131.0469970703125
 70
   192
  0
VERTEX
  5
FC
  8
0
 10
82.29000091552734
 20
12.75899982452393
 30
132.4160003662109
 70
   192
  0
VERTEX
  5
FD
  8
0
 10
81.76699829101562
 20
13.6540002822876
 30
130.6199951171875
 70
   192
  0
VERTEX
  5
FE
  8
0
 10
78.12999725341797
 20
16.32099914550781
 30
130.0529937744141
 70
   192
  0
VERTEX
  5
FF
  8
0
 10
76.43399810791016
 20
16.85300064086914
 30
131.5789947509766
 70
   192
  0
VERTEX
  5
100
  8
0
 10
82.41799926757812
 20
12.88300037384033
 30
130.7209930419922
 70
   192
  0
VERTEX
  5
101
  8
0
 10
69.2229995727539
 20
18.36000061035156
 30
130.5480041503906
 70
   192
  0
VERTEX
  5
102
  8
0
 10
73.73699951171875
 20
18.07699966430664
 30
129.4049987792969
 70
   192
  0
VERTEX
  5
103
  8
0
 10
76.49800109863281
 20
16.97400093078613
 30
129.8119964599609
 70
   192
  0
VERTEX
  5
104
  8
0
 10
70.03299713134766
 20
18.0629997253418
 30
132.4120025634766
 70
   192
  0
VERTEX
  5
105
  8
0
 10
74.20099639892578
 20
17.36400032043457
 30
133.0549926757812
 70
   192
  0
VERTEX
  5
106
  8
0
 10
69.22000122070312
 20
18.08200073242188
 30
132.2899932861328
 70
   192
  0
VERTEX
  5
107
  8
0
 10
78.10800170898438
 20
15.68400001525879
 30
133.6549987792969
 70
   192
  0
VERTEX
  5
108
  8
0
 10
76.26599884033203
 20
16.47599983215332
 30
133.3719940185547
 70
   192
  0
VERTEX
  5
109
  8
0
 10
81.74400329589844
 20
12.90100002288818
 30
134.1970062255859
 70
   192
  0
VERTEX
  5
10A
  8
0
 10
82.04299926757812
 20
12.53299999237061
 30
134.2400054931641
 70
   192
  0
VERTEX
  5
10B
  8
0
 10
84.18599700927734
 20
9.897000312805176
 30
134.5509948730469
 70
   192
  0
VERTEX
  5
10C
  8
0
 10
85.98200225830078
 20
6.315000057220459
 30
134.8059997558594
 70
   192
  0
VERTEX
  5
10D
  8
0
 10
86.96199798583984
 20
2.33899998664856
 30
134.9429931640625
 70
   192
  0
VERTEX
  5
10E
  8
0
 10
85.77899932861328
 20
6.71999979019165
 30
134.7769927978516
 70
   192
  0
VERTEX
  5
10F
  8
0
 10
86.96199798583984
 20
-2.357000112533569
 30
134.9429931640625
 70
   192
  0
VERTEX
  5
110
  8
0
 10
86.96199798583984
 20
-0.0089999996125698
 30
134.9429931640625
 70
   192
  0
VERTEX
  5
111
  8
0
 10
84.16799926757812
 20
-9.942000389099121
 30
134.5480041503906
 70
   192
  0
VERTEX
  5
112
  8
0
 10
85.92500305175781
 20
-6.485000133514404
 30
134.7980041503906
 70
   192
  0
VERTEX
  5
113
  8
0
 10
81.19400024414062
 20
-13.44099998474121
 30
134.1159973144531
 70
   192
  0
VERTEX
  5
114
  8
0
 10
77.5719985961914
 20
-16.0
 30
133.5740051269531
 70
   192
  0
VERTEX
  5
115
  8
0
 10
81.99099731445312
 20
-12.50300025939941
 30
134.2319946289062
 70
   192
  0
VERTEX
  5
116
  8
0
 10
73.65899658203125
 20
-17.5310001373291
 30
132.9709930419922
 70
   192
  0
VERTEX
  5
117
  8
0
 10
76.2760009765625
 20
-16.50699996948242
 30
133.3739929199219
 70
   192
  0
VERTEX
  5
118
  8
0
 10
69.22000122070312
 20
-18.09900093078613
 30
132.2899932861328
 70
   192
  0
VERTEX
  5
119
  8
0
 10
69.22599792480469
 20
18.64299964904785
 30
128.7680053710938
 70
   192
  0
VERTEX
  5
11A
  8
0
 62
     9
 10
0.0
 20
0.0
 30
0.0
 70
   128
 71
     3
 72
     2
 73
     1
  0
VERTEX
  5
11B
  8
0
 62
     9
 10
0.0
 20
0.0
 30
0.0
 70
   128
 71
     1
 72
     4
 73
     3
  0
VERTEX
  5
11C
  8
0
 62
     9
 10
0.0
 20
0.0
 30
0.0
 70
   128
 71
     2
 72
     5
 73
     1
  0
VERTEX
  5
11D
  8
0
 62
     9
 10
0.0
 20
0.0
 30
0.0
 70
   128
 71
     7
 72
     4
 73
     6
  0
VERTEX
  5
11E
  8
0
 62
     9
 10
0.0
 20
0.0
 30
0.0
 70
   128
 71
     7
 72
     8
 73
     4
  0
VERTEX
  5
11F
  8
0
 62
     9
 10
0.0
 20
0.0
 30
0.0
 70
   128
 71
     6
 72
     9
 73
     7
  0
VERTEX
  5
120
  8
0
 62
     9
 10
0.0
 20
0.0
 30
0.0
 70
   128
 71
    11
 72
     6
 73
    10
  0
VERTEX
  5
121
  8
0
 62
     9
 10
0.0
 20
0.0
 30
0.0
 70
   128
 71
    11
 72
    12
 73
     6
  0
VERTEX
  5
122
  8
0
 62
     9
 10
0.0
 20
0.0
 30
0.0
 70
   128
 71
    14
 72
    13
 73
    10
  0
VERTEX
  5
123
  8
0
 62
     9
 10
0.0
 20
0.0
 30
0.0
 70
   128
 71
    10
 72
    15
 73
    14
  0
VERTEX
  5
124
  8
0
 62
     9
 10
0.0
 20
0.0
 30
0.0
 70
   128
 71
    13
 72
    16
 73
    10
  0
VERTEX
  5
125
  8
0
 62
     9
 10
0.0
 20
0.0
 30
0.0
 70
   128
 71
    19
 72
    18
 73
    17
  0
VERTEX
  5
126
  8
0
 62
     9
 10
0.0
 20
0.0
 30
0.0
 70
   128
 71
    18
 72
    20
 73
    15
  0
VERTEX
  5
127
  8
0
 62
     9
 10
0.0
 20
0.0
 30
0.0
 70
   128
 71
    15
 72
    17
 73
    18
  0
VERTEX
  5
128
  8
0
 62
     9
 10
0.0
 20
0.0
 30
0.0
 70
   128
 71
    17
 72
    21
 73
    19
  0
VERTEX
  5
129
  8
0
 62
     9
 10
0.0
 20
0.0
 30
0.0
 70
   128
 71
    22
 72
    21
 73
    17
  0
VERTEX
  5
12A
  8
0
 62
     9
 10
0.0
 20
0.0
 30
0.0
 70
   128
 71
    17
 72
    23
 73
    22
  0
VERTEX
  5
12B
  8
0
 62
     9
 10
0.0
 20
0.0
 30
0.0
 70
   128
 71
    25
 72
    24
 73
    23
  0
VERTEX
  5
12C
  8
0
 62
     9
 10
0.0
 20
0.0
 30
0.0
 70
   128
 71
    23
 72
    26
 73
    25
  0
VERTEX
  5
12D
  8
0
 62
     9
 10
0.0
 20
0.0
 30
0.0
 70
   128
 71
    24
 72
    27
 73
    23
  0
VERTEX
  5
12E
  8
0
 62
     9
 10
0.0
 20
0.0
 30
0.0
 70
   128
 71
    29
 72
    26
 73
    28
  0
VERTEX
  5
12F
  8
0
 62
     9
 10
0.0
 20
0.0
 30
0.0
 70
   128
 71
    29
 72
    30
 73
    26
  0
VERTEX
  5
130
  8
0
 62
     9
 10
0.0
 20
0.0
 30
0.0
 70
   128
 71
    32
 72
    31
 73
    28
  0
VERTEX
  5
131
  8
0
 62
     9
 10
0.0
 20
0.0
 30
0.0
 70
   128
 71
    31
 72
    33
 73
    28
  0
VERTEX
  5
132
  8
0
 62
     9
 10
0.0
 20
0.0
 30
0.0
 70
   128
 71
    28
 72
    26
 73
    32
  0
VERTEX
  5
133
  8
0
 62
     9
 10
0.0
 20
0.0
 30
0.0
 70
   128
 71
    34
 72
    26
 73
    23
  0
VERTEX
  5
134
  8
0
 62
     9
 10
0.0
 20
0.0
 30
0.0
 70
   128
 71
    34
 72
    35
 73
    26
  0
VERTEX
  5
135
  8
0
 62
     9
 10
0.0
 20
0.0
 30
0.0
 70
   128
 71
    23
 72
    36
 73
    34
  0
VERTEX
  5
136
  8
0
 62
     9
 10
0.0
 20
0.0
 30
0.0
 70
   128
 71
    38
 72
    37
 73
    23
  0
VERTEX
  5
137
  8
0
 62
     9
 10
0.0
 20
0.0
 30
0.0
 70
   128
 71
    23
 72
    17
 73
    38
  0
VERTEX
  5
138
  8
0
 62
     9
 10
0.0
 20
0.0
 30
0.0
 70
   128
 71
    40
 72
    39
 73
    17
  0
VERTEX
  5
139
  8
0
 62
     9
 10
0.0
 20
0.0
 30
0.0
 70
   128
 71
    39
 72
    41
 73
    17
  0
VERTEX
  5
13A
  8
0
 62
     9
 10
0.0
 20
0.0
 30
0.0
 70
   128
 71
    17
 72
    15
 73
    40
  0
VERTEX
  5
13B
  8
0
 62
     9
 10
0.0
 20
0.0
 30
0.0
 70
   128
 71
    42
 72
    15
 73
    10
  0
VERTEX
  5
13C
  8
0
 62
     9
 10
0.0
 20
0.0
 30
0.0
 70
   128
 71
    42
 72
    43
 73
    15
  0
VERTEX
  5
13D
  8
0
 62
     9
 10
0.0
 20
0.0
 30
0.0
 70
   128
 71
    44
 72
    10
 73
     6
  0
VERTEX
  5
13E
  8
0
 62
     9
 10
0.0
 20
0.0
 30
0.0
 70
   128
 71
    44
 72
    45
 73
    10
  0
VERTEX
  5
13F
  8
0
 62
     9
 10
0.0
 20
0.0
 30
0.0
 70
   128
 71
    47
 72
    46
 73
     6
  0
VERTEX
  5
140
  8
0
 62
     9
 10
0.0
 20
0.0
 30
0.0
 70
   128
 71
     6
 72
     4
 73
    47
  0
VERTEX
  5
141
  8
0
 62
     9
 10
0.0
 20
0.0
 30
0.0
 70
   128
 71
    46
 72
    48
 73
     6
  0
VERTEX
  5
142
  8
0
 62
     9
 10
0.0
 20
0.0
 30
0.0
 70
   128
 71
    49
 72
     4
 73
     1
  0
VERTEX
  5
143
  8
0
 62
     9
 10
0.0
 20
0.0
 30
0.0
 70
   128
 71
    49
 72
    50
 73
     4
  0
VERTEX
  5
144
  8
0
 62
     9
 10
0.0
 20
0.0
 30
0.0
 70
   128
 71
     1
 72
    51
 73
    49
  0
VERTEX
  5
145
  8
0
 62
     9
 10
0.0
 20
0.0
 30
0.0
 70
   128
 71
     4
 72
    50
 73
    47
  0
VERTEX
  5
146
  8
0
 62
     9
 10
0.0
 20
0.0
 30
0.0
 70
   128
 71
     6
 72
    48
 73
    44
  0
VERTEX
  5
147
  8
0
 62
     9
 10
0.0
 20
0.0
 30
0.0
 70
   128
 71
    10
 72
    45
 73
    42
  0
VERTEX
  5
148
  8
0
 62
     9
 10
0.0
 20
0.0
 30
0.0
 70
   128
 71
    15
 72
    43
 73
    40
  0
VERTEX
  5
149
  8
0
 62
     9
 10
0.0
 20
0.0
 30
0.0
 70
   128
 71
    17
 72
    41
 73
    38
  0
VERTEX
  5
14A
  8
0
 62
     9
 10
0.0
 20
0.0
 30
0.0
 70
   128
 71
    23
 72
    37
 73
    36
  0
VERTEX
  5
14B
  8
0
 62
     9
 10
0.0
 20
0.0
 30
0.0
 70
   128
 71
    26
 72
    35
 73
    32
  0
VERTEX
  5
14C
  8
0
 62
     9
 10
0.0
 20
0.0
 30
0.0
 70
   128
 71
    28
 72
    52
 73
    29
  0
VERTEX
  5
14D
  8
0
 62
     9
 10
0.0
 20
0.0
 30
0.0
 70
   128
 71
    26
 72
    30
 73
    25
  0
VERTEX
  5
14E
  8
0
 62
     9
 10
0.0
 20
0.0
 30
0.0
 70
   128
 71
    23
 72
    27
 73
    22
  0
VERTEX
  5
14F
  8
0
 62
     9
 10
0.0
 20
0.0
 30
0.0
 70
   128
 71
    15
 72
    20
 73
    14
  0
VERTEX
  5
150
  8
0
 62
     9
 10
0.0
 20
0.0
 30
0.0
 70
   128
 71
    10
 72
    16
 73
    11
  0
VERTEX
  5
151
  8
0
 62
     9
 10
0.0
 20
0.0
 30
0.0
 70
   128
 71
     6
 72
    12
 73
     9
  0
VERTEX
  5
152
  8
0
 62
     9
 10
0.0
 20
0.0
 30
0.0
 70
   128
 71
     4
 72
     8
 73
     3
  0
SEQEND
  5
153
  8
0
 62
     9
  0
ENDBLK
  5
156
  8
0
  0
BLOCK
  8
0
  2
E3_NODE_6_
 70
     0
 10
0.0
 20
0.0
 30
0.0
  3
E3_NODE_6_
  1

  0
POLYLINE
  5
158
  8
0
 62
     9
 66
     1
 10
0.0
 20
0.0
 30
0.0
 70
    64
 71
     8
 72
     6
  0
VERTEX
  5
159
  8
0
 10
-0.6259999871253967
 20
-0.0109999999403954
 30
122.3249969482422
 70
   192
  0
VERTEX
  5
15A
  8
0
 10
69.21900177001953
 20
-0.0089999996125698
 30
132.7619934082031
 70
   192
  0
VERTEX
  5
15B
  8
0
 10
69.22000122070312
 20
18.08200073242188
 30
132.2899932861328
 70
   192
  0
VERTEX
  5
15C
  8
0
 10
-0.6269999742507935
 20
-1.023000001907349
 30
122.3509979248047
 70
   192
  0
VERTEX
  5
15D
  8
0
 10
-0.6119999885559082
 20
-18.10099983215332
 30
121.8529968261719
 70
   192
  0
VERTEX
  5
15E
  8
0
 10
69.22000122070312
 20
-18.09900093078613
 30
132.2899932861328
 70
   192
  0
VERTEX
  5
15F
  8
0
 10
69.21900177001953
 20
-1.02400004863739
 30
132.7879943847656
 70
   192
  0
VERTEX
  5
160
  8
0
 10
-0.6119999885559082
 20
18.08099937438965
 30
121.8529968261719
 70
   192
  0
VERTEX
  5
161
  8
0
 62
     9
 10
0.0
 20
0.0
 30
0.0
 70
   128
 71
     3
 72
     2
 73
     1
  0
VERTEX
  5
162
  8
0
 62
     9
 10
0.0
 20
0.0
 30
0.0
 70
   128
 71
     6
 72
     5
 73
     4
  0
VERTEX
  5
163
  8
0
 62
     9
 10
0.0
 20
0.0
 30
0.0
 70
   128
 71
     2
 72
     7
 73
     4
  0
VERTEX
  5
164
  8
0
 62
     9
 10
0.0
 20
0.0
 30
0.0
 70
   128
 71
     4
 72
     1
 73
     2
  0
VERTEX
  5
165
  8
0
 62
     9
 10
0.0
 20
0.0
 30
0.0
 70
   128
 71
     4
 72
     7
 73
     6
  0
VERTEX
  5
166
  8
0
 62
     9
 10
0.0
 20
0.0
 30
0.0
 70
   128
 71
     1
 72
     8
 73
     3
  0
SEQEND
  5
167
  8
0
 62
     9
  0
ENDBLK
  5
16A
  8
0
  0
BLOCK
  8
0
  2
E3_NODE_7_
 70
     0
 10
0.0
 20
0.0
 30
0.0
  3
E3_NODE_7_
  1

  0
POLYLINE
  5
16C
  8
0
 62
     9
 66
     1
 10
0.0
 20
0.0
 30
0.0
 70
    64
 71
    27
 72
    26
  0
VERTEX
  5
16D
  8
0
 10
69.22799682617188
 20
-0.0109999999403954
 30
127.3960037231445
 70
   192
  0
VERTEX
  5
16E
  8
0
 10
86.43199920654297
 20
6.672999858856201
 30
131.3399963378906
 70
   192
  0
VERTEX
  5
16F
  8
0
 10
87.50199890136719
 20
2.417999982833862
 30
131.5
 70
   192
  0
VERTEX
  5
170
  8
0
 10
84.51499938964844
 20
10.39900016784668
 30
131.0469970703125
 70
   192
  0
VERTEX
  5
171
  8
0
 10
82.41799926757812
 20
12.88300037384033
 30
130.7209930419922
 70
   192
  0
VERTEX
  5
172
  8
0
 10
76.49800109863281
 20
16.97400093078613
 30
129.8119964599609
 70
   192
  0
VERTEX
  5
173
  8
0
 10
78.12999725341797
 20
16.32099914550781
 30
130.0529937744141
 70
   192
  0
VERTEX
  5
174
  8
0
 10
81.76699829101562
 20
13.6540002822876
 30
130.6199951171875
 70
   192
  0
VERTEX
  5
175
  8
0
 10
69.22799682617188
 20
7.310999870300293
 30
127.4980010986328
 70
   192
  0
VERTEX
  5
176
  8
0
 10
69.22599792480469
 20
18.64299964904785
 30
128.7680053710938
 70
   192
  0
VERTEX
  5
177
  8
0
 10
73.73699951171875
 20
18.07699966430664
 30
129.4049987792969
 70
   192
  0
VERTEX
  5
178
  8
0
 10
87.55999755859375
 20
-1.932000041007996
 30
131.5090026855469
 70
   192
  0
VERTEX
  5
179
  8
0
 10
86.59600067138672
 20
-6.24399995803833
 30
131.3650054931641
 70
   192
  0
VERTEX
  5
17A
  8
0
 10
87.0739974975586
 20
-3.128999948501587
 30
131.3829956054688
 70
   192
  0
VERTEX
  5
17B
  8
0
 10
76.4990005493164
 20
-17.00799942016602
 30
129.8110046386719
 70
   192
  0
VERTEX
  5
17C
  8
0
 10
69.22699737548828
 20
-15.4680004119873
 30
128.2960052490234
 70
   192
  0
VERTEX
  5
17D
  8
0
 10
69.22799682617188
 20
-4.096000194549561
 30
127.3399963378906
 70
   192
  0
VERTEX
  5
17E
  8
0
 10
74.66100311279297
 20
-17.83200073242188
 30
129.5370025634766
 70
   192
  0
VERTEX
  5
17F
  8
0
 10
70.45099639892578
 20
-18.61899948120117
 30
128.9459991455078
 70
   192
  0
VERTEX
  5
180
  8
0
 10
69.22599792480469
 20
-18.6609992980957
 30
128.7680053710938
 70
   192
  0
VERTEX
  5
181
  8
0
 10
82.2229995727539
 20
-13.22799968719482
 30
130.6909942626953
 70
   192
  0
VERTEX
  5
182
  8
0
 10
78.60600280761719
 20
-16.0629997253418
 30
130.1260070800781
 70
   192
  0
VERTEX
  5
183
  8
0
 10
82.45800018310547
 20
-12.9350004196167
 30
130.7270050048828
 70
   192
  0
VERTEX
  5
184
  8
0
 10
86.26399993896484
 20
-6.922999858856201
 30
131.3139953613281
 70
   192
  0
VERTEX
  5
185
  8
0
 10
84.6709976196289
 20
-10.17899990081787
 30
131.0709991455078
 70
   192
  0
VERTEX
  5
186
  8
0
 10
87.53399658203125
 20
-0.0089999996125698
 30
131.5050048828125
 70
   192
  0
VERTEX
  5
187
  8
0
 10
87.53399658203125
 20
-0.0099999997764826
 30
131.5050048828125
 70
   192
  0
VERTEX
  5
188
  8
0
 62
     9
 10
0.0
 20
0.0
 30
0.0
 70
   128
 71
     3
 72
     2
 73
     1
  0
VERTEX
  5
189
  8
0
 62
     9
 10
0.0
 20
0.0
 30
0.0
 70
   128
 71
     2
 72
     4
 73
     1
  0
VERTEX
  5
18A
  8
0
 62
     9
 10
0.0
 20
0.0
 30
0.0
 70
   128
 71
     4
 72
     5
 73
     1
  0
VERTEX
  5
18B
  8
0
 62
     9
 10
0.0
 20
0.0
 30
0.0
 70
   128
 71
     7
 72
     6
 73
     1
  0
VERTEX
  5
18C
  8
0
 62
     9
 10
0.0
 20
0.0
 30
0.0
 70
   128
 71
     1
 72
     8
 73
     7
  0
VERTEX
  5
18D
  8
0
 62
     9
 10
0.0
 20
0.0
 30
0.0
 70
   128
 71
     1
 72
     5
 73
     8
  0
VERTEX
  5
18E
  8
0
 62
     9
 10
0.0
 20
0.0
 30
0.0
 70
   128
 71
    11
 72
    10
 73
     9
  0
VERTEX
  5
18F
  8
0
 62
     9
 10
0.0
 20
0.0
 30
0.0
 70
   128
 71
     9
 72
     1
 73
     6
  0
VERTEX
  5
190
  8
0
 62
     9
 10
0.0
 20
0.0
 30
0.0
 70
   128
 71
     9
 72
     6
 73
    11
  0
VERTEX
  5
191
  8
0
 62
     9
 10
0.0
 20
0.0
 30
0.0
 70
   128
 71
    14
 72
    13
 73
    12
  0
VERTEX
  5
192
  8
0
 62
     9
 10
0.0
 20
0.0
 30
0.0
 70
   128
 71
    17
 72
    16
 73
    15
  0
VERTEX
  5
193
  8
0
 62
     9
 10
0.0
 20
0.0
 30
0.0
 70
   128
 71
    18
 72
    15
 73
    16
  0
VERTEX
  5
194
  8
0
 62
     9
 10
0.0
 20
0.0
 30
0.0
 70
   128
 71
    16
 72
    19
 73
    18
  0
VERTEX
  5
195
  8
0
 62
     9
 10
0.0
 20
0.0
 30
0.0
 70
   128
 71
    16
 72
    20
 73
    19
  0
VERTEX
  5
196
  8
0
 62
     9
 10
0.0
 20
0.0
 30
0.0
 70
   128
 71
    22
 72
    21
 73
     1
  0
VERTEX
  5
197
  8
0
 62
     9
 10
0.0
 20
0.0
 30
0.0
 70
   128
 71
    21
 72
    23
 73
     1
  0
VERTEX
  5
198
  8
0
 62
     9
 10
0.0
 20
0.0
 30
0.0
 70
   128
 71
     1
 72
    15
 73
    22
  0
VERTEX
  5
199
  8
0
 62
     9
 10
0.0
 20
0.0
 30
0.0
 70
   128
 71
    25
 72
    24
 73
     1
  0
VERTEX
  5
19A
  8
0
 62
     9
 10
0.0
 20
0.0
 30
0.0
 70
   128
 71
    13
 72
    14
 73
     1
  0
VERTEX
  5
19B
  8
0
 62
     9
 10
0.0
 20
0.0
 30
0.0
 70
   128
 71
     1
 72
    24
 73
    13
  0
VERTEX
  5
19C
  8
0
 62
     9
 10
0.0
 20
0.0
 30
0.0
 70
   128
 71
     1
 72
    23
 73
    25
  0
VERTEX
  5
19D
  8
0
 62
     9
 10
0.0
 20
0.0
 30
0.0
 70
   128
 71
    27
 72
    26
 73
     1
  0
VERTEX
  5
19E
  8
0
 62
     9
 10
0.0
 20
0.0
 30
0.0
 70
   128
 71
     1
 72
    14
 73
    27
  0
VERTEX
  5
19F
  8
0
 62
     9
 10
0.0
 20
0.0
 30
0.0
 70
   128
 71
    15
 72
     1
 73
    17
  0
VERTEX
  5
1A0
  8
0
 62
     9
 10
0.0
 20
0.0
 30
0.0
 70
   128
 71
    12
 72
    27
 73
    14
  0
VERTEX
  5
1A1
  8
0
 62
     9
 10
0.0
 20
0.0
 30
0.0
 70
   128
 71
     1
 72
    26
 73
     3
  0
SEQEND
  5
1A2
  8
0
 62
     9
  0
ENDBLK
  5
1A5
  8
0
  0
BLOCK
  8
0
  2
E3_NODE_8_
 70
     0
 10
0.0
 20
0.0
 30
0.0
  3
E3_NODE_8_
  1

  0
POLYLINE
  5
1A7
  8
0
 62
     9
 66
     1
 10
0.0
 20
0.0
 30
0.0
 70
    64
 71
    25
 72
    24
  0
VERTEX
  5
1A8
  8
0
 10
-0.6259999871253967
 20
-0.0109999999403954
 30
122.3249969482422
 70
   192
  0
VERTEX
  5
1A9
  8
0
 10
-17.19000053405762
 20
6.73199987411499
 30
119.3880004882812
 70
   192
  0
VERTEX
  5
1AA
  8
0
 10
-18.28000068664551
 20
2.842000007629395
 30
119.2149963378906
 70
   192
  0
VERTEX
  5
1AB
  8
0
 10
-13.36999988555908
 20
12.46100044250488
 30
119.9789962768555
 70
   192
  0
VERTEX
  5
1AC
  8
0
 10
-14.94699954986572
 20
10.80399990081787
 30
119.7379989624023
 70
   192
  0
VERTEX
  5
1AD
  8
0
 10
-17.13899993896484
 20
6.910999774932861
 30
119.3960037231445
 70
   192
  0
VERTEX
  5
1AE
  8
0
 10
-8.079000473022461
 20
16.42200088500977
 30
120.7699966430664
 70
   192
  0
VERTEX
  5
1AF
  8
0
 10
-11.86600017547607
 20
14.04300022125244
 30
120.2089996337891
 70
   192
  0
VERTEX
  5
1B0
  8
0
 10
-7.695000171661377
 20
16.54800033569336
 30
120.8249969482422
 70
   192
  0
VERTEX
  5
1B1
  8
0
 10
-0.6119999885559082
 20
18.08099937438965
 30
121.8529968261719
 70
   192
  0
VERTEX
  5
1B2
  8
0
 10
-4.105000019073486
 20
17.72999954223633
 30
121.3440017700195
 70
   192
  0
VERTEX
  5
1B3
  8
0
 10
-0.6269999742507935
 20
-1.023000001907349
 30
122.3509979248047
 70
   192
  0
VERTEX
  5
1B4
  8
0
 10
-7.663000106811523
 20
-16.49200057983398
 30
120.8290023803711
 70
   192
  0
VERTEX
  5
1B5
  8
0
 10
-4.998000144958496
 20
-17.54500007629395
 30
121.2160034179688
 70
   192
  0
VERTEX
  5
1B6
  8
0
 10
-0.6119999885559082
 20
-18.10099983215332
 30
121.8529968261719
 70
   192
  0
VERTEX
  5
1B7
  8
0
 10
-12.73499965667725
 20
-13.30399990081787
 30
120.0780029296875
 70
   192
  0
VERTEX
  5
1B8
  8
0
 10
-9.111000061035156
 20
-15.92000007629395
 30
120.6190032958984
 70
   192
  0
VERTEX
  5
1B9
  8
0
 10
-13.39999961853027
 20
-12.51799964904785
 30
119.9749984741211
 70
   192
  0
VERTEX
  5
1BA
  8
0
 10
-17.13800048828125
 20
-6.722000122070312
 30
119.3960037231445
 70
   192
  0
VERTEX
  5
1BB
  8
0
 10
-15.48900032043457
 20
-10.05000019073486
 30
119.6539993286133
 70
   192
  0
VERTEX
  5
1BC
  8
0
 10
-18.43099975585938
 20
-1.639999985694885
 30
119.1910018920898
 70
   192
  0
VERTEX
  5
1BD
  8
0
 10
-17.48299980163574
 20
-6.026999950408936
 30
119.3420028686523
 70
   192
  0
VERTEX
  5
1BE
  8
0
 10
-17.93099975585938
 20
-3.020999908447266
 30
119.2880020141602
 70
   192
  0
VERTEX
  5
1BF
  8
0
 10
-18.37599945068359
 20
-0.0099999997764826
 30
119.1999969482422
 70
   192
  0
VERTEX
  5
1C0
  8
0
 10
-18.37599945068359
 20
-0.0140000004321337
 30
119.1999969482422
 70
   192
  0
VERTEX
  5
1C1
  8
0
 62
     9
 10
0.0
 20
0.0
 30
0.0
 70
   128
 71
     3
 72
     2
 73
     1
  0
VERTEX
  5
1C2
  8
0
 62
     9
 10
0.0
 20
0.0
 30
0.0
 70
   128
 71
     5
 72
     4
 73
     1
  0
VERTEX
  5
1C3
  8
0
 62
     9
 10
0.0
 20
0.0
 30
0.0
 70
   128
 71
     1
 72
     6
 73
     5
  0
VERTEX
  5
1C4
  8
0
 62
     9
 10
0.0
 20
0.0
 30
0.0
 70
   128
 71
     8
 72
     7
 73
     1
  0
VERTEX
  5
1C5
  8
0
 62
     9
 10
0.0
 20
0.0
 30
0.0
 70
   128
 71
     7
 72
     9
 73
     1
  0
VERTEX
  5
1C6
  8
0
 62
     9
 10
0.0
 20
0.0
 30
0.0
 70
   128
 71
     1
 72
     4
 73
     8
  0
VERTEX
  5
1C7
  8
0
 62
     9
 10
0.0
 20
0.0
 30
0.0
 70
   128
 71
    11
 72
    10
 73
     1
  0
VERTEX
  5
1C8
  8
0
 62
     9
 10
0.0
 20
0.0
 30
0.0
 70
   128
 71
     1
 72
     9
 73
    11
  0
VERTEX
  5
1C9
  8
0
 62
     9
 10
0.0
 20
0.0
 30
0.0
 70
   128
 71
     1
 72
     2
 73
     6
  0
VERTEX
  5
1CA
  8
0
 62
     9
 10
0.0
 20
0.0
 30
0.0
 70
   128
 71
    14
 72
    13
 73
    12
  0
VERTEX
  5
1CB
  8
0
 62
     9
 10
0.0
 20
0.0
 30
0.0
 70
   128
 71
    12
 72
    15
 73
    14
  0
VERTEX
  5
1CC
  8
0
 62
     9
 10
0.0
 20
0.0
 30
0.0
 70
   128
 71
    17
 72
    16
 73
     1
  0
VERTEX
  5
1CD
  8
0
 62
     9
 10
0.0
 20
0.0
 30
0.0
 70
   128
 71
    16
 72
    18
 73
     1
  0
VERTEX
  5
1CE
  8
0
 62
     9
 10
0.0
 20
0.0
 30
0.0
 70
   128
 71
    20
 72
    19
 73
     1
  0
VERTEX
  5
1CF
  8
0
 62
     9
 10
0.0
 20
0.0
 30
0.0
 70
   128
 71
     1
 72
    18
 73
    20
  0
VERTEX
  5
1D0
  8
0
 62
     9
 10
0.0
 20
0.0
 30
0.0
 70
   128
 71
     1
 72
    13
 73
    17
  0
VERTEX
  5
1D1
  8
0
 62
     9
 10
0.0
 20
0.0
 30
0.0
 70
   128
 71
    23
 72
    22
 73
    21
  0
VERTEX
  5
1D2
  8
0
 62
     9
 10
0.0
 20
0.0
 30
0.0
 70
   128
 71
    22
 72
    23
 73
     1
  0
VERTEX
  5
1D3
  8
0
 62
     9
 10
0.0
 20
0.0
 30
0.0
 70
   128
 71
    25
 72
    24
 73
     1
  0
VERTEX
  5
1D4
  8
0
 62
     9
 10
0.0
 20
0.0
 30
0.0
 70
   128
 71
     1
 72
    23
 73
    25
  0
VERTEX
  5
1D5
  8
0
 62
     9
 10
0.0
 20
0.0
 30
0.0
 70
   128
 71
     1
 72
    19
 73
    22
  0
VERTEX
  5
1D6
  8
0
 62
     9
 10
0.0
 20
0.0
 30
0.0
 70
   128
 71
    21
 72
    25
 73
    23
  0
VERTEX
  5
1D7
  8
0
 62
     9
 10
0.0
 20
0.0
 30
0.0
 70
   128
 71
    13
 72
     1
 73
    12
  0
VERTEX
  5
1D8
  8
0
 62
     9
 10
0.0
 20
0.0
 30
0.0
 70
   128
 71
     1
 72
    24
 73
     3
  0
SEQEND
  5
1D9
  8
0
 62
     9
  0
ENDBLK
  5
1DC
  8
0
  0
BLOCK
  8
0
  2
E3_NODE_9_
 70
     0
 10
0.0
 20
0.0
 30
0.0
  3
E3_NODE_9_
  1

  0
POLYLINE
  5
1DE
  8
0
 62
     9
 66
     1
 10
0.0
 20
0.0
 30
0.0
 70
    64
 71
     8
 72
     6
  0
VERTEX
  5
1DF
  8
0
 10
69.2229995727539
 20
-18.37700080871582
 30
130.5480041503906
 70
   192
  0
VERTEX
  5
1E0
  8
0
 10
-0.6119999885559082
 20
-18.10099983215332
 30
121.8529968261719
 70
   192
  0
VERTEX
  5
1E1
  8
0
 10
17.85000038146973
 20
-18.74200057983398
 30
121.0899963378906
 70
   192
  0
VERTEX
  5
1E2
  8
0
 10
69.22599792480469
 20
-18.6609992980957
 30
128.7680053710938
 70
   192
  0
VERTEX
  5
1E3
  8
0
 10
-0.5070000290870667
 20
-18.78700065612793
 30
118.3460006713867
 70
   192
  0
VERTEX
  5
1E4
  8
0
 10
8.67199993133545
 20
-18.76499938964844
 30
119.7180023193359
 70
   192
  0
VERTEX
  5
1E5
  8
0
 10
13.26099967956543
 20
-18.75300025939941
 30
120.4039993286133
 70
   192
  0
VERTEX
  5
1E6
  8
0
 10
69.22000122070312
 20
-18.09900093078613
 30
132.2899932861328
 70
   192
  0
VERTEX
  5
1E7
  8
0
 62
     9
 10
0.0
 20
0.0
 30
0.0
 70
   128
 71
     3
 72
     2
 73
     1
  0
VERTEX
  5
1E8
  8
0
 62
     9
 10
0.0
 20
0.0
 30
0.0
 70
   128
 71
     1
 72
     4
 73
     3
  0
VERTEX
  5
1E9
  8
0
 62
     9
 10
0.0
 20
0.0
 30
0.0
 70
   128
 71
     6
 72
     5
 73
     2
  0
VERTEX
  5
1EA
  8
0
 62
     9
 10
0.0
 20
0.0
 30
0.0
 70
   128
 71
     2
 72
     7
 73
     6
  0
VERTEX
  5
1EB
  8
0
 62
     9
 10
0.0
 20
0.0
 30
0.0
 70
   128
 71
     2
 72
     3
 73
     7
  0
VERTEX
  5
1EC
  8
0
 62
     9
 10
0.0
 20
0.0
 30
0.0
 70
   128
 71
     2
 72
     8
 73
     1
  0
SEQEND
  5
1ED
  8
0
 62
     9
  0
ENDBLK
  5
1F0
  8
0
  0
BLOCK
  8
0
  2
E3_NODE_10_
 70
     0
 10
0.0
 20
0.0
 30
0.0
  3
E3_NODE_10_
  1

  0
POLYLINE
  5
1F2
  8
0
 62
     9
 66
     1
 10
0.0
 20
0.0
 30
0.0
 70
    64
 71
    20
 72
    18
  0
VERTEX
  5
1F3
  8
0
 10
69.22799682617188
 20
-4.096000194549561
 30
127.3399963378906
 70
   192
  0
VERTEX
  5
1F4
  8
0
 10
24.53899955749512
 20
-1.930999994277954
 30
120.5999984741211
 70
   192
  0
VERTEX
  5
1F5
  8
0
 10
24.61000061035156
 20
-0.0099999997764826
 30
120.5940017700195
 70
   192
  0
VERTEX
  5
1F6
  8
0
 10
69.22799682617188
 20
-0.0109999999403954
 30
127.3960037231445
 70
   192
  0
VERTEX
  5
1F7
  8
0
 10
69.22699737548828
 20
-15.4680004119873
 30
128.2960052490234
 70
   192
  0
VERTEX
  5
1F8
  8
0
 10
23.97999954223633
 20
-4.99399995803833
 30
120.640998840332
 70
   192
  0
VERTEX
  5
1F9
  8
0
 10
23.50399971008301
 20
-7.60699987411499
 30
120.6760025024414
 70
   192
  0
VERTEX
  5
1FA
  8
0
 10
69.22599792480469
 20
-18.6609992980957
 30
128.7680053710938
 70
   192
  0
VERTEX
  5
1FB
  8
0
 10
21.4370002746582
 20
-12.86400032043457
 30
120.8270034790039
 70
   192
  0
VERTEX
  5
1FC
  8
0
 10
22.63100051879883
 20
-9.82699966430664
 30
120.7399978637695
 70
   192
  0
VERTEX
  5
1FD
  8
0
 10
17.85000038146973
 20
-18.74200057983398
 30
121.0899963378906
 70
   192
  0
VERTEX
  5
1FE
  8
0
 10
69.22599792480469
 20
18.64299964904785
 30
128.7680053710938
 70
   192
  0
VERTEX
  5
1FF
  8
0
 10
22.40099906921387
 20
10.7189998626709
 30
120.7559967041016
 70
   192
  0
VERTEX
  5
200
  8
0
 10
20.49900054931641
 20
14.39999961853027
 30
120.8960037231445
 70
   192
  0
VERTEX
  5
201
  8
0
 10
19.63100051879883
 20
16.07999992370605
 30
120.9599990844727
 70
   192
  0
VERTEX
  5
202
  8
0
 10
24.05400085449219
 20
5.377999782562256
 30
120.6350021362305
 70
   192
  0
VERTEX
  5
203
  8
0
 10
22.67600059509277
 20
9.829999923706055
 30
120.7360000610352
 70
   192
  0
VERTEX
  5
204
  8
0
 10
69.22799682617188
 20
7.310999870300293
 30
127.4980010986328
 70
   192
  0
VERTEX
  5
205
  8
0
 10
24.0930004119873
 20
4.998000144958496
 30
120.6320037841797
 70
   192
  0
VERTEX
  5
206
  8
0
 10
17.85000038146973
 20
18.72200012207031
 30
121.0899963378906
 70
   192
  0
VERTEX
  5
207
  8
0
 62
     9
 10
0.0
 20
0.0
 30
0.0
 70
   128
 71
     3
 72
     2
 73
     1
  0
VERTEX
  5
208
  8
0
 62
     9
 10
0.0
 20
0.0
 30
0.0
 70
   128
 71
     1
 72
     4
 73
     3
  0
VERTEX
  5
209
  8
0
 62
     9
 10
0.0
 20
0.0
 30
0.0
 70
   128
 71
     2
 72
     6
 73
     5
  0
VERTEX
  5
20A
  8
0
 62
     9
 10
0.0
 20
0.0
 30
0.0
 70
   128
 71
     6
 72
     7
 73
     5
  0
VERTEX
  5
20B
  8
0
 62
     9
 10
0.0
 20
0.0
 30
0.0
 70
   128
 71
     5
 72
     1
 73
     2
  0
VERTEX
  5
20C
  8
0
 62
     9
 10
0.0
 20
0.0
 30
0.0
 70
   128
 71
     7
 72
     8
 73
     5
  0
VERTEX
  5
20D
  8
0
 62
     9
 10
0.0
 20
0.0
 30
0.0
 70
   128
 71
    10
 72
     9
 73
     8
  0
VERTEX
  5
20E
  8
0
 62
     9
 10
0.0
 20
0.0
 30
0.0
 70
   128
 71
     9
 72
    11
 73
     8
  0
VERTEX
  5
20F
  8
0
 62
     9
 10
0.0
 20
0.0
 30
0.0
 70
   128
 71
     8
 72
     7
 73
    10
  0
VERTEX
  5
210
  8
0
 62
     9
 10
0.0
 20
0.0
 30
0.0
 70
   128
 71
    14
 72
    13
 73
    12
  0
VERTEX
  5
211
  8
0
 62
     9
 10
0.0
 20
0.0
 30
0.0
 70
   128
 71
    12
 72
    15
 73
    14
  0
VERTEX
  5
212
  8
0
 62
     9
 10
0.0
 20
0.0
 30
0.0
 70
   128
 71
    17
 72
    16
 73
    12
  0
VERTEX
  5
213
  8
0
 62
     9
 10
0.0
 20
0.0
 30
0.0
 70
   128
 71
    12
 72
    13
 73
    17
  0
VERTEX
  5
214
  8
0
 62
     9
 10
0.0
 20
0.0
 30
0.0
 70
   128
 71
     3
 72
     4
 73
    18
  0
VERTEX
  5
215
  8
0
 62
     9
 10
0.0
 20
0.0
 30
0.0
 70
   128
 71
    18
 72
    19
 73
     3
  0
VERTEX
  5
216
  8
0
 62
     9
 10
0.0
 20
0.0
 30
0.0
 70
   128
 71
    18
 72
    12
 73
    16
  0
VERTEX
  5
217
  8
0
 62
     9
 10
0.0
 20
0.0
 30
0.0
 70
   128
 71
    18
 72
    16
 73
    19
  0
VERTEX
  5
218
  8
0
 62
     9
 10
0.0
 20
0.0
 30
0.0
 70
   128
 71
    12
 72
    20
 73
    15
  0
SEQEND
  5
219
  8
0
 62
     9
  0
ENDBLK
  5
21C
  8
0
  0
BLOCK
  8
0
  2
E3_NODE_11_
 70
     0
 10
0.0
 20
0.0
 30
0.0
  3
E3_NODE_11_
  1

  0
POLYLINE
  5
21E
  8
0
 62
     9
 66
     1
 10
0.0
 20
0.0
 30
0.0
 70
    64
 71
     8
 72
     6
  0
VERTEX
  5
21F
  8
0
 10
-0.6119999885559082
 20
18.08099937438965
 30
121.8529968261719
 70
   192
  0
VERTEX
  5
220
  8
0
 10
8.67199993133545
 20
18.7450008392334
 30
119.7180023193359
 70
   192
  0
VERTEX
  5
221
  8
0
 10
4.081999778747559
 20
18.75600051879883
 30
119.0319976806641
 70
   192
  0
VERTEX
  5
222
  8
0
 10
17.85000038146973
 20
18.72200012207031
 30
121.0899963378906
 70
   192
  0
VERTEX
  5
223
  8
0
 10
69.2229995727539
 20
18.36000061035156
 30
130.5480041503906
 70
   192
  0
VERTEX
  5
224
  8
0
 10
69.22599792480469
 20
18.64299964904785
 30
128.7680053710938
 70
   192
  0
VERTEX
  5
225
  8
0
 10
69.22000122070312
 20
18.08200073242188
 30
132.2899932861328
 70
   192
  0
VERTEX
  5
226
  8
0
 10
-0.5070000290870667
 20
18.76700019836426
 30
118.3460006713867
 70
   192
  0
VERTEX
  5
227
  8
0
 62
     9
 10
0.0
 20
0.0
 30
0.0
 70
   128
 71
     3
 72
     2
 73
     1
  0
VERTEX
  5
228
  8
0
 62
     9
 10
0.0
 20
0.0
 30
0.0
 70
   128
 71
     2
 72
     4
 73
     1
  0
VERTEX
  5
229
  8
0
 62
     9
 10
0.0
 20
0.0
 30
0.0
 70
   128
 71
     4
 72
     6
 73
     5
  0
VERTEX
  5
22A
  8
0
 62
     9
 10
0.0
 20
0.0
 30
0.0
 70
   128
 71
     5
 72
     7
 73
     1
  0
VERTEX
  5
22B
  8
0
 62
     9
 10
0.0
 20
0.0
 30
0.0
 70
   128
 71
     5
 72
     1
 73
     4
  0
VERTEX
  5
22C
  8
0
 62
     9
 10
0.0
 20
0.0
 30
0.0
 70
   128
 71
     1
 72
     8
 73
     3
  0
SEQEND
  5
22D
  8
0
 62
     9
  0
ENDBLK
  5
230
  8
0
  0
BLOCK
  8
0
  2
E3_NODE_12_
 70
     0
 10
0.0
 20
0.0
 30
0.0
  3
E3_NODE_12_
  1

  0
POLYLINE
  5
232
  8
0
 62
     9
 66
     1
 10
0.0
 20
0.0
 30
0.0
 70
    64
 71
    39
 72
    45
  0
VERTEX
  5
233
  8
0
 10
13.27499961853027
 20
-15.32100009918213
 30
118.6800003051758
 70
   192
  0
VERTEX
  5
234
  8
0
 10
13.50300025939941
 20
-13.91800022125244
 30
114.2809982299805
 70
   192
  0
VERTEX
  5
235
  8
0
 10
13.51299953460693
 20
-13.9060001373291
 30
114.2779998779297
 70
   192
  0
VERTEX
  5
236
  8
0
 10
13.28400039672852
 20
-14.07299995422363
 30
114.3450012207031
 70
   192
  0
VERTEX
  5
237
  8
0
 10
14.77600002288818
 20
-12.34099960327148
 30
116.1279983520508
 70
   192
  0
VERTEX
  5
238
  8
0
 10
6.923999786376953
 20
-17.68499946594238
 30
116.1900024414062
 70
   192
  0
VERTEX
  5
239
  8
0
 10
9.831999778747559
 20
-16.51600074768066
 30
115.3460006713867
 70
   192
  0
VERTEX
  5
23A
  8
0
 10
19.28400039672852
 20
-0.0099999997764826
 30
115.5999984741211
 70
   192
  0
VERTEX
  5
23B
  8
0
 10
19.90800094604492
 20
-0.0099999997764826
 30
117.9410018920898
 70
   192
  0
VERTEX
  5
23C
  8
0
 10
19.10700035095215
 20
-6.066999912261963
 30
118.1740036010742
 70
   192
  0
VERTEX
  5
23D
  8
0
 10
17.97999954223633
 20
-6.926000118255615
 30
115.6549987792969
 70
   192
  0
VERTEX
  5
23E
  8
0
 10
23.63599967956543
 20
-0.0099999997764826
 30
120.4280014038086
 70
   192
  0
VERTEX
  5
23F
  8
0
 10
24.61000061035156
 20
-0.0099999997764826
 30
120.5940017700195
 70
   192
  0
VERTEX
  5
240
  8
0
 10
24.53899955749512
 20
-1.930999994277954
 30
120.5999984741211
 70
   192
  0
VERTEX
  5
241
  8
0
 10
23.97999954223633
 20
-4.99399995803833
 30
120.640998840332
 70
   192
  0
VERTEX
  5
242
  8
0
 10
21.40099906921387
 20
-5.342999935150146
 30
119.911003112793
 70
   192
  0
VERTEX
  5
243
  8
0
 10
22.19300079345703
 20
-0.0099999997764826
 30
119.8369979858398
 70
   192
  0
VERTEX
  5
244
  8
0
 10
16.67799949645996
 20
-14.69499969482422
 30
120.0090026855469
 70
   192
  0
VERTEX
  5
245
  8
0
 10
16.69899940490723
 20
-11.07600021362305
 30
118.2119979858398
 70
   192
  0
VERTEX
  5
246
  8
0
 10
23.50399971008301
 20
-7.60699987411499
 30
120.6760025024414
 70
   192
  0
VERTEX
  5
247
  8
0
 10
22.63100051879883
 20
-9.82699966430664
 30
120.7399978637695
 70
   192
  0
VERTEX
  5
248
  8
0
 10
20.15299987792969
 20
-0.0099999997764826
 30
118.2109985351562
 70
   192
  0
VERTEX
  5
249
  8
0
 10
21.30100059509277
 20
-0.0099999997764826
 30
119.4720001220703
 70
   192
  0
VERTEX
  5
24A
  8
0
 10
19.45800018310547
 20
-10.21700000762939
 30
119.8769989013672
 70
   192
  0
VERTEX
  5
24B
  8
0
 10
18.0629997253418
 20
-7.65500020980835
 30
112.9580001831055
 70
   192
  0
VERTEX
  5
24C
  8
0
 10
19.28300094604492
 20
-3.950999975204468
 30
112.6039962768555
 70
   192
  0
VERTEX
  5
24D
  8
0
 10
19.68400001525879
 20
-0.1959999948740005
 30
112.4869995117188
 70
   192
  0
VERTEX
  5
24E
  8
0
 10
17.95700073242188
 20
-7.843999862670898
 30
112.9879989624023
 70
   192
  0
VERTEX
  5
24F
  8
0
 10
18.05699920654297
 20
-7.671999931335449
 30
112.9589996337891
 70
   192
  0
VERTEX
  5
250
  8
0
 10
16.0930004119873
 20
-11.04500007629395
 30
113.5289993286133
 70
   192
  0
VERTEX
  5
251
  8
0
 10
21.4370002746582
 20
-12.86400032043457
 30
120.8270034790039
 70
   192
  0
VERTEX
  5
252
  8
0
 10
17.85000038146973
 20
-18.74200057983398
 30
121.0899963378906
 70
   192
  0
VERTEX
  5
253
  8
0
 10
13.26099967956543
 20
-18.75300025939941
 30
120.4039993286133
 70
   192
  0
VERTEX
  5
254
  8
0
 10
8.67199993133545
 20
-18.76499938964844
 30
119.7180023193359
 70
   192
  0
VERTEX
  5
255
  8
0
 10
6.580999851226807
 20
-17.82299995422363
 30
116.2900009155273
 70
   192
  0
VERTEX
  5
256
  8
0
 10
5.610000133514404
 20
-18.21299934387207
 30
116.5709991455078
 70
   192
  0
VERTEX
  5
257
  8
0
 10
-0.5070000290870667
 20
-18.78700065612793
 30
118.3460006713867
 70
   192
  0
VERTEX
  5
258
  8
0
 10
1.182999968528748
 20
-18.84900093078613
 30
117.8560028076172
 70
   192
  0
VERTEX
  5
259
  8
0
 10
19.70400047302246
 20
-0.0099999997764826
 30
112.4810028076172
 70
   192
  0
VERTEX
  5
25A
  8
0
 62
     9
 10
0.0
 20
0.0
 30
0.0
 70
   128
 71
     3
 72
     2
 73
     1
  0
VERTEX
  5
25B
  8
0
 62
     9
 10
0.0
 20
0.0
 30
0.0
 70
   128
 71
     2
 72
     4
 73
     1
  0
VERTEX
  5
25C
  8
0
 62
     9
 10
0.0
 20
0.0
 30
0.0
 70
   128
 71
     1
 72
     5
 73
     3
  0
VERTEX
  5
25D
  8
0
 62
     9
 10
0.0
 20
0.0
 30
0.0
 70
   128
 71
     7
 72
     6
 73
     1
  0
VERTEX
  5
25E
  8
0
 62
     9
 10
0.0
 20
0.0
 30
0.0
 70
   128
 71
     1
 72
     4
 73
     7
  0
VERTEX
  5
25F
  8
0
 62
     9
 10
0.0
 20
0.0
 30
0.0
 70
   128
 71
    10
 72
     9
 73
     8
  0
VERTEX
  5
260
  8
0
 62
     9
 10
0.0
 20
0.0
 30
0.0
 70
   128
 71
     8
 72
    11
 73
    10
  0
VERTEX
  5
261
  8
0
 62
     9
 10
0.0
 20
0.0
 30
0.0
 70
   128
 71
    14
 72
    13
 73
    12
  0
VERTEX
  5
262
  8
0
 62
     9
 10
0.0
 20
0.0
 30
0.0
 70
   128
 71
    17
 72
    16
 73
    15
  0
VERTEX
  5
263
  8
0
 62
     9
 10
0.0
 20
0.0
 30
0.0
 70
   128
 71
    15
 72
    12
 73
    17
  0
VERTEX
  5
264
  8
0
 62
     9
 10
0.0
 20
0.0
 30
0.0
 70
   128
 71
    19
 72
     1
 73
    18
  0
VERTEX
  5
265
  8
0
 62
     9
 10
0.0
 20
0.0
 30
0.0
 70
   128
 71
    21
 72
    20
 73
    16
  0
VERTEX
  5
266
  8
0
 62
     9
 10
0.0
 20
0.0
 30
0.0
 70
   128
 71
    20
 72
    15
 73
    16
  0
VERTEX
  5
267
  8
0
 62
     9
 10
0.0
 20
0.0
 30
0.0
 70
   128
 71
    16
 72
    23
 73
    22
  0
VERTEX
  5
268
  8
0
 62
     9
 10
0.0
 20
0.0
 30
0.0
 70
   128
 71
    22
 72
    10
 73
    16
  0
VERTEX
  5
269
  8
0
 62
     9
 10
0.0
 20
0.0
 30
0.0
 70
   128
 71
    10
 72
    19
 73
    24
  0
VERTEX
  5
26A
  8
0
 62
     9
 10
0.0
 20
0.0
 30
0.0
 70
   128
 71
    26
 72
    25
 73
    11
  0
VERTEX
  5
26B
  8
0
 62
     9
 10
0.0
 20
0.0
 30
0.0
 70
   128
 71
    11
 72
     8
 73
    26
  0
VERTEX
  5
26C
  8
0
 62
     9
 10
0.0
 20
0.0
 30
0.0
 70
   128
 71
     8
 72
    27
 73
    26
  0
VERTEX
  5
26D
  8
0
 62
     9
 10
0.0
 20
0.0
 30
0.0
 70
   128
 71
    19
 72
    10
 73
    11
  0
VERTEX
  5
26E
  8
0
 62
     9
 10
0.0
 20
0.0
 30
0.0
 70
   128
 71
    29
 72
    28
 73
    11
  0
VERTEX
  5
26F
  8
0
 62
     9
 10
0.0
 20
0.0
 30
0.0
 70
   128
 71
    30
 72
     5
 73
    11
  0
VERTEX
  5
270
  8
0
 62
     9
 10
0.0
 20
0.0
 30
0.0
 70
   128
 71
    30
 72
     3
 73
     5
  0
VERTEX
  5
271
  8
0
 62
     9
 10
0.0
 20
0.0
 30
0.0
 70
   128
 71
    11
 72
    28
 73
    30
  0
VERTEX
  5
272
  8
0
 62
     9
 10
0.0
 20
0.0
 30
0.0
 70
   128
 71
    18
 72
    32
 73
    31
  0
VERTEX
  5
273
  8
0
 62
     9
 10
0.0
 20
0.0
 30
0.0
 70
   128
 71
    31
 72
    21
 73
    24
  0
VERTEX
  5
274
  8
0
 62
     9
 10
0.0
 20
0.0
 30
0.0
 70
   128
 71
    18
 72
    33
 73
    32
  0
VERTEX
  5
275
  8
0
 62
     9
 10
0.0
 20
0.0
 30
0.0
 70
   128
 71
     1
 72
    34
 73
    33
  0
VERTEX
  5
276
  8
0
 62
     9
 10
0.0
 20
0.0
 30
0.0
 70
   128
 71
     6
 72
    35
 73
    34
  0
VERTEX
  5
277
  8
0
 62
     9
 10
0.0
 20
0.0
 30
0.0
 70
   128
 71
    35
 72
    36
 73
    34
  0
VERTEX
  5
278
  8
0
 62
     9
 10
0.0
 20
0.0
 30
0.0
 70
   128
 71
    38
 72
    37
 73
    34
  0
VERTEX
  5
279
  8
0
 62
     9
 10
0.0
 20
0.0
 30
0.0
 70
   128
 71
    34
 72
    36
 73
    38
  0
VERTEX
  5
27A
  8
0
 62
     9
 10
0.0
 20
0.0
 30
0.0
 70
   128
 71
    34
 72
     1
 73
     6
  0
VERTEX
  5
27B
  8
0
 62
     9
 10
0.0
 20
0.0
 30
0.0
 70
   128
 71
    33
 72
    18
 73
     1
  0
VERTEX
  5
27C
  8
0
 62
     9
 10
0.0
 20
0.0
 30
0.0
 70
   128
 71
    31
 72
    24
 73
    18
  0
VERTEX
  5
27D
  8
0
 62
     9
 10
0.0
 20
0.0
 30
0.0
 70
   128
 71
    11
 72
    25
 73
    29
  0
VERTEX
  5
27E
  8
0
 62
     9
 10
0.0
 20
0.0
 30
0.0
 70
   128
 71
    11
 72
     5
 73
    19
  0
VERTEX
  5
27F
  8
0
 62
     9
 10
0.0
 20
0.0
 30
0.0
 70
   128
 71
     8
 72
    39
 73
    27
  0
VERTEX
  5
280
  8
0
 62
     9
 10
0.0
 20
0.0
 30
0.0
 70
   128
 71
    24
 72
    16
 73
    10
  0
VERTEX
  5
281
  8
0
 62
     9
 10
0.0
 20
0.0
 30
0.0
 70
   128
 71
    16
 72
    17
 73
    23
  0
VERTEX
  5
282
  8
0
 62
     9
 10
0.0
 20
0.0
 30
0.0
 70
   128
 71
    16
 72
    24
 73
    21
  0
VERTEX
  5
283
  8
0
 62
     9
 10
0.0
 20
0.0
 30
0.0
 70
   128
 71
    18
 72
    24
 73
    19
  0
VERTEX
  5
284
  8
0
 62
     9
 10
0.0
 20
0.0
 30
0.0
 70
   128
 71
    12
 72
    15
 73
    14
  0
VERTEX
  5
285
  8
0
 62
     9
 10
0.0
 20
0.0
 30
0.0
 70
   128
 71
    10
 72
    22
 73
     9
  0
VERTEX
  5
286
  8
0
 62
     9
 10
0.0
 20
0.0
 30
0.0
 70
   128
 71
     1
 72
    19
 73
     5
  0
SEQEND
  5
287
  8
0
 62
     9
  0
ENDBLK
  5
28A
  8
0
  0
BLOCK
  8
0
  2
E3_NODE_13_
 70
     0
 10
0.0
 20
0.0
 30
0.0
  3
E3_NODE_13_
  1

  0
POLYLINE
  5
28C
  8
0
 62
     9
 66
     1
 10
0.0
 20
0.0
 30
0.0
 70
    64
 71
    39
 72
    46
  0
VERTEX
  5
28D
  8
0
 10
17.98600006103516
 20
6.902999877929688
 30
115.6510009765625
 70
   192
  0
VERTEX
  5
28E
  8
0
 10
14.78499984741211
 20
12.3129997253418
 30
116.1240005493164
 70
   192
  0
VERTEX
  5
28F
  8
0
 10
16.69499969482422
 20
11.05000019073486
 30
118.2170028686523
 70
   192
  0
VERTEX
  5
290
  8
0
 10
21.4060001373291
 20
5.322000026702881
 30
119.9029998779297
 70
   192
  0
VERTEX
  5
291
  8
0
 10
19.46299934387207
 20
10.19499969482422
 30
119.8710021972656
 70
   192
  0
VERTEX
  5
292
  8
0
 10
22.67600059509277
 20
9.829999923706055
 30
120.7360000610352
 70
   192
  0
VERTEX
  5
293
  8
0
 10
24.05400085449219
 20
5.377999782562256
 30
120.6350021362305
 70
   192
  0
VERTEX
  5
294
  8
0
 10
19.28400039672852
 20
-0.0099999997764826
 30
115.5999984741211
 70
   192
  0
VERTEX
  5
295
  8
0
 10
19.09900093078613
 20
6.044000148773193
 30
118.1800003051758
 70
   192
  0
VERTEX
  5
296
  8
0
 10
20.15299987792969
 20
-0.0099999997764826
 30
118.2109985351562
 70
   192
  0
VERTEX
  5
297
  8
0
 10
19.90800094604492
 20
-0.0099999997764826
 30
117.9410018920898
 70
   192
  0
VERTEX
  5
298
  8
0
 10
17.93099975585938
 20
7.922999858856201
 30
112.9960021972656
 70
   192
  0
VERTEX
  5
299
  8
0
 10
15.52499961853027
 20
11.75699996948242
 30
113.6940002441406
 70
   192
  0
VERTEX
  5
29A
  8
0
 10
18.03000068664551
 20
7.622000217437744
 30
112.9670028686523
 70
   192
  0
VERTEX
  5
29B
  8
0
 10
13.48799991607666
 20
13.72900009155273
 30
114.2850036621094
 70
   192
  0
VERTEX
  5
29C
  8
0
 10
19.3390007019043
 20
3.658999919891357
 30
112.5879974365234
 70
   192
  0
VERTEX
  5
29D
  8
0
 10
19.70400047302246
 20
-0.0099999997764826
 30
112.4810028076172
 70
   192
  0
VERTEX
  5
29E
  8
0
 10
18.07799911499023
 20
7.474999904632568
 30
112.9530029296875
 70
   192
  0
VERTEX
  5
29F
  8
0
 10
24.0930004119873
 20
4.998000144958496
 30
120.6320037841797
 70
   192
  0
VERTEX
  5
2A0
  8
0
 10
23.63599967956543
 20
-0.0099999997764826
 30
120.4280014038086
 70
   192
  0
VERTEX
  5
2A1
  8
0
 10
22.19300079345703
 20
-0.0099999997764826
 30
119.8369979858398
 70
   192
  0
VERTEX
  5
2A2
  8
0
 10
24.61000061035156
 20
-0.0099999997764826
 30
120.5940017700195
 70
   192
  0
VERTEX
  5
2A3
  8
0
 10
21.30100059509277
 20
-0.0099999997764826
 30
119.4720001220703
 70
   192
  0
VERTEX
  5
2A4
  8
0
 10
16.6830005645752
 20
14.67300033569336
 30
120.0070037841797
 70
   192
  0
VERTEX
  5
2A5
  8
0
 10
20.49900054931641
 20
14.39999961853027
 30
120.8960037231445
 70
   192
  0
VERTEX
  5
2A6
  8
0
 10
22.40099906921387
 20
10.7189998626709
 30
120.7559967041016
 70
   192
  0
VERTEX
  5
2A7
  8
0
 10
10.1899995803833
 20
16.32600021362305
 30
117.2480010986328
 70
   192
  0
VERTEX
  5
2A8
  8
0
 10
13.2790002822876
 20
15.29899978637695
 30
118.6829986572266
 70
   192
  0
VERTEX
  5
2A9
  8
0
 10
12.2519998550415
 20
14.92500019073486
 30
114.6439971923828
 70
   192
  0
VERTEX
  5
2AA
  8
0
 10
8.201000213623047
 20
17.27499961853027
 30
115.8199996948242
 70
   192
  0
VERTEX
  5
2AB
  8
0
 10
13.43099975585938
 20
13.78499984741211
 30
114.302001953125
 70
   192
  0
VERTEX
  5
2AC
  8
0
 10
4.081999778747559
 20
18.75600051879883
 30
119.0319976806641
 70
   192
  0
VERTEX
  5
2AD
  8
0
 10
6.929999828338623
 20
17.64299964904785
 30
116.1880035400391
 70
   192
  0
VERTEX
  5
2AE
  8
0
 10
3.723999977111816
 20
18.56900024414062
 30
117.1190032958984
 70
   192
  0
VERTEX
  5
2AF
  8
0
 10
6.934000015258789
 20
17.64100074768066
 30
116.1869964599609
 70
   192
  0
VERTEX
  5
2B0
  8
0
 10
-0.5070000290870667
 20
18.76700019836426
 30
118.3460006713867
 70
   192
  0
VERTEX
  5
2B1
  8
0
 10
8.67199993133545
 20
18.7450008392334
 30
119.7180023193359
 70
   192
  0
VERTEX
  5
2B2
  8
0
 10
17.85000038146973
 20
18.72200012207031
 30
121.0899963378906
 70
   192
  0
VERTEX
  5
2B3
  8
0
 10
19.63100051879883
 20
16.07999992370605
 30
120.9599990844727
 70
   192
  0
VERTEX
  5
2B4
  8
0
 62
     9
 10
0.0
 20
0.0
 30
0.0
 70
   128
 71
     3
 72
     2
 73
     1
  0
VERTEX
  5
2B5
  8
0
 62
     9
 10
0.0
 20
0.0
 30
0.0
 70
   128
 71
     6
 72
     5
 73
     4
  0
VERTEX
  5
2B6
  8
0
 62
     9
 10
0.0
 20
0.0
 30
0.0
 70
   128
 71
     4
 72
     7
 73
     6
  0
VERTEX
  5
2B7
  8
0
 62
     9
 10
0.0
 20
0.0
 30
0.0
 70
   128
 71
     9
 72
     1
 73
     8
  0
VERTEX
  5
2B8
  8
0
 62
     9
 10
0.0
 20
0.0
 30
0.0
 70
   128
 71
    11
 72
    10
 73
     9
  0
VERTEX
  5
2B9
  8
0
 62
     9
 10
0.0
 20
0.0
 30
0.0
 70
   128
 71
    13
 72
    12
 73
     1
  0
VERTEX
  5
2BA
  8
0
 62
     9
 10
0.0
 20
0.0
 30
0.0
 70
   128
 71
    12
 72
    14
 73
     1
  0
VERTEX
  5
2BB
  8
0
 62
     9
 10
0.0
 20
0.0
 30
0.0
 70
   128
 71
     1
 72
     2
 73
    13
  0
VERTEX
  5
2BC
  8
0
 62
     9
 10
0.0
 20
0.0
 30
0.0
 70
   128
 71
     2
 72
    15
 73
    13
  0
VERTEX
  5
2BD
  8
0
 62
     9
 10
0.0
 20
0.0
 30
0.0
 70
   128
 71
    16
 72
     8
 73
     1
  0
VERTEX
  5
2BE
  8
0
 62
     9
 10
0.0
 20
0.0
 30
0.0
 70
   128
 71
    16
 72
    17
 73
     8
  0
VERTEX
  5
2BF
  8
0
 62
     9
 10
0.0
 20
0.0
 30
0.0
 70
   128
 71
     1
 72
    18
 73
    16
  0
VERTEX
  5
2C0
  8
0
 62
     9
 10
0.0
 20
0.0
 30
0.0
 70
   128
 71
     9
 72
     4
 73
     5
  0
VERTEX
  5
2C1
  8
0
 62
     9
 10
0.0
 20
0.0
 30
0.0
 70
   128
 71
    21
 72
    20
 73
    19
  0
VERTEX
  5
2C2
  8
0
 62
     9
 10
0.0
 20
0.0
 30
0.0
 70
   128
 71
    22
 72
    19
 73
    20
  0
VERTEX
  5
2C3
  8
0
 62
     9
 10
0.0
 20
0.0
 30
0.0
 70
   128
 71
     4
 72
     9
 73
    10
  0
VERTEX
  5
2C4
  8
0
 62
     9
 10
0.0
 20
0.0
 30
0.0
 70
   128
 71
    23
 72
    21
 73
     4
  0
VERTEX
  5
2C5
  8
0
 62
     9
 10
0.0
 20
0.0
 30
0.0
 70
   128
 71
    25
 72
    24
 73
     5
  0
VERTEX
  5
2C6
  8
0
 62
     9
 10
0.0
 20
0.0
 30
0.0
 70
   128
 71
     5
 72
    26
 73
    25
  0
VERTEX
  5
2C7
  8
0
 62
     9
 10
0.0
 20
0.0
 30
0.0
 70
   128
 71
     3
 72
     5
 73
    24
  0
VERTEX
  5
2C8
  8
0
 62
     9
 10
0.0
 20
0.0
 30
0.0
 70
   128
 71
    28
 72
    27
 73
     2
  0
VERTEX
  5
2C9
  8
0
 62
     9
 10
0.0
 20
0.0
 30
0.0
 70
   128
 71
    29
 72
     2
 73
    27
  0
VERTEX
  5
2CA
  8
0
 62
     9
 10
0.0
 20
0.0
 30
0.0
 70
   128
 71
    27
 72
    30
 73
    29
  0
VERTEX
  5
2CB
  8
0
 62
     9
 10
0.0
 20
0.0
 30
0.0
 70
   128
 71
    29
 72
    31
 73
     2
  0
VERTEX
  5
2CC
  8
0
 62
     9
 10
0.0
 20
0.0
 30
0.0
 70
   128
 71
    34
 72
    33
 73
    32
  0
VERTEX
  5
2CD
  8
0
 62
     9
 10
0.0
 20
0.0
 30
0.0
 70
   128
 71
    33
 72
    35
 73
    27
  0
VERTEX
  5
2CE
  8
0
 62
     9
 10
0.0
 20
0.0
 30
0.0
 70
   128
 71
    27
 72
    32
 73
    33
  0
VERTEX
  5
2CF
  8
0
 62
     9
 10
0.0
 20
0.0
 30
0.0
 70
   128
 71
    32
 72
    36
 73
    34
  0
VERTEX
  5
2D0
  8
0
 62
     9
 10
0.0
 20
0.0
 30
0.0
 70
   128
 71
    27
 72
    28
 73
    37
  0
VERTEX
  5
2D1
  8
0
 62
     9
 10
0.0
 20
0.0
 30
0.0
 70
   128
 71
    28
 72
    24
 73
    38
  0
VERTEX
  5
2D2
  8
0
 62
     9
 10
0.0
 20
0.0
 30
0.0
 70
   128
 71
    39
 72
    38
 73
    24
  0
VERTEX
  5
2D3
  8
0
 62
     9
 10
0.0
 20
0.0
 30
0.0
 70
   128
 71
    24
 72
    25
 73
    39
  0
VERTEX
  5
2D4
  8
0
 62
     9
 10
0.0
 20
0.0
 30
0.0
 70
   128
 71
    38
 72
    37
 73
    28
  0
VERTEX
  5
2D5
  8
0
 62
     9
 10
0.0
 20
0.0
 30
0.0
 70
   128
 71
    37
 72
    32
 73
    27
  0
VERTEX
  5
2D6
  8
0
 62
     9
 10
0.0
 20
0.0
 30
0.0
 70
   128
 71
    27
 72
    35
 73
    30
  0
VERTEX
  5
2D7
  8
0
 62
     9
 10
0.0
 20
0.0
 30
0.0
 70
   128
 71
     2
 72
     3
 73
    28
  0
VERTEX
  5
2D8
  8
0
 62
     9
 10
0.0
 20
0.0
 30
0.0
 70
   128
 71
    24
 72
    28
 73
     3
  0
VERTEX
  5
2D9
  8
0
 62
     9
 10
0.0
 20
0.0
 30
0.0
 70
   128
 71
     5
 72
     6
 73
    26
  0
VERTEX
  5
2DA
  8
0
 62
     9
 10
0.0
 20
0.0
 30
0.0
 70
   128
 71
    10
 72
    23
 73
     4
  0
VERTEX
  5
2DB
  8
0
 62
     9
 10
0.0
 20
0.0
 30
0.0
 70
   128
 71
    19
 72
     4
 73
    21
  0
VERTEX
  5
2DC
  8
0
 62
     9
 10
0.0
 20
0.0
 30
0.0
 70
   128
 71
     5
 72
     3
 73
     9
  0
VERTEX
  5
2DD
  8
0
 62
     9
 10
0.0
 20
0.0
 30
0.0
 70
   128
 71
     1
 72
    14
 73
    18
  0
VERTEX
  5
2DE
  8
0
 62
     9
 10
0.0
 20
0.0
 30
0.0
 70
   128
 71
     2
 72
    31
 73
    15
  0
VERTEX
  5
2DF
  8
0
 62
     9
 10
0.0
 20
0.0
 30
0.0
 70
   128
 71
     8
 72
    11
 73
     9
  0
VERTEX
  5
2E0
  8
0
 62
     9
 10
0.0
 20
0.0
 30
0.0
 70
   128
 71
     4
 72
    19
 73
     7
  0
VERTEX
  5
2E1
  8
0
 62
     9
 10
0.0
 20
0.0
 30
0.0
 70
   128
 71
     1
 72
     9
 73
     3
  0
SEQEND
  5
2E2
  8
0
 62
     9
  0
ENDBLK
  5
2E5
  8
0
  0
BLOCK
  8
0
  2
E3_NODE_14_
 70
     0
 10
0.0
 20
0.0
 30
0.0
  3
E3_NODE_14_
  1

  0
POLYLINE
  5
2E7
  8
0
 62
     9
 66
     1
 10
0.0
 20
0.0
 30
0.0
 70
    64
 71
    73
 72
    86
  0
VERTEX
  5
2E8
  8
0
 10
-4.414000034332275
 20
23.5359992980957
 30
91.18299865722656
 70
   192
  0
VERTEX
  5
2E9
  8
0
 10
-4.355000019073486
 20
20.88400077819824
 30
104.9800033569336
 70
   192
  0
VERTEX
  5
2EA
  8
0
 10
-0.034000001847744
 20
21.88400077819824
 30
102.4300003051758
 70
   192
  0
VERTEX
  5
2EB
  8
0
 10
-0.1209999993443489
 20
21.3129997253418
 30
105.3450012207031
 70
   192
  0
VERTEX
  5
2EC
  8
0
 10
-4.814000129699707
 20
23.45100021362305
 30
91.38300323486328
 70
   192
  0
VERTEX
  5
2ED
  8
0
 10
-8.805999755859375
 20
21.66300010681152
 30
93.37300109863281
 70
   192
  0
VERTEX
  5
2EE
  8
0
 10
-8.378000259399414
 20
19.62899971008301
 30
104.6360015869141
 70
   192
  0
VERTEX
  5
2EF
  8
0
 10
-9.706000328063965
 20
21.25900077819824
 30
93.8219985961914
 70
   192
  0
VERTEX
  5
2F0
  8
0
 10
-12.66699981689453
 20
19.07500076293945
 30
95.2979965209961
 70
   192
  0
VERTEX
  5
2F1
  8
0
 10
-12.04699993133545
 20
17.61899948120117
 30
104.3239974975586
 70
   192
  0
VERTEX
  5
2F2
  8
0
 10
-14.01000022888184
 20
18.08399963378906
 30
95.96700286865234
 70
   192
  0
VERTEX
  5
2F3
  8
0
 10
-15.91199970245361
 20
15.91800022125244
 30
96.91600036621094
 70
   192
  0
VERTEX
  5
2F4
  8
0
 10
-15.23499965667725
 20
14.94499969482422
 30
104.0550003051758
 70
   192
  0
VERTEX
  5
2F5
  8
0
 10
-17.50799942016602
 20
14.10000038146973
 30
97.71099853515625
 70
   192
  0
VERTEX
  5
2F6
  8
0
 10
-18.4950008392334
 20
12.32199954986572
 30
98.2030029296875
 70
   192
  0
VERTEX
  5
2F7
  8
0
 10
-19.75300025939941
 20
8.052000045776367
 30
103.677001953125
 70
   192
  0
VERTEX
  5
2F8
  8
0
 10
-17.83300018310547
 20
11.71399974822998
 30
103.8379974365234
 70
   192
  0
VERTEX
  5
2F9
  8
0
 10
-20.04299926757812
 20
9.531000137329102
 30
98.9749984741211
 70
   192
  0
VERTEX
  5
2FA
  8
0
 10
-20.38999938964844
 20
8.402000427246094
 30
99.14800262451172
 70
   192
  0
VERTEX
  5
2FB
  8
0
 10
-21.51099967956543
 20
4.754000186920166
 30
99.70700073242188
 70
   192
  0
VERTEX
  5
2FC
  8
0
 10
-20.93099975585938
 20
4.096000194549561
 30
103.5790023803711
 70
   192
  0
VERTEX
  5
2FD
  8
0
 10
-21.55999946594238
 20
4.256999969482422
 30
99.73200225830078
 70
   192
  0
VERTEX
  5
2FE
  8
0
 10
-21.97999954223633
 20
-0.0099999997764826
 30
99.94100189208984
 70
   192
  0
VERTEX
  5
2FF
  8
0
 10
-20.93099975585938
 20
-4.116000175476074
 30
103.5790023803711
 70
   192
  0
VERTEX
  5
300
  8
0
 10
-21.32799911499023
 20
-0.0099999997764826
 30
103.5459976196289
 70
   192
  0
VERTEX
  5
301
  8
0
 10
-19.75300025939941
 20
-8.071999549865723
 30
103.677001953125
 70
   192
  0
VERTEX
  5
302
  8
0
 10
-21.51000022888184
 20
-4.78000020980835
 30
99.70700073242188
 70
   192
  0
VERTEX
  5
303
  8
0
 10
-21.55999946594238
 20
-4.276999950408936
 30
99.73100280761719
 70
   192
  0
VERTEX
  5
304
  8
0
 10
-20.40800094604492
 20
-8.428000450134277
 30
99.15699768066406
 70
   192
  0
VERTEX
  5
305
  8
0
 10
-20.13699913024902
 20
-9.32800006866455
 30
99.02200317382812
 70
   192
  0
VERTEX
  5
306
  8
0
 10
-17.83300018310547
 20
-11.73400020599365
 30
103.8379974365234
 70
   192
  0
VERTEX
  5
307
  8
0
 10
-15.23499965667725
 20
-14.96500015258789
 30
104.0550003051758
 70
   192
  0
VERTEX
  5
308
  8
0
 10
-18.52099990844727
 20
-12.35700035095215
 30
98.21600341796875
 70
   192
  0
VERTEX
  5
309
  8
0
 10
-17.83499908447266
 20
-13.64299964904785
 30
97.875
 70
   192
  0
VERTEX
  5
30A
  8
0
 10
-12.04699993133545
 20
-17.63899993896484
 30
104.3239974975586
 70
   192
  0
VERTEX
  5
30B
  8
0
 10
-15.92899990081787
 20
-15.95600032806396
 30
96.92400360107422
 70
   192
  0
VERTEX
  5
30C
  8
0
 10
-14.71000003814697
 20
-17.43499946594238
 30
96.31600189208984
 70
   192
  0
VERTEX
  5
30D
  8
0
 10
-8.378000259399414
 20
-19.64900016784668
 30
104.6360015869141
 70
   192
  0
VERTEX
  5
30E
  8
0
 10
-12.66199970245361
 20
-19.09799957275391
 30
95.29499816894531
 70
   192
  0
VERTEX
  5
30F
  8
0
 10
-10.84700012207031
 20
-20.57200050354004
 30
94.38999938964844
 70
   192
  0
VERTEX
  5
310
  8
0
 10
-4.355000019073486
 20
-20.90399932861328
 30
104.9800033569336
 70
   192
  0
VERTEX
  5
311
  8
0
 10
-8.781999588012695
 20
-21.64900016784668
 30
93.36100006103516
 70
   192
  0
VERTEX
  5
312
  8
0
 10
-6.359000205993652
 20
-22.91300010681152
 30
92.1520004272461
 70
   192
  0
VERTEX
  5
313
  8
0
 10
-0.034000001847744
 20
-21.90399932861328
 30
102.4300003051758
 70
   192
  0
VERTEX
  5
314
  8
0
 10
-4.38700008392334
 20
-23.47400093078613
 30
91.16999816894531
 70
   192
  0
VERTEX
  5
315
  8
0
 10
-1.39900004863739
 20
-24.32399940490723
 30
89.68000030517578
 70
   192
  0
VERTEX
  5
316
  8
0
 10
0.3709999918937683
 20
-24.57399940490723
 30
88.7969970703125
 70
   192
  0
VERTEX
  5
317
  8
0
 10
-4.998000144958496
 20
-17.54500007629395
 30
121.2160034179688
 70
   192
  0
VERTEX
  5
318
  8
0
 10
-7.663000106811523
 20
-16.49200057983398
 30
120.8290023803711
 70
   192
  0
VERTEX
  5
319
  8
0
 10
-0.1209999993443489
 20
-21.33300018310547
 30
105.3450012207031
 70
   192
  0
VERTEX
  5
31A
  8
0
 10
-0.5070000290870667
 20
-18.78700065612793
 30
118.3460006713867
 70
   192
  0
VERTEX
  5
31B
  8
0
 10
-0.6119999885559082
 20
-18.10099983215332
 30
121.8529968261719
 70
   192
  0
VERTEX
  5
31C
  8
0
 10
-12.73499965667725
 20
-13.30399990081787
 30
120.0780029296875
 70
   192
  0
VERTEX
  5
31D
  8
0
 10
-9.111000061035156
 20
-15.92000007629395
 30
120.6190032958984
 70
   192
  0
VERTEX
  5
31E
  8
0
 10
-15.48900032043457
 20
-10.05000019073486
 30
119.6539993286133
 70
   192
  0
VERTEX
  5
31F
  8
0
 10
-17.13800048828125
 20
-6.722000122070312
 30
119.3960037231445
 70
   192
  0
VERTEX
  5
320
  8
0
 10
-13.39999961853027
 20
-12.51799964904785
 30
119.9749984741211
 70
   192
  0
VERTEX
  5
321
  8
0
 10
-18.43099975585938
 20
-1.639999985694885
 30
119.1910018920898
 70
   192
  0
VERTEX
  5
322
  8
0
 10
-17.48299980163574
 20
-6.026999950408936
 30
119.3420028686523
 70
   192
  0
VERTEX
  5
323
  8
0
 10
-18.28000068664551
 20
2.842000007629395
 30
119.2149963378906
 70
   192
  0
VERTEX
  5
324
  8
0
 10
-18.37599945068359
 20
-0.0140000004321337
 30
119.1999969482422
 70
   192
  0
VERTEX
  5
325
  8
0
 10
-18.37599945068359
 20
-0.0099999997764826
 30
119.1999969482422
 70
   192
  0
VERTEX
  5
326
  8
0
 10
-17.13899993896484
 20
6.910999774932861
 30
119.3960037231445
 70
   192
  0
VERTEX
  5
327
  8
0
 10
-14.94699954986572
 20
10.80399990081787
 30
119.7379989624023
 70
   192
  0
VERTEX
  5
328
  8
0
 10
-17.19000053405762
 20
6.73199987411499
 30
119.3880004882812
 70
   192
  0
VERTEX
  5
329
  8
0
 10
-8.079000473022461
 20
16.42200088500977
 30
120.7699966430664
 70
   192
  0
VERTEX
  5
32A
  8
0
 10
-11.86600017547607
 20
14.04300022125244
 30
120.2089996337891
 70
   192
  0
VERTEX
  5
32B
  8
0
 10
-13.36999988555908
 20
12.46100044250488
 30
119.9789962768555
 70
   192
  0
VERTEX
  5
32C
  8
0
 10
-4.105000019073486
 20
17.72999954223633
 30
121.3440017700195
 70
   192
  0
VERTEX
  5
32D
  8
0
 10
-0.5070000290870667
 20
18.76700019836426
 30
118.3460006713867
 70
   192
  0
VERTEX
  5
32E
  8
0
 10
-0.6119999885559082
 20
18.08099937438965
 30
121.8529968261719
 70
   192
  0
VERTEX
  5
32F
  8
0
 10
-7.695000171661377
 20
16.54800033569336
 30
120.8249969482422
 70
   192
  0
VERTEX
  5
330
  8
0
 10
0.3720000088214874
 20
24.55400085449219
 30
88.7969970703125
 70
   192
  0
VERTEX
  5
331
  8
0
 62
     9
 10
0.0
 20
0.0
 30
0.0
 70
   128
 71
     3
 72
     2
 73
     1
  0
VERTEX
  5
332
  8
0
 62
     9
 10
0.0
 20
0.0
 30
0.0
 70
   128
 71
     3
 72
     4
 73
     2
  0
VERTEX
  5
333
  8
0
 62
     9
 10
0.0
 20
0.0
 30
0.0
 70
   128
 71
     6
 72
     5
 73
     2
  0
VERTEX
  5
334
  8
0
 62
     9
 10
0.0
 20
0.0
 30
0.0
 70
   128
 71
     5
 72
     1
 73
     2
  0
VERTEX
  5
335
  8
0
 62
     9
 10
0.0
 20
0.0
 30
0.0
 70
   128
 71
     9
 72
     8
 73
     7
  0
VERTEX
  5
336
  8
0
 62
     9
 10
0.0
 20
0.0
 30
0.0
 70
   128
 71
     8
 72
     6
 73
     7
  0
VERTEX
  5
337
  8
0
 62
     9
 10
0.0
 20
0.0
 30
0.0
 70
   128
 71
    12
 72
    11
 73
    10
  0
VERTEX
  5
338
  8
0
 62
     9
 10
0.0
 20
0.0
 30
0.0
 70
   128
 71
    11
 72
     9
 73
    10
  0
VERTEX
  5
339
  8
0
 62
     9
 10
0.0
 20
0.0
 30
0.0
 70
   128
 71
    15
 72
    14
 73
    13
  0
VERTEX
  5
33A
  8
0
 62
     9
 10
0.0
 20
0.0
 30
0.0
 70
   128
 71
    14
 72
    12
 73
    13
  0
VERTEX
  5
33B
  8
0
 62
     9
 10
0.0
 20
0.0
 30
0.0
 70
   128
 71
    18
 72
    17
 73
    16
  0
VERTEX
  5
33C
  8
0
 62
     9
 10
0.0
 20
0.0
 30
0.0
 70
   128
 71
    18
 72
    15
 73
    17
  0
VERTEX
  5
33D
  8
0
 62
     9
 10
0.0
 20
0.0
 30
0.0
 70
   128
 71
    20
 72
    19
 73
    16
  0
VERTEX
  5
33E
  8
0
 62
     9
 10
0.0
 20
0.0
 30
0.0
 70
   128
 71
    16
 72
    21
 73
    20
  0
VERTEX
  5
33F
  8
0
 62
     9
 10
0.0
 20
0.0
 30
0.0
 70
   128
 71
    23
 72
    22
 73
    21
  0
VERTEX
  5
340
  8
0
 62
     9
 10
0.0
 20
0.0
 30
0.0
 70
   128
 71
    23
 72
    25
 73
    24
  0
VERTEX
  5
341
  8
0
 62
     9
 10
0.0
 20
0.0
 30
0.0
 70
   128
 71
    27
 72
    24
 73
    26
  0
VERTEX
  5
342
  8
0
 62
     9
 10
0.0
 20
0.0
 30
0.0
 70
   128
 71
    27
 72
    28
 73
    24
  0
VERTEX
  5
343
  8
0
 62
     9
 10
0.0
 20
0.0
 30
0.0
 70
   128
 71
    30
 72
    29
 73
    26
  0
VERTEX
  5
344
  8
0
 62
     9
 10
0.0
 20
0.0
 30
0.0
 70
   128
 71
    26
 72
    31
 73
    30
  0
VERTEX
  5
345
  8
0
 62
     9
 10
0.0
 20
0.0
 30
0.0
 70
   128
 71
    33
 72
    31
 73
    32
  0
VERTEX
  5
346
  8
0
 62
     9
 10
0.0
 20
0.0
 30
0.0
 70
   128
 71
    32
 72
    34
 73
    33
  0
VERTEX
  5
347
  8
0
 62
     9
 10
0.0
 20
0.0
 30
0.0
 70
   128
 71
    36
 72
    32
 73
    35
  0
VERTEX
  5
348
  8
0
 62
     9
 10
0.0
 20
0.0
 30
0.0
 70
   128
 71
    35
 72
    37
 73
    36
  0
VERTEX
  5
349
  8
0
 62
     9
 10
0.0
 20
0.0
 30
0.0
 70
   128
 71
    39
 72
    35
 73
    38
  0
VERTEX
  5
34A
  8
0
 62
     9
 10
0.0
 20
0.0
 30
0.0
 70
   128
 71
    38
 72
    40
 73
    39
  0
VERTEX
  5
34B
  8
0
 62
     9
 10
0.0
 20
0.0
 30
0.0
 70
   128
 71
    42
 72
    38
 73
    41
  0
VERTEX
  5
34C
  8
0
 62
     9
 10
0.0
 20
0.0
 30
0.0
 70
   128
 71
    41
 72
    43
 73
    42
  0
VERTEX
  5
34D
  8
0
 62
     9
 10
0.0
 20
0.0
 30
0.0
 70
   128
 71
    45
 72
    41
 73
    44
  0
VERTEX
  5
34E
  8
0
 62
     9
 10
0.0
 20
0.0
 30
0.0
 70
   128
 71
    44
 72
    46
 73
    45
  0
VERTEX
  5
34F
  8
0
 62
     9
 10
0.0
 20
0.0
 30
0.0
 70
   128
 71
    44
 72
    47
 73
    46
  0
VERTEX
  5
350
  8
0
 62
     9
 10
0.0
 20
0.0
 30
0.0
 70
   128
 71
    49
 72
    48
 73
    41
  0
VERTEX
  5
351
  8
0
 62
     9
 10
0.0
 20
0.0
 30
0.0
 70
   128
 71
    51
 72
    50
 73
    41
  0
VERTEX
  5
352
  8
0
 62
     9
 10
0.0
 20
0.0
 30
0.0
 70
   128
 71
    41
 72
    48
 73
    51
  0
VERTEX
  5
353
  8
0
 62
     9
 10
0.0
 20
0.0
 30
0.0
 70
   128
 71
    48
 72
    52
 73
    51
  0
VERTEX
  5
354
  8
0
 62
     9
 10
0.0
 20
0.0
 30
0.0
 70
   128
 71
    53
 72
    35
 73
    32
  0
VERTEX
  5
355
  8
0
 62
     9
 10
0.0
 20
0.0
 30
0.0
 70
   128
 71
    35
 72
    53
 73
    54
  0
VERTEX
  5
356
  8
0
 62
     9
 10
0.0
 20
0.0
 30
0.0
 70
   128
 71
    54
 72
    49
 73
    38
  0
VERTEX
  5
357
  8
0
 62
     9
 10
0.0
 20
0.0
 30
0.0
 70
   128
 71
    54
 72
    38
 73
    35
  0
VERTEX
  5
358
  8
0
 62
     9
 10
0.0
 20
0.0
 30
0.0
 70
   128
 71
    56
 72
    55
 73
    31
  0
VERTEX
  5
359
  8
0
 62
     9
 10
0.0
 20
0.0
 30
0.0
 70
   128
 71
    55
 72
    57
 73
    32
  0
VERTEX
  5
35A
  8
0
 62
     9
 10
0.0
 20
0.0
 30
0.0
 70
   128
 71
    32
 72
    31
 73
    55
  0
VERTEX
  5
35B
  8
0
 62
     9
 10
0.0
 20
0.0
 30
0.0
 70
   128
 71
    58
 72
    24
 73
    25
  0
VERTEX
  5
35C
  8
0
 62
     9
 10
0.0
 20
0.0
 30
0.0
 70
   128
 71
    24
 72
    58
 73
    59
  0
VERTEX
  5
35D
  8
0
 62
     9
 10
0.0
 20
0.0
 30
0.0
 70
   128
 71
    59
 72
    56
 73
    26
  0
VERTEX
  5
35E
  8
0
 62
     9
 10
0.0
 20
0.0
 30
0.0
 70
   128
 71
    59
 72
    26
 73
    24
  0
VERTEX
  5
35F
  8
0
 62
     9
 10
0.0
 20
0.0
 30
0.0
 70
   128
 71
    60
 72
    21
 73
    16
  0
VERTEX
  5
360
  8
0
 62
     9
 10
0.0
 20
0.0
 30
0.0
 70
   128
 71
    62
 72
    61
 73
    25
  0
VERTEX
  5
361
  8
0
 62
     9
 10
0.0
 20
0.0
 30
0.0
 70
   128
 71
    25
 72
    21
 73
    62
  0
VERTEX
  5
362
  8
0
 62
     9
 10
0.0
 20
0.0
 30
0.0
 70
   128
 71
    21
 72
    60
 73
    62
  0
VERTEX
  5
363
  8
0
 62
     9
 10
0.0
 20
0.0
 30
0.0
 70
   128
 71
    63
 72
    16
 73
    17
  0
VERTEX
  5
364
  8
0
 62
     9
 10
0.0
 20
0.0
 30
0.0
 70
   128
 71
    17
 72
    13
 73
    64
  0
VERTEX
  5
365
  8
0
 62
     9
 10
0.0
 20
0.0
 30
0.0
 70
   128
 71
    17
 72
    64
 73
    63
  0
VERTEX
  5
366
  8
0
 62
     9
 10
0.0
 20
0.0
 30
0.0
 70
   128
 71
    63
 72
    65
 73
    16
  0
VERTEX
  5
367
  8
0
 62
     9
 10
0.0
 20
0.0
 30
0.0
 70
   128
 71
    10
 72
     7
 73
    66
  0
VERTEX
  5
368
  8
0
 62
     9
 10
0.0
 20
0.0
 30
0.0
 70
   128
 71
    66
 72
    67
 73
    10
  0
VERTEX
  5
369
  8
0
 62
     9
 10
0.0
 20
0.0
 30
0.0
 70
   128
 71
    68
 72
    13
 73
    10
  0
VERTEX
  5
36A
  8
0
 62
     9
 10
0.0
 20
0.0
 30
0.0
 70
   128
 71
    10
 72
    67
 73
    68
  0
VERTEX
  5
36B
  8
0
 62
     9
 10
0.0
 20
0.0
 30
0.0
 70
   128
 71
    70
 72
    69
 73
     2
  0
VERTEX
  5
36C
  8
0
 62
     9
 10
0.0
 20
0.0
 30
0.0
 70
   128
 71
    70
 72
    71
 73
    69
  0
VERTEX
  5
36D
  8
0
 62
     9
 10
0.0
 20
0.0
 30
0.0
 70
   128
 71
    72
 72
     7
 73
     2
  0
VERTEX
  5
36E
  8
0
 62
     9
 10
0.0
 20
0.0
 30
0.0
 70
   128
 71
     2
 72
    69
 73
    72
  0
VERTEX
  5
36F
  8
0
 62
     9
 10
0.0
 20
0.0
 30
0.0
 70
   128
 71
     2
 72
     4
 73
    70
  0
VERTEX
  5
370
  8
0
 62
     9
 10
0.0
 20
0.0
 30
0.0
 70
   128
 71
     7
 72
    72
 73
    66
  0
VERTEX
  5
371
  8
0
 62
     9
 10
0.0
 20
0.0
 30
0.0
 70
   128
 71
    13
 72
    68
 73
    64
  0
VERTEX
  5
372
  8
0
 62
     9
 10
0.0
 20
0.0
 30
0.0
 70
   128
 71
    16
 72
    65
 73
    60
  0
VERTEX
  5
373
  8
0
 62
     9
 10
0.0
 20
0.0
 30
0.0
 70
   128
 71
    25
 72
    61
 73
    58
  0
VERTEX
  5
374
  8
0
 62
     9
 10
0.0
 20
0.0
 30
0.0
 70
   128
 71
    31
 72
    26
 73
    56
  0
VERTEX
  5
375
  8
0
 62
     9
 10
0.0
 20
0.0
 30
0.0
 70
   128
 71
    32
 72
    57
 73
    53
  0
VERTEX
  5
376
  8
0
 62
     9
 10
0.0
 20
0.0
 30
0.0
 70
   128
 71
    41
 72
    38
 73
    49
  0
VERTEX
  5
377
  8
0
 62
     9
 10
0.0
 20
0.0
 30
0.0
 70
   128
 71
    41
 72
    50
 73
    44
  0
VERTEX
  5
378
  8
0
 62
     9
 10
0.0
 20
0.0
 30
0.0
 70
   128
 71
    41
 72
    45
 73
    43
  0
VERTEX
  5
379
  8
0
 62
     9
 10
0.0
 20
0.0
 30
0.0
 70
   128
 71
    38
 72
    42
 73
    40
  0
VERTEX
  5
37A
  8
0
 62
     9
 10
0.0
 20
0.0
 30
0.0
 70
   128
 71
    35
 72
    39
 73
    37
  0
VERTEX
  5
37B
  8
0
 62
     9
 10
0.0
 20
0.0
 30
0.0
 70
   128
 71
    32
 72
    36
 73
    34
  0
VERTEX
  5
37C
  8
0
 62
     9
 10
0.0
 20
0.0
 30
0.0
 70
   128
 71
    31
 72
    33
 73
    30
  0
VERTEX
  5
37D
  8
0
 62
     9
 10
0.0
 20
0.0
 30
0.0
 70
   128
 71
    26
 72
    29
 73
    27
  0
VERTEX
  5
37E
  8
0
 62
     9
 10
0.0
 20
0.0
 30
0.0
 70
   128
 71
    24
 72
    28
 73
    23
  0
VERTEX
  5
37F
  8
0
 62
     9
 10
0.0
 20
0.0
 30
0.0
 70
   128
 71
    21
 72
    25
 73
    23
  0
VERTEX
  5
380
  8
0
 62
     9
 10
0.0
 20
0.0
 30
0.0
 70
   128
 71
    21
 72
    22
 73
    20
  0
VERTEX
  5
381
  8
0
 62
     9
 10
0.0
 20
0.0
 30
0.0
 70
   128
 71
    16
 72
    19
 73
    18
  0
VERTEX
  5
382
  8
0
 62
     9
 10
0.0
 20
0.0
 30
0.0
 70
   128
 71
    13
 72
    17
 73
    15
  0
VERTEX
  5
383
  8
0
 62
     9
 10
0.0
 20
0.0
 30
0.0
 70
   128
 71
    10
 72
    13
 73
    12
  0
VERTEX
  5
384
  8
0
 62
     9
 10
0.0
 20
0.0
 30
0.0
 70
   128
 71
     7
 72
    10
 73
     9
  0
VERTEX
  5
385
  8
0
 62
     9
 10
0.0
 20
0.0
 30
0.0
 70
   128
 71
     2
 72
     7
 73
     6
  0
VERTEX
  5
386
  8
0
 62
     9
 10
0.0
 20
0.0
 30
0.0
 70
   128
 71
     1
 72
    73
 73
     3
  0
SEQEND
  5
387
  8
0
 62
     9
  0
ENDBLK
  5
38A
  8
0
  0
BLOCK
  8
0
  2
E3_NODE_15_
 70
     0
 10
0.0
 20
0.0
 30
0.0
  3
E3_NODE_15_
  1

  0
POLYLINE
  5
38C
  8
0
 62
     9
 66
     1
 10
0.0
 20
0.0
 30
0.0
 70
    64
 71
    77
 72
    90
  0
VERTEX
  5
38D
  8
0
 10
21.46599960327148
 20
4.086999893188477
 30
102.9929962158203
 70
   192
  0
VERTEX
  5
38E
  8
0
 10
24.97200012207031
 20
4.664000034332275
 30
87.15699768066406
 70
   192
  0
VERTEX
  5
38F
  8
0
 10
23.87599945068359
 20
8.70199966430664
 30
87.12799835205078
 70
   192
  0
VERTEX
  5
390
  8
0
 10
20.24300003051758
 20
8.229999542236328
 30
102.9609985351562
 70
   192
  0
VERTEX
  5
391
  8
0
 10
21.52599906921387
 20
13.42800045013428
 30
87.06700134277344
 70
   192
  0
VERTEX
  5
392
  8
0
 10
18.23200035095215
 20
12.05200004577637
 30
102.9089965820312
 70
   192
  0
VERTEX
  5
393
  8
0
 10
23.54199981689453
 20
9.373000144958496
 30
87.12000274658203
 70
   192
  0
VERTEX
  5
394
  8
0
 10
18.29899978637695
 20
17.49300003051758
 30
86.98200225830078
 70
   192
  0
VERTEX
  5
395
  8
0
 10
15.51399993896484
 20
15.40100002288818
 30
102.8379974365234
 70
   192
  0
VERTEX
  5
396
  8
0
 10
14.39299964904785
 20
20.72999954223633
 30
86.87999725341797
 70
   192
  0
VERTEX
  5
397
  8
0
 10
12.1870002746582
 20
18.1560001373291
 30
102.7509994506836
 70
   192
  0
VERTEX
  5
398
  8
0
 10
14.30799961090088
 20
20.80100059509277
 30
86.87799835205078
 70
   192
  0
VERTEX
  5
399
  8
0
 10
9.793000221252441
 20
23.18600082397461
 30
86.76000213623047
 70
   192
  0
VERTEX
  5
39A
  8
0
 10
8.38599967956543
 20
20.20499992370605
 30
102.6520004272461
 70
   192
  0
VERTEX
  5
39B
  8
0
 10
5.329999923706055
 20
24.45899963378906
 30
86.64299774169922
 70
   192
  0
VERTEX
  5
39C
  8
0
 10
4.261000156402588
 20
21.4680004119873
 30
102.5449981689453
 70
   192
  0
VERTEX
  5
39D
  8
0
 10
4.723999977111816
 20
24.63199996948242
 30
86.62699890136719
 70
   192
  0
VERTEX
  5
39E
  8
0
 10
0.3720000088214874
 20
24.55400085449219
 30
88.7969970703125
 70
   192
  0
VERTEX
  5
39F
  8
0
 10
3.723999977111816
 20
18.56900024414062
 30
117.1190032958984
 70
   192
  0
VERTEX
  5
3A0
  8
0
 10
6.929999828338623
 20
17.64299964904785
 30
116.1880035400391
 70
   192
  0
VERTEX
  5
3A1
  8
0
 10
-0.034000001847744
 20
21.88400077819824
 30
102.4300003051758
 70
   192
  0
VERTEX
  5
3A2
  8
0
 10
-0.1209999993443489
 20
21.3129997253418
 30
105.3450012207031
 70
   192
  0
VERTEX
  5
3A3
  8
0
 10
-0.5070000290870667
 20
18.76700019836426
 30
118.3460006713867
 70
   192
  0
VERTEX
  5
3A4
  8
0
 10
13.43099975585938
 20
13.78499984741211
 30
114.302001953125
 70
   192
  0
VERTEX
  5
3A5
  8
0
 10
13.48799991607666
 20
13.72900009155273
 30
114.2850036621094
 70
   192
  0
VERTEX
  5
3A6
  8
0
 10
12.2519998550415
 20
14.92500019073486
 30
114.6439971923828
 70
   192
  0
VERTEX
  5
3A7
  8
0
 10
8.201000213623047
 20
17.27499961853027
 30
115.8199996948242
 70
   192
  0
VERTEX
  5
3A8
  8
0
 10
6.934000015258789
 20
17.64100074768066
 30
116.1869964599609
 70
   192
  0
VERTEX
  5
3A9
  8
0
 10
17.93099975585938
 20
7.922999858856201
 30
112.9960021972656
 70
   192
  0
VERTEX
  5
3AA
  8
0
 10
18.03000068664551
 20
7.622000217437744
 30
112.9670028686523
 70
   192
  0
VERTEX
  5
3AB
  8
0
 10
15.52499961853027
 20
11.75699996948242
 30
113.6940002441406
 70
   192
  0
VERTEX
  5
3AC
  8
0
 10
19.3390007019043
 20
3.658999919891357
 30
112.5879974365234
 70
   192
  0
VERTEX
  5
3AD
  8
0
 10
19.70400047302246
 20
-0.0099999997764826
 30
112.4810028076172
 70
   192
  0
VERTEX
  5
3AE
  8
0
 10
21.85199928283691
 20
-0.2150000035762787
 30
103.0039978027344
 70
   192
  0
VERTEX
  5
3AF
  8
0
 10
18.07799911499023
 20
7.474999904632568
 30
112.9530029296875
 70
   192
  0
VERTEX
  5
3B0
  8
0
 10
20.08699989318848
 20
-8.630000114440918
 30
102.9580001831055
 70
   192
  0
VERTEX
  5
3B1
  8
0
 10
21.38599967956543
 20
-4.510000228881836
 30
102.9919967651367
 70
   192
  0
VERTEX
  5
3B2
  8
0
 10
19.28300094604492
 20
-3.950999975204468
 30
112.6039962768555
 70
   192
  0
VERTEX
  5
3B3
  8
0
 10
18.0629997253418
 20
-7.65500020980835
 30
112.9580001831055
 70
   192
  0
VERTEX
  5
3B4
  8
0
 10
19.68400001525879
 20
-0.1959999948740005
 30
112.4869995117188
 70
   192
  0
VERTEX
  5
3B5
  8
0
 10
18.05699920654297
 20
-7.671999931335449
 30
112.9589996337891
 70
   192
  0
VERTEX
  5
3B6
  8
0
 10
15.2209997177124
 20
-15.7209997177124
 30
102.8320007324219
 70
   192
  0
VERTEX
  5
3B7
  8
0
 10
18.0049991607666
 20
-12.41600036621094
 30
102.9039993286133
 70
   192
  0
VERTEX
  5
3B8
  8
0
 10
16.0930004119873
 20
-11.04500007629395
 30
113.5289993286133
 70
   192
  0
VERTEX
  5
3B9
  8
0
 10
13.51299953460693
 20
-13.9060001373291
 30
114.2779998779297
 70
   192
  0
VERTEX
  5
3BA
  8
0
 10
17.95700073242188
 20
-7.843999862670898
 30
112.9879989624023
 70
   192
  0
VERTEX
  5
3BB
  8
0
 10
13.50300025939941
 20
-13.91800022125244
 30
114.2809982299805
 70
   192
  0
VERTEX
  5
3BC
  8
0
 10
8.003999710083008
 20
-20.39699935913086
 30
102.6449966430664
 70
   192
  0
VERTEX
  5
3BD
  8
0
 10
9.831999778747559
 20
-16.51600074768066
 30
115.3460006713867
 70
   192
  0
VERTEX
  5
3BE
  8
0
 10
6.923999786376953
 20
-17.68499946594238
 30
116.1900024414062
 70
   192
  0
VERTEX
  5
3BF
  8
0
 10
11.8430004119873
 20
-18.41600036621094
 30
102.7440032958984
 70
   192
  0
VERTEX
  5
3C0
  8
0
 10
13.28400039672852
 20
-14.07299995422363
 30
114.3450012207031
 70
   192
  0
VERTEX
  5
3C1
  8
0
 10
5.610000133514404
 20
-18.21299934387207
 30
116.5709991455078
 70
   192
  0
VERTEX
  5
3C2
  8
0
 10
1.182999968528748
 20
-18.84900093078613
 30
117.8560028076172
 70
   192
  0
VERTEX
  5
3C3
  8
0
 10
-0.1209999993443489
 20
-21.33300018310547
 30
105.3450012207031
 70
   192
  0
VERTEX
  5
3C4
  8
0
 10
3.851999998092651
 20
-21.58399963378906
 30
102.5380020141602
 70
   192
  0
VERTEX
  5
3C5
  8
0
 10
-0.034000001847744
 20
-21.90399932861328
 30
102.4300003051758
 70
   192
  0
VERTEX
  5
3C6
  8
0
 10
6.580999851226807
 20
-17.82299995422363
 30
116.2900009155273
 70
   192
  0
VERTEX
  5
3C7
  8
0
 10
0.3709999918937683
 20
-24.57399940490723
 30
88.7969970703125
 70
   192
  0
VERTEX
  5
3C8
  8
0
 10
4.723999977111816
 20
-24.65500068664551
 30
86.62699890136719
 70
   192
  0
VERTEX
  5
3C9
  8
0
 10
9.14900016784668
 20
-23.45800018310547
 30
86.74299621582031
 70
   192
  0
VERTEX
  5
3CA
  8
0
 10
4.875
 20
-24.61400032043457
 30
86.63099670410156
 70
   192
  0
VERTEX
  5
3CB
  8
0
 10
13.8730001449585
 20
-21.10700035095215
 30
86.86699676513672
 70
   192
  0
VERTEX
  5
3CC
  8
0
 10
16.82099914550781
 20
-18.9060001373291
 30
86.94400024414062
 70
   192
  0
VERTEX
  5
3CD
  8
0
 10
17.79999923706055
 20
-17.88400077819824
 30
86.96900177001953
 70
   192
  0
VERTEX
  5
3CE
  8
0
 10
20.01199913024902
 20
-15.57299995422363
 30
87.0270004272461
 70
   192
  0
VERTEX
  5
3CF
  8
0
 10
20.9419994354248
 20
-14.10900020599365
 30
87.052001953125
 70
   192
  0
VERTEX
  5
3D0
  8
0
 10
22.8430004119873
 20
-11.11400032043457
 30
87.10099792480469
 70
   192
  0
VERTEX
  5
3D1
  8
0
 10
23.32299995422363
 20
-9.8149995803833
 30
87.11399841308594
 70
   192
  0
VERTEX
  5
3D2
  8
0
 10
24.67399978637695
 20
-6.160999774932861
 30
87.14900207519531
 70
   192
  0
VERTEX
  5
3D3
  8
0
 10
25.42499923706055
 20
-0.9309999942779541
 30
87.16899871826172
 70
   192
  0
VERTEX
  5
3D4
  8
0
 10
24.82099914550781
 20
-5.135000228881836
 30
87.15299987792969
 70
   192
  0
VERTEX
  5
3D5
  8
0
 10
25.0620002746582
 20
4.333000183105469
 30
87.16000366210938
 70
   192
  0
VERTEX
  5
3D6
  8
0
 10
25.37800025939941
 20
-0.2469999939203262
 30
87.16799926757812
 70
   192
  0
VERTEX
  5
3D7
  8
0
 10
9.600000381469727
 20
-23.23399925231934
 30
86.75499725341797
 70
   192
  0
VERTEX
  5
3D8
  8
0
 10
-0.5070000290870667
 20
-18.78700065612793
 30
118.3460006713867
 70
   192
  0
VERTEX
  5
3D9
  8
0
 10
21.27599906921387
 20
13.74400043487549
 30
87.05999755859375
 70
   192
  0
VERTEX
  5
3DA
  8
0
 62
     9
 10
0.0
 20
0.0
 30
0.0
 70
   128
 71
     3
 72
     2
 73
     1
  0
VERTEX
  5
3DB
  8
0
 62
     9
 10
0.0
 20
0.0
 30
0.0
 70
   128
 71
     1
 72
     4
 73
     3
  0
VERTEX
  5
3DC
  8
0
 62
     9
 10
0.0
 20
0.0
 30
0.0
 70
   128
 71
     4
 72
     6
 73
     5
  0
VERTEX
  5
3DD
  8
0
 62
     9
 10
0.0
 20
0.0
 30
0.0
 70
   128
 71
     5
 72
     7
 73
     4
  0
VERTEX
  5
3DE
  8
0
 62
     9
 10
0.0
 20
0.0
 30
0.0
 70
   128
 71
     6
 72
     9
 73
     8
  0
VERTEX
  5
3DF
  8
0
 62
     9
 10
0.0
 20
0.0
 30
0.0
 70
   128
 71
     9
 72
    11
 73
    10
  0
VERTEX
  5
3E0
  8
0
 62
     9
 10
0.0
 20
0.0
 30
0.0
 70
   128
 71
    14
 72
    13
 73
    12
  0
VERTEX
  5
3E1
  8
0
 62
     9
 10
0.0
 20
0.0
 30
0.0
 70
   128
 71
    12
 72
    10
 73
    11
  0
VERTEX
  5
3E2
  8
0
 62
     9
 10
0.0
 20
0.0
 30
0.0
 70
   128
 71
    16
 72
    15
 73
    13
  0
VERTEX
  5
3E3
  8
0
 62
     9
 10
0.0
 20
0.0
 30
0.0
 70
   128
 71
    18
 72
    17
 73
    16
  0
VERTEX
  5
3E4
  8
0
 62
     9
 10
0.0
 20
0.0
 30
0.0
 70
   128
 71
    17
 72
    15
 73
    16
  0
VERTEX
  5
3E5
  8
0
 62
     9
 10
0.0
 20
0.0
 30
0.0
 70
   128
 71
    20
 72
    19
 73
    16
  0
VERTEX
  5
3E6
  8
0
 62
     9
 10
0.0
 20
0.0
 30
0.0
 70
   128
 71
    16
 72
    14
 73
    20
  0
VERTEX
  5
3E7
  8
0
 62
     9
 10
0.0
 20
0.0
 30
0.0
 70
   128
 71
    22
 72
    21
 73
    19
  0
VERTEX
  5
3E8
  8
0
 62
     9
 10
0.0
 20
0.0
 30
0.0
 70
   128
 71
    19
 72
    23
 73
    22
  0
VERTEX
  5
3E9
  8
0
 62
     9
 10
0.0
 20
0.0
 30
0.0
 70
   128
 71
    25
 72
    24
 73
    11
  0
VERTEX
  5
3EA
  8
0
 62
     9
 10
0.0
 20
0.0
 30
0.0
 70
   128
 71
    24
 72
    26
 73
    11
  0
VERTEX
  5
3EB
  8
0
 62
     9
 10
0.0
 20
0.0
 30
0.0
 70
   128
 71
    11
 72
    26
 73
    27
  0
VERTEX
  5
3EC
  8
0
 62
     9
 10
0.0
 20
0.0
 30
0.0
 70
   128
 71
    28
 72
    20
 73
    14
  0
VERTEX
  5
3ED
  8
0
 62
     9
 10
0.0
 20
0.0
 30
0.0
 70
   128
 71
    14
 72
    27
 73
    28
  0
VERTEX
  5
3EE
  8
0
 62
     9
 10
0.0
 20
0.0
 30
0.0
 70
   128
 71
    27
 72
    14
 73
    11
  0
VERTEX
  5
3EF
  8
0
 62
     9
 10
0.0
 20
0.0
 30
0.0
 70
   128
 71
    30
 72
    29
 73
     4
  0
VERTEX
  5
3F0
  8
0
 62
     9
 10
0.0
 20
0.0
 30
0.0
 70
   128
 71
    29
 72
    31
 73
     6
  0
VERTEX
  5
3F1
  8
0
 62
     9
 10
0.0
 20
0.0
 30
0.0
 70
   128
 71
     6
 72
     4
 73
    29
  0
VERTEX
  5
3F2
  8
0
 62
     9
 10
0.0
 20
0.0
 30
0.0
 70
   128
 71
    31
 72
    25
 73
     9
  0
VERTEX
  5
3F3
  8
0
 62
     9
 10
0.0
 20
0.0
 30
0.0
 70
   128
 71
    31
 72
     9
 73
     6
  0
VERTEX
  5
3F4
  8
0
 62
     9
 10
0.0
 20
0.0
 30
0.0
 70
   128
 71
    33
 72
    32
 73
     1
  0
VERTEX
  5
3F5
  8
0
 62
     9
 10
0.0
 20
0.0
 30
0.0
 70
   128
 71
     1
 72
    34
 73
    33
  0
VERTEX
  5
3F6
  8
0
 62
     9
 10
0.0
 20
0.0
 30
0.0
 70
   128
 71
    32
 72
    35
 73
     4
  0
VERTEX
  5
3F7
  8
0
 62
     9
 10
0.0
 20
0.0
 30
0.0
 70
   128
 71
     4
 72
     1
 73
    32
  0
VERTEX
  5
3F8
  8
0
 62
     9
 10
0.0
 20
0.0
 30
0.0
 70
   128
 71
    38
 72
    37
 73
    36
  0
VERTEX
  5
3F9
  8
0
 62
     9
 10
0.0
 20
0.0
 30
0.0
 70
   128
 71
    36
 72
    39
 73
    38
  0
VERTEX
  5
3FA
  8
0
 62
     9
 10
0.0
 20
0.0
 30
0.0
 70
   128
 71
    40
 72
    34
 73
    37
  0
VERTEX
  5
3FB
  8
0
 62
     9
 10
0.0
 20
0.0
 30
0.0
 70
   128
 71
    37
 72
    38
 73
    40
  0
VERTEX
  5
3FC
  8
0
 62
     9
 10
0.0
 20
0.0
 30
0.0
 70
   128
 71
    36
 72
    41
 73
    39
  0
VERTEX
  5
3FD
  8
0
 62
     9
 10
0.0
 20
0.0
 30
0.0
 70
   128
 71
    44
 72
    43
 73
    42
  0
VERTEX
  5
3FE
  8
0
 62
     9
 10
0.0
 20
0.0
 30
0.0
 70
   128
 71
    42
 72
    45
 73
    44
  0
VERTEX
  5
3FF
  8
0
 62
     9
 10
0.0
 20
0.0
 30
0.0
 70
   128
 71
    46
 72
    36
 73
    43
  0
VERTEX
  5
400
  8
0
 62
     9
 10
0.0
 20
0.0
 30
0.0
 70
   128
 71
    43
 72
    44
 73
    46
  0
VERTEX
  5
401
  8
0
 62
     9
 10
0.0
 20
0.0
 30
0.0
 70
   128
 71
    42
 72
    47
 73
    45
  0
VERTEX
  5
402
  8
0
 62
     9
 10
0.0
 20
0.0
 30
0.0
 70
   128
 71
    50
 72
    49
 73
    48
  0
VERTEX
  5
403
  8
0
 62
     9
 10
0.0
 20
0.0
 30
0.0
 70
   128
 71
    52
 72
    42
 73
    51
  0
VERTEX
  5
404
  8
0
 62
     9
 10
0.0
 20
0.0
 30
0.0
 70
   128
 71
    51
 72
    48
 73
    49
  0
VERTEX
  5
405
  8
0
 62
     9
 10
0.0
 20
0.0
 30
0.0
 70
   128
 71
    51
 72
    49
 73
    52
  0
VERTEX
  5
406
  8
0
 62
     9
 10
0.0
 20
0.0
 30
0.0
 70
   128
 71
    55
 72
    54
 73
    53
  0
VERTEX
  5
407
  8
0
 62
     9
 10
0.0
 20
0.0
 30
0.0
 70
   128
 71
    53
 72
    56
 73
    55
  0
VERTEX
  5
408
  8
0
 62
     9
 10
0.0
 20
0.0
 30
0.0
 70
   128
 71
    56
 72
    57
 73
    55
  0
VERTEX
  5
409
  8
0
 62
     9
 10
0.0
 20
0.0
 30
0.0
 70
   128
 71
    58
 72
    48
 73
    56
  0
VERTEX
  5
40A
  8
0
 62
     9
 10
0.0
 20
0.0
 30
0.0
 70
   128
 71
    56
 72
    53
 73
    58
  0
VERTEX
  5
40B
  8
0
 62
     9
 10
0.0
 20
0.0
 30
0.0
 70
   128
 71
    59
 72
    57
 73
    56
  0
VERTEX
  5
40C
  8
0
 62
     9
 10
0.0
 20
0.0
 30
0.0
 70
   128
 71
    56
 72
    60
 73
    59
  0
VERTEX
  5
40D
  8
0
 62
     9
 10
0.0
 20
0.0
 30
0.0
 70
   128
 71
    56
 72
    48
 73
    61
  0
VERTEX
  5
40E
  8
0
 62
     9
 10
0.0
 20
0.0
 30
0.0
 70
   128
 71
    61
 72
    62
 73
    56
  0
VERTEX
  5
40F
  8
0
 62
     9
 10
0.0
 20
0.0
 30
0.0
 70
   128
 71
    48
 72
    51
 73
    63
  0
VERTEX
  5
410
  8
0
 62
     9
 10
0.0
 20
0.0
 30
0.0
 70
   128
 71
    64
 72
    63
 73
    51
  0
VERTEX
  5
411
  8
0
 62
     9
 10
0.0
 20
0.0
 30
0.0
 70
   128
 71
    51
 72
    42
 73
    64
  0
VERTEX
  5
412
  8
0
 62
     9
 10
0.0
 20
0.0
 30
0.0
 70
   128
 71
    66
 72
    65
 73
    42
  0
VERTEX
  5
413
  8
0
 62
     9
 10
0.0
 20
0.0
 30
0.0
 70
   128
 71
    42
 72
    43
 73
    66
  0
VERTEX
  5
414
  8
0
 62
     9
 10
0.0
 20
0.0
 30
0.0
 70
   128
 71
    68
 72
    67
 73
    43
  0
VERTEX
  5
415
  8
0
 62
     9
 10
0.0
 20
0.0
 30
0.0
 70
   128
 71
    43
 72
    36
 73
    68
  0
VERTEX
  5
416
  8
0
 62
     9
 10
0.0
 20
0.0
 30
0.0
 70
   128
 71
    70
 72
    69
 73
    36
  0
VERTEX
  5
417
  8
0
 62
     9
 10
0.0
 20
0.0
 30
0.0
 70
   128
 71
    36
 72
    37
 73
    70
  0
VERTEX
  5
418
  8
0
 62
     9
 10
0.0
 20
0.0
 30
0.0
 70
   128
 71
    37
 72
    34
 73
    71
  0
VERTEX
  5
419
  8
0
 62
     9
 10
0.0
 20
0.0
 30
0.0
 70
   128
 71
    71
 72
    72
 73
    37
  0
VERTEX
  5
41A
  8
0
 62
     9
 10
0.0
 20
0.0
 30
0.0
 70
   128
 71
    34
 72
     1
 73
    73
  0
VERTEX
  5
41B
  8
0
 62
     9
 10
0.0
 20
0.0
 30
0.0
 70
   128
 71
    73
 72
    74
 73
    34
  0
VERTEX
  5
41C
  8
0
 62
     9
 10
0.0
 20
0.0
 30
0.0
 70
   128
 71
     1
 72
     2
 73
    73
  0
VERTEX
  5
41D
  8
0
 62
     9
 10
0.0
 20
0.0
 30
0.0
 70
   128
 71
    34
 72
    74
 73
    71
  0
VERTEX
  5
41E
  8
0
 62
     9
 10
0.0
 20
0.0
 30
0.0
 70
   128
 71
    37
 72
    72
 73
    70
  0
VERTEX
  5
41F
  8
0
 62
     9
 10
0.0
 20
0.0
 30
0.0
 70
   128
 71
    36
 72
    69
 73
    68
  0
VERTEX
  5
420
  8
0
 62
     9
 10
0.0
 20
0.0
 30
0.0
 70
   128
 71
    43
 72
    67
 73
    66
  0
VERTEX
  5
421
  8
0
 62
     9
 10
0.0
 20
0.0
 30
0.0
 70
   128
 71
    42
 72
    65
 73
    64
  0
VERTEX
  5
422
  8
0
 62
     9
 10
0.0
 20
0.0
 30
0.0
 70
   128
 71
    63
 72
    75
 73
    48
  0
VERTEX
  5
423
  8
0
 62
     9
 10
0.0
 20
0.0
 30
0.0
 70
   128
 71
    48
 72
    75
 73
    61
  0
VERTEX
  5
424
  8
0
 62
     9
 10
0.0
 20
0.0
 30
0.0
 70
   128
 71
    56
 72
    62
 73
    60
  0
VERTEX
  5
425
  8
0
 62
     9
 10
0.0
 20
0.0
 30
0.0
 70
   128
 71
    55
 72
    76
 73
    54
  0
VERTEX
  5
426
  8
0
 62
     9
 10
0.0
 20
0.0
 30
0.0
 70
   128
 71
    48
 72
    58
 73
    50
  0
VERTEX
  5
427
  8
0
 62
     9
 10
0.0
 20
0.0
 30
0.0
 70
   128
 71
    42
 72
    52
 73
    47
  0
VERTEX
  5
428
  8
0
 62
     9
 10
0.0
 20
0.0
 30
0.0
 70
   128
 71
    36
 72
    46
 73
    41
  0
VERTEX
  5
429
  8
0
 62
     9
 10
0.0
 20
0.0
 30
0.0
 70
   128
 71
    34
 72
    40
 73
    33
  0
VERTEX
  5
42A
  8
0
 62
     9
 10
0.0
 20
0.0
 30
0.0
 70
   128
 71
     4
 72
    35
 73
    30
  0
VERTEX
  5
42B
  8
0
 62
     9
 10
0.0
 20
0.0
 30
0.0
 70
   128
 71
    11
 72
     9
 73
    25
  0
VERTEX
  5
42C
  8
0
 62
     9
 10
0.0
 20
0.0
 30
0.0
 70
   128
 71
    19
 72
    21
 73
    16
  0
VERTEX
  5
42D
  8
0
 62
     9
 10
0.0
 20
0.0
 30
0.0
 70
   128
 71
    16
 72
    21
 73
    18
  0
VERTEX
  5
42E
  8
0
 62
     9
 10
0.0
 20
0.0
 30
0.0
 70
   128
 71
    13
 72
    14
 73
    16
  0
VERTEX
  5
42F
  8
0
 62
     9
 10
0.0
 20
0.0
 30
0.0
 70
   128
 71
    12
 72
    11
 73
    14
  0
VERTEX
  5
430
  8
0
 62
     9
 10
0.0
 20
0.0
 30
0.0
 70
   128
 71
    10
 72
     8
 73
     9
  0
VERTEX
  5
431
  8
0
 62
     9
 10
0.0
 20
0.0
 30
0.0
 70
   128
 71
     8
 72
    77
 73
     6
  0
VERTEX
  5
432
  8
0
 62
     9
 10
0.0
 20
0.0
 30
0.0
 70
   128
 71
     6
 72
    77
 73
     5
  0
VERTEX
  5
433
  8
0
 62
     9
 10
0.0
 20
0.0
 30
0.0
 70
   128
 71
     4
 72
     7
 73
     3
  0
SEQEND
  5
434
  8
0
 62
     9
  0
ENDBLK
  5
437
  8
0
  0
BLOCK
  8
0
  2
E3_NODE_16_
 70
     0
 10
0.0
 20
0.0
 30
0.0
  3
E3_NODE_16_
  1

  0
POLYLINE
  5
439
  8
0
 62
     9
 66
     1
 10
0.0
 20
0.0
 30
0.0
 70
    64
 71
    32
 72
    30
  0
VERTEX
  5
43A
  8
0
 10
4.723999977111816
 20
24.63199996948242
 30
86.62699890136719
 70
   192
  0
VERTEX
  5
43B
  8
0
 10
-15.92899990081787
 20
-15.95600032806396
 30
96.92400360107422
 70
   192
  0
VERTEX
  5
43C
  8
0
 10
-17.83499908447266
 20
-13.64299964904785
 30
97.875
 70
   192
  0
VERTEX
  5
43D
  8
0
 10
-12.66199970245361
 20
-19.09799957275391
 30
95.29499816894531
 70
   192
  0
VERTEX
  5
43E
  8
0
 10
-14.71000003814697
 20
-17.43499946594238
 30
96.31600189208984
 70
   192
  0
VERTEX
  5
43F
  8
0
 10
-8.805999755859375
 20
21.66300010681152
 30
93.37300109863281
 70
   192
  0
VERTEX
  5
440
  8
0
 10
-4.414000034332275
 20
23.5359992980957
 30
91.18299865722656
 70
   192
  0
VERTEX
  5
441
  8
0
 10
0.3720000088214874
 20
24.55400085449219
 30
88.7969970703125
 70
   192
  0
VERTEX
  5
442
  8
0
 10
-20.40800094604492
 20
-8.428000450134277
 30
99.15699768066406
 70
   192
  0
VERTEX
  5
443
  8
0
 10
-21.51000022888184
 20
-4.78000020980835
 30
99.70700073242188
 70
   192
  0
VERTEX
  5
444
  8
0
 10
-18.52099990844727
 20
-12.35700035095215
 30
98.21600341796875
 70
   192
  0
VERTEX
  5
445
  8
0
 10
-20.13699913024902
 20
-9.32800006866455
 30
99.02200317382812
 70
   192
  0
VERTEX
  5
446
  8
0
 10
-8.781999588012695
 20
-21.64900016784668
 30
93.36100006103516
 70
   192
  0
VERTEX
  5
447
  8
0
 10
-10.84700012207031
 20
-20.57200050354004
 30
94.38999938964844
 70
   192
  0
VERTEX
  5
448
  8
0
 10
-4.814000129699707
 20
23.45100021362305
 30
91.38300323486328
 70
   192
  0
VERTEX
  5
449
  8
0
 10
-12.66699981689453
 20
19.07500076293945
 30
95.2979965209961
 70
   192
  0
VERTEX
  5
44A
  8
0
 10
-9.706000328063965
 20
21.25900077819824
 30
93.8219985961914
 70
   192
  0
VERTEX
  5
44B
  8
0
 10
-15.91199970245361
 20
15.91800022125244
 30
96.91600036621094
 70
   192
  0
VERTEX
  5
44C
  8
0
 10
-14.01000022888184
 20
18.08399963378906
 30
95.96700286865234
 70
   192
  0
VERTEX
  5
44D
  8
0
 10
-18.4950008392334
 20
12.32199954986572
 30
98.2030029296875
 70
   192
  0
VERTEX
  5
44E
  8
0
 10
-17.50799942016602
 20
14.10000038146973
 30
97.71099853515625
 70
   192
  0
VERTEX
  5
44F
  8
0
 10
-21.55999946594238
 20
4.256999969482422
 30
99.73200225830078
 70
   192
  0
VERTEX
  5
450
  8
0
 10
-21.51099967956543
 20
4.754000186920166
 30
99.70700073242188
 70
   192
  0
VERTEX
  5
451
  8
0
 10
-21.55999946594238
 20
-4.276999950408936
 30
99.73100280761719
 70
   192
  0
VERTEX
  5
452
  8
0
 10
-21.97999954223633
 20
-0.0099999997764826
 30
99.94100189208984
 70
   192
  0
VERTEX
  5
453
  8
0
 10
-20.38999938964844
 20
8.402000427246094
 30
99.14800262451172
 70
   192
  0
VERTEX
  5
454
  8
0
 10
-20.04299926757812
 20
9.531000137329102
 30
98.9749984741211
 70
   192
  0
VERTEX
  5
455
  8
0
 10
-4.38700008392334
 20
-23.47400093078613
 30
91.16999816894531
 70
   192
  0
VERTEX
  5
456
  8
0
 10
-6.359000205993652
 20
-22.91300010681152
 30
92.1520004272461
 70
   192
  0
VERTEX
  5
457
  8
0
 10
0.3709999918937683
 20
-24.57399940490723
 30
88.7969970703125
 70
   192
  0
VERTEX
  5
458
  8
0
 10
-1.39900004863739
 20
-24.32399940490723
 30
89.68000030517578
 70
   192
  0
VERTEX
  5
459
  8
0
 10
4.723999977111816
 20
-24.65500068664551
 30
86.62699890136719
 70
   192
  0
VERTEX
  5
45A
  8
0
 62
     9
 10
0.0
 20
0.0
 30
0.0
 70
   128
 71
     3
 72
     2
 73
     1
  0
VERTEX
  5
45B
  8
0
 62
     9
 10
0.0
 20
0.0
 30
0.0
 70
   128
 71
     5
 72
     4
 73
     1
  0
VERTEX
  5
45C
  8
0
 62
     9
 10
0.0
 20
0.0
 30
0.0
 70
   128
 71
     8
 72
     7
 73
     6
  0
VERTEX
  5
45D
  8
0
 62
     9
 10
0.0
 20
0.0
 30
0.0
 70
   128
 71
    10
 72
     9
 73
     1
  0
VERTEX
  5
45E
  8
0
 62
     9
 10
0.0
 20
0.0
 30
0.0
 70
   128
 71
    12
 72
    11
 73
     1
  0
VERTEX
  5
45F
  8
0
 62
     9
 10
0.0
 20
0.0
 30
0.0
 70
   128
 71
     1
 72
     2
 73
     5
  0
VERTEX
  5
460
  8
0
 62
     9
 10
0.0
 20
0.0
 30
0.0
 70
   128
 71
    14
 72
    13
 73
     1
  0
VERTEX
  5
461
  8
0
 62
     9
 10
0.0
 20
0.0
 30
0.0
 70
   128
 71
     7
 72
    15
 73
     6
  0
VERTEX
  5
462
  8
0
 62
     9
 10
0.0
 20
0.0
 30
0.0
 70
   128
 71
     6
 72
    17
 73
    16
  0
VERTEX
  5
463
  8
0
 62
     9
 10
0.0
 20
0.0
 30
0.0
 70
   128
 71
    19
 72
    18
 73
     1
  0
VERTEX
  5
464
  8
0
 62
     9
 10
0.0
 20
0.0
 30
0.0
 70
   128
 71
    21
 72
    20
 73
     1
  0
VERTEX
  5
465
  8
0
 62
     9
 10
0.0
 20
0.0
 30
0.0
 70
   128
 71
    23
 72
    22
 73
     1
  0
VERTEX
  5
466
  8
0
 62
     9
 10
0.0
 20
0.0
 30
0.0
 70
   128
 71
    25
 72
    24
 73
     1
  0
VERTEX
  5
467
  8
0
 62
     9
 10
0.0
 20
0.0
 30
0.0
 70
   128
 71
     1
 72
     9
 73
    12
  0
VERTEX
  5
468
  8
0
 62
     9
 10
0.0
 20
0.0
 30
0.0
 70
   128
 71
     1
 72
     4
 73
    14
  0
VERTEX
  5
469
  8
0
 62
     9
 10
0.0
 20
0.0
 30
0.0
 70
   128
 71
    16
 72
     1
 73
     6
  0
VERTEX
  5
46A
  8
0
 62
     9
 10
0.0
 20
0.0
 30
0.0
 70
   128
 71
     1
 72
    18
 73
    21
  0
VERTEX
  5
46B
  8
0
 62
     9
 10
0.0
 20
0.0
 30
0.0
 70
   128
 71
    27
 72
    26
 73
     1
  0
VERTEX
  5
46C
  8
0
 62
     9
 10
0.0
 20
0.0
 30
0.0
 70
   128
 71
     1
 72
    22
 73
    25
  0
VERTEX
  5
46D
  8
0
 62
     9
 10
0.0
 20
0.0
 30
0.0
 70
   128
 71
     1
 72
    11
 73
     3
  0
VERTEX
  5
46E
  8
0
 62
     9
 10
0.0
 20
0.0
 30
0.0
 70
   128
 71
    29
 72
    28
 73
     1
  0
VERTEX
  5
46F
  8
0
 62
     9
 10
0.0
 20
0.0
 30
0.0
 70
   128
 71
    31
 72
    30
 73
     1
  0
VERTEX
  5
470
  8
0
 62
     9
 10
0.0
 20
0.0
 30
0.0
 70
   128
 71
     1
 72
    16
 73
    19
  0
VERTEX
  5
471
  8
0
 62
     9
 10
0.0
 20
0.0
 30
0.0
 70
   128
 71
     1
 72
    26
 73
    23
  0
VERTEX
  5
472
  8
0
 62
     9
 10
0.0
 20
0.0
 30
0.0
 70
   128
 71
     1
 72
    13
 73
    29
  0
VERTEX
  5
473
  8
0
 62
     9
 10
0.0
 20
0.0
 30
0.0
 70
   128
 71
    30
 72
    32
 73
     1
  0
VERTEX
  5
474
  8
0
 62
     9
 10
0.0
 20
0.0
 30
0.0
 70
   128
 71
     1
 72
    20
 73
    27
  0
VERTEX
  5
475
  8
0
 62
     9
 10
0.0
 20
0.0
 30
0.0
 70
   128
 71
     1
 72
    28
 73
    31
  0
VERTEX
  5
476
  8
0
 62
     9
 10
0.0
 20
0.0
 30
0.0
 70
   128
 71
     1
 72
    24
 73
    10
  0
VERTEX
  5
477
  8
0
 62
     9
 10
0.0
 20
0.0
 30
0.0
 70
   128
 71
     6
 72
     1
 73
     8
  0
SEQEND
  5
478
  8
0
 62
     9
  0
ENDBLK
  5
47B
  8
0
  0
BLOCK
  8
0
  2
E3_NODE_17_
 70
     0
 10
0.0
 20
0.0
 30
0.0
  3
E3_NODE_17_
  1

  0
POLYLINE
  5
47D
  8
0
 62
     9
 66
     1
 10
0.0
 20
0.0
 30
0.0
 70
    64
 71
    27
 72
    25
  0
VERTEX
  5
47E
  8
0
 10
9.600000381469727
 20
-23.23399925231934
 30
86.75499725341797
 70
   192
  0
VERTEX
  5
47F
  8
0
 10
17.79999923706055
 20
-17.88400077819824
 30
86.96900177001953
 70
   192
  0
VERTEX
  5
480
  8
0
 10
16.82099914550781
 20
-18.9060001373291
 30
86.94400024414062
 70
   192
  0
VERTEX
  5
481
  8
0
 10
20.9419994354248
 20
-14.10900020599365
 30
87.052001953125
 70
   192
  0
VERTEX
  5
482
  8
0
 10
20.01199913024902
 20
-15.57299995422363
 30
87.0270004272461
 70
   192
  0
VERTEX
  5
483
  8
0
 10
23.32299995422363
 20
-9.8149995803833
 30
87.11399841308594
 70
   192
  0
VERTEX
  5
484
  8
0
 10
22.8430004119873
 20
-11.11400032043457
 30
87.10099792480469
 70
   192
  0
VERTEX
  5
485
  8
0
 10
24.82099914550781
 20
-5.135000228881836
 30
87.15299987792969
 70
   192
  0
VERTEX
  5
486
  8
0
 10
24.67399978637695
 20
-6.160999774932861
 30
87.14900207519531
 70
   192
  0
VERTEX
  5
487
  8
0
 10
4.875
 20
-24.61400032043457
 30
86.63099670410156
 70
   192
  0
VERTEX
  5
488
  8
0
 10
23.54199981689453
 20
9.373000144958496
 30
87.12000274658203
 70
   192
  0
VERTEX
  5
489
  8
0
 10
23.87599945068359
 20
8.70199966430664
 30
87.12799835205078
 70
   192
  0
VERTEX
  5
48A
  8
0
 10
21.27599906921387
 20
13.74400043487549
 30
87.05999755859375
 70
   192
  0
VERTEX
  5
48B
  8
0
 10
21.52599906921387
 20
13.42800045013428
 30
87.06700134277344
 70
   192
  0
VERTEX
  5
48C
  8
0
 10
25.37800025939941
 20
-0.2469999939203262
 30
87.16799926757812
 70
   192
  0
VERTEX
  5
48D
  8
0
 10
25.42499923706055
 20
-0.9309999942779541
 30
87.16899871826172
 70
   192
  0
VERTEX
  5
48E
  8
0
 10
24.97200012207031
 20
4.664000034332275
 30
87.15699768066406
 70
   192
  0
VERTEX
  5
48F
  8
0
 10
25.0620002746582
 20
4.333000183105469
 30
87.16000366210938
 70
   192
  0
VERTEX
  5
490
  8
0
 10
14.39299964904785
 20
20.72999954223633
 30
86.87999725341797
 70
   192
  0
VERTEX
  5
491
  8
0
 10
18.29899978637695
 20
17.49300003051758
 30
86.98200225830078
 70
   192
  0
VERTEX
  5
492
  8
0
 10
9.14900016784668
 20
-23.45800018310547
 30
86.74299621582031
 70
   192
  0
VERTEX
  5
493
  8
0
 10
5.329999923706055
 20
24.45899963378906
 30
86.64299774169922
 70
   192
  0
VERTEX
  5
494
  8
0
 10
9.793000221252441
 20
23.18600082397461
 30
86.76000213623047
 70
   192
  0
VERTEX
  5
495
  8
0
 10
13.8730001449585
 20
-21.10700035095215
 30
86.86699676513672
 70
   192
  0
VERTEX
  5
496
  8
0
 10
14.30799961090088
 20
20.80100059509277
 30
86.87799835205078
 70
   192
  0
VERTEX
  5
497
  8
0
 10
4.723999977111816
 20
24.63199996948242
 30
86.62699890136719
 70
   192
  0
VERTEX
  5
498
  8
0
 10
4.723999977111816
 20
-24.65500068664551
 30
86.62699890136719
 70
   192
  0
VERTEX
  5
499
  8
0
 62
     9
 10
0.0
 20
0.0
 30
0.0
 70
   128
 71
     3
 72
     2
 73
     1
  0
VERTEX
  5
49A
  8
0
 62
     9
 10
0.0
 20
0.0
 30
0.0
 70
   128
 71
     5
 72
     4
 73
     1
  0
VERTEX
  5
49B
  8
0
 62
     9
 10
0.0
 20
0.0
 30
0.0
 70
   128
 71
     7
 72
     6
 73
     1
  0
VERTEX
  5
49C
  8
0
 62
     9
 10
0.0
 20
0.0
 30
0.0
 70
   128
 71
     9
 72
     8
 73
     1
  0
VERTEX
  5
49D
  8
0
 62
     9
 10
0.0
 20
0.0
 30
0.0
 70
   128
 71
    12
 72
    11
 73
    10
  0
VERTEX
  5
49E
  8
0
 62
     9
 10
0.0
 20
0.0
 30
0.0
 70
   128
 71
    14
 72
    13
 73
    10
  0
VERTEX
  5
49F
  8
0
 62
     9
 10
0.0
 20
0.0
 30
0.0
 70
   128
 71
     1
 72
     2
 73
     5
  0
VERTEX
  5
4A0
  8
0
 62
     9
 10
0.0
 20
0.0
 30
0.0
 70
   128
 71
     1
 72
     6
 73
     9
  0
VERTEX
  5
4A1
  8
0
 62
     9
 10
0.0
 20
0.0
 30
0.0
 70
   128
 71
    16
 72
    15
 73
    10
  0
VERTEX
  5
4A2
  8
0
 62
     9
 10
0.0
 20
0.0
 30
0.0
 70
   128
 71
    18
 72
    17
 73
    10
  0
VERTEX
  5
4A3
  8
0
 62
     9
 10
0.0
 20
0.0
 30
0.0
 70
   128
 71
    10
 72
    11
 73
    14
  0
VERTEX
  5
4A4
  8
0
 62
     9
 10
0.0
 20
0.0
 30
0.0
 70
   128
 71
    20
 72
    19
 73
    10
  0
VERTEX
  5
4A5
  8
0
 62
     9
 10
0.0
 20
0.0
 30
0.0
 70
   128
 71
    21
 72
     1
 73
     8
  0
VERTEX
  5
4A6
  8
0
 62
     9
 10
0.0
 20
0.0
 30
0.0
 70
   128
 71
     1
 72
     4
 73
     7
  0
VERTEX
  5
4A7
  8
0
 62
     9
 10
0.0
 20
0.0
 30
0.0
 70
   128
 71
    10
 72
    15
 73
    18
  0
VERTEX
  5
4A8
  8
0
 62
     9
 10
0.0
 20
0.0
 30
0.0
 70
   128
 71
    10
 72
    13
 73
    20
  0
VERTEX
  5
4A9
  8
0
 62
     9
 10
0.0
 20
0.0
 30
0.0
 70
   128
 71
    23
 72
    22
 73
    10
  0
VERTEX
  5
4AA
  8
0
 62
     9
 10
0.0
 20
0.0
 30
0.0
 70
   128
 71
     1
 72
    24
 73
     3
  0
VERTEX
  5
4AB
  8
0
 62
     9
 10
0.0
 20
0.0
 30
0.0
 70
   128
 71
    10
 72
    17
 73
    12
  0
VERTEX
  5
4AC
  8
0
 62
     9
 10
0.0
 20
0.0
 30
0.0
 70
   128
 71
    10
 72
    25
 73
    23
  0
VERTEX
  5
4AD
  8
0
 62
     9
 10
0.0
 20
0.0
 30
0.0
 70
   128
 71
    10
 72
     8
 73
    16
  0
VERTEX
  5
4AE
  8
0
 62
     9
 10
0.0
 20
0.0
 30
0.0
 70
   128
 71
    22
 72
    26
 73
    10
  0
VERTEX
  5
4AF
  8
0
 62
     9
 10
0.0
 20
0.0
 30
0.0
 70
   128
 71
    10
 72
    19
 73
    25
  0
VERTEX
  5
4B0
  8
0
 62
     9
 10
0.0
 20
0.0
 30
0.0
 70
   128
 71
     8
 72
    10
 73
    21
  0
VERTEX
  5
4B1
  8
0
 62
     9
 10
0.0
 20
0.0
 30
0.0
 70
   128
 71
    26
 72
    27
 73
    10
  0
SEQEND
  5
4B2
  8
0
 62
     9
  0
ENDBLK
  5
4B5
  8
0
  0
BLOCK
  8
0
  2
E3_NODE_18_
 70
     0
 10
0.0
 20
0.0
 30
0.0
  3
E3_NODE_18_
  1

  0
POLYLINE
  5
4B7
  8
0
 62
     9
 66
     1
 10
0.0
 20
0.0
 30
0.0
 70
    64
 71
    48
 72
    64
  0
VERTEX
  5
4B8
  8
0
 10
15.0
 20
-0.0099999997764826
 30
96.97100067138672
 70
   192
  0
VERTEX
  5
4B9
  8
0
 10
13.85799980163574
 20
-5.75
 30
96.97100067138672
 70
   192
  0
VERTEX
  5
4BA
  8
0
 10
18.83200073242188
 20
-7.810999870300293
 30
91.19200134277344
 70
   192
  0
VERTEX
  5
4BB
  8
0
 10
20.38400077819824
 20
-0.0099999997764826
 30
91.19200134277344
 70
   192
  0
VERTEX
  5
4BC
  8
0
 10
10.60700035095215
 20
-10.61699962615967
 30
96.97100067138672
 70
   192
  0
VERTEX
  5
4BD
  8
0
 10
14.41399955749512
 20
-14.42399978637695
 30
91.19200134277344
 70
   192
  0
VERTEX
  5
4BE
  8
0
 10
5.739999771118164
 20
-13.86800003051758
 30
96.97100067138672
 70
   192
  0
VERTEX
  5
4BF
  8
0
 10
7.801000118255615
 20
-18.84199905395508
 30
91.19200134277344
 70
   192
  0
VERTEX
  5
4C0
  8
0
 10
0.0
 20
-15.01000022888184
 30
96.97100067138672
 70
   192
  0
VERTEX
  5
4C1
  8
0
 10
0.0
 20
-20.39399909973145
 30
91.19200134277344
 70
   192
  0
VERTEX
  5
4C2
  8
0
 10
-5.739999771118164
 20
-13.86800003051758
 30
96.97100067138672
 70
   192
  0
VERTEX
  5
4C3
  8
0
 10
-7.801000118255615
 20
-18.84199905395508
 30
91.19200134277344
 70
   192
  0
VERTEX
  5
4C4
  8
0
 10
-10.60700035095215
 20
-10.61699962615967
 30
96.97100067138672
 70
   192
  0
VERTEX
  5
4C5
  8
0
 10
-14.41399955749512
 20
-14.42399978637695
 30
91.19200134277344
 70
   192
  0
VERTEX
  5
4C6
  8
0
 10
-13.85799980163574
 20
-5.75
 30
96.97100067138672
 70
   192
  0
VERTEX
  5
4C7
  8
0
 10
-18.83200073242188
 20
-7.810999870300293
 30
91.19200134277344
 70
   192
  0
VERTEX
  5
4C8
  8
0
 10
-15.0
 20
-0.0099999997764826
 30
96.97100067138672
 70
   192
  0
VERTEX
  5
4C9
  8
0
 10
-20.38400077819824
 20
-0.0099999997764826
 30
91.19200134277344
 70
   192
  0
VERTEX
  5
4CA
  8
0
 10
-13.85799980163574
 20
5.730000019073486
 30
96.97100067138672
 70
   192
  0
VERTEX
  5
4CB
  8
0
 10
-18.83200073242188
 20
7.790999889373779
 30
91.19200134277344
 70
   192
  0
VERTEX
  5
4CC
  8
0
 10
-10.60700035095215
 20
10.59700012207031
 30
96.97100067138672
 70
   192
  0
VERTEX
  5
4CD
  8
0
 10
-14.41399955749512
 20
14.4040002822876
 30
91.19200134277344
 70
   192
  0
VERTEX
  5
4CE
  8
0
 10
-5.739999771118164
 20
13.84799957275391
 30
96.97100067138672
 70
   192
  0
VERTEX
  5
4CF
  8
0
 10
-7.801000118255615
 20
18.82200050354004
 30
91.19200134277344
 70
   192
  0
VERTEX
  5
4D0
  8
0
 10
0.0
 20
14.98999977111816
 30
96.97100067138672
 70
   192
  0
VERTEX
  5
4D1
  8
0
 10
0.0
 20
20.37400054931641
 30
91.19200134277344
 70
   192
  0
VERTEX
  5
4D2
  8
0
 10
5.739999771118164
 20
13.84799957275391
 30
96.97100067138672
 70
   192
  0
VERTEX
  5
4D3
  8
0
 10
7.801000118255615
 20
18.82200050354004
 30
91.19200134277344
 70
   192
  0
VERTEX
  5
4D4
  8
0
 10
10.60700035095215
 20
10.59700012207031
 30
96.97100067138672
 70
   192
  0
VERTEX
  5
4D5
  8
0
 10
14.41399955749512
 20
14.4040002822876
 30
91.19200134277344
 70
   192
  0
VERTEX
  5
4D6
  8
0
 10
13.85799980163574
 20
5.730000019073486
 30
96.97100067138672
 70
   192
  0
VERTEX
  5
4D7
  8
0
 10
18.83200073242188
 20
7.790999889373779
 30
91.19200134277344
 70
   192
  0
VERTEX
  5
4D8
  8
0
 10
21.84900093078613
 20
-9.0600004196167
 30
84.0
 70
   192
  0
VERTEX
  5
4D9
  8
0
 10
23.64900016784668
 20
-0.0099999997764826
 30
84.0
 70
   192
  0
VERTEX
  5
4DA
  8
0
 10
16.72299957275391
 20
-16.73299980163574
 30
84.0
 70
   192
  0
VERTEX
  5
4DB
  8
0
 10
9.050000190734863
 20
-21.85899925231934
 30
84.0
 70
   192
  0
VERTEX
  5
4DC
  8
0
 10
0.0
 20
-23.65900039672852
 30
84.0
 70
   192
  0
VERTEX
  5
4DD
  8
0
 10
-9.050000190734863
 20
-21.85899925231934
 30
84.0
 70
   192
  0
VERTEX
  5
4DE
  8
0
 10
-16.72299957275391
 20
-16.73299980163574
 30
84.0
 70
   192
  0
VERTEX
  5
4DF
  8
0
 10
-21.84900093078613
 20
-9.0600004196167
 30
84.0
 70
   192
  0
VERTEX
  5
4E0
  8
0
 10
-23.64900016784668
 20
-0.0099999997764826
 30
84.0
 70
   192
  0
VERTEX
  5
4E1
  8
0
 10
-21.84900093078613
 20
9.039999961853027
 30
84.0
 70
   192
  0
VERTEX
  5
4E2
  8
0
 10
-16.72299957275391
 20
16.71299934387207
 30
84.0
 70
   192
  0
VERTEX
  5
4E3
  8
0
 10
-9.050000190734863
 20
21.8390007019043
 30
84.0
 70
   192
  0
VERTEX
  5
4E4
  8
0
 10
0.0
 20
23.63899993896484
 30
84.0
 70
   192
  0
VERTEX
  5
4E5
  8
0
 10
9.050000190734863
 20
21.8390007019043
 30
84.0
 70
   192
  0
VERTEX
  5
4E6
  8
0
 10
16.72299957275391
 20
16.71299934387207
 30
84.0
 70
   192
  0
VERTEX
  5
4E7
  8
0
 10
21.84900093078613
 20
9.039999961853027
 30
84.0
 70
   192
  0
VERTEX
  5
4E8
  8
0
 62
     9
 10
0.0
 20
0.0
 30
0.0
 70
   128
 71
     3
 72
     2
 73
     1
  0
VERTEX
  5
4E9
  8
0
 62
     9
 10
0.0
 20
0.0
 30
0.0
 70
   128
 71
     4
 72
     3
 73
     1
  0
VERTEX
  5
4EA
  8
0
 62
     9
 10
0.0
 20
0.0
 30
0.0
 70
   128
 71
     6
 72
     5
 73
     2
  0
VERTEX
  5
4EB
  8
0
 62
     9
 10
0.0
 20
0.0
 30
0.0
 70
   128
 71
     3
 72
     6
 73
     2
  0
VERTEX
  5
4EC
  8
0
 62
     9
 10
0.0
 20
0.0
 30
0.0
 70
   128
 71
     8
 72
     7
 73
     5
  0
VERTEX
  5
4ED
  8
0
 62
     9
 10
0.0
 20
0.0
 30
0.0
 70
   128
 71
     6
 72
     8
 73
     5
  0
VERTEX
  5
4EE
  8
0
 62
     9
 10
0.0
 20
0.0
 30
0.0
 70
   128
 71
    10
 72
     9
 73
     7
  0
VERTEX
  5
4EF
  8
0
 62
     9
 10
0.0
 20
0.0
 30
0.0
 70
   128
 71
     8
 72
    10
 73
     7
  0
VERTEX
  5
4F0
  8
0
 62
     9
 10
0.0
 20
0.0
 30
0.0
 70
   128
 71
    12
 72
    11
 73
     9
  0
VERTEX
  5
4F1
  8
0
 62
     9
 10
0.0
 20
0.0
 30
0.0
 70
   128
 71
    10
 72
    12
 73
     9
  0
VERTEX
  5
4F2
  8
0
 62
     9
 10
0.0
 20
0.0
 30
0.0
 70
   128
 71
    14
 72
    13
 73
    11
  0
VERTEX
  5
4F3
  8
0
 62
     9
 10
0.0
 20
0.0
 30
0.0
 70
   128
 71
    12
 72
    14
 73
    11
  0
VERTEX
  5
4F4
  8
0
 62
     9
 10
0.0
 20
0.0
 30
0.0
 70
   128
 71
    16
 72
    15
 73
    13
  0
VERTEX
  5
4F5
  8
0
 62
     9
 10
0.0
 20
0.0
 30
0.0
 70
   128
 71
    14
 72
    16
 73
    13
  0
VERTEX
  5
4F6
  8
0
 62
     9
 10
0.0
 20
0.0
 30
0.0
 70
   128
 71
    18
 72
    17
 73
    15
  0
VERTEX
  5
4F7
  8
0
 62
     9
 10
0.0
 20
0.0
 30
0.0
 70
   128
 71
    16
 72
    18
 73
    15
  0
VERTEX
  5
4F8
  8
0
 62
     9
 10
0.0
 20
0.0
 30
0.0
 70
   128
 71
    20
 72
    19
 73
    17
  0
VERTEX
  5
4F9
  8
0
 62
     9
 10
0.0
 20
0.0
 30
0.0
 70
   128
 71
    18
 72
    20
 73
    17
  0
VERTEX
  5
4FA
  8
0
 62
     9
 10
0.0
 20
0.0
 30
0.0
 70
   128
 71
    22
 72
    21
 73
    19
  0
VERTEX
  5
4FB
  8
0
 62
     9
 10
0.0
 20
0.0
 30
0.0
 70
   128
 71
    20
 72
    22
 73
    19
  0
VERTEX
  5
4FC
  8
0
 62
     9
 10
0.0
 20
0.0
 30
0.0
 70
   128
 71
    24
 72
    23
 73
    21
  0
VERTEX
  5
4FD
  8
0
 62
     9
 10
0.0
 20
0.0
 30
0.0
 70
   128
 71
    22
 72
    24
 73
    21
  0
VERTEX
  5
4FE
  8
0
 62
     9
 10
0.0
 20
0.0
 30
0.0
 70
   128
 71
    26
 72
    25
 73
    23
  0
VERTEX
  5
4FF
  8
0
 62
     9
 10
0.0
 20
0.0
 30
0.0
 70
   128
 71
    24
 72
    26
 73
    23
  0
VERTEX
  5
500
  8
0
 62
     9
 10
0.0
 20
0.0
 30
0.0
 70
   128
 71
    28
 72
    27
 73
    25
  0
VERTEX
  5
501
  8
0
 62
     9
 10
0.0
 20
0.0
 30
0.0
 70
   128
 71
    26
 72
    28
 73
    25
  0
VERTEX
  5
502
  8
0
 62
     9
 10
0.0
 20
0.0
 30
0.0
 70
   128
 71
    30
 72
    29
 73
    27
  0
VERTEX
  5
503
  8
0
 62
     9
 10
0.0
 20
0.0
 30
0.0
 70
   128
 71
    28
 72
    30
 73
    27
  0
VERTEX
  5
504
  8
0
 62
     9
 10
0.0
 20
0.0
 30
0.0
 70
   128
 71
    32
 72
    31
 73
    29
  0
VERTEX
  5
505
  8
0
 62
     9
 10
0.0
 20
0.0
 30
0.0
 70
   128
 71
    30
 72
    32
 73
    29
  0
VERTEX
  5
506
  8
0
 62
     9
 10
0.0
 20
0.0
 30
0.0
 70
   128
 71
     4
 72
     1
 73
    31
  0
VERTEX
  5
507
  8
0
 62
     9
 10
0.0
 20
0.0
 30
0.0
 70
   128
 71
    32
 72
     4
 73
    31
  0
VERTEX
  5
508
  8
0
 62
     9
 10
0.0
 20
0.0
 30
0.0
 70
   128
 71
    33
 72
     3
 73
     4
  0
VERTEX
  5
509
  8
0
 62
     9
 10
0.0
 20
0.0
 30
0.0
 70
   128
 71
    34
 72
    33
 73
     4
  0
VERTEX
  5
50A
  8
0
 62
     9
 10
0.0
 20
0.0
 30
0.0
 70
   128
 71
    35
 72
     6
 73
     3
  0
VERTEX
  5
50B
  8
0
 62
     9
 10
0.0
 20
0.0
 30
0.0
 70
   128
 71
    33
 72
    35
 73
     3
  0
VERTEX
  5
50C
  8
0
 62
     9
 10
0.0
 20
0.0
 30
0.0
 70
   128
 71
    36
 72
     8
 73
     6
  0
VERTEX
  5
50D
  8
0
 62
     9
 10
0.0
 20
0.0
 30
0.0
 70
   128
 71
    35
 72
    36
 73
     6
  0
VERTEX
  5
50E
  8
0
 62
     9
 10
0.0
 20
0.0
 30
0.0
 70
   128
 71
    37
 72
    10
 73
     8
  0
VERTEX
  5
50F
  8
0
 62
     9
 10
0.0
 20
0.0
 30
0.0
 70
   128
 71
    36
 72
    37
 73
     8
  0
VERTEX
  5
510
  8
0
 62
     9
 10
0.0
 20
0.0
 30
0.0
 70
   128
 71
    38
 72
    12
 73
    10
  0
VERTEX
  5
511
  8
0
 62
     9
 10
0.0
 20
0.0
 30
0.0
 70
   128
 71
    37
 72
    38
 73
    10
  0
VERTEX
  5
512
  8
0
 62
     9
 10
0.0
 20
0.0
 30
0.0
 70
   128
 71
    39
 72
    14
 73
    12
  0
VERTEX
  5
513
  8
0
 62
     9
 10
0.0
 20
0.0
 30
0.0
 70
   128
 71
    38
 72
    39
 73
    12
  0
VERTEX
  5
514
  8
0
 62
     9
 10
0.0
 20
0.0
 30
0.0
 70
   128
 71
    40
 72
    16
 73
    14
  0
VERTEX
  5
515
  8
0
 62
     9
 10
0.0
 20
0.0
 30
0.0
 70
   128
 71
    39
 72
    40
 73
    14
  0
VERTEX
  5
516
  8
0
 62
     9
 10
0.0
 20
0.0
 30
0.0
 70
   128
 71
    41
 72
    18
 73
    16
  0
VERTEX
  5
517
  8
0
 62
     9
 10
0.0
 20
0.0
 30
0.0
 70
   128
 71
    40
 72
    41
 73
    16
  0
VERTEX
  5
518
  8
0
 62
     9
 10
0.0
 20
0.0
 30
0.0
 70
   128
 71
    42
 72
    20
 73
    18
  0
VERTEX
  5
519
  8
0
 62
     9
 10
0.0
 20
0.0
 30
0.0
 70
   128
 71
    41
 72
    42
 73
    18
  0
VERTEX
  5
51A
  8
0
 62
     9
 10
0.0
 20
0.0
 30
0.0
 70
   128
 71
    43
 72
    22
 73
    20
  0
VERTEX
  5
51B
  8
0
 62
     9
 10
0.0
 20
0.0
 30
0.0
 70
   128
 71
    42
 72
    43
 73
    20
  0
VERTEX
  5
51C
  8
0
 62
     9
 10
0.0
 20
0.0
 30
0.0
 70
   128
 71
    44
 72
    24
 73
    22
  0
VERTEX
  5
51D
  8
0
 62
     9
 10
0.0
 20
0.0
 30
0.0
 70
   128
 71
    43
 72
    44
 73
    22
  0
VERTEX
  5
51E
  8
0
 62
     9
 10
0.0
 20
0.0
 30
0.0
 70
   128
 71
    45
 72
    26
 73
    24
  0
VERTEX
  5
51F
  8
0
 62
     9
 10
0.0
 20
0.0
 30
0.0
 70
   128
 71
    44
 72
    45
 73
    24
  0
VERTEX
  5
520
  8
0
 62
     9
 10
0.0
 20
0.0
 30
0.0
 70
   128
 71
    46
 72
    28
 73
    26
  0
VERTEX
  5
521
  8
0
 62
     9
 10
0.0
 20
0.0
 30
0.0
 70
   128
 71
    45
 72
    46
 73
    26
  0
VERTEX
  5
522
  8
0
 62
     9
 10
0.0
 20
0.0
 30
0.0
 70
   128
 71
    47
 72
    30
 73
    28
  0
VERTEX
  5
523
  8
0
 62
     9
 10
0.0
 20
0.0
 30
0.0
 70
   128
 71
    46
 72
    47
 73
    28
  0
VERTEX
  5
524
  8
0
 62
     9
 10
0.0
 20
0.0
 30
0.0
 70
   128
 71
    48
 72
    32
 73
    30
  0
VERTEX
  5
525
  8
0
 62
     9
 10
0.0
 20
0.0
 30
0.0
 70
   128
 71
    47
 72
    48
 73
    30
  0
VERTEX
  5
526
  8
0
 62
     9
 10
0.0
 20
0.0
 30
0.0
 70
   128
 71
    34
 72
     4
 73
    32
  0
VERTEX
  5
527
  8
0
 62
     9
 10
0.0
 20
0.0
 30
0.0
 70
   128
 71
    48
 72
    34
 73
    32
  0
SEQEND
  5
528
  8
0
 62
     9
  0
ENDBLK
  5
52B
  8
0
  0
BLOCK
  8
0
  2
E3_NODE_19_
 70
     0
 10
0.0
 20
0.0
 30
0.0
  3
E3_NODE_19_
  1

  0
POLYLINE
  5
52D
  8
0
 62
     9
 66
     1
 10
0.0
 20
0.0
 30
0.0
 70
    64
 71
    18
 72
    23
  0
VERTEX
  5
52E
  8
0
 10
-24.60899925231934
 20
1.654000043869019
 30
20.14999961853027
 70
   192
  0
VERTEX
  5
52F
  8
0
 10
-23.51300048828125
 20
-0.0099999997764826
 30
20.6609992980957
 70
   192
  0
VERTEX
  5
530
  8
0
 10
-24.05699920654297
 20
-0.0099999997764826
 30
18.51499938964844
 70
   192
  0
VERTEX
  5
531
  8
0
 10
-26.38199996948242
 20
1.019000053405762
 30
19.32299995422363
 70
   192
  0
VERTEX
  5
532
  8
0
 10
-24.27599906921387
 20
0.3230000138282776
 30
18.41300010681152
 70
   192
  0
VERTEX
  5
533
  8
0
 10
-24.63100051879883
 20
0.1959999948740005
 30
18.24799919128418
 70
   192
  0
VERTEX
  5
534
  8
0
 10
-24.63100051879883
 20
-0.2160000056028366
 30
18.24799919128418
 70
   192
  0
VERTEX
  5
535
  8
0
 10
-26.38199996948242
 20
-1.039000034332275
 30
19.32299995422363
 70
   192
  0
VERTEX
  5
536
  8
0
 10
-24.27599906921387
 20
-0.3429999947547913
 30
18.41300010681152
 70
   192
  0
VERTEX
  5
537
  8
0
 10
-24.60899925231934
 20
-1.674000024795532
 30
20.14999961853027
 70
   192
  0
VERTEX
  5
538
  8
0
 10
-25.72500038146973
 20
0.3230000138282776
 30
21.52099990844727
 70
   192
  0
VERTEX
  5
539
  8
0
 10
-25.50600051879883
 20
-0.0099999997764826
 30
21.62299919128418
 70
   192
  0
VERTEX
  5
53A
  8
0
 10
-26.07999992370605
 20
0.1959999948740005
 30
21.35600090026855
 70
   192
  0
VERTEX
  5
53B
  8
0
 10
-25.80900001525879
 20
0.2930000126361847
 30
21.48200035095215
 70
   192
  0
VERTEX
  5
53C
  8
0
 10
-26.07999992370605
 20
-0.0099999997764826
 30
21.35600090026855
 70
   192
  0
VERTEX
  5
53D
  8
0
 10
-26.07999992370605
 20
-0.2160000056028366
 30
21.35600090026855
 70
   192
  0
VERTEX
  5
53E
  8
0
 10
-25.80900001525879
 20
-0.3129999935626984
 30
21.48200035095215
 70
   192
  0
VERTEX
  5
53F
  8
0
 10
-25.72500038146973
 20
-0.3429999947547913
 30
21.52099990844727
 70
   192
  0
VERTEX
  5
540
  8
0
 62
     9
 10
0.0
 20
0.0
 30
0.0
 70
   128
 71
     3
 72
     2
 73
     1
  0
VERTEX
  5
541
  8
0
 62
     9
 10
0.0
 20
0.0
 30
0.0
 70
   128
 71
     5
 72
     1
 73
     4
  0
VERTEX
  5
542
  8
0
 62
     9
 10
0.0
 20
0.0
 30
0.0
 70
   128
 71
     7
 72
     6
 73
     4
  0
VERTEX
  5
543
  8
0
 62
     9
 10
0.0
 20
0.0
 30
0.0
 70
   128
 71
     9
 72
     7
 73
     8
  0
VERTEX
  5
544
  8
0
 62
     9
 10
0.0
 20
0.0
 30
0.0
 70
   128
 71
     3
 72
     9
 73
    10
  0
VERTEX
  5
545
  8
0
 62
     9
 10
0.0
 20
0.0
 30
0.0
 70
   128
 71
    12
 72
    11
 73
     1
  0
VERTEX
  5
546
  8
0
 62
     9
 10
0.0
 20
0.0
 30
0.0
 70
   128
 71
    14
 72
    13
 73
     4
  0
VERTEX
  5
547
  8
0
 62
     9
 10
0.0
 20
0.0
 30
0.0
 70
   128
 71
     4
 72
     1
 73
    14
  0
VERTEX
  5
548
  8
0
 62
     9
 10
0.0
 20
0.0
 30
0.0
 70
   128
 71
    15
 72
     8
 73
     4
  0
VERTEX
  5
549
  8
0
 62
     9
 10
0.0
 20
0.0
 30
0.0
 70
   128
 71
    15
 72
    16
 73
     8
  0
VERTEX
  5
54A
  8
0
 62
     9
 10
0.0
 20
0.0
 30
0.0
 70
   128
 71
    17
 72
    10
 73
     8
  0
VERTEX
  5
54B
  8
0
 62
     9
 10
0.0
 20
0.0
 30
0.0
 70
   128
 71
    17
 72
    18
 73
    10
  0
VERTEX
  5
54C
  8
0
 62
     9
 10
0.0
 20
0.0
 30
0.0
 70
   128
 71
    12
 72
     2
 73
    10
  0
VERTEX
  5
54D
  8
0
 62
     9
 10
0.0
 20
0.0
 30
0.0
 70
   128
 71
    10
 72
    18
 73
    12
  0
VERTEX
  5
54E
  8
0
 62
     9
 10
0.0
 20
0.0
 30
0.0
 70
   128
 71
     8
 72
    16
 73
    17
  0
VERTEX
  5
54F
  8
0
 62
     9
 10
0.0
 20
0.0
 30
0.0
 70
   128
 71
     4
 72
    13
 73
    15
  0
VERTEX
  5
550
  8
0
 62
     9
 10
0.0
 20
0.0
 30
0.0
 70
   128
 71
     1
 72
    11
 73
    14
  0
VERTEX
  5
551
  8
0
 62
     9
 10
0.0
 20
0.0
 30
0.0
 70
   128
 71
     1
 72
     2
 73
    12
  0
VERTEX
  5
552
  8
0
 62
     9
 10
0.0
 20
0.0
 30
0.0
 70
   128
 71
    10
 72
     2
 73
     3
  0
VERTEX
  5
553
  8
0
 62
     9
 10
0.0
 20
0.0
 30
0.0
 70
   128
 71
     8
 72
    10
 73
     9
  0
VERTEX
  5
554
  8
0
 62
     9
 10
0.0
 20
0.0
 30
0.0
 70
   128
 71
     4
 72
     8
 73
     7
  0
VERTEX
  5
555
  8
0
 62
     9
 10
0.0
 20
0.0
 30
0.0
 70
   128
 71
     4
 72
     6
 73
     5
  0
VERTEX
  5
556
  8
0
 62
     9
 10
0.0
 20
0.0
 30
0.0
 70
   128
 71
     1
 72
     5
 73
     3
  0
SEQEND
  5
557
  8
0
 62
     9
  0
ENDBLK
  5
55A
  8
0
  0
BLOCK
  8
0
  2
E3_NODE_20_
 70
     0
 10
0.0
 20
0.0
 30
0.0
  3
E3_NODE_20_
  1

  0
POLYLINE
  5
55C
  8
0
 62
     9
 66
     1
 10
0.0
 20
0.0
 30
0.0
 70
    64
 71
    20
 72
    20
  0
VERTEX
  5
55D
  8
0
 10
-26.31999969482422
 20
0.0040000001899898
 30
21.71199989318848
 70
   192
  0
VERTEX
  5
55E
  8
0
 10
-26.24200057983398
 20
0.2189999967813492
 30
21.74799919128418
 70
   192
  0
VERTEX
  5
55F
  8
0
 10
-26.07999992370605
 20
0.1959999948740005
 30
21.35600090026855
 70
   192
  0
VERTEX
  5
560
  8
0
 10
-26.07999992370605
 20
-0.0099999997764826
 30
21.35600090026855
 70
   192
  0
VERTEX
  5
561
  8
0
 10
-26.31900024414062
 20
-0.0099999997764826
 30
21.71199989318848
 70
   192
  0
VERTEX
  5
562
  8
0
 10
-26.08799934387207
 20
0.2509999871253967
 30
21.81999969482422
 70
   192
  0
VERTEX
  5
563
  8
0
 10
-25.80900001525879
 20
0.2930000126361847
 30
21.48200035095215
 70
   192
  0
VERTEX
  5
564
  8
0
 10
-25.50600051879883
 20
-0.0099999997764826
 30
21.62299919128418
 70
   192
  0
VERTEX
  5
565
  8
0
 10
-25.72500038146973
 20
0.3230000138282776
 30
21.52099990844727
 70
   192
  0
VERTEX
  5
566
  8
0
 10
-25.85199928283691
 20
0.2980000078678131
 30
21.93000030517578
 70
   192
  0
VERTEX
  5
567
  8
0
 10
-25.99099922180176
 20
0.2700000107288361
 30
21.86499977111816
 70
   192
  0
VERTEX
  5
568
  8
0
 10
-25.72500038146973
 20
-0.3429999947547913
 30
21.52099990844727
 70
   192
  0
VERTEX
  5
569
  8
0
 10
-25.77700042724609
 20
-0.1679999977350235
 30
21.96500015258789
 70
   192
  0
VERTEX
  5
56A
  8
0
 10
-26.00799942016602
 20
-0.3510000109672546
 30
21.85700035095215
 70
   192
  0
VERTEX
  5
56B
  8
0
 10
-25.80900001525879
 20
-0.3129999935626984
 30
21.48200035095215
 70
   192
  0
VERTEX
  5
56C
  8
0
 10
-25.69700050354004
 20
-0.1040000021457672
 30
22.00200080871582
 70
   192
  0
VERTEX
  5
56D
  8
0
 10
-25.72599983215332
 20
-0.028999999165535
 30
21.98900032043457
 70
   192
  0
VERTEX
  5
56E
  8
0
 10
-26.01899909973145
 20
-0.3600000143051147
 30
21.85199928283691
 70
   192
  0
VERTEX
  5
56F
  8
0
 10
-26.31500053405762
 20
-0.0689999982714653
 30
21.7140007019043
 70
   192
  0
VERTEX
  5
570
  8
0
 10
-26.07999992370605
 20
-0.2160000056028366
 30
21.35600090026855
 70
   192
  0
VERTEX
  5
571
  8
0
 62
     9
 10
0.0
 20
0.0
 30
0.0
 70
   128
 71
     3
 72
     2
 73
     1
  0
VERTEX
  5
572
  8
0
 62
     9
 10
0.0
 20
0.0
 30
0.0
 70
   128
 71
     1
 72
     5
 73
     4
  0
VERTEX
  5
573
  8
0
 62
     9
 10
0.0
 20
0.0
 30
0.0
 70
   128
 71
     6
 72
     2
 73
     3
  0
VERTEX
  5
574
  8
0
 62
     9
 10
0.0
 20
0.0
 30
0.0
 70
   128
 71
     3
 72
     7
 73
     6
  0
VERTEX
  5
575
  8
0
 62
     9
 10
0.0
 20
0.0
 30
0.0
 70
   128
 71
     1
 72
     4
 73
     3
  0
VERTEX
  5
576
  8
0
 62
     9
 10
0.0
 20
0.0
 30
0.0
 70
   128
 71
    10
 72
     9
 73
     8
  0
VERTEX
  5
577
  8
0
 62
     9
 10
0.0
 20
0.0
 30
0.0
 70
   128
 71
     9
 72
    10
 73
    11
  0
VERTEX
  5
578
  8
0
 62
     9
 10
0.0
 20
0.0
 30
0.0
 70
   128
 71
    11
 72
     7
 73
     9
  0
VERTEX
  5
579
  8
0
 62
     9
 10
0.0
 20
0.0
 30
0.0
 70
   128
 71
    13
 72
     8
 73
    12
  0
VERTEX
  5
57A
  8
0
 62
     9
 10
0.0
 20
0.0
 30
0.0
 70
   128
 71
    12
 72
    15
 73
    14
  0
VERTEX
  5
57B
  8
0
 62
     9
 10
0.0
 20
0.0
 30
0.0
 70
   128
 71
    13
 72
    16
 73
     8
  0
VERTEX
  5
57C
  8
0
 62
     9
 10
0.0
 20
0.0
 30
0.0
 70
   128
 71
    16
 72
    17
 73
     8
  0
VERTEX
  5
57D
  8
0
 62
     9
 10
0.0
 20
0.0
 30
0.0
 70
   128
 71
    20
 72
    19
 73
    18
  0
VERTEX
  5
57E
  8
0
 62
     9
 10
0.0
 20
0.0
 30
0.0
 70
   128
 71
    18
 72
    14
 73
    15
  0
VERTEX
  5
57F
  8
0
 62
     9
 10
0.0
 20
0.0
 30
0.0
 70
   128
 71
    19
 72
    20
 73
     4
  0
VERTEX
  5
580
  8
0
 62
     9
 10
0.0
 20
0.0
 30
0.0
 70
   128
 71
     4
 72
     5
 73
    19
  0
VERTEX
  5
581
  8
0
 62
     9
 10
0.0
 20
0.0
 30
0.0
 70
   128
 71
    18
 72
    15
 73
    20
  0
VERTEX
  5
582
  8
0
 62
     9
 10
0.0
 20
0.0
 30
0.0
 70
   128
 71
    12
 72
    14
 73
    13
  0
VERTEX
  5
583
  8
0
 62
     9
 10
0.0
 20
0.0
 30
0.0
 70
   128
 71
     8
 72
    17
 73
    10
  0
VERTEX
  5
584
  8
0
 62
     9
 10
0.0
 20
0.0
 30
0.0
 70
   128
 71
     7
 72
    11
 73
     6
  0
SEQEND
  5
585
  8
0
 62
     9
  0
ENDBLK
  5
588
  8
0
  0
BLOCK
  8
0
  2
E3_NODE_21_
 70
     0
 10
0.0
 20
0.0
 30
0.0
  3
E3_NODE_21_
  1

  0
POLYLINE
  5
58A
  8
0
 62
     9
 66
     1
 10
0.0
 20
0.0
 30
0.0
 70
    64
 71
    25
 72
    30
  0
VERTEX
  5
58B
  8
0
 10
-29.18099975585938
 20
-0.0099999997764826
 30
22.99799919128418
 70
   192
  0
VERTEX
  5
58C
  8
0
 10
-27.67799949645996
 20
2.273000001907349
 30
23.69799995422363
 70
   192
  0
VERTEX
  5
58D
  8
0
 10
-26.84600067138672
 20
1.710999965667725
 30
22.34700012207031
 70
   192
  0
VERTEX
  5
58E
  8
0
 10
-27.10099983215332
 20
2.065999984741211
 30
23.96699905395508
 70
   192
  0
VERTEX
  5
58F
  8
0
 10
-25.24600028991699
 20
1.401000022888184
 30
24.83200073242188
 70
   192
  0
VERTEX
  5
590
  8
0
 10
-25.01199913024902
 20
1.054000020027161
 30
23.20199966430664
 70
   192
  0
VERTEX
  5
591
  8
0
 10
-25.01199913024902
 20
-1.074000000953674
 30
23.20199966430664
 70
   192
  0
VERTEX
  5
592
  8
0
 10
-25.24600028991699
 20
-0.0099999997764826
 30
24.83200073242188
 70
   192
  0
VERTEX
  5
593
  8
0
 10
-27.10099983215332
 20
-2.085999965667725
 30
23.96699905395508
 70
   192
  0
VERTEX
  5
594
  8
0
 10
-26.84600067138672
 20
-1.730999946594238
 30
22.34700012207031
 70
   192
  0
VERTEX
  5
595
  8
0
 10
-25.24600028991699
 20
-1.421000003814697
 30
24.83200073242188
 70
   192
  0
VERTEX
  5
596
  8
0
 10
-27.97900009155273
 20
-0.0099999997764826
 30
21.81800079345703
 70
   192
  0
VERTEX
  5
597
  8
0
 10
-26.01899909973145
 20
-0.3600000143051147
 30
21.85199928283691
 70
   192
  0
VERTEX
  5
598
  8
0
 10
-26.00799942016602
 20
-0.3510000109672546
 30
21.85700035095215
 70
   192
  0
VERTEX
  5
599
  8
0
 10
-25.69700050354004
 20
-0.1040000021457672
 30
22.00200080871582
 70
   192
  0
VERTEX
  5
59A
  8
0
 10
-25.72599983215332
 20
-0.028999999165535
 30
21.98900032043457
 70
   192
  0
VERTEX
  5
59B
  8
0
 10
-25.77700042724609
 20
-0.1679999977350235
 30
21.96500015258789
 70
   192
  0
VERTEX
  5
59C
  8
0
 10
-25.85199928283691
 20
0.2980000078678131
 30
21.93000030517578
 70
   192
  0
VERTEX
  5
59D
  8
0
 10
-25.99099922180176
 20
0.2700000107288361
 30
21.86499977111816
 70
   192
  0
VERTEX
  5
59E
  8
0
 10
-26.24200057983398
 20
0.2189999967813492
 30
21.74799919128418
 70
   192
  0
VERTEX
  5
59F
  8
0
 10
-26.31999969482422
 20
0.0040000001899898
 30
21.71199989318848
 70
   192
  0
VERTEX
  5
5A0
  8
0
 10
-26.08799934387207
 20
0.2509999871253967
 30
21.81999969482422
 70
   192
  0
VERTEX
  5
5A1
  8
0
 10
-26.31500053405762
 20
-0.0689999982714653
 30
21.7140007019043
 70
   192
  0
VERTEX
  5
5A2
  8
0
 10
-26.31900024414062
 20
-0.0099999997764826
 30
21.71199989318848
 70
   192
  0
VERTEX
  5
5A3
  8
0
 10
-27.67799949645996
 20
-2.292999982833862
 30
23.69799995422363
 70
   192
  0
VERTEX
  5
5A4
  8
0
 62
     9
 10
0.0
 20
0.0
 30
0.0
 70
   128
 71
     3
 72
     2
 73
     1
  0
VERTEX
  5
5A5
  8
0
 62
     9
 10
0.0
 20
0.0
 30
0.0
 70
   128
 71
     6
 72
     5
 73
     4
  0
VERTEX
  5
5A6
  8
0
 62
     9
 10
0.0
 20
0.0
 30
0.0
 70
   128
 71
     4
 72
     2
 73
     3
  0
VERTEX
  5
5A7
  8
0
 62
     9
 10
0.0
 20
0.0
 30
0.0
 70
   128
 71
     8
 72
     6
 73
     7
  0
VERTEX
  5
5A8
  8
0
 62
     9
 10
0.0
 20
0.0
 30
0.0
 70
   128
 71
     8
 72
     5
 73
     6
  0
VERTEX
  5
5A9
  8
0
 62
     9
 10
0.0
 20
0.0
 30
0.0
 70
   128
 71
     7
 72
    10
 73
     9
  0
VERTEX
  5
5AA
  8
0
 62
     9
 10
0.0
 20
0.0
 30
0.0
 70
   128
 71
     9
 72
    11
 73
     7
  0
VERTEX
  5
5AB
  8
0
 62
     9
 10
0.0
 20
0.0
 30
0.0
 70
   128
 71
    10
 72
    12
 73
     1
  0
VERTEX
  5
5AC
  8
0
 62
     9
 10
0.0
 20
0.0
 30
0.0
 70
   128
 71
    13
 72
    10
 73
     7
  0
VERTEX
  5
5AD
  8
0
 62
     9
 10
0.0
 20
0.0
 30
0.0
 70
   128
 71
     7
 72
    14
 73
    13
  0
VERTEX
  5
5AE
  8
0
 62
     9
 10
0.0
 20
0.0
 30
0.0
 70
   128
 71
    15
 72
     7
 73
     6
  0
VERTEX
  5
5AF
  8
0
 62
     9
 10
0.0
 20
0.0
 30
0.0
 70
   128
 71
     6
 72
    16
 73
    15
  0
VERTEX
  5
5B0
  8
0
 62
     9
 10
0.0
 20
0.0
 30
0.0
 70
   128
 71
    15
 72
    17
 73
     7
  0
VERTEX
  5
5B1
  8
0
 62
     9
 10
0.0
 20
0.0
 30
0.0
 70
   128
 71
    18
 72
     6
 73
     3
  0
VERTEX
  5
5B2
  8
0
 62
     9
 10
0.0
 20
0.0
 30
0.0
 70
   128
 71
     3
 72
    19
 73
    18
  0
VERTEX
  5
5B3
  8
0
 62
     9
 10
0.0
 20
0.0
 30
0.0
 70
   128
 71
    20
 72
     3
 73
    12
  0
VERTEX
  5
5B4
  8
0
 62
     9
 10
0.0
 20
0.0
 30
0.0
 70
   128
 71
    12
 72
    21
 73
    20
  0
VERTEX
  5
5B5
  8
0
 62
     9
 10
0.0
 20
0.0
 30
0.0
 70
   128
 71
    20
 72
    22
 73
     3
  0
VERTEX
  5
5B6
  8
0
 62
     9
 10
0.0
 20
0.0
 30
0.0
 70
   128
 71
    23
 72
    12
 73
    10
  0
VERTEX
  5
5B7
  8
0
 62
     9
 10
0.0
 20
0.0
 30
0.0
 70
   128
 71
    23
 72
    24
 73
    12
  0
VERTEX
  5
5B8
  8
0
 62
     9
 10
0.0
 20
0.0
 30
0.0
 70
   128
 71
    10
 72
    13
 73
    23
  0
VERTEX
  5
5B9
  8
0
 62
     9
 10
0.0
 20
0.0
 30
0.0
 70
   128
 71
    12
 72
    24
 73
    21
  0
VERTEX
  5
5BA
  8
0
 62
     9
 10
0.0
 20
0.0
 30
0.0
 70
   128
 71
     3
 72
    22
 73
    19
  0
VERTEX
  5
5BB
  8
0
 62
     9
 10
0.0
 20
0.0
 30
0.0
 70
   128
 71
     6
 72
    18
 73
    16
  0
VERTEX
  5
5BC
  8
0
 62
     9
 10
0.0
 20
0.0
 30
0.0
 70
   128
 71
     7
 72
    17
 73
    14
  0
VERTEX
  5
5BD
  8
0
 62
     9
 10
0.0
 20
0.0
 30
0.0
 70
   128
 71
     1
 72
    25
 73
    10
  0
VERTEX
  5
5BE
  8
0
 62
     9
 10
0.0
 20
0.0
 30
0.0
 70
   128
 71
    10
 72
    25
 73
     9
  0
VERTEX
  5
5BF
  8
0
 62
     9
 10
0.0
 20
0.0
 30
0.0
 70
   128
 71
     7
 72
    11
 73
     8
  0
VERTEX
  5
5C0
  8
0
 62
     9
 10
0.0
 20
0.0
 30
0.0
 70
   128
 71
     4
 72
     3
 73
     6
  0
VERTEX
  5
5C1
  8
0
 62
     9
 10
0.0
 20
0.0
 30
0.0
 70
   128
 71
     1
 72
    12
 73
     3
  0
SEQEND
  5
5C2
  8
0
 62
     9
  0
ENDBLK
  5
5C5
  8
0
  0
BLOCK
  8
0
  2
E3_NODE_22_
 70
     0
 10
0.0
 20
0.0
 30
0.0
  3
E3_NODE_22_
  1

  0
POLYLINE
  5
5C7
  8
0
 62
     9
 66
     1
 10
0.0
 20
0.0
 30
0.0
 70
    64
 71
    20
 72
    20
  0
VERTEX
  5
5C8
  8
0
 10
-27.67799949645996
 20
2.273000001907349
 30
23.69799995422363
 70
   192
  0
VERTEX
  5
5C9
  8
0
 10
-29.18099975585938
 20
-0.0099999997764826
 30
22.99799919128418
 70
   192
  0
VERTEX
  5
5CA
  8
0
 10
-30.07500076293945
 20
0.7400000095367432
 30
25.20000076293945
 70
   192
  0
VERTEX
  5
5CB
  8
0
 10
-28.00900077819824
 20
2.390000104904175
 30
26.16300010681152
 70
   192
  0
VERTEX
  5
5CC
  8
0
 10
-27.10099983215332
 20
2.065999984741211
 30
23.96699905395508
 70
   192
  0
VERTEX
  5
5CD
  8
0
 10
-31.87400054931641
 20
-0.0099999997764826
 30
28.77400016784668
 70
   192
  0
VERTEX
  5
5CE
  8
0
 10
-31.76499938964844
 20
0.7400000095367432
 30
28.82500076293945
 70
   192
  0
VERTEX
  5
5CF
  8
0
 10
-27.52400016784668
 20
-0.0099999997764826
 30
30.80299949645996
 70
   192
  0
VERTEX
  5
5D0
  8
0
 10
-25.24600028991699
 20
-0.0099999997764826
 30
24.83200073242188
 70
   192
  0
VERTEX
  5
5D1
  8
0
 10
-25.94300079345703
 20
0.7400000095367432
 30
27.12700080871582
 70
   192
  0
VERTEX
  5
5D2
  8
0
 10
-25.24600028991699
 20
1.401000022888184
 30
24.83200073242188
 70
   192
  0
VERTEX
  5
5D3
  8
0
 10
-28.00900077819824
 20
-2.410000085830688
 30
26.16300010681152
 70
   192
  0
VERTEX
  5
5D4
  8
0
 10
-27.10099983215332
 20
-2.085999965667725
 30
23.96699905395508
 70
   192
  0
VERTEX
  5
5D5
  8
0
 10
-25.24600028991699
 20
-1.421000003814697
 30
24.83200073242188
 70
   192
  0
VERTEX
  5
5D6
  8
0
 10
-25.94300079345703
 20
-0.7599999904632568
 30
27.12700080871582
 70
   192
  0
VERTEX
  5
5D7
  8
0
 10
-27.63299942016602
 20
-0.7599999904632568
 30
30.75200080871582
 70
   192
  0
VERTEX
  5
5D8
  8
0
 10
-30.07500076293945
 20
-0.7599999904632568
 30
25.20000076293945
 70
   192
  0
VERTEX
  5
5D9
  8
0
 10
-27.67799949645996
 20
-2.292999982833862
 30
23.69799995422363
 70
   192
  0
VERTEX
  5
5DA
  8
0
 10
-31.76499938964844
 20
-0.7599999904632568
 30
28.82500076293945
 70
   192
  0
VERTEX
  5
5DB
  8
0
 10
-27.63299942016602
 20
0.7400000095367432
 30
30.75200080871582
 70
   192
  0
VERTEX
  5
5DC
  8
0
 62
     9
 10
0.0
 20
0.0
 30
0.0
 70
   128
 71
     3
 72
     2
 73
     1
  0
VERTEX
  5
5DD
  8
0
 62
     9
 10
0.0
 20
0.0
 30
0.0
 70
   128
 71
     1
 72
     5
 73
     4
  0
VERTEX
  5
5DE
  8
0
 62
     9
 10
0.0
 20
0.0
 30
0.0
 70
   128
 71
     3
 72
     7
 73
     6
  0
VERTEX
  5
5DF
  8
0
 62
     9
 10
0.0
 20
0.0
 30
0.0
 70
   128
 71
     6
 72
     2
 73
     3
  0
VERTEX
  5
5E0
  8
0
 62
     9
 10
0.0
 20
0.0
 30
0.0
 70
   128
 71
    10
 72
     9
 73
     8
  0
VERTEX
  5
5E1
  8
0
 62
     9
 10
0.0
 20
0.0
 30
0.0
 70
   128
 71
    11
 72
    10
 73
     4
  0
VERTEX
  5
5E2
  8
0
 62
     9
 10
0.0
 20
0.0
 30
0.0
 70
   128
 71
    11
 72
     9
 73
    10
  0
VERTEX
  5
5E3
  8
0
 62
     9
 10
0.0
 20
0.0
 30
0.0
 70
   128
 71
     4
 72
     5
 73
    11
  0
VERTEX
  5
5E4
  8
0
 62
     9
 10
0.0
 20
0.0
 30
0.0
 70
   128
 71
    14
 72
    13
 73
    12
  0
VERTEX
  5
5E5
  8
0
 62
     9
 10
0.0
 20
0.0
 30
0.0
 70
   128
 71
    12
 72
    15
 73
    14
  0
VERTEX
  5
5E6
  8
0
 62
     9
 10
0.0
 20
0.0
 30
0.0
 70
   128
 71
    15
 72
    16
 73
     8
  0
VERTEX
  5
5E7
  8
0
 62
     9
 10
0.0
 20
0.0
 30
0.0
 70
   128
 71
     8
 72
     9
 73
    15
  0
VERTEX
  5
5E8
  8
0
 62
     9
 10
0.0
 20
0.0
 30
0.0
 70
   128
 71
    17
 72
     2
 73
     6
  0
VERTEX
  5
5E9
  8
0
 62
     9
 10
0.0
 20
0.0
 30
0.0
 70
   128
 71
    17
 72
    12
 73
    18
  0
VERTEX
  5
5EA
  8
0
 62
     9
 10
0.0
 20
0.0
 30
0.0
 70
   128
 71
    18
 72
     2
 73
    17
  0
VERTEX
  5
5EB
  8
0
 62
     9
 10
0.0
 20
0.0
 30
0.0
 70
   128
 71
    12
 72
    13
 73
    18
  0
VERTEX
  5
5EC
  8
0
 62
     9
 10
0.0
 20
0.0
 30
0.0
 70
   128
 71
     6
 72
    19
 73
    17
  0
VERTEX
  5
5ED
  8
0
 62
     9
 10
0.0
 20
0.0
 30
0.0
 70
   128
 71
    15
 72
     9
 73
    14
  0
VERTEX
  5
5EE
  8
0
 62
     9
 10
0.0
 20
0.0
 30
0.0
 70
   128
 71
     8
 72
    20
 73
    10
  0
VERTEX
  5
5EF
  8
0
 62
     9
 10
0.0
 20
0.0
 30
0.0
 70
   128
 71
     1
 72
     4
 73
     3
  0
SEQEND
  5
5F0
  8
0
 62
     9
  0
ENDBLK
  5
5F3
  8
0
  0
BLOCK
  8
0
  2
E3_NODE_23_
 70
     0
 10
0.0
 20
0.0
 30
0.0
  3
E3_NODE_23_
  1

  0
POLYLINE
  5
5F5
  8
0
 62
     9
 66
     1
 10
0.0
 20
0.0
 30
0.0
 70
    64
 71
     6
 72
     4
  0
VERTEX
  5
5F6
  8
0
 10
-27.52400016784668
 20
-0.0099999997764826
 30
30.80299949645996
 70
   192
  0
VERTEX
  5
5F7
  8
0
 10
-27.63299942016602
 20
0.7400000095367432
 30
30.75200080871582
 70
   192
  0
VERTEX
  5
5F8
  8
0
 10
-31.76499938964844
 20
0.7400000095367432
 30
28.82500076293945
 70
   192
  0
VERTEX
  5
5F9
  8
0
 10
-31.87400054931641
 20
-0.0099999997764826
 30
28.77400016784668
 70
   192
  0
VERTEX
  5
5FA
  8
0
 10
-31.76499938964844
 20
-0.7599999904632568
 30
28.82500076293945
 70
   192
  0
VERTEX
  5
5FB
  8
0
 10
-27.63299942016602
 20
-0.7599999904632568
 30
30.75200080871582
 70
   192
  0
VERTEX
  5
5FC
  8
0
 62
     9
 10
0.0
 20
0.0
 30
0.0
 70
   128
 71
     3
 72
     2
 73
     1
  0
VERTEX
  5
5FD
  8
0
 62
     9
 10
0.0
 20
0.0
 30
0.0
 70
   128
 71
     5
 72
     4
 73
     1
  0
VERTEX
  5
5FE
  8
0
 62
     9
 10
0.0
 20
0.0
 30
0.0
 70
   128
 71
     1
 72
     6
 73
     5
  0
VERTEX
  5
5FF
  8
0
 62
     9
 10
0.0
 20
0.0
 30
0.0
 70
   128
 71
     1
 72
     4
 73
     3
  0
SEQEND
  5
600
  8
0
 62
     9
  0
ENDBLK
  5
603
  8
0
  0
BLOCK
  8
0
  2
E3_NODE_24_
 70
     0
 10
0.0
 20
0.0
 30
0.0
  3
E3_NODE_24_
  1

  0
POLYLINE
  5
605
  8
0
 62
     9
 66
     1
 10
0.0
 20
0.0
 30
0.0
 70
    64
 71
    10
 72
     8
  0
VERTEX
  5
606
  8
0
 10
-26.87599945068359
 20
0.7400000095367432
 30
26.6919994354248
 70
   192
  0
VERTEX
  5
607
  8
0
 10
-28.00900077819824
 20
2.390000104904175
 30
26.16300010681152
 70
   192
  0
VERTEX
  5
608
  8
0
 10
-29.14200019836426
 20
0.7400000095367432
 30
25.63500022888184
 70
   192
  0
VERTEX
  5
609
  8
0
 10
-29.14200019836426
 20
-0.7599999904632568
 30
25.63500022888184
 70
   192
  0
VERTEX
  5
60A
  8
0
 10
-28.00900077819824
 20
-2.410000085830688
 30
26.16300010681152
 70
   192
  0
VERTEX
  5
60B
  8
0
 10
-26.87599945068359
 20
-0.7599999904632568
 30
26.6919994354248
 70
   192
  0
VERTEX
  5
60C
  8
0
 10
-30.07500076293945
 20
0.7400000095367432
 30
25.20000076293945
 70
   192
  0
VERTEX
  5
60D
  8
0
 10
-25.94300079345703
 20
-0.7599999904632568
 30
27.12700080871582
 70
   192
  0
VERTEX
  5
60E
  8
0
 10
-25.94300079345703
 20
0.7400000095367432
 30
27.12700080871582
 70
   192
  0
VERTEX
  5
60F
  8
0
 10
-30.07500076293945
 20
-0.7599999904632568
 30
25.20000076293945
 70
   192
  0
VERTEX
  5
610
  8
0
 62
     9
 10
0.0
 20
0.0
 30
0.0
 70
   128
 71
     3
 72
     2
 73
     1
  0
VERTEX
  5
611
  8
0
 62
     9
 10
0.0
 20
0.0
 30
0.0
 70
   128
 71
     6
 72
     5
 73
     4
  0
VERTEX
  5
612
  8
0
 62
     9
 10
0.0
 20
0.0
 30
0.0
 70
   128
 71
     4
 72
     1
 73
     6
  0
VERTEX
  5
613
  8
0
 62
     9
 10
0.0
 20
0.0
 30
0.0
 70
   128
 71
     3
 72
     7
 73
     2
  0
VERTEX
  5
614
  8
0
 62
     9
 10
0.0
 20
0.0
 30
0.0
 70
   128
 71
     6
 72
     8
 73
     5
  0
VERTEX
  5
615
  8
0
 62
     9
 10
0.0
 20
0.0
 30
0.0
 70
   128
 71
     1
 72
     4
 73
     3
  0
VERTEX
  5
616
  8
0
 62
     9
 10
0.0
 20
0.0
 30
0.0
 70
   128
 71
     2
 72
     9
 73
     1
  0
VERTEX
  5
617
  8
0
 62
     9
 10
0.0
 20
0.0
 30
0.0
 70
   128
 71
     5
 72
    10
 73
     4
  0
SEQEND
  5
618
  8
0
 62
     9
  0
ENDBLK
  5
61B
  8
0
  0
BLOCK
  8
0
  2
E3_NODE_25_
 70
     0
 10
0.0
 20
0.0
 30
0.0
  3
E3_NODE_25_
  1

  0
POLYLINE
  5
61D
  8
0
 62
     9
 66
     1
 10
0.0
 20
0.0
 30
0.0
 70
    64
 71
     8
 72
     6
  0
VERTEX
  5
61E
  8
0
 10
-25.94300079345703
 20
-0.7599999904632568
 30
27.12700080871582
 70
   192
  0
VERTEX
  5
61F
  8
0
 10
-27.63299942016602
 20
-0.7599999904632568
 30
30.75200080871582
 70
   192
  0
VERTEX
  5
620
  8
0
 10
-27.90999984741211
 20
-0.7599999904632568
 30
28.90900039672852
 70
   192
  0
VERTEX
  5
621
  8
0
 10
-31.76499938964844
 20
-0.7599999904632568
 30
28.82500076293945
 70
   192
  0
VERTEX
  5
622
  8
0
 10
-30.17600059509277
 20
-0.7599999904632568
 30
27.85300064086914
 70
   192
  0
VERTEX
  5
623
  8
0
 10
-30.07500076293945
 20
-0.7599999904632568
 30
25.20000076293945
 70
   192
  0
VERTEX
  5
624
  8
0
 10
-29.14200019836426
 20
-0.7599999904632568
 30
25.63500022888184
 70
   192
  0
VERTEX
  5
625
  8
0
 10
-26.87599945068359
 20
-0.7599999904632568
 30
26.6919994354248
 70
   192
  0
VERTEX
  5
626
  8
0
 62
     9
 10
0.0
 20
0.0
 30
0.0
 70
   128
 71
     3
 72
     2
 73
     1
  0
VERTEX
  5
627
  8
0
 62
     9
 10
0.0
 20
0.0
 30
0.0
 70
   128
 71
     3
 72
     5
 73
     4
  0
VERTEX
  5
628
  8
0
 62
     9
 10
0.0
 20
0.0
 30
0.0
 70
   128
 71
     4
 72
     2
 73
     3
  0
VERTEX
  5
629
  8
0
 62
     9
 10
0.0
 20
0.0
 30
0.0
 70
   128
 71
     5
 72
     7
 73
     6
  0
VERTEX
  5
62A
  8
0
 62
     9
 10
0.0
 20
0.0
 30
0.0
 70
   128
 71
     6
 72
     4
 73
     5
  0
VERTEX
  5
62B
  8
0
 62
     9
 10
0.0
 20
0.0
 30
0.0
 70
   128
 71
     1
 72
     8
 73
     3
  0
SEQEND
  5
62C
  8
0
 62
     9
  0
ENDBLK
  5
62F
  8
0
  0
BLOCK
  8
0
  2
E3_NODE_26_
 70
     0
 10
0.0
 20
0.0
 30
0.0
  3
E3_NODE_26_
  1

  0
POLYLINE
  5
631
  8
0
 62
     9
 66
     1
 10
0.0
 20
0.0
 30
0.0
 70
    64
 71
     8
 72
     6
  0
VERTEX
  5
632
  8
0
 10
-30.07500076293945
 20
0.7400000095367432
 30
25.20000076293945
 70
   192
  0
VERTEX
  5
633
  8
0
 10
-31.76499938964844
 20
0.7400000095367432
 30
28.82500076293945
 70
   192
  0
VERTEX
  5
634
  8
0
 10
-30.17600059509277
 20
0.7400000095367432
 30
27.85300064086914
 70
   192
  0
VERTEX
  5
635
  8
0
 10
-27.63299942016602
 20
0.7400000095367432
 30
30.75200080871582
 70
   192
  0
VERTEX
  5
636
  8
0
 10
-27.90999984741211
 20
0.7400000095367432
 30
28.90900039672852
 70
   192
  0
VERTEX
  5
637
  8
0
 10
-25.94300079345703
 20
0.7400000095367432
 30
27.12700080871582
 70
   192
  0
VERTEX
  5
638
  8
0
 10
-26.87599945068359
 20
0.7400000095367432
 30
26.6919994354248
 70
   192
  0
VERTEX
  5
639
  8
0
 10
-29.14200019836426
 20
0.7400000095367432
 30
25.63500022888184
 70
   192
  0
VERTEX
  5
63A
  8
0
 62
     9
 10
0.0
 20
0.0
 30
0.0
 70
   128
 71
     3
 72
     2
 73
     1
  0
VERTEX
  5
63B
  8
0
 62
     9
 10
0.0
 20
0.0
 30
0.0
 70
   128
 71
     5
 72
     4
 73
     2
  0
VERTEX
  5
63C
  8
0
 62
     9
 10
0.0
 20
0.0
 30
0.0
 70
   128
 71
     2
 72
     3
 73
     5
  0
VERTEX
  5
63D
  8
0
 62
     9
 10
0.0
 20
0.0
 30
0.0
 70
   128
 71
     5
 72
     7
 73
     6
  0
VERTEX
  5
63E
  8
0
 62
     9
 10
0.0
 20
0.0
 30
0.0
 70
   128
 71
     6
 72
     4
 73
     5
  0
VERTEX
  5
63F
  8
0
 62
     9
 10
0.0
 20
0.0
 30
0.0
 70
   128
 71
     1
 72
     8
 73
     3
  0
SEQEND
  5
640
  8
0
 62
     9
  0
ENDBLK
  5
643
  8
0
  0
BLOCK
  8
0
  2
E3_NODE_27_
 70
     0
 10
0.0
 20
0.0
 30
0.0
  3
E3_NODE_27_
  1

  0
POLYLINE
  5
645
  8
0
 62
     9
 66
     1
 10
0.0
 20
0.0
 30
0.0
 70
    64
 71
     4
 72
     2
  0
VERTEX
  5
646
  8
0
 10
-30.17600059509277
 20
0.7400000095367432
 30
27.85300064086914
 70
   192
  0
VERTEX
  5
647
  8
0
 10
-27.90999984741211
 20
0.7400000095367432
 30
28.90900039672852
 70
   192
  0
VERTEX
  5
648
  8
0
 10
-27.90999984741211
 20
-0.7599999904632568
 30
28.90900039672852
 70
   192
  0
VERTEX
  5
649
  8
0
 10
-30.17600059509277
 20
-0.7599999904632568
 30
27.85300064086914
 70
   192
  0
VERTEX
  5
64A
  8
0
 62
     9
 10
0.0
 20
0.0
 30
0.0
 70
   128
 71
     3
 72
     2
 73
     1
  0
VERTEX
  5
64B
  8
0
 62
     9
 10
0.0
 20
0.0
 30
0.0
 70
   128
 71
     1
 72
     4
 73
     3
  0
SEQEND
  5
64C
  8
0
 62
     9
  0
ENDBLK
  5
64F
  8
0
  0
BLOCK
  8
0
  2
E3_NODE_28_
 70
     0
 10
0.0
 20
0.0
 30
0.0
  3
E3_NODE_28_
  1

  0
POLYLINE
  5
651
  8
0
 62
     9
 66
     1
 10
0.0
 20
0.0
 30
0.0
 70
    64
 71
     4
 72
     2
  0
VERTEX
  5
652
  8
0
 10
-27.90999984741211
 20
0.7400000095367432
 30
28.90900039672852
 70
   192
  0
VERTEX
  5
653
  8
0
 10
-26.87599945068359
 20
0.7400000095367432
 30
26.6919994354248
 70
   192
  0
VERTEX
  5
654
  8
0
 10
-26.87599945068359
 20
-0.7599999904632568
 30
26.6919994354248
 70
   192
  0
VERTEX
  5
655
  8
0
 10
-27.90999984741211
 20
-0.7599999904632568
 30
28.90900039672852
 70
   192
  0
VERTEX
  5
656
  8
0
 62
     9
 10
0.0
 20
0.0
 30
0.0
 70
   128
 71
     3
 72
     2
 73
     1
  0
VERTEX
  5
657
  8
0
 62
     9
 10
0.0
 20
0.0
 30
0.0
 70
   128
 71
     1
 72
     4
 73
     3
  0
SEQEND
  5
658
  8
0
 62
     9
  0
ENDBLK
  5
65B
  8
0
  0
BLOCK
  8
0
  2
E3_NODE_29_
 70
     0
 10
0.0
 20
0.0
 30
0.0
  3
E3_NODE_29_
  1

  0
POLYLINE
  5
65D
  8
0
 62
     9
 66
     1
 10
0.0
 20
0.0
 30
0.0
 70
    64
 71
     4
 72
     2
  0
VERTEX
  5
65E
  8
0
 10
-29.14200019836426
 20
0.7400000095367432
 30
25.63500022888184
 70
   192
  0
VERTEX
  5
65F
  8
0
 10
-30.17600059509277
 20
0.7400000095367432
 30
27.85300064086914
 70
   192
  0
VERTEX
  5
660
  8
0
 10
-30.17600059509277
 20
-0.7599999904632568
 30
27.85300064086914
 70
   192
  0
VERTEX
  5
661
  8
0
 10
-29.14200019836426
 20
-0.7599999904632568
 30
25.63500022888184
 70
   192
  0
VERTEX
  5
662
  8
0
 62
     9
 10
0.0
 20
0.0
 30
0.0
 70
   128
 71
     3
 72
     2
 73
     1
  0
VERTEX
  5
663
  8
0
 62
     9
 10
0.0
 20
0.0
 30
0.0
 70
   128
 71
     1
 72
     4
 73
     3
  0
SEQEND
  5
664
  8
0
 62
     9
  0
ENDBLK
  5
667
  8
0
  0
BLOCK
  8
0
  2
E3_NODE_30_
 70
     0
 10
0.0
 20
0.0
 30
0.0
  3
E3_NODE_30_
  1

  0
POLYLINE
  5
669
  8
0
 62
     9
 66
     1
 10
0.0
 20
0.0
 30
0.0
 70
    64
 71
     8
 72
     8
  0
VERTEX
  5
66A
  8
0
 10
-28.5
 20
-0.1630000025033951
 30
11.5
 70
   192
  0
VERTEX
  5
66B
  8
0
 10
-29.5
 20
-0.1630000025033951
 30
12.5
 70
   192
  0
VERTEX
  5
66C
  8
0
 10
-29.5
 20
0.1430000066757202
 30
12.5
 70
   192
  0
VERTEX
  5
66D
  8
0
 10
-28.5
 20
-0.1620000004768372
 30
13.5
 70
   192
  0
VERTEX
  5
66E
  8
0
 10
-28.5
 20
0.1430000066757202
 30
13.5
 70
   192
  0
VERTEX
  5
66F
  8
0
 10
-27.5
 20
-0.1630000025033951
 30
12.5
 70
   192
  0
VERTEX
  5
670
  8
0
 10
-27.5
 20
0.1430000066757202
 30
12.5
 70
   192
  0
VERTEX
  5
671
  8
0
 10
-28.5
 20
0.1430000066757202
 30
11.5
 70
   192
  0
VERTEX
  5
672
  8
0
 62
     9
 10
0.0
 20
0.0
 30
0.0
 70
   128
 71
     3
 72
     2
 73
     1
  0
VERTEX
  5
673
  8
0
 62
     9
 10
0.0
 20
0.0
 30
0.0
 70
   128
 71
     5
 72
     4
 73
     2
  0
VERTEX
  5
674
  8
0
 62
     9
 10
0.0
 20
0.0
 30
0.0
 70
   128
 71
     5
 72
     7
 73
     6
  0
VERTEX
  5
675
  8
0
 62
     9
 10
0.0
 20
0.0
 30
0.0
 70
   128
 71
     7
 72
     8
 73
     1
  0
VERTEX
  5
676
  8
0
 62
     9
 10
0.0
 20
0.0
 30
0.0
 70
   128
 71
     1
 72
     6
 73
     7
  0
VERTEX
  5
677
  8
0
 62
     9
 10
0.0
 20
0.0
 30
0.0
 70
   128
 71
     6
 72
     4
 73
     5
  0
VERTEX
  5
678
  8
0
 62
     9
 10
0.0
 20
0.0
 30
0.0
 70
   128
 71
     2
 72
     3
 73
     5
  0
VERTEX
  5
679
  8
0
 62
     9
 10
0.0
 20
0.0
 30
0.0
 70
   128
 71
     1
 72
     8
 73
     3
  0
SEQEND
  5
67A
  8
0
 62
     9
  0
ENDBLK
  5
67D
  8
0
  0
BLOCK
  8
0
  2
E3_NODE_31_
 70
     0
 10
0.0
 20
0.0
 30
0.0
  3
E3_NODE_31_
  1

  0
POLYLINE
  5
67F
  8
0
 62
     9
 66
     1
 10
0.0
 20
0.0
 30
0.0
 70
    64
 71
     8
 72
     8
  0
VERTEX
  5
680
  8
0
 10
-29.5
 20
-3.565999984741211
 30
12.5
 70
   192
  0
VERTEX
  5
681
  8
0
 10
-29.5
 20
-0.1630000025033951
 30
12.5
 70
   192
  0
VERTEX
  5
682
  8
0
 10
-28.5
 20
-0.1630000025033951
 30
11.5
 70
   192
  0
VERTEX
  5
683
  8
0
 10
-28.5
 20
-3.565999984741211
 30
13.5
 70
   192
  0
VERTEX
  5
684
  8
0
 10
-28.5
 20
-0.1620000004768372
 30
13.5
 70
   192
  0
VERTEX
  5
685
  8
0
 10
-27.5
 20
-3.565999984741211
 30
12.5
 70
   192
  0
VERTEX
  5
686
  8
0
 10
-27.5
 20
-0.1630000025033951
 30
12.5
 70
   192
  0
VERTEX
  5
687
  8
0
 10
-28.5
 20
-3.565999984741211
 30
11.5
 70
   192
  0
VERTEX
  5
688
  8
0
 62
     9
 10
0.0
 20
0.0
 30
0.0
 70
   128
 71
     3
 72
     2
 73
     1
  0
VERTEX
  5
689
  8
0
 62
     9
 10
0.0
 20
0.0
 30
0.0
 70
   128
 71
     2
 72
     5
 73
     4
  0
VERTEX
  5
68A
  8
0
 62
     9
 10
0.0
 20
0.0
 30
0.0
 70
   128
 71
     7
 72
     6
 73
     4
  0
VERTEX
  5
68B
  8
0
 62
     9
 10
0.0
 20
0.0
 30
0.0
 70
   128
 71
     3
 72
     8
 73
     6
  0
VERTEX
  5
68C
  8
0
 62
     9
 10
0.0
 20
0.0
 30
0.0
 70
   128
 71
     6
 72
     7
 73
     3
  0
VERTEX
  5
68D
  8
0
 62
     9
 10
0.0
 20
0.0
 30
0.0
 70
   128
 71
     4
 72
     5
 73
     7
  0
VERTEX
  5
68E
  8
0
 62
     9
 10
0.0
 20
0.0
 30
0.0
 70
   128
 71
     4
 72
     1
 73
     2
  0
VERTEX
  5
68F
  8
0
 62
     9
 10
0.0
 20
0.0
 30
0.0
 70
   128
 71
     1
 72
     8
 73
     3
  0
SEQEND
  5
690
  8
0
 62
     9
  0
ENDBLK
  5
693
  8
0
  0
BLOCK
  8
0
  2
E3_NODE_32_
 70
     0
 10
0.0
 20
0.0
 30
0.0
  3
E3_NODE_32_
  1

  0
POLYLINE
  5
695
  8
0
 62
     9
 66
     1
 10
0.0
 20
0.0
 30
0.0
 70
    64
 71
    12
 72
    16
  0
VERTEX
  5
696
  8
0
 10
-29.5
 20
-5.039000034332275
 30
14.28600025177002
 70
   192
  0
VERTEX
  5
697
  8
0
 10
-28.5
 20
-4.057000160217285
 30
14.09500026702881
 70
   192
  0
VERTEX
  5
698
  8
0
 10
-28.5
 20
-3.95199990272522
 30
13.68200016021729
 70
   192
  0
VERTEX
  5
699
  8
0
 10
-29.5
 20
-4.723999977111816
 30
13.04599952697754
 70
   192
  0
VERTEX
  5
69A
  8
0
 10
-28.5
 20
-3.565999984741211
 30
13.5
 70
   192
  0
VERTEX
  5
69B
  8
0
 10
-28.5
 20
-5.494999885559082
 30
12.40999984741211
 70
   192
  0
VERTEX
  5
69C
  8
0
 10
-28.5
 20
-6.019999980926514
 30
14.47700023651123
 70
   192
  0
VERTEX
  5
69D
  8
0
 10
-29.5
 20
-3.565999984741211
 30
12.5
 70
   192
  0
VERTEX
  5
69E
  8
0
 10
-27.5
 20
-4.723999977111816
 30
13.04599952697754
 70
   192
  0
VERTEX
  5
69F
  8
0
 10
-27.5
 20
-5.039000034332275
 30
14.28600025177002
 70
   192
  0
VERTEX
  5
6A0
  8
0
 10
-28.5
 20
-3.565999984741211
 30
11.5
 70
   192
  0
VERTEX
  5
6A1
  8
0
 10
-27.5
 20
-3.565999984741211
 30
12.5
 70
   192
  0
VERTEX
  5
6A2
  8
0
 62
     9
 10
0.0
 20
0.0
 30
0.0
 70
   128
 71
     3
 72
     2
 73
     1
  0
VERTEX
  5
6A3
  8
0
 62
     9
 10
0.0
 20
0.0
 30
0.0
 70
   128
 71
     5
 72
     3
 73
     4
  0
VERTEX
  5
6A4
  8
0
 62
     9
 10
0.0
 20
0.0
 30
0.0
 70
   128
 71
     1
 72
     7
 73
     6
  0
VERTEX
  5
6A5
  8
0
 62
     9
 10
0.0
 20
0.0
 30
0.0
 70
   128
 71
     8
 72
     4
 73
     6
  0
VERTEX
  5
6A6
  8
0
 62
     9
 10
0.0
 20
0.0
 30
0.0
 70
   128
 71
    10
 72
     9
 73
     6
  0
VERTEX
  5
6A7
  8
0
 62
     9
 10
0.0
 20
0.0
 30
0.0
 70
   128
 71
     9
 72
    12
 73
    11
  0
VERTEX
  5
6A8
  8
0
 62
     9
 10
0.0
 20
0.0
 30
0.0
 70
   128
 71
     3
 72
     9
 73
    10
  0
VERTEX
  5
6A9
  8
0
 62
     9
 10
0.0
 20
0.0
 30
0.0
 70
   128
 71
     5
 72
    12
 73
     9
  0
VERTEX
  5
6AA
  8
0
 62
     9
 10
0.0
 20
0.0
 30
0.0
 70
   128
 71
     9
 72
     3
 73
     5
  0
VERTEX
  5
6AB
  8
0
 62
     9
 10
0.0
 20
0.0
 30
0.0
 70
   128
 71
    10
 72
     2
 73
     3
  0
VERTEX
  5
6AC
  8
0
 62
     9
 10
0.0
 20
0.0
 30
0.0
 70
   128
 71
    11
 72
     6
 73
     9
  0
VERTEX
  5
6AD
  8
0
 62
     9
 10
0.0
 20
0.0
 30
0.0
 70
   128
 71
     6
 72
     7
 73
    10
  0
VERTEX
  5
6AE
  8
0
 62
     9
 10
0.0
 20
0.0
 30
0.0
 70
   128
 71
     6
 72
    11
 73
     8
  0
VERTEX
  5
6AF
  8
0
 62
     9
 10
0.0
 20
0.0
 30
0.0
 70
   128
 71
     6
 72
     4
 73
     1
  0
VERTEX
  5
6B0
  8
0
 62
     9
 10
0.0
 20
0.0
 30
0.0
 70
   128
 71
     4
 72
     8
 73
     5
  0
VERTEX
  5
6B1
  8
0
 62
     9
 10
0.0
 20
0.0
 30
0.0
 70
   128
 71
     1
 72
     4
 73
     3
  0
SEQEND
  5
6B2
  8
0
 62
     9
  0
ENDBLK
  5
6B5
  8
0
  0
BLOCK
  8
0
  2
E3_NODE_33_
 70
     0
 10
0.0
 20
0.0
 30
0.0
  3
E3_NODE_33_
  1

  0
POLYLINE
  5
6B7
  8
0
 62
     9
 66
     1
 10
0.0
 20
0.0
 30
0.0
 70
    64
 71
     8
 72
     8
  0
VERTEX
  5
6B8
  8
0
 10
-29.5
 20
-2.954999923706055
 30
25.00600051879883
 70
   192
  0
VERTEX
  5
6B9
  8
0
 10
-29.5
 20
-5.039000034332275
 30
14.28600025177002
 70
   192
  0
VERTEX
  5
6BA
  8
0
 10
-28.5
 20
-6.019999980926514
 30
14.47700023651123
 70
   192
  0
VERTEX
  5
6BB
  8
0
 10
-28.5
 20
-1.973000049591064
 30
24.81500053405762
 70
   192
  0
VERTEX
  5
6BC
  8
0
 10
-28.5
 20
-4.057000160217285
 30
14.09500026702881
 70
   192
  0
VERTEX
  5
6BD
  8
0
 10
-27.5
 20
-5.039000034332275
 30
14.28600025177002
 70
   192
  0
VERTEX
  5
6BE
  8
0
 10
-27.5
 20
-2.954999923706055
 30
25.00600051879883
 70
   192
  0
VERTEX
  5
6BF
  8
0
 10
-28.5
 20
-3.937000036239624
 30
25.19700050354004
 70
   192
  0
VERTEX
  5
6C0
  8
0
 62
     9
 10
0.0
 20
0.0
 30
0.0
 70
   128
 71
     3
 72
     2
 73
     1
  0
VERTEX
  5
6C1
  8
0
 62
     9
 10
0.0
 20
0.0
 30
0.0
 70
   128
 71
     2
 72
     5
 73
     4
  0
VERTEX
  5
6C2
  8
0
 62
     9
 10
0.0
 20
0.0
 30
0.0
 70
   128
 71
     4
 72
     5
 73
     6
  0
VERTEX
  5
6C3
  8
0
 62
     9
 10
0.0
 20
0.0
 30
0.0
 70
   128
 71
     7
 72
     6
 73
     3
  0
VERTEX
  5
6C4
  8
0
 62
     9
 10
0.0
 20
0.0
 30
0.0
 70
   128
 71
     3
 72
     8
 73
     7
  0
VERTEX
  5
6C5
  8
0
 62
     9
 10
0.0
 20
0.0
 30
0.0
 70
   128
 71
     6
 72
     7
 73
     4
  0
VERTEX
  5
6C6
  8
0
 62
     9
 10
0.0
 20
0.0
 30
0.0
 70
   128
 71
     4
 72
     1
 73
     2
  0
VERTEX
  5
6C7
  8
0
 62
     9
 10
0.0
 20
0.0
 30
0.0
 70
   128
 71
     1
 72
     8
 73
     3
  0
SEQEND
  5
6C8
  8
0
 62
     9
  0
ENDBLK
  5
6CB
  8
0
  0
BLOCK
  8
0
  2
E3_NODE_34_
 70
     0
 10
0.0
 20
0.0
 30
0.0
  3
E3_NODE_34_
  1

  0
POLYLINE
  5
6CD
  8
0
 62
     9
 66
     1
 10
0.0
 20
0.0
 30
0.0
 70
    64
 71
    16
 72
    24
  0
VERTEX
  5
6CE
  8
0
 10
-29.5
 20
2.934999942779541
 30
25.00600051879883
 70
   192
  0
VERTEX
  5
6CF
  8
0
 10
-28.5
 20
1.952999949455261
 30
24.81500053405762
 70
   192
  0
VERTEX
  5
6D0
  8
0
 10
-28.5
 20
0.8769999742507935
 30
26.22599983215332
 70
   192
  0
VERTEX
  5
6D1
  8
0
 10
-28.5
 20
-0.8970000147819519
 30
26.22599983215332
 70
   192
  0
VERTEX
  5
6D2
  8
0
 10
-29.5
 20
-1.340999960899353
 30
27.12199974060059
 70
   192
  0
VERTEX
  5
6D3
  8
0
 10
-28.5
 20
-1.973000049591064
 30
24.81500053405762
 70
   192
  0
VERTEX
  5
6D4
  8
0
 10
-28.5
 20
1.764000058174133
 30
28.01799964904785
 70
   192
  0
VERTEX
  5
6D5
  8
0
 10
-28.5
 20
3.91700005531311
 30
25.19700050354004
 70
   192
  0
VERTEX
  5
6D6
  8
0
 10
-29.5
 20
1.320999979972839
 30
27.12199974060059
 70
   192
  0
VERTEX
  5
6D7
  8
0
 10
-28.5
 20
-1.784000039100647
 30
28.01799964904785
 70
   192
  0
VERTEX
  5
6D8
  8
0
 10
-28.5
 20
-3.937000036239624
 30
25.19700050354004
 70
   192
  0
VERTEX
  5
6D9
  8
0
 10
-27.5
 20
1.320999979972839
 30
27.12199974060059
 70
   192
  0
VERTEX
  5
6DA
  8
0
 10
-27.5
 20
-1.340999960899353
 30
27.12199974060059
 70
   192
  0
VERTEX
  5
6DB
  8
0
 10
-27.5
 20
-2.954999923706055
 30
25.00600051879883
 70
   192
  0
VERTEX
  5
6DC
  8
0
 10
-27.5
 20
2.934999942779541
 30
25.00600051879883
 70
   192
  0
VERTEX
  5
6DD
  8
0
 10
-29.5
 20
-2.954999923706055
 30
25.00600051879883
 70
   192
  0
VERTEX
  5
6DE
  8
0
 62
     9
 10
0.0
 20
0.0
 30
0.0
 70
   128
 71
     3
 72
     2
 73
     1
  0
VERTEX
  5
6DF
  8
0
 62
     9
 10
0.0
 20
0.0
 30
0.0
 70
   128
 71
     5
 72
     4
 73
     3
  0
VERTEX
  5
6E0
  8
0
 62
     9
 10
0.0
 20
0.0
 30
0.0
 70
   128
 71
     6
 72
     4
 73
     5
  0
VERTEX
  5
6E1
  8
0
 62
     9
 10
0.0
 20
0.0
 30
0.0
 70
   128
 71
     1
 72
     8
 73
     7
  0
VERTEX
  5
6E2
  8
0
 62
     9
 10
0.0
 20
0.0
 30
0.0
 70
   128
 71
    10
 72
     5
 73
     9
  0
VERTEX
  5
6E3
  8
0
 62
     9
 10
0.0
 20
0.0
 30
0.0
 70
   128
 71
     5
 72
    10
 73
    11
  0
VERTEX
  5
6E4
  8
0
 62
     9
 10
0.0
 20
0.0
 30
0.0
 70
   128
 71
    12
 72
     7
 73
     8
  0
VERTEX
  5
6E5
  8
0
 62
     9
 10
0.0
 20
0.0
 30
0.0
 70
   128
 71
    13
 72
    10
 73
     7
  0
VERTEX
  5
6E6
  8
0
 62
     9
 10
0.0
 20
0.0
 30
0.0
 70
   128
 71
    14
 72
    11
 73
    10
  0
VERTEX
  5
6E7
  8
0
 62
     9
 10
0.0
 20
0.0
 30
0.0
 70
   128
 71
     2
 72
     3
 73
    12
  0
VERTEX
  5
6E8
  8
0
 62
     9
 10
0.0
 20
0.0
 30
0.0
 70
   128
 71
     4
 72
    13
 73
    12
  0
VERTEX
  5
6E9
  8
0
 62
     9
 10
0.0
 20
0.0
 30
0.0
 70
   128
 71
     4
 72
     6
 73
    14
  0
VERTEX
  5
6EA
  8
0
 62
     9
 10
0.0
 20
0.0
 30
0.0
 70
   128
 71
    14
 72
    13
 73
     4
  0
VERTEX
  5
6EB
  8
0
 62
     9
 10
0.0
 20
0.0
 30
0.0
 70
   128
 71
    12
 72
     3
 73
     4
  0
VERTEX
  5
6EC
  8
0
 62
     9
 10
0.0
 20
0.0
 30
0.0
 70
   128
 71
    12
 72
    15
 73
     2
  0
VERTEX
  5
6ED
  8
0
 62
     9
 10
0.0
 20
0.0
 30
0.0
 70
   128
 71
    10
 72
    13
 73
    14
  0
VERTEX
  5
6EE
  8
0
 62
     9
 10
0.0
 20
0.0
 30
0.0
 70
   128
 71
     7
 72
    12
 73
    13
  0
VERTEX
  5
6EF
  8
0
 62
     9
 10
0.0
 20
0.0
 30
0.0
 70
   128
 71
     8
 72
    15
 73
    12
  0
VERTEX
  5
6F0
  8
0
 62
     9
 10
0.0
 20
0.0
 30
0.0
 70
   128
 71
    11
 72
    16
 73
     5
  0
VERTEX
  5
6F1
  8
0
 62
     9
 10
0.0
 20
0.0
 30
0.0
 70
   128
 71
     9
 72
     7
 73
    10
  0
VERTEX
  5
6F2
  8
0
 62
     9
 10
0.0
 20
0.0
 30
0.0
 70
   128
 71
     7
 72
     9
 73
     1
  0
VERTEX
  5
6F3
  8
0
 62
     9
 10
0.0
 20
0.0
 30
0.0
 70
   128
 71
     5
 72
    16
 73
     6
  0
VERTEX
  5
6F4
  8
0
 62
     9
 10
0.0
 20
0.0
 30
0.0
 70
   128
 71
     3
 72
     9
 73
     5
  0
VERTEX
  5
6F5
  8
0
 62
     9
 10
0.0
 20
0.0
 30
0.0
 70
   128
 71
     1
 72
     9
 73
     3
  0
SEQEND
  5
6F6
  8
0
 62
     9
  0
ENDBLK
  5
6F9
  8
0
  0
BLOCK
  8
0
  2
E3_NODE_35_
 70
     0
 10
0.0
 20
0.0
 30
0.0
  3
E3_NODE_35_
  1

  0
POLYLINE
  5
6FB
  8
0
 62
     9
 66
     1
 10
0.0
 20
0.0
 30
0.0
 70
    64
 71
     8
 72
     8
  0
VERTEX
  5
6FC
  8
0
 10
-28.5
 20
6.0
 30
14.47700023651123
 70
   192
  0
VERTEX
  5
6FD
  8
0
 10
-29.5
 20
5.019000053405762
 30
14.28600025177002
 70
   192
  0
VERTEX
  5
6FE
  8
0
 10
-29.5
 20
2.934999942779541
 30
25.00600051879883
 70
   192
  0
VERTEX
  5
6FF
  8
0
 10
-28.5
 20
4.037000179290771
 30
14.09500026702881
 70
   192
  0
VERTEX
  5
700
  8
0
 10
-28.5
 20
1.952999949455261
 30
24.81500053405762
 70
   192
  0
VERTEX
  5
701
  8
0
 10
-27.5
 20
5.019000053405762
 30
14.28600025177002
 70
   192
  0
VERTEX
  5
702
  8
0
 10
-27.5
 20
2.934999942779541
 30
25.00600051879883
 70
   192
  0
VERTEX
  5
703
  8
0
 10
-28.5
 20
3.91700005531311
 30
25.19700050354004
 70
   192
  0
VERTEX
  5
704
  8
0
 62
     9
 10
0.0
 20
0.0
 30
0.0
 70
   128
 71
     3
 72
     2
 73
     1
  0
VERTEX
  5
705
  8
0
 62
     9
 10
0.0
 20
0.0
 30
0.0
 70
   128
 71
     3
 72
     5
 73
     4
  0
VERTEX
  5
706
  8
0
 62
     9
 10
0.0
 20
0.0
 30
0.0
 70
   128
 71
     7
 72
     6
 73
     4
  0
VERTEX
  5
707
  8
0
 62
     9
 10
0.0
 20
0.0
 30
0.0
 70
   128
 71
     7
 72
     8
 73
     1
  0
VERTEX
  5
708
  8
0
 62
     9
 10
0.0
 20
0.0
 30
0.0
 70
   128
 71
     1
 72
     6
 73
     7
  0
VERTEX
  5
709
  8
0
 62
     9
 10
0.0
 20
0.0
 30
0.0
 70
   128
 71
     4
 72
     5
 73
     7
  0
VERTEX
  5
70A
  8
0
 62
     9
 10
0.0
 20
0.0
 30
0.0
 70
   128
 71
     4
 72
     2
 73
     3
  0
VERTEX
  5
70B
  8
0
 62
     9
 10
0.0
 20
0.0
 30
0.0
 70
   128
 71
     1
 72
     8
 73
     3
  0
SEQEND
  5
70C
  8
0
 62
     9
  0
ENDBLK
  5
70F
  8
0
  0
BLOCK
  8
0
  2
E3_NODE_36_
 70
     0
 10
0.0
 20
0.0
 30
0.0
  3
E3_NODE_36_
  1

  0
POLYLINE
  5
711
  8
0
 62
     9
 66
     1
 10
0.0
 20
0.0
 30
0.0
 70
    64
 71
    12
 72
    16
  0
VERTEX
  5
712
  8
0
 10
-29.5
 20
3.546000003814697
 30
12.5
 70
   192
  0
VERTEX
  5
713
  8
0
 10
-28.5
 20
3.546000003814697
 30
13.5
 70
   192
  0
VERTEX
  5
714
  8
0
 10
-28.5
 20
3.931999921798706
 30
13.68200016021729
 70
   192
  0
VERTEX
  5
715
  8
0
 10
-29.5
 20
4.703999996185303
 30
13.04599952697754
 70
   192
  0
VERTEX
  5
716
  8
0
 10
-28.5
 20
4.037000179290771
 30
14.09500026702881
 70
   192
  0
VERTEX
  5
717
  8
0
 10
-28.5
 20
5.474999904632568
 30
12.40999984741211
 70
   192
  0
VERTEX
  5
718
  8
0
 10
-28.5
 20
3.546000003814697
 30
11.5
 70
   192
  0
VERTEX
  5
719
  8
0
 10
-29.5
 20
5.019000053405762
 30
14.28600025177002
 70
   192
  0
VERTEX
  5
71A
  8
0
 10
-27.5
 20
4.703999996185303
 30
13.04599952697754
 70
   192
  0
VERTEX
  5
71B
  8
0
 10
-27.5
 20
3.546000003814697
 30
12.5
 70
   192
  0
VERTEX
  5
71C
  8
0
 10
-28.5
 20
6.0
 30
14.47700023651123
 70
   192
  0
VERTEX
  5
71D
  8
0
 10
-27.5
 20
5.019000053405762
 30
14.28600025177002
 70
   192
  0
VERTEX
  5
71E
  8
0
 62
     9
 10
0.0
 20
0.0
 30
0.0
 70
   128
 71
     3
 72
     2
 73
     1
  0
VERTEX
  5
71F
  8
0
 62
     9
 10
0.0
 20
0.0
 30
0.0
 70
   128
 71
     5
 72
     3
 73
     4
  0
VERTEX
  5
720
  8
0
 62
     9
 10
0.0
 20
0.0
 30
0.0
 70
   128
 71
     1
 72
     7
 73
     6
  0
VERTEX
  5
721
  8
0
 62
     9
 10
0.0
 20
0.0
 30
0.0
 70
   128
 71
     8
 72
     4
 73
     6
  0
VERTEX
  5
722
  8
0
 62
     9
 10
0.0
 20
0.0
 30
0.0
 70
   128
 71
    10
 72
     9
 73
     6
  0
VERTEX
  5
723
  8
0
 62
     9
 10
0.0
 20
0.0
 30
0.0
 70
   128
 71
    12
 72
    11
 73
     6
  0
VERTEX
  5
724
  8
0
 62
     9
 10
0.0
 20
0.0
 30
0.0
 70
   128
 71
     3
 72
     9
 73
    10
  0
VERTEX
  5
725
  8
0
 62
     9
 10
0.0
 20
0.0
 30
0.0
 70
   128
 71
     5
 72
    12
 73
     9
  0
VERTEX
  5
726
  8
0
 62
     9
 10
0.0
 20
0.0
 30
0.0
 70
   128
 71
     9
 72
     3
 73
     5
  0
VERTEX
  5
727
  8
0
 62
     9
 10
0.0
 20
0.0
 30
0.0
 70
   128
 71
    10
 72
     2
 73
     3
  0
VERTEX
  5
728
  8
0
 62
     9
 10
0.0
 20
0.0
 30
0.0
 70
   128
 71
     6
 72
     9
 73
    12
  0
VERTEX
  5
729
  8
0
 62
     9
 10
0.0
 20
0.0
 30
0.0
 70
   128
 71
     6
 72
     7
 73
    10
  0
VERTEX
  5
72A
  8
0
 62
     9
 10
0.0
 20
0.0
 30
0.0
 70
   128
 71
     6
 72
    11
 73
     8
  0
VERTEX
  5
72B
  8
0
 62
     9
 10
0.0
 20
0.0
 30
0.0
 70
   128
 71
     6
 72
     4
 73
     1
  0
VERTEX
  5
72C
  8
0
 62
     9
 10
0.0
 20
0.0
 30
0.0
 70
   128
 71
     4
 72
     8
 73
     5
  0
VERTEX
  5
72D
  8
0
 62
     9
 10
0.0
 20
0.0
 30
0.0
 70
   128
 71
     1
 72
     4
 73
     3
  0
SEQEND
  5
72E
  8
0
 62
     9
  0
ENDBLK
  5
731
  8
0
  0
BLOCK
  8
0
  2
E3_NODE_37_
 70
     0
 10
0.0
 20
0.0
 30
0.0
  3
E3_NODE_37_
  1

  0
POLYLINE
  5
733
  8
0
 62
     9
 66
     1
 10
0.0
 20
0.0
 30
0.0
 70
    64
 71
     8
 72
     8
  0
VERTEX
  5
734
  8
0
 10
-29.5
 20
0.1430000066757202
 30
12.5
 70
   192
  0
VERTEX
  5
735
  8
0
 10
-29.5
 20
3.546000003814697
 30
12.5
 70
   192
  0
VERTEX
  5
736
  8
0
 10
-28.5
 20
3.546000003814697
 30
11.5
 70
   192
  0
VERTEX
  5
737
  8
0
 10
-28.5
 20
0.1430000066757202
 30
13.5
 70
   192
  0
VERTEX
  5
738
  8
0
 10
-28.5
 20
3.546000003814697
 30
13.5
 70
   192
  0
VERTEX
  5
739
  8
0
 10
-27.5
 20
3.546000003814697
 30
12.5
 70
   192
  0
VERTEX
  5
73A
  8
0
 10
-27.5
 20
0.1430000066757202
 30
12.5
 70
   192
  0
VERTEX
  5
73B
  8
0
 10
-28.5
 20
0.1430000066757202
 30
11.5
 70
   192
  0
VERTEX
  5
73C
  8
0
 62
     9
 10
0.0
 20
0.0
 30
0.0
 70
   128
 71
     3
 72
     2
 73
     1
  0
VERTEX
  5
73D
  8
0
 62
     9
 10
0.0
 20
0.0
 30
0.0
 70
   128
 71
     5
 72
     4
 73
     1
  0
VERTEX
  5
73E
  8
0
 62
     9
 10
0.0
 20
0.0
 30
0.0
 70
   128
 71
     4
 72
     5
 73
     6
  0
VERTEX
  5
73F
  8
0
 62
     9
 10
0.0
 20
0.0
 30
0.0
 70
   128
 71
     8
 72
     7
 73
     6
  0
VERTEX
  5
740
  8
0
 62
     9
 10
0.0
 20
0.0
 30
0.0
 70
   128
 71
     6
 72
     3
 73
     8
  0
VERTEX
  5
741
  8
0
 62
     9
 10
0.0
 20
0.0
 30
0.0
 70
   128
 71
     6
 72
     7
 73
     4
  0
VERTEX
  5
742
  8
0
 62
     9
 10
0.0
 20
0.0
 30
0.0
 70
   128
 71
     1
 72
     2
 73
     5
  0
VERTEX
  5
743
  8
0
 62
     9
 10
0.0
 20
0.0
 30
0.0
 70
   128
 71
     1
 72
     8
 73
     3
  0
SEQEND
  5
744
  8
0
 62
     9
  0
ENDBLK
  5
747
  8
0
  0
BLOCK
  8
0
  2
E3_NODE_38_
 70
     0
 10
0.0
 20
0.0
 30
0.0
  3
E3_NODE_38_
  1

  0
POLYLINE
  5
749
  8
0
 62
     9
 66
     1
 10
0.0
 20
0.0
 30
0.0
 70
    64
 71
    43
 72
    41
  0
VERTEX
  5
74A
  8
0
 10
0.4490000009536743
 20
-25.00200080871582
 30
0.0
 70
   192
  0
VERTEX
  5
74B
  8
0
 10
19.86599922180176
 20
-15.38399982452393
 30
0.0
 70
   192
  0
VERTEX
  5
74C
  8
0
 10
15.25599956512451
 20
-19.98299980163574
 30
0.0
 70
   192
  0
VERTEX
  5
74D
  8
0
 10
-18.11800003051758
 20
-17.23200035095215
 30
0.0
 70
   192
  0
VERTEX
  5
74E
  8
0
 10
-22.69400024414062
 20
-10.48400020599365
 30
0.0
 70
   192
  0
VERTEX
  5
74F
  8
0
 10
-25.0
 20
-0.0099999997764826
 30
0.0
 70
   192
  0
VERTEX
  5
750
  8
0
 10
-23.00799942016602
 20
9.692000389099121
 30
0.0
 70
   192
  0
VERTEX
  5
751
  8
0
 10
-3.918999910354614
 20
-24.69599914550781
 30
0.0
 70
   192
  0
VERTEX
  5
752
  8
0
 10
-8.071000099182129
 20
-23.66699981689453
 30
0.0
 70
   192
  0
VERTEX
  5
753
  8
0
 10
20.87800025939941
 20
-13.95800018310547
 30
0.0
 70
   192
  0
VERTEX
  5
754
  8
0
 10
24.6560001373291
 20
-4.210000038146973
 30
0.0
 70
   192
  0
VERTEX
  5
755
  8
0
 10
23.25699996948242
 20
-9.338000297546387
 30
0.0
 70
   192
  0
VERTEX
  5
756
  8
0
 10
19.86599922180176
 20
15.36400032043457
 30
0.0
 70
   192
  0
VERTEX
  5
757
  8
0
 10
22.5890007019043
 20
10.87800025939941
 30
0.0
 70
   192
  0
VERTEX
  5
758
  8
0
 10
11.5290002822876
 20
22.17300033569336
 30
0.0
 70
   192
  0
VERTEX
  5
759
  8
0
 10
14.43299961090088
 20
20.56399917602539
 30
0.0
 70
   192
  0
VERTEX
  5
75A
  8
0
 10
-7.666999816894531
 20
23.65200042724609
 30
0.0
 70
   192
  0
VERTEX
  5
75B
  8
0
 10
-4.866000175476074
 20
24.50699996948242
 30
0.0
 70
   192
  0
VERTEX
  5
75C
  8
0
 10
-24.44499969482422
 20
5.217000007629395
 30
0.0
 70
   192
  0
VERTEX
  5
75D
  8
0
 10
-17.0049991607666
 20
-18.33200073242188
 30
0.0
 70
   192
  0
VERTEX
  5
75E
  8
0
 10
21.76199913024902
 20
-12.24100017547607
 30
0.0
 70
   192
  0
VERTEX
  5
75F
  8
0
 10
24.7859992980957
 20
-2.41700005531311
 30
0.0
 70
   192
  0
VERTEX
  5
760
  8
0
 10
23.31399917602539
 20
8.772000312805176
 30
0.0
 70
   192
  0
VERTEX
  5
761
  8
0
 10
24.3430004119873
 20
5.782000064849854
 30
0.0
 70
   192
  0
VERTEX
  5
762
  8
0
 10
19.66200065612793
 20
15.60400009155273
 30
0.0
 70
   192
  0
VERTEX
  5
763
  8
0
 10
18.20299911499023
 20
17.31800079345703
 30
0.0
 70
   192
  0
VERTEX
  5
764
  8
0
 10
2.523000001907349
 20
24.82900047302246
 30
0.0
 70
   192
  0
VERTEX
  5
765
  8
0
 10
5.326000213623047
 20
24.54100036621094
 30
0.0
 70
   192
  0
VERTEX
  5
766
  8
0
 10
-3.918999910354614
 20
24.67600059509277
 30
0.0
 70
   192
  0
VERTEX
  5
767
  8
0
 10
24.99300003051758
 20
0.4210000038146973
 30
0.0
 70
   192
  0
VERTEX
  5
768
  8
0
 10
9.82699966430664
 20
23.11599922180176
 30
0.0
 70
   192
  0
VERTEX
  5
769
  8
0
 10
-0.0040000001899898
 20
24.98600006103516
 30
0.0
 70
   192
  0
VERTEX
  5
76A
  8
0
 10
-17.16399955749512
 20
18.02499961853027
 30
0.0
 70
   192
  0
VERTEX
  5
76B
  8
0
 10
-14.13300037384033
 20
20.60899925231934
 30
0.0
 70
   192
  0
VERTEX
  5
76C
  8
0
 10
-20.47699928283691
 20
14.32299995422363
 30
0.0
 70
   192
  0
VERTEX
  5
76D
  8
0
 10
-18.11800003051758
 20
17.21199989318848
 30
0.0
 70
   192
  0
VERTEX
  5
76E
  8
0
 10
-22.92799949645996
 20
9.9399995803833
 30
0.0
 70
   192
  0
VERTEX
  5
76F
  8
0
 10
-0.0040000001899898
 20
-25.00600051879883
 30
0.0
 70
   192
  0
VERTEX
  5
770
  8
0
 10
0.0
 20
24.98600006103516
 30
0.0
 70
   192
  0
VERTEX
  5
771
  8
0
 10
-9.664999961853027
 20
23.04199981689453
 30
0.0
 70
   192
  0
VERTEX
  5
772
  8
0
 10
0.5
 20
24.98600006103516
 30
0.0
 70
   192
  0
VERTEX
  5
773
  8
0
 10
1.0
 20
24.98600006103516
 30
0.0
 70
   192
  0
VERTEX
  5
774
  8
0
 10
6.534999847412109
 20
-24.27000045776367
 30
0.0
 70
   192
  0
VERTEX
  5
775
  8
0
 62
     9
 10
0.0
 20
0.0
 30
0.0
 70
   128
 71
     3
 72
     2
 73
     1
  0
VERTEX
  5
776
  8
0
 62
     9
 10
0.0
 20
0.0
 30
0.0
 70
   128
 71
     6
 72
     5
 73
     4
  0
VERTEX
  5
777
  8
0
 62
     9
 10
0.0
 20
0.0
 30
0.0
 70
   128
 71
     9
 72
     8
 73
     7
  0
VERTEX
  5
778
  8
0
 62
     9
 10
0.0
 20
0.0
 30
0.0
 70
   128
 71
     2
 72
    10
 73
     1
  0
VERTEX
  5
779
  8
0
 62
     9
 10
0.0
 20
0.0
 30
0.0
 70
   128
 71
    12
 72
    11
 73
     1
  0
VERTEX
  5
77A
  8
0
 62
     9
 10
0.0
 20
0.0
 30
0.0
 70
   128
 71
    14
 72
    13
 73
     1
  0
VERTEX
  5
77B
  8
0
 62
     9
 10
0.0
 20
0.0
 30
0.0
 70
   128
 71
    16
 72
    15
 73
     1
  0
VERTEX
  5
77C
  8
0
 62
     9
 10
0.0
 20
0.0
 30
0.0
 70
   128
 71
    18
 72
    17
 73
     1
  0
VERTEX
  5
77D
  8
0
 62
     9
 10
0.0
 20
0.0
 30
0.0
 70
   128
 71
     4
 72
    19
 73
     6
  0
VERTEX
  5
77E
  8
0
 62
     9
 10
0.0
 20
0.0
 30
0.0
 70
   128
 71
     7
 72
    20
 73
     9
  0
VERTEX
  5
77F
  8
0
 62
     9
 10
0.0
 20
0.0
 30
0.0
 70
   128
 71
    10
 72
    21
 73
     1
  0
VERTEX
  5
780
  8
0
 62
     9
 10
0.0
 20
0.0
 30
0.0
 70
   128
 71
    11
 72
    22
 73
     1
  0
VERTEX
  5
781
  8
0
 62
     9
 10
0.0
 20
0.0
 30
0.0
 70
   128
 71
    24
 72
    23
 73
     1
  0
VERTEX
  5
782
  8
0
 62
     9
 10
0.0
 20
0.0
 30
0.0
 70
   128
 71
    13
 72
    25
 73
     1
  0
VERTEX
  5
783
  8
0
 62
     9
 10
0.0
 20
0.0
 30
0.0
 70
   128
 71
     1
 72
    26
 73
    16
  0
VERTEX
  5
784
  8
0
 62
     9
 10
0.0
 20
0.0
 30
0.0
 70
   128
 71
    28
 72
    27
 73
     1
  0
VERTEX
  5
785
  8
0
 62
     9
 10
0.0
 20
0.0
 30
0.0
 70
   128
 71
     1
 72
    29
 73
    18
  0
VERTEX
  5
786
  8
0
 62
     9
 10
0.0
 20
0.0
 30
0.0
 70
   128
 71
     7
 72
     4
 73
    20
  0
VERTEX
  5
787
  8
0
 62
     9
 10
0.0
 20
0.0
 30
0.0
 70
   128
 71
     1
 72
    21
 73
    12
  0
VERTEX
  5
788
  8
0
 62
     9
 10
0.0
 20
0.0
 30
0.0
 70
   128
 71
     1
 72
    30
 73
    24
  0
VERTEX
  5
789
  8
0
 62
     9
 10
0.0
 20
0.0
 30
0.0
 70
   128
 71
     1
 72
    25
 73
    26
  0
VERTEX
  5
78A
  8
0
 62
     9
 10
0.0
 20
0.0
 30
0.0
 70
   128
 71
     1
 72
    31
 73
    28
  0
VERTEX
  5
78B
  8
0
 62
     9
 10
0.0
 20
0.0
 30
0.0
 70
   128
 71
     1
 72
    32
 73
    29
  0
VERTEX
  5
78C
  8
0
 62
     9
 10
0.0
 20
0.0
 30
0.0
 70
   128
 71
    34
 72
    33
 73
     1
  0
VERTEX
  5
78D
  8
0
 62
     9
 10
0.0
 20
0.0
 30
0.0
 70
   128
 71
    36
 72
    35
 73
     1
  0
VERTEX
  5
78E
  8
0
 62
     9
 10
0.0
 20
0.0
 30
0.0
 70
   128
 71
    37
 72
     7
 73
     1
  0
VERTEX
  5
78F
  8
0
 62
     9
 10
0.0
 20
0.0
 30
0.0
 70
   128
 71
     8
 72
    38
 73
     7
  0
VERTEX
  5
790
  8
0
 62
     9
 10
0.0
 20
0.0
 30
0.0
 70
   128
 71
     1
 72
    22
 73
    30
  0
VERTEX
  5
791
  8
0
 62
     9
 10
0.0
 20
0.0
 30
0.0
 70
   128
 71
     1
 72
    15
 73
    31
  0
VERTEX
  5
792
  8
0
 62
     9
 10
0.0
 20
0.0
 30
0.0
 70
   128
 71
     1
 72
    39
 73
    32
  0
VERTEX
  5
793
  8
0
 62
     9
 10
0.0
 20
0.0
 30
0.0
 70
   128
 71
     1
 72
    40
 73
    34
  0
VERTEX
  5
794
  8
0
 62
     9
 10
0.0
 20
0.0
 30
0.0
 70
   128
 71
     1
 72
    35
 73
    37
  0
VERTEX
  5
795
  8
0
 62
     9
 10
0.0
 20
0.0
 30
0.0
 70
   128
 71
    38
 72
     1
 73
     7
  0
VERTEX
  5
796
  8
0
 62
     9
 10
0.0
 20
0.0
 30
0.0
 70
   128
 71
     1
 72
    23
 73
    14
  0
VERTEX
  5
797
  8
0
 62
     9
 10
0.0
 20
0.0
 30
0.0
 70
   128
 71
    42
 72
    41
 73
     1
  0
VERTEX
  5
798
  8
0
 62
     9
 10
0.0
 20
0.0
 30
0.0
 70
   128
 71
     1
 72
    17
 73
    40
  0
VERTEX
  5
799
  8
0
 62
     9
 10
0.0
 20
0.0
 30
0.0
 70
   128
 71
     4
 72
     7
 73
    19
  0
VERTEX
  5
79A
  8
0
 62
     9
 10
0.0
 20
0.0
 30
0.0
 70
   128
 71
     1
 72
    27
 73
    42
  0
VERTEX
  5
79B
  8
0
 62
     9
 10
0.0
 20
0.0
 30
0.0
 70
   128
 71
     1
 72
    33
 73
    36
  0
VERTEX
  5
79C
  8
0
 62
     9
 10
0.0
 20
0.0
 30
0.0
 70
   128
 71
     1
 72
    41
 73
    39
  0
VERTEX
  5
79D
  8
0
 62
     9
 10
0.0
 20
0.0
 30
0.0
 70
   128
 71
     1
 72
    43
 73
     3
  0
SEQEND
  5
79E
  8
0
 62
     9
  0
ENDBLK
  5
7A1
  8
0
  0
BLOCK
  8
0
  2
E3_NODE_39_
 70
     0
 10
0.0
 20
0.0
 30
0.0
  3
E3_NODE_39_
  1

  0
POLYLINE
  5
7A3
  8
0
 62
     9
 66
     1
 10
0.0
 20
0.0
 30
0.0
 70
    64
 71
     7
 72
     5
  0
VERTEX
  5
7A4
  8
0
 10
0.5
 20
24.98600006103516
 30
0.0
 70
   192
  0
VERTEX
  5
7A5
  8
0
 10
0.5
 20
24.98699951171875
 30
84.0
 70
   192
  0
VERTEX
  5
7A6
  8
0
 10
1.0
 20
24.98600006103516
 30
74.00499725341797
 70
   192
  0
VERTEX
  5
7A7
  8
0
 10
1.0
 20
24.98600006103516
 30
84.0
 70
   192
  0
VERTEX
  5
7A8
  8
0
 10
0.0
 20
24.98600006103516
 30
0.0
 70
   192
  0
VERTEX
  5
7A9
  8
0
 10
0.0
 20
24.98800086975098
 30
84.0
 70
   192
  0
VERTEX
  5
7AA
  8
0
 10
1.0
 20
24.98600006103516
 30
0.0
 70
   192
  0
VERTEX
  5
7AB
  8
0
 62
     9
 10
0.0
 20
0.0
 30
0.0
 70
   128
 71
     3
 72
     2
 73
     1
  0
VERTEX
  5
7AC
  8
0
 62
     9
 10
0.0
 20
0.0
 30
0.0
 70
   128
 71
     3
 72
     4
 73
     2
  0
VERTEX
  5
7AD
  8
0
 62
     9
 10
0.0
 20
0.0
 30
0.0
 70
   128
 71
     5
 72
     1
 73
     2
  0
VERTEX
  5
7AE
  8
0
 62
     9
 10
0.0
 20
0.0
 30
0.0
 70
   128
 71
     2
 72
     6
 73
     5
  0
VERTEX
  5
7AF
  8
0
 62
     9
 10
0.0
 20
0.0
 30
0.0
 70
   128
 71
     1
 72
     7
 73
     3
  0
SEQEND
  5
7B0
  8
0
 62
     9
  0
ENDBLK
  5
7B3
  8
0
  0
BLOCK
  8
0
  2
E3_NODE_40_
 70
     0
 10
0.0
 20
0.0
 30
0.0
  3
E3_NODE_40_
  1

  0
POLYLINE
  5
7B5
  8
0
 62
     9
 66
     1
 10
0.0
 20
0.0
 30
0.0
 70
    64
 71
    31
 72
    29
  0
VERTEX
  5
7B6
  8
0
 10
-7.703000068664551
 20
23.76899909973145
 30
84.0
 70
   192
  0
VERTEX
  5
7B7
  8
0
 10
-9.664999961853027
 20
23.04199981689453
 30
0.0
 70
   192
  0
VERTEX
  5
7B8
  8
0
 10
-14.13300037384033
 20
20.60899925231934
 30
0.0
 70
   192
  0
VERTEX
  5
7B9
  8
0
 10
-7.666999816894531
 20
23.65200042724609
 30
0.0
 70
   192
  0
VERTEX
  5
7BA
  8
0
 10
-17.22900009155273
 20
18.10099983215332
 30
84.0
 70
   192
  0
VERTEX
  5
7BB
  8
0
 10
-23.0310001373291
 20
9.699999809265137
 30
84.0
 70
   192
  0
VERTEX
  5
7BC
  8
0
 10
-20.47699928283691
 20
14.32299995422363
 30
0.0
 70
   192
  0
VERTEX
  5
7BD
  8
0
 10
-22.92799949645996
 20
9.9399995803833
 30
0.0
 70
   192
  0
VERTEX
  5
7BE
  8
0
 10
-17.16399955749512
 20
18.02499961853027
 30
0.0
 70
   192
  0
VERTEX
  5
7BF
  8
0
 10
-18.11800003051758
 20
17.21199989318848
 30
0.0
 70
   192
  0
VERTEX
  5
7C0
  8
0
 10
-25.0
 20
-0.0099999997764826
 30
84.0
 70
   192
  0
VERTEX
  5
7C1
  8
0
 10
-24.44499969482422
 20
5.217000007629395
 30
0.0
 70
   192
  0
VERTEX
  5
7C2
  8
0
 10
-23.00799942016602
 20
9.692000389099121
 30
0.0
 70
   192
  0
VERTEX
  5
7C3
  8
0
 10
-25.0
 20
-0.0099999997764826
 30
0.0
 70
   192
  0
VERTEX
  5
7C4
  8
0
 10
-22.69400024414062
 20
-10.48400020599365
 30
0.0
 70
   192
  0
VERTEX
  5
7C5
  8
0
 10
-22.69400024414062
 20
-10.48400020599365
 30
84.0
 70
   192
  0
VERTEX
  5
7C6
  8
0
 10
-18.11800003051758
 20
-17.23200035095215
 30
0.0
 70
   192
  0
VERTEX
  5
7C7
  8
0
 10
-17.0049991607666
 20
-18.33200073242188
 30
84.0
 70
   192
  0
VERTEX
  5
7C8
  8
0
 10
-17.0049991607666
 20
-18.33200073242188
 30
0.0
 70
   192
  0
VERTEX
  5
7C9
  8
0
 10
-8.071000099182129
 20
-23.66699981689453
 30
0.0
 70
   192
  0
VERTEX
  5
7CA
  8
0
 10
-8.071000099182129
 20
-23.66699981689453
 30
84.0
 70
   192
  0
VERTEX
  5
7CB
  8
0
 10
0.0
 20
24.98800086975098
 30
84.0
 70
   192
  0
VERTEX
  5
7CC
  8
0
 10
-0.0040000001899898
 20
24.98600006103516
 30
0.0
 70
   192
  0
VERTEX
  5
7CD
  8
0
 10
-3.918999910354614
 20
24.67600059509277
 30
0.0
 70
   192
  0
VERTEX
  5
7CE
  8
0
 10
0.0
 20
24.98600006103516
 30
0.0
 70
   192
  0
VERTEX
  5
7CF
  8
0
 10
-4.866000175476074
 20
24.50699996948242
 30
0.0
 70
   192
  0
VERTEX
  5
7D0
  8
0
 10
-3.918999910354614
 20
-24.69599914550781
 30
0.0
 70
   192
  0
VERTEX
  5
7D1
  8
0
 10
-0.0040000001899898
 20
-25.00600051879883
 30
0.0
 70
   192
  0
VERTEX
  5
7D2
  8
0
 10
0.4490000009536743
 20
-25.00200080871582
 30
74.00499725341797
 70
   192
  0
VERTEX
  5
7D3
  8
0
 10
0.4490000009536743
 20
-25.00200080871582
 30
0.0
 70
   192
  0
VERTEX
  5
7D4
  8
0
 10
0.4490000009536743
 20
-25.00200080871582
 30
84.0
 70
   192
  0
VERTEX
  5
7D5
  8
0
 62
     9
 10
0.0
 20
0.0
 30
0.0
 70
   128
 71
     3
 72
     2
 73
     1
  0
VERTEX
  5
7D6
  8
0
 62
     9
 10
0.0
 20
0.0
 30
0.0
 70
   128
 71
     2
 72
     4
 73
     1
  0
VERTEX
  5
7D7
  8
0
 62
     9
 10
0.0
 20
0.0
 30
0.0
 70
   128
 71
     1
 72
     5
 73
     3
  0
VERTEX
  5
7D8
  8
0
 62
     9
 10
0.0
 20
0.0
 30
0.0
 70
   128
 71
     7
 72
     5
 73
     6
  0
VERTEX
  5
7D9
  8
0
 62
     9
 10
0.0
 20
0.0
 30
0.0
 70
   128
 71
     6
 72
     8
 73
     7
  0
VERTEX
  5
7DA
  8
0
 62
     9
 10
0.0
 20
0.0
 30
0.0
 70
   128
 71
    10
 72
     9
 73
     5
  0
VERTEX
  5
7DB
  8
0
 62
     9
 10
0.0
 20
0.0
 30
0.0
 70
   128
 71
     5
 72
     7
 73
    10
  0
VERTEX
  5
7DC
  8
0
 62
     9
 10
0.0
 20
0.0
 30
0.0
 70
   128
 71
    12
 72
     6
 73
    11
  0
VERTEX
  5
7DD
  8
0
 62
     9
 10
0.0
 20
0.0
 30
0.0
 70
   128
 71
    12
 72
    13
 73
     6
  0
VERTEX
  5
7DE
  8
0
 62
     9
 10
0.0
 20
0.0
 30
0.0
 70
   128
 71
    15
 72
    14
 73
    11
  0
VERTEX
  5
7DF
  8
0
 62
     9
 10
0.0
 20
0.0
 30
0.0
 70
   128
 71
    17
 72
    15
 73
    16
  0
VERTEX
  5
7E0
  8
0
 62
     9
 10
0.0
 20
0.0
 30
0.0
 70
   128
 71
    16
 72
    18
 73
    17
  0
VERTEX
  5
7E1
  8
0
 62
     9
 10
0.0
 20
0.0
 30
0.0
 70
   128
 71
    21
 72
    20
 73
    19
  0
VERTEX
  5
7E2
  8
0
 62
     9
 10
0.0
 20
0.0
 30
0.0
 70
   128
 71
    24
 72
    23
 73
    22
  0
VERTEX
  5
7E3
  8
0
 62
     9
 10
0.0
 20
0.0
 30
0.0
 70
   128
 71
    23
 72
    25
 73
    22
  0
VERTEX
  5
7E4
  8
0
 62
     9
 10
0.0
 20
0.0
 30
0.0
 70
   128
 71
    22
 72
     1
 73
    24
  0
VERTEX
  5
7E5
  8
0
 62
     9
 10
0.0
 20
0.0
 30
0.0
 70
   128
 71
     1
 72
    26
 73
    24
  0
VERTEX
  5
7E6
  8
0
 62
     9
 10
0.0
 20
0.0
 30
0.0
 70
   128
 71
    29
 72
    28
 73
    27
  0
VERTEX
  5
7E7
  8
0
 62
     9
 10
0.0
 20
0.0
 30
0.0
 70
   128
 71
    27
 72
    21
 73
    29
  0
VERTEX
  5
7E8
  8
0
 62
     9
 10
0.0
 20
0.0
 30
0.0
 70
   128
 71
    27
 72
    20
 73
    21
  0
VERTEX
  5
7E9
  8
0
 62
     9
 10
0.0
 20
0.0
 30
0.0
 70
   128
 71
    29
 72
    30
 73
    28
  0
VERTEX
  5
7EA
  8
0
 62
     9
 10
0.0
 20
0.0
 30
0.0
 70
   128
 71
    21
 72
    31
 73
    29
  0
VERTEX
  5
7EB
  8
0
 62
     9
 10
0.0
 20
0.0
 30
0.0
 70
   128
 71
     1
 72
     4
 73
    26
  0
VERTEX
  5
7EC
  8
0
 62
     9
 10
0.0
 20
0.0
 30
0.0
 70
   128
 71
    19
 72
    18
 73
    21
  0
VERTEX
  5
7ED
  8
0
 62
     9
 10
0.0
 20
0.0
 30
0.0
 70
   128
 71
    18
 72
    19
 73
    17
  0
VERTEX
  5
7EE
  8
0
 62
     9
 10
0.0
 20
0.0
 30
0.0
 70
   128
 71
    11
 72
    16
 73
    15
  0
VERTEX
  5
7EF
  8
0
 62
     9
 10
0.0
 20
0.0
 30
0.0
 70
   128
 71
    11
 72
    14
 73
    12
  0
VERTEX
  5
7F0
  8
0
 62
     9
 10
0.0
 20
0.0
 30
0.0
 70
   128
 71
     6
 72
    13
 73
     8
  0
VERTEX
  5
7F1
  8
0
 62
     9
 10
0.0
 20
0.0
 30
0.0
 70
   128
 71
     5
 72
     9
 73
     3
  0
SEQEND
  5
7F2
  8
0
 62
     9
  0
ENDBLK
  5
7F5
  8
0
  0
BLOCK
  8
0
  2
E3_NODE_41_
 70
     0
 10
0.0
 20
0.0
 30
0.0
  3
E3_NODE_41_
  1

  0
POLYLINE
  5
7F7
  8
0
 62
     9
 66
     1
 10
0.0
 20
0.0
 30
0.0
 70
    64
 71
    11
 72
     9
  0
VERTEX
  5
7F8
  8
0
 10
0.4490000009536743
 20
-25.00200080871582
 30
84.0
 70
   192
  0
VERTEX
  5
7F9
  8
0
 10
0.4490000009536743
 20
-25.00200080871582
 30
74.00499725341797
 70
   192
  0
VERTEX
  5
7FA
  8
0
 10
2.917999982833862
 20
-24.93000030517578
 30
74.00499725341797
 70
   192
  0
VERTEX
  5
7FB
  8
0
 10
5.539000034332275
 20
-24.51399993896484
 30
74.00499725341797
 70
   192
  0
VERTEX
  5
7FC
  8
0
 10
5.539000034332275
 20
-24.51399993896484
 30
84.0
 70
   192
  0
VERTEX
  5
7FD
  8
0
 10
2.917999982833862
 20
-24.93000030517578
 30
84.0
 70
   192
  0
VERTEX
  5
7FE
  8
0
 10
6.532999992370605
 20
-24.26199913024902
 30
74.00499725341797
 70
   192
  0
VERTEX
  5
7FF
  8
0
 10
6.902999877929688
 20
-24.16900062561035
 30
84.0
 70
   192
  0
VERTEX
  5
800
  8
0
 10
6.902999877929688
 20
-24.16900062561035
 30
74.00499725341797
 70
   192
  0
VERTEX
  5
801
  8
0
 10
8.616000175476074
 20
-23.61300086975098
 30
74.00499725341797
 70
   192
  0
VERTEX
  5
802
  8
0
 10
8.616000175476074
 20
-23.61300086975098
 30
84.0
 70
   192
  0
VERTEX
  5
803
  8
0
 62
     9
 10
0.0
 20
0.0
 30
0.0
 70
   128
 71
     3
 72
     2
 73
     1
  0
VERTEX
  5
804
  8
0
 62
     9
 10
0.0
 20
0.0
 30
0.0
 70
   128
 71
     6
 72
     5
 73
     4
  0
VERTEX
  5
805
  8
0
 62
     9
 10
0.0
 20
0.0
 30
0.0
 70
   128
 71
     7
 72
     4
 73
     5
  0
VERTEX
  5
806
  8
0
 62
     9
 10
0.0
 20
0.0
 30
0.0
 70
   128
 71
     5
 72
     8
 73
     7
  0
VERTEX
  5
807
  8
0
 62
     9
 10
0.0
 20
0.0
 30
0.0
 70
   128
 71
    10
 72
     9
 73
     8
  0
VERTEX
  5
808
  8
0
 62
     9
 10
0.0
 20
0.0
 30
0.0
 70
   128
 71
     8
 72
    11
 73
    10
  0
VERTEX
  5
809
  8
0
 62
     9
 10
0.0
 20
0.0
 30
0.0
 70
   128
 71
     8
 72
     9
 73
     7
  0
VERTEX
  5
80A
  8
0
 62
     9
 10
0.0
 20
0.0
 30
0.0
 70
   128
 71
     4
 72
     3
 73
     6
  0
VERTEX
  5
80B
  8
0
 62
     9
 10
0.0
 20
0.0
 30
0.0
 70
   128
 71
     1
 72
     6
 73
     3
  0
SEQEND
  5
80C
  8
0
 62
     9
  0
ENDBLK
  5
80F
  8
0
  0
BLOCK
  8
0
  2
E3_NODE_42_
 70
     0
 10
0.0
 20
0.0
 30
0.0
  3
E3_NODE_42_
  1

  0
POLYLINE
  5
811
  8
0
 62
     9
 66
     1
 10
0.0
 20
0.0
 30
0.0
 70
    64
 71
     8
 72
     6
  0
VERTEX
  5
812
  8
0
 10
8.616000175476074
 20
23.5930004119873
 30
74.00499725341797
 70
   192
  0
VERTEX
  5
813
  8
0
 10
3.704999923706055
 20
24.81999969482422
 30
74.00499725341797
 70
   192
  0
VERTEX
  5
814
  8
0
 10
3.977999925613403
 20
24.7819995880127
 30
84.0
 70
   192
  0
VERTEX
  5
815
  8
0
 10
3.703999996185303
 20
24.80100059509277
 30
84.0
 70
   192
  0
VERTEX
  5
816
  8
0
 10
1.0
 20
24.98600006103516
 30
84.0
 70
   192
  0
VERTEX
  5
817
  8
0
 10
2.532000064849854
 20
24.89200019836426
 30
74.00499725341797
 70
   192
  0
VERTEX
  5
818
  8
0
 10
1.0
 20
24.98600006103516
 30
74.00499725341797
 70
   192
  0
VERTEX
  5
819
  8
0
 10
8.616000175476074
 20
23.5930004119873
 30
84.0
 70
   192
  0
VERTEX
  5
81A
  8
0
 62
     9
 10
0.0
 20
0.0
 30
0.0
 70
   128
 71
     3
 72
     2
 73
     1
  0
VERTEX
  5
81B
  8
0
 62
     9
 10
0.0
 20
0.0
 30
0.0
 70
   128
 71
     3
 72
     4
 73
     2
  0
VERTEX
  5
81C
  8
0
 62
     9
 10
0.0
 20
0.0
 30
0.0
 70
   128
 71
     6
 72
     4
 73
     5
  0
VERTEX
  5
81D
  8
0
 62
     9
 10
0.0
 20
0.0
 30
0.0
 70
   128
 71
     6
 72
     2
 73
     4
  0
VERTEX
  5
81E
  8
0
 62
     9
 10
0.0
 20
0.0
 30
0.0
 70
   128
 71
     5
 72
     7
 73
     6
  0
VERTEX
  5
81F
  8
0
 62
     9
 10
0.0
 20
0.0
 30
0.0
 70
   128
 71
     1
 72
     8
 73
     3
  0
SEQEND
  5
820
  8
0
 62
     9
  0
ENDBLK
  5
823
  8
0
  0
BLOCK
  8
0
  2
E3_NODE_43_
 70
     0
 10
0.0
 20
0.0
 30
0.0
  3
E3_NODE_43_
  1

  0
POLYLINE
  5
825
  8
0
 62
     9
 66
     1
 10
0.0
 20
0.0
 30
0.0
 70
    64
 71
    52
 72
    50
  0
VERTEX
  5
826
  8
0
 10
77.98999786376953
 20
-16.93400001525879
 30
84.0
 70
   192
  0
VERTEX
  5
827
  8
0
 10
85.1760025024414
 20
-10.48999977111816
 30
84.0
 70
   192
  0
VERTEX
  5
828
  8
0
 10
87.04299926757812
 20
-6.966000080108643
 30
84.0
 70
   192
  0
VERTEX
  5
829
  8
0
 10
87.15499877929688
 20
6.645999908447266
 30
84.0
 70
   192
  0
VERTEX
  5
82A
  8
0
 10
85.08200073242188
 20
10.71300029754639
 30
84.0
 70
   192
  0
VERTEX
  5
82B
  8
0
 10
88.15699768066406
 20
-2.552000045776367
 30
84.0
 70
   192
  0
VERTEX
  5
82C
  8
0
 10
81.89099884033203
 20
-14.32499980926514
 30
84.0
 70
   192
  0
VERTEX
  5
82D
  8
0
 10
84.92900085449219
 20
-10.95600032806396
 30
84.0
 70
   192
  0
VERTEX
  5
82E
  8
0
 10
79.78299713134766
 20
15.73999977111816
 30
84.0
 70
   192
  0
VERTEX
  5
82F
  8
0
 10
78.39700317382812
 20
16.70899963378906
 30
84.0
 70
   192
  0
VERTEX
  5
830
  8
0
 10
83.24400329589844
 20
12.8149995803833
 30
84.0
 70
   192
  0
VERTEX
  5
831
  8
0
 10
82.10900115966797
 20
14.11400032043457
 30
84.0
 70
   192
  0
VERTEX
  5
832
  8
0
 10
87.73200225830078
 20
4.15500020980835
 30
84.0
 70
   192
  0
VERTEX
  5
833
  8
0
 10
88.1709976196289
 20
-1.407999992370605
 30
84.0
 70
   192
  0
VERTEX
  5
834
  8
0
 10
88.21099853515625
 20
2.084000110626221
 30
84.0
 70
   192
  0
VERTEX
  5
835
  8
0
 10
70.9530029296875
 20
18.90500068664551
 30
84.0
 70
   192
  0
VERTEX
  5
836
  8
0
 10
69.83699798583984
 20
19.07500076293945
 30
84.0
 70
   192
  0
VERTEX
  5
837
  8
0
 10
74.07599639892578
 20
18.42900085449219
 30
84.0
 70
   192
  0
VERTEX
  5
838
  8
0
 10
69.23100280761719
 20
19.08200073242188
 30
84.0
 70
   192
  0
VERTEX
  5
839
  8
0
 10
73.66799926757812
 20
-18.55400085449219
 30
84.0
 70
   192
  0
VERTEX
  5
83A
  8
0
 10
77.93800354003906
 20
-16.9689998626709
 30
84.0
 70
   192
  0
VERTEX
  5
83B
  8
0
 10
-23.0310001373291
 20
9.699999809265137
 30
84.0
 70
   192
  0
VERTEX
  5
83C
  8
0
 10
-25.0
 20
-0.0099999997764826
 30
84.0
 70
   192
  0
VERTEX
  5
83D
  8
0
 10
-22.69400024414062
 20
-10.48400020599365
 30
84.0
 70
   192
  0
VERTEX
  5
83E
  8
0
 10
69.23100280761719
 20
-19.10199928283691
 30
84.0
 70
   192
  0
VERTEX
  5
83F
  8
0
 10
-17.0049991607666
 20
-18.33200073242188
 30
84.0
 70
   192
  0
VERTEX
  5
840
  8
0
 10
-8.071000099182129
 20
-23.66699981689453
 30
84.0
 70
   192
  0
VERTEX
  5
841
  8
0
 10
-7.703000068664551
 20
23.76899909973145
 30
84.0
 70
   192
  0
VERTEX
  5
842
  8
0
 10
-17.22900009155273
 20
18.10099983215332
 30
84.0
 70
   192
  0
VERTEX
  5
843
  8
0
 10
58.20800018310547
 20
-19.11400032043457
 30
84.0
 70
   192
  0
VERTEX
  5
844
  8
0
 10
39.30099868774414
 20
19.26300048828125
 30
84.0
 70
   192
  0
VERTEX
  5
845
  8
0
 10
28.27599906921387
 20
-19.43899917602539
 30
84.0
 70
   192
  0
VERTEX
  5
846
  8
0
 10
32.24800109863281
 20
19.30599975585938
 30
84.0
 70
   192
  0
VERTEX
  5
847
  8
0
 10
20.47999954223633
 20
19.90999984741211
 30
84.0
 70
   192
  0
VERTEX
  5
848
  8
0
 10
19.49200057983398
 20
-20.04500007629395
 30
84.0
 70
   192
  0
VERTEX
  5
849
  8
0
 10
15.14999961853027
 20
20.89500045776367
 30
84.0
 70
   192
  0
VERTEX
  5
84A
  8
0
 10
0.4490000009536743
 20
-25.00200080871582
 30
84.0
 70
   192
  0
VERTEX
  5
84B
  8
0
 10
2.917999982833862
 20
-24.93000030517578
 30
84.0
 70
   192
  0
VERTEX
  5
84C
  8
0
 10
0.0
 20
24.98800086975098
 30
84.0
 70
   192
  0
VERTEX
  5
84D
  8
0
 10
8.616000175476074
 20
23.5930004119873
 30
84.0
 70
   192
  0
VERTEX
  5
84E
  8
0
 10
3.977999925613403
 20
24.7819995880127
 30
84.0
 70
   192
  0
VERTEX
  5
84F
  8
0
 10
16.29599952697754
 20
20.6830005645752
 30
84.0
 70
   192
  0
VERTEX
  5
850
  8
0
 10
6.902999877929688
 20
-24.16900062561035
 30
84.0
 70
   192
  0
VERTEX
  5
851
  8
0
 10
8.616000175476074
 20
-23.61300086975098
 30
84.0
 70
   192
  0
VERTEX
  5
852
  8
0
 10
5.539000034332275
 20
-24.51399993896484
 30
84.0
 70
   192
  0
VERTEX
  5
853
  8
0
 10
0.5
 20
24.98699951171875
 30
84.0
 70
   192
  0
VERTEX
  5
854
  8
0
 10
3.703999996185303
 20
24.80100059509277
 30
84.0
 70
   192
  0
VERTEX
  5
855
  8
0
 10
1.0
 20
24.98600006103516
 30
84.0
 70
   192
  0
VERTEX
  5
856
  8
0
 10
9.4399995803833
 20
23.27599906921387
 30
84.0
 70
   192
  0
VERTEX
  5
857
  8
0
 10
14.56700038909912
 20
-21.10099983215332
 30
84.0
 70
   192
  0
VERTEX
  5
858
  8
0
 10
18.29299926757812
 20
-20.30200004577637
 30
84.0
 70
   192
  0
VERTEX
  5
859
  8
0
 10
10.35400009155273
 20
-22.8799991607666
 30
84.0
 70
   192
  0
VERTEX
  5
85A
  8
0
 62
     9
 10
0.0
 20
0.0
 30
0.0
 70
   128
 71
     3
 72
     2
 73
     1
  0
VERTEX
  5
85B
  8
0
 62
     9
 10
0.0
 20
0.0
 30
0.0
 70
   128
 71
     5
 72
     4
 73
     1
  0
VERTEX
  5
85C
  8
0
 62
     9
 10
0.0
 20
0.0
 30
0.0
 70
   128
 71
     1
 72
     6
 73
     3
  0
VERTEX
  5
85D
  8
0
 62
     9
 10
0.0
 20
0.0
 30
0.0
 70
   128
 71
     8
 72
     7
 73
     1
  0
VERTEX
  5
85E
  8
0
 62
     9
 10
0.0
 20
0.0
 30
0.0
 70
   128
 71
    10
 72
     9
 73
     1
  0
VERTEX
  5
85F
  8
0
 62
     9
 10
0.0
 20
0.0
 30
0.0
 70
   128
 71
    12
 72
    11
 73
     1
  0
VERTEX
  5
860
  8
0
 62
     9
 10
0.0
 20
0.0
 30
0.0
 70
   128
 71
     4
 72
    13
 73
     1
  0
VERTEX
  5
861
  8
0
 62
     9
 10
0.0
 20
0.0
 30
0.0
 70
   128
 71
    15
 72
    14
 73
     1
  0
VERTEX
  5
862
  8
0
 62
     9
 10
0.0
 20
0.0
 30
0.0
 70
   128
 71
     1
 72
     2
 73
     8
  0
VERTEX
  5
863
  8
0
 62
     9
 10
0.0
 20
0.0
 30
0.0
 70
   128
 71
    17
 72
    16
 73
     1
  0
VERTEX
  5
864
  8
0
 62
     9
 10
0.0
 20
0.0
 30
0.0
 70
   128
 71
     1
 72
    18
 73
    10
  0
VERTEX
  5
865
  8
0
 62
     9
 10
0.0
 20
0.0
 30
0.0
 70
   128
 71
     1
 72
    11
 73
     5
  0
VERTEX
  5
866
  8
0
 62
     9
 10
0.0
 20
0.0
 30
0.0
 70
   128
 71
     1
 72
    14
 73
     6
  0
VERTEX
  5
867
  8
0
 62
     9
 10
0.0
 20
0.0
 30
0.0
 70
   128
 71
    21
 72
    20
 73
    19
  0
VERTEX
  5
868
  8
0
 62
     9
 10
0.0
 20
0.0
 30
0.0
 70
   128
 71
    24
 72
    23
 73
    22
  0
VERTEX
  5
869
  8
0
 62
     9
 10
0.0
 20
0.0
 30
0.0
 70
   128
 71
     1
 72
    16
 73
    18
  0
VERTEX
  5
86A
  8
0
 62
     9
 10
0.0
 20
0.0
 30
0.0
 70
   128
 71
     1
 72
    13
 73
    15
  0
VERTEX
  5
86B
  8
0
 62
     9
 10
0.0
 20
0.0
 30
0.0
 70
   128
 71
    20
 72
    25
 73
    19
  0
VERTEX
  5
86C
  8
0
 62
     9
 10
0.0
 20
0.0
 30
0.0
 70
   128
 71
    22
 72
    26
 73
    24
  0
VERTEX
  5
86D
  8
0
 62
     9
 10
0.0
 20
0.0
 30
0.0
 70
   128
 71
    29
 72
    28
 73
    27
  0
VERTEX
  5
86E
  8
0
 62
     9
 10
0.0
 20
0.0
 30
0.0
 70
   128
 71
     1
 72
     9
 73
    12
  0
VERTEX
  5
86F
  8
0
 62
     9
 10
0.0
 20
0.0
 30
0.0
 70
   128
 71
    25
 72
    30
 73
    19
  0
VERTEX
  5
870
  8
0
 62
     9
 10
0.0
 20
0.0
 30
0.0
 70
   128
 71
    30
 72
    32
 73
    31
  0
VERTEX
  5
871
  8
0
 62
     9
 10
0.0
 20
0.0
 30
0.0
 70
   128
 71
    27
 72
    22
 73
    29
  0
VERTEX
  5
872
  8
0
 62
     9
 10
0.0
 20
0.0
 30
0.0
 70
   128
 71
    19
 72
     1
 73
    21
  0
VERTEX
  5
873
  8
0
 62
     9
 10
0.0
 20
0.0
 30
0.0
 70
   128
 71
    31
 72
    19
 73
    30
  0
VERTEX
  5
874
  8
0
 62
     9
 10
0.0
 20
0.0
 30
0.0
 70
   128
 71
    22
 72
    27
 73
    26
  0
VERTEX
  5
875
  8
0
 62
     9
 10
0.0
 20
0.0
 30
0.0
 70
   128
 71
    32
 72
    33
 73
    31
  0
VERTEX
  5
876
  8
0
 62
     9
 10
0.0
 20
0.0
 30
0.0
 70
   128
 71
    32
 72
    35
 73
    34
  0
VERTEX
  5
877
  8
0
 62
     9
 10
0.0
 20
0.0
 30
0.0
 70
   128
 71
    38
 72
    37
 73
    36
  0
VERTEX
  5
878
  8
0
 62
     9
 10
0.0
 20
0.0
 30
0.0
 70
   128
 71
    28
 72
    39
 73
    37
  0
VERTEX
  5
879
  8
0
 62
     9
 10
0.0
 20
0.0
 30
0.0
 70
   128
 71
    41
 72
    40
 73
    37
  0
VERTEX
  5
87A
  8
0
 62
     9
 10
0.0
 20
0.0
 30
0.0
 70
   128
 71
    42
 72
    34
 73
    35
  0
VERTEX
  5
87B
  8
0
 62
     9
 10
0.0
 20
0.0
 30
0.0
 70
   128
 71
    34
 72
    33
 73
    32
  0
VERTEX
  5
87C
  8
0
 62
     9
 10
0.0
 20
0.0
 30
0.0
 70
   128
 71
    44
 72
    43
 73
    36
  0
VERTEX
  5
87D
  8
0
 62
     9
 10
0.0
 20
0.0
 30
0.0
 70
   128
 71
    36
 72
    45
 73
    38
  0
VERTEX
  5
87E
  8
0
 62
     9
 10
0.0
 20
0.0
 30
0.0
 70
   128
 71
    39
 72
    46
 73
    37
  0
VERTEX
  5
87F
  8
0
 62
     9
 10
0.0
 20
0.0
 30
0.0
 70
   128
 71
    48
 72
    47
 73
    37
  0
VERTEX
  5
880
  8
0
 62
     9
 10
0.0
 20
0.0
 30
0.0
 70
   128
 71
    40
 72
    49
 73
    37
  0
VERTEX
  5
881
  8
0
 62
     9
 10
0.0
 20
0.0
 30
0.0
 70
   128
 71
     1
 72
    19
 73
    17
  0
VERTEX
  5
882
  8
0
 62
     9
 10
0.0
 20
0.0
 30
0.0
 70
   128
 71
    51
 72
    50
 73
    36
  0
VERTEX
  5
883
  8
0
 62
     9
 10
0.0
 20
0.0
 30
0.0
 70
   128
 71
    36
 72
    43
 73
    45
  0
VERTEX
  5
884
  8
0
 62
     9
 10
0.0
 20
0.0
 30
0.0
 70
   128
 71
    37
 72
    46
 73
    48
  0
VERTEX
  5
885
  8
0
 62
     9
 10
0.0
 20
0.0
 30
0.0
 70
   128
 71
    49
 72
    36
 73
    37
  0
VERTEX
  5
886
  8
0
 62
     9
 10
0.0
 20
0.0
 30
0.0
 70
   128
 71
    36
 72
    35
 73
    51
  0
VERTEX
  5
887
  8
0
 62
     9
 10
0.0
 20
0.0
 30
0.0
 70
   128
 71
    36
 72
    52
 73
    44
  0
VERTEX
  5
888
  8
0
 62
     9
 10
0.0
 20
0.0
 30
0.0
 70
   128
 71
    37
 72
    47
 73
    41
  0
VERTEX
  5
889
  8
0
 62
     9
 10
0.0
 20
0.0
 30
0.0
 70
   128
 71
    36
 72
    50
 73
    52
  0
VERTEX
  5
88A
  8
0
 62
     9
 10
0.0
 20
0.0
 30
0.0
 70
   128
 71
    35
 72
    36
 73
    42
  0
VERTEX
  5
88B
  8
0
 62
     9
 10
0.0
 20
0.0
 30
0.0
 70
   128
 71
    28
 72
    37
 73
    27
  0
SEQEND
  5
88C
  8
0
 62
     9
  0
ENDBLK
  5
88F
  8
0
  0
BLOCK
  8
0
  2
E3_NODE_44_
 70
     0
 10
0.0
 20
0.0
 30
0.0
  3
E3_NODE_44_
  1

  0
POLYLINE
  5
891
  8
0
 62
     9
 66
     1
 10
0.0
 20
0.0
 30
0.0
 70
    64
 71
    53
 72
    51
  0
VERTEX
  5
892
  8
0
 10
74.7239990234375
 20
-18.26000022888184
 30
72.02300262451172
 70
   192
  0
VERTEX
  5
893
  8
0
 10
77.98999786376953
 20
-16.93400001525879
 30
84.0
 70
   192
  0
VERTEX
  5
894
  8
0
 10
77.93800354003906
 20
-16.9689998626709
 30
84.0
 70
   192
  0
VERTEX
  5
895
  8
0
 10
71.8290023803711
 20
-18.91799926757812
 30
73.54499816894531
 70
   192
  0
VERTEX
  5
896
  8
0
 10
73.66799926757812
 20
-18.55400085449219
 30
84.0
 70
   192
  0
VERTEX
  5
897
  8
0
 10
69.23100280761719
 20
-19.10199928283691
 30
84.0
 70
   192
  0
VERTEX
  5
898
  8
0
 10
69.23100280761719
 20
-19.10300064086914
 30
74.00499725341797
 70
   192
  0
VERTEX
  5
899
  8
0
 10
85.1760025024414
 20
-10.48999977111816
 30
84.0
 70
   192
  0
VERTEX
  5
89A
  8
0
 10
84.71600341796875
 20
-11.22299957275391
 30
62.64799880981445
 70
   192
  0
VERTEX
  5
89B
  8
0
 10
84.8290023803711
 20
-11.09799957275391
 30
62.52799987792969
 70
   192
  0
VERTEX
  5
89C
  8
0
 10
80.04199981689453
 20
-15.58699989318848
 30
67.4520034790039
 70
   192
  0
VERTEX
  5
89D
  8
0
 10
82.0009994506836
 20
-14.22900009155273
 30
65.52100372314453
 70
   192
  0
VERTEX
  5
89E
  8
0
 10
78.38800048828125
 20
-16.73500061035156
 30
69.08300018310547
 70
   192
  0
VERTEX
  5
89F
  8
0
 10
81.89099884033203
 20
-14.32499980926514
 30
84.0
 70
   192
  0
VERTEX
  5
8A0
  8
0
 10
77.97899627685547
 20
-16.90500068664551
 30
69.41100311279297
 70
   192
  0
VERTEX
  5
8A1
  8
0
 10
84.92900085449219
 20
-10.95600032806396
 30
84.0
 70
   192
  0
VERTEX
  5
8A2
  8
0
 10
88.1709976196289
 20
-1.407999992370605
 30
84.0
 70
   192
  0
VERTEX
  5
8A3
  8
0
 10
87.33000183105469
 20
-5.888000011444092
 30
59.87300109863281
 70
   192
  0
VERTEX
  5
8A4
  8
0
 10
87.79000091552734
 20
-4.552000045776367
 30
59.38999938964844
 70
   192
  0
VERTEX
  5
8A5
  8
0
 10
87.04299926757812
 20
-6.966000080108643
 30
84.0
 70
   192
  0
VERTEX
  5
8A6
  8
0
 10
85.18000030517578
 20
-10.48999977111816
 30
62.15399932861328
 70
   192
  0
VERTEX
  5
8A7
  8
0
 10
86.58300018310547
 20
-8.060999870300293
 30
60.65800094604492
 70
   192
  0
VERTEX
  5
8A8
  8
0
 10
88.15699768066406
 20
-2.552000045776367
 30
84.0
 70
   192
  0
VERTEX
  5
8A9
  8
0
 10
88.26699829101562
 20
-0.0140000004321337
 30
58.89400100708008
 70
   192
  0
VERTEX
  5
8AA
  8
0
 10
88.05500030517578
 20
3.219000101089478
 30
59.11399841308594
 70
   192
  0
VERTEX
  5
8AB
  8
0
 10
88.21099853515625
 20
2.084000110626221
 30
84.0
 70
   192
  0
VERTEX
  5
8AC
  8
0
 10
87.7969970703125
 20
4.166999816894531
 30
59.38399887084961
 70
   192
  0
VERTEX
  5
8AD
  8
0
 10
87.73200225830078
 20
4.15500020980835
 30
84.0
 70
   192
  0
VERTEX
  5
8AE
  8
0
 10
88.21399688720703
 20
-1.401999950408936
 30
58.94900131225586
 70
   192
  0
VERTEX
  5
8AF
  8
0
 10
88.31099700927734
 20
-0.6790000200271606
 30
58.84799957275391
 70
   192
  0
VERTEX
  5
8B0
  8
0
 10
85.08200073242188
 20
10.71300029754639
 30
84.0
 70
   192
  0
VERTEX
  5
8B1
  8
0
 10
84.66600036621094
 20
11.16800022125244
 30
62.70000076293945
 70
   192
  0
VERTEX
  5
8B2
  8
0
 10
83.2760009765625
 20
12.84500026702881
 30
64.177001953125
 70
   192
  0
VERTEX
  5
8B3
  8
0
 10
83.24400329589844
 20
12.8149995803833
 30
84.0
 70
   192
  0
VERTEX
  5
8B4
  8
0
 10
87.15499877929688
 20
6.645999908447266
 30
84.0
 70
   192
  0
VERTEX
  5
8B5
  8
0
 10
87.33100128173828
 20
5.874000072479248
 30
59.87099838256836
 70
   192
  0
VERTEX
  5
8B6
  8
0
 10
87.0270004272461
 20
6.98799991607666
 30
60.18899917602539
 70
   192
  0
VERTEX
  5
8B7
  8
0
 10
85.24400329589844
 20
10.47000026702881
 30
62.08499908447266
 70
   192
  0
VERTEX
  5
8B8
  8
0
 10
82.10900115966797
 20
14.11400032043457
 30
84.0
 70
   192
  0
VERTEX
  5
8B9
  8
0
 10
80.0479965209961
 20
15.56599998474121
 30
67.4540023803711
 70
   192
  0
VERTEX
  5
8BA
  8
0
 10
79.79199981689453
 20
15.75800037384033
 30
67.71099853515625
 70
   192
  0
VERTEX
  5
8BB
  8
0
 10
79.78299713134766
 20
15.73999977111816
 30
84.0
 70
   192
  0
VERTEX
  5
8BC
  8
0
 10
82.60900115966797
 20
13.64999961853027
 30
64.88600158691406
 70
   192
  0
VERTEX
  5
8BD
  8
0
 10
74.07599639892578
 20
18.42900085449219
 30
84.0
 70
   192
  0
VERTEX
  5
8BE
  8
0
 10
71.5469970703125
 20
18.9370002746582
 30
73.63999938964844
 70
   192
  0
VERTEX
  5
8BF
  8
0
 10
70.96600341796875
 20
18.97299957275391
 30
73.73100280761719
 70
   192
  0
VERTEX
  5
8C0
  8
0
 10
74.98200225830078
 20
18.15999984741211
 30
71.8479995727539
 70
   192
  0
VERTEX
  5
8C1
  8
0
 10
78.39700317382812
 20
16.70899963378906
 30
84.0
 70
   192
  0
VERTEX
  5
8C2
  8
0
 10
78.87699890136719
 20
16.4419994354248
 30
68.62799835205078
 70
   192
  0
VERTEX
  5
8C3
  8
0
 10
70.9530029296875
 20
18.90500068664551
 30
84.0
 70
   192
  0
VERTEX
  5
8C4
  8
0
 10
69.23100280761719
 20
19.08300018310547
 30
74.00499725341797
 70
   192
  0
VERTEX
  5
8C5
  8
0
 10
69.23100280761719
 20
19.08200073242188
 30
84.0
 70
   192
  0
VERTEX
  5
8C6
  8
0
 10
69.83699798583984
 20
19.07500076293945
 30
84.0
 70
   192
  0
VERTEX
  5
8C7
  8
0
 62
     9
 10
0.0
 20
0.0
 30
0.0
 70
   128
 71
     3
 72
     2
 73
     1
  0
VERTEX
  5
8C8
  8
0
 62
     9
 10
0.0
 20
0.0
 30
0.0
 70
   128
 71
     1
 72
     4
 73
     3
  0
VERTEX
  5
8C9
  8
0
 62
     9
 10
0.0
 20
0.0
 30
0.0
 70
   128
 71
     4
 72
     5
 73
     3
  0
VERTEX
  5
8CA
  8
0
 62
     9
 10
0.0
 20
0.0
 30
0.0
 70
   128
 71
     7
 72
     6
 73
     5
  0
VERTEX
  5
8CB
  8
0
 62
     9
 10
0.0
 20
0.0
 30
0.0
 70
   128
 71
     5
 72
     4
 73
     7
  0
VERTEX
  5
8CC
  8
0
 62
     9
 10
0.0
 20
0.0
 30
0.0
 70
   128
 71
    10
 72
     9
 73
     8
  0
VERTEX
  5
8CD
  8
0
 62
     9
 10
0.0
 20
0.0
 30
0.0
 70
   128
 71
    12
 72
    11
 73
     8
  0
VERTEX
  5
8CE
  8
0
 62
     9
 10
0.0
 20
0.0
 30
0.0
 70
   128
 71
     8
 72
     9
 73
    12
  0
VERTEX
  5
8CF
  8
0
 62
     9
 10
0.0
 20
0.0
 30
0.0
 70
   128
 71
    11
 72
    13
 73
     8
  0
VERTEX
  5
8D0
  8
0
 62
     9
 10
0.0
 20
0.0
 30
0.0
 70
   128
 71
    15
 72
     2
 73
    14
  0
VERTEX
  5
8D1
  8
0
 62
     9
 10
0.0
 20
0.0
 30
0.0
 70
   128
 71
    16
 72
     8
 73
    13
  0
VERTEX
  5
8D2
  8
0
 62
     9
 10
0.0
 20
0.0
 30
0.0
 70
   128
 71
    13
 72
    14
 73
    16
  0
VERTEX
  5
8D3
  8
0
 62
     9
 10
0.0
 20
0.0
 30
0.0
 70
   128
 71
    14
 72
    13
 73
    15
  0
VERTEX
  5
8D4
  8
0
 62
     9
 10
0.0
 20
0.0
 30
0.0
 70
   128
 71
    19
 72
    18
 73
    17
  0
VERTEX
  5
8D5
  8
0
 62
     9
 10
0.0
 20
0.0
 30
0.0
 70
   128
 71
    21
 72
     8
 73
    20
  0
VERTEX
  5
8D6
  8
0
 62
     9
 10
0.0
 20
0.0
 30
0.0
 70
   128
 71
    20
 72
    22
 73
    21
  0
VERTEX
  5
8D7
  8
0
 62
     9
 10
0.0
 20
0.0
 30
0.0
 70
   128
 71
    23
 72
    17
 73
    18
  0
VERTEX
  5
8D8
  8
0
 62
     9
 10
0.0
 20
0.0
 30
0.0
 70
   128
 71
    18
 72
    20
 73
    23
  0
VERTEX
  5
8D9
  8
0
 62
     9
 10
0.0
 20
0.0
 30
0.0
 70
   128
 71
    20
 72
    18
 73
    22
  0
VERTEX
  5
8DA
  8
0
 62
     9
 10
0.0
 20
0.0
 30
0.0
 70
   128
 71
    26
 72
    25
 73
    24
  0
VERTEX
  5
8DB
  8
0
 62
     9
 10
0.0
 20
0.0
 30
0.0
 70
   128
 71
    27
 72
    25
 73
    26
  0
VERTEX
  5
8DC
  8
0
 62
     9
 10
0.0
 20
0.0
 30
0.0
 70
   128
 71
    26
 72
    28
 73
    27
  0
VERTEX
  5
8DD
  8
0
 62
     9
 10
0.0
 20
0.0
 30
0.0
 70
   128
 71
    30
 72
    29
 73
    17
  0
VERTEX
  5
8DE
  8
0
 62
     9
 10
0.0
 20
0.0
 30
0.0
 70
   128
 71
    17
 72
    24
 73
    30
  0
VERTEX
  5
8DF
  8
0
 62
     9
 10
0.0
 20
0.0
 30
0.0
 70
   128
 71
    33
 72
    32
 73
    31
  0
VERTEX
  5
8E0
  8
0
 62
     9
 10
0.0
 20
0.0
 30
0.0
 70
   128
 71
    31
 72
    34
 73
    33
  0
VERTEX
  5
8E1
  8
0
 62
     9
 10
0.0
 20
0.0
 30
0.0
 70
   128
 71
    32
 72
    35
 73
    31
  0
VERTEX
  5
8E2
  8
0
 62
     9
 10
0.0
 20
0.0
 30
0.0
 70
   128
 71
    37
 72
    36
 73
    28
  0
VERTEX
  5
8E3
  8
0
 62
     9
 10
0.0
 20
0.0
 30
0.0
 70
   128
 71
    28
 72
    38
 73
    37
  0
VERTEX
  5
8E4
  8
0
 62
     9
 10
0.0
 20
0.0
 30
0.0
 70
   128
 71
    36
 72
    27
 73
    28
  0
VERTEX
  5
8E5
  8
0
 62
     9
 10
0.0
 20
0.0
 30
0.0
 70
   128
 71
    28
 72
    32
 73
    38
  0
VERTEX
  5
8E6
  8
0
 62
     9
 10
0.0
 20
0.0
 30
0.0
 70
   128
 71
    41
 72
    40
 73
    39
  0
VERTEX
  5
8E7
  8
0
 62
     9
 10
0.0
 20
0.0
 30
0.0
 70
   128
 71
    39
 72
    42
 73
    41
  0
VERTEX
  5
8E8
  8
0
 62
     9
 10
0.0
 20
0.0
 30
0.0
 70
   128
 71
    43
 72
    33
 73
    34
  0
VERTEX
  5
8E9
  8
0
 62
     9
 10
0.0
 20
0.0
 30
0.0
 70
   128
 71
    34
 72
    40
 73
    43
  0
VERTEX
  5
8EA
  8
0
 62
     9
 10
0.0
 20
0.0
 30
0.0
 70
   128
 71
    46
 72
    45
 73
    44
  0
VERTEX
  5
8EB
  8
0
 62
     9
 10
0.0
 20
0.0
 30
0.0
 70
   128
 71
    44
 72
    45
 73
    47
  0
VERTEX
  5
8EC
  8
0
 62
     9
 10
0.0
 20
0.0
 30
0.0
 70
   128
 71
    47
 72
    48
 73
    44
  0
VERTEX
  5
8ED
  8
0
 62
     9
 10
0.0
 20
0.0
 30
0.0
 70
   128
 71
    49
 72
    41
 73
    42
  0
VERTEX
  5
8EE
  8
0
 62
     9
 10
0.0
 20
0.0
 30
0.0
 70
   128
 71
    42
 72
    47
 73
    49
  0
VERTEX
  5
8EF
  8
0
 62
     9
 10
0.0
 20
0.0
 30
0.0
 70
   128
 71
    47
 72
    42
 73
    48
  0
VERTEX
  5
8F0
  8
0
 62
     9
 10
0.0
 20
0.0
 30
0.0
 70
   128
 71
    51
 72
    46
 73
    50
  0
VERTEX
  5
8F1
  8
0
 62
     9
 10
0.0
 20
0.0
 30
0.0
 70
   128
 71
    53
 72
    52
 73
    51
  0
VERTEX
  5
8F2
  8
0
 62
     9
 10
0.0
 20
0.0
 30
0.0
 70
   128
 71
    50
 72
    53
 73
    51
  0
VERTEX
  5
8F3
  8
0
 62
     9
 10
0.0
 20
0.0
 30
0.0
 70
   128
 71
    44
 72
    50
 73
    46
  0
VERTEX
  5
8F4
  8
0
 62
     9
 10
0.0
 20
0.0
 30
0.0
 70
   128
 71
    40
 72
    34
 73
    39
  0
VERTEX
  5
8F5
  8
0
 62
     9
 10
0.0
 20
0.0
 30
0.0
 70
   128
 71
    32
 72
    28
 73
    35
  0
VERTEX
  5
8F6
  8
0
 62
     9
 10
0.0
 20
0.0
 30
0.0
 70
   128
 71
    24
 72
    17
 73
    26
  0
VERTEX
  5
8F7
  8
0
 62
     9
 10
0.0
 20
0.0
 30
0.0
 70
   128
 71
    17
 72
    29
 73
    19
  0
VERTEX
  5
8F8
  8
0
 62
     9
 10
0.0
 20
0.0
 30
0.0
 70
   128
 71
     8
 72
    21
 73
    10
  0
VERTEX
  5
8F9
  8
0
 62
     9
 10
0.0
 20
0.0
 30
0.0
 70
   128
 71
     2
 72
    15
 73
     1
  0
SEQEND
  5
8FA
  8
0
 62
     9
  0
ENDBLK
  5
8FD
  8
0
  0
BLOCK
  8
0
  2
E3_NODE_45_
 70
     0
 10
0.0
 20
0.0
 30
0.0
  3
E3_NODE_45_
  1

  0
POLYLINE
  5
8FF
  8
0
 62
     9
 66
     1
 10
0.0
 20
0.0
 30
0.0
 70
    64
 71
    19
 72
    17
  0
VERTEX
  5
900
  8
0
 10
14.56700038909912
 20
-21.10099983215332
 30
84.0
 70
   192
  0
VERTEX
  5
901
  8
0
 10
10.35400009155273
 20
-22.8799991607666
 30
84.0
 70
   192
  0
VERTEX
  5
902
  8
0
 10
11.06700038909912
 20
-22.58699989318848
 30
74.00499725341797
 70
   192
  0
VERTEX
  5
903
  8
0
 10
13.98999977111816
 20
-21.36400032043457
 30
74.00499725341797
 70
   192
  0
VERTEX
  5
904
  8
0
 10
10.35599994659424
 20
-22.88500022888184
 30
74.00499725341797
 70
   192
  0
VERTEX
  5
905
  8
0
 10
18.29299926757812
 20
-20.30200004577637
 30
84.0
 70
   192
  0
VERTEX
  5
906
  8
0
 10
14.8120002746582
 20
-21.01899909973145
 30
74.00499725341797
 70
   192
  0
VERTEX
  5
907
  8
0
 10
18.29700088500977
 20
-20.32699966430664
 30
74.00499725341797
 70
   192
  0
VERTEX
  5
908
  8
0
 10
69.23100280761719
 20
-19.10300064086914
 30
74.00499725341797
 70
   192
  0
VERTEX
  5
909
  8
0
 10
69.23100280761719
 20
-19.10199928283691
 30
84.0
 70
   192
  0
VERTEX
  5
90A
  8
0
 10
58.20800018310547
 20
-19.11400032043457
 30
84.0
 70
   192
  0
VERTEX
  5
90B
  8
0
 10
28.27599906921387
 20
-19.43899917602539
 30
84.0
 70
   192
  0
VERTEX
  5
90C
  8
0
 10
31.06100082397461
 20
-19.35400009155273
 30
74.00499725341797
 70
   192
  0
VERTEX
  5
90D
  8
0
 10
50.70600128173828
 20
-19.22500038146973
 30
74.00499725341797
 70
   192
  0
VERTEX
  5
90E
  8
0
 10
18.92000007629395
 20
-20.20299911499023
 30
74.00499725341797
 70
   192
  0
VERTEX
  5
90F
  8
0
 10
19.49200057983398
 20
-20.04500007629395
 30
84.0
 70
   192
  0
VERTEX
  5
910
  8
0
 10
20.05699920654297
 20
-19.97699928283691
 30
74.00499725341797
 70
   192
  0
VERTEX
  5
911
  8
0
 10
8.616000175476074
 20
-23.61300086975098
 30
84.0
 70
   192
  0
VERTEX
  5
912
  8
0
 10
8.616000175476074
 20
-23.61300086975098
 30
74.00499725341797
 70
   192
  0
VERTEX
  5
913
  8
0
 62
     9
 10
0.0
 20
0.0
 30
0.0
 70
   128
 71
     3
 72
     2
 73
     1
  0
VERTEX
  5
914
  8
0
 62
     9
 10
0.0
 20
0.0
 30
0.0
 70
   128
 71
     1
 72
     4
 73
     3
  0
VERTEX
  5
915
  8
0
 62
     9
 10
0.0
 20
0.0
 30
0.0
 70
   128
 71
     3
 72
     5
 73
     2
  0
VERTEX
  5
916
  8
0
 62
     9
 10
0.0
 20
0.0
 30
0.0
 70
   128
 71
     7
 72
     1
 73
     6
  0
VERTEX
  5
917
  8
0
 62
     9
 10
0.0
 20
0.0
 30
0.0
 70
   128
 71
     6
 72
     8
 73
     7
  0
VERTEX
  5
918
  8
0
 62
     9
 10
0.0
 20
0.0
 30
0.0
 70
   128
 71
    11
 72
    10
 73
     9
  0
VERTEX
  5
919
  8
0
 62
     9
 10
0.0
 20
0.0
 30
0.0
 70
   128
 71
    14
 72
    13
 73
    12
  0
VERTEX
  5
91A
  8
0
 62
     9
 10
0.0
 20
0.0
 30
0.0
 70
   128
 71
    12
 72
    11
 73
    14
  0
VERTEX
  5
91B
  8
0
 62
     9
 10
0.0
 20
0.0
 30
0.0
 70
   128
 71
    15
 72
     8
 73
     6
  0
VERTEX
  5
91C
  8
0
 62
     9
 10
0.0
 20
0.0
 30
0.0
 70
   128
 71
     6
 72
    16
 73
    15
  0
VERTEX
  5
91D
  8
0
 62
     9
 10
0.0
 20
0.0
 30
0.0
 70
   128
 71
    12
 72
    13
 73
    17
  0
VERTEX
  5
91E
  8
0
 62
     9
 10
0.0
 20
0.0
 30
0.0
 70
   128
 71
    17
 72
    16
 73
    12
  0
VERTEX
  5
91F
  8
0
 62
     9
 10
0.0
 20
0.0
 30
0.0
 70
   128
 71
    16
 72
    17
 73
    15
  0
VERTEX
  5
920
  8
0
 62
     9
 10
0.0
 20
0.0
 30
0.0
 70
   128
 71
    18
 72
     2
 73
     5
  0
VERTEX
  5
921
  8
0
 62
     9
 10
0.0
 20
0.0
 30
0.0
 70
   128
 71
     5
 72
    19
 73
    18
  0
VERTEX
  5
922
  8
0
 62
     9
 10
0.0
 20
0.0
 30
0.0
 70
   128
 71
     9
 72
    14
 73
    11
  0
VERTEX
  5
923
  8
0
 62
     9
 10
0.0
 20
0.0
 30
0.0
 70
   128
 71
     1
 72
     7
 73
     4
  0
SEQEND
  5
924
  8
0
 62
     9
  0
ENDBLK
  5
927
  8
0
  0
BLOCK
  8
0
  2
E3_NODE_46_
 70
     0
 10
0.0
 20
0.0
 30
0.0
  3
E3_NODE_46_
  1

  0
POLYLINE
  5
929
  8
0
 62
     9
 66
     1
 10
0.0
 20
0.0
 30
0.0
 70
    64
 71
    64
 72
    62
  0
VERTEX
  5
92A
  8
0
 10
6.534999847412109
 20
-24.27000045776367
 30
0.0
 70
   192
  0
VERTEX
  5
92B
  8
0
 10
5.539000034332275
 20
-24.51399993896484
 30
74.00499725341797
 70
   192
  0
VERTEX
  5
92C
  8
0
 10
2.917999982833862
 20
-24.93000030517578
 30
74.00499725341797
 70
   192
  0
VERTEX
  5
92D
  8
0
 10
6.532999992370605
 20
-24.26199913024902
 30
74.00499725341797
 70
   192
  0
VERTEX
  5
92E
  8
0
 10
0.4490000009536743
 20
-25.00200080871582
 30
0.0
 70
   192
  0
VERTEX
  5
92F
  8
0
 10
1.0
 20
24.98600006103516
 30
74.00499725341797
 70
   192
  0
VERTEX
  5
930
  8
0
 10
2.532000064849854
 20
24.89200019836426
 30
74.00499725341797
 70
   192
  0
VERTEX
  5
931
  8
0
 10
2.523000001907349
 20
24.82900047302246
 30
0.0
 70
   192
  0
VERTEX
  5
932
  8
0
 10
3.704999923706055
 20
24.81999969482422
 30
74.00499725341797
 70
   192
  0
VERTEX
  5
933
  8
0
 10
8.616000175476074
 20
23.5930004119873
 30
74.00499725341797
 70
   192
  0
VERTEX
  5
934
  8
0
 10
9.82699966430664
 20
23.11599922180176
 30
0.0
 70
   192
  0
VERTEX
  5
935
  8
0
 10
5.326000213623047
 20
24.54100036621094
 30
0.0
 70
   192
  0
VERTEX
  5
936
  8
0
 10
11.59700012207031
 20
22.24799919128418
 30
65.85800170898438
 70
   192
  0
VERTEX
  5
937
  8
0
 10
11.5290002822876
 20
22.17300033569336
 30
0.0
 70
   192
  0
VERTEX
  5
938
  8
0
 10
19.14699935913086
 20
16.26000022888184
 30
45.22100067138672
 70
   192
  0
VERTEX
  5
939
  8
0
 10
18.20299911499023
 20
17.31800079345703
 30
0.0
 70
   192
  0
VERTEX
  5
93A
  8
0
 10
14.43299961090088
 20
20.56399917602539
 30
0.0
 70
   192
  0
VERTEX
  5
93B
  8
0
 10
19.63299942016602
 20
15.57400035858154
 30
43.89300155639648
 70
   192
  0
VERTEX
  5
93C
  8
0
 10
19.66200065612793
 20
15.60400009155273
 30
0.0
 70
   192
  0
VERTEX
  5
93D
  8
0
 10
15.9980001449585
 20
19.375
 30
53.82899856567383
 70
   192
  0
VERTEX
  5
93E
  8
0
 10
18.04899978637695
 20
17.34600067138672
 30
48.2239990234375
 70
   192
  0
VERTEX
  5
93F
  8
0
 10
12.02000045776367
 20
22.05699920654297
 30
64.69999694824219
 70
   192
  0
VERTEX
  5
940
  8
0
 10
13.38599967956543
 20
21.13599967956543
 30
60.96699905395508
 70
   192
  0
VERTEX
  5
941
  8
0
 10
23.1569995880127
 20
9.572999954223633
 30
34.26300048828125
 70
   192
  0
VERTEX
  5
942
  8
0
 10
22.5890007019043
 20
10.87800025939941
 30
0.0
 70
   192
  0
VERTEX
  5
943
  8
0
 10
19.86599922180176
 20
15.36400032043457
 30
0.0
 70
   192
  0
VERTEX
  5
944
  8
0
 10
23.4060001373291
 20
8.802000045776367
 30
33.58100128173828
 70
   192
  0
VERTEX
  5
945
  8
0
 10
23.31399917602539
 20
8.772000312805176
 30
0.0
 70
   192
  0
VERTEX
  5
946
  8
0
 10
21.49799919128418
 20
12.94299983978271
 30
38.79700088500977
 70
   192
  0
VERTEX
  5
947
  8
0
 10
22.375
 20
11.16100025177002
 30
36.39899826049805
 70
   192
  0
VERTEX
  5
948
  8
0
 10
20.2810001373291
 20
14.65999984741211
 30
42.12300109863281
 70
   192
  0
VERTEX
  5
949
  8
0
 10
24.7859992980957
 20
-2.41700005531311
 30
0.0
 70
   192
  0
VERTEX
  5
94A
  8
0
 10
24.99300003051758
 20
0.4210000038146973
 30
0.0
 70
   192
  0
VERTEX
  5
94B
  8
0
 10
24.99699974060059
 20
-0.0099999997764826
 30
29.23399925231934
 70
   192
  0
VERTEX
  5
94C
  8
0
 10
24.3430004119873
 20
5.782000064849854
 30
0.0
 70
   192
  0
VERTEX
  5
94D
  8
0
 10
24.80900001525879
 20
3.11299991607666
 30
29.74799919128418
 70
   192
  0
VERTEX
  5
94E
  8
0
 10
24.22900009155273
 20
6.257999897003174
 30
31.33200073242188
 70
   192
  0
VERTEX
  5
94F
  8
0
 10
24.75399971008301
 20
3.411999940872192
 30
29.89900016784668
 70
   192
  0
VERTEX
  5
950
  8
0
 10
21.76199913024902
 20
-12.24100017547607
 30
0.0
 70
   192
  0
VERTEX
  5
951
  8
0
 10
23.35000038146973
 20
-9.095999717712402
 30
33.73400115966797
 70
   192
  0
VERTEX
  5
952
  8
0
 10
22.37299919128418
 20
-11.17599964141846
 30
36.40599822998047
 70
   192
  0
VERTEX
  5
953
  8
0
 10
24.29599952697754
 20
-6.001999855041504
 30
31.14900016784668
 70
   192
  0
VERTEX
  5
954
  8
0
 10
24.15500068664551
 20
-6.465000152587891
 30
31.5359992980957
 70
   192
  0
VERTEX
  5
955
  8
0
 10
24.86000061035156
 20
-2.67300009727478
 30
29.60700035095215
 70
   192
  0
VERTEX
  5
956
  8
0
 10
24.73600006103516
 20
-3.407999992370605
 30
29.94799995422363
 70
   192
  0
VERTEX
  5
957
  8
0
 10
24.6560001373291
 20
-4.210000038146973
 30
0.0
 70
   192
  0
VERTEX
  5
958
  8
0
 10
24.87299919128418
 20
-2.42300009727478
 30
29.57200050354004
 70
   192
  0
VERTEX
  5
959
  8
0
 10
23.25699996948242
 20
-9.338000297546387
 30
0.0
 70
   192
  0
VERTEX
  5
95A
  8
0
 10
15.25599956512451
 20
-19.98299980163574
 30
0.0
 70
   192
  0
VERTEX
  5
95B
  8
0
 10
19.60199928283691
 20
-15.72399997711182
 30
43.97900009155273
 70
   192
  0
VERTEX
  5
95C
  8
0
 10
18.04899978637695
 20
-17.37700080871582
 30
48.22299957275391
 70
   192
  0
VERTEX
  5
95D
  8
0
 10
16.81100082397461
 20
-18.69400024414062
 30
51.60599899291992
 70
   192
  0
VERTEX
  5
95E
  8
0
 10
21.68199920654297
 20
-12.64500045776367
 30
38.29299926757812
 70
   192
  0
VERTEX
  5
95F
  8
0
 10
20.2859992980957
 20
-14.71199989318848
 30
42.11000061035156
 70
   192
  0
VERTEX
  5
960
  8
0
 10
20.87800025939941
 20
-13.95800018310547
 30
0.0
 70
   192
  0
VERTEX
  5
961
  8
0
 10
21.85199928283691
 20
-12.28499984741211
 30
37.83000183105469
 70
   192
  0
VERTEX
  5
962
  8
0
 10
19.86599922180176
 20
-15.38399982452393
 30
0.0
 70
   192
  0
VERTEX
  5
963
  8
0
 10
6.902999877929688
 20
-24.16900062561035
 30
74.00499725341797
 70
   192
  0
VERTEX
  5
964
  8
0
 10
13.30000019073486
 20
-21.33200073242188
 30
61.20199966430664
 70
   192
  0
VERTEX
  5
965
  8
0
 10
8.616000175476074
 20
-23.61300086975098
 30
74.00499725341797
 70
   192
  0
VERTEX
  5
966
  8
0
 10
15.22399997711182
 20
-19.88699913024902
 30
55.94499969482422
 70
   192
  0
VERTEX
  5
967
  8
0
 10
13.39500045776367
 20
-21.26099967956543
 30
60.94400024414062
 70
   192
  0
VERTEX
  5
968
  8
0
 10
1.0
 20
24.98600006103516
 30
0.0
 70
   192
  0
VERTEX
  5
969
  8
0
 10
0.4490000009536743
 20
-25.00200080871582
 30
74.00499725341797
 70
   192
  0
VERTEX
  5
96A
  8
0
 62
     9
 10
0.0
 20
0.0
 30
0.0
 70
   128
 71
     3
 72
     2
 73
     1
  0
VERTEX
  5
96B
  8
0
 62
     9
 10
0.0
 20
0.0
 30
0.0
 70
   128
 71
     2
 72
     4
 73
     1
  0
VERTEX
  5
96C
  8
0
 62
     9
 10
0.0
 20
0.0
 30
0.0
 70
   128
 71
     1
 72
     5
 73
     3
  0
VERTEX
  5
96D
  8
0
 62
     9
 10
0.0
 20
0.0
 30
0.0
 70
   128
 71
     8
 72
     7
 73
     6
  0
VERTEX
  5
96E
  8
0
 62
     9
 10
0.0
 20
0.0
 30
0.0
 70
   128
 71
     9
 72
     7
 73
     8
  0
VERTEX
  5
96F
  8
0
 62
     9
 10
0.0
 20
0.0
 30
0.0
 70
   128
 71
    12
 72
    11
 73
    10
  0
VERTEX
  5
970
  8
0
 62
     9
 10
0.0
 20
0.0
 30
0.0
 70
   128
 71
    10
 72
     9
 73
    12
  0
VERTEX
  5
971
  8
0
 62
     9
 10
0.0
 20
0.0
 30
0.0
 70
   128
 71
    13
 72
    10
 73
    11
  0
VERTEX
  5
972
  8
0
 62
     9
 10
0.0
 20
0.0
 30
0.0
 70
   128
 71
    11
 72
    14
 73
    13
  0
VERTEX
  5
973
  8
0
 62
     9
 10
0.0
 20
0.0
 30
0.0
 70
   128
 71
    17
 72
    16
 73
    15
  0
VERTEX
  5
974
  8
0
 62
     9
 10
0.0
 20
0.0
 30
0.0
 70
   128
 71
    18
 72
    15
 73
    16
  0
VERTEX
  5
975
  8
0
 62
     9
 10
0.0
 20
0.0
 30
0.0
 70
   128
 71
    16
 72
    19
 73
    18
  0
VERTEX
  5
976
  8
0
 62
     9
 10
0.0
 20
0.0
 30
0.0
 70
   128
 71
    21
 72
    20
 73
    14
  0
VERTEX
  5
977
  8
0
 62
     9
 10
0.0
 20
0.0
 30
0.0
 70
   128
 71
    23
 72
    22
 73
    14
  0
VERTEX
  5
978
  8
0
 62
     9
 10
0.0
 20
0.0
 30
0.0
 70
   128
 71
    22
 72
    13
 73
    14
  0
VERTEX
  5
979
  8
0
 62
     9
 10
0.0
 20
0.0
 30
0.0
 70
   128
 71
    14
 72
    20
 73
    23
  0
VERTEX
  5
97A
  8
0
 62
     9
 10
0.0
 20
0.0
 30
0.0
 70
   128
 71
    14
 72
    15
 73
    21
  0
VERTEX
  5
97B
  8
0
 62
     9
 10
0.0
 20
0.0
 30
0.0
 70
   128
 71
    26
 72
    25
 73
    24
  0
VERTEX
  5
97C
  8
0
 62
     9
 10
0.0
 20
0.0
 30
0.0
 70
   128
 71
    27
 72
    24
 73
    25
  0
VERTEX
  5
97D
  8
0
 62
     9
 10
0.0
 20
0.0
 30
0.0
 70
   128
 71
    25
 72
    28
 73
    27
  0
VERTEX
  5
97E
  8
0
 62
     9
 10
0.0
 20
0.0
 30
0.0
 70
   128
 71
    30
 72
    29
 73
    19
  0
VERTEX
  5
97F
  8
0
 62
     9
 10
0.0
 20
0.0
 30
0.0
 70
   128
 71
    31
 72
    18
 73
    19
  0
VERTEX
  5
980
  8
0
 62
     9
 10
0.0
 20
0.0
 30
0.0
 70
   128
 71
    19
 72
    29
 73
    31
  0
VERTEX
  5
981
  8
0
 62
     9
 10
0.0
 20
0.0
 30
0.0
 70
   128
 71
    19
 72
    24
 73
    30
  0
VERTEX
  5
982
  8
0
 62
     9
 10
0.0
 20
0.0
 30
0.0
 70
   128
 71
    34
 72
    33
 73
    32
  0
VERTEX
  5
983
  8
0
 62
     9
 10
0.0
 20
0.0
 30
0.0
 70
   128
 71
    34
 72
    36
 73
    35
  0
VERTEX
  5
984
  8
0
 62
     9
 10
0.0
 20
0.0
 30
0.0
 70
   128
 71
    35
 72
    33
 73
    34
  0
VERTEX
  5
985
  8
0
 62
     9
 10
0.0
 20
0.0
 30
0.0
 70
   128
 71
    38
 72
    37
 73
    28
  0
VERTEX
  5
986
  8
0
 62
     9
 10
0.0
 20
0.0
 30
0.0
 70
   128
 71
    37
 72
    27
 73
    28
  0
VERTEX
  5
987
  8
0
 62
     9
 10
0.0
 20
0.0
 30
0.0
 70
   128
 71
    28
 72
    36
 73
    38
  0
VERTEX
  5
988
  8
0
 62
     9
 10
0.0
 20
0.0
 30
0.0
 70
   128
 71
    36
 72
    28
 73
    35
  0
VERTEX
  5
989
  8
0
 62
     9
 10
0.0
 20
0.0
 30
0.0
 70
   128
 71
    41
 72
    40
 73
    39
  0
VERTEX
  5
98A
  8
0
 62
     9
 10
0.0
 20
0.0
 30
0.0
 70
   128
 71
    43
 72
    42
 73
    39
  0
VERTEX
  5
98B
  8
0
 62
     9
 10
0.0
 20
0.0
 30
0.0
 70
   128
 71
    39
 72
    40
 73
    43
  0
VERTEX
  5
98C
  8
0
 62
     9
 10
0.0
 20
0.0
 30
0.0
 70
   128
 71
    45
 72
    44
 73
    39
  0
VERTEX
  5
98D
  8
0
 62
     9
 10
0.0
 20
0.0
 30
0.0
 70
   128
 71
    39
 72
    42
 73
    45
  0
VERTEX
  5
98E
  8
0
 62
     9
 10
0.0
 20
0.0
 30
0.0
 70
   128
 71
    47
 72
    32
 73
    46
  0
VERTEX
  5
98F
  8
0
 62
     9
 10
0.0
 20
0.0
 30
0.0
 70
   128
 71
    48
 72
    39
 73
    44
  0
VERTEX
  5
990
  8
0
 62
     9
 10
0.0
 20
0.0
 30
0.0
 70
   128
 71
    44
 72
    46
 73
    48
  0
VERTEX
  5
991
  8
0
 62
     9
 10
0.0
 20
0.0
 30
0.0
 70
   128
 71
    46
 72
    44
 73
    47
  0
VERTEX
  5
992
  8
0
 62
     9
 10
0.0
 20
0.0
 30
0.0
 70
   128
 71
    51
 72
    50
 73
    49
  0
VERTEX
  5
993
  8
0
 62
     9
 10
0.0
 20
0.0
 30
0.0
 70
   128
 71
    49
 72
    52
 73
    51
  0
VERTEX
  5
994
  8
0
 62
     9
 10
0.0
 20
0.0
 30
0.0
 70
   128
 71
    54
 72
    53
 73
    49
  0
VERTEX
  5
995
  8
0
 62
     9
 10
0.0
 20
0.0
 30
0.0
 70
   128
 71
    49
 72
    50
 73
    54
  0
VERTEX
  5
996
  8
0
 62
     9
 10
0.0
 20
0.0
 30
0.0
 70
   128
 71
    56
 72
    39
 73
    55
  0
VERTEX
  5
997
  8
0
 62
     9
 10
0.0
 20
0.0
 30
0.0
 70
   128
 71
    57
 72
    49
 73
    53
  0
VERTEX
  5
998
  8
0
 62
     9
 10
0.0
 20
0.0
 30
0.0
 70
   128
 71
    53
 72
    55
 73
    57
  0
VERTEX
  5
999
  8
0
 62
     9
 10
0.0
 20
0.0
 30
0.0
 70
   128
 71
    55
 72
    53
 73
    56
  0
VERTEX
  5
99A
  8
0
 62
     9
 10
0.0
 20
0.0
 30
0.0
 70
   128
 71
    59
 72
     1
 73
    58
  0
VERTEX
  5
99B
  8
0
 62
     9
 10
0.0
 20
0.0
 30
0.0
 70
   128
 71
    58
 72
    60
 73
    59
  0
VERTEX
  5
99C
  8
0
 62
     9
 10
0.0
 20
0.0
 30
0.0
 70
   128
 71
    61
 72
    49
 73
     1
  0
VERTEX
  5
99D
  8
0
 62
     9
 10
0.0
 20
0.0
 30
0.0
 70
   128
 71
     1
 72
    62
 73
    61
  0
VERTEX
  5
99E
  8
0
 62
     9
 10
0.0
 20
0.0
 30
0.0
 70
   128
 71
     1
 72
    59
 73
    62
  0
VERTEX
  5
99F
  8
0
 62
     9
 10
0.0
 20
0.0
 30
0.0
 70
   128
 71
     1
 72
     4
 73
    58
  0
VERTEX
  5
9A0
  8
0
 62
     9
 10
0.0
 20
0.0
 30
0.0
 70
   128
 71
    49
 72
    61
 73
    52
  0
VERTEX
  5
9A1
  8
0
 62
     9
 10
0.0
 20
0.0
 30
0.0
 70
   128
 71
    39
 72
    56
 73
    41
  0
VERTEX
  5
9A2
  8
0
 62
     9
 10
0.0
 20
0.0
 30
0.0
 70
   128
 71
    32
 72
    47
 73
    34
  0
VERTEX
  5
9A3
  8
0
 62
     9
 10
0.0
 20
0.0
 30
0.0
 70
   128
 71
    24
 72
    19
 73
    26
  0
VERTEX
  5
9A4
  8
0
 62
     9
 10
0.0
 20
0.0
 30
0.0
 70
   128
 71
    15
 72
    14
 73
    17
  0
VERTEX
  5
9A5
  8
0
 62
     9
 10
0.0
 20
0.0
 30
0.0
 70
   128
 71
     8
 72
    12
 73
     9
  0
VERTEX
  5
9A6
  8
0
 62
     9
 10
0.0
 20
0.0
 30
0.0
 70
   128
 71
     6
 72
    63
 73
     8
  0
VERTEX
  5
9A7
  8
0
 62
     9
 10
0.0
 20
0.0
 30
0.0
 70
   128
 71
     5
 72
    64
 73
     3
  0
SEQEND
  5
9A8
  8
0
 62
     9
  0
ENDBLK
  5
9AB
  8
0
  0
BLOCK
  8
0
  2
E3_NODE_47_
 70
     0
 10
0.0
 20
0.0
 30
0.0
  3
E3_NODE_47_
  1

  0
POLYLINE
  5
9AD
  8
0
 62
     9
 66
     1
 10
0.0
 20
0.0
 30
0.0
 70
    64
 71
    69
 72
    69
  0
VERTEX
  5
9AE
  8
0
 10
50.70500183105469
 20
15.65299987792969
 30
67.36199951171875
 70
   192
  0
VERTEX
  5
9AF
  8
0
 10
70.96600341796875
 20
18.97299957275391
 30
73.73100280761719
 70
   192
  0
VERTEX
  5
9B0
  8
0
 10
71.5469970703125
 20
18.9370002746582
 30
73.63999938964844
 70
   192
  0
VERTEX
  5
9B1
  8
0
 10
74.98200225830078
 20
18.15999984741211
 30
71.8479995727539
 70
   192
  0
VERTEX
  5
9B2
  8
0
 10
78.87699890136719
 20
16.4419994354248
 30
68.62799835205078
 70
   192
  0
VERTEX
  5
9B3
  8
0
 10
79.79199981689453
 20
15.75800037384033
 30
67.71099853515625
 70
   192
  0
VERTEX
  5
9B4
  8
0
 10
50.70500183105469
 20
19.14999961853027
 30
74.00499725341797
 70
   192
  0
VERTEX
  5
9B5
  8
0
 10
69.23100280761719
 20
19.08300018310547
 30
74.00499725341797
 70
   192
  0
VERTEX
  5
9B6
  8
0
 10
50.70500183105469
 20
-15.67199993133545
 30
67.36199951171875
 70
   192
  0
VERTEX
  5
9B7
  8
0
 10
74.7239990234375
 20
-18.26000022888184
 30
72.02300262451172
 70
   192
  0
VERTEX
  5
9B8
  8
0
 10
71.8290023803711
 20
-18.91799926757812
 30
73.54499816894531
 70
   192
  0
VERTEX
  5
9B9
  8
0
 10
77.97899627685547
 20
-16.90500068664551
 30
69.41100311279297
 70
   192
  0
VERTEX
  5
9BA
  8
0
 10
69.23100280761719
 20
-19.10300064086914
 30
74.00499725341797
 70
   192
  0
VERTEX
  5
9BB
  8
0
 10
80.04199981689453
 20
-15.58699989318848
 30
67.4520034790039
 70
   192
  0
VERTEX
  5
9BC
  8
0
 10
78.38800048828125
 20
-16.73500061035156
 30
69.08300018310547
 70
   192
  0
VERTEX
  5
9BD
  8
0
 10
50.70600128173828
 20
-19.22500038146973
 30
74.00499725341797
 70
   192
  0
VERTEX
  5
9BE
  8
0
 10
40.15999984741211
 20
-16.74600028991699
 30
69.06800079345703
 70
   192
  0
VERTEX
  5
9BF
  8
0
 10
42.98099899291992
 20
-15.70100021362305
 30
67.53800201416016
 70
   192
  0
VERTEX
  5
9C0
  8
0
 10
38.57799911499023
 20
-17.33300018310547
 30
69.927001953125
 70
   192
  0
VERTEX
  5
9C1
  8
0
 10
31.06100082397461
 20
-19.35400009155273
 30
74.00499725341797
 70
   192
  0
VERTEX
  5
9C2
  8
0
 10
46.28300094604492
 20
-14.47599983215332
 30
65.74600219726562
 70
   192
  0
VERTEX
  5
9C3
  8
0
 10
49.05199813842773
 20
-12.98799991607666
 30
64.24299621582031
 70
   192
  0
VERTEX
  5
9C4
  8
0
 10
51.11800003051758
 20
-11.87800025939941
 30
63.12300109863281
 70
   192
  0
VERTEX
  5
9C5
  8
0
 10
51.95199966430664
 20
-11.23400020599365
 30
62.66999816894531
 70
   192
  0
VERTEX
  5
9C6
  8
0
 10
84.71600341796875
 20
-11.22299957275391
 30
62.64799880981445
 70
   192
  0
VERTEX
  5
9C7
  8
0
 10
82.0009994506836
 20
-14.22900009155273
 30
65.52100372314453
 70
   192
  0
VERTEX
  5
9C8
  8
0
 10
50.71799850463867
 20
-12.0930004119873
 30
63.3390007019043
 70
   192
  0
VERTEX
  5
9C9
  8
0
 10
57.24100112915039
 20
-5.916999816894531
 30
59.79999923706055
 70
   192
  0
VERTEX
  5
9CA
  8
0
 10
84.8290023803711
 20
-11.09799957275391
 30
62.52799987792969
 70
   192
  0
VERTEX
  5
9CB
  8
0
 10
85.18000030517578
 20
-10.48999977111816
 30
62.15399932861328
 70
   192
  0
VERTEX
  5
9CC
  8
0
 10
87.33000183105469
 20
-5.888000011444092
 30
59.87300109863281
 70
   192
  0
VERTEX
  5
9CD
  8
0
 10
86.58300018310547
 20
-8.060999870300293
 30
60.65800094604492
 70
   192
  0
VERTEX
  5
9CE
  8
0
 10
54.54499816894531
 20
-9.232999801635742
 30
61.26300048828125
 70
   192
  0
VERTEX
  5
9CF
  8
0
 10
55.77299880981445
 20
-7.783999919891357
 30
60.59600067138672
 70
   192
  0
VERTEX
  5
9D0
  8
0
 10
52.77700042724609
 20
-10.59799957275391
 30
62.22200012207031
 70
   192
  0
VERTEX
  5
9D1
  8
0
 10
57.09999847412109
 20
-6.217999935150146
 30
59.87599945068359
 70
   192
  0
VERTEX
  5
9D2
  8
0
 10
59.03300094604492
 20
-0.0099999997764826
 30
58.82799911499023
 70
   192
  0
VERTEX
  5
9D3
  8
0
 10
87.79000091552734
 20
-4.552000045776367
 30
59.38999938964844
 70
   192
  0
VERTEX
  5
9D4
  8
0
 10
88.21399688720703
 20
-1.401999950408936
 30
58.94900131225586
 70
   192
  0
VERTEX
  5
9D5
  8
0
 10
88.26699829101562
 20
-0.0140000004321337
 30
58.89400100708008
 70
   192
  0
VERTEX
  5
9D6
  8
0
 10
88.31099700927734
 20
-0.6790000200271606
 30
58.84799957275391
 70
   192
  0
VERTEX
  5
9D7
  8
0
 10
58.57199859619141
 20
-3.08899998664856
 30
59.07799911499023
 70
   192
  0
VERTEX
  5
9D8
  8
0
 10
57.96699905395508
 20
-4.375
 30
59.40599822998047
 70
   192
  0
VERTEX
  5
9D9
  8
0
 10
87.33100128173828
 20
5.874000072479248
 30
59.87099838256836
 70
   192
  0
VERTEX
  5
9DA
  8
0
 10
58.89500045776367
 20
1.680999994277954
 30
58.90299987792969
 70
   192
  0
VERTEX
  5
9DB
  8
0
 10
57.99100112915039
 20
4.382999897003174
 30
59.39300155639648
 70
   192
  0
VERTEX
  5
9DC
  8
0
 10
87.7969970703125
 20
4.166999816894531
 30
59.38399887084961
 70
   192
  0
VERTEX
  5
9DD
  8
0
 10
88.05500030517578
 20
3.219000101089478
 30
59.11399841308594
 70
   192
  0
VERTEX
  5
9DE
  8
0
 10
57.76900100708008
 20
5.044000148773193
 30
59.51300048828125
 70
   192
  0
VERTEX
  5
9DF
  8
0
 10
84.66600036621094
 20
11.16800022125244
 30
62.70000076293945
 70
   192
  0
VERTEX
  5
9E0
  8
0
 10
55.43199920654297
 20
8.322999954223633
 30
60.78200149536133
 70
   192
  0
VERTEX
  5
9E1
  8
0
 10
52.78900146484375
 20
10.5959997177124
 30
62.21599960327148
 70
   192
  0
VERTEX
  5
9E2
  8
0
 10
52.05599975585938
 20
11.22599983215332
 30
62.61299896240234
 70
   192
  0
VERTEX
  5
9E3
  8
0
 10
57.16999816894531
 20
5.883999824523926
 30
59.8380012512207
 70
   192
  0
VERTEX
  5
9E4
  8
0
 10
85.24400329589844
 20
10.47000026702881
 30
62.08499908447266
 70
   192
  0
VERTEX
  5
9E5
  8
0
 10
87.0270004272461
 20
6.98799991607666
 30
60.18899917602539
 70
   192
  0
VERTEX
  5
9E6
  8
0
 10
55.80400085449219
 20
7.802000045776367
 30
60.58000183105469
 70
   192
  0
VERTEX
  5
9E7
  8
0
 10
52.04899978637695
 20
11.22999954223633
 30
62.61700057983398
 70
   192
  0
VERTEX
  5
9E8
  8
0
 10
80.0479965209961
 20
15.56599998474121
 30
67.4540023803711
 70
   192
  0
VERTEX
  5
9E9
  8
0
 10
82.60900115966797
 20
13.64999961853027
 30
64.88600158691406
 70
   192
  0
VERTEX
  5
9EA
  8
0
 10
50.73899841308594
 20
11.98499965667725
 30
63.32799911499023
 70
   192
  0
VERTEX
  5
9EB
  8
0
 10
83.2760009765625
 20
12.84500026702881
 30
64.177001953125
 70
   192
  0
VERTEX
  5
9EC
  8
0
 10
49.04999923706055
 20
12.95899963378906
 30
64.24500274658203
 70
   192
  0
VERTEX
  5
9ED
  8
0
 10
47.16400146484375
 20
14.04599952697754
 30
65.26799774169922
 70
   192
  0
VERTEX
  5
9EE
  8
0
 10
40.71200180053711
 20
16.62599945068359
 30
68.76899719238281
 70
   192
  0
VERTEX
  5
9EF
  8
0
 10
40.17900085449219
 20
16.77499961853027
 30
69.05799865722656
 70
   192
  0
VERTEX
  5
9F0
  8
0
 10
31.06100082397461
 20
19.33399963378906
 30
74.00499725341797
 70
   192
  0
VERTEX
  5
9F1
  8
0
 10
39.30099868774414
 20
19.19099998474121
 30
74.00499725341797
 70
   192
  0
VERTEX
  5
9F2
  8
0
 10
43.08599853515625
 20
15.67700004577637
 30
67.4800033569336
 70
   192
  0
VERTEX
  5
9F3
  8
0
 62
     9
 10
0.0
 20
0.0
 30
0.0
 70
   128
 71
     3
 72
     2
 73
     1
  0
VERTEX
  5
9F4
  8
0
 62
     9
 10
0.0
 20
0.0
 30
0.0
 70
   128
 71
     1
 72
     4
 73
     3
  0
VERTEX
  5
9F5
  8
0
 62
     9
 10
0.0
 20
0.0
 30
0.0
 70
   128
 71
     1
 72
     5
 73
     4
  0
VERTEX
  5
9F6
  8
0
 62
     9
 10
0.0
 20
0.0
 30
0.0
 70
   128
 71
     1
 72
     6
 73
     5
  0
VERTEX
  5
9F7
  8
0
 62
     9
 10
0.0
 20
0.0
 30
0.0
 70
   128
 71
     8
 72
     7
 73
     1
  0
VERTEX
  5
9F8
  8
0
 62
     9
 10
0.0
 20
0.0
 30
0.0
 70
   128
 71
     1
 72
     2
 73
     8
  0
VERTEX
  5
9F9
  8
0
 62
     9
 10
0.0
 20
0.0
 30
0.0
 70
   128
 71
    11
 72
    10
 73
     9
  0
VERTEX
  5
9FA
  8
0
 62
     9
 10
0.0
 20
0.0
 30
0.0
 70
   128
 71
    10
 72
    12
 73
     9
  0
VERTEX
  5
9FB
  8
0
 62
     9
 10
0.0
 20
0.0
 30
0.0
 70
   128
 71
     9
 72
    13
 73
    11
  0
VERTEX
  5
9FC
  8
0
 62
     9
 10
0.0
 20
0.0
 30
0.0
 70
   128
 71
    15
 72
    14
 73
     9
  0
VERTEX
  5
9FD
  8
0
 62
     9
 10
0.0
 20
0.0
 30
0.0
 70
   128
 71
     9
 72
    12
 73
    15
  0
VERTEX
  5
9FE
  8
0
 62
     9
 10
0.0
 20
0.0
 30
0.0
 70
   128
 71
    18
 72
    17
 73
    16
  0
VERTEX
  5
9FF
  8
0
 62
     9
 10
0.0
 20
0.0
 30
0.0
 70
   128
 71
    17
 72
    19
 73
    16
  0
VERTEX
  5
A00
  8
0
 62
     9
 10
0.0
 20
0.0
 30
0.0
 70
   128
 71
    19
 72
    20
 73
    16
  0
VERTEX
  5
A01
  8
0
 62
     9
 10
0.0
 20
0.0
 30
0.0
 70
   128
 71
    22
 72
    21
 73
     9
  0
VERTEX
  5
A02
  8
0
 62
     9
 10
0.0
 20
0.0
 30
0.0
 70
   128
 71
    21
 72
    18
 73
     9
  0
VERTEX
  5
A03
  8
0
 62
     9
 10
0.0
 20
0.0
 30
0.0
 70
   128
 71
    24
 72
    23
 73
    14
  0
VERTEX
  5
A04
  8
0
 62
     9
 10
0.0
 20
0.0
 30
0.0
 70
   128
 71
    26
 72
    25
 73
    24
  0
VERTEX
  5
A05
  8
0
 62
     9
 10
0.0
 20
0.0
 30
0.0
 70
   128
 71
    23
 72
    27
 73
     9
  0
VERTEX
  5
A06
  8
0
 62
     9
 10
0.0
 20
0.0
 30
0.0
 70
   128
 71
     9
 72
    14
 73
    23
  0
VERTEX
  5
A07
  8
0
 62
     9
 10
0.0
 20
0.0
 30
0.0
 70
   128
 71
    25
 72
    29
 73
    28
  0
VERTEX
  5
A08
  8
0
 62
     9
 10
0.0
 20
0.0
 30
0.0
 70
   128
 71
    29
 72
    30
 73
    28
  0
VERTEX
  5
A09
  8
0
 62
     9
 10
0.0
 20
0.0
 30
0.0
 70
   128
 71
    32
 72
    31
 73
    28
  0
VERTEX
  5
A0A
  8
0
 62
     9
 10
0.0
 20
0.0
 30
0.0
 70
   128
 71
    28
 72
    30
 73
    32
  0
VERTEX
  5
A0B
  8
0
 62
     9
 10
0.0
 20
0.0
 30
0.0
 70
   128
 71
    34
 72
    33
 73
    25
  0
VERTEX
  5
A0C
  8
0
 62
     9
 10
0.0
 20
0.0
 30
0.0
 70
   128
 71
    35
 72
    24
 73
    25
  0
VERTEX
  5
A0D
  8
0
 62
     9
 10
0.0
 20
0.0
 30
0.0
 70
   128
 71
    25
 72
    33
 73
    35
  0
VERTEX
  5
A0E
  8
0
 62
     9
 10
0.0
 20
0.0
 30
0.0
 70
   128
 71
    25
 72
    36
 73
    34
  0
VERTEX
  5
A0F
  8
0
 62
     9
 10
0.0
 20
0.0
 30
0.0
 70
   128
 71
    31
 72
    38
 73
    37
  0
VERTEX
  5
A10
  8
0
 62
     9
 10
0.0
 20
0.0
 30
0.0
 70
   128
 71
    38
 72
    39
 73
    37
  0
VERTEX
  5
A11
  8
0
 62
     9
 10
0.0
 20
0.0
 30
0.0
 70
   128
 71
    41
 72
    40
 73
    37
  0
VERTEX
  5
A12
  8
0
 62
     9
 10
0.0
 20
0.0
 30
0.0
 70
   128
 71
    37
 72
    39
 73
    41
  0
VERTEX
  5
A13
  8
0
 62
     9
 10
0.0
 20
0.0
 30
0.0
 70
   128
 71
    37
 72
    42
 73
    31
  0
VERTEX
  5
A14
  8
0
 62
     9
 10
0.0
 20
0.0
 30
0.0
 70
   128
 71
    43
 72
    28
 73
    31
  0
VERTEX
  5
A15
  8
0
 62
     9
 10
0.0
 20
0.0
 30
0.0
 70
   128
 71
    31
 72
    42
 73
    43
  0
VERTEX
  5
A16
  8
0
 62
     9
 10
0.0
 20
0.0
 30
0.0
 70
   128
 71
    46
 72
    45
 73
    44
  0
VERTEX
  5
A17
  8
0
 62
     9
 10
0.0
 20
0.0
 30
0.0
 70
   128
 71
    48
 72
    47
 73
    37
  0
VERTEX
  5
A18
  8
0
 62
     9
 10
0.0
 20
0.0
 30
0.0
 70
   128
 71
    44
 72
    45
 73
    37
  0
VERTEX
  5
A19
  8
0
 62
     9
 10
0.0
 20
0.0
 30
0.0
 70
   128
 71
    37
 72
    47
 73
    44
  0
VERTEX
  5
A1A
  8
0
 62
     9
 10
0.0
 20
0.0
 30
0.0
 70
   128
 71
    37
 72
    40
 73
    48
  0
VERTEX
  5
A1B
  8
0
 62
     9
 10
0.0
 20
0.0
 30
0.0
 70
   128
 71
    44
 72
    49
 73
    46
  0
VERTEX
  5
A1C
  8
0
 62
     9
 10
0.0
 20
0.0
 30
0.0
 70
   128
 71
    52
 72
    51
 73
    50
  0
VERTEX
  5
A1D
  8
0
 62
     9
 10
0.0
 20
0.0
 30
0.0
 70
   128
 71
    50
 72
    53
 73
    52
  0
VERTEX
  5
A1E
  8
0
 62
     9
 10
0.0
 20
0.0
 30
0.0
 70
   128
 71
    56
 72
    55
 73
    54
  0
VERTEX
  5
A1F
  8
0
 62
     9
 10
0.0
 20
0.0
 30
0.0
 70
   128
 71
    50
 72
    57
 73
    54
  0
VERTEX
  5
A20
  8
0
 62
     9
 10
0.0
 20
0.0
 30
0.0
 70
   128
 71
    54
 72
    55
 73
    50
  0
VERTEX
  5
A21
  8
0
 62
     9
 10
0.0
 20
0.0
 30
0.0
 70
   128
 71
    54
 72
    44
 73
    56
  0
VERTEX
  5
A22
  8
0
 62
     9
 10
0.0
 20
0.0
 30
0.0
 70
   128
 71
    50
 72
    51
 73
    57
  0
VERTEX
  5
A23
  8
0
 62
     9
 10
0.0
 20
0.0
 30
0.0
 70
   128
 71
    59
 72
     1
 73
    58
  0
VERTEX
  5
A24
  8
0
 62
     9
 10
0.0
 20
0.0
 30
0.0
 70
   128
 71
    58
 72
    60
 73
    59
  0
VERTEX
  5
A25
  8
0
 62
     9
 10
0.0
 20
0.0
 30
0.0
 70
   128
 71
     1
 72
    61
 73
    58
  0
VERTEX
  5
A26
  8
0
 62
     9
 10
0.0
 20
0.0
 30
0.0
 70
   128
 71
    58
 72
    62
 73
    60
  0
VERTEX
  5
A27
  8
0
 62
     9
 10
0.0
 20
0.0
 30
0.0
 70
   128
 71
    63
 72
    61
 73
     1
  0
VERTEX
  5
A28
  8
0
 62
     9
 10
0.0
 20
0.0
 30
0.0
 70
   128
 71
     1
 72
    64
 73
    63
  0
VERTEX
  5
A29
  8
0
 62
     9
 10
0.0
 20
0.0
 30
0.0
 70
   128
 71
    66
 72
    65
 73
     7
  0
VERTEX
  5
A2A
  8
0
 62
     9
 10
0.0
 20
0.0
 30
0.0
 70
   128
 71
    68
 72
    67
 73
    66
  0
VERTEX
  5
A2B
  8
0
 62
     9
 10
0.0
 20
0.0
 30
0.0
 70
   128
 71
    69
 72
     1
 73
     7
  0
VERTEX
  5
A2C
  8
0
 62
     9
 10
0.0
 20
0.0
 30
0.0
 70
   128
 71
     7
 72
    65
 73
    69
  0
VERTEX
  5
A2D
  8
0
 62
     9
 10
0.0
 20
0.0
 30
0.0
 70
   128
 71
     7
 72
    68
 73
    66
  0
VERTEX
  5
A2E
  8
0
 62
     9
 10
0.0
 20
0.0
 30
0.0
 70
   128
 71
     1
 72
    69
 73
    64
  0
VERTEX
  5
A2F
  8
0
 62
     9
 10
0.0
 20
0.0
 30
0.0
 70
   128
 71
    58
 72
    50
 73
    62
  0
VERTEX
  5
A30
  8
0
 62
     9
 10
0.0
 20
0.0
 30
0.0
 70
   128
 71
    50
 72
    58
 73
    53
  0
VERTEX
  5
A31
  8
0
 62
     9
 10
0.0
 20
0.0
 30
0.0
 70
   128
 71
    44
 72
    54
 73
    49
  0
VERTEX
  5
A32
  8
0
 62
     9
 10
0.0
 20
0.0
 30
0.0
 70
   128
 71
    28
 72
    36
 73
    25
  0
VERTEX
  5
A33
  8
0
 62
     9
 10
0.0
 20
0.0
 30
0.0
 70
   128
 71
    14
 72
    26
 73
    24
  0
VERTEX
  5
A34
  8
0
 62
     9
 10
0.0
 20
0.0
 30
0.0
 70
   128
 71
     9
 72
    27
 73
    22
  0
VERTEX
  5
A35
  8
0
 62
     9
 10
0.0
 20
0.0
 30
0.0
 70
   128
 71
    16
 72
     9
 73
    18
  0
VERTEX
  5
A36
  8
0
 62
     9
 10
0.0
 20
0.0
 30
0.0
 70
   128
 71
     9
 72
    16
 73
    13
  0
VERTEX
  5
A37
  8
0
 62
     9
 10
0.0
 20
0.0
 30
0.0
 70
   128
 71
     1
 72
    59
 73
     6
  0
SEQEND
  5
A38
  8
0
 62
     9
  0
ENDBLK
  5
A3B
  8
0
  0
BLOCK
  8
0
  2
E3_NODE_48_
 70
     0
 10
0.0
 20
0.0
 30
0.0
  3
E3_NODE_48_
  1

  0
POLYLINE
  5
A3D
  8
0
 62
     9
 66
     1
 10
0.0
 20
0.0
 30
0.0
 70
    64
 71
    17
 72
    15
  0
VERTEX
  5
A3E
  8
0
 10
16.29599952697754
 20
20.6830005645752
 30
84.0
 70
   192
  0
VERTEX
  5
A3F
  8
0
 10
20.47999954223633
 20
19.90999984741211
 30
84.0
 70
   192
  0
VERTEX
  5
A40
  8
0
 10
18.92700004577637
 20
20.36499977111816
 30
74.00499725341797
 70
   192
  0
VERTEX
  5
A41
  8
0
 10
39.30099868774414
 20
19.19099998474121
 30
74.00499725341797
 70
   192
  0
VERTEX
  5
A42
  8
0
 10
31.06100082397461
 20
19.33399963378906
 30
74.00499725341797
 70
   192
  0
VERTEX
  5
A43
  8
0
 10
32.24800109863281
 20
19.30599975585938
 30
84.0
 70
   192
  0
VERTEX
  5
A44
  8
0
 10
39.30099868774414
 20
19.26300048828125
 30
84.0
 70
   192
  0
VERTEX
  5
A45
  8
0
 10
69.23100280761719
 20
19.08200073242188
 30
84.0
 70
   192
  0
VERTEX
  5
A46
  8
0
 10
69.23100280761719
 20
19.08300018310547
 30
74.00499725341797
 70
   192
  0
VERTEX
  5
A47
  8
0
 10
50.70500183105469
 20
19.14999961853027
 30
74.00499725341797
 70
   192
  0
VERTEX
  5
A48
  8
0
 10
15.14999961853027
 20
20.89500045776367
 30
84.0
 70
   192
  0
VERTEX
  5
A49
  8
0
 10
14.03699970245361
 20
21.4689998626709
 30
74.00499725341797
 70
   192
  0
VERTEX
  5
A4A
  8
0
 10
11.08899974822998
 20
22.62400054931641
 30
74.00499725341797
 70
   192
  0
VERTEX
  5
A4B
  8
0
 10
16.27899932861328
 20
20.59000015258789
 30
74.00499725341797
 70
   192
  0
VERTEX
  5
A4C
  8
0
 10
9.4399995803833
 20
23.27599906921387
 30
84.0
 70
   192
  0
VERTEX
  5
A4D
  8
0
 10
8.616000175476074
 20
23.5930004119873
 30
74.00499725341797
 70
   192
  0
VERTEX
  5
A4E
  8
0
 10
8.616000175476074
 20
23.5930004119873
 30
84.0
 70
   192
  0
VERTEX
  5
A4F
  8
0
 62
     9
 10
0.0
 20
0.0
 30
0.0
 70
   128
 71
     3
 72
     2
 73
     1
  0
VERTEX
  5
A50
  8
0
 62
     9
 10
0.0
 20
0.0
 30
0.0
 70
   128
 71
     6
 72
     5
 73
     4
  0
VERTEX
  5
A51
  8
0
 62
     9
 10
0.0
 20
0.0
 30
0.0
 70
   128
 71
     2
 72
     3
 73
     5
  0
VERTEX
  5
A52
  8
0
 62
     9
 10
0.0
 20
0.0
 30
0.0
 70
   128
 71
     5
 72
     6
 73
     2
  0
VERTEX
  5
A53
  8
0
 62
     9
 10
0.0
 20
0.0
 30
0.0
 70
   128
 71
     4
 72
     7
 73
     6
  0
VERTEX
  5
A54
  8
0
 62
     9
 10
0.0
 20
0.0
 30
0.0
 70
   128
 71
    10
 72
     9
 73
     8
  0
VERTEX
  5
A55
  8
0
 62
     9
 10
0.0
 20
0.0
 30
0.0
 70
   128
 71
     8
 72
     7
 73
    10
  0
VERTEX
  5
A56
  8
0
 62
     9
 10
0.0
 20
0.0
 30
0.0
 70
   128
 71
    13
 72
    12
 73
    11
  0
VERTEX
  5
A57
  8
0
 62
     9
 10
0.0
 20
0.0
 30
0.0
 70
   128
 71
    12
 72
    14
 73
    11
  0
VERTEX
  5
A58
  8
0
 62
     9
 10
0.0
 20
0.0
 30
0.0
 70
   128
 71
    11
 72
    15
 73
    13
  0
VERTEX
  5
A59
  8
0
 62
     9
 10
0.0
 20
0.0
 30
0.0
 70
   128
 71
    14
 72
     1
 73
    11
  0
VERTEX
  5
A5A
  8
0
 62
     9
 10
0.0
 20
0.0
 30
0.0
 70
   128
 71
    15
 72
    17
 73
    16
  0
VERTEX
  5
A5B
  8
0
 62
     9
 10
0.0
 20
0.0
 30
0.0
 70
   128
 71
    15
 72
    16
 73
    13
  0
VERTEX
  5
A5C
  8
0
 62
     9
 10
0.0
 20
0.0
 30
0.0
 70
   128
 71
     7
 72
     4
 73
    10
  0
VERTEX
  5
A5D
  8
0
 62
     9
 10
0.0
 20
0.0
 30
0.0
 70
   128
 71
     1
 72
    14
 73
     3
  0
SEQEND
  5
A5E
  8
0
 62
     9
  0
ENDBLK
  5
A61
  8
0
  0
BLOCK
  8
0
  2
E3_NODE_49_
 70
     0
 10
0.0
 20
0.0
 30
0.0
  3
E3_NODE_49_
  1

  0
POLYLINE
  5
A63
  8
0
 62
     9
 66
     1
 10
0.0
 20
0.0
 30
0.0
 70
    64
 71
    86
 72
   115
  0
VERTEX
  5
A64
  8
0
 10
25.37199974060059
 20
-15.0620002746582
 30
60.56399917602539
 70
   192
  0
VERTEX
  5
A65
  8
0
 10
29.67000007629395
 20
-14.38599967956543
 30
62.50600051879883
 70
   192
  0
VERTEX
  5
A66
  8
0
 10
22.87800025939941
 20
-18.0319995880127
 30
67.72699737548828
 70
   192
  0
VERTEX
  5
A67
  8
0
 10
19.83200073242188
 20
-16.4370002746582
 30
54.8390007019043
 70
   192
  0
VERTEX
  5
A68
  8
0
 10
15.22399997711182
 20
-19.88699913024902
 30
55.94499969482422
 70
   192
  0
VERTEX
  5
A69
  8
0
 10
16.81100082397461
 20
-18.69400024414062
 30
51.60599899291992
 70
   192
  0
VERTEX
  5
A6A
  8
0
 10
15.61400032043457
 20
-20.04199981689453
 30
63.54399871826172
 70
   192
  0
VERTEX
  5
A6B
  8
0
 10
13.39500045776367
 20
-21.26099967956543
 30
60.94400024414062
 70
   192
  0
VERTEX
  5
A6C
  8
0
 10
18.04899978637695
 20
-17.37700080871582
 30
48.22299957275391
 70
   192
  0
VERTEX
  5
A6D
  8
0
 10
18.59700012207031
 20
-17.02400016784668
 30
51.53900146484375
 70
   192
  0
VERTEX
  5
A6E
  8
0
 10
36.71900177001953
 20
-5.089000225067139
 30
56.60900115966797
 70
   192
  0
VERTEX
  5
A6F
  8
0
 10
31.58099937438965
 20
-5.456999778747559
 30
53.55500030517578
 70
   192
  0
VERTEX
  5
A70
  8
0
 10
33.80400085449219
 20
-0.0099999997764826
 30
53.7140007019043
 70
   192
  0
VERTEX
  5
A71
  8
0
 10
32.34099960327148
 20
-0.0099999997764826
 30
52.38299942016602
 70
   192
  0
VERTEX
  5
A72
  8
0
 10
19.77700042724609
 20
-18.67099952697754
 30
66.52799987792969
 70
   192
  0
VERTEX
  5
A73
  8
0
 10
18.92000007629395
 20
-20.20299911499023
 30
74.00499725341797
 70
   192
  0
VERTEX
  5
A74
  8
0
 10
18.29700088500977
 20
-20.32699966430664
 30
74.00499725341797
 70
   192
  0
VERTEX
  5
A75
  8
0
 10
14.8120002746582
 20
-21.01899909973145
 30
74.00499725341797
 70
   192
  0
VERTEX
  5
A76
  8
0
 10
13.98999977111816
 20
-21.36400032043457
 30
74.00499725341797
 70
   192
  0
VERTEX
  5
A77
  8
0
 10
34.91500091552734
 20
-13.79500007629395
 30
63.68299865722656
 70
   192
  0
VERTEX
  5
A78
  8
0
 10
42.98099899291992
 20
-15.70100021362305
 30
67.53800201416016
 70
   192
  0
VERTEX
  5
A79
  8
0
 10
40.15999984741211
 20
-16.74600028991699
 30
69.06800079345703
 70
   192
  0
VERTEX
  5
A7A
  8
0
 10
49.05199813842773
 20
-12.98799991607666
 30
64.24299621582031
 70
   192
  0
VERTEX
  5
A7B
  8
0
 10
46.28300094604492
 20
-14.47599983215332
 30
65.74600219726562
 70
   192
  0
VERTEX
  5
A7C
  8
0
 10
26.93000030517578
 20
-17.48600006103516
 30
68.56300354003906
 70
   192
  0
VERTEX
  5
A7D
  8
0
 10
38.57799911499023
 20
-17.33300018310547
 30
69.927001953125
 70
   192
  0
VERTEX
  5
A7E
  8
0
 10
31.06100082397461
 20
-19.35400009155273
 30
74.00499725341797
 70
   192
  0
VERTEX
  5
A7F
  8
0
 10
20.05699920654297
 20
-19.97699928283691
 30
74.00499725341797
 70
   192
  0
VERTEX
  5
A80
  8
0
 10
22.07099914550781
 20
-15.76500034332275
 30
57.93600082397461
 70
   192
  0
VERTEX
  5
A81
  8
0
 10
13.30000019073486
 20
-21.33200073242188
 30
61.20199966430664
 70
   192
  0
VERTEX
  5
A82
  8
0
 10
11.06700038909912
 20
-22.58699989318848
 30
74.00499725341797
 70
   192
  0
VERTEX
  5
A83
  8
0
 10
10.35599994659424
 20
-22.88500022888184
 30
74.00499725341797
 70
   192
  0
VERTEX
  5
A84
  8
0
 10
17.39299964904785
 20
-19.35700035095215
 30
65.0770034790039
 70
   192
  0
VERTEX
  5
A85
  8
0
 10
22.63299942016602
 20
-11.06599998474121
 30
42.02000045776367
 70
   192
  0
VERTEX
  5
A86
  8
0
 10
20.6569995880127
 20
-14.45499992370605
 30
46.625
 70
   192
  0
VERTEX
  5
A87
  8
0
 10
20.2859992980957
 20
-14.71199989318848
 30
42.11000061035156
 70
   192
  0
VERTEX
  5
A88
  8
0
 10
21.68199920654297
 20
-12.64500045776367
 30
38.29299926757812
 70
   192
  0
VERTEX
  5
A89
  8
0
 10
21.85199928283691
 20
-12.28499984741211
 30
37.83000183105469
 70
   192
  0
VERTEX
  5
A8A
  8
0
 10
27.75900077819824
 20
-5.827000141143799
 30
49.3120002746582
 70
   192
  0
VERTEX
  5
A8B
  8
0
 10
25.38100051879883
 20
-6.153999805450439
 30
44.07899856567383
 70
   192
  0
VERTEX
  5
A8C
  8
0
 10
25.94899940490723
 20
-3.273999929428101
 30
42.98899841308594
 70
   192
  0
VERTEX
  5
A8D
  8
0
 10
27.72599983215332
 20
-0.0099999997764826
 30
46.66400146484375
 70
   192
  0
VERTEX
  5
A8E
  8
0
 10
26.17000007629395
 20
-0.0099999997764826
 30
42.56000137329102
 70
   192
  0
VERTEX
  5
A8F
  8
0
 10
24.34199905395508
 20
-6.394000053405762
 30
38.0989990234375
 70
   192
  0
VERTEX
  5
A90
  8
0
 10
22.37299919128418
 20
-11.17599964141846
 30
36.40599822998047
 70
   192
  0
VERTEX
  5
A91
  8
0
 10
23.35000038146973
 20
-9.095999717712402
 30
33.73400115966797
 70
   192
  0
VERTEX
  5
A92
  8
0
 10
24.93000030517578
 20
-3.398999929428101
 30
36.76399993896484
 70
   192
  0
VERTEX
  5
A93
  8
0
 10
25.25799942016602
 20
-0.0099999997764826
 30
37.39099884033203
 70
   192
  0
VERTEX
  5
A94
  8
0
 10
25.22200012207031
 20
-0.0099999997764826
 30
36.25299835205078
 70
   192
  0
VERTEX
  5
A95
  8
0
 10
24.15500068664551
 20
-6.465000152587891
 30
31.5359992980957
 70
   192
  0
VERTEX
  5
A96
  8
0
 10
24.29599952697754
 20
-6.001999855041504
 30
31.14900016784668
 70
   192
  0
VERTEX
  5
A97
  8
0
 10
23.73500061035156
 20
-10.65799999237061
 30
47.23300170898438
 70
   192
  0
VERTEX
  5
A98
  8
0
 10
26.14100074768066
 20
-10.12600040435791
 30
51.84400177001953
 70
   192
  0
VERTEX
  5
A99
  8
0
 10
30.25799942016602
 20
-0.0099999997764826
 30
50.48799896240234
 70
   192
  0
VERTEX
  5
A9A
  8
0
 10
28.58699989318848
 20
-0.0099999997764826
 30
47.9640007019043
 70
   192
  0
VERTEX
  5
A9B
  8
0
 10
29.92600059509277
 20
-9.532999992370605
 30
55.5890007019043
 70
   192
  0
VERTEX
  5
A9C
  8
0
 10
21.83300018310547
 20
-13.93900012969971
 30
50.90499877929688
 70
   192
  0
VERTEX
  5
A9D
  8
0
 10
19.60199928283691
 20
-15.72399997711182
 30
43.97900009155273
 70
   192
  0
VERTEX
  5
A9E
  8
0
 10
50.05799865722656
 20
-4.535999774932861
 30
59.21200180053711
 70
   192
  0
VERTEX
  5
A9F
  8
0
 10
42.94100189208984
 20
-4.767000198364258
 30
58.43500137329102
 70
   192
  0
VERTEX
  5
AA0
  8
0
 10
43.44300079345703
 20
-0.0099999997764826
 30
57.72999954223633
 70
   192
  0
VERTEX
  5
AA1
  8
0
 10
49.92900085449219
 20
-0.0099999997764826
 30
58.60599899291992
 70
   192
  0
VERTEX
  5
AA2
  8
0
 10
32.55699920654297
 20
-11.95199966430664
 30
60.24700164794922
 70
   192
  0
VERTEX
  5
AA3
  8
0
 10
34.94400024414062
 20
-8.946000099182129
 30
58.25600051879883
 70
   192
  0
VERTEX
  5
AA4
  8
0
 10
38.23899841308594
 20
-0.0099999997764826
 30
56.13800048828125
 70
   192
  0
VERTEX
  5
AA5
  8
0
 10
37.41600036621094
 20
-0.0099999997764826
 30
55.6879997253418
 70
   192
  0
VERTEX
  5
AA6
  8
0
 10
40.97700119018555
 20
-8.430999755859375
 30
59.81399917602539
 70
   192
  0
VERTEX
  5
AA7
  8
0
 10
38.26699829101562
 20
-11.36299991607666
 30
61.58700180053711
 70
   192
  0
VERTEX
  5
AA8
  8
0
 10
47.9010009765625
 20
-8.053000450134277
 30
60.45199966430664
 70
   192
  0
VERTEX
  5
AA9
  8
0
 10
55.77299880981445
 20
-7.783999919891357
 30
60.59600067138672
 70
   192
  0
VERTEX
  5
AAA
  8
0
 10
54.54499816894531
 20
-9.232999801635742
 30
61.26300048828125
 70
   192
  0
VERTEX
  5
AAB
  8
0
 10
52.77700042724609
 20
-10.59799957275391
 30
62.22200012207031
 70
   192
  0
VERTEX
  5
AAC
  8
0
 10
50.94599914550781
 20
-0.0099999997764826
 30
58.63100051879883
 70
   192
  0
VERTEX
  5
AAD
  8
0
 10
58.57199859619141
 20
-3.08899998664856
 30
59.07799911499023
 70
   192
  0
VERTEX
  5
AAE
  8
0
 10
57.96699905395508
 20
-4.375
 30
59.40599822998047
 70
   192
  0
VERTEX
  5
AAF
  8
0
 10
59.03300094604492
 20
-0.0099999997764826
 30
58.82799911499023
 70
   192
  0
VERTEX
  5
AB0
  8
0
 10
57.09999847412109
 20
-6.217999935150146
 30
59.87599945068359
 70
   192
  0
VERTEX
  5
AB1
  8
0
 10
57.24100112915039
 20
-5.916999816894531
 30
59.79999923706055
 70
   192
  0
VERTEX
  5
AB2
  8
0
 10
50.71799850463867
 20
-12.0930004119873
 30
63.3390007019043
 70
   192
  0
VERTEX
  5
AB3
  8
0
 10
51.95199966430664
 20
-11.23400020599365
 30
62.66999816894531
 70
   192
  0
VERTEX
  5
AB4
  8
0
 10
51.11800003051758
 20
-11.87800025939941
 30
63.12300109863281
 70
   192
  0
VERTEX
  5
AB5
  8
0
 10
24.73600006103516
 20
-3.407999992370605
 30
29.94799995422363
 70
   192
  0
VERTEX
  5
AB6
  8
0
 10
24.86000061035156
 20
-2.67300009727478
 30
29.60700035095215
 70
   192
  0
VERTEX
  5
AB7
  8
0
 10
24.87299919128418
 20
-2.42300009727478
 30
29.57200050354004
 70
   192
  0
VERTEX
  5
AB8
  8
0
 10
24.99699974060059
 20
-0.0099999997764826
 30
29.23399925231934
 70
   192
  0
VERTEX
  5
AB9
  8
0
 10
8.616000175476074
 20
-23.61300086975098
 30
74.00499725341797
 70
   192
  0
VERTEX
  5
ABA
  8
0
 62
     9
 10
0.0
 20
0.0
 30
0.0
 70
   128
 71
     3
 72
     2
 73
     1
  0
VERTEX
  5
ABB
  8
0
 62
     9
 10
0.0
 20
0.0
 30
0.0
 70
   128
 71
     6
 72
     5
 73
     4
  0
VERTEX
  5
ABC
  8
0
 62
     9
 10
0.0
 20
0.0
 30
0.0
 70
   128
 71
     5
 72
     8
 73
     7
  0
VERTEX
  5
ABD
  8
0
 62
     9
 10
0.0
 20
0.0
 30
0.0
 70
   128
 71
     7
 72
     4
 73
     5
  0
VERTEX
  5
ABE
  8
0
 62
     9
 10
0.0
 20
0.0
 30
0.0
 70
   128
 71
    10
 72
     9
 73
     6
  0
VERTEX
  5
ABF
  8
0
 62
     9
 10
0.0
 20
0.0
 30
0.0
 70
   128
 71
    13
 72
    12
 73
    11
  0
VERTEX
  5
AC0
  8
0
 62
     9
 10
0.0
 20
0.0
 30
0.0
 70
   128
 71
    13
 72
    14
 73
    12
  0
VERTEX
  5
AC1
  8
0
 62
     9
 10
0.0
 20
0.0
 30
0.0
 70
   128
 71
    16
 72
     3
 73
    15
  0
VERTEX
  5
AC2
  8
0
 62
     9
 10
0.0
 20
0.0
 30
0.0
 70
   128
 71
    15
 72
    17
 73
    16
  0
VERTEX
  5
AC3
  8
0
 62
     9
 10
0.0
 20
0.0
 30
0.0
 70
   128
 71
    15
 72
    18
 73
    17
  0
VERTEX
  5
AC4
  8
0
 62
     9
 10
0.0
 20
0.0
 30
0.0
 70
   128
 71
    15
 72
    19
 73
    18
  0
VERTEX
  5
AC5
  8
0
 62
     9
 10
0.0
 20
0.0
 30
0.0
 70
   128
 71
    22
 72
    21
 73
    20
  0
VERTEX
  5
AC6
  8
0
 62
     9
 10
0.0
 20
0.0
 30
0.0
 70
   128
 71
    24
 72
    23
 73
    20
  0
VERTEX
  5
AC7
  8
0
 62
     9
 10
0.0
 20
0.0
 30
0.0
 70
   128
 71
    20
 72
    21
 73
    24
  0
VERTEX
  5
AC8
  8
0
 62
     9
 10
0.0
 20
0.0
 30
0.0
 70
   128
 71
    25
 72
    20
 73
     2
  0
VERTEX
  5
AC9
  8
0
 62
     9
 10
0.0
 20
0.0
 30
0.0
 70
   128
 71
    27
 72
    26
 73
    25
  0
VERTEX
  5
ACA
  8
0
 62
     9
 10
0.0
 20
0.0
 30
0.0
 70
   128
 71
    26
 72
    22
 73
    25
  0
VERTEX
  5
ACB
  8
0
 62
     9
 10
0.0
 20
0.0
 30
0.0
 70
   128
 71
    25
 72
    28
 73
    27
  0
VERTEX
  5
ACC
  8
0
 62
     9
 10
0.0
 20
0.0
 30
0.0
 70
   128
 71
    29
 72
     4
 73
     7
  0
VERTEX
  5
ACD
  8
0
 62
     9
 10
0.0
 20
0.0
 30
0.0
 70
   128
 71
    31
 72
     7
 73
    30
  0
VERTEX
  5
ACE
  8
0
 62
     9
 10
0.0
 20
0.0
 30
0.0
 70
   128
 71
    30
 72
    32
 73
    31
  0
VERTEX
  5
ACF
  8
0
 62
     9
 10
0.0
 20
0.0
 30
0.0
 70
   128
 71
     7
 72
     8
 73
    30
  0
VERTEX
  5
AD0
  8
0
 62
     9
 10
0.0
 20
0.0
 30
0.0
 70
   128
 71
    19
 72
    15
 73
    33
  0
VERTEX
  5
AD1
  8
0
 62
     9
 10
0.0
 20
0.0
 30
0.0
 70
   128
 71
    33
 72
     7
 73
    31
  0
VERTEX
  5
AD2
  8
0
 62
     9
 10
0.0
 20
0.0
 30
0.0
 70
   128
 71
    15
 72
     1
 73
    29
  0
VERTEX
  5
AD3
  8
0
 62
     9
 10
0.0
 20
0.0
 30
0.0
 70
   128
 71
    36
 72
    35
 73
    34
  0
VERTEX
  5
AD4
  8
0
 62
     9
 10
0.0
 20
0.0
 30
0.0
 70
   128
 71
    34
 72
    37
 73
    36
  0
VERTEX
  5
AD5
  8
0
 62
     9
 10
0.0
 20
0.0
 30
0.0
 70
   128
 71
    34
 72
    38
 73
    37
  0
VERTEX
  5
AD6
  8
0
 62
     9
 10
0.0
 20
0.0
 30
0.0
 70
   128
 71
    41
 72
    40
 73
    39
  0
VERTEX
  5
AD7
  8
0
 62
     9
 10
0.0
 20
0.0
 30
0.0
 70
   128
 71
    39
 72
    42
 73
    41
  0
VERTEX
  5
AD8
  8
0
 62
     9
 10
0.0
 20
0.0
 30
0.0
 70
   128
 71
    42
 72
    43
 73
    41
  0
VERTEX
  5
AD9
  8
0
 62
     9
 10
0.0
 20
0.0
 30
0.0
 70
   128
 71
    45
 72
    34
 73
    44
  0
VERTEX
  5
ADA
  8
0
 62
     9
 10
0.0
 20
0.0
 30
0.0
 70
   128
 71
    44
 72
    46
 73
    45
  0
VERTEX
  5
ADB
  8
0
 62
     9
 10
0.0
 20
0.0
 30
0.0
 70
   128
 71
    48
 72
    47
 73
    41
  0
VERTEX
  5
ADC
  8
0
 62
     9
 10
0.0
 20
0.0
 30
0.0
 70
   128
 71
    48
 72
    49
 73
    47
  0
VERTEX
  5
ADD
  8
0
 62
     9
 10
0.0
 20
0.0
 30
0.0
 70
   128
 71
    50
 72
    44
 73
    47
  0
VERTEX
  5
ADE
  8
0
 62
     9
 10
0.0
 20
0.0
 30
0.0
 70
   128
 71
    47
 72
    51
 73
    50
  0
VERTEX
  5
ADF
  8
0
 62
     9
 10
0.0
 20
0.0
 30
0.0
 70
   128
 71
    44
 72
    40
 73
    41
  0
VERTEX
  5
AE0
  8
0
 62
     9
 10
0.0
 20
0.0
 30
0.0
 70
   128
 71
    34
 72
    52
 73
    40
  0
VERTEX
  5
AE1
  8
0
 62
     9
 10
0.0
 20
0.0
 30
0.0
 70
   128
 71
    52
 72
    53
 73
    39
  0
VERTEX
  5
AE2
  8
0
 62
     9
 10
0.0
 20
0.0
 30
0.0
 70
   128
 71
    54
 72
    39
 73
    12
  0
VERTEX
  5
AE3
  8
0
 62
     9
 10
0.0
 20
0.0
 30
0.0
 70
   128
 71
    54
 72
    55
 73
    39
  0
VERTEX
  5
AE4
  8
0
 62
     9
 10
0.0
 20
0.0
 30
0.0
 70
   128
 71
    56
 72
    12
 73
    39
  0
VERTEX
  5
AE5
  8
0
 62
     9
 10
0.0
 20
0.0
 30
0.0
 70
   128
 71
    57
 72
     4
 73
    29
  0
VERTEX
  5
AE6
  8
0
 62
     9
 10
0.0
 20
0.0
 30
0.0
 70
   128
 71
    29
 72
    53
 73
    57
  0
VERTEX
  5
AE7
  8
0
 62
     9
 10
0.0
 20
0.0
 30
0.0
 70
   128
 71
     9
 72
    10
 73
    35
  0
VERTEX
  5
AE8
  8
0
 62
     9
 10
0.0
 20
0.0
 30
0.0
 70
   128
 71
    35
 72
    58
 73
     9
  0
VERTEX
  5
AE9
  8
0
 62
     9
 10
0.0
 20
0.0
 30
0.0
 70
   128
 71
    35
 72
    57
 73
    52
  0
VERTEX
  5
AEA
  8
0
 62
     9
 10
0.0
 20
0.0
 30
0.0
 70
   128
 71
    57
 72
    35
 73
    10
  0
VERTEX
  5
AEB
  8
0
 62
     9
 10
0.0
 20
0.0
 30
0.0
 70
   128
 71
     1
 72
    56
 73
    53
  0
VERTEX
  5
AEC
  8
0
 62
     9
 10
0.0
 20
0.0
 30
0.0
 70
   128
 71
    61
 72
    60
 73
    59
  0
VERTEX
  5
AED
  8
0
 62
     9
 10
0.0
 20
0.0
 30
0.0
 70
   128
 71
    59
 72
    62
 73
    61
  0
VERTEX
  5
AEE
  8
0
 62
     9
 10
0.0
 20
0.0
 30
0.0
 70
   128
 71
     2
 72
    63
 73
    56
  0
VERTEX
  5
AEF
  8
0
 62
     9
 10
0.0
 20
0.0
 30
0.0
 70
   128
 71
    63
 72
    64
 73
    56
  0
VERTEX
  5
AF0
  8
0
 62
     9
 10
0.0
 20
0.0
 30
0.0
 70
   128
 71
    65
 72
    11
 73
    60
  0
VERTEX
  5
AF1
  8
0
 62
     9
 10
0.0
 20
0.0
 30
0.0
 70
   128
 71
    65
 72
    66
 73
    11
  0
VERTEX
  5
AF2
  8
0
 62
     9
 10
0.0
 20
0.0
 30
0.0
 70
   128
 71
    64
 72
    11
 73
    12
  0
VERTEX
  5
AF3
  8
0
 62
     9
 10
0.0
 20
0.0
 30
0.0
 70
   128
 71
    67
 72
    60
 73
    11
  0
VERTEX
  5
AF4
  8
0
 62
     9
 10
0.0
 20
0.0
 30
0.0
 70
   128
 71
    68
 72
    67
 73
    64
  0
VERTEX
  5
AF5
  8
0
 62
     9
 10
0.0
 20
0.0
 30
0.0
 70
   128
 71
    20
 72
    68
 73
    63
  0
VERTEX
  5
AF6
  8
0
 62
     9
 10
0.0
 20
0.0
 30
0.0
 70
   128
 71
    71
 72
    70
 73
    69
  0
VERTEX
  5
AF7
  8
0
 62
     9
 10
0.0
 20
0.0
 30
0.0
 70
   128
 71
    69
 72
    67
 73
    68
  0
VERTEX
  5
AF8
  8
0
 62
     9
 10
0.0
 20
0.0
 30
0.0
 70
   128
 71
    68
 72
    72
 73
    69
  0
VERTEX
  5
AF9
  8
0
 62
     9
 10
0.0
 20
0.0
 30
0.0
 70
   128
 71
    75
 72
    74
 73
    73
  0
VERTEX
  5
AFA
  8
0
 62
     9
 10
0.0
 20
0.0
 30
0.0
 70
   128
 71
    74
 72
    76
 73
    73
  0
VERTEX
  5
AFB
  8
0
 62
     9
 10
0.0
 20
0.0
 30
0.0
 70
   128
 71
    69
 72
    59
 73
    60
  0
VERTEX
  5
AFC
  8
0
 62
     9
 10
0.0
 20
0.0
 30
0.0
 70
   128
 71
    70
 72
    77
 73
    59
  0
VERTEX
  5
AFD
  8
0
 62
     9
 10
0.0
 20
0.0
 30
0.0
 70
   128
 71
    77
 72
    78
 73
    59
  0
VERTEX
  5
AFE
  8
0
 62
     9
 10
0.0
 20
0.0
 30
0.0
 70
   128
 71
    78
 72
    75
 73
    59
  0
VERTEX
  5
AFF
  8
0
 62
     9
 10
0.0
 20
0.0
 30
0.0
 70
   128
 71
    23
 72
    79
 73
    68
  0
VERTEX
  5
B00
  8
0
 62
     9
 10
0.0
 20
0.0
 30
0.0
 70
   128
 71
    81
 72
    80
 73
    68
  0
VERTEX
  5
B01
  8
0
 62
     9
 10
0.0
 20
0.0
 30
0.0
 70
   128
 71
    68
 72
    79
 73
    81
  0
VERTEX
  5
B02
  8
0
 62
     9
 10
0.0
 20
0.0
 30
0.0
 70
   128
 71
    80
 72
    72
 73
    68
  0
VERTEX
  5
B03
  8
0
 62
     9
 10
0.0
 20
0.0
 30
0.0
 70
   128
 71
    82
 72
    47
 73
    49
  0
VERTEX
  5
B04
  8
0
 62
     9
 10
0.0
 20
0.0
 30
0.0
 70
   128
 71
    49
 72
    83
 73
    82
  0
VERTEX
  5
B05
  8
0
 62
     9
 10
0.0
 20
0.0
 30
0.0
 70
   128
 71
    49
 72
    84
 73
    83
  0
VERTEX
  5
B06
  8
0
 62
     9
 10
0.0
 20
0.0
 30
0.0
 70
   128
 71
    49
 72
    85
 73
    84
  0
VERTEX
  5
B07
  8
0
 62
     9
 10
0.0
 20
0.0
 30
0.0
 70
   128
 71
    68
 72
    20
 73
    23
  0
VERTEX
  5
B08
  8
0
 62
     9
 10
0.0
 20
0.0
 30
0.0
 70
   128
 71
    59
 72
    69
 73
    70
  0
VERTEX
  5
B09
  8
0
 62
     9
 10
0.0
 20
0.0
 30
0.0
 70
   128
 71
    60
 72
    67
 73
    69
  0
VERTEX
  5
B0A
  8
0
 62
     9
 10
0.0
 20
0.0
 30
0.0
 70
   128
 71
    73
 72
    59
 73
    75
  0
VERTEX
  5
B0B
  8
0
 62
     9
 10
0.0
 20
0.0
 30
0.0
 70
   128
 71
    69
 72
    72
 73
    71
  0
VERTEX
  5
B0C
  8
0
 62
     9
 10
0.0
 20
0.0
 30
0.0
 70
   128
 71
    63
 72
     2
 73
    20
  0
VERTEX
  5
B0D
  8
0
 62
     9
 10
0.0
 20
0.0
 30
0.0
 70
   128
 71
    64
 72
    63
 73
    68
  0
VERTEX
  5
B0E
  8
0
 62
     9
 10
0.0
 20
0.0
 30
0.0
 70
   128
 71
    11
 72
    64
 73
    67
  0
VERTEX
  5
B0F
  8
0
 62
     9
 10
0.0
 20
0.0
 30
0.0
 70
   128
 71
    12
 72
    56
 73
    64
  0
VERTEX
  5
B10
  8
0
 62
     9
 10
0.0
 20
0.0
 30
0.0
 70
   128
 71
    60
 72
    61
 73
    65
  0
VERTEX
  5
B11
  8
0
 62
     9
 10
0.0
 20
0.0
 30
0.0
 70
   128
 71
    56
 72
     1
 73
     2
  0
VERTEX
  5
B12
  8
0
 62
     9
 10
0.0
 20
0.0
 30
0.0
 70
   128
 71
    59
 72
    73
 73
    62
  0
VERTEX
  5
B13
  8
0
 62
     9
 10
0.0
 20
0.0
 30
0.0
 70
   128
 71
    53
 72
    29
 73
     1
  0
VERTEX
  5
B14
  8
0
 62
     9
 10
0.0
 20
0.0
 30
0.0
 70
   128
 71
    10
 72
     4
 73
    57
  0
VERTEX
  5
B15
  8
0
 62
     9
 10
0.0
 20
0.0
 30
0.0
 70
   128
 71
    52
 72
    34
 73
    35
  0
VERTEX
  5
B16
  8
0
 62
     9
 10
0.0
 20
0.0
 30
0.0
 70
   128
 71
    35
 72
    36
 73
    58
  0
VERTEX
  5
B17
  8
0
 62
     9
 10
0.0
 20
0.0
 30
0.0
 70
   128
 71
    53
 72
    52
 73
    57
  0
VERTEX
  5
B18
  8
0
 62
     9
 10
0.0
 20
0.0
 30
0.0
 70
   128
 71
    39
 72
    53
 73
    56
  0
VERTEX
  5
B19
  8
0
 62
     9
 10
0.0
 20
0.0
 30
0.0
 70
   128
 71
    12
 72
    14
 73
    54
  0
VERTEX
  5
B1A
  8
0
 62
     9
 10
0.0
 20
0.0
 30
0.0
 70
   128
 71
    39
 72
    40
 73
    52
  0
VERTEX
  5
B1B
  8
0
 62
     9
 10
0.0
 20
0.0
 30
0.0
 70
   128
 71
    40
 72
    44
 73
    34
  0
VERTEX
  5
B1C
  8
0
 62
     9
 10
0.0
 20
0.0
 30
0.0
 70
   128
 71
    41
 72
    47
 73
    44
  0
VERTEX
  5
B1D
  8
0
 62
     9
 10
0.0
 20
0.0
 30
0.0
 70
   128
 71
    47
 72
    82
 73
    51
  0
VERTEX
  5
B1E
  8
0
 62
     9
 10
0.0
 20
0.0
 30
0.0
 70
   128
 71
    41
 72
    43
 73
    48
  0
VERTEX
  5
B1F
  8
0
 62
     9
 10
0.0
 20
0.0
 30
0.0
 70
   128
 71
    44
 72
    50
 73
    46
  0
VERTEX
  5
B20
  8
0
 62
     9
 10
0.0
 20
0.0
 30
0.0
 70
   128
 71
    39
 72
    55
 73
    42
  0
VERTEX
  5
B21
  8
0
 62
     9
 10
0.0
 20
0.0
 30
0.0
 70
   128
 71
    34
 72
    45
 73
    38
  0
VERTEX
  5
B22
  8
0
 62
     9
 10
0.0
 20
0.0
 30
0.0
 70
   128
 71
    29
 72
    33
 73
    15
  0
VERTEX
  5
B23
  8
0
 62
     9
 10
0.0
 20
0.0
 30
0.0
 70
   128
 71
    33
 72
    31
 73
    19
  0
VERTEX
  5
B24
  8
0
 62
     9
 10
0.0
 20
0.0
 30
0.0
 70
   128
 71
    30
 72
    86
 73
    32
  0
VERTEX
  5
B25
  8
0
 62
     9
 10
0.0
 20
0.0
 30
0.0
 70
   128
 71
     7
 72
    33
 73
    29
  0
VERTEX
  5
B26
  8
0
 62
     9
 10
0.0
 20
0.0
 30
0.0
 70
   128
 71
    25
 72
    16
 73
    28
  0
VERTEX
  5
B27
  8
0
 62
     9
 10
0.0
 20
0.0
 30
0.0
 70
   128
 71
     2
 72
     3
 73
    25
  0
VERTEX
  5
B28
  8
0
 62
     9
 10
0.0
 20
0.0
 30
0.0
 70
   128
 71
    20
 72
    25
 73
    22
  0
VERTEX
  5
B29
  8
0
 62
     9
 10
0.0
 20
0.0
 30
0.0
 70
   128
 71
    16
 72
    25
 73
     3
  0
VERTEX
  5
B2A
  8
0
 62
     9
 10
0.0
 20
0.0
 30
0.0
 70
   128
 71
    11
 72
    66
 73
    13
  0
VERTEX
  5
B2B
  8
0
 62
     9
 10
0.0
 20
0.0
 30
0.0
 70
   128
 71
     4
 72
    10
 73
     6
  0
VERTEX
  5
B2C
  8
0
 62
     9
 10
0.0
 20
0.0
 30
0.0
 70
   128
 71
     1
 72
    15
 73
     3
  0
SEQEND
  5
B2D
  8
0
 62
     9
  0
ENDBLK
  5
B30
  8
0
  0
BLOCK
  8
0
  2
E3_NODE_50_
 70
     0
 10
0.0
 20
0.0
 30
0.0
  3
E3_NODE_50_
  1

  0
POLYLINE
  5
B32
  8
0
 62
     9
 66
     1
 10
0.0
 20
0.0
 30
0.0
 70
    64
 71
    83
 72
   113
  0
VERTEX
  5
B33
  8
0
 10
27.81399917602539
 20
12.60099983215332
 30
57.97000122070312
 70
   192
  0
VERTEX
  5
B34
  8
0
 10
25.37100028991699
 20
15.04100036621094
 30
60.57199859619141
 70
   192
  0
VERTEX
  5
B35
  8
0
 10
29.69400024414062
 20
14.36499977111816
 30
62.49900054931641
 70
   192
  0
VERTEX
  5
B36
  8
0
 10
20.69799995422363
 20
14.43599987030029
 30
46.62699890136719
 70
   192
  0
VERTEX
  5
B37
  8
0
 10
19.14699935913086
 20
16.26000022888184
 30
45.22100067138672
 70
   192
  0
VERTEX
  5
B38
  8
0
 10
18.04899978637695
 20
17.34600067138672
 30
48.2239990234375
 70
   192
  0
VERTEX
  5
B39
  8
0
 10
19.63299942016602
 20
15.57400035858154
 30
43.89300155639648
 70
   192
  0
VERTEX
  5
B3A
  8
0
 10
20.2810001373291
 20
14.65999984741211
 30
42.12300109863281
 70
   192
  0
VERTEX
  5
B3B
  8
0
 10
19.77700042724609
 20
18.65099906921387
 30
66.53099822998047
 70
   192
  0
VERTEX
  5
B3C
  8
0
 10
16.27899932861328
 20
20.59000015258789
 30
74.00499725341797
 70
   192
  0
VERTEX
  5
B3D
  8
0
 10
18.92700004577637
 20
20.36499977111816
 30
74.00499725341797
 70
   192
  0
VERTEX
  5
B3E
  8
0
 10
14.03699970245361
 20
21.4689998626709
 30
74.00499725341797
 70
   192
  0
VERTEX
  5
B3F
  8
0
 10
26.93199920654297
 20
17.46500015258789
 30
68.55699920654297
 70
   192
  0
VERTEX
  5
B40
  8
0
 10
22.88800048828125
 20
18.01199913024902
 30
67.7239990234375
 70
   192
  0
VERTEX
  5
B41
  8
0
 10
11.08899974822998
 20
22.62400054931641
 30
74.00499725341797
 70
   192
  0
VERTEX
  5
B42
  8
0
 10
15.61800003051758
 20
20.02199935913086
 30
63.54399871826172
 70
   192
  0
VERTEX
  5
B43
  8
0
 10
11.59700012207031
 20
22.24799919128418
 30
65.85800170898438
 70
   192
  0
VERTEX
  5
B44
  8
0
 10
13.38599967956543
 20
21.13599967956543
 30
60.96699905395508
 70
   192
  0
VERTEX
  5
B45
  8
0
 10
12.02000045776367
 20
22.05699920654297
 30
64.69999694824219
 70
   192
  0
VERTEX
  5
B46
  8
0
 10
31.57799911499023
 20
5.436999797821045
 30
53.56100082397461
 70
   192
  0
VERTEX
  5
B47
  8
0
 10
29.92300033569336
 20
9.51200008392334
 30
55.59799957275391
 70
   192
  0
VERTEX
  5
B48
  8
0
 10
34.96799850463867
 20
8.925000190734863
 30
58.25
 70
   192
  0
VERTEX
  5
B49
  8
0
 10
38.26599884033203
 20
11.34099960327148
 30
61.57099914550781
 70
   192
  0
VERTEX
  5
B4A
  8
0
 10
52.04899978637695
 20
11.22999954223633
 30
62.61700057983398
 70
   192
  0
VERTEX
  5
B4B
  8
0
 10
52.05599975585938
 20
11.22599983215332
 30
62.61299896240234
 70
   192
  0
VERTEX
  5
B4C
  8
0
 10
50.73899841308594
 20
11.98499965667725
 30
63.32799911499023
 70
   192
  0
VERTEX
  5
B4D
  8
0
 10
34.91500091552734
 20
13.77400016784668
 30
63.66999816894531
 70
   192
  0
VERTEX
  5
B4E
  8
0
 10
49.04999923706055
 20
12.95899963378906
 30
64.24500274658203
 70
   192
  0
VERTEX
  5
B4F
  8
0
 10
32.58399963378906
 20
11.93099975585938
 30
60.2400016784668
 70
   192
  0
VERTEX
  5
B50
  8
0
 10
52.78900146484375
 20
10.5959997177124
 30
62.21599960327148
 70
   192
  0
VERTEX
  5
B51
  8
0
 10
47.88399887084961
 20
8.031000137329102
 30
60.47299957275391
 70
   192
  0
VERTEX
  5
B52
  8
0
 10
55.43199920654297
 20
8.322999954223633
 30
60.78200149536133
 70
   192
  0
VERTEX
  5
B53
  8
0
 10
55.80400085449219
 20
7.802000045776367
 30
60.58000183105469
 70
   192
  0
VERTEX
  5
B54
  8
0
 10
42.93999862670898
 20
4.747000217437744
 30
58.42599868774414
 70
   192
  0
VERTEX
  5
B55
  8
0
 10
40.97499847412109
 20
8.40999984741211
 30
59.79999923706055
 70
   192
  0
VERTEX
  5
B56
  8
0
 10
36.73500061035156
 20
5.068999767303467
 30
56.60499954223633
 70
   192
  0
VERTEX
  5
B57
  8
0
 10
37.41600036621094
 20
-0.0099999997764826
 30
55.6879997253418
 70
   192
  0
VERTEX
  5
B58
  8
0
 10
33.80400085449219
 20
-0.0099999997764826
 30
53.7140007019043
 70
   192
  0
VERTEX
  5
B59
  8
0
 10
43.44300079345703
 20
-0.0099999997764826
 30
57.72999954223633
 70
   192
  0
VERTEX
  5
B5A
  8
0
 10
38.23899841308594
 20
-0.0099999997764826
 30
56.13800048828125
 70
   192
  0
VERTEX
  5
B5B
  8
0
 10
50.04600143432617
 20
4.514999866485596
 30
59.22600173950195
 70
   192
  0
VERTEX
  5
B5C
  8
0
 10
49.92900085449219
 20
-0.0099999997764826
 30
58.60599899291992
 70
   192
  0
VERTEX
  5
B5D
  8
0
 10
50.94599914550781
 20
-0.0099999997764826
 30
58.63100051879883
 70
   192
  0
VERTEX
  5
B5E
  8
0
 10
57.16999816894531
 20
5.883999824523926
 30
59.8380012512207
 70
   192
  0
VERTEX
  5
B5F
  8
0
 10
57.76900100708008
 20
5.044000148773193
 30
59.51300048828125
 70
   192
  0
VERTEX
  5
B60
  8
0
 10
57.99100112915039
 20
4.382999897003174
 30
59.39300155639648
 70
   192
  0
VERTEX
  5
B61
  8
0
 10
58.89500045776367
 20
1.680999994277954
 30
58.90299987792969
 70
   192
  0
VERTEX
  5
B62
  8
0
 10
59.03300094604492
 20
-0.0099999997764826
 30
58.82799911499023
 70
   192
  0
VERTEX
  5
B63
  8
0
 10
22.04500007629395
 20
15.74400043487549
 30
57.93899917602539
 70
   192
  0
VERTEX
  5
B64
  8
0
 10
26.11199951171875
 20
10.10499954223633
 30
51.84799957275391
 70
   192
  0
VERTEX
  5
B65
  8
0
 10
21.8430004119873
 20
13.91899967193604
 30
50.90399932861328
 70
   192
  0
VERTEX
  5
B66
  8
0
 10
23.7450008392334
 20
10.63799953460693
 30
47.23199844360352
 70
   192
  0
VERTEX
  5
B67
  8
0
 10
24.36899948120117
 20
6.375
 30
38.10100173950195
 70
   192
  0
VERTEX
  5
B68
  8
0
 10
23.1569995880127
 20
9.572999954223633
 30
34.26300048828125
 70
   192
  0
VERTEX
  5
B69
  8
0
 10
22.375
 20
11.16100025177002
 30
36.39899826049805
 70
   192
  0
VERTEX
  5
B6A
  8
0
 10
23.4060001373291
 20
8.802000045776367
 30
33.58100128173828
 70
   192
  0
VERTEX
  5
B6B
  8
0
 10
24.22900009155273
 20
6.257999897003174
 30
31.33200073242188
 70
   192
  0
VERTEX
  5
B6C
  8
0
 10
18.63199996948242
 20
17.0049991607666
 30
51.54199981689453
 70
   192
  0
VERTEX
  5
B6D
  8
0
 10
19.84000015258789
 20
16.41699981689453
 30
54.8380012512207
 70
   192
  0
VERTEX
  5
B6E
  8
0
 10
22.67200088500977
 20
11.04599952697754
 30
42.02199935913086
 70
   192
  0
VERTEX
  5
B6F
  8
0
 10
21.49799919128418
 20
12.94299983978271
 30
38.79700088500977
 70
   192
  0
VERTEX
  5
B70
  8
0
 10
25.38800048828125
 20
6.133999824523926
 30
44.07799911499023
 70
   192
  0
VERTEX
  5
B71
  8
0
 10
24.94599914550781
 20
3.380000114440918
 30
36.76499938964844
 70
   192
  0
VERTEX
  5
B72
  8
0
 10
24.75399971008301
 20
3.411999940872192
 30
29.89900016784668
 70
   192
  0
VERTEX
  5
B73
  8
0
 10
25.95299911499023
 20
3.253999948501587
 30
42.98899841308594
 70
   192
  0
VERTEX
  5
B74
  8
0
 10
26.17000007629395
 20
-0.0099999997764826
 30
42.56000137329102
 70
   192
  0
VERTEX
  5
B75
  8
0
 10
25.25799942016602
 20
-0.0099999997764826
 30
37.39099884033203
 70
   192
  0
VERTEX
  5
B76
  8
0
 10
27.73800086975098
 20
5.807000160217285
 30
49.31399917602539
 70
   192
  0
VERTEX
  5
B77
  8
0
 10
27.72599983215332
 20
-0.0099999997764826
 30
46.66400146484375
 70
   192
  0
VERTEX
  5
B78
  8
0
 10
28.58699989318848
 20
-0.0099999997764826
 30
47.9640007019043
 70
   192
  0
VERTEX
  5
B79
  8
0
 10
32.34099960327148
 20
-0.0099999997764826
 30
52.38299942016602
 70
   192
  0
VERTEX
  5
B7A
  8
0
 10
30.25799942016602
 20
-0.0099999997764826
 30
50.48799896240234
 70
   192
  0
VERTEX
  5
B7B
  8
0
 10
15.9980001449585
 20
19.375
 30
53.82899856567383
 70
   192
  0
VERTEX
  5
B7C
  8
0
 10
17.38400077819824
 20
19.33600044250488
 30
65.0780029296875
 70
   192
  0
VERTEX
  5
B7D
  8
0
 10
31.06100082397461
 20
19.33399963378906
 30
74.00499725341797
 70
   192
  0
VERTEX
  5
B7E
  8
0
 10
43.08599853515625
 20
15.67700004577637
 30
67.4800033569336
 70
   192
  0
VERTEX
  5
B7F
  8
0
 10
47.16400146484375
 20
14.04599952697754
 30
65.26799774169922
 70
   192
  0
VERTEX
  5
B80
  8
0
 10
40.17900085449219
 20
16.77499961853027
 30
69.05799865722656
 70
   192
  0
VERTEX
  5
B81
  8
0
 10
40.71200180053711
 20
16.62599945068359
 30
68.76899719238281
 70
   192
  0
VERTEX
  5
B82
  8
0
 10
25.22200012207031
 20
-0.0099999997764826
 30
36.25299835205078
 70
   192
  0
VERTEX
  5
B83
  8
0
 10
24.80900001525879
 20
3.11299991607666
 30
29.74799919128418
 70
   192
  0
VERTEX
  5
B84
  8
0
 10
24.99699974060059
 20
-0.0099999997764826
 30
29.23399925231934
 70
   192
  0
VERTEX
  5
B85
  8
0
 10
8.616000175476074
 20
23.5930004119873
 30
74.00499725341797
 70
   192
  0
VERTEX
  5
B86
  8
0
 62
     9
 10
0.0
 20
0.0
 30
0.0
 70
   128
 71
     3
 72
     2
 73
     1
  0
VERTEX
  5
B87
  8
0
 62
     9
 10
0.0
 20
0.0
 30
0.0
 70
   128
 71
     6
 72
     5
 73
     4
  0
VERTEX
  5
B88
  8
0
 62
     9
 10
0.0
 20
0.0
 30
0.0
 70
   128
 71
     5
 72
     7
 73
     4
  0
VERTEX
  5
B89
  8
0
 62
     9
 10
0.0
 20
0.0
 30
0.0
 70
   128
 71
     7
 72
     8
 73
     4
  0
VERTEX
  5
B8A
  8
0
 62
     9
 10
0.0
 20
0.0
 30
0.0
 70
   128
 71
    11
 72
    10
 73
     9
  0
VERTEX
  5
B8B
  8
0
 62
     9
 10
0.0
 20
0.0
 30
0.0
 70
   128
 71
    10
 72
    12
 73
     9
  0
VERTEX
  5
B8C
  8
0
 62
     9
 10
0.0
 20
0.0
 30
0.0
 70
   128
 71
    14
 72
    13
 73
    11
  0
VERTEX
  5
B8D
  8
0
 62
     9
 10
0.0
 20
0.0
 30
0.0
 70
   128
 71
    17
 72
    16
 73
    15
  0
VERTEX
  5
B8E
  8
0
 62
     9
 10
0.0
 20
0.0
 30
0.0
 70
   128
 71
    19
 72
    18
 73
    16
  0
VERTEX
  5
B8F
  8
0
 62
     9
 10
0.0
 20
0.0
 30
0.0
 70
   128
 71
    16
 72
    17
 73
    19
  0
VERTEX
  5
B90
  8
0
 62
     9
 10
0.0
 20
0.0
 30
0.0
 70
   128
 71
    22
 72
    21
 73
    20
  0
VERTEX
  5
B91
  8
0
 62
     9
 10
0.0
 20
0.0
 30
0.0
 70
   128
 71
    25
 72
    24
 73
    23
  0
VERTEX
  5
B92
  8
0
 62
     9
 10
0.0
 20
0.0
 30
0.0
 70
   128
 71
    24
 72
    26
 73
    23
  0
VERTEX
  5
B93
  8
0
 62
     9
 10
0.0
 20
0.0
 30
0.0
 70
   128
 71
    28
 72
    27
 73
    23
  0
VERTEX
  5
B94
  8
0
 62
     9
 10
0.0
 20
0.0
 30
0.0
 70
   128
 71
    23
 72
    26
 73
    28
  0
VERTEX
  5
B95
  8
0
 62
     9
 10
0.0
 20
0.0
 30
0.0
 70
   128
 71
    29
 72
     1
 73
    21
  0
VERTEX
  5
B96
  8
0
 62
     9
 10
0.0
 20
0.0
 30
0.0
 70
   128
 71
    27
 72
     3
 73
    29
  0
VERTEX
  5
B97
  8
0
 62
     9
 10
0.0
 20
0.0
 30
0.0
 70
   128
 71
    23
 72
    29
 73
    22
  0
VERTEX
  5
B98
  8
0
 62
     9
 10
0.0
 20
0.0
 30
0.0
 70
   128
 71
    31
 72
    30
 73
    23
  0
VERTEX
  5
B99
  8
0
 62
     9
 10
0.0
 20
0.0
 30
0.0
 70
   128
 71
    32
 72
    30
 73
    31
  0
VERTEX
  5
B9A
  8
0
 62
     9
 10
0.0
 20
0.0
 30
0.0
 70
   128
 71
    31
 72
    33
 73
    32
  0
VERTEX
  5
B9B
  8
0
 62
     9
 10
0.0
 20
0.0
 30
0.0
 70
   128
 71
    31
 72
    35
 73
    34
  0
VERTEX
  5
B9C
  8
0
 62
     9
 10
0.0
 20
0.0
 30
0.0
 70
   128
 71
    38
 72
    37
 73
    36
  0
VERTEX
  5
B9D
  8
0
 62
     9
 10
0.0
 20
0.0
 30
0.0
 70
   128
 71
    36
 72
    20
 73
    38
  0
VERTEX
  5
B9E
  8
0
 62
     9
 10
0.0
 20
0.0
 30
0.0
 70
   128
 71
    35
 72
    22
 73
    36
  0
VERTEX
  5
B9F
  8
0
 62
     9
 10
0.0
 20
0.0
 30
0.0
 70
   128
 71
    40
 72
    39
 73
    34
  0
VERTEX
  5
BA0
  8
0
 62
     9
 10
0.0
 20
0.0
 30
0.0
 70
   128
 71
    34
 72
    36
 73
    40
  0
VERTEX
  5
BA1
  8
0
 62
     9
 10
0.0
 20
0.0
 30
0.0
 70
   128
 71
    39
 72
    42
 73
    41
  0
VERTEX
  5
BA2
  8
0
 62
     9
 10
0.0
 20
0.0
 30
0.0
 70
   128
 71
    42
 72
    43
 73
    41
  0
VERTEX
  5
BA3
  8
0
 62
     9
 10
0.0
 20
0.0
 30
0.0
 70
   128
 71
    45
 72
    44
 73
    41
  0
VERTEX
  5
BA4
  8
0
 62
     9
 10
0.0
 20
0.0
 30
0.0
 70
   128
 71
    33
 72
    31
 73
    41
  0
VERTEX
  5
BA5
  8
0
 62
     9
 10
0.0
 20
0.0
 30
0.0
 70
   128
 71
    41
 72
    44
 73
    33
  0
VERTEX
  5
BA6
  8
0
 62
     9
 10
0.0
 20
0.0
 30
0.0
 70
   128
 71
    46
 72
    41
 73
    43
  0
VERTEX
  5
BA7
  8
0
 62
     9
 10
0.0
 20
0.0
 30
0.0
 70
   128
 71
    43
 72
    47
 73
    46
  0
VERTEX
  5
BA8
  8
0
 62
     9
 10
0.0
 20
0.0
 30
0.0
 70
   128
 71
    43
 72
    48
 73
    47
  0
VERTEX
  5
BA9
  8
0
 62
     9
 10
0.0
 20
0.0
 30
0.0
 70
   128
 71
    51
 72
    50
 73
    49
  0
VERTEX
  5
BAA
  8
0
 62
     9
 10
0.0
 20
0.0
 30
0.0
 70
   128
 71
    51
 72
    52
 73
    50
  0
VERTEX
  5
BAB
  8
0
 62
     9
 10
0.0
 20
0.0
 30
0.0
 70
   128
 71
    55
 72
    54
 73
    53
  0
VERTEX
  5
BAC
  8
0
 62
     9
 10
0.0
 20
0.0
 30
0.0
 70
   128
 71
    54
 72
    56
 73
    53
  0
VERTEX
  5
BAD
  8
0
 62
     9
 10
0.0
 20
0.0
 30
0.0
 70
   128
 71
    56
 72
    57
 73
    53
  0
VERTEX
  5
BAE
  8
0
 62
     9
 10
0.0
 20
0.0
 30
0.0
 70
   128
 71
    51
 72
    59
 73
    58
  0
VERTEX
  5
BAF
  8
0
 62
     9
 10
0.0
 20
0.0
 30
0.0
 70
   128
 71
     8
 72
    61
 73
    60
  0
VERTEX
  5
BB0
  8
0
 62
     9
 10
0.0
 20
0.0
 30
0.0
 70
   128
 71
    61
 72
    55
 73
    60
  0
VERTEX
  5
BB1
  8
0
 62
     9
 10
0.0
 20
0.0
 30
0.0
 70
   128
 71
     4
 72
    60
 73
    52
  0
VERTEX
  5
BB2
  8
0
 62
     9
 10
0.0
 20
0.0
 30
0.0
 70
   128
 71
    60
 72
    53
 73
    62
  0
VERTEX
  5
BB3
  8
0
 62
     9
 10
0.0
 20
0.0
 30
0.0
 70
   128
 71
    57
 72
    64
 73
    63
  0
VERTEX
  5
BB4
  8
0
 62
     9
 10
0.0
 20
0.0
 30
0.0
 70
   128
 71
    53
 72
    63
 73
    65
  0
VERTEX
  5
BB5
  8
0
 62
     9
 10
0.0
 20
0.0
 30
0.0
 70
   128
 71
    67
 72
    66
 73
    65
  0
VERTEX
  5
BB6
  8
0
 62
     9
 10
0.0
 20
0.0
 30
0.0
 70
   128
 71
    65
 72
    63
 73
    67
  0
VERTEX
  5
BB7
  8
0
 62
     9
 10
0.0
 20
0.0
 30
0.0
 70
   128
 71
    52
 72
    62
 73
    68
  0
VERTEX
  5
BB8
  8
0
 62
     9
 10
0.0
 20
0.0
 30
0.0
 70
   128
 71
     1
 72
     2
 73
    49
  0
VERTEX
  5
BB9
  8
0
 62
     9
 10
0.0
 20
0.0
 30
0.0
 70
   128
 71
    49
 72
    50
 73
     1
  0
VERTEX
  5
BBA
  8
0
 62
     9
 10
0.0
 20
0.0
 30
0.0
 70
   128
 71
    21
 72
    50
 73
    68
  0
VERTEX
  5
BBB
  8
0
 62
     9
 10
0.0
 20
0.0
 30
0.0
 70
   128
 71
    65
 72
    69
 73
    68
  0
VERTEX
  5
BBC
  8
0
 62
     9
 10
0.0
 20
0.0
 30
0.0
 70
   128
 71
    65
 72
    66
 73
    69
  0
VERTEX
  5
BBD
  8
0
 62
     9
 10
0.0
 20
0.0
 30
0.0
 70
   128
 71
    69
 72
    70
 73
    68
  0
VERTEX
  5
BBE
  8
0
 62
     9
 10
0.0
 20
0.0
 30
0.0
 70
   128
 71
    72
 72
    71
 73
    20
  0
VERTEX
  5
BBF
  8
0
 62
     9
 10
0.0
 20
0.0
 30
0.0
 70
   128
 71
    20
 72
    68
 73
    72
  0
VERTEX
  5
BC0
  8
0
 62
     9
 10
0.0
 20
0.0
 30
0.0
 70
   128
 71
    18
 72
    73
 73
    59
  0
VERTEX
  5
BC1
  8
0
 62
     9
 10
0.0
 20
0.0
 30
0.0
 70
   128
 71
    73
 72
    58
 73
    59
  0
VERTEX
  5
BC2
  8
0
 62
     9
 10
0.0
 20
0.0
 30
0.0
 70
   128
 71
    59
 72
    16
 73
    18
  0
VERTEX
  5
BC3
  8
0
 62
     9
 10
0.0
 20
0.0
 30
0.0
 70
   128
 71
    12
 72
    15
 73
    74
  0
VERTEX
  5
BC4
  8
0
 62
     9
 10
0.0
 20
0.0
 30
0.0
 70
   128
 71
    74
 72
     9
 73
    12
  0
VERTEX
  5
BC5
  8
0
 62
     9
 10
0.0
 20
0.0
 30
0.0
 70
   128
 71
    49
 72
    74
 73
    16
  0
VERTEX
  5
BC6
  8
0
 62
     9
 10
0.0
 20
0.0
 30
0.0
 70
   128
 71
     9
 72
    74
 73
    49
  0
VERTEX
  5
BC7
  8
0
 62
     9
 10
0.0
 20
0.0
 30
0.0
 70
   128
 71
    75
 72
    11
 73
    13
  0
VERTEX
  5
BC8
  8
0
 62
     9
 10
0.0
 20
0.0
 30
0.0
 70
   128
 71
    14
 72
     9
 73
     2
  0
VERTEX
  5
BC9
  8
0
 62
     9
 10
0.0
 20
0.0
 30
0.0
 70
   128
 71
    13
 72
    14
 73
     3
  0
VERTEX
  5
BCA
  8
0
 62
     9
 10
0.0
 20
0.0
 30
0.0
 70
   128
 71
    77
 72
    76
 73
    27
  0
VERTEX
  5
BCB
  8
0
 62
     9
 10
0.0
 20
0.0
 30
0.0
 70
   128
 71
    78
 72
    13
 73
    27
  0
VERTEX
  5
BCC
  8
0
 62
     9
 10
0.0
 20
0.0
 30
0.0
 70
   128
 71
    27
 72
    79
 73
    78
  0
VERTEX
  5
BCD
  8
0
 62
     9
 10
0.0
 20
0.0
 30
0.0
 70
   128
 71
    27
 72
    76
 73
    79
  0
VERTEX
  5
BCE
  8
0
 62
     9
 10
0.0
 20
0.0
 30
0.0
 70
   128
 71
    64
 72
    81
 73
    80
  0
VERTEX
  5
BCF
  8
0
 62
     9
 10
0.0
 20
0.0
 30
0.0
 70
   128
 71
    81
 72
    82
 73
    80
  0
VERTEX
  5
BD0
  8
0
 62
     9
 10
0.0
 20
0.0
 30
0.0
 70
   128
 71
    80
 72
    63
 73
    64
  0
VERTEX
  5
BD1
  8
0
 62
     9
 10
0.0
 20
0.0
 30
0.0
 70
   128
 71
    27
 72
    28
 73
    77
  0
VERTEX
  5
BD2
  8
0
 62
     9
 10
0.0
 20
0.0
 30
0.0
 70
   128
 71
     3
 72
    27
 73
    13
  0
VERTEX
  5
BD3
  8
0
 62
     9
 10
0.0
 20
0.0
 30
0.0
 70
   128
 71
     2
 72
     3
 73
    14
  0
VERTEX
  5
BD4
  8
0
 62
     9
 10
0.0
 20
0.0
 30
0.0
 70
   128
 71
    13
 72
    78
 73
    75
  0
VERTEX
  5
BD5
  8
0
 62
     9
 10
0.0
 20
0.0
 30
0.0
 70
   128
 71
    49
 72
     2
 73
     9
  0
VERTEX
  5
BD6
  8
0
 62
     9
 10
0.0
 20
0.0
 30
0.0
 70
   128
 71
    16
 72
    59
 73
    49
  0
VERTEX
  5
BD7
  8
0
 62
     9
 10
0.0
 20
0.0
 30
0.0
 70
   128
 71
    15
 72
    16
 73
    74
  0
VERTEX
  5
BD8
  8
0
 62
     9
 10
0.0
 20
0.0
 30
0.0
 70
   128
 71
    73
 72
     6
 73
    58
  0
VERTEX
  5
BD9
  8
0
 62
     9
 10
0.0
 20
0.0
 30
0.0
 70
   128
 71
    68
 72
    70
 73
    72
  0
VERTEX
  5
BDA
  8
0
 62
     9
 10
0.0
 20
0.0
 30
0.0
 70
   128
 71
    68
 72
    62
 73
    65
  0
VERTEX
  5
BDB
  8
0
 62
     9
 10
0.0
 20
0.0
 30
0.0
 70
   128
 71
    68
 72
    20
 73
    21
  0
VERTEX
  5
BDC
  8
0
 62
     9
 10
0.0
 20
0.0
 30
0.0
 70
   128
 71
    50
 72
    21
 73
     1
  0
VERTEX
  5
BDD
  8
0
 62
     9
 10
0.0
 20
0.0
 30
0.0
 70
   128
 71
    68
 72
    50
 73
    52
  0
VERTEX
  5
BDE
  8
0
 62
     9
 10
0.0
 20
0.0
 30
0.0
 70
   128
 71
    63
 72
    80
 73
    67
  0
VERTEX
  5
BDF
  8
0
 62
     9
 10
0.0
 20
0.0
 30
0.0
 70
   128
 71
    65
 72
    62
 73
    53
  0
VERTEX
  5
BE0
  8
0
 62
     9
 10
0.0
 20
0.0
 30
0.0
 70
   128
 71
    63
 72
    53
 73
    57
  0
VERTEX
  5
BE1
  8
0
 62
     9
 10
0.0
 20
0.0
 30
0.0
 70
   128
 71
    62
 72
    52
 73
    60
  0
VERTEX
  5
BE2
  8
0
 62
     9
 10
0.0
 20
0.0
 30
0.0
 70
   128
 71
    52
 72
    51
 73
     4
  0
VERTEX
  5
BE3
  8
0
 62
     9
 10
0.0
 20
0.0
 30
0.0
 70
   128
 71
    60
 72
     4
 73
     8
  0
VERTEX
  5
BE4
  8
0
 62
     9
 10
0.0
 20
0.0
 30
0.0
 70
   128
 71
    58
 72
     4
 73
    51
  0
VERTEX
  5
BE5
  8
0
 62
     9
 10
0.0
 20
0.0
 30
0.0
 70
   128
 71
    53
 72
    60
 73
    55
  0
VERTEX
  5
BE6
  8
0
 62
     9
 10
0.0
 20
0.0
 30
0.0
 70
   128
 71
    49
 72
    59
 73
    51
  0
VERTEX
  5
BE7
  8
0
 62
     9
 10
0.0
 20
0.0
 30
0.0
 70
   128
 71
    41
 72
    46
 73
    45
  0
VERTEX
  5
BE8
  8
0
 62
     9
 10
0.0
 20
0.0
 30
0.0
 70
   128
 71
    41
 72
    34
 73
    39
  0
VERTEX
  5
BE9
  8
0
 62
     9
 10
0.0
 20
0.0
 30
0.0
 70
   128
 71
    36
 72
    37
 73
    40
  0
VERTEX
  5
BEA
  8
0
 62
     9
 10
0.0
 20
0.0
 30
0.0
 70
   128
 71
    36
 72
    34
 73
    35
  0
VERTEX
  5
BEB
  8
0
 62
     9
 10
0.0
 20
0.0
 30
0.0
 70
   128
 71
    20
 72
    71
 73
    38
  0
VERTEX
  5
BEC
  8
0
 62
     9
 10
0.0
 20
0.0
 30
0.0
 70
   128
 71
    34
 72
    41
 73
    31
  0
VERTEX
  5
BED
  8
0
 62
     9
 10
0.0
 20
0.0
 30
0.0
 70
   128
 71
    23
 72
    35
 73
    31
  0
VERTEX
  5
BEE
  8
0
 62
     9
 10
0.0
 20
0.0
 30
0.0
 70
   128
 71
    22
 72
    35
 73
    23
  0
VERTEX
  5
BEF
  8
0
 62
     9
 10
0.0
 20
0.0
 30
0.0
 70
   128
 71
    29
 72
    23
 73
    27
  0
VERTEX
  5
BF0
  8
0
 62
     9
 10
0.0
 20
0.0
 30
0.0
 70
   128
 71
    21
 72
    22
 73
    29
  0
VERTEX
  5
BF1
  8
0
 62
     9
 10
0.0
 20
0.0
 30
0.0
 70
   128
 71
    23
 72
    30
 73
    25
  0
VERTEX
  5
BF2
  8
0
 62
     9
 10
0.0
 20
0.0
 30
0.0
 70
   128
 71
    20
 72
    36
 73
    22
  0
VERTEX
  5
BF3
  8
0
 62
     9
 10
0.0
 20
0.0
 30
0.0
 70
   128
 71
    15
 72
    83
 73
    17
  0
VERTEX
  5
BF4
  8
0
 62
     9
 10
0.0
 20
0.0
 30
0.0
 70
   128
 71
     9
 72
    14
 73
    11
  0
VERTEX
  5
BF5
  8
0
 62
     9
 10
0.0
 20
0.0
 30
0.0
 70
   128
 71
     4
 72
    58
 73
     6
  0
VERTEX
  5
BF6
  8
0
 62
     9
 10
0.0
 20
0.0
 30
0.0
 70
   128
 71
     1
 72
    29
 73
     3
  0
SEQEND
  5
BF7
  8
0
 62
     9
  0
ENDBLK
  5
BFA
  8
0
  0
ENDSEC
  0
SECTION
  2
ENTITIES
  0
INSERT
  5
4A
  8
LAYER_1
  2
E3_NODE
 10
0.0
 20
0.0
 30
0.0
  0
INSERT
  5
6F
  8
LAYER_1
  2
E3_NODE_1_
 10
0.0
 20
0.0
 30
0.0
  0
INSERT
  5
91
  8
LAYER_1
  2
E3_NODE_2_
 10
0.0
 20
0.0
 30
0.0
  0
INSERT
  5
AF
  8
LAYER_1
  2
E3_NODE_3_
 10
0.0
 20
0.0
 30
0.0
  0
INSERT
  5
E1
  8
LAYER_1
  2
E3_NODE_4_
 10
0.0
 20
0.0
 30
0.0
  0
INSERT
  5
154
  8
LAYER_1
  2
E3_NODE_5_
 10
0.0
 20
0.0
 30
0.0
  0
INSERT
  5
168
  8
LAYER_1
  2
E3_NODE_6_
 10
0.0
 20
0.0
 30
0.0
  0
INSERT
  5
1A3
  8
LAYER_1
  2
E3_NODE_7_
 10
0.0
 20
0.0
 30
0.0
  0
INSERT
  5
1DA
  8
LAYER_1
  2
E3_NODE_8_
 10
0.0
 20
0.0
 30
0.0
  0
INSERT
  5
1EE
  8
LAYER_1
  2
E3_NODE_9_
 10
0.0
 20
0.0
 30
0.0
  0
INSERT
  5
21A
  8
LAYER_1
  2
E3_NODE_10_
 10
0.0
 20
0.0
 30
0.0
  0
INSERT
  5
22E
  8
LAYER_1
  2
E3_NODE_11_
 10
0.0
 20
0.0
 30
0.0
  0
INSERT
  5
288
  8
LAYER_1
  2
E3_NODE_12_
 10
0.0
 20
0.0
 30
0.0
  0
INSERT
  5
2E3
  8
LAYER_1
  2
E3_NODE_13_
 10
0.0
 20
0.0
 30
0.0
  0
INSERT
  5
388
  8
LAYER_1
  2
E3_NODE_14_
 10
0.0
 20
0.0
 30
0.0
  0
INSERT
  5
435
  8
LAYER_1
  2
E3_NODE_15_
 10
0.0
 20
0.0
 30
0.0
  0
INSERT
  5
479
  8
LAYER_1
  2
E3_NODE_16_
 10
0.0
 20
0.0
 30
0.0
  0
INSERT
  5
4B3
  8
LAYER_1
  2
E3_NODE_17_
 10
0.0
 20
0.0
 30
0.0
  0
INSERT
  5
529
  8
LAYER_1
  2
E3_NODE_18_
 10
0.0
 20
0.0
 30
0.0
  0
INSERT
  5
558
  8
LAYER_1
  2
E3_NODE_19_
 10
0.0
 20
0.0
 30
0.0
  0
INSERT
  5
586
  8
LAYER_1
  2
E3_NODE_20_
 10
0.0
 20
0.0
 30
0.0
  0
INSERT
  5
5C3
  8
LAYER_1
  2
E3_NODE_21_
 10
0.0
 20
0.0
 30
0.0
  0
INSERT
  5
5F1
  8
LAYER_1
  2
E3_NODE_22_
 10
0.0
 20
0.0
 30
0.0
  0
INSERT
  5
601
  8
LAYER_1
  2
E3_NODE_23_
 10
0.0
 20
0.0
 30
0.0
  0
INSERT
  5
619
  8
LAYER_1
  2
E3_NODE_24_
 10
0.0
 20
0.0
 30
0.0
  0
INSERT
  5
62D
  8
LAYER_1
  2
E3_NODE_25_
 10
0.0
 20
0.0
 30
0.0
  0
INSERT
  5
641
  8
LAYER_1
  2
E3_NODE_26_
 10
0.0
 20
0.0
 30
0.0
  0
INSERT
  5
64D
  8
LAYER_1
  2
E3_NODE_27_
 10
0.0
 20
0.0
 30
0.0
  0
INSERT
  5
659
  8
LAYER_1
  2
E3_NODE_28_
 10
0.0
 20
0.0
 30
0.0
  0
INSERT
  5
665
  8
LAYER_1
  2
E3_NODE_29_
 10
0.0
 20
0.0
 30
0.0
  0
INSERT
  5
67B
  8
LAYER_1
  2
E3_NODE_30_
 10
0.0
 20
0.0
 30
0.0
  0
INSERT
  5
691
  8
LAYER_1
  2
E3_NODE_31_
 10
0.0
 20
0.0
 30
0.0
  0
INSERT
  5
6B3
  8
LAYER_1
  2
E3_NODE_32_
 10
0.0
 20
0.0
 30
0.0
  0
INSERT
  5
6C9
  8
LAYER_1
  2
E3_NODE_33_
 10
0.0
 20
0.0
 30
0.0
  0
INSERT
  5
6F7
  8
LAYER_1
  2
E3_NODE_34_
 10
0.0
 20
0.0
 30
0.0
  0
INSERT
  5
70D
  8
LAYER_1
  2
E3_NODE_35_
 10
0.0
 20
0.0
 30
0.0
  0
INSERT
  5
72F
  8
LAYER_1
  2
E3_NODE_36_
 10
0.0
 20
0.0
 30
0.0
  0
INSERT
  5
745
  8
LAYER_1
  2
E3_NODE_37_
 10
0.0
 20
0.0
 30
0.0
  0
INSERT
  5
79F
  8
LAYER_1
  2
E3_NODE_38_
 10
0.0
 20
0.0
 30
0.0
  0
INSERT
  5
7B1
  8
LAYER_1
  2
E3_NODE_39_
 10
0.0
 20
0.0
 30
0.0
  0
INSERT
  5
7F3
  8
LAYER_1
  2
E3_NODE_40_
 10
0.0
 20
0.0
 30
0.0
  0
INSERT
  5
80D
  8
LAYER_1
  2
E3_NODE_41_
 10
0.0
 20
0.0
 30
0.0
  0
INSERT
  5
821
  8
LAYER_1
  2
E3_NODE_42_
 10
0.0
 20
0.0
 30
0.0
  0
INSERT
  5
88D
  8
LAYER_1
  2
E3_NODE_43_
 10
0.0
 20
0.0
 30
0.0
  0
INSERT
  5
8FB
  8
LAYER_1
  2
E3_NODE_44_
 10
0.0
 20
0.0
 30
0.0
  0
INSERT
  5
925
  8
LAYER_1
  2
E3_NODE_45_
 10
0.0
 20
0.0
 30
0.0
  0
INSERT
  5
9A9
  8
LAYER_1
  2
E3_NODE_46_
 10
0.0
 20
0.0
 30
0.0
  0
INSERT
  5
A39
  8
LAYER_1
  2
E3_NODE_47_
 10
0.0
 20
0.0
 30
0.0
  0
INSERT
  5
A5F
  8
LAYER_1
  2
E3_NODE_48_
 10
0.0
 20
0.0
 30
0.0
  0
INSERT
  5
B2E
  8
LAYER_1
  2
E3_NODE_49_
 10
0.0
 20
0.0
 30
0.0
  0
INSERT
  5
BF8
  8
LAYER_1
  2
E3_NODE_50_
 10
0.0
 20
0.0
 30
0.0
  0
ENDSEC
  0
EOF
