  0
SECTION
  2
HEADER
  9
$ACADVER
  1
AC1009
  9
$DWGCODEPAGE
  3
ansi_1252
  9
$INSBASE
 10
0.0
 20
0.0
 30
0.0
  9
$EXTMIN
 10
1.000000000000000E+20
 20
1.000000000000000E+20
 30
1.000000000000000E+20
  9
$EXTMAX
 10
-1.000000000000000E+20
 20
-1.000000000000000E+20
 30
-1.000000000000000E+20
  9
$LIMMIN
 10
0.0
 20
0.0
  9
$LIMMAX
 10
12.0
 20
9.0
  9
$ORTHOMODE
 70
     0
  9
$REGENMODE
 70
     1
  9
$FILLMODE
 70
     1
  9
$QTEXTMODE
 70
     0
  9
$MIRRTEXT
 70
     1
  9
$DRAGMODE
 70
     2
  9
$LTSCALE
 40
1.0
  9
$OSMODE
 70
    37
  9
$ATTMODE
 70
     1
  9
$TEXTSIZE
 40
0.2
  9
$TRACEWID
 40
0.05
  9
$TEXTSTYLE
  7
STANDARD
  9
$CLAYER
  8
0
  9
$CELTYPE
  6
BYLAYER
  9
$CECOLOR
 62
   256
  9
$DIMSCALE
 40
1.0
  9
$DIMASZ
 40
0.18
  9
$DIMEXO
 40
0.0625
  9
$DIMDLI
 40
0.38
  9
$DIMRND
 40
0.0
  9
$DIMDLE
 40
0.0
  9
$DIMEXE
 40
0.18
  9
$DIMTP
 40
0.0
  9
$DIMTM
 40
0.0
  9
$DIMTXT
 40
0.18
  9
$DIMCEN
 40
0.09
  9
$DIMTSZ
 40
0.0
  9
$DIMTOL
 70
     0
  9
$DIMLIM
 70
     0
  9
$DIMTIH
 70
     1
  9
$DIMTOH
 70
     1
  9
$DIMSE1
 70
     0
  9
$DIMSE2
 70
     0
  9
$DIMTAD
 70
     0
  9
$DIMZIN
 70
     0
  9
$DIMBLK
  1

  9
$DIMASO
 70
     1
  9
$DIMSHO
 70
     1
  9
$DIMPOST
  1

  9
$DIMAPOST
  1

  9
$DIMALT
 70
     0
  9
$DIMALTD
 70
     2
  9
$DIMALTF
 40
25.4
  9
$DIMLFAC
 40
1.0
  9
$DIMTOFL
 70
     0
  9
$DIMTVP
 40
0.0
  9
$DIMTIX
 70
     0
  9
$DIMSOXD
 70
     0
  9
$DIMSAH
 70
     0
  9
$DIMBLK1
  1

  9
$DIMBLK2
  1

  9
$DIMSTYLE
  2
STANDARD
  9
$DIMCLRD
 70
     0
  9
$DIMCLRE
 70
     0
  9
$DIMCLRT
 70
     0
  9
$DIMTFAC
 40
1.0
  9
$DIMGAP
 40
0.09
  9
$LUNITS
 70
     2
  9
$LUPREC
 70
     4
  9
$SKETCHINC
 40
0.1
  9
$FILLETRAD
 40
0.5
  9
$AUNITS
 70
     0
  9
$AUPREC
 70
     0
  9
$MENU
  1
.
  9
$ELEVATION
 40
0.0
  9
$PELEVATION
 40
0.0
  9
$THICKNESS
 40
0.0
  9
$LIMCHECK
 70
     0
  9
$CHAMFERA
 40
0.5
  9
$CHAMFERB
 40
0.5
  9
$SKPOLY
 70
     0
  9
$TDCREATE
 40
2455352.651007118
  9
$TDUPDATE
 40
2455352.651007118
  9
$TDINDWG
 40
0.0000000116
  9
$TDUSRTIMER
 40
0.0000000116
  9
$USRTIMER
 70
     1
  9
$ANGBASE
 50
0.0
  9
$ANGDIR
 70
     0
  9
$PDMODE
 70
     0
  9
$PDSIZE
 40
0.0
  9
$PLINEWID
 40
0.0
  9
$COORDS
 70
     1
  9
$SPLFRAME
 70
     0
  9
$SPLINETYPE
 70
     6
  9
$SPLINESEGS
 70
     8
  9
$ATTDIA
 70
     0
  9
$ATTREQ
 70
     1
  9
$HANDLING
 70
     1
  9
$HANDSEED
  5
287
  9
$SURFTAB1
 70
     6
  9
$SURFTAB2
 70
     6
  9
$SURFTYPE
 70
     6
  9
$SURFU
 70
     6
  9
$SURFV
 70
     6
  9
$UCSNAME
  2

  9
$UCSORG
 10
0.0
 20
0.0
 30
0.0
  9
$UCSXDIR
 10
1.0
 20
0.0
 30
0.0
  9
$UCSYDIR
 10
0.0
 20
1.0
 30
0.0
  9
$PUCSNAME
  2

  9
$PUCSORG
 10
0.0
 20
0.0
 30
0.0
  9
$PUCSXDIR
 10
1.0
 20
0.0
 30
0.0
  9
$PUCSYDIR
 10
0.0
 20
1.0
 30
0.0
  9
$USERI1
 70
     0
  9
$USERI2
 70
     0
  9
$USERI3
 70
     0
  9
$USERI4
 70
     0
  9
$USERI5
 70
     0
  9
$USERR1
 40
0.0
  9
$USERR2
 40
0.0
  9
$USERR3
 40
0.0
  9
$USERR4
 40
0.0
  9
$USERR5
 40
0.0
  9
$WORLDVIEW
 70
     1
  9
$SHADEDGE
 70
     3
  9
$SHADEDIF
 70
    70
  9
$TILEMODE
 70
     1
  9
$MAXACTVP
 70
    64
  9
$PLIMCHECK
 70
     0
  9
$PEXTMIN
 10
1.000000000000000E+20
 20
1.000000000000000E+20
 30
1.000000000000000E+20
  9
$PEXTMAX
 10
-1.000000000000000E+20
 20
-1.000000000000000E+20
 30
-1.000000000000000E+20
  9
$PLIMMIN
 10
0.0
 20
0.0
  9
$PLIMMAX
 10
12.0
 20
9.0
  9
$UNITMODE
 70
     0
  9
$VISRETAIN
 70
     1
  9
$PLINEGEN
 70
     0
  9
$PSLTSCALE
 70
     1
  0
ENDSEC
  0
SECTION
  2
TABLES
  0
TABLE
  2
VPORT
 70
     1
  0
VPORT
  2
*ACTIVE
 70
     0
 10
0.0
 20
0.0
 11
1.0
 21
1.0
 12
0.0
 22
0.0
 13
0.0
 23
0.0
 14
0.5
 24
0.5
 15
0.5
 25
0.5
 16
280.3941650390625
 26
160.21142578125
 36
280.3941345214844
 17
97.31298828125
 27
-0.0189971923828125
 37
-1.9219970703125
 40
161.0079981237714
 41
1.972972972850329
 42
50.0
 43
0.0
 44
0.0
 50
0.0
 51
0.0
 71
     0
 72
   100
 73
     1
 74
     3
 75
     0
 76
     0
 77
     0
 78
     0
  0
ENDTAB
  0
TABLE
  2
LTYPE
 70
     1
  0
LTYPE
  2
CONTINUOUS
 70
     0
  3
Solid line
 72
    65
 73
     0
 40
0.0
  0
ENDTAB
  0
TABLE
  2
LAYER
 70
     2
  0
LAYER
  2
0
 70
     0
 62
     7
  6
CONTINUOUS
  0
LAYER
  2
LAYER_1
 70
     0
 62
     7
  6
CONTINUOUS
  0
ENDTAB
  0
TABLE
  2
STYLE
 70
     1
  0
STYLE
  2
STANDARD
 70
     0
 40
0.0
 41
1.0
 50
0.0
 71
     0
 42
0.2
  3
txt
  4

  0
ENDTAB
  0
TABLE
  2
VIEW
 70
     0
  0
ENDTAB
  0
TABLE
  2
UCS
 70
     0
  0
ENDTAB
  0
TABLE
  2
APPID
 70
     1
  0
APPID
  2
ACAD
 70
     0
  0
ENDTAB
  0
TABLE
  2
DIMSTYLE
 70
     1
  0
DIMSTYLE
  2
STANDARD
 70
     0
  3

  4

  5

  6

  7

 40
1.0
 41
0.18
 42
0.0625
 43
0.38
 44
0.18
 45
0.0
 46
0.0
 47
0.0
 48
0.0
140
0.18
141
0.09
142
0.0
143
25.4
144
1.0
145
0.0
146
1.0
147
0.09
 71
     0
 72
     0
 73
     1
 74
     1
 75
     0
 76
     0
 77
     0
 78
     0
170
     0
171
     2
172
     0
173
     0
174
     0
175
     0
176
     0
177
     0
178
     0
  0
ENDTAB
  0
ENDSEC
  0
SECTION
  2
BLOCKS
  0
BLOCK
  8
0
  2
$MODEL_SPACE
 70
     0
 10
0.0
 20
0.0
 30
0.0
  3
$MODEL_SPACE
  1

  0
ENDBLK
  5
21
  8
0
  0
BLOCK
 67
     1
  8
0
  2
$PAPER_SPACE
 70
     0
 10
0.0
 20
0.0
 30
0.0
  3
$PAPER_SPACE
  1

  0
ENDBLK
  5
1D
 67
     1
  8
0
  0
BLOCK
  8
0
  2
E3_NODE
 70
     0
 10
0.0
 20
0.0
 30
0.0
  3
E3_NODE
  1

  0
POLYLINE
  5
3C
  8
0
 62
     9
 66
     1
 10
0.0
 20
0.0
 30
0.0
 70
    64
 71
    22
 72
    22
  0
VERTEX
  5
3D
  8
0
 10
163.6199951171875
 20
9.927000045776367
 30
-19.86000061035156
 70
   192
  0
VERTEX
  5
3E
  8
0
 10
163.6199951171875
 20
9.927000045776367
 30
-6.860000133514404
 70
   192
  0
VERTEX
  5
3F
  8
0
 10
170.0
 20
11.80000019073486
 30
-6.860000133514404
 70
   192
  0
VERTEX
  5
40
  8
0
 10
159.2660064697266
 20
4.901999950408936
 30
-19.86000061035156
 70
   192
  0
VERTEX
  5
41
  8
0
 10
159.2660064697266
 20
4.901999950408936
 30
-6.860000133514404
 70
   192
  0
VERTEX
  5
42
  8
0
 10
158.3200073242188
 20
-1.679000020027161
 30
-19.86000061035156
 70
   192
  0
VERTEX
  5
43
  8
0
 10
158.3200073242188
 20
-1.679000020027161
 30
-6.860000133514404
 70
   192
  0
VERTEX
  5
44
  8
0
 10
161.0820007324219
 20
-7.72700023651123
 30
-19.86000061035156
 70
   192
  0
VERTEX
  5
45
  8
0
 10
161.0820007324219
 20
-7.72700023651123
 30
-6.860000133514404
 70
   192
  0
VERTEX
  5
46
  8
0
 10
166.6759948730469
 20
-11.32199954986572
 30
-19.86000061035156
 70
   192
  0
VERTEX
  5
47
  8
0
 10
166.6759948730469
 20
-11.32199954986572
 30
-6.860000133514404
 70
   192
  0
VERTEX
  5
48
  8
0
 10
173.3240051269531
 20
-11.32199954986572
 30
-19.86000061035156
 70
   192
  0
VERTEX
  5
49
  8
0
 10
173.3240051269531
 20
-11.32199954986572
 30
-6.860000133514404
 70
   192
  0
VERTEX
  5
4A
  8
0
 10
178.9179992675781
 20
-7.72700023651123
 30
-19.86000061035156
 70
   192
  0
VERTEX
  5
4B
  8
0
 10
178.9179992675781
 20
-7.72700023651123
 30
-6.860000133514404
 70
   192
  0
VERTEX
  5
4C
  8
0
 10
181.6799926757812
 20
-1.679000020027161
 30
-19.86000061035156
 70
   192
  0
VERTEX
  5
4D
  8
0
 10
181.6799926757812
 20
-1.679000020027161
 30
-6.860000133514404
 70
   192
  0
VERTEX
  5
4E
  8
0
 10
180.7339935302734
 20
4.901999950408936
 30
-19.86000061035156
 70
   192
  0
VERTEX
  5
4F
  8
0
 10
180.7339935302734
 20
4.901999950408936
 30
-6.860000133514404
 70
   192
  0
VERTEX
  5
50
  8
0
 10
176.3800048828125
 20
9.927000045776367
 30
-19.86000061035156
 70
   192
  0
VERTEX
  5
51
  8
0
 10
176.3800048828125
 20
9.927000045776367
 30
-6.860000133514404
 70
   192
  0
VERTEX
  5
52
  8
0
 10
170.0
 20
11.80000019073486
 30
-19.86000061035156
 70
   192
  0
VERTEX
  5
53
  8
0
 62
     9
 10
0.0
 20
0.0
 30
0.0
 70
   128
 71
     3
 72
     2
 73
     1
  0
VERTEX
  5
54
  8
0
 62
     9
 10
0.0
 20
0.0
 30
0.0
 70
   128
 71
     2
 72
     5
 73
     4
  0
VERTEX
  5
55
  8
0
 62
     9
 10
0.0
 20
0.0
 30
0.0
 70
   128
 71
     5
 72
     7
 73
     6
  0
VERTEX
  5
56
  8
0
 62
     9
 10
0.0
 20
0.0
 30
0.0
 70
   128
 71
     7
 72
     9
 73
     8
  0
VERTEX
  5
57
  8
0
 62
     9
 10
0.0
 20
0.0
 30
0.0
 70
   128
 71
     9
 72
    11
 73
    10
  0
VERTEX
  5
58
  8
0
 62
     9
 10
0.0
 20
0.0
 30
0.0
 70
   128
 71
    11
 72
    13
 73
    12
  0
VERTEX
  5
59
  8
0
 62
     9
 10
0.0
 20
0.0
 30
0.0
 70
   128
 71
    13
 72
    15
 73
    14
  0
VERTEX
  5
5A
  8
0
 62
     9
 10
0.0
 20
0.0
 30
0.0
 70
   128
 71
    15
 72
    17
 73
    16
  0
VERTEX
  5
5B
  8
0
 62
     9
 10
0.0
 20
0.0
 30
0.0
 70
   128
 71
    17
 72
    19
 73
    18
  0
VERTEX
  5
5C
  8
0
 62
     9
 10
0.0
 20
0.0
 30
0.0
 70
   128
 71
    19
 72
    21
 73
    20
  0
VERTEX
  5
5D
  8
0
 62
     9
 10
0.0
 20
0.0
 30
0.0
 70
   128
 71
    21
 72
     3
 73
    22
  0
VERTEX
  5
5E
  8
0
 62
     9
 10
0.0
 20
0.0
 30
0.0
 70
   128
 71
    22
 72
    20
 73
    21
  0
VERTEX
  5
5F
  8
0
 62
     9
 10
0.0
 20
0.0
 30
0.0
 70
   128
 71
    20
 72
    18
 73
    19
  0
VERTEX
  5
60
  8
0
 62
     9
 10
0.0
 20
0.0
 30
0.0
 70
   128
 71
    18
 72
    16
 73
    17
  0
VERTEX
  5
61
  8
0
 62
     9
 10
0.0
 20
0.0
 30
0.0
 70
   128
 71
    16
 72
    14
 73
    15
  0
VERTEX
  5
62
  8
0
 62
     9
 10
0.0
 20
0.0
 30
0.0
 70
   128
 71
    14
 72
    12
 73
    13
  0
VERTEX
  5
63
  8
0
 62
     9
 10
0.0
 20
0.0
 30
0.0
 70
   128
 71
    12
 72
    10
 73
    11
  0
VERTEX
  5
64
  8
0
 62
     9
 10
0.0
 20
0.0
 30
0.0
 70
   128
 71
    10
 72
     8
 73
     9
  0
VERTEX
  5
65
  8
0
 62
     9
 10
0.0
 20
0.0
 30
0.0
 70
   128
 71
     8
 72
     6
 73
     7
  0
VERTEX
  5
66
  8
0
 62
     9
 10
0.0
 20
0.0
 30
0.0
 70
   128
 71
     6
 72
     4
 73
     5
  0
VERTEX
  5
67
  8
0
 62
     9
 10
0.0
 20
0.0
 30
0.0
 70
   128
 71
     4
 72
     1
 73
     2
  0
VERTEX
  5
68
  8
0
 62
     9
 10
0.0
 20
0.0
 30
0.0
 70
   128
 71
     1
 72
    22
 73
     3
  0
SEQEND
  5
69
  8
0
 62
     9
  0
ENDBLK
  5
6D
  8
0
  0
BLOCK
  8
0
  2
E3_NODE_1_
 70
     0
 10
0.0
 20
0.0
 30
0.0
  3
E3_NODE_1_
  1

  0
POLYLINE
  5
6F
  8
0
 62
     9
 66
     1
 10
0.0
 20
0.0
 30
0.0
 70
    64
 71
    11
 72
     9
  0
VERTEX
  5
70
  8
0
 10
158.3200073242188
 20
-1.679000020027161
 30
-19.86000061035156
 70
   192
  0
VERTEX
  5
71
  8
0
 10
163.6199951171875
 20
9.927000045776367
 30
-19.86000061035156
 70
   192
  0
VERTEX
  5
72
  8
0
 10
170.0
 20
11.80000019073486
 30
-19.86000061035156
 70
   192
  0
VERTEX
  5
73
  8
0
 10
159.2660064697266
 20
4.901999950408936
 30
-19.86000061035156
 70
   192
  0
VERTEX
  5
74
  8
0
 10
166.6759948730469
 20
-11.32199954986572
 30
-19.86000061035156
 70
   192
  0
VERTEX
  5
75
  8
0
 10
181.6799926757812
 20
-1.679000020027161
 30
-19.86000061035156
 70
   192
  0
VERTEX
  5
76
  8
0
 10
178.9179992675781
 20
-7.72700023651123
 30
-19.86000061035156
 70
   192
  0
VERTEX
  5
77
  8
0
 10
176.3800048828125
 20
9.927000045776367
 30
-19.86000061035156
 70
   192
  0
VERTEX
  5
78
  8
0
 10
173.3240051269531
 20
-11.32199954986572
 30
-19.86000061035156
 70
   192
  0
VERTEX
  5
79
  8
0
 10
180.7339935302734
 20
4.901999950408936
 30
-19.86000061035156
 70
   192
  0
VERTEX
  5
7A
  8
0
 10
161.0820007324219
 20
-7.72700023651123
 30
-19.86000061035156
 70
   192
  0
VERTEX
  5
7B
  8
0
 62
     9
 10
0.0
 20
0.0
 30
0.0
 70
   128
 71
     3
 72
     2
 73
     1
  0
VERTEX
  5
7C
  8
0
 62
     9
 10
0.0
 20
0.0
 30
0.0
 70
   128
 71
     2
 72
     4
 73
     1
  0
VERTEX
  5
7D
  8
0
 62
     9
 10
0.0
 20
0.0
 30
0.0
 70
   128
 71
     7
 72
     6
 73
     5
  0
VERTEX
  5
7E
  8
0
 62
     9
 10
0.0
 20
0.0
 30
0.0
 70
   128
 71
     1
 72
     8
 73
     3
  0
VERTEX
  5
7F
  8
0
 62
     9
 10
0.0
 20
0.0
 30
0.0
 70
   128
 71
     5
 72
     9
 73
     7
  0
VERTEX
  5
80
  8
0
 62
     9
 10
0.0
 20
0.0
 30
0.0
 70
   128
 71
     1
 72
    11
 73
    10
  0
VERTEX
  5
81
  8
0
 62
     9
 10
0.0
 20
0.0
 30
0.0
 70
   128
 71
     6
 72
    10
 73
    11
  0
VERTEX
  5
82
  8
0
 62
     9
 10
0.0
 20
0.0
 30
0.0
 70
   128
 71
     6
 72
    11
 73
     5
  0
VERTEX
  5
83
  8
0
 62
     9
 10
0.0
 20
0.0
 30
0.0
 70
   128
 71
     1
 72
    10
 73
     8
  0
SEQEND
  5
84
  8
0
 62
     9
  0
ENDBLK
  5
87
  8
0
  0
BLOCK
  8
0
  2
E3_NODE_2_
 70
     0
 10
0.0
 20
0.0
 30
0.0
  3
E3_NODE_2_
  1

  0
POLYLINE
  5
89
  8
0
 62
     9
 66
     1
 10
0.0
 20
0.0
 30
0.0
 70
    64
 71
    20
 72
    18
  0
VERTEX
  5
8A
  8
0
 10
8.0
 20
7.407000064849854
 30
37.38800048828125
 70
   192
  0
VERTEX
  5
8B
  8
0
 10
8.0
 20
38.41999816894531
 30
-13.01200008392334
 70
   192
  0
VERTEX
  5
8C
  8
0
 10
8.0
 20
39.94100189208984
 30
0.0160000007599592
 70
   192
  0
VERTEX
  5
8D
  8
0
 10
8.0
 20
0.0
 30
-41.92499923706055
 70
   192
  0
VERTEX
  5
8E
  8
0
 10
8.0
 20
-23.62400054931641
 30
30.3439998626709
 70
   192
  0
VERTEX
  5
8F
  8
0
 10
8.0
 20
-32.69800186157227
 30
21.0930004119873
 70
   192
  0
VERTEX
  5
90
  8
0
 10
8.0
 20
37.07199859619141
 30
13.0629997253418
 70
   192
  0
VERTEX
  5
91
  8
0
 10
8.0
 20
30.47299957275391
 30
23.9680004119873
 70
   192
  0
VERTEX
  5
92
  8
0
 10
8.0
 20
32.6870002746582
 30
-24.95999908447266
 70
   192
  0
VERTEX
  5
93
  8
0
 10
8.0
 20
-12.40499973297119
 30
-39.95000076293945
 70
   192
  0
VERTEX
  5
94
  8
0
 10
8.0
 20
-38.44400024414062
 30
-12.92899990081787
 70
   192
  0
VERTEX
  5
95
  8
0
 10
8.0
 20
-32.96799850463867
 30
-24.55699920654297
 70
   192
  0
VERTEX
  5
96
  8
0
 10
8.0
 20
-38.23300170898438
 30
9.791000366210938
 70
   192
  0
VERTEX
  5
97
  8
0
 10
8.0
 20
-23.91799926757812
 30
-33.97600173950195
 70
   192
  0
VERTEX
  5
98
  8
0
 10
8.0
 20
-12.67300033569336
 30
36.01599884033203
 70
   192
  0
VERTEX
  5
99
  8
0
 10
8.0
 20
24.51199913024902
 30
-33.52500152587891
 70
   192
  0
VERTEX
  5
9A
  8
0
 10
8.0
 20
12.92599964141846
 30
-39.7760009765625
 70
   192
  0
VERTEX
  5
9B
  8
0
 10
8.0
 20
-39.97900009155273
 30
-2.766999959945679
 70
   192
  0
VERTEX
  5
9C
  8
0
 10
8.0
 20
0.0
 30
38.08100128173828
 70
   192
  0
VERTEX
  5
9D
  8
0
 10
8.0
 20
20.13299942016602
 30
32.63399887084961
 70
   192
  0
VERTEX
  5
9E
  8
0
 62
     9
 10
0.0
 20
0.0
 30
0.0
 70
   128
 71
     3
 72
     2
 73
     1
  0
VERTEX
  5
9F
  8
0
 62
     9
 10
0.0
 20
0.0
 30
0.0
 70
   128
 71
     6
 72
     5
 73
     4
  0
VERTEX
  5
A0
  8
0
 62
     9
 10
0.0
 20
0.0
 30
0.0
 70
   128
 71
     8
 72
     7
 73
     1
  0
VERTEX
  5
A1
  8
0
 62
     9
 10
0.0
 20
0.0
 30
0.0
 70
   128
 71
     2
 72
     9
 73
     1
  0
VERTEX
  5
A2
  8
0
 62
     9
 10
0.0
 20
0.0
 30
0.0
 70
   128
 71
    12
 72
    11
 73
    10
  0
VERTEX
  5
A3
  8
0
 62
     9
 10
0.0
 20
0.0
 30
0.0
 70
   128
 71
     4
 72
    13
 73
     6
  0
VERTEX
  5
A4
  8
0
 62
     9
 10
0.0
 20
0.0
 30
0.0
 70
   128
 71
     1
 72
     7
 73
     3
  0
VERTEX
  5
A5
  8
0
 62
     9
 10
0.0
 20
0.0
 30
0.0
 70
   128
 71
    10
 72
    14
 73
    12
  0
VERTEX
  5
A6
  8
0
 62
     9
 10
0.0
 20
0.0
 30
0.0
 70
   128
 71
     5
 72
    15
 73
     4
  0
VERTEX
  5
A7
  8
0
 62
     9
 10
0.0
 20
0.0
 30
0.0
 70
   128
 71
     9
 72
    16
 73
     1
  0
VERTEX
  5
A8
  8
0
 62
     9
 10
0.0
 20
0.0
 30
0.0
 70
   128
 71
    17
 72
     4
 73
     1
  0
VERTEX
  5
A9
  8
0
 62
     9
 10
0.0
 20
0.0
 30
0.0
 70
   128
 71
    11
 72
    18
 73
     4
  0
VERTEX
  5
AA
  8
0
 62
     9
 10
0.0
 20
0.0
 30
0.0
 70
   128
 71
    15
 72
    19
 73
     4
  0
VERTEX
  5
AB
  8
0
 62
     9
 10
0.0
 20
0.0
 30
0.0
 70
   128
 71
     1
 72
    16
 73
    17
  0
VERTEX
  5
AC
  8
0
 62
     9
 10
0.0
 20
0.0
 30
0.0
 70
   128
 71
     4
 72
    18
 73
    13
  0
VERTEX
  5
AD
  8
0
 62
     9
 10
0.0
 20
0.0
 30
0.0
 70
   128
 71
     1
 72
    20
 73
     8
  0
VERTEX
  5
AE
  8
0
 62
     9
 10
0.0
 20
0.0
 30
0.0
 70
   128
 71
     4
 72
    19
 73
     1
  0
VERTEX
  5
AF
  8
0
 62
     9
 10
0.0
 20
0.0
 30
0.0
 70
   128
 71
    11
 72
     4
 73
    10
  0
SEQEND
  5
B0
  8
0
 62
     9
  0
ENDBLK
  5
B3
  8
0
  0
BLOCK
  8
0
  2
E3_NODE_3_
 70
     0
 10
0.0
 20
0.0
 30
0.0
  3
E3_NODE_3_
  1

  0
POLYLINE
  5
B5
  8
0
 62
     9
 66
     1
 10
0.0
 20
0.0
 30
0.0
 70
    64
 71
    40
 72
    40
  0
VERTEX
  5
B6
  8
0
 10
8.0
 20
-12.67300033569336
 30
36.01599884033203
 70
   192
  0
VERTEX
  5
B7
  8
0
 10
8.0
 20
0.0
 30
38.08100128173828
 70
   192
  0
VERTEX
  5
B8
  8
0
 10
0.0
 20
0.0
 30
38.08100128173828
 70
   192
  0
VERTEX
  5
B9
  8
0
 10
8.0
 20
-23.62400054931641
 30
30.3439998626709
 70
   192
  0
VERTEX
  5
BA
  8
0
 10
0.0
 20
-12.67300033569336
 30
36.01599884033203
 70
   192
  0
VERTEX
  5
BB
  8
0
 10
8.0
 20
-32.69800186157227
 30
21.0930004119873
 70
   192
  0
VERTEX
  5
BC
  8
0
 10
0.0
 20
-23.62400054931641
 30
30.3439998626709
 70
   192
  0
VERTEX
  5
BD
  8
0
 10
8.0
 20
-38.23300170898438
 30
9.791000366210938
 70
   192
  0
VERTEX
  5
BE
  8
0
 10
0.0
 20
-32.69800186157227
 30
21.0930004119873
 70
   192
  0
VERTEX
  5
BF
  8
0
 10
0.0
 20
-38.23300170898438
 30
9.791000366210938
 70
   192
  0
VERTEX
  5
C0
  8
0
 10
0.0
 20
-39.97900009155273
 30
-2.766999959945679
 70
   192
  0
VERTEX
  5
C1
  8
0
 10
8.0
 20
-39.97900009155273
 30
-2.766999959945679
 70
   192
  0
VERTEX
  5
C2
  8
0
 10
8.0
 20
-38.44400024414062
 30
-12.92899990081787
 70
   192
  0
VERTEX
  5
C3
  8
0
 10
8.0
 20
-32.96799850463867
 30
-24.55699920654297
 70
   192
  0
VERTEX
  5
C4
  8
0
 10
0.0
 20
-38.44400024414062
 30
-12.92899990081787
 70
   192
  0
VERTEX
  5
C5
  8
0
 10
0.0
 20
-23.91799926757812
 30
-33.97600173950195
 70
   192
  0
VERTEX
  5
C6
  8
0
 10
8.0
 20
-23.91799926757812
 30
-33.97600173950195
 70
   192
  0
VERTEX
  5
C7
  8
0
 10
0.0
 20
-12.40499973297119
 30
-39.95000076293945
 70
   192
  0
VERTEX
  5
C8
  8
0
 10
8.0
 20
-12.40499973297119
 30
-39.95000076293945
 70
   192
  0
VERTEX
  5
C9
  8
0
 10
0.0
 20
0.0
 30
-41.92499923706055
 70
   192
  0
VERTEX
  5
CA
  8
0
 10
8.0
 20
0.0
 30
-41.92499923706055
 70
   192
  0
VERTEX
  5
CB
  8
0
 10
0.0
 20
12.92599964141846
 30
-39.7760009765625
 70
   192
  0
VERTEX
  5
CC
  8
0
 10
8.0
 20
12.92599964141846
 30
-39.7760009765625
 70
   192
  0
VERTEX
  5
CD
  8
0
 10
0.0
 20
24.51199913024902
 30
-33.52500152587891
 70
   192
  0
VERTEX
  5
CE
  8
0
 10
8.0
 20
24.51199913024902
 30
-33.52500152587891
 70
   192
  0
VERTEX
  5
CF
  8
0
 10
0.0
 20
32.6870002746582
 30
-24.95999908447266
 70
   192
  0
VERTEX
  5
D0
  8
0
 10
8.0
 20
32.6870002746582
 30
-24.95999908447266
 70
   192
  0
VERTEX
  5
D1
  8
0
 10
0.0
 20
38.41999816894531
 30
-13.01200008392334
 70
   192
  0
VERTEX
  5
D2
  8
0
 10
8.0
 20
38.41999816894531
 30
-13.01200008392334
 70
   192
  0
VERTEX
  5
D3
  8
0
 10
0.0
 20
39.94100189208984
 30
0.0160000007599592
 70
   192
  0
VERTEX
  5
D4
  8
0
 10
0.0
 20
37.07199859619141
 30
13.0629997253418
 70
   192
  0
VERTEX
  5
D5
  8
0
 10
8.0
 20
37.07199859619141
 30
13.0629997253418
 70
   192
  0
VERTEX
  5
D6
  8
0
 10
8.0
 20
39.94100189208984
 30
0.0160000007599592
 70
   192
  0
VERTEX
  5
D7
  8
0
 10
0.0
 20
30.47299957275391
 30
23.9680004119873
 70
   192
  0
VERTEX
  5
D8
  8
0
 10
8.0
 20
30.47299957275391
 30
23.9680004119873
 70
   192
  0
VERTEX
  5
D9
  8
0
 10
0.0
 20
20.13299942016602
 30
32.63399887084961
 70
   192
  0
VERTEX
  5
DA
  8
0
 10
8.0
 20
20.13299942016602
 30
32.63399887084961
 70
   192
  0
VERTEX
  5
DB
  8
0
 10
0.0
 20
7.407000064849854
 30
37.38800048828125
 70
   192
  0
VERTEX
  5
DC
  8
0
 10
8.0
 20
7.407000064849854
 30
37.38800048828125
 70
   192
  0
VERTEX
  5
DD
  8
0
 10
0.0
 20
-32.96799850463867
 30
-24.55699920654297
 70
   192
  0
VERTEX
  5
DE
  8
0
 62
     9
 10
0.0
 20
0.0
 30
0.0
 70
   128
 71
     3
 72
     2
 73
     1
  0
VERTEX
  5
DF
  8
0
 62
     9
 10
0.0
 20
0.0
 30
0.0
 70
   128
 71
     5
 72
     1
 73
     4
  0
VERTEX
  5
E0
  8
0
 62
     9
 10
0.0
 20
0.0
 30
0.0
 70
   128
 71
     7
 72
     4
 73
     6
  0
VERTEX
  5
E1
  8
0
 62
     9
 10
0.0
 20
0.0
 30
0.0
 70
   128
 71
     9
 72
     6
 73
     8
  0
VERTEX
  5
E2
  8
0
 62
     9
 10
0.0
 20
0.0
 30
0.0
 70
   128
 71
    12
 72
    11
 73
    10
  0
VERTEX
  5
E3
  8
0
 62
     9
 10
0.0
 20
0.0
 30
0.0
 70
   128
 71
    11
 72
    12
 73
    13
  0
VERTEX
  5
E4
  8
0
 62
     9
 10
0.0
 20
0.0
 30
0.0
 70
   128
 71
    15
 72
    13
 73
    14
  0
VERTEX
  5
E5
  8
0
 62
     9
 10
0.0
 20
0.0
 30
0.0
 70
   128
 71
    14
 72
    17
 73
    16
  0
VERTEX
  5
E6
  8
0
 62
     9
 10
0.0
 20
0.0
 30
0.0
 70
   128
 71
    17
 72
    19
 73
    18
  0
VERTEX
  5
E7
  8
0
 62
     9
 10
0.0
 20
0.0
 30
0.0
 70
   128
 71
    21
 72
    20
 73
    18
  0
VERTEX
  5
E8
  8
0
 62
     9
 10
0.0
 20
0.0
 30
0.0
 70
   128
 71
    21
 72
    23
 73
    22
  0
VERTEX
  5
E9
  8
0
 62
     9
 10
0.0
 20
0.0
 30
0.0
 70
   128
 71
    23
 72
    25
 73
    24
  0
VERTEX
  5
EA
  8
0
 62
     9
 10
0.0
 20
0.0
 30
0.0
 70
   128
 71
    25
 72
    27
 73
    26
  0
VERTEX
  5
EB
  8
0
 62
     9
 10
0.0
 20
0.0
 30
0.0
 70
   128
 71
    27
 72
    29
 73
    28
  0
VERTEX
  5
EC
  8
0
 62
     9
 10
0.0
 20
0.0
 30
0.0
 70
   128
 71
    30
 72
    28
 73
    29
  0
VERTEX
  5
ED
  8
0
 62
     9
 10
0.0
 20
0.0
 30
0.0
 70
   128
 71
    33
 72
    32
 73
    31
  0
VERTEX
  5
EE
  8
0
 62
     9
 10
0.0
 20
0.0
 30
0.0
 70
   128
 71
    32
 72
    35
 73
    34
  0
VERTEX
  5
EF
  8
0
 62
     9
 10
0.0
 20
0.0
 30
0.0
 70
   128
 71
    35
 72
    37
 73
    36
  0
VERTEX
  5
F0
  8
0
 62
     9
 10
0.0
 20
0.0
 30
0.0
 70
   128
 71
    38
 72
    36
 73
    37
  0
VERTEX
  5
F1
  8
0
 62
     9
 10
0.0
 20
0.0
 30
0.0
 70
   128
 71
    39
 72
     2
 73
     3
  0
VERTEX
  5
F2
  8
0
 62
     9
 10
0.0
 20
0.0
 30
0.0
 70
   128
 71
     3
 72
    38
 73
    39
  0
VERTEX
  5
F3
  8
0
 62
     9
 10
0.0
 20
0.0
 30
0.0
 70
   128
 71
    37
 72
    39
 73
    38
  0
VERTEX
  5
F4
  8
0
 62
     9
 10
0.0
 20
0.0
 30
0.0
 70
   128
 71
    36
 72
    34
 73
    35
  0
VERTEX
  5
F5
  8
0
 62
     9
 10
0.0
 20
0.0
 30
0.0
 70
   128
 71
    34
 72
    31
 73
    32
  0
VERTEX
  5
F6
  8
0
 62
     9
 10
0.0
 20
0.0
 30
0.0
 70
   128
 71
    31
 72
    30
 73
    33
  0
VERTEX
  5
F7
  8
0
 62
     9
 10
0.0
 20
0.0
 30
0.0
 70
   128
 71
    29
 72
    33
 73
    30
  0
VERTEX
  5
F8
  8
0
 62
     9
 10
0.0
 20
0.0
 30
0.0
 70
   128
 71
    28
 72
    26
 73
    27
  0
VERTEX
  5
F9
  8
0
 62
     9
 10
0.0
 20
0.0
 30
0.0
 70
   128
 71
    26
 72
    24
 73
    25
  0
VERTEX
  5
FA
  8
0
 62
     9
 10
0.0
 20
0.0
 30
0.0
 70
   128
 71
    24
 72
    22
 73
    23
  0
VERTEX
  5
FB
  8
0
 62
     9
 10
0.0
 20
0.0
 30
0.0
 70
   128
 71
    22
 72
    20
 73
    21
  0
VERTEX
  5
FC
  8
0
 62
     9
 10
0.0
 20
0.0
 30
0.0
 70
   128
 71
    18
 72
    19
 73
    21
  0
VERTEX
  5
FD
  8
0
 62
     9
 10
0.0
 20
0.0
 30
0.0
 70
   128
 71
    18
 72
    16
 73
    17
  0
VERTEX
  5
FE
  8
0
 62
     9
 10
0.0
 20
0.0
 30
0.0
 70
   128
 71
    16
 72
    40
 73
    14
  0
VERTEX
  5
FF
  8
0
 62
     9
 10
0.0
 20
0.0
 30
0.0
 70
   128
 71
    14
 72
    40
 73
    15
  0
VERTEX
  5
100
  8
0
 62
     9
 10
0.0
 20
0.0
 30
0.0
 70
   128
 71
    13
 72
    15
 73
    11
  0
VERTEX
  5
101
  8
0
 62
     9
 10
0.0
 20
0.0
 30
0.0
 70
   128
 71
    10
 72
     8
 73
    12
  0
VERTEX
  5
102
  8
0
 62
     9
 10
0.0
 20
0.0
 30
0.0
 70
   128
 71
     8
 72
    10
 73
     9
  0
VERTEX
  5
103
  8
0
 62
     9
 10
0.0
 20
0.0
 30
0.0
 70
   128
 71
     6
 72
     9
 73
     7
  0
VERTEX
  5
104
  8
0
 62
     9
 10
0.0
 20
0.0
 30
0.0
 70
   128
 71
     4
 72
     7
 73
     5
  0
VERTEX
  5
105
  8
0
 62
     9
 10
0.0
 20
0.0
 30
0.0
 70
   128
 71
     1
 72
     5
 73
     3
  0
SEQEND
  5
106
  8
0
 62
     9
  0
ENDBLK
  5
109
  8
0
  0
BLOCK
  8
0
  2
E3_NODE_4_
 70
     0
 10
0.0
 20
0.0
 30
0.0
  3
E3_NODE_4_
  1

  0
POLYLINE
  5
10B
  8
0
 62
     9
 66
     1
 10
0.0
 20
0.0
 30
0.0
 70
    64
 71
    20
 72
    18
  0
VERTEX
  5
10C
  8
0
 10
0.0
 20
7.407000064849854
 30
37.38800048828125
 70
   192
  0
VERTEX
  5
10D
  8
0
 10
0.0
 20
37.07199859619141
 30
13.0629997253418
 70
   192
  0
VERTEX
  5
10E
  8
0
 10
0.0
 20
39.94100189208984
 30
0.0160000007599592
 70
   192
  0
VERTEX
  5
10F
  8
0
 10
0.0
 20
38.41999816894531
 30
-13.01200008392334
 70
   192
  0
VERTEX
  5
110
  8
0
 10
0.0
 20
20.13299942016602
 30
32.63399887084961
 70
   192
  0
VERTEX
  5
111
  8
0
 10
0.0
 20
30.47299957275391
 30
23.9680004119873
 70
   192
  0
VERTEX
  5
112
  8
0
 10
0.0
 20
0.0
 30
-41.92499923706055
 70
   192
  0
VERTEX
  5
113
  8
0
 10
0.0
 20
-38.23300170898438
 30
9.791000366210938
 70
   192
  0
VERTEX
  5
114
  8
0
 10
0.0
 20
-32.69800186157227
 30
21.0930004119873
 70
   192
  0
VERTEX
  5
115
  8
0
 10
0.0
 20
-39.97900009155273
 30
-2.766999959945679
 70
   192
  0
VERTEX
  5
116
  8
0
 10
0.0
 20
-12.40499973297119
 30
-39.95000076293945
 70
   192
  0
VERTEX
  5
117
  8
0
 10
0.0
 20
-23.91799926757812
 30
-33.97600173950195
 70
   192
  0
VERTEX
  5
118
  8
0
 10
0.0
 20
-32.96799850463867
 30
-24.55699920654297
 70
   192
  0
VERTEX
  5
119
  8
0
 10
0.0
 20
24.51199913024902
 30
-33.52500152587891
 70
   192
  0
VERTEX
  5
11A
  8
0
 10
0.0
 20
12.92599964141846
 30
-39.7760009765625
 70
   192
  0
VERTEX
  5
11B
  8
0
 10
0.0
 20
32.6870002746582
 30
-24.95999908447266
 70
   192
  0
VERTEX
  5
11C
  8
0
 10
0.0
 20
-23.62400054931641
 30
30.3439998626709
 70
   192
  0
VERTEX
  5
11D
  8
0
 10
0.0
 20
-38.44400024414062
 30
-12.92899990081787
 70
   192
  0
VERTEX
  5
11E
  8
0
 10
0.0
 20
-12.67300033569336
 30
36.01599884033203
 70
   192
  0
VERTEX
  5
11F
  8
0
 10
0.0
 20
0.0
 30
38.08100128173828
 70
   192
  0
VERTEX
  5
120
  8
0
 62
     9
 10
0.0
 20
0.0
 30
0.0
 70
   128
 71
     3
 72
     2
 73
     1
  0
VERTEX
  5
121
  8
0
 62
     9
 10
0.0
 20
0.0
 30
0.0
 70
   128
 71
     1
 72
     4
 73
     3
  0
VERTEX
  5
122
  8
0
 62
     9
 10
0.0
 20
0.0
 30
0.0
 70
   128
 71
     6
 72
     5
 73
     1
  0
VERTEX
  5
123
  8
0
 62
     9
 10
0.0
 20
0.0
 30
0.0
 70
   128
 71
     9
 72
     8
 73
     7
  0
VERTEX
  5
124
  8
0
 62
     9
 10
0.0
 20
0.0
 30
0.0
 70
   128
 71
     1
 72
     2
 73
     6
  0
VERTEX
  5
125
  8
0
 62
     9
 10
0.0
 20
0.0
 30
0.0
 70
   128
 71
     8
 72
    10
 73
     7
  0
VERTEX
  5
126
  8
0
 62
     9
 10
0.0
 20
0.0
 30
0.0
 70
   128
 71
    13
 72
    12
 73
    11
  0
VERTEX
  5
127
  8
0
 62
     9
 10
0.0
 20
0.0
 30
0.0
 70
   128
 71
    15
 72
    14
 73
     1
  0
VERTEX
  5
128
  8
0
 62
     9
 10
0.0
 20
0.0
 30
0.0
 70
   128
 71
     1
 72
    16
 73
     4
  0
VERTEX
  5
129
  8
0
 62
     9
 10
0.0
 20
0.0
 30
0.0
 70
   128
 71
     7
 72
    17
 73
     9
  0
VERTEX
  5
12A
  8
0
 62
     9
 10
0.0
 20
0.0
 30
0.0
 70
   128
 71
    11
 72
     7
 73
    18
  0
VERTEX
  5
12B
  8
0
 62
     9
 10
0.0
 20
0.0
 30
0.0
 70
   128
 71
     1
 72
    14
 73
    16
  0
VERTEX
  5
12C
  8
0
 62
     9
 10
0.0
 20
0.0
 30
0.0
 70
   128
 71
     7
 72
    19
 73
    17
  0
VERTEX
  5
12D
  8
0
 62
     9
 10
0.0
 20
0.0
 30
0.0
 70
   128
 71
    11
 72
    18
 73
    13
  0
VERTEX
  5
12E
  8
0
 62
     9
 10
0.0
 20
0.0
 30
0.0
 70
   128
 71
     1
 72
    20
 73
     7
  0
VERTEX
  5
12F
  8
0
 62
     9
 10
0.0
 20
0.0
 30
0.0
 70
   128
 71
     7
 72
    10
 73
    18
  0
VERTEX
  5
130
  8
0
 62
     9
 10
0.0
 20
0.0
 30
0.0
 70
   128
 71
     7
 72
    20
 73
    19
  0
VERTEX
  5
131
  8
0
 62
     9
 10
0.0
 20
0.0
 30
0.0
 70
   128
 71
     1
 72
     7
 73
    15
  0
SEQEND
  5
132
  8
0
 62
     9
  0
ENDBLK
  5
135
  8
0
  0
BLOCK
  8
0
  2
E3_NODE_5_
 70
     0
 10
0.0
 20
0.0
 30
0.0
  3
E3_NODE_5_
  1

  0
POLYLINE
  5
137
  8
0
 62
     9
 66
     1
 10
0.0
 20
0.0
 30
0.0
 70
    64
 71
     4
 72
     2
  0
VERTEX
  5
138
  8
0
 10
173.7649993896484
 20
-20.86100006103516
 30
-0.0020000000949949
 70
   192
  0
VERTEX
  5
139
  8
0
 10
173.7649993896484
 20
-20.86100006103516
 30
12.82199954986572
 70
   192
  0
VERTEX
  5
13A
  8
0
 10
4.739999771118164
 20
-20.86100006103516
 30
12.82199954986572
 70
   192
  0
VERTEX
  5
13B
  8
0
 10
4.739999771118164
 20
-20.86100006103516
 30
-0.0020000000949949
 70
   192
  0
VERTEX
  5
13C
  8
0
 62
     9
 10
0.0
 20
0.0
 30
0.0
 70
   128
 71
     3
 72
     2
 73
     1
  0
VERTEX
  5
13D
  8
0
 62
     9
 10
0.0
 20
0.0
 30
0.0
 70
   128
 71
     1
 72
     4
 73
     3
  0
SEQEND
  5
13E
  8
0
 62
     9
  0
ENDBLK
  5
141
  8
0
  0
BLOCK
  8
0
  2
E3_NODE_6_
 70
     0
 10
0.0
 20
0.0
 30
0.0
  3
E3_NODE_6_
  1

  0
POLYLINE
  5
143
  8
0
 62
     9
 66
     1
 10
0.0
 20
0.0
 30
0.0
 70
    64
 71
    11
 72
     9
  0
VERTEX
  5
144
  8
0
 10
177.97900390625
 20
-20.43099975585938
 30
12.82199954986572
 70
   192
  0
VERTEX
  5
145
  8
0
 10
194.6260070800781
 20
0.0
 30
12.82199954986572
 70
   192
  0
VERTEX
  5
146
  8
0
 10
192.5010070800781
 20
9.173999786376953
 30
12.82199954986572
 70
   192
  0
VERTEX
  5
147
  8
0
 10
186.5700073242188
 20
16.46699905395508
 30
12.82199954986572
 70
   192
  0
VERTEX
  5
148
  8
0
 10
186.5789947509766
 20
-16.45999908447266
 30
12.82199954986572
 70
   192
  0
VERTEX
  5
149
  8
0
 10
192.5140075683594
 20
-9.14900016784668
 30
12.82199954986572
 70
   192
  0
VERTEX
  5
14A
  8
0
 10
178.0090026855469
 20
20.42499923706055
 30
12.82199954986572
 70
   192
  0
VERTEX
  5
14B
  8
0
 10
173.7649993896484
 20
-20.86100006103516
 30
12.82199954986572
 70
   192
  0
VERTEX
  5
14C
  8
0
 10
4.739999771118164
 20
-20.86100006103516
 30
12.82199954986572
 70
   192
  0
VERTEX
  5
14D
  8
0
 10
173.7649993896484
 20
20.86100006103516
 30
12.82199954986572
 70
   192
  0
VERTEX
  5
14E
  8
0
 10
4.739999771118164
 20
20.86100006103516
 30
12.82199954986572
 70
   192
  0
VERTEX
  5
14F
  8
0
 62
     9
 10
0.0
 20
0.0
 30
0.0
 70
   128
 71
     3
 72
     2
 73
     1
  0
VERTEX
  5
150
  8
0
 62
     9
 10
0.0
 20
0.0
 30
0.0
 70
   128
 71
     1
 72
     4
 73
     3
  0
VERTEX
  5
151
  8
0
 62
     9
 10
0.0
 20
0.0
 30
0.0
 70
   128
 71
     6
 72
     5
 73
     1
  0
VERTEX
  5
152
  8
0
 62
     9
 10
0.0
 20
0.0
 30
0.0
 70
   128
 71
     1
 72
     2
 73
     6
  0
VERTEX
  5
153
  8
0
 62
     9
 10
0.0
 20
0.0
 30
0.0
 70
   128
 71
     1
 72
     8
 73
     7
  0
VERTEX
  5
154
  8
0
 62
     9
 10
0.0
 20
0.0
 30
0.0
 70
   128
 71
     1
 72
     7
 73
     4
  0
VERTEX
  5
155
  8
0
 62
     9
 10
0.0
 20
0.0
 30
0.0
 70
   128
 71
    10
 72
     8
 73
     9
  0
VERTEX
  5
156
  8
0
 62
     9
 10
0.0
 20
0.0
 30
0.0
 70
   128
 71
     9
 72
    11
 73
    10
  0
VERTEX
  5
157
  8
0
 62
     9
 10
0.0
 20
0.0
 30
0.0
 70
   128
 71
     8
 72
    10
 73
     7
  0
SEQEND
  5
158
  8
0
 62
     9
  0
ENDBLK
  5
15B
  8
0
  0
BLOCK
  8
0
  2
E3_NODE_7_
 70
     0
 10
0.0
 20
0.0
 30
0.0
  3
E3_NODE_7_
  1

  0
POLYLINE
  5
15D
  8
0
 62
     9
 66
     1
 10
0.0
 20
0.0
 30
0.0
 70
    64
 71
     4
 72
     2
  0
VERTEX
  5
15E
  8
0
 10
173.7649993896484
 20
20.86100006103516
 30
12.82199954986572
 70
   192
  0
VERTEX
  5
15F
  8
0
 10
173.7649993896484
 20
20.86100006103516
 30
-0.0020000000949949
 70
   192
  0
VERTEX
  5
160
  8
0
 10
4.739999771118164
 20
20.86100006103516
 30
-0.0020000000949949
 70
   192
  0
VERTEX
  5
161
  8
0
 10
4.739999771118164
 20
20.86100006103516
 30
12.82199954986572
 70
   192
  0
VERTEX
  5
162
  8
0
 62
     9
 10
0.0
 20
0.0
 30
0.0
 70
   128
 71
     3
 72
     2
 73
     1
  0
VERTEX
  5
163
  8
0
 62
     9
 10
0.0
 20
0.0
 30
0.0
 70
   128
 71
     1
 72
     4
 73
     3
  0
SEQEND
  5
164
  8
0
 62
     9
  0
ENDBLK
  5
167
  8
0
  0
BLOCK
  8
0
  2
E3_NODE_8_
 70
     0
 10
0.0
 20
0.0
 30
0.0
  3
E3_NODE_8_
  1

  0
POLYLINE
  5
169
  8
0
 62
     9
 66
     1
 10
0.0
 20
0.0
 30
0.0
 70
    64
 71
    13
 72
    11
  0
VERTEX
  5
16A
  8
0
 10
194.6260070800781
 20
0.0
 30
12.82199954986572
 70
   192
  0
VERTEX
  5
16B
  8
0
 10
192.5140075683594
 20
-9.14900016784668
 30
12.82199954986572
 70
   192
  0
VERTEX
  5
16C
  8
0
 10
192.7960052490234
 20
-7.927000045776367
 30
-0.0020000000949949
 70
   192
  0
VERTEX
  5
16D
  8
0
 10
192.5140075683594
 20
-9.14900016784668
 30
-0.0020000000949949
 70
   192
  0
VERTEX
  5
16E
  8
0
 10
186.5789947509766
 20
-16.45999908447266
 30
12.82199954986572
 70
   192
  0
VERTEX
  5
16F
  8
0
 10
188.1849975585938
 20
-14.48200035095215
 30
-0.0020000000949949
 70
   192
  0
VERTEX
  5
170
  8
0
 10
186.5789947509766
 20
-16.45999908447266
 30
-0.0020000000949949
 70
   192
  0
VERTEX
  5
171
  8
0
 10
177.97900390625
 20
-20.43099975585938
 30
12.82199954986572
 70
   192
  0
VERTEX
  5
172
  8
0
 10
181.5269927978516
 20
-18.79299926757812
 30
-0.0020000000949949
 70
   192
  0
VERTEX
  5
173
  8
0
 10
177.97900390625
 20
-20.43099975585938
 30
-0.0020000000949949
 70
   192
  0
VERTEX
  5
174
  8
0
 10
173.7649993896484
 20
-20.86100006103516
 30
12.82199954986572
 70
   192
  0
VERTEX
  5
175
  8
0
 10
173.7649993896484
 20
-20.86100006103516
 30
-0.0020000000949949
 70
   192
  0
VERTEX
  5
176
  8
0
 10
194.6260070800781
 20
0.0
 30
-0.0020000000949949
 70
   192
  0
VERTEX
  5
177
  8
0
 62
     9
 10
0.0
 20
0.0
 30
0.0
 70
   128
 71
     3
 72
     2
 73
     1
  0
VERTEX
  5
178
  8
0
 62
     9
 10
0.0
 20
0.0
 30
0.0
 70
   128
 71
     3
 72
     4
 73
     2
  0
VERTEX
  5
179
  8
0
 62
     9
 10
0.0
 20
0.0
 30
0.0
 70
   128
 71
     6
 72
     5
 73
     2
  0
VERTEX
  5
17A
  8
0
 62
     9
 10
0.0
 20
0.0
 30
0.0
 70
   128
 71
     6
 72
     7
 73
     5
  0
VERTEX
  5
17B
  8
0
 62
     9
 10
0.0
 20
0.0
 30
0.0
 70
   128
 71
     9
 72
     8
 73
     5
  0
VERTEX
  5
17C
  8
0
 62
     9
 10
0.0
 20
0.0
 30
0.0
 70
   128
 71
     9
 72
    10
 73
     8
  0
VERTEX
  5
17D
  8
0
 62
     9
 10
0.0
 20
0.0
 30
0.0
 70
   128
 71
    10
 72
    12
 73
    11
  0
VERTEX
  5
17E
  8
0
 62
     9
 10
0.0
 20
0.0
 30
0.0
 70
   128
 71
    11
 72
     8
 73
    10
  0
VERTEX
  5
17F
  8
0
 62
     9
 10
0.0
 20
0.0
 30
0.0
 70
   128
 71
     5
 72
     7
 73
     9
  0
VERTEX
  5
180
  8
0
 62
     9
 10
0.0
 20
0.0
 30
0.0
 70
   128
 71
     2
 72
     4
 73
     6
  0
VERTEX
  5
181
  8
0
 62
     9
 10
0.0
 20
0.0
 30
0.0
 70
   128
 71
     1
 72
    13
 73
     3
  0
SEQEND
  5
182
  8
0
 62
     9
  0
ENDBLK
  5
185
  8
0
  0
BLOCK
  8
0
  2
E3_NODE_9_
 70
     0
 10
0.0
 20
0.0
 30
0.0
  3
E3_NODE_9_
  1

  0
POLYLINE
  5
187
  8
0
 62
     9
 66
     1
 10
0.0
 20
0.0
 30
0.0
 70
    64
 71
    21
 72
    19
  0
VERTEX
  5
188
  8
0
 10
4.739999771118164
 20
-20.86100006103516
 30
-0.0020000000949949
 70
   192
  0
VERTEX
  5
189
  8
0
 10
4.739999771118164
 20
-15.64900016784668
 30
-9.484000205993652
 70
   192
  0
VERTEX
  5
18A
  8
0
 10
173.7649993896484
 20
-16.93000030517578
 30
-7.153999805450439
 70
   192
  0
VERTEX
  5
18B
  8
0
 10
173.7649993896484
 20
-15.64900016784668
 30
-9.484000205993652
 70
   192
  0
VERTEX
  5
18C
  8
0
 10
4.739999771118164
 20
-7.994999885559082
 30
-15.02200031280518
 70
   192
  0
VERTEX
  5
18D
  8
0
 10
173.7649993896484
 20
-7.994999885559082
 30
-15.02200031280518
 70
   192
  0
VERTEX
  5
18E
  8
0
 10
173.7649993896484
 20
-12.21500015258789
 30
-11.9680004119873
 70
   192
  0
VERTEX
  5
18F
  8
0
 10
4.739999771118164
 20
-0.0540000014007092
 30
-16.65999984741211
 70
   192
  0
VERTEX
  5
190
  8
0
 10
173.7649993896484
 20
-0.0540000014007092
 30
-16.65999984741211
 70
   192
  0
VERTEX
  5
191
  8
0
 10
173.7649993896484
 20
-6.554999828338623
 30
-15.31900024414062
 70
   192
  0
VERTEX
  5
192
  8
0
 10
4.739999771118164
 20
9.057000160217285
 30
-14.53699970245361
 70
   192
  0
VERTEX
  5
193
  8
0
 10
173.7649993896484
 20
6.505000114440918
 30
-15.13500022888184
 70
   192
  0
VERTEX
  5
194
  8
0
 10
173.7649993896484
 20
0.0
 30
-16.65999984741211
 70
   192
  0
VERTEX
  5
195
  8
0
 10
173.7649993896484
 20
9.057000160217285
 30
-14.53699970245361
 70
   192
  0
VERTEX
  5
196
  8
0
 10
4.739999771118164
 20
16.40800094604492
 30
-8.569000244140625
 70
   192
  0
VERTEX
  5
197
  8
0
 10
173.7649993896484
 20
16.40800094604492
 30
-8.569000244140625
 70
   192
  0
VERTEX
  5
198
  8
0
 10
173.7649993896484
 20
12.19400024414062
 30
-11.98999977111816
 70
   192
  0
VERTEX
  5
199
  8
0
 10
4.739999771118164
 20
20.86100006103516
 30
-0.0020000000949949
 70
   192
  0
VERTEX
  5
19A
  8
0
 10
173.7649993896484
 20
20.86100006103516
 30
-0.0020000000949949
 70
   192
  0
VERTEX
  5
19B
  8
0
 10
173.7649993896484
 20
17.0939998626709
 30
-7.25
 70
   192
  0
VERTEX
  5
19C
  8
0
 10
173.7649993896484
 20
-20.86100006103516
 30
-0.0020000000949949
 70
   192
  0
VERTEX
  5
19D
  8
0
 62
     9
 10
0.0
 20
0.0
 30
0.0
 70
   128
 71
     3
 72
     2
 73
     1
  0
VERTEX
  5
19E
  8
0
 62
     9
 10
0.0
 20
0.0
 30
0.0
 70
   128
 71
     3
 72
     4
 73
     2
  0
VERTEX
  5
19F
  8
0
 62
     9
 10
0.0
 20
0.0
 30
0.0
 70
   128
 71
     7
 72
     6
 73
     5
  0
VERTEX
  5
1A0
  8
0
 62
     9
 10
0.0
 20
0.0
 30
0.0
 70
   128
 71
     5
 72
     2
 73
     7
  0
VERTEX
  5
1A1
  8
0
 62
     9
 10
0.0
 20
0.0
 30
0.0
 70
   128
 71
    10
 72
     9
 73
     8
  0
VERTEX
  5
1A2
  8
0
 62
     9
 10
0.0
 20
0.0
 30
0.0
 70
   128
 71
     8
 72
     5
 73
    10
  0
VERTEX
  5
1A3
  8
0
 62
     9
 10
0.0
 20
0.0
 30
0.0
 70
   128
 71
    12
 72
    11
 73
     8
  0
VERTEX
  5
1A4
  8
0
 62
     9
 10
0.0
 20
0.0
 30
0.0
 70
   128
 71
     8
 72
    13
 73
    12
  0
VERTEX
  5
1A5
  8
0
 62
     9
 10
0.0
 20
0.0
 30
0.0
 70
   128
 71
    12
 72
    14
 73
    11
  0
VERTEX
  5
1A6
  8
0
 62
     9
 10
0.0
 20
0.0
 30
0.0
 70
   128
 71
    17
 72
    16
 73
    15
  0
VERTEX
  5
1A7
  8
0
 62
     9
 10
0.0
 20
0.0
 30
0.0
 70
   128
 71
    15
 72
    11
 73
    17
  0
VERTEX
  5
1A8
  8
0
 62
     9
 10
0.0
 20
0.0
 30
0.0
 70
   128
 71
    20
 72
    19
 73
    18
  0
VERTEX
  5
1A9
  8
0
 62
     9
 10
0.0
 20
0.0
 30
0.0
 70
   128
 71
    18
 72
    15
 73
    20
  0
VERTEX
  5
1AA
  8
0
 62
     9
 10
0.0
 20
0.0
 30
0.0
 70
   128
 71
    15
 72
    16
 73
    20
  0
VERTEX
  5
1AB
  8
0
 62
     9
 10
0.0
 20
0.0
 30
0.0
 70
   128
 71
    11
 72
    14
 73
    17
  0
VERTEX
  5
1AC
  8
0
 62
     9
 10
0.0
 20
0.0
 30
0.0
 70
   128
 71
     8
 72
     9
 73
    13
  0
VERTEX
  5
1AD
  8
0
 62
     9
 10
0.0
 20
0.0
 30
0.0
 70
   128
 71
     5
 72
     6
 73
    10
  0
VERTEX
  5
1AE
  8
0
 62
     9
 10
0.0
 20
0.0
 30
0.0
 70
   128
 71
     2
 72
     4
 73
     7
  0
VERTEX
  5
1AF
  8
0
 62
     9
 10
0.0
 20
0.0
 30
0.0
 70
   128
 71
     1
 72
    21
 73
     3
  0
SEQEND
  5
1B0
  8
0
 62
     9
  0
ENDBLK
  5
1B3
  8
0
  0
BLOCK
  8
0
  2
E3_NODE_10_
 70
     0
 10
0.0
 20
0.0
 30
0.0
  3
E3_NODE_10_
  1

  0
POLYLINE
  5
1B5
  8
0
 62
     9
 66
     1
 10
0.0
 20
0.0
 30
0.0
 70
    64
 71
    20
 72
    18
  0
VERTEX
  5
1B6
  8
0
 10
173.7649993896484
 20
20.86100006103516
 30
12.82199954986572
 70
   192
  0
VERTEX
  5
1B7
  8
0
 10
178.0090026855469
 20
20.42499923706055
 30
12.82199954986572
 70
   192
  0
VERTEX
  5
1B8
  8
0
 10
178.0059967041016
 20
20.40399932861328
 30
-0.0020000000949949
 70
   192
  0
VERTEX
  5
1B9
  8
0
 10
182.4559936523438
 20
18.9640007019043
 30
-0.0020000000949949
 70
   192
  0
VERTEX
  5
1BA
  8
0
 10
181.7259979248047
 20
19.20800018310547
 30
-0.0020000000949949
 70
   192
  0
VERTEX
  5
1BB
  8
0
 10
186.5700073242188
 20
16.46699905395508
 30
12.82199954986572
 70
   192
  0
VERTEX
  5
1BC
  8
0
 10
186.3029937744141
 20
16.67300033569336
 30
-0.0020000000949949
 70
   192
  0
VERTEX
  5
1BD
  8
0
 10
186.5480041503906
 20
16.44300079345703
 30
-0.0020000000949949
 70
   192
  0
VERTEX
  5
1BE
  8
0
 10
178.2100067138672
 20
20.38199996948242
 30
-0.0020000000949949
 70
   192
  0
VERTEX
  5
1BF
  8
0
 10
189.5709991455078
 20
13.61400032043457
 30
-0.0020000000949949
 70
   192
  0
VERTEX
  5
1C0
  8
0
 10
188.4420013427734
 20
14.67099952697754
 30
-0.0020000000949949
 70
   192
  0
VERTEX
  5
1C1
  8
0
 10
192.5010070800781
 20
9.173999786376953
 30
12.82199954986572
 70
   192
  0
VERTEX
  5
1C2
  8
0
 10
192.1119995117188
 20
9.928000450134277
 30
-0.0020000000949949
 70
   192
  0
VERTEX
  5
1C3
  8
0
 10
192.4320068359375
 20
9.145999908447266
 30
-0.0020000000949949
 70
   192
  0
VERTEX
  5
1C4
  8
0
 10
193.8079986572266
 20
5.783999919891357
 30
-0.0020000000949949
 70
   192
  0
VERTEX
  5
1C5
  8
0
 10
192.927001953125
 20
7.938000202178955
 30
-0.0020000000949949
 70
   192
  0
VERTEX
  5
1C6
  8
0
 10
194.6260070800781
 20
0.0
 30
12.82199954986572
 70
   192
  0
VERTEX
  5
1C7
  8
0
 10
194.5809936523438
 20
1.373999953269958
 30
-0.0020000000949949
 70
   192
  0
VERTEX
  5
1C8
  8
0
 10
194.6260070800781
 20
0.0
 30
-0.0020000000949949
 70
   192
  0
VERTEX
  5
1C9
  8
0
 10
173.7649993896484
 20
20.86100006103516
 30
-0.0020000000949949
 70
   192
  0
VERTEX
  5
1CA
  8
0
 62
     9
 10
0.0
 20
0.0
 30
0.0
 70
   128
 71
     3
 72
     2
 73
     1
  0
VERTEX
  5
1CB
  8
0
 62
     9
 10
0.0
 20
0.0
 30
0.0
 70
   128
 71
     5
 72
     4
 73
     2
  0
VERTEX
  5
1CC
  8
0
 62
     9
 10
0.0
 20
0.0
 30
0.0
 70
   128
 71
     4
 72
     7
 73
     6
  0
VERTEX
  5
1CD
  8
0
 62
     9
 10
0.0
 20
0.0
 30
0.0
 70
   128
 71
     6
 72
     2
 73
     4
  0
VERTEX
  5
1CE
  8
0
 62
     9
 10
0.0
 20
0.0
 30
0.0
 70
   128
 71
     7
 72
     8
 73
     6
  0
VERTEX
  5
1CF
  8
0
 62
     9
 10
0.0
 20
0.0
 30
0.0
 70
   128
 71
     2
 72
     9
 73
     5
  0
VERTEX
  5
1D0
  8
0
 62
     9
 10
0.0
 20
0.0
 30
0.0
 70
   128
 71
    11
 72
    10
 73
     6
  0
VERTEX
  5
1D1
  8
0
 62
     9
 10
0.0
 20
0.0
 30
0.0
 70
   128
 71
    10
 72
    13
 73
    12
  0
VERTEX
  5
1D2
  8
0
 62
     9
 10
0.0
 20
0.0
 30
0.0
 70
   128
 71
    12
 72
     6
 73
    10
  0
VERTEX
  5
1D3
  8
0
 62
     9
 10
0.0
 20
0.0
 30
0.0
 70
   128
 71
    13
 72
    14
 73
    12
  0
VERTEX
  5
1D4
  8
0
 62
     9
 10
0.0
 20
0.0
 30
0.0
 70
   128
 71
    16
 72
    15
 73
    12
  0
VERTEX
  5
1D5
  8
0
 62
     9
 10
0.0
 20
0.0
 30
0.0
 70
   128
 71
    15
 72
    18
 73
    17
  0
VERTEX
  5
1D6
  8
0
 62
     9
 10
0.0
 20
0.0
 30
0.0
 70
   128
 71
    18
 72
    19
 73
    17
  0
VERTEX
  5
1D7
  8
0
 62
     9
 10
0.0
 20
0.0
 30
0.0
 70
   128
 71
    17
 72
    12
 73
    15
  0
VERTEX
  5
1D8
  8
0
 62
     9
 10
0.0
 20
0.0
 30
0.0
 70
   128
 71
    12
 72
    14
 73
    16
  0
VERTEX
  5
1D9
  8
0
 62
     9
 10
0.0
 20
0.0
 30
0.0
 70
   128
 71
     6
 72
     8
 73
    11
  0
VERTEX
  5
1DA
  8
0
 62
     9
 10
0.0
 20
0.0
 30
0.0
 70
   128
 71
     2
 72
     3
 73
     9
  0
VERTEX
  5
1DB
  8
0
 62
     9
 10
0.0
 20
0.0
 30
0.0
 70
   128
 71
     1
 72
    20
 73
     3
  0
SEQEND
  5
1DC
  8
0
 62
     9
  0
ENDBLK
  5
1DF
  8
0
  0
BLOCK
  8
0
  2
E3_NODE_11_
 70
     0
 10
0.0
 20
0.0
 30
0.0
  3
E3_NODE_11_
  1

  0
POLYLINE
  5
1E1
  8
0
 62
     9
 66
     1
 10
0.0
 20
0.0
 30
0.0
 70
    64
 71
    31
 72
    38
  0
VERTEX
  5
1E2
  8
0
 10
178.5579986572266
 20
-11.57199954986572
 30
-12.39799976348877
 70
   192
  0
VERTEX
  5
1E3
  8
0
 10
176.2920074462891
 20
-6.10099983215332
 30
-15.55399990081787
 70
   192
  0
VERTEX
  5
1E4
  8
0
 10
178.4340057373047
 20
-4.669000148773193
 30
-15.55399990081787
 70
   192
  0
VERTEX
  5
1E5
  8
0
 10
180.3840026855469
 20
-15.97999954223633
 30
-7.355000019073486
 70
   192
  0
VERTEX
  5
1E6
  8
0
 10
185.9949951171875
 20
-12.22999954223633
 30
-7.355000019073486
 70
   192
  0
VERTEX
  5
1E7
  8
0
 10
186.5789947509766
 20
-16.45999908447266
 30
-0.0020000000949949
 70
   192
  0
VERTEX
  5
1E8
  8
0
 10
188.1849975585938
 20
-14.48200035095215
 30
-0.0020000000949949
 70
   192
  0
VERTEX
  5
1E9
  8
0
 10
179.8659973144531
 20
-2.526999950408936
 30
-15.55399990081787
 70
   192
  0
VERTEX
  5
1EA
  8
0
 10
180.3309936523438
 20
0.0
 30
-15.44299983978271
 70
   192
  0
VERTEX
  5
1EB
  8
0
 10
182.3139953613281
 20
0.0
 30
-14.77799987792969
 70
   192
  0
VERTEX
  5
1EC
  8
0
 10
185.3370056152344
 20
-4.793000221252441
 30
-12.39799976348877
 70
   192
  0
VERTEX
  5
1ED
  8
0
 10
192.7960052490234
 20
-7.927000045776367
 30
-0.0020000000949949
 70
   192
  0
VERTEX
  5
1EE
  8
0
 10
189.7449951171875
 20
-6.61899995803833
 30
-7.355000019073486
 70
   192
  0
VERTEX
  5
1EF
  8
0
 10
192.2299957275391
 20
0.0
 30
-5.464000225067139
 70
   192
  0
VERTEX
  5
1F0
  8
0
 10
190.9609985351562
 20
0.0
 30
-7.284999847412109
 70
   192
  0
VERTEX
  5
1F1
  8
0
 10
173.7649993896484
 20
-12.21500015258789
 30
-11.9680004119873
 70
   192
  0
VERTEX
  5
1F2
  8
0
 10
173.7649993896484
 20
-7.994999885559082
 30
-15.02200031280518
 70
   192
  0
VERTEX
  5
1F3
  8
0
 10
173.7649993896484
 20
-6.554999828338623
 30
-15.31900024414062
 70
   192
  0
VERTEX
  5
1F4
  8
0
 10
173.7649993896484
 20
-0.0540000014007092
 30
-16.65999984741211
 70
   192
  0
VERTEX
  5
1F5
  8
0
 10
182.6219940185547
 20
-8.857000350952148
 30
-12.39799976348877
 70
   192
  0
VERTEX
  5
1F6
  8
0
 10
181.5269927978516
 20
-18.79299926757812
 30
-0.0020000000949949
 70
   192
  0
VERTEX
  5
1F7
  8
0
 10
177.97900390625
 20
-20.43099975585938
 30
-0.0020000000949949
 70
   192
  0
VERTEX
  5
1F8
  8
0
 10
173.7649993896484
 20
-16.93000030517578
 30
-7.153999805450439
 70
   192
  0
VERTEX
  5
1F9
  8
0
 10
173.7649993896484
 20
-15.64900016784668
 30
-9.484000205993652
 70
   192
  0
VERTEX
  5
1FA
  8
0
 10
192.5140075683594
 20
-9.14900016784668
 30
-0.0020000000949949
 70
   192
  0
VERTEX
  5
1FB
  8
0
 10
186.1730041503906
 20
0.0
 30
-12.48700046539307
 70
   192
  0
VERTEX
  5
1FC
  8
0
 10
189.4799957275391
 20
0.0
 30
-9.407999992370605
 70
   192
  0
VERTEX
  5
1FD
  8
0
 10
173.7649993896484
 20
0.0
 30
-16.65999984741211
 70
   192
  0
VERTEX
  5
1FE
  8
0
 10
178.1300048828125
 20
0.0
 30
-16.18199920654297
 70
   192
  0
VERTEX
  5
1FF
  8
0
 10
173.7649993896484
 20
-20.86100006103516
 30
-0.0020000000949949
 70
   192
  0
VERTEX
  5
200
  8
0
 10
194.6260070800781
 20
0.0
 30
-0.0020000000949949
 70
   192
  0
VERTEX
  5
201
  8
0
 62
     9
 10
0.0
 20
0.0
 30
0.0
 70
   128
 71
     3
 72
     2
 73
     1
  0
VERTEX
  5
202
  8
0
 62
     9
 10
0.0
 20
0.0
 30
0.0
 70
   128
 71
     6
 72
     5
 73
     4
  0
VERTEX
  5
203
  8
0
 62
     9
 10
0.0
 20
0.0
 30
0.0
 70
   128
 71
     6
 72
     7
 73
     5
  0
VERTEX
  5
204
  8
0
 62
     9
 10
0.0
 20
0.0
 30
0.0
 70
   128
 71
    10
 72
     9
 73
     8
  0
VERTEX
  5
205
  8
0
 62
     9
 10
0.0
 20
0.0
 30
0.0
 70
   128
 71
     8
 72
    11
 73
    10
  0
VERTEX
  5
206
  8
0
 62
     9
 10
0.0
 20
0.0
 30
0.0
 70
   128
 71
    14
 72
    13
 73
    12
  0
VERTEX
  5
207
  8
0
 62
     9
 10
0.0
 20
0.0
 30
0.0
 70
   128
 71
    14
 72
    15
 73
    13
  0
VERTEX
  5
208
  8
0
 62
     9
 10
0.0
 20
0.0
 30
0.0
 70
   128
 71
    17
 72
    16
 73
     1
  0
VERTEX
  5
209
  8
0
 62
     9
 10
0.0
 20
0.0
 30
0.0
 70
   128
 71
     1
 72
     2
 73
    17
  0
VERTEX
  5
20A
  8
0
 62
     9
 10
0.0
 20
0.0
 30
0.0
 70
   128
 71
    19
 72
    18
 73
     2
  0
VERTEX
  5
20B
  8
0
 62
     9
 10
0.0
 20
0.0
 30
0.0
 70
   128
 71
    20
 72
     1
 73
     4
  0
VERTEX
  5
20C
  8
0
 62
     9
 10
0.0
 20
0.0
 30
0.0
 70
   128
 71
    22
 72
    21
 73
     4
  0
VERTEX
  5
20D
  8
0
 62
     9
 10
0.0
 20
0.0
 30
0.0
 70
   128
 71
     4
 72
    23
 73
    22
  0
VERTEX
  5
20E
  8
0
 62
     9
 10
0.0
 20
0.0
 30
0.0
 70
   128
 71
    24
 72
     4
 73
     1
  0
VERTEX
  5
20F
  8
0
 62
     9
 10
0.0
 20
0.0
 30
0.0
 70
   128
 71
    24
 72
    23
 73
     4
  0
VERTEX
  5
210
  8
0
 62
     9
 10
0.0
 20
0.0
 30
0.0
 70
   128
 71
     5
 72
     7
 73
    25
  0
VERTEX
  5
211
  8
0
 62
     9
 10
0.0
 20
0.0
 30
0.0
 70
   128
 71
    25
 72
    12
 73
    13
  0
VERTEX
  5
212
  8
0
 62
     9
 10
0.0
 20
0.0
 30
0.0
 70
   128
 71
    27
 72
    26
 73
    11
  0
VERTEX
  5
213
  8
0
 62
     9
 10
0.0
 20
0.0
 30
0.0
 70
   128
 71
    11
 72
    13
 73
    27
  0
VERTEX
  5
214
  8
0
 62
     9
 10
0.0
 20
0.0
 30
0.0
 70
   128
 71
    11
 72
    20
 73
     5
  0
VERTEX
  5
215
  8
0
 62
     9
 10
0.0
 20
0.0
 30
0.0
 70
   128
 71
    29
 72
    28
 73
     8
  0
VERTEX
  5
216
  8
0
 62
     9
 10
0.0
 20
0.0
 30
0.0
 70
   128
 71
     8
 72
     3
 73
    20
  0
VERTEX
  5
217
  8
0
 62
     9
 10
0.0
 20
0.0
 30
0.0
 70
   128
 71
    28
 72
     3
 73
     8
  0
VERTEX
  5
218
  8
0
 62
     9
 10
0.0
 20
0.0
 30
0.0
 70
   128
 71
    20
 72
    11
 73
     8
  0
VERTEX
  5
219
  8
0
 62
     9
 10
0.0
 20
0.0
 30
0.0
 70
   128
 71
     8
 72
     9
 73
    29
  0
VERTEX
  5
21A
  8
0
 62
     9
 10
0.0
 20
0.0
 30
0.0
 70
   128
 71
     5
 72
    13
 73
    11
  0
VERTEX
  5
21B
  8
0
 62
     9
 10
0.0
 20
0.0
 30
0.0
 70
   128
 71
    13
 72
    15
 73
    27
  0
VERTEX
  5
21C
  8
0
 62
     9
 10
0.0
 20
0.0
 30
0.0
 70
   128
 71
    25
 72
    13
 73
     5
  0
VERTEX
  5
21D
  8
0
 62
     9
 10
0.0
 20
0.0
 30
0.0
 70
   128
 71
     1
 72
    16
 73
    24
  0
VERTEX
  5
21E
  8
0
 62
     9
 10
0.0
 20
0.0
 30
0.0
 70
   128
 71
    23
 72
    30
 73
    22
  0
VERTEX
  5
21F
  8
0
 62
     9
 10
0.0
 20
0.0
 30
0.0
 70
   128
 71
     4
 72
     5
 73
    20
  0
VERTEX
  5
220
  8
0
 62
     9
 10
0.0
 20
0.0
 30
0.0
 70
   128
 71
     2
 72
    28
 73
    19
  0
VERTEX
  5
221
  8
0
 62
     9
 10
0.0
 20
0.0
 30
0.0
 70
   128
 71
     3
 72
    28
 73
     2
  0
VERTEX
  5
222
  8
0
 62
     9
 10
0.0
 20
0.0
 30
0.0
 70
   128
 71
     2
 72
    18
 73
    17
  0
VERTEX
  5
223
  8
0
 62
     9
 10
0.0
 20
0.0
 30
0.0
 70
   128
 71
    12
 72
    31
 73
    14
  0
VERTEX
  5
224
  8
0
 62
     9
 10
0.0
 20
0.0
 30
0.0
 70
   128
 71
    11
 72
    26
 73
    10
  0
VERTEX
  5
225
  8
0
 62
     9
 10
0.0
 20
0.0
 30
0.0
 70
   128
 71
     4
 72
    21
 73
     6
  0
VERTEX
  5
226
  8
0
 62
     9
 10
0.0
 20
0.0
 30
0.0
 70
   128
 71
     1
 72
    20
 73
     3
  0
SEQEND
  5
227
  8
0
 62
     9
  0
ENDBLK
  5
22A
  8
0
  0
BLOCK
  8
0
  2
E3_NODE_12_
 70
     0
 10
0.0
 20
0.0
 30
0.0
  3
E3_NODE_12_
  1

  0
POLYLINE
  5
22C
  8
0
 62
     9
 66
     1
 10
0.0
 20
0.0
 30
0.0
 70
    64
 71
    37
 72
    44
  0
VERTEX
  5
22D
  8
0
 10
178.5579986572266
 20
11.57199954986572
 30
-12.39799976348877
 70
   192
  0
VERTEX
  5
22E
  8
0
 10
182.6219940185547
 20
8.857000350952148
 30
-12.39799976348877
 70
   192
  0
VERTEX
  5
22F
  8
0
 10
178.4340057373047
 20
4.669000148773193
 30
-15.55399990081787
 70
   192
  0
VERTEX
  5
230
  8
0
 10
179.8659973144531
 20
2.526999950408936
 30
-15.55399990081787
 70
   192
  0
VERTEX
  5
231
  8
0
 10
185.3370056152344
 20
4.793000221252441
 30
-12.39799976348877
 70
   192
  0
VERTEX
  5
232
  8
0
 10
182.3139953613281
 20
0.0
 30
-14.77799987792969
 70
   192
  0
VERTEX
  5
233
  8
0
 10
186.1730041503906
 20
0.0
 30
-12.48700046539307
 70
   192
  0
VERTEX
  5
234
  8
0
 10
180.3840026855469
 20
15.97999954223633
 30
-7.355000019073486
 70
   192
  0
VERTEX
  5
235
  8
0
 10
182.4559936523438
 20
18.9640007019043
 30
-0.0020000000949949
 70
   192
  0
VERTEX
  5
236
  8
0
 10
186.3029937744141
 20
16.67300033569336
 30
-0.0020000000949949
 70
   192
  0
VERTEX
  5
237
  8
0
 10
181.7259979248047
 20
19.20800018310547
 30
-0.0020000000949949
 70
   192
  0
VERTEX
  5
238
  8
0
 10
185.9949951171875
 20
12.22999954223633
 30
-7.355000019073486
 70
   192
  0
VERTEX
  5
239
  8
0
 10
186.5480041503906
 20
16.44300079345703
 30
-0.0020000000949949
 70
   192
  0
VERTEX
  5
23A
  8
0
 10
192.2299957275391
 20
0.0
 30
-5.464000225067139
 70
   192
  0
VERTEX
  5
23B
  8
0
 10
189.7449951171875
 20
6.61899995803833
 30
-7.355000019073486
 70
   192
  0
VERTEX
  5
23C
  8
0
 10
193.8079986572266
 20
5.783999919891357
 30
-0.0020000000949949
 70
   192
  0
VERTEX
  5
23D
  8
0
 10
192.927001953125
 20
7.938000202178955
 30
-0.0020000000949949
 70
   192
  0
VERTEX
  5
23E
  8
0
 10
194.5809936523438
 20
1.373999953269958
 30
-0.0020000000949949
 70
   192
  0
VERTEX
  5
23F
  8
0
 10
194.6260070800781
 20
0.0
 30
-0.0020000000949949
 70
   192
  0
VERTEX
  5
240
  8
0
 10
176.2920074462891
 20
6.10099983215332
 30
-15.55399990081787
 70
   192
  0
VERTEX
  5
241
  8
0
 10
173.7649993896484
 20
6.505000114440918
 30
-15.13500022888184
 70
   192
  0
VERTEX
  5
242
  8
0
 10
173.7649993896484
 20
9.057000160217285
 30
-14.53699970245361
 70
   192
  0
VERTEX
  5
243
  8
0
 10
180.3309936523438
 20
0.0
 30
-15.44299983978271
 70
   192
  0
VERTEX
  5
244
  8
0
 10
178.1300048828125
 20
0.0
 30
-16.18199920654297
 70
   192
  0
VERTEX
  5
245
  8
0
 10
189.4799957275391
 20
0.0
 30
-9.407999992370605
 70
   192
  0
VERTEX
  5
246
  8
0
 10
190.9609985351562
 20
0.0
 30
-7.284999847412109
 70
   192
  0
VERTEX
  5
247
  8
0
 10
189.5709991455078
 20
13.61400032043457
 30
-0.0020000000949949
 70
   192
  0
VERTEX
  5
248
  8
0
 10
192.1119995117188
 20
9.928000450134277
 30
-0.0020000000949949
 70
   192
  0
VERTEX
  5
249
  8
0
 10
188.4420013427734
 20
14.67099952697754
 30
-0.0020000000949949
 70
   192
  0
VERTEX
  5
24A
  8
0
 10
192.4320068359375
 20
9.145999908447266
 30
-0.0020000000949949
 70
   192
  0
VERTEX
  5
24B
  8
0
 10
178.0059967041016
 20
20.40399932861328
 30
-0.0020000000949949
 70
   192
  0
VERTEX
  5
24C
  8
0
 10
178.2100067138672
 20
20.38199996948242
 30
-0.0020000000949949
 70
   192
  0
VERTEX
  5
24D
  8
0
 10
173.7649993896484
 20
17.0939998626709
 30
-7.25
 70
   192
  0
VERTEX
  5
24E
  8
0
 10
173.7649993896484
 20
20.86100006103516
 30
-0.0020000000949949
 70
   192
  0
VERTEX
  5
24F
  8
0
 10
173.7649993896484
 20
12.19400024414062
 30
-11.98999977111816
 70
   192
  0
VERTEX
  5
250
  8
0
 10
173.7649993896484
 20
16.40800094604492
 30
-8.569000244140625
 70
   192
  0
VERTEX
  5
251
  8
0
 10
173.7649993896484
 20
0.0
 30
-16.65999984741211
 70
   192
  0
VERTEX
  5
252
  8
0
 62
     9
 10
0.0
 20
0.0
 30
0.0
 70
   128
 71
     3
 72
     2
 73
     1
  0
VERTEX
  5
253
  8
0
 62
     9
 10
0.0
 20
0.0
 30
0.0
 70
   128
 71
     6
 72
     5
 73
     4
  0
VERTEX
  5
254
  8
0
 62
     9
 10
0.0
 20
0.0
 30
0.0
 70
   128
 71
     6
 72
     7
 73
     5
  0
VERTEX
  5
255
  8
0
 62
     9
 10
0.0
 20
0.0
 30
0.0
 70
   128
 71
    10
 72
     9
 73
     8
  0
VERTEX
  5
256
  8
0
 62
     9
 10
0.0
 20
0.0
 30
0.0
 70
   128
 71
     9
 72
    11
 73
     8
  0
VERTEX
  5
257
  8
0
 62
     9
 10
0.0
 20
0.0
 30
0.0
 70
   128
 71
     8
 72
    12
 73
    10
  0
VERTEX
  5
258
  8
0
 62
     9
 10
0.0
 20
0.0
 30
0.0
 70
   128
 71
    12
 72
    13
 73
    10
  0
VERTEX
  5
259
  8
0
 62
     9
 10
0.0
 20
0.0
 30
0.0
 70
   128
 71
    16
 72
    15
 73
    14
  0
VERTEX
  5
25A
  8
0
 62
     9
 10
0.0
 20
0.0
 30
0.0
 70
   128
 71
    16
 72
    17
 73
    15
  0
VERTEX
  5
25B
  8
0
 62
     9
 10
0.0
 20
0.0
 30
0.0
 70
   128
 71
    14
 72
    18
 73
    16
  0
VERTEX
  5
25C
  8
0
 62
     9
 10
0.0
 20
0.0
 30
0.0
 70
   128
 71
    14
 72
    19
 73
    18
  0
VERTEX
  5
25D
  8
0
 62
     9
 10
0.0
 20
0.0
 30
0.0
 70
   128
 71
    22
 72
    21
 73
    20
  0
VERTEX
  5
25E
  8
0
 62
     9
 10
0.0
 20
0.0
 30
0.0
 70
   128
 71
    20
 72
     1
 73
    22
  0
VERTEX
  5
25F
  8
0
 62
     9
 10
0.0
 20
0.0
 30
0.0
 70
   128
 71
     4
 72
     5
 73
     2
  0
VERTEX
  5
260
  8
0
 62
     9
 10
0.0
 20
0.0
 30
0.0
 70
   128
 71
    24
 72
    23
 73
     4
  0
VERTEX
  5
261
  8
0
 62
     9
 10
0.0
 20
0.0
 30
0.0
 70
   128
 71
    25
 72
    15
 73
     5
  0
VERTEX
  5
262
  8
0
 62
     9
 10
0.0
 20
0.0
 30
0.0
 70
   128
 71
    25
 72
    26
 73
    15
  0
VERTEX
  5
263
  8
0
 62
     9
 10
0.0
 20
0.0
 30
0.0
 70
   128
 71
    28
 72
    27
 73
    12
  0
VERTEX
  5
264
  8
0
 62
     9
 10
0.0
 20
0.0
 30
0.0
 70
   128
 71
    12
 72
    15
 73
    28
  0
VERTEX
  5
265
  8
0
 62
     9
 10
0.0
 20
0.0
 30
0.0
 70
   128
 71
    27
 72
    29
 73
    12
  0
VERTEX
  5
266
  8
0
 62
     9
 10
0.0
 20
0.0
 30
0.0
 70
   128
 71
    15
 72
    30
 73
    28
  0
VERTEX
  5
267
  8
0
 62
     9
 10
0.0
 20
0.0
 30
0.0
 70
   128
 71
     5
 72
    15
 73
    12
  0
VERTEX
  5
268
  8
0
 62
     9
 10
0.0
 20
0.0
 30
0.0
 70
   128
 71
    32
 72
    31
 73
     8
  0
VERTEX
  5
269
  8
0
 62
     9
 10
0.0
 20
0.0
 30
0.0
 70
   128
 71
    31
 72
    34
 73
    33
  0
VERTEX
  5
26A
  8
0
 62
     9
 10
0.0
 20
0.0
 30
0.0
 70
   128
 71
    33
 72
     8
 73
    31
  0
VERTEX
  5
26B
  8
0
 62
     9
 10
0.0
 20
0.0
 30
0.0
 70
   128
 71
     2
 72
    12
 73
     8
  0
VERTEX
  5
26C
  8
0
 62
     9
 10
0.0
 20
0.0
 30
0.0
 70
   128
 71
    35
 72
     1
 73
     8
  0
VERTEX
  5
26D
  8
0
 62
     9
 10
0.0
 20
0.0
 30
0.0
 70
   128
 71
     8
 72
    36
 73
    35
  0
VERTEX
  5
26E
  8
0
 62
     9
 10
0.0
 20
0.0
 30
0.0
 70
   128
 71
     8
 72
    33
 73
    36
  0
VERTEX
  5
26F
  8
0
 62
     9
 10
0.0
 20
0.0
 30
0.0
 70
   128
 71
     8
 72
     1
 73
     2
  0
VERTEX
  5
270
  8
0
 62
     9
 10
0.0
 20
0.0
 30
0.0
 70
   128
 71
     8
 72
    11
 73
    32
  0
VERTEX
  5
271
  8
0
 62
     9
 10
0.0
 20
0.0
 30
0.0
 70
   128
 71
    12
 72
     2
 73
     5
  0
VERTEX
  5
272
  8
0
 62
     9
 10
0.0
 20
0.0
 30
0.0
 70
   128
 71
    15
 72
    17
 73
    30
  0
VERTEX
  5
273
  8
0
 62
     9
 10
0.0
 20
0.0
 30
0.0
 70
   128
 71
     5
 72
     7
 73
    25
  0
VERTEX
  5
274
  8
0
 62
     9
 10
0.0
 20
0.0
 30
0.0
 70
   128
 71
     3
 72
    37
 73
     4
  0
VERTEX
  5
275
  8
0
 62
     9
 10
0.0
 20
0.0
 30
0.0
 70
   128
 71
     4
 72
    37
 73
    24
  0
VERTEX
  5
276
  8
0
 62
     9
 10
0.0
 20
0.0
 30
0.0
 70
   128
 71
     2
 72
     3
 73
     4
  0
VERTEX
  5
277
  8
0
 62
     9
 10
0.0
 20
0.0
 30
0.0
 70
   128
 71
    20
 72
    21
 73
    37
  0
VERTEX
  5
278
  8
0
 62
     9
 10
0.0
 20
0.0
 30
0.0
 70
   128
 71
     1
 72
    35
 73
    22
  0
VERTEX
  5
279
  8
0
 62
     9
 10
0.0
 20
0.0
 30
0.0
 70
   128
 71
    37
 72
     3
 73
    20
  0
VERTEX
  5
27A
  8
0
 62
     9
 10
0.0
 20
0.0
 30
0.0
 70
   128
 71
    15
 72
    26
 73
    14
  0
VERTEX
  5
27B
  8
0
 62
     9
 10
0.0
 20
0.0
 30
0.0
 70
   128
 71
    12
 72
    29
 73
    13
  0
VERTEX
  5
27C
  8
0
 62
     9
 10
0.0
 20
0.0
 30
0.0
 70
   128
 71
     4
 72
    23
 73
     6
  0
VERTEX
  5
27D
  8
0
 62
     9
 10
0.0
 20
0.0
 30
0.0
 70
   128
 71
     1
 72
    20
 73
     3
  0
SEQEND
  5
27E
  8
0
 62
     9
  0
ENDBLK
  5
281
  8
0
  0
ENDSEC
  0
SECTION
  2
ENTITIES
  0
INSERT
  5
6A
  8
LAYER_1
  2
E3_NODE
 10
0.0
 20
0.0
 30
0.0
  0
INSERT
  5
85
  8
LAYER_1
  2
E3_NODE_1_
 10
0.0
 20
0.0
 30
0.0
  0
INSERT
  5
B1
  8
LAYER_1
  2
E3_NODE_2_
 10
0.0
 20
0.0
 30
0.0
  0
INSERT
  5
107
  8
LAYER_1
  2
E3_NODE_3_
 10
0.0
 20
0.0
 30
0.0
  0
INSERT
  5
133
  8
LAYER_1
  2
E3_NODE_4_
 10
0.0
 20
0.0
 30
0.0
  0
INSERT
  5
13F
  8
LAYER_1
  2
E3_NODE_5_
 10
0.0
 20
0.0
 30
0.0
  0
INSERT
  5
159
  8
LAYER_1
  2
E3_NODE_6_
 10
0.0
 20
0.0
 30
0.0
  0
INSERT
  5
165
  8
LAYER_1
  2
E3_NODE_7_
 10
0.0
 20
0.0
 30
0.0
  0
INSERT
  5
183
  8
LAYER_1
  2
E3_NODE_8_
 10
0.0
 20
0.0
 30
0.0
  0
INSERT
  5
1B1
  8
LAYER_1
  2
E3_NODE_9_
 10
0.0
 20
0.0
 30
0.0
  0
INSERT
  5
1DD
  8
LAYER_1
  2
E3_NODE_10_
 10
0.0
 20
0.0
 30
0.0
  0
INSERT
  5
228
  8
LAYER_1
  2
E3_NODE_11_
 10
0.0
 20
0.0
 30
0.0
  0
INSERT
  5
27F
  8
LAYER_1
  2
E3_NODE_12_
 10
0.0
 20
0.0
 30
0.0
  0
ENDSEC
  0
EOF
