  0
SECTION
  2
HEADER
  9
$ACADVER
  1
AC1015
  9
$ACADMAINTVER
 70
     6
  9
$DWGCODEPAGE
  3
ANSI_1252
  9
$INSBASE
 10
0.0
 20
0.0
 30
0.0
  9
$EXTMIN
 10
0.0
 20
0.0
 30
0.0
  9
$EXTMAX
 10
1682.0
 20
2378.0
 30
0.0
  9
$LIMMIN
 10
0.0
 20
0.0
  9
$LIMMAX
 10
1682.0
 20
2378.0
  9
$ORTHOMODE
 70
     0
  9
$REGENMODE
 70
     1
  9
$FILLMODE
 70
     1
  9
$QTEXTMODE
 70
     0
  9
$MIRRTEXT
 70
     1
  9
$LTSCALE
 40
1.0
  9
$ATTMODE
 70
     1
  9
$TEXTSIZE
 40
2.5
  9
$TRACEWID
 40
1.0
  9
$TEXTSTYLE
  7
Standard
  9
$CLAYER
  8
0
  9
$CELTYPE
  6
ByLayer
  9
$CECOLOR
 62
   256
  9
$CELTSCALE
 40
1.0
  9
$DISPSILH
 70
     0
  9
$DIMSCALE
 40
1.0
  9
$DIMASZ
 40
2.5
  9
$DIMEXO
 40
0.625
  9
$DIMDLI
 40
3.75
  9
$DIMRND
 40
0.0
  9
$DIMDLE
 40
0.0
  9
$DIMEXE
 40
1.25
  9
$DIMTP
 40
0.0
  9
$DIMTM
 40
0.0
  9
$DIMTXT
 40
2.5
  9
$DIMCEN
 40
2.5
  9
$DIMTSZ
 40
0.0
  9
$DIMTOL
 70
     0
  9
$DIMLIM
 70
     0
  9
$DIMTIH
 70
     0
  9
$DIMTOH
 70
     0
  9
$DIMSE1
 70
     0
  9
$DIMSE2
 70
     0
  9
$DIMTAD
 70
     1
  9
$DIMZIN
 70
     8
  9
$DIMBLK
  1

  9
$DIMASO
 70
     1
  9
$DIMSHO
 70
     1
  9
$DIMPOST
  1

  9
$DIMAPOST
  1

  9
$DIMALT
 70
     0
  9
$DIMALTD
 70
     3
  9
$DIMALTF
 40
0.0393700787
  9
$DIMLFAC
 40
1.0
  9
$DIMTOFL
 70
     1
  9
$DIMTVP
 40
0.0
  9
$DIMTIX
 70
     0
  9
$DIMSOXD
 70
     0
  9
$DIMSAH
 70
     0
  9
$DIMBLK1
  1

  9
$DIMBLK2
  1

  9
$DIMSTYLE
  2
ISO-25
  9
$DIMCLRD
 70
     0
  9
$DIMCLRE
 70
     0
  9
$DIMCLRT
 70
     0
  9
$DIMTFAC
 40
1.0
  9
$DIMGAP
 40
0.625
  9
$DIMJUST
 70
     0
  9
$DIMSD1
 70
     0
  9
$DIMSD2
 70
     0
  9
$DIMTOLJ
 70
     0
  9
$DIMTZIN
 70
     8
  9
$DIMALTZ
 70
     0
  9
$DIMALTTZ
 70
     0
  9
$DIMUPT
 70
     0
  9
$DIMDEC
 70
     2
  9
$DIMTDEC
 70
     2
  9
$DIMALTU
 70
     2
  9
$DIMALTTD
 70
     3
  9
$DIMTXSTY
  7
Standard
  9
$DIMAUNIT
 70
     0
  9
$DIMADEC
 70
     0
  9
$DIMALTRND
 40
0.0
  9
$DIMAZIN
 70
     0
  9
$DIMDSEP
 70
    44
  9
$DIMATFIT
 70
     3
  9
$DIMFRAC
 70
     0
  9
$DIMLDRBLK
  1

  9
$DIMLUNIT
 70
     2
  9
$DIMLWD
 70
    -2
  9
$DIMLWE
 70
    -2
  9
$DIMTMOVE
 70
     0
  9
$LUNITS
 70
     2
  9
$LUPREC
 70
     4
  9
$SKETCHINC
 40
1.0
  9
$FILLETRAD
 40
10.0
  9
$AUNITS
 70
     0
  9
$AUPREC
 70
     0
  9
$MENU
  1
.
  9
$ELEVATION
 40
0.0
  9
$PELEVATION
 40
0.0
  9
$THICKNESS
 40
0.0
  9
$LIMCHECK
 70
     0
  9
$CHAMFERA
 40
10.0
  9
$CHAMFERB
 40
10.0
  9
$CHAMFERC
 40
20.0
  9
$CHAMFERD
 40
0.0
  9
$SKPOLY
 70
     0
  9
$TDCREATE
 40
2455450.53406779
  9
$TDUCREATE
 40
2455450.450734456
  9
$TDUPDATE
 40
2455450.534067801
  9
$TDUUPDATE
 40
2455450.450734468
  9
$TDINDWG
 40
0.0000000116
  9
$TDUSRTIMER
 40
0.0000000116
  9
$USRTIMER
 70
     1
  9
$ANGBASE
 50
0.0
  9
$ANGDIR
 70
     0
  9
$PDMODE
 70
     0
  9
$PDSIZE
 40
0.0
  9
$PLINEWID
 40
0.0
  9
$SPLFRAME
 70
     0
  9
$SPLINETYPE
 70
     6
  9
$SPLINESEGS
 70
     8
  9
$HANDSEED
  5
2B2
  9
$SURFTAB1
 70
     6
  9
$SURFTAB2
 70
     6
  9
$SURFTYPE
 70
     6
  9
$SURFU
 70
     6
  9
$SURFV
 70
     6
  9
$UCSBASE
  2

  9
$UCSNAME
  2

  9
$UCSORG
 10
0.0
 20
0.0
 30
0.0
  9
$UCSXDIR
 10
1.0
 20
0.0
 30
0.0
  9
$UCSYDIR
 10
0.0
 20
1.0
 30
0.0
  9
$UCSORTHOREF
  2

  9
$UCSORTHOVIEW
 70
     0
  9
$UCSORGTOP
 10
0.0
 20
0.0
 30
0.0
  9
$UCSORGBOTTOM
 10
0.0
 20
0.0
 30
0.0
  9
$UCSORGLEFT
 10
0.0
 20
0.0
 30
0.0
  9
$UCSORGRIGHT
 10
0.0
 20
0.0
 30
0.0
  9
$UCSORGFRONT
 10
0.0
 20
0.0
 30
0.0
  9
$UCSORGBACK
 10
0.0
 20
0.0
 30
0.0
  9
$PUCSBASE
  2

  9
$PUCSNAME
  2

  9
$PUCSORG
 10
0.0
 20
0.0
 30
0.0
  9
$PUCSXDIR
 10
1.0
 20
0.0
 30
0.0
  9
$PUCSYDIR
 10
0.0
 20
1.0
 30
0.0
  9
$PUCSORTHOREF
  2

  9
$PUCSORTHOVIEW
 70
     0
  9
$PUCSORGTOP
 10
0.0
 20
0.0
 30
0.0
  9
$PUCSORGBOTTOM
 10
0.0
 20
0.0
 30
0.0
  9
$PUCSORGLEFT
 10
0.0
 20
0.0
 30
0.0
  9
$PUCSORGRIGHT
 10
0.0
 20
0.0
 30
0.0
  9
$PUCSORGFRONT
 10
0.0
 20
0.0
 30
0.0
  9
$PUCSORGBACK
 10
0.0
 20
0.0
 30
0.0
  9
$USERI1
 70
     0
  9
$USERI2
 70
     0
  9
$USERI3
 70
     0
  9
$USERI4
 70
     0
  9
$USERI5
 70
     0
  9
$USERR1
 40
0.0
  9
$USERR2
 40
0.0
  9
$USERR3
 40
0.0
  9
$USERR4
 40
0.0
  9
$USERR5
 40
0.0
  9
$WORLDVIEW
 70
     1
  9
$SHADEDGE
 70
     3
  9
$SHADEDIF
 70
    70
  9
$TILEMODE
 70
     1
  9
$MAXACTVP
 70
    64
  9
$PINSBASE
 10
0.0
 20
0.0
 30
0.0
  9
$PLIMCHECK
 70
     0
  9
$PEXTMIN
 10
0.0
 20
0.0
 30
0.0
  9
$PEXTMAX
 10
1682.0
 20
2378.0
 30
0.0
  9
$PLIMMIN
 10
0.0
 20
0.0
  9
$PLIMMAX
 10
1682.0
 20
2378.0
  9
$UNITMODE
 70
     0
  9
$VISRETAIN
 70
     1
  9
$PLINEGEN
 70
     0
  9
$PSLTSCALE
 70
     1
  9
$TREEDEPTH
 70
  3020
  9
$CMLSTYLE
  2
Standard
  9
$CMLJUST
 70
     0
  9
$CMLSCALE
 40
20.0
  9
$PROXYGRAPHICS
 70
     1
  9
$MEASUREMENT
 70
     1
  9
$CELWEIGHT
370
    -1
  9
$ENDCAPS
280
     0
  9
$JOINSTYLE
280
     0
  9
$LWDISPLAY
290
     0
  9
$INSUNITS
 70
     4
  9
$HYPERLINKBASE
  1

  9
$STYLESHEET
  1

  9
$XEDIT
290
     1
  9
$CEPSNTYPE
380
     0
  9
$PSTYLEMODE
290
     1
  9
$FINGERPRINTGUID
  2
{5C07AD32-1C44-409E-A2AB-305BDD0F9FD1}
  9
$VERSIONGUID
  2
{FAEB1C32-E019-11D5-929B-00C0DF256EC4}
  9
$EXTNAMES
290
     1
  9
$PSVPSCALE
 40
0.0
  9
$OLESTARTUP
290
     0
  0
ENDSEC
  0
SECTION
  2
CLASSES
  0
CLASS
  1
ACDBDICTIONARYWDFLT
  2
AcDbDictionaryWithDefault
  3
ObjectDBX Classes
 90
        0
280
     0
281
     0
  0
CLASS
  1
VISUALSTYLE
  2
AcDbVisualStyle
  3
ObjectDBX Classes
 90
     4095
280
     0
281
     0
  0
CLASS
  1
SCALE
  2
AcDbScale
  3
ObjectDBX Classes
 90
     1153
280
     0
281
     0
  0
CLASS
  1
DICTIONARYVAR
  2
AcDbDictionaryVar
  3
ObjectDBX Classes
 90
        0
280
     0
281
     0
  0
CLASS
  1
ACDBPLACEHOLDER
  2
AcDbPlaceHolder
  3
ObjectDBX Classes
 90
        0
280
     0
281
     0
  0
CLASS
  1
LAYOUT
  2
AcDbLayout
  3
ObjectDBX Classes
 90
        0
280
     0
281
     0
  0
ENDSEC
  0
SECTION
  2
TABLES
  0
TABLE
  2
VPORT
  5
8
330
0
100
AcDbSymbolTable
 70
     1
  0
VPORT
  5
29
330
8
100
AcDbSymbolTableRecord
100
AcDbViewportTableRecord
  2
*Active
 70
     0
 10
0.0
 20
0.0
 11
1.0
 21
1.0
 12
344.1869158879
 22
148.5
 13
0.0
 23
0.0
 14
10.0
 24
10.0
 15
10.0
 25
10.0
 16
0.0
 26
0.0
 36
1.0
 17
0.0
 27
0.0
 37
0.0
 40
297.0
 41
1.9729729729
 42
50.0
 43
0.0
 44
0.0
 50
0.0
 51
0.0
 71
     0
 72
   100
 73
     1
 74
     3
 75
     0
 76
     0
 77
     0
 78
     0
281
     0
 65
     1
110
0.0
120
0.0
130
0.0
111
1.0
121
0.0
131
0.0
112
0.0
122
1.0
132
0.0
 79
     0
146
0.0
  0
ENDTAB
  0
TABLE
  2
LTYPE
  5
5
330
0
100
AcDbSymbolTable
 70
     2
  0
LTYPE
  5
14
330
5
100
AcDbSymbolTableRecord
100
AcDbLinetypeTableRecord
  2
ByBlock
 70
     0
  3

 72
    65
 73
     0
 40
0.0
  0
LTYPE
  5
15
330
5
100
AcDbSymbolTableRecord
100
AcDbLinetypeTableRecord
  2
ByLayer
 70
     0
  3

 72
    65
 73
     0
 40
0.0
  0
LTYPE
  5
16
330
5
100
AcDbSymbolTableRecord
100
AcDbLinetypeTableRecord
  2
Continuous
 70
     0
  3
Solid line
 72
    65
 73
     0
 40
0.0
  0
LTYPE
  5
61
330
5
100
AcDbSymbolTableRecord
100
AcDbLinetypeTableRecord
  2
CENTER2
 70
     0
  3
Center (.5x) ___ _ ___ _ ___ _ ___ _ ___ _ ___
 72
    65
 73
     4
 40
28.575
 49
19.05
 74
     4
 75
     0
340
0
 46
0.0
 50
0.0
 44
0.0
 45
0.0
 49
-3.175
 74
     4
 75
     0
340
0
 46
0.0
 50
0.0
 44
0.0
 45
0.0
 49
3.175
 74
     4
 75
     0
340
0
 46
0.0
 50
0.0
 44
0.0
 45
0.0
 49
-3.175
 74
     4
 75
     0
340
0
 46
0.0
 50
0.0
 44
0.0
 45
0.0
  0
ENDTAB
  0
TABLE
  2
LAYER
  5
2
330
0
100
AcDbSymbolTable
 70
     5
  0
LAYER
  5
10
330
2
100
AcDbSymbolTableRecord
100
AcDbLayerTableRecord
  2
0
 70
     0
 62
     7
  6
Continuous
370
    -3
390
F
  0
LAYER
  5
5D
330
2
100
AcDbSymbolTableRecord
100
AcDbLayerTableRecord
  2
Default
 70
     0
 62
     7
  6
Continuous
370
    -3
390
F
  0
LAYER
  5
60
330
2
100
AcDbSymbolTableRecord
100
AcDbLayerTableRecord
  2
DV1_Standard
 70
     0
 62
     7
  6
Continuous
370
    -3
390
F
  0
LAYER
  5
166
330
2
100
AcDbSymbolTableRecord
100
AcDbLayerTableRecord
  2
DV2_Standard
 70
     0
 62
     7
  6
Continuous
370
    -3
390
F
  0
LAYER
  5
245
330
2
100
AcDbSymbolTableRecord
100
AcDbLayerTableRecord
  2
DV3_Standard
 70
     0
 62
     7
  6
Continuous
370
    -3
390
F
  0
ENDTAB
  0
TABLE
  2
STYLE
  5
3
330
0
100
AcDbSymbolTable
 70
     2
  0
STYLE
  5
11
330
3
100
AcDbSymbolTableRecord
100
AcDbTextStyleTableRecord
  2
Standard
 70
     0
 40
0.0
 41
1.0
 50
0.0
 71
     0
 42
2.5
  3
txt
  4

  0
STYLE
  5
2A1
330
3
100
AcDbSymbolTableRecord
100
AcDbTextStyleTableRecord
  2
SEACAD_seiso_ttf
 70
     0
 40
0.0
 41
1.0
 50
0.0
 71
     0
 42
0.2
  3
seiso.ttf
  4

  0
ENDTAB
  0
TABLE
  2
VIEW
  5
6
330
0
100
AcDbSymbolTable
 70
     0
  0
ENDTAB
  0
TABLE
  2
UCS
  5
7
330
0
100
AcDbSymbolTable
 70
     0
  0
ENDTAB
  0
TABLE
  2
APPID
  5
9
330
0
100
AcDbSymbolTable
 70
     1
  0
APPID
  5
12
330
9
100
AcDbSymbolTableRecord
100
AcDbRegAppTableRecord
  2
ACAD
 70
     0
  0
ENDTAB
  0
TABLE
  2
DIMSTYLE
  5
A
330
0
100
AcDbSymbolTable
 70
     1
100
AcDbDimStyleTable
  0
DIMSTYLE
105
27
330
A
100
AcDbSymbolTableRecord
100
AcDbDimStyleTableRecord
  2
ISO-25
 70
     0
 41
2.5
 42
0.625
 43
3.75
 44
1.25
 73
     0
 74
     0
 77
     1
 78
     8
140
2.5
141
2.5
143
0.0393700787
147
0.625
171
     3
172
     1
271
     2
272
     2
274
     3
278
    44
283
     0
284
     8
340
11
  0
ENDTAB
  0
TABLE
  2
BLOCK_RECORD
  5
1
330
0
100
AcDbSymbolTable
 70
     4
  0
BLOCK_RECORD
  5
1F
330
1
100
AcDbSymbolTableRecord
100
AcDbBlockTableRecord
  2
*Model_Space
340
22
  0
BLOCK_RECORD
  5
1B
330
1
100
AcDbSymbolTableRecord
100
AcDbBlockTableRecord
  2
*Paper_Space
340
1E
  0
BLOCK_RECORD
  5
5E
330
1
100
AcDbSymbolTableRecord
100
AcDbBlockTableRecord
  2
SE
340
0
102
{BLKREFS
331
5F
102
}
  0
BLOCK_RECORD
  5
164
330
1
100
AcDbSymbolTableRecord
100
AcDbBlockTableRecord
  2
SE1
340
0
102
{BLKREFS
331
165
102
}
  0
BLOCK_RECORD
  5
243
330
1
100
AcDbSymbolTableRecord
100
AcDbBlockTableRecord
  2
SE2
340
0
102
{BLKREFS
331
244
102
}
  0
ENDTAB
  0
ENDSEC
  0
SECTION
  2
BLOCKS
  0
BLOCK
  5
20
330
1F
100
AcDbEntity
  8
0
100
AcDbBlockBegin
  2
*Model_Space
 70
     0
 10
0.0
 20
0.0
 30
0.0
  3
*Model_Space
  1

  0
ENDBLK
  5
21
330
1F
100
AcDbEntity
  8
0
100
AcDbBlockEnd
  0
BLOCK
  5
1C
330
1B
100
AcDbEntity
 67
     1
  8
0
100
AcDbBlockBegin
  2
*Paper_Space
 70
     0
 10
0.0
 20
0.0
 30
0.0
  3
*Paper_Space
  1

  0
ENDBLK
  5
1D
330
1B
100
AcDbEntity
 67
     1
  8
0
100
AcDbBlockEnd
  0
BLOCK
  5
162
330
5E
100
AcDbEntity
  8
0
100
AcDbBlockBegin
  2
SE
 70
     0
 10
0.0
 20
0.0
 30
0.0
  3
SE
  1

  0
LINE
  5
62
330
5E
100
AcDbEntity
  8
DV1_Standard
  6
CENTER2
 62
     7
100
AcDbLine
 10
83.6623295059
 20
976.1739086504
 30
0.0
 11
43.6623303999
 21
976.1739086504
 31
0.0
  0
LINE
  5
63
330
5E
100
AcDbEntity
  8
DV1_Standard
  6
CENTER2
 62
     7
100
AcDbLine
 10
63.6623299529
 20
996.1739082034
 30
0.0
 11
63.6623299529
 21
956.1739090974
 31
0.0
  0
LINE
  5
64
330
5E
100
AcDbEntity
  8
DV1_Standard
  6
CENTER2
 62
     7
100
AcDbLine
 10
88.6623293941
 20
976.1739086504
 30
0.0
 11
87.6623299529
 21
976.1739086504
 31
0.0
  0
LINE
  5
65
330
5E
100
AcDbEntity
  8
DV1_Standard
  6
CENTER2
 62
     7
100
AcDbLine
 10
63.6623299529
 20
1001.1739080916
 30
0.0
 11
63.6623299529
 21
1000.1739086504
 31
0.0
  0
LINE
  5
66
330
5E
100
AcDbEntity
  8
DV1_Standard
  6
CENTER2
 62
     7
100
AcDbLine
 10
38.6623305117
 20
976.1739086504
 30
0.0
 11
39.6623299529
 21
976.1739086504
 31
0.0
  0
LINE
  5
67
330
5E
100
AcDbEntity
  8
DV1_Standard
  6
CENTER2
 62
     7
100
AcDbLine
 10
63.6623299529
 20
951.1739092092
 30
0.0
 11
63.6623299529
 21
952.1739086504
 31
0.0
  0
LINE
  5
68
330
5E
100
AcDbEntity
  8
DV1_Standard
  6
CENTER2
 62
     7
100
AcDbLine
 10
83.6623295059
 20
356.1739086504
 30
0.0
 11
43.6623303999
 21
356.1739086504
 31
0.0
  0
LINE
  5
69
330
5E
100
AcDbEntity
  8
DV1_Standard
  6
CENTER2
 62
     7
100
AcDbLine
 10
63.6623299529
 20
376.1739082034
 30
0.0
 11
63.6623299529
 21
336.1739090974
 31
0.0
  0
LINE
  5
6A
330
5E
100
AcDbEntity
  8
DV1_Standard
  6
CENTER2
 62
     7
100
AcDbLine
 10
88.6623293941
 20
356.1739086504
 30
0.0
 11
87.1623299529
 21
356.1739086504
 31
0.0
  0
LINE
  5
6B
330
5E
100
AcDbEntity
  8
DV1_Standard
  6
CENTER2
 62
     7
100
AcDbLine
 10
63.6623299529
 20
381.1739080916
 30
0.0
 11
63.6623299529
 21
379.6739086504
 31
0.0
  0
LINE
  5
6C
330
5E
100
AcDbEntity
  8
DV1_Standard
  6
CENTER2
 62
     7
100
AcDbLine
 10
38.6623305117
 20
356.1739086504
 30
0.0
 11
40.1623299529
 21
356.1739086504
 31
0.0
  0
LINE
  5
6D
330
5E
100
AcDbEntity
  8
DV1_Standard
  6
CENTER2
 62
     7
100
AcDbLine
 10
63.6623299529
 20
331.1739092092
 30
0.0
 11
63.6623299529
 21
332.6739086504
 31
0.0
  0
LINE
  5
6E
330
5E
100
AcDbEntity
  8
DV1_Standard
  6
Continuous
 62
     7
100
AcDbLine
 10
117.0623299529
 20
678.6739086806
 30
0.0
 11
117.0623299529
 21
638.6739086202
 31
0.0
  0
LINE
  5
6F
330
5E
100
AcDbEntity
  8
DV1_Standard
  6
Continuous
 62
     7
100
AcDbLine
 10
118.5685157107
 20
678.6739086806
 30
0.0
 11
117.0623299529
 21
678.6739086806
 31
0.0
  0
LINE
  5
70
330
5E
100
AcDbEntity
  8
DV1_Standard
  6
Continuous
 62
     7
100
AcDbLine
 10
117.0623299529
 20
638.6739086202
 30
0.0
 11
118.5685157107
 21
638.6739086202
 31
0.0
  0
ARC
  5
71
330
5E
100
AcDbEntity
  8
DV1_Standard
  6
Continuous
 62
     7
100
AcDbCircle
 10
87.0623299529
 20
658.6739086504
 30
0.0
 40
49.99999999999982
100
AcDbArc
 50
341.4469954235
 51
18.5530045765
  0
ARC
  5
72
330
5E
100
AcDbEntity
  8
DV1_Standard
  6
Continuous
 62
     7
100
AcDbCircle
 10
128.775637172
 20
644.6739086202
 30
0.0
 40
5.999999999999993
100
AcDbArc
 50
337.9071092145
 51
341.4469954235
  0
ARC
  5
73
330
5E
100
AcDbEntity
  8
DV1_Standard
  6
Continuous
 62
     7
100
AcDbCircle
 10
128.775637172
 20
672.6739086806
 30
0.0
 40
6.000000000000001
100
AcDbArc
 50
18.5530045765
 51
22.0898308847
  0
SPLINE
  5
74
330
5E
100
AcDbEntity
  8
DV1_Standard
  6
Continuous
 62
     7
100
AcDbSpline
210
0.0
220
0.0
230
1.0
 70
     8
 71
     3
 72
    20
 73
    16
 74
     0
 42
0.0000000016388538
 43
0.0000000001
 40
0.0
 40
0.0
 40
0.0
 40
0.0
 40
0.0550905565424528
 40
0.1435800698053192
 40
0.232985401709745
 40
0.3196672741000579
 40
0.4077613389483937
 40
0.4935752781283725
 40
0.5812958288825711
 40
0.6672723238157978
 40
0.7558608903205208
 40
0.8413972374567951
 40
0.9173945173739511
 40
0.9695852991407369
 40
1.0
 40
1.0
 40
1.0
 40
1.0
 10
128.77598029565
 20
639.5408659729777
 30
0.0
 10
128.9458552930305
 20
639.5395819493527
 30
0.0
 10
129.3221215412978
 20
639.5384620316191
 30
0.0
 10
129.9839039503468
 20
639.6168560114843
 30
0.0
 10
130.6879544116403
 20
639.7640534015629
 30
0.0
 10
131.3550986718194
 20
639.9734202891581
 30
0.0
 10
131.9583693907516
 20
640.2291055601723
 30
0.0
 10
132.4984331918817
 20
640.5209829800442
 30
0.0
 10
132.9605271490089
 20
640.8303312886618
 30
0.0
 10
133.3520777227512
 20
641.1487679538563
 30
0.0
 10
133.6541955095603
 20
641.4422333279483
 30
0.0
 10
133.8797074568186
 20
641.6968586881839
 30
0.0
 10
134.0238002250038
 20
641.88462470283
 30
0.0
 10
134.0981774787027
 20
641.9915561741171
 30
0.0
 10
134.1052861849047
 20
642.0017630761469
 30
0.0
 10
134.1053847611624
 20
642.001930691076
 30
0.0
  0
SPLINE
  5
75
330
5E
100
AcDbEntity
  8
DV1_Standard
  6
Continuous
 62
     7
100
AcDbSpline
210
0.0
220
0.0
230
1.0
 70
     8
 71
     3
 72
     8
 73
     4
 74
     0
 42
0.0000000625373406
 43
0.0000000001
 40
0.0
 40
0.0
 40
0.0
 40
0.0
 40
1.0
 40
1.0
 40
1.0
 40
1.0
 10
128.7763143574144
 20
639.5380265790483
 30
0.0
 10
128.8315167073052
 20
639.5384200259482
 30
0.0
 10
128.8846037297559
 20
639.5388640530147
 30
0.0
 10
128.9362113985857
 20
639.539519717882
 30
0.0
  0
SPLINE
  5
76
330
5E
100
AcDbEntity
  8
DV1_Standard
  6
Continuous
 62
     7
100
AcDbSpline
210
0.0
220
0.0
230
1.0
 70
     8
 71
     3
 72
    14
 73
    10
 74
     0
 42
0.0000000178148508
 43
0.0000000001
 40
0.0
 40
0.0
 40
0.0
 40
0.0
 40
0.1383638279741779
 40
0.4770100258079895
 40
0.6296646543680378
 40
0.6996830538566615
 40
0.76025215324788
 40
0.8482671931782949
 40
1.0
 40
1.0
 40
1.0
 40
1.0
 10
134.0580630198182
 20
641.9343637415237
 30
0.0
 10
134.0647001525903
 20
641.9434700512503
 30
0.0
 10
134.0859184070093
 20
641.9728241353531
 30
0.0
 10
134.1129931907505
 20
642.0107678055974
 30
0.0
 10
134.1411791924711
 20
642.0518206417972
 30
0.0
 10
134.1684304222572
 20
642.0932888188544
 30
0.0
 10
134.2034866977168
 20
642.1494590100127
 30
0.0
 10
134.2680900399766
 20
642.2619562251515
 30
0.0
 10
134.3071310861012
 20
642.3516332585601
 30
0.0
 10
134.3366621096393
 20
642.419554745342
 30
0.0
  0
LINE
  5
77
330
5E
100
AcDbEntity
  8
DV1_Standard
  6
Continuous
 62
     7
100
AcDbLine
 10
124.3623299529
 20
639.5317517663
 30
0.0
 11
128.775637172
 21
639.5317517663
 31
0.0
  0
ARC
  5
78
330
5E
100
AcDbEntity
  8
DV1_Standard
  6
Continuous
 62
     7
100
AcDbCircle
 10
123.7177536756
 20
623.7651769048
 30
0.0
 40
15.77596678572442
100
AcDbArc
 50
87.6579283251
 51
109.0512712292
  0
SPLINE
  5
79
330
5E
100
AcDbEntity
  8
DV1_Standard
  6
Continuous
 62
     7
100
AcDbSpline
210
0.0
220
0.0
230
1.0
 70
     8
 71
     3
 72
     9
 73
     5
 74
     0
 42
0.0000000427501415
 43
0.0000000001
 40
0.0
 40
0.0
 40
0.0
 40
0.0
 40
0.8323090121148837
 40
1.0
 40
1.0
 40
1.0
 40
1.0
 10
124.1281063607854
 20
639.5322299758784
 30
0.0
 10
124.1938500692187
 20
639.5328523055668
 30
0.0
 10
124.2716808306186
 20
639.532721511514
 30
0.0
 10
124.3472920267789
 20
639.5312487358705
 30
0.0
 10
124.3620034883034
 20
639.5309601920251
 30
0.0
  0
SPLINE
  5
7A
330
5E
100
AcDbEntity
  8
DV1_Standard
  6
Continuous
 62
     7
100
AcDbSpline
210
0.0
220
0.0
230
1.0
 70
     8
 71
     3
 72
    26
 73
    22
 74
     0
 42
0.0000000015197141
 43
0.0000000001
 40
0.0
 40
0.0
 40
0.0
 40
0.0
 40
0.0138509705603317
 40
0.0293202168895423
 40
0.0386925900566305
 40
0.0455984248348919
 40
0.0549653167837818
 40
0.0733410408920531
 40
0.1119906898229158
 40
0.175041194245407
 40
0.2265302174738025
 40
0.2823141221845962
 40
0.3621483593620352
 40
0.439681075680955
 40
0.5247469773772758
 40
0.6009289118365275
 40
0.6837482331355655
 40
0.7667507002983385
 40
0.8466973170203319
 40
0.9287717368371412
 40
1.0
 40
1.0
 40
1.0
 40
1.0
 10
134.3351818588318
 20
674.9274921832451
 30
0.0
 10
134.3175509642161
 20
674.9714508045121
 30
0.0
 10
134.2860696608736
 20
675.049540438644
 30
0.0
 10
134.2278363497216
 20
675.1569872846403
 30
0.0
 10
134.185576467796
 20
675.2273691713292
 30
0.0
 10
134.1616074209158
 20
675.264952939234
 30
0.0
 10
134.1404935540484
 20
675.2969325739483
 30
0.0
 10
134.1162633631462
 20
675.3322954845215
 30
0.0
 10
134.0804843957442
 20
675.382775050195
 30
0.0
 10
134.0335411466639
 20
675.4473275017527
 30
0.0
 10
133.9263933526128
 20
675.5892413047721
 30
0.0
 10
133.7550965408347
 20
675.7951305610161
 30
0.0
 10
133.5068284844851
 20
676.0550599406936
 30
0.0
 10
133.1478812075811
 20
676.3730996500312
 30
0.0
 10
132.708826159867
 20
676.6944784830491
 30
0.0
 10
132.1783330123399
 20
677.0082036033833
 30
0.0
 10
131.5818993227856
 20
677.2873724275994
 30
0.0
 10
130.9079346553953
 20
677.5233528778319
 30
0.0
 10
130.1945100217953
 20
677.6946989974484
 30
0.0
 10
129.4653966181362
 20
677.7991629239044
 30
0.0
 10
129.0207245996856
 20
677.8086032499829
 30
0.0
 10
128.7766463322617
 20
677.8122914056852
 30
0.0
  0
LINE
  5
7B
330
5E
100
AcDbEntity
  8
DV1_Standard
  6
Continuous
 62
     7
100
AcDbLine
 10
128.775637172
 20
677.8160655345
 30
0.0
 11
124.3623299529
 21
677.8160655345
 31
0.0
  0
SPLINE
  5
7C
330
5E
100
AcDbEntity
  8
DV1_Standard
  6
Continuous
 62
     7
100
AcDbSpline
210
0.0
220
0.0
230
1.0
 70
     8
 71
     3
 72
    20
 73
    16
 74
     0
 42
0.0000000018915102
 43
0.0000000001
 40
0.0
 40
0.0
 40
0.0
 40
0.0
 40
0.0091732759665735
 40
0.1002797604409361
 40
0.1921408648658227
 40
0.2832373343820186
 40
0.3752799474557093
 40
0.4674705754762402
 40
0.559066062018811
 40
0.6528631848366707
 40
0.7455588800275864
 40
0.8407323009061128
 40
0.9371322656962557
 40
0.9861039672661129
 40
0.9999999999999999
 40
0.9999999999999999
 40
0.9999999999999999
 40
0.9999999999999999
 10
124.3620346786623
 20
677.817481207305
 30
0.0
 10
124.3343257013897
 20
677.8169701465916
 30
0.0
 10
124.0736862070362
 20
677.8122323935887
 30
0.0
 10
123.5266544782511
 20
677.8321473464631
 30
0.0
 10
122.7974052206118
 20
677.8775062825024
 30
0.0
 10
122.0924032607729
 20
677.9528141740587
 30
0.0
 10
121.437301734586
 20
678.0471674466521
 30
0.0
 10
120.8465610741452
 20
678.153515159981
 30
0.0
 10
120.33044408176
 20
678.2642174201665
 30
0.0
 10
119.8993276358588
 20
678.3691989610201
 30
0.0
 10
119.5602258479812
 20
678.4607090192741
 30
0.0
 10
119.3209269131711
 20
678.5302687503248
 30
0.0
 10
119.1942549333322
 20
678.5689348892279
 30
0.0
 10
119.1549603332393
 20
678.5809972483491
 30
0.0
 10
119.1514669314906
 20
678.5820543960027
 30
0.0
 10
119.1514847877915
 20
678.5820497387901
 30
0.0
  0
ARC
  5
7D
330
5E
100
AcDbEntity
  8
DV1_Standard
  6
Continuous
 62
     7
100
AcDbCircle
 10
123.8056944685
 20
694.1465016226
 30
0.0
 40
16.33882249035431
100
AcDbArc
 50
271.7193992203
 51
271.9500059553
  0
ARC
  5
7E
330
5E
100
AcDbEntity
  8
DV1_Standard
  6
Continuous
 62
     7
100
AcDbCircle
 10
123.8056944685
 20
694.1465016226
 30
0.0
 40
16.33882249035431
100
AcDbArc
 50
251.3039122183
 51
253.6059935638
  0
LINE
  5
7F
330
5E
100
AcDbEntity
  8
DV1_Standard
  6
Continuous
 62
     7
100
AcDbLine
 10
115.5623299529
 20
642.9067281354
 30
0.0
 11
115.5623299529
 21
642.5239086504
 31
0.0
  0
ELLIPSE
  5
80
330
5E
100
AcDbEntity
  8
DV1_Standard
  6
Continuous
 62
     7
100
AcDbEllipse
 10
115.5623299541
 20
658.6739086887
 30
0.0
 11
27.8340211346254
 21
-5.045813806816845
 31
0.0
210
0.0
220
0.0
230
1.0
 40
0.5511787481
 41
-1.485508136431651
 42
-1.471207951997704
  0
LINE
  5
81
330
5E
100
AcDbEntity
  8
DV1_Standard
  6
Continuous
 62
     7
100
AcDbLine
 10
117.0623299529
 20
674.8239086504
 30
0.0
 11
115.5623299529
 21
674.8239086504
 31
0.0
  0
LINE
  5
82
330
5E
100
AcDbEntity
  8
DV1_Standard
  6
Continuous
 62
     7
100
AcDbLine
 10
115.5623299529
 20
642.5239086504
 30
0.0
 11
117.0623299529
 21
642.5239086504
 31
0.0
  0
LINE
  5
83
330
5E
100
AcDbEntity
  8
DV1_Standard
  6
Continuous
 62
     7
100
AcDbLine
 10
115.1623299529
 20
678.4739086504
 30
0.0
 11
115.1623299529
 21
638.8739086504
 31
0.0
  0
LINE
  5
84
330
5E
100
AcDbEntity
  8
DV1_Standard
  6
Continuous
 62
     7
100
AcDbLine
 10
114.9623375683
 20
678.6721633433
 30
0.0
 11
113.3326502116
 21
678.6579412772
 31
0.0
  0
LINE
  5
85
330
5E
100
AcDbEntity
  8
DV1_Standard
  6
Continuous
 62
     7
100
AcDbLine
 10
113.322683
 20
638.6899630061
 30
0.0
 11
114.9623375683
 21
638.6756539575
 31
0.0
  0
LINE
  5
86
330
5E
100
AcDbEntity
  8
DV1_Standard
  6
Continuous
 62
     7
100
AcDbLine
 10
114.9623375683
 20
638.6756539575
 30
0.0
 11
115.1623299529
 21
638.8739086504
 31
0.0
  0
LINE
  5
87
330
5E
100
AcDbEntity
  8
DV1_Standard
  6
Continuous
 62
     7
100
AcDbLine
 10
115.1623299529
 20
678.4739086504
 30
0.0
 11
114.9623375683
 21
678.6721633433
 31
0.0
  0
LINE
  5
88
330
5E
100
AcDbEntity
  8
DV1_Standard
  6
Continuous
 62
     7
100
AcDbLine
 10
86.0986197326
 20
678.6652318596
 30
0.0
 11
82.162634609
 21
678.6652318596
 31
0.0
  0
LINE
  5
89
330
5E
100
AcDbEntity
  8
DV1_Standard
  6
Continuous
 62
     7
100
AcDbLine
 10
113.1510636142
 20
638.6825870296
 30
0.0
 11
104.5623299529
 21
638.6825870296
 31
0.0
  0
LINE
  5
8A
330
5E
100
AcDbEntity
  8
DV1_Standard
  6
Continuous
 62
     7
100
AcDbLine
 10
82.1735962916
 20
638.6825870296
 30
0.0
 11
90.4799896662
 21
638.6825870296
 31
0.0
  0
LINE
  5
8B
330
5E
100
AcDbEntity
  8
DV1_Standard
  6
Continuous
 62
     7
100
AcDbLine
 10
113.1620252968
 20
678.6652318596
 30
0.0
 11
109.2260401732
 21
678.6652318596
 31
0.0
  0
LINE
  5
8C
330
5E
100
AcDbEntity
  8
DV1_Standard
  6
Continuous
 62
     7
100
AcDbLine
 10
88.6623299529
 20
676.0539999311
 30
0.0
 11
88.6623299529
 21
641.2938189582
 31
0.0
  0
LINE
  5
8D
330
5E
100
AcDbEntity
  8
DV1_Standard
  6
Continuous
 62
     7
100
AcDbLine
 10
88.6623299529
 20
641.2938189582
 30
0.0
 11
88.6623299529
 21
639.7940474155
 31
0.0
  0
LINE
  5
8E
330
5E
100
AcDbEntity
  8
DV1_Standard
  6
Continuous
 62
     7
100
AcDbLine
 10
88.6623299529
 20
639.7940474155
 30
0.0
 11
88.6623299529
 21
639.7357025034
 31
0.0
  0
ARC
  5
8F
330
5E
100
AcDbEntity
  8
DV1_Standard
  6
Continuous
 62
     7
100
AcDbCircle
 10
88.1218843684
 20
639.74425889
 30
0.0
 40
0.5405133129752641
100
AcDbArc
 50
274.2913454288
 51
359.0929634655
  0
LINE
  5
90
330
5E
100
AcDbEntity
  8
DV1_Standard
  6
Continuous
 62
     7
100
AcDbLine
 10
106.6623299529
 20
639.7357025034
 30
0.0
 11
106.6623299529
 21
639.7940474155
 31
0.0
  0
LINE
  5
91
330
5E
100
AcDbEntity
  8
DV1_Standard
  6
Continuous
 62
     7
100
AcDbLine
 10
106.6623299529
 20
639.7940474155
 30
0.0
 11
106.6623299529
 21
641.2938189582
 31
0.0
  0
LINE
  5
92
330
5E
100
AcDbEntity
  8
DV1_Standard
  6
Continuous
 62
     7
100
AcDbLine
 10
106.6623299529
 20
641.2938189582
 30
0.0
 11
106.6623299529
 21
676.0539999311
 31
0.0
  0
LINE
  5
93
330
5E
100
AcDbEntity
  8
DV1_Standard
  6
Continuous
 62
     7
100
AcDbLine
 10
106.6623299529
 20
676.0539999311
 30
0.0
 11
106.6623299529
 21
677.2033851082
 31
0.0
  0
ARC
  5
94
330
5E
100
AcDbEntity
  8
DV1_Standard
  6
Continuous
 62
     7
100
AcDbCircle
 10
107.2027723456
 20
639.7442558814
 30
0.0
 40
0.5405100739762788
100
AcDbArc
 50
180.9067230086
 51
265.7089680972
  0
ARC
  5
95
330
5E
100
AcDbEntity
  8
DV1_Standard
  6
Continuous
 62
     7
100
AcDbCircle
 10
109.4861126095
 20
670.5456175284
 30
0.0
 40
7.509164208947933
100
AcDbArc
 50
90.974642051
 51
108.0266641306
  0
SPLINE
  5
96
330
5E
100
AcDbEntity
  8
DV1_Standard
  6
Continuous
 62
     7
100
AcDbSpline
210
0.0
220
0.0
230
1.0
 70
     8
 71
     3
 72
    12
 73
     8
 74
     0
 42
0.0000000134108288
 43
0.0000000001
 40
0.0
 40
0.0
 40
0.0
 40
0.0
 40
0.2500000000000003
 40
0.2500000000000003
 40
0.5000000000000007
 40
0.5000000000000007
 40
1.0
 40
1.0
 40
1.0
 40
1.0
 10
107.1623299528868
 20
677.6861764198648
 30
0.0
 10
107.1025328881419
 20
677.6669273055775
 30
0.0
 10
107.0409135830065
 20
677.6413686954212
 30
0.0
 10
106.9219642480374
 20
677.5763572277027
 30
0.0
 10
106.8653814005239
 20
677.5370436092628
 30
0.0
 10
106.7216853503883
 20
677.4048346218177
 30
0.0
 10
106.6623299528868
 20
677.2946389033314
 30
0.0
 10
106.6623299528868
 20
677.203385108179
 30
0.0
  0
LINE
  5
97
330
5E
100
AcDbEntity
  8
DV1_Standard
  6
Continuous
 62
     7
100
AcDbLine
 10
88.6623299529
 20
677.2033851082
 30
0.0
 11
88.6623299529
 21
676.0539999311
 31
0.0
  0
SPLINE
  5
98
330
5E
100
AcDbEntity
  8
DV1_Standard
  6
Continuous
 62
     7
100
AcDbSpline
210
0.0
220
0.0
230
1.0
 70
     8
 71
     3
 72
    10
 73
     6
 74
     0
 42
0.00000001336946
 43
0.0000000001
 40
0.0
 40
0.0
 40
0.0
 40
0.0
 40
0.5
 40
0.5
 40
1.0
 40
1.0
 40
1.0
 40
1.0
 10
88.66232995288678
 20
677.203385108179
 30
0.0
 10
88.66232995288678
 20
677.2945564045247
 30
0.0
 10
88.60321621371182
 20
677.404538209985
 30
0.0
 10
88.41156502254819
 20
677.5810167829377
 30
0.0
 10
88.2818491438503
 20
677.6477023145519
 30
0.0
 10
88.16232995288678
 20
677.6861764198648
 30
0.0
  0
ARC
  5
99
330
5E
100
AcDbEntity
  8
DV1_Standard
  6
Continuous
 62
     7
100
AcDbCircle
 10
85.8385472963
 20
670.5456175284
 30
0.0
 40
7.509164208948048
100
AcDbArc
 50
71.9733358694
 51
89.025357949
  0
LINE
  5
9A
330
5E
100
AcDbEntity
  8
DV1_Standard
  6
Continuous
 62
     7
100
AcDbLine
 10
86.0976047612
 20
678.0513506964
 30
0.0
 11
86.02943269
 21
678.0531850691
 31
0.0
  0
LINE
  5
9B
330
5E
100
AcDbEntity
  8
DV1_Standard
  6
Continuous
 62
     7
100
AcDbLine
 10
80.1623299529
 20
638.8739086504
 30
0.0
 11
80.1623299529
 21
678.4739086504
 31
0.0
  0
LINE
  5
9C
330
5E
100
AcDbEntity
  8
DV1_Standard
  6
Continuous
 62
     7
100
AcDbLine
 10
80.3623223375
 20
638.6756539575
 30
0.0
 11
82.0019769058
 21
638.6899630061
 31
0.0
  0
LINE
  5
9D
330
5E
100
AcDbEntity
  8
DV1_Standard
  6
Continuous
 62
     7
100
AcDbLine
 10
81.9920096942
 20
678.6579412772
 30
0.0
 11
80.3623223375
 21
678.6721633433
 31
0.0
  0
LINE
  5
9E
330
5E
100
AcDbEntity
  8
DV1_Standard
  6
Continuous
 62
     7
100
AcDbLine
 10
80.3623223375
 20
678.6721633433
 30
0.0
 11
80.1623299529
 21
678.4739086504
 31
0.0
  0
LINE
  5
9F
330
5E
100
AcDbEntity
  8
DV1_Standard
  6
Continuous
 62
     7
100
AcDbLine
 10
80.1623299529
 20
638.8739086504
 30
0.0
 11
80.3623223375
 21
638.6756539575
 31
0.0
  0
LINE
  5
A0
330
5E
100
AcDbEntity
  8
DV1_Standard
  6
Continuous
 62
     7
100
AcDbLine
 10
47.6623299529
 20
638.6739086504
 30
0.0
 11
47.6623299529
 21
678.6739086504
 31
0.0
  0
LINE
  5
A1
330
5E
100
AcDbEntity
  8
DV1_Standard
  6
Continuous
 62
     7
100
AcDbLine
 10
79.6623299529
 20
638.6739086504
 30
0.0
 11
79.6623299529
 21
678.6739086504
 31
0.0
  0
ARC
  5
A2
330
5E
100
AcDbEntity
  8
DV1_Standard
  6
Continuous
 62
     7
100
AcDbCircle
 10
63.6623298632
 20
623.1897362883
 30
0.0
 40
20.05796839225775
100
AcDbArc
 50
50.5312253397
 51
129.4687715645
  0
ARC
  5
A3
330
5E
100
AcDbEntity
  8
DV1_Standard
  6
Continuous
 62
     7
100
AcDbCircle
 10
63.6623300426
 20
694.1580810124
 30
0.0
 40
20.05796839225777
100
AcDbArc
 50
230.5312253397
 51
309.4687715645
  0
LINE
  5
A4
330
5E
100
AcDbEntity
  8
DV1_Standard
  6
Continuous
 62
     7
100
AcDbLine
 10
76.4123299529
 20
638.6739086504
 30
0.0
 11
79.6623299529
 21
638.6739086504
 31
0.0
  0
LINE
  5
A5
330
5E
100
AcDbEntity
  8
DV1_Standard
  6
Continuous
 62
     7
100
AcDbLine
 10
47.6623299529
 20
638.6739086504
 30
0.0
 11
50.9314531198
 21
638.6739086504
 31
0.0
  0
LINE
  5
A6
330
5E
100
AcDbEntity
  8
DV1_Standard
  6
Continuous
 62
     7
100
AcDbLine
 10
50.9123299529
 20
678.6739086504
 30
0.0
 11
47.6623299529
 21
678.6739086504
 31
0.0
  0
LINE
  5
A7
330
5E
100
AcDbEntity
  8
DV1_Standard
  6
Continuous
 62
     7
100
AcDbLine
 10
79.6623299529
 20
678.6739086504
 30
0.0
 11
76.393206786
 21
678.6739086504
 31
0.0
  0
LINE
  5
A8
330
5E
100
AcDbEntity
  8
DV1_Standard
  6
Continuous
 62
     7
100
AcDbLine
 10
45.1123299529
 20
638.6739086202
 30
0.0
 11
45.1123299529
 21
678.6739086806
 31
0.0
  0
LINE
  5
A9
330
5E
100
AcDbEntity
  8
DV1_Standard
  6
Continuous
 62
     7
100
AcDbLine
 10
43.6061441951
 20
638.6739086202
 30
0.0
 11
45.1123299529
 21
638.6739086202
 31
0.0
  0
LINE
  5
AA
330
5E
100
AcDbEntity
  8
DV1_Standard
  6
Continuous
 62
     7
100
AcDbLine
 10
45.1123299529
 20
678.6739086806
 30
0.0
 11
43.6061441951
 21
678.6739086806
 31
0.0
  0
ARC
  5
AB
330
5E
100
AcDbEntity
  8
DV1_Standard
  6
Continuous
 62
     7
100
AcDbCircle
 10
75.1123299529
 20
658.6739086504
 30
0.0
 40
49.99999999999982
100
AcDbArc
 50
161.4469954235
 51
198.5530045765
  0
ARC
  5
AC
330
5E
100
AcDbEntity
  8
DV1_Standard
  6
Continuous
 62
     7
100
AcDbCircle
 10
33.3990227338
 20
672.6739086806
 30
0.0
 40
6.0
100
AcDbArc
 50
157.9071092145
 51
161.4469954234
  0
ARC
  5
AD
330
5E
100
AcDbEntity
  8
DV1_Standard
  6
Continuous
 62
     7
100
AcDbCircle
 10
33.3990227338
 20
644.6739086202
 30
0.0
 40
5.999999999999994
100
AcDbArc
 50
198.5530045765
 51
202.0898308847
  0
SPLINE
  5
AE
330
5E
100
AcDbEntity
  8
DV1_Standard
  6
Continuous
 62
     7
100
AcDbSpline
210
0.0
220
0.0
230
1.0
 70
     8
 71
     3
 72
    20
 73
    16
 74
     0
 42
0.0000000016388538
 43
0.0000000001
 40
0.0
 40
0.0
 40
0.0
 40
0.0
 40
0.0550905565424529
 40
0.1435800698053184
 40
0.2329854017097442
 40
0.319667274100057
 40
0.4077613389483928
 40
0.4935752781283709
 40
0.58129582888257
 40
0.6672723238157968
 40
0.7558608903205194
 40
0.8413972374567936
 40
0.9173945173739493
 40
0.9695852991407351
 40
1.0
 40
1.0
 40
1.0
 40
1.0
 10
33.39867961012354
 20
677.8069513278061
 30
0.0
 10
33.22880461274301
 20
677.808235351431
 30
0.0
 10
32.85253836447568
 20
677.8093552691646
 30
0.0
 10
32.19075595542675
 20
677.7309612892994
 30
0.0
 10
31.48670549413314
 20
677.5837638992211
 30
0.0
 10
30.81956123395423
 20
677.3743970116255
 30
0.0
 10
30.21629051502196
 20
677.1187117406114
 30
0.0
 10
29.67622671389186
 20
676.8268343207393
 30
0.0
 10
29.21413275676451
 20
676.5174860121215
 30
0.0
 10
28.82258218302237
 20
676.1990493469276
 30
0.0
 10
28.52046439621326
 20
675.905583972835
 30
0.0
 10
28.29495244895504
 20
675.6509586125999
 30
0.0
 10
28.15085968076975
 20
675.4631925979537
 30
0.0
 10
28.07648242707086
 20
675.3562611266664
 30
0.0
 10
28.06937372086885
 20
675.3460542246369
 30
0.0
 10
28.0692751446111
 20
675.3458866097078
 30
0.0
  0
SPLINE
  5
AF
330
5E
100
AcDbEntity
  8
DV1_Standard
  6
Continuous
 62
     7
100
AcDbSpline
210
0.0
220
0.0
230
1.0
 70
     8
 71
     3
 72
     8
 73
     4
 74
     0
 42
0.0000000625373406
 43
0.0000000001
 40
0.0
 40
0.0
 40
0.0
 40
0.0
 40
1.0
 40
1.0
 40
1.0
 40
1.0
 10
33.3983455483591
 20
677.8097907217356
 30
0.0
 10
33.34314319846789
 20
677.8093972748355
 30
0.0
 10
33.2900561760169
 20
677.8089532477692
 30
0.0
 10
33.2384485071868
 20
677.8082975829018
 30
0.0
  0
SPLINE
  5
B0
330
5E
100
AcDbEntity
  8
DV1_Standard
  6
Continuous
 62
     7
100
AcDbSpline
210
0.0
220
0.0
230
1.0
 70
     8
 71
     3
 72
    14
 73
    10
 74
     0
 42
0.0000000178148508
 43
0.0000000001
 40
0.0
 40
0.0
 40
0.0
 40
0.0
 40
0.1383638279742103
 40
0.4770100258080098
 40
0.6296646543680511
 40
0.6996830538566723
 40
0.7602521532478901
 40
0.8482671931783019
 40
1.0
 40
1.0
 40
1.0
 40
1.0
 10
28.11659688595535
 20
675.41345355926
 30
0.0
 10
28.10995975318321
 20
675.4043472495333
 30
0.0
 10
28.08874149876418
 20
675.374993165431
 30
0.0
 10
28.0616667150229
 20
675.3370494951869
 30
0.0
 10
28.03348071330244
 20
675.295996658986
 30
0.0
 10
28.00622948351631
 20
675.2545284819298
 30
0.0
 10
27.97117320805668
 20
675.1983582907706
 30
0.0
 10
27.90656986579693
 20
675.0858610756325
 30
0.0
 10
27.86752881967232
 20
674.9961840422236
 30
0.0
 10
27.83799779613425
 20
674.9282625554418
 30
0.0
  0
LINE
  5
B1
330
5E
100
AcDbEntity
  8
DV1_Standard
  6
Continuous
 62
     7
100
AcDbLine
 10
37.8123299529
 20
677.8160655345
 30
0.0
 11
33.3990227338
 21
677.8160655345
 31
0.0
  0
ARC
  5
B2
330
5E
100
AcDbEntity
  8
DV1_Standard
  6
Continuous
 62
     7
100
AcDbCircle
 10
38.4569062302
 20
693.5826403959
 30
0.0
 40
15.77596678572118
100
AcDbArc
 50
267.6579283251
 51
289.0512712292
  0
SPLINE
  5
B3
330
5E
100
AcDbEntity
  8
DV1_Standard
  6
Continuous
 62
     7
100
AcDbSpline
210
0.0
220
0.0
230
1.0
 70
     8
 71
     3
 72
    10
 73
     6
 74
     0
 42
0.0000001309291167
 43
0.0000000001
 40
0.0
 40
0.0
 40
0.0
 40
0.0
 40
0.2291601403353292
 40
0.8580540462900232
 40
1.0
 40
1.0
 40
1.0
 40
1.0
 10
43.02362407845462
 20
678.5821982425872
 30
0.0
 10
43.02382923964566
 20
678.5822625626431
 30
0.0
 10
43.01518828740922
 20
678.5795827420739
 30
0.0
 10
42.98785754410699
 20
678.5712350897282
 30
0.0
 10
42.95699867842133
 20
678.5618386727219
 30
0.0
 10
42.95098997741448
 20
678.5600115621497
 30
0.0
  0
SPLINE
  5
B4
330
5E
100
AcDbEntity
  8
DV1_Standard
  6
Continuous
 62
     7
100
AcDbSpline
210
0.0
220
0.0
230
1.0
 70
     8
 71
     3
 72
     9
 73
     5
 74
     0
 42
0.0000000427501415
 43
0.0000000001
 40
0.0
 40
0.0
 40
0.0
 40
0.0
 40
0.8323090121148954
 40
0.9999999999999999
 40
0.9999999999999999
 40
0.9999999999999999
 40
0.9999999999999999
 10
38.04655354498817
 20
677.8155873249051
 30
0.0
 10
37.98080983655488
 20
677.8149649952168
 30
0.0
 10
37.90297907515498
 20
677.8150957892697
 30
0.0
 10
37.82736787899467
 20
677.8165685649134
 30
0.0
 10
37.81265641747018
 20
677.8168571087588
 30
0.0
  0
SPLINE
  5
B5
330
5E
100
AcDbEntity
  8
DV1_Standard
  6
Continuous
 62
     7
100
AcDbSpline
210
0.0
220
0.0
230
1.0
 70
     8
 71
     3
 72
    26
 73
    22
 74
     0
 42
0.0000000015197141
 43
0.0000000001
 40
0.0
 40
0.0
 40
0.0
 40
0.0
 40
0.0138509705603315
 40
0.0293202168895425
 40
0.0386925900566299
 40
0.0455984248348921
 40
0.0549653167837819
 40
0.0733410408920533
 40
0.111990689822916
 40
0.1750411942454074
 40
0.226530217473803
 40
0.282314122184596
 40
0.3621483593620357
 40
0.4396810756809553
 40
0.5247469773772758
 40
0.6009289118365281
 40
0.6837482331355662
 40
0.7667507002983389
 40
0.8466973170203325
 40
0.9287717368371425
 40
1.0
 40
1.0
 40
1.0
 40
1.0
 10
27.83947804694178
 20
642.4203251175387
 30
0.0
 10
27.8571089415575
 20
642.3763664962718
 30
0.0
 10
27.88859024490001
 20
642.2982768621401
 30
0.0
 10
27.94682355605194
 20
642.190830016143
 30
0.0
 10
27.98908343797761
 20
642.1204481294546
 30
0.0
 10
28.01305248485766
 20
642.0828643615497
 30
0.0
 10
28.03416635172515
 20
642.0508847268352
 30
0.0
 10
28.05839654262737
 20
642.0155218162624
 30
0.0
 10
28.09417551002935
 20
641.9650422505885
 30
0.0
 10
28.14111875910968
 20
641.9004897990312
 30
0.0
 10
28.24826655316073
 20
641.7585759960117
 30
0.0
 10
28.41956336493893
 20
641.5526867397672
 30
0.0
 10
28.66783142128843
 20
641.2927573600906
 30
0.0
 10
29.02677869819247
 20
640.9747176507524
 30
0.0
 10
29.46583374590658
 20
640.6533388177346
 30
0.0
 10
29.99632689343358
 20
640.3396136974003
 30
0.0
 10
30.59276058298793
 20
640.0604448731851
 30
0.0
 10
31.26672525037833
 20
639.8244644229516
 30
0.0
 10
31.98014988397832
 20
639.6531183033356
 30
0.0
 10
32.70926328763738
 20
639.5486543768791
 30
0.0
 10
33.15393530608792
 20
639.539214050801
 30
0.0
 10
33.39801357351184
 20
639.5355258950985
 30
0.0
  0
LINE
  5
B6
330
5E
100
AcDbEntity
  8
DV1_Standard
  6
Continuous
 62
     7
100
AcDbLine
 10
33.3990227338
 20
639.5317517663
 30
0.0
 11
37.8123299529
 21
639.5317517663
 31
0.0
  0
SPLINE
  5
B7
330
5E
100
AcDbEntity
  8
DV1_Standard
  6
Continuous
 62
     7
100
AcDbSpline
210
0.0
220
0.0
230
1.0
 70
     8
 71
     3
 72
    20
 73
    16
 74
     0
 42
0.0000000018915102
 43
0.0000000001
 40
0.0
 40
0.0
 40
0.0
 40
0.0
 40
0.009173275966574
 40
0.1002797604409372
 40
0.1921408648658244
 40
0.2832373343820202
 40
0.3752799474557126
 40
0.4674705754762438
 40
0.559066062018815
 40
0.652863184836675
 40
0.745558880027592
 40
0.8407323009061183
 40
0.9371322656962627
 40
0.9861039672661195
 40
1.0
 40
1.0
 40
1.0
 40
1.0
 10
37.81262522711125
 20
639.5303360934788
 30
0.0
 10
37.84033420438389
 20
639.5308471541922
 30
0.0
 10
38.10097369873712
 20
639.535584907195
 30
0.0
 10
38.64800542752246
 20
639.5156699543203
 30
0.0
 10
39.3772546851617
 20
639.4703110182816
 30
0.0
 10
40.0822566450007
 20
639.3950031267246
 30
0.0
 10
40.73735817118757
 20
639.3006498541312
 30
0.0
 10
41.3280988316284
 20
639.1943021408032
 30
0.0
 10
41.84421582401353
 20
639.0835998806174
 30
0.0
 10
42.27533226991481
 20
638.9786183397637
 30
0.0
 10
42.61443405779229
 20
638.88710828151
 30
0.0
 10
42.8537329926025
 20
638.8175485504589
 30
0.0
 10
42.98040497244149
 20
638.7788824115559
 30
0.0
 10
43.01969957253411
 20
638.7668200524341
 30
0.0
 10
43.02319297428298
 20
638.7657629047814
 30
0.0
 10
43.02317511798209
 20
638.765767561994
 30
0.0
  0
ARC
  5
B8
330
5E
100
AcDbEntity
  8
DV1_Standard
  6
Continuous
 62
     7
100
AcDbCircle
 10
38.3689654373
 20
623.2013156781
 30
0.0
 40
16.33882249035082
100
AcDbArc
 50
91.7193992203
 51
91.9500059553
  0
ARC
  5
B9
330
5E
100
AcDbEntity
  8
DV1_Standard
  6
Continuous
 62
     7
100
AcDbCircle
 10
38.3689654373
 20
623.2013156781
 30
0.0
 40
16.33882249035082
100
AcDbArc
 50
71.3039122183
 51
73.6059935638
  0
LINE
  5
BA
330
5E
100
AcDbEntity
  8
DV1_Standard
  6
Continuous
 62
     7
100
AcDbLine
 10
45.1123299529
 20
650.6739086504
 30
0.0
 11
46.9623299529
 21
650.6739086504
 31
0.0
  0
LINE
  5
BB
330
5E
100
AcDbEntity
  8
DV1_Standard
  6
Continuous
 62
     7
100
AcDbLine
 10
46.9623299529
 20
666.6739086504
 30
0.0
 11
45.1123299529
 21
666.6739086504
 31
0.0
  0
LINE
  5
BC
330
5E
100
AcDbEntity
  8
DV1_Standard
  6
Continuous
 62
     7
100
AcDbLine
 10
76.0623299529
 20
372.0271474401
 30
0.0
 11
76.0623299529
 21
480.0236411796
 31
0.0
  0
LINE
  5
BD
330
5E
100
AcDbEntity
  8
DV1_Standard
  6
Continuous
 62
     7
100
AcDbLine
 10
76.0623299529
 20
504.5323145508
 30
0.0
 11
76.0623299529
 21
638.895099375
 31
0.0
  0
LINE
  5
BE
330
5E
100
AcDbEntity
  8
DV1_Standard
  6
Continuous
 62
     7
100
AcDbLine
 10
76.0623299529
 20
678.4532800408
 30
0.0
 11
76.0623299529
 21
821.0933992811
 31
0.0
  0
LINE
  5
BF
330
5E
100
AcDbEntity
  8
DV1_Standard
  6
Continuous
 62
     7
100
AcDbLine
 10
76.0623299529
 20
921.5894541229
 30
0.0
 11
76.0623299529
 21
960.321152356
 31
0.0
  0
LINE
  5
C0
330
5E
100
AcDbEntity
  8
DV1_Standard
  6
Continuous
 62
     7
100
AcDbLine
 10
51.2623299529
 20
960.3206698607
 30
0.0
 11
51.2623299529
 21
904.6847402504
 31
0.0
  0
LINE
  5
C1
330
5E
100
AcDbEntity
  8
DV1_Standard
  6
Continuous
 62
     7
100
AcDbLine
 10
51.2623299529
 20
845.1919893637
 30
0.0
 11
51.2623299529
 21
678.4527179258
 31
0.0
  0
LINE
  5
C2
330
5E
100
AcDbEntity
  8
DV1_Standard
  6
Continuous
 62
     7
100
AcDbLine
 10
51.2623299529
 20
638.89453726
 30
0.0
 11
51.2623299529
 21
508.3648804271
 31
0.0
  0
LINE
  5
C3
330
5E
100
AcDbEntity
  8
DV1_Standard
  6
Continuous
 62
     7
100
AcDbLine
 10
51.2623299529
 20
480.0236411796
 30
0.0
 11
51.2623299529
 21
372.0266649448
 31
0.0
  0
ARC
  5
C4
330
5E
100
AcDbEntity
  8
DV1_Standard
  6
Continuous
 62
     7
100
AcDbCircle
 10
63.6623299529
 20
976.1739086504
 30
0.0
 40
20.5
100
AcDbArc
 50
0.0
 51
232.7799331314
  0
ARC
  5
C5
330
5E
100
AcDbEntity
  8
DV1_Standard
  6
Continuous
 62
     7
100
AcDbCircle
 10
63.6623299529
 20
976.1739086504
 30
0.0
 40
20.5
100
AcDbArc
 50
307.2200668686
 51
0.0
  0
ARC
  5
C6
330
5E
100
AcDbEntity
  8
DV1_Standard
  6
Continuous
 62
     7
100
AcDbCircle
 10
63.6623373611
 20
976.1206619801
 30
0.0
 40
20.10761535968723
100
AcDbArc
 50
231.9213823692
 51
309.3518181293
  0
ARC
  5
C7
330
5E
100
AcDbEntity
  8
DV1_Standard
  6
Continuous
 62
     7
100
AcDbCircle
 10
63.6623299529
 20
356.1739086504
 30
0.0
 40
20.0
100
AcDbArc
 50
277.1807557815
 51
262.8192442185
  0
LINE
  5
C8
330
5E
100
AcDbEntity
  8
DV1_Standard
  6
Continuous
 62
     7
100
AcDbLine
 10
61.1623299529
 20
336.3157305443
 30
0.0
 11
61.1623299529
 21
336.3307738174
 31
0.0
  0
LINE
  5
C9
330
5E
100
AcDbEntity
  8
DV1_Standard
  6
Continuous
 62
     7
100
AcDbLine
 10
66.1623299529
 20
336.3307738174
 30
0.0
 11
66.1623299529
 21
336.3157305443
 31
0.0
  0
ARC
  5
CA
330
5E
100
AcDbEntity
  8
DV1_Standard
  6
Continuous
 62
     7
100
AcDbCircle
 10
63.6623299529
 20
356.1739086504
 30
0.0
 40
20.01492537313434
100
AcDbArc
 50
262.8246271768
 51
277.1753728232
  0
ARC
  5
CB
330
5E
100
AcDbEntity
  8
DV1_Standard
  6
Continuous
 62
     7
100
AcDbCircle
 10
96.2147058619
 20
879.506562264
 30
0.0
 40
51.74278696992787
100
AcDbArc
 50
210.0689808763
 51
271.6031910861
  0
ARC
  5
CC
330
5E
100
AcDbEntity
  8
DV1_Standard
  6
Continuous
 62
     7
100
AcDbCircle
 10
99.0339485858
 20
879.7083098671
 30
0.0
 40
51.94239329939355
100
AcDbArc
 50
268.4868410957
 51
328.6723438733
  0
ELLIPSE
  5
CD
330
5E
100
AcDbEntity
  8
DV1_Standard
  6
Continuous
 62
     7
100
AcDbEllipse
 10
97.6623299529
 20
865.534892893
 30
0.0
 11
12.35900361025863
 21
0.0
 31
0.0
210
0.0
220
0.0
230
1.0
 40
0.8660254038
 41
0.0409357802444335
 42
6.204961202254792
  0
LINE
  5
CE
330
5E
100
AcDbEntity
  8
DV1_Standard
  6
Continuous
 62
     7
100
AcDbLine
 10
95.1620881836
 20
687.1739094446
 30
0.0
 11
95.1620881836
 21
687.1800990492
 31
0.0
  0
ARC
  5
CF
330
5E
100
AcDbEntity
  8
DV1_Standard
  6
Continuous
 62
     7
100
AcDbCircle
 10
86.4123299529
 20
687.1739094446
 30
0.0
 40
0.5000000000000004
100
AcDbArc
 50
180.0
 51
270.0
  0
ARC
  5
D0
330
5E
100
AcDbEntity
  8
DV1_Standard
  6
Continuous
 62
     7
100
AcDbCircle
 10
108.9123299529
 20
687.1739094446
 30
0.0
 40
0.5000000000000004
100
AcDbArc
 50
270.0
 51
0.0
  0
ARC
  5
D1
330
5E
100
AcDbEntity
  8
DV1_Standard
  6
Continuous
 62
     7
100
AcDbCircle
 10
106.5320626857
 20
-1062.2639957333
 30
0.0
 40
1749.444979296976
100
AcDbArc
 50
89.9046951718
 51
89.9773457944
  0
LINE
  5
D2
330
5E
100
AcDbEntity
  8
DV1_Standard
  6
Continuous
 62
     7
100
AcDbLine
 10
97.6623299529
 20
687.1798588601
 30
0.0
 11
97.9623263496
 21
687.1798480505
 31
0.0
  0
ELLIPSE
  5
D3
330
5E
100
AcDbEntity
  8
DV1_Standard
  6
Continuous
 62
     7
100
AcDbEllipse
 10
97.654634258
 20
687.1761204943
 30
0.0
 11
-11.99999999220989
 21
0.0004323917046633596
 31
0.0
210
0.0
220
0.0
230
1.0
 40
0.0003467339
 41
2.940295144726067
 42
4.646876666207243
  0
LINE
  5
D4
330
5E
100
AcDbEntity
  8
DV1_Standard
  6
Continuous
 62
     7
100
AcDbLine
 10
97.9623227464
 20
687.1801647909
 30
0.0
 11
98.4402199581
 21
687.1802440686
 31
0.0
  0
ELLIPSE
  5
D5
330
5E
100
AcDbEntity
  8
DV1_Standard
  6
Continuous
 62
     7
100
AcDbEllipse
 10
97.6623299529
 20
872.2315728848
 30
0.0
 11
51.65000000000004
 21
-3.330669073875470E-13
 31
0.0
210
0.0
220
0.0
230
1.0
 40
0.8660254038
 41
-0.447532300101392
 42
3.589124953691197
  0
ELLIPSE
  5
D6
330
5E
100
AcDbEntity
  8
DV1_Standard
  6
Continuous
 62
     7
100
AcDbEllipse
 10
97.6700256478
 20
687.1761204943
 30
0.0
 11
11.9999999922099
 21
0.0004323917046633596
 31
0.0
210
0.0
220
0.0
230
1.0
 40
0.0003467339
 41
1.636308640972343
 42
3.34289016245359
  0
ARC
  5
D7
330
5E
100
AcDbEntity
  8
DV1_Standard
  6
Continuous
 62
     7
100
AcDbCircle
 10
88.7925972201
 20
-1062.2639957333
 30
0.0
 40
1749.444979296977
100
AcDbArc
 50
90.0226542056
 51
90.1421677264
  0
LINE
  5
D8
330
5E
100
AcDbEntity
  8
DV1_Standard
  6
Continuous
 62
     7
100
AcDbLine
 10
97.6623299529
 20
687.1798588601
 30
0.0
 11
97.3623335562
 21
687.1798480505
 31
0.0
  0
LINE
  5
D9
330
5E
100
AcDbEntity
  8
DV1_Standard
  6
Continuous
 62
     7
100
AcDbLine
 10
97.3623371594
 20
687.1801647909
 30
0.0
 11
96.8844399477
 21
687.1802440686
 31
0.0
  0
SPLINE
  5
DA
330
5E
100
AcDbEntity
  8
DV1_Standard
  6
Continuous
 62
     7
100
AcDbSpline
210
0.0
220
0.0
230
1.0
 70
     8
 71
     3
 72
    73
 73
    69
 74
     0
 42
0.0000000000930861
 43
0.0000000001
 40
0.0
 40
0.0
 40
0.0
 40
0.0
 40
0.0217480566859011
 40
0.0444743597128122
 40
0.0645975599938477
 40
0.0838983003116819
 40
0.1016463759049208
 40
0.1178731635714603
 40
0.1342100988083474
 40
0.1485111892964996
 40
0.1615427589817698
 40
0.1730844650374047
 40
0.1868854772747013
 40
0.1983518377071565
 40
0.2121407869581289
 40
0.2288354976287395
 40
0.2409846366981286
 40
0.2558228588303033
 40
0.2730079689597983
 40
0.2876777862301605
 40
0.2994575691993749
 40
0.3116682037334726
 40
0.3255996466440821
 40
0.339133796401204
 40
0.3490788953981587
 40
0.359101166502771
 40
0.3709957316908573
 40
0.3833807562765289
 40
0.3903549836174358
 40
0.3981590240101285
 40
0.4068636082709354
 40
0.4165438327947594
 40
0.4272772279454254
 40
0.4391839909381068
 40
0.4554168191352917
 40
0.4703883418180101
 40
0.4833780880584084
 40
0.494075298267669
 40
0.5068044703865531
 40
0.5215088100880835
 40
0.5387498112208625
 40
0.5581849571881582
 40
0.5778832674175086
 40
0.5946855385346865
 40
0.6091194534291565
 40
0.6300874679386999
 40
0.6547032001765211
 40
0.6784487320605116
 40
0.6996477588304636
 40
0.7145988547436685
 40
0.7324718138172106
 40
0.753439529007993
 40
0.7745410808967359
 40
0.7938498852820299
 40
0.8121138067592379
 40
0.8209630706841564
 40
0.8310729098427581
 40
0.8418082448216013
 40
0.8531875710663037
 40
0.8652300187283263
 40
0.8775148778821754
 40
0.8891312880121974
 40
0.9036457166467107
 40
0.9255141285590113
 40
0.9403089062972062
 40
0.9609348911124026
 40
0.9808904576894869
 40
1.0
 40
1.0
 40
1.0
 40
1.0
 10
149.4945266239011
 20
853.275503983342
 30
0.0
 10
149.886405294716
 20
854.0120784735417
 30
0.0
 10
150.5576628516429
 20
855.2844150084472
 30
0.0
 10
151.5035844426201
 20
857.3598533760925
 30
0.0
 10
152.3002041629143
 20
859.3439255397873
 30
0.0
 10
152.9522182715447
 20
861.2023320490265
 30
0.0
 10
153.4843582717049
 20
862.9512106751482
 30
0.0
 10
153.9212727636687
 20
864.6167861771426
 30
0.0
 10
154.2697092232786
 20
866.1817729098584
 30
0.0
 10
154.5420029650107
 20
867.6485091143271
 30
0.0
 10
154.7422848969762
 20
868.9572440233817
 30
0.0
 10
154.9028458311583
 20
870.2528541418757
 30
0.0
 10
155.0197287645668
 20
871.4931901874489
 30
0.0
 10
155.1059588965302
 20
872.826601461882
 30
0.0
 10
155.1556968155039
 20
874.2515583065486
 30
0.0
 10
155.1552053287518
 20
875.6976981808032
 30
0.0
 10
155.1049086887629
 20
877.176267398693
 30
0.0
 10
155.0076202754118
 20
878.6649565178773
 30
0.0
 10
154.8472386677656
 20
880.2300925152593
 30
0.0
 10
154.6426799477354
 20
881.6956805664429
 30
0.0
 10
154.42204804261
 20
882.9899414867266
 30
0.0
 10
154.1646319553809
 20
884.2839624563097
 30
0.0
 10
153.858953344762
 20
885.6056620637459
 30
0.0
 10
153.5323393511485
 20
886.8420824194201
 30
0.0
 10
153.2095812682622
 20
887.9440234853355
 30
0.0
 10
152.8787354818164
 20
888.9859924905776
 30
0.0
 10
152.4946993370448
 20
890.0997046548233
 30
0.0
 10
152.1153623599142
 20
891.1098844421317
 30
0.0
 10
151.7666387331065
 20
891.980859569329
 30
0.0
 10
151.4529197278899
 20
892.7287091451925
 30
0.0
 10
151.0877094220371
 20
893.5565921067379
 30
0.0
 10
150.6629232841636
 20
894.4694627674216
 30
0.0
 10
150.1682243198625
 20
895.4730098694115
 30
0.0
 10
149.5423904601344
 20
896.6672307604802
 30
0.0
 10
148.8078802490249
 20
897.9709192049295
 30
0.0
 10
148.0054306912075
 20
899.2895653567427
 30
0.0
 10
147.2654285705107
 20
900.427180065972
 30
0.0
 10
146.5378490502262
 20
901.4859878460102
 30
0.0
 10
145.7417613316427
 20
902.5842462847851
 30
0.0
 10
144.7744100255647
 20
903.8394734281028
 30
0.0
 10
143.6122412327097
 20
905.2474280703113
 30
0.0
 10
142.2750472197108
 20
906.7460910301646
 30
0.0
 10
140.8833663409046
 20
908.1847340282387
 30
0.0
 10
139.5602514124976
 20
909.4544407548146
 30
0.0
 10
138.1570150101648
 20
910.7186009002097
 30
0.0
 10
136.4797421578211
 20
912.1251526341591
 30
0.0
 10
134.4667888597578
 20
913.6644200037754
 30
0.0
 10
132.3618617035083
 20
915.1227325251856
 30
0.0
 10
130.485184880995
 20
916.3059770459307
 30
0.0
 10
128.7514552961854
 20
917.3171021012209
 30
0.0
 10
126.9906833392568
 20
918.2723516494738
 30
0.0
 10
124.9834984240663
 20
919.2671608230149
 30
0.0
 10
122.8808206647019
 20
920.2082453816785
 30
0.0
 10
120.8297761211694
 20
921.0338783201278
 30
0.0
 10
119.1791390906454
 20
921.6320739723847
 30
0.0
 10
117.8418992633533
 20
922.0789493880626
 30
0.0
 10
116.7676994267921
 20
922.4171468615739
 30
0.0
 10
115.5933417886293
 20
922.7622535960182
 30
0.0
 10
114.3395188082062
 20
923.1032940929631
 30
0.0
 10
113.0195104341854
 20
923.4322939887718
 30
0.0
 10
111.68179982337
 20
923.7346462002358
 30
0.0
 10
110.2433591959509
 20
924.0274901617047
 30
0.0
 10
108.4358189309308
 20
924.3519845959459
 30
0.0
 10
106.4961591500289
 20
924.6366215840178
 30
0.0
 10
104.309064912002
 20
924.8865114728573
 30
0.0
 10
102.2013403088238
 20
925.062772281982
 30
0.0
 10
99.86347130255093
 20
925.1791525989603
 30
0.0
 10
98.47046879600605
 20
925.1934767179735
 30
0.0
 10
97.66234238849367
 20
925.1998525315574
 30
0.0
  0
ARC
  5
DB
330
5E
100
AcDbEntity
  8
DV1_Standard
  6
Continuous
 62
     7
100
AcDbCircle
 10
101.9450642002
 20
879.0415120561
 30
0.0
 40
54.08150751688743
100
AcDbArc
 50
304.7691777353
 51
331.5477506068
  0
SPLINE
  5
DC
330
5E
100
AcDbEntity
  8
DV1_Standard
  6
Continuous
 62
     7
100
AcDbSpline
210
0.0
220
0.0
230
1.0
 70
     8
 71
     3
 72
    58
 73
    54
 74
     0
 42
0.0000000000656203
 43
0.0000000001
 40
0.0
 40
0.0
 40
0.0
 40
0.0
 40
0.0165135891442913
 40
0.0382222048888171
 40
0.0606265023869787
 40
0.0853452191713025
 40
0.1129722175230963
 40
0.1432428932822779
 40
0.1685285436336847
 40
0.1941025445287612
 40
0.2178470271697536
 40
0.2403073771284306
 40
0.2613838025350148
 40
0.2807555303482321
 40
0.3023824761248787
 40
0.3216891702883458
 40
0.3385240690267904
 40
0.3539394379481376
 40
0.3704952373248255
 40
0.3943337423586568
 40
0.4207499235616252
 40
0.4498905249926235
 40
0.4724239564773706
 40
0.4969987723995185
 40
0.52194137529153
 40
0.5487770194123551
 40
0.577599969005262
 40
0.6069741312036816
 40
0.6316999546379477
 40
0.6550786643751854
 40
0.6776741147077523
 40
0.6986682427014899
 40
0.7182381715736263
 40
0.7362645058307151
 40
0.7550365561066105
 40
0.7719012774959291
 40
0.7867308198533256
 40
0.7998530865548519
 40
0.8110567668519785
 40
0.8207440583114317
 40
0.8249336212011669
 40
0.8305574170945628
 40
0.8382269529088759
 40
0.8480592208491806
 40
0.860073809769631
 40
0.8741717779755702
 40
0.8879833303351586
 40
0.9023646684543256
 40
0.9190539341558728
 40
0.937145148679224
 40
0.9568067149767872
 40
0.9777798419266724
 40
1.0
 40
1.0
 40
1.0
 40
1.0
 10
112.3732326733775
 20
688.6274849834253
 30
0.0
 10
112.4024204527161
 20
689.569832573496
 30
0.0
 10
112.45907591366
 20
691.4142713056033
 30
0.0
 10
112.5401978688142
 20
694.6290152260051
 30
0.0
 10
112.6149325172389
 20
698.1798468787592
 30
0.0
 10
112.7023603771417
 20
702.0653398731375
 30
0.0
 10
112.7882101622621
 20
706.3504812411165
 30
0.0
 10
112.8679487998812
 20
710.6662351921764
 30
0.0
 10
112.9419018339943
 20
714.8729412423935
 30
0.0
 10
112.9946630558911
 20
718.7385667326181
 30
0.0
 10
113.0622230758047
 20
722.4593733137226
 30
0.0
 10
113.1318969267791
 20
725.9474245450724
 30
0.0
 10
113.1999812170369
 20
729.2089706931486
 30
0.0
 10
113.271944202805
 20
732.4276707901957
 30
0.0
 10
113.3389068059684
 20
735.5545264132146
 30
0.0
 10
113.4040329767513
 20
738.5501819269157
 30
0.0
 10
113.4616560527011
 20
741.2240898073472
 30
0.0
 10
113.5192686699235
 20
743.7560761315361
 30
0.0
 10
113.5895444666658
 20
746.6507447849956
 30
0.0
 10
113.6807555375326
 20
750.1154333169884
 30
0.0
 10
113.7971602029675
 20
754.2319998260837
 30
0.0
 10
113.9156195077905
 20
758.280015305681
 30
0.0
 10
114.037671718331
 20
762.2322011988325
 30
0.0
 10
114.1470063956814
 20
765.965099855454
 30
0.0
 10
114.2714030350533
 20
769.9206747802621
 30
0.0
 10
114.3942152445213
 20
774.0929705645214
 30
0.0
 10
114.5258606568843
 20
778.4917758878372
 30
0.0
 10
114.6649362699544
 20
782.7797217622681
 30
0.0
 10
114.7917622698313
 20
786.7799115219947
 30
0.0
 10
114.9189475935596
 20
790.4273432156181
 30
0.0
 10
115.0434342003899
 20
793.874648790877
 30
0.0
 10
115.1783837946194
 20
797.119981564335
 30
0.0
 10
115.3244640017912
 20
800.1225109636498
 30
0.0
 10
115.5050816946526
 20
803.0077638605031
 30
0.0
 10
115.7238524891302
 20
805.7463402706393
 30
0.0
 10
115.9845433584764
 20
808.306077767705
 30
0.0
 10
116.2751629643823
 20
810.5602216417485
 30
0.0
 10
116.5854856745675
 20
812.5070455080717
 30
0.0
 10
116.9118194260406
 20
814.1766539597886
 30
0.0
 10
117.1921320037657
 20
815.3878592757574
 30
0.0
 10
117.4367385844441
 20
816.3178220086979
 30
0.0
 10
117.6738880812231
 20
817.1452700162524
 30
0.0
 10
118.0252951271484
 20
818.2272938050527
 30
0.0
 10
118.5399870510317
 20
819.5796654535017
 30
0.0
 10
119.2619790971041
 20
821.1600139839617
 30
0.0
 10
120.1670426996687
 20
822.8096770956311
 30
0.0
 10
121.2239309302905
 20
824.5023521330186
 30
0.0
 10
122.510943037726
 20
826.2041550719928
 30
0.0
 10
124.0967662625489
 20
827.796678210651
 30
0.0
 10
125.9521513400713
 20
829.4126336883522
 30
0.0
 10
128.0287845209045
 20
831.1239965549236
 30
0.0
 10
130.40387910546
 20
832.8592167793649
 30
0.0
 10
131.8804781073206
 20
833.9521267971786
 30
0.0
 10
132.7858732910742
 20
834.6155759877428
 30
0.0
  0
ARC
  5
DD
330
5E
100
AcDbEntity
  8
DV1_Standard
  6
Continuous
 62
     7
100
AcDbCircle
 10
110.8562344316
 20
688.6649460862
 30
0.0
 40
1.489061510843046
100
AcDbArc
 50
274.4455509568
 51
358.6641132253
  0
SPLINE
  5
DE
330
5E
100
AcDbEntity
  8
DV1_Standard
  6
Continuous
 62
     7
100
AcDbSpline
210
0.0
220
0.0
230
1.0
 70
     8
 71
     3
 72
    84
 73
    80
 74
     0
 42
0.000000000093089
 43
0.0000000001
 40
0.0
 40
0.0
 40
0.0
 40
0.0
 40
0.0135255965124856
 40
0.0275070086145602
 40
0.0418798680497134
 40
0.0565810679718881
 40
0.067396503504263
 40
0.0750471252062004
 40
0.0847343916296043
 40
0.0956193581798025
 40
0.1045842313187115
 40
0.1125092879739922
 40
0.119448759061663
 40
0.1318049595227121
 40
0.144572214967658
 40
0.1566076548437639
 40
0.167933368338598
 40
0.1785706840094731
 40
0.1878872967618248
 40
0.2061509282608436
 40
0.2254594260782328
 40
0.246560642935432
 40
0.2675280252196096
 40
0.2854007005223133
 40
0.300351559055406
 40
0.3168226107928608
 40
0.3357038168086665
 40
0.3550340390802661
 40
0.374230584268489
 40
0.3908815007435655
 40
0.4053151864692604
 40
0.422117190815025
 40
0.4418151882922456
 40
0.461250025685699
 40
0.4784907530813017
 40
0.4931948593204946
 40
0.5059238293369831
 40
0.5175724873286168
 40
0.5319044364873207
 40
0.5483671479162809
 40
0.5654607554030023
 40
0.5798138914178643
 40
0.5924151938070504
 40
0.6090638543238037
 40
0.622368722629808
 40
0.6351707995123175
 40
0.6464161150500115
 40
0.6560153133897692
 40
0.6682477983050342
 40
0.6741384515285028
 40
0.6806706307009126
 40
0.6870288580100409
 40
0.6898697911167503
 40
0.6942756278017188
 40
0.7005422166869409
 40
0.7071526678213581
 40
0.714872475912505
 40
0.7235664135775355
 40
0.7331706953753171
 40
0.7436225790794039
 40
0.7532832062809603
 40
0.7707457048978992
 40
0.7856603763962586
 40
0.7970340204594933
 40
0.8067560656505252
 40
0.8161883864071817
 40
0.8269148614780559
 40
0.8386806316113355
 40
0.851986962241704
 40
0.8666002475834167
 40
0.8834571263060078
 40
0.903265393039808
 40
0.9153448423383179
 40
0.9281281916295773
 40
0.9414732046546138
 40
0.9551016620246567
 40
0.9694910668978299
 40
0.9859520283077343
 40
1.0
 40
1.0
 40
1.0
 40
1.0
 10
97.66231751727983
 20
925.1998525315574
 30
0.0
 10
97.0903146922136
 20
925.1966882128577
 30
0.0
 10
96.10963641424568
 20
925.1896179551248
 30
0.0
 10
94.46852270423054
 20
925.1320755521717
 30
0.0
 10
92.8255095662667
 20
925.0359569668975
 30
0.0
 10
91.29632916823826
 20
924.9084423947065
 30
0.0
 10
90.03055674766082
 20
924.7749880228466
 30
0.0
 10
88.95836002033751
 20
924.6446353643205
 30
0.0
 10
87.88649796109976
 20
924.4978945134296
 30
0.0
 10
86.76867206724503
 20
924.3243496892055
 30
0.0
 10
85.72137594106727
 20
924.1430103334005
 30
0.0
 10
84.82599770912064
 20
923.9741569674821
 30
0.0
 10
83.80649224528116
 20
923.7679130811938
 30
0.0
 10
82.61122310074329
 20
923.5045476396657
 30
0.0
 10
81.2354794080405
 20
923.1685410898733
 30
0.0
 10
79.90766280825653
 20
922.8123532391966
 30
0.0
 10
78.66754768863996
 20
922.4511114895278
 30
0.0
 10
77.53537195322443
 20
922.0963400675523
 30
0.0
 10
76.16214614770844
 20
921.6380982664305
 30
0.0
 10
74.49488268033268
 20
921.033878140348
 30
0.0
 10
72.44384046875889
 20
920.2082459821565
 30
0.0
 10
70.34115745544023
 20
919.2671584035302
 30
0.0
 10
68.33399027601376
 20
918.2723600202163
 30
0.0
 10
66.57316473237542
 20
917.3170777276518
 30
0.0
 10
64.99132638034112
 20
916.3945415628409
 30
0.0
 10
63.40948688898276
 20
915.4071899443372
 30
0.0
 10
61.73698895974668
 20
914.2824258765445
 30
0.0
 10
60.03320126607652
 20
913.0427526026281
 30
0.0
 10
58.4507060874792
 20
911.7976385630362
 30
0.0
 10
57.05151549569079
 20
910.6139803563435
 30
0.0
 10
55.76443638500666
 20
909.4544661371302
 30
0.0
 10
54.44128406334544
 20
908.1847253727713
 30
0.0
 10
53.04961545800028
 20
906.7460935942437
 30
0.0
 10
51.71241772642834
 20
905.247427063617
 30
0.0
 10
50.5502509891457
 20
903.8394748826136
 30
0.0
 10
49.58289565898205
 20
902.5842423126112
 30
0.0
 10
48.76695170669603
 20
901.458590653359
 30
0.0
 10
47.99490819776079
 20
900.3325959980548
 30
0.0
 10
47.18727075427903
 20
899.0815010870194
 30
0.0
 10
46.32813812615887
 20
897.6486861432904
 30
0.0
 10
45.52562601836989
 20
896.1934573637644
 30
0.0
 10
44.83428261167891
 20
894.8323526214135
 30
0.0
 10
44.19150126896787
 20
893.4680612985132
 30
0.0
 10
43.60797304408334
 20
892.1193417894224
 30
0.0
 10
43.06632970334621
 20
890.743547523312
 30
0.0
 10
42.63063530355731
 20
889.5345203602592
 30
0.0
 10
42.26841437128365
 20
888.4376351144645
 30
0.0
 10
41.93813524952331
 20
887.352603507253
 30
0.0
 10
41.68420325956261
 20
886.4377859769146
 30
0.0
 10
41.47568474331894
 20
885.6220244370696
 30
0.0
 10
41.32527218542932
 20
884.9963413247406
 30
0.0
 10
41.20878545619845
 20
884.4796085751627
 30
0.0
 10
41.10785076433479
 20
884.0068335016698
 30
0.0
 10
41.01454332154618
 20
883.5504713338773
 30
0.0
 10
40.90248018673883
 20
882.9671807657633
 30
0.0
 10
40.78038721234635
 20
882.2751872895332
 30
0.0
 10
40.65668526236242
 20
881.5023010457905
 30
0.0
 10
40.53407093397549
 20
880.6293673298917
 30
0.0
 10
40.41896080332145
 20
879.6645118306203
 30
0.0
 10
40.32331658017169
 20
878.6674598359793
 30
0.0
 10
40.23157856767621
 20
877.4038499558094
 30
0.0
 10
40.17285850210069
 20
875.9803674580571
 30
0.0
 10
40.16788126501767
 20
874.4971080005846
 30
0.0
 10
40.2009231865115
 20
873.2738350814568
 30
0.0
 10
40.25467959658241
 20
872.2343300144051
 30
0.0
 10
40.33011805296742
 20
871.218117840735
 30
0.0
 10
40.43542260933017
 20
870.1413064813262
 30
0.0
 10
40.58552102555623
 20
868.9328863069624
 30
0.0
 10
40.79111387743399
 20
867.5968652801326
 30
0.0
 10
41.07266509477948
 20
866.0930556825804
 30
0.0
 10
41.45811464478672
 20
864.381807469879
 30
0.0
 10
41.89318917961221
 20
862.7703541618656
 30
0.0
 10
42.3465088236538
 20
861.305515388221
 30
0.0
 10
42.77025087639716
 20
860.0616995359529
 30
0.0
 10
43.24991012764125
 20
858.7786893465379
 30
0.0
 10
43.79146765298616
 20
857.4533988674804
 30
0.0
 10
44.41564990918402
 20
856.0523097405082
 30
0.0
 10
45.10775640166948
 20
854.6241661081174
 30
0.0
 10
45.57452819144253
 20
853.7510148007284
 30
0.0
 10
45.83013328187239
 20
853.2755039833421
 30
0.0
  0
ARC
  5
DF
330
5E
100
AcDbEntity
  8
DV1_Standard
  6
Continuous
 62
     7
100
AcDbCircle
 10
93.5871429601
 20
879.2273516327
 30
0.0
 40
54.35256319249957
100
AcDbArc
 50
208.5202546575
 51
235.1628170004
  0
SPLINE
  5
E0
330
5E
100
AcDbEntity
  8
DV1_Standard
  6
Continuous
 62
     7
100
AcDbSpline
210
0.0
220
0.0
230
1.0
 70
     8
 71
     3
 72
    56
 73
    52
 74
     0
 42
0.0000000000656222
 43
0.0000000001
 40
0.0
 40
0.0
 40
0.0
 40
0.0
 40
0.0206417438872807
 40
0.0401422865065608
 40
0.0580476022072343
 40
0.0747610330618482
 40
0.0899422844667297
 40
0.1030928155121942
 40
0.1146042457556714
 40
0.1253161147555789
 40
0.13452033355427
 40
0.143102818606009
 40
0.1498897647301851
 40
0.1547609436425772
 40
0.1577964343100062
 40
0.1598456590576791
 40
0.1622122598123096
 40
0.1649098561199563
 40
0.1679322906554022
 40
0.1712722567178672
 40
0.1782574621095342
 40
0.1867421275583982
 40
0.1962462743850503
 40
0.210635476676369
 40
0.2271919967036981
 40
0.2456674839627978
 40
0.2646869043053187
 40
0.3162807274207309
 40
0.3694733007650747
 40
0.4249999341163994
 40
0.4822903758724238
 40
0.5409292396869876
 40
0.57146704984754
 40
0.6004218924529495
 40
0.6278991795864365
 40
0.6539288884051104
 40
0.6781433164555629
 40
0.7011987274912435
 40
0.72159157380349
 40
0.7403435619823012
 40
0.7579556438042508
 40
0.7742629814233633
 40
0.7918164477600746
 40
0.8134038448450583
 40
0.8381514336823734
 40
0.8646689205629595
 40
0.8940700355657878
 40
0.924497622350583
 40
0.9536008920829203
 40
0.9808518204942429
 40
1.0
 40
1.0
 40
1.0
 40
1.0
 10
62.53878661469925
 20
834.6155759877428
 30
0.0
 10
63.37979163973048
 20
833.9974477927024
 30
0.0
 10
64.75281536637658
 20
832.9795041506143
 30
0.0
 10
66.9501952279848
 20
831.3826941626971
 30
0.0
 10
68.88368522178497
 20
829.8245402082345
 30
0.0
 10
70.60346254085485
 20
828.3450282560217
 30
0.0
 10
72.09316052318384
 20
826.9588734390501
 30
0.0
 10
73.32135589876647
 20
825.5618004328501
 30
0.0
 10
74.2939801742741
 20
824.1907606136657
 30
0.0
 10
75.07493931724493
 20
822.9310950121843
 30
0.0
 10
75.73631231612688
 20
821.7607698679733
 30
0.0
 10
76.26277483661462
 20
820.7172740442867
 30
0.0
 10
76.66626634634325
 20
819.825806866658
 30
0.0
 10
76.93824861578585
 20
819.1643328364526
 30
0.0
 10
77.11260376928429
 20
818.710812042345
 30
0.0
 10
77.23772074700375
 20
818.3703928285524
 30
0.0
 10
77.35359587249698
 20
818.042509830951
 30
0.0
 10
77.48028915594028
 20
817.6671739083561
 30
0.0
 10
77.61591007960422
 20
817.2436112209917
 30
0.0
 10
77.80498092019369
 20
816.6156382307461
 30
0.0
 10
78.05041816644017
 20
815.7206826183946
 30
0.0
 10
78.3373907486788
 20
814.5162873072506
 30
0.0
 10
78.66253647688409
 20
812.932372241164
 30
0.0
 10
79.00029356389521
 20
810.9248743380208
 30
0.0
 10
79.32755669996929
 20
808.4407696150527
 30
0.0
 10
79.60735520122262
 20
805.6975620556148
 30
0.0
 10
79.9668002556149
 20
801.1484122325776
 30
0.0
 10
80.25845243386617
 20
794.7996124793585
 30
0.0
 10
80.54445818550238
 20
786.5355888680607
 30
0.0
 10
80.81939196926498
 20
777.9537541120509
 30
0.0
 10
81.0813133597157
 20
769.0799587218405
 30
0.0
 10
81.31445643766413
 20
761.4910641922991
 30
0.0
 10
81.49595587803377
 20
755.3695960152156
 30
0.0
 10
81.622808272619
 20
750.8629337910136
 30
0.0
 10
81.73312099811572
 20
746.5903294782921
 30
0.0
 10
81.82514949464081
 20
742.5640925166015
 30
0.0
 10
81.9022533984391
 20
738.7674728066041
 30
0.0
 10
81.97779296442418
 20
735.2613968151744
 30
0.0
 10
82.04799542719518
 20
732.037609387088
 30
0.0
 10
82.11521234084563
 20
729.0951058210715
 30
0.0
 10
82.17369252275273
 20
726.3641484004569
 30
0.0
 10
82.2305358251611
 20
723.6947628398244
 30
0.0
 10
82.28656717180368
 20
720.8193627671636
 30
0.0
 10
82.34562447800317
 20
717.5064263623309
 30
0.0
 10
82.40004629657243
 20
713.7290546364422
 30
0.0
 10
82.47924348821486
 20
709.5434114904598
 30
0.0
 10
82.56309287003951
 20
705.0646548621735
 30
0.0
 10
82.66043521475514
 20
700.4416488517633
 30
0.0
 10
82.75421962046097
 20
695.9667294294774
 30
0.0
 10
82.84959355244297
 20
691.9610463704082
 30
0.0
 10
82.91815211386938
 20
689.720025150776
 30
0.0
 10
82.95174751020404
 20
688.62749378713
 30
0.0
  0
ARC
  5
E1
330
5E
100
AcDbEntity
  8
DV1_Standard
  6
Continuous
 62
     7
100
AcDbCircle
 10
84.4693251155
 20
688.6672820101
 30
0.0
 40
1.491228399574255
100
AcDbArc
 50
181.4264650377
 51
265.5232535304
  0
LINE
  5
E2
330
5E
100
AcDbEntity
  8
DV1_Standard
  6
Continuous
 62
     7
100
AcDbLine
 10
109.4623299529
 20
683.1739094446
 30
0.0
 11
85.8623299529
 21
683.1739094446
 31
0.0
  0
LINE
  5
E3
330
5E
100
AcDbEntity
  8
DV1_Standard
  6
Continuous
 62
     7
100
AcDbLine
 10
106.6623299529
 20
659.6933452172
 30
0.0
 11
88.6623299529
 21
659.6933452172
 31
0.0
  0
LINE
  5
E4
330
5E
100
AcDbEntity
  8
DV1_Standard
  6
Continuous
 62
     7
100
AcDbLine
 10
106.6623299529
 20
655.8739094446
 30
0.0
 11
88.6623299529
 21
655.8739094446
 31
0.0
  0
LINE
  5
E5
330
5E
100
AcDbEntity
  8
DV1_Standard
  6
Continuous
 62
     7
100
AcDbLine
 10
108.9623299529
 20
683.6739094446
 30
0.0
 11
108.9623299529
 21
686.1739094446
 31
0.0
  0
LINE
  5
E6
330
5E
100
AcDbEntity
  8
DV1_Standard
  6
Continuous
 62
     7
100
AcDbLine
 10
86.3623299529
 20
686.1739094446
 30
0.0
 11
86.3623299529
 21
683.6739094446
 31
0.0
  0
LINE
  5
E7
330
5E
100
AcDbEntity
  8
DV1_Standard
  6
Continuous
 62
     7
100
AcDbLine
 10
109.4623299529
 20
683.1739094446
 30
0.0
 11
108.9623299529
 21
683.6739094446
 31
0.0
  0
LINE
  5
E8
330
5E
100
AcDbEntity
  8
DV1_Standard
  6
Continuous
 62
     7
100
AcDbLine
 10
86.3623299529
 20
683.6739094446
 30
0.0
 11
85.8623299529
 21
683.1739094446
 31
0.0
  0
LINE
  5
E9
330
5E
100
AcDbEntity
  8
DV1_Standard
  6
Continuous
 62
     7
100
AcDbLine
 10
85.8623299529
 20
683.1739094446
 30
0.0
 11
86.1314366097
 21
678.0390485429
 31
0.0
  0
LINE
  5
EA
330
5E
100
AcDbEntity
  8
DV1_Standard
  6
Continuous
 62
     7
100
AcDbLine
 10
109.1932363716
 20
678.0392980389
 30
0.0
 11
109.4623299529
 21
683.1739094446
 31
0.0
  0
ARC
  5
EB
330
5E
100
AcDbEntity
  8
DV1_Standard
  6
Continuous
 62
     7
100
AcDbCircle
 10
86.8623299529
 20
686.1739094446
 30
0.0
 40
0.5000000000000004
100
AcDbArc
 50
90.0
 51
180.0
  0
ARC
  5
EC
330
5E
100
AcDbEntity
  8
DV1_Standard
  6
Continuous
 62
     7
100
AcDbCircle
 10
108.4623299529
 20
686.1739094446
 30
0.0
 40
0.5000000000000004
100
AcDbArc
 50
0.0
 51
90.0
  0
ARC
  5
ED
330
5E
100
AcDbEntity
  8
DV1_Standard
  6
Continuous
 62
     7
100
AcDbCircle
 10
92.3418088115
 20
588.8410210291
 30
0.0
 40
9.999999999999003
100
AcDbArc
 50
259.2575934768
 51
302.1442130504
  0
LINE
  5
EE
330
5E
100
AcDbEntity
  8
DV1_Standard
  6
Continuous
 62
     7
100
AcDbLine
 10
98.8401675969
 20
581.0070104349
 30
0.0
 11
97.6623299529
 21
580.3739049448
 31
0.0
  0
ARC
  5
EF
330
5E
100
AcDbEntity
  8
DV1_Standard
  6
Continuous
 62
     7
100
AcDbCircle
 10
102.975385186
 20
571.9021020617
 30
0.0
 40
9.999999999998767
100
AcDbArc
 50
79.3872869163
 51
82.7655617464
  0
ARC
  5
F0
330
5E
100
AcDbEntity
  8
DV1_Standard
  6
Continuous
 62
     7
100
AcDbCircle
 10
102.9751886604
 20
571.9019788147
 30
0.0
 40
9.999999999999545
100
AcDbArc
 50
113.6117730959
 51
122.0923771693
  0
ARC
  5
F1
330
5E
100
AcDbEntity
  8
DV1_Standard
  6
Continuous
 62
     7
100
AcDbCircle
 10
103.0429200162
 20
572.450602501
 30
0.0
 40
9.44721465144724
100
AcDbArc
 50
82.752975971
 51
83.47402346
  0
ARC
  5
F2
330
5E
100
AcDbEntity
  8
DV1_Standard
  6
Continuous
 62
     7
100
AcDbCircle
 10
102.9751431088
 20
571.9018501136
 30
0.0
 40
10.00011568819659
100
AcDbArc
 50
83.4455476557
 51
114.3609290173
  0
LINE
  5
F3
330
5E
100
AcDbEntity
  8
DV1_Standard
  6
Continuous
 62
     7
100
AcDbLine
 10
104.5623299529
 20
652.1242388526
 30
0.0
 11
104.5623299529
 21
653.9762618527
 31
0.0
  0
LINE
  5
F4
330
5E
100
AcDbEntity
  8
DV1_Standard
  6
Continuous
 62
     7
100
AcDbLine
 10
104.5623299529
 20
647.1237051674
 30
0.0
 11
104.5623299529
 21
648.9657228895
 31
0.0
  0
LINE
  5
F5
330
5E
100
AcDbEntity
  8
DV1_Standard
  6
Continuous
 62
     7
100
AcDbLine
 10
104.5623299529
 20
642.1239589086
 30
0.0
 11
104.5623299529
 21
643.9641553984
 31
0.0
  0
LINE
  5
F6
330
5E
100
AcDbEntity
  8
DV1_Standard
  6
Continuous
 62
     7
100
AcDbLine
 10
104.5623299529
 20
637.1238393128
 30
0.0
 11
104.5623299529
 21
638.9735700054
 31
0.0
  0
LINE
  5
F7
330
5E
100
AcDbEntity
  8
DV1_Standard
  6
Continuous
 62
     7
100
AcDbLine
 10
104.5623299529
 20
632.1236842933
 30
0.0
 11
104.5623299529
 21
633.9536866699
 31
0.0
  0
LINE
  5
F8
330
5E
100
AcDbEntity
  8
DV1_Standard
  6
Continuous
 62
     7
100
AcDbLine
 10
104.5623299529
 20
627.1239495734
 30
0.0
 11
104.5623299529
 21
628.9754924448
 31
0.0
  0
LINE
  5
F9
330
5E
100
AcDbEntity
  8
DV1_Standard
  6
Continuous
 62
     7
100
AcDbLine
 10
104.5623299529
 20
622.1243373734
 30
0.0
 11
104.5623299529
 21
623.965098994
 31
0.0
  0
LINE
  5
FA
330
5E
100
AcDbEntity
  8
DV1_Standard
  6
Continuous
 62
     7
100
AcDbLine
 10
104.5623299529
 20
617.1235669
 30
0.0
 11
104.5623299529
 21
618.9626054038
 31
0.0
  0
LINE
  5
FB
330
5E
100
AcDbEntity
  8
DV1_Standard
  6
Continuous
 62
     7
100
AcDbLine
 10
104.5623299529
 20
612.123797121
 30
0.0
 11
104.5623299529
 21
613.9737022464
 31
0.0
  0
LINE
  5
FC
330
5E
100
AcDbEntity
  8
DV1_Standard
  6
Continuous
 62
     7
100
AcDbLine
 10
104.5623299529
 20
607.1233919487
 30
0.0
 11
104.5623299529
 21
608.9537104981
 31
0.0
  0
LINE
  5
FD
330
5E
100
AcDbEntity
  8
DV1_Standard
  6
Continuous
 62
     7
100
AcDbLine
 10
104.5623299529
 20
602.1238663355
 30
0.0
 11
104.5623299529
 21
603.9757748878
 31
0.0
  0
LINE
  5
FE
330
5E
100
AcDbEntity
  8
DV1_Standard
  6
Continuous
 62
     7
100
AcDbLine
 10
104.5623299529
 20
597.1238924768
 30
0.0
 11
104.5623299529
 21
598.9658637098
 31
0.0
  0
LINE
  5
FF
330
5E
100
AcDbEntity
  8
DV1_Standard
  6
Continuous
 62
     7
100
AcDbLine
 10
104.5623299529
 20
592.1237276107
 30
0.0
 11
104.5623299529
 21
593.9642404912
 31
0.0
  0
LINE
  5
100
330
5E
100
AcDbEntity
  8
DV1_Standard
  6
Continuous
 62
     7
100
AcDbLine
 10
104.5623299529
 20
587.1236201232
 30
0.0
 11
104.5623299529
 21
588.9744625134
 31
0.0
  0
LINE
  5
101
330
5E
100
AcDbEntity
  8
DV1_Standard
  6
Continuous
 62
     7
100
AcDbLine
 10
104.5623299529
 20
582.1240055835
 30
0.0
 11
104.5623299529
 21
583.9546736147
 31
0.0
  0
LINE
  5
102
330
5E
100
AcDbEntity
  8
DV1_Standard
  6
Continuous
 62
     7
100
AcDbLine
 10
90.7623299529
 20
581.6235304333
 30
0.0
 11
90.7623299529
 21
579.7814305796
 31
0.0
  0
LINE
  5
103
330
5E
100
AcDbEntity
  8
DV1_Standard
  6
Continuous
 62
     7
100
AcDbLine
 10
90.7623299529
 20
586.6242331923
 30
0.0
 11
90.7623299529
 21
584.7823169183
 31
0.0
  0
LINE
  5
104
330
5E
100
AcDbEntity
  8
DV1_Standard
  6
Continuous
 62
     7
100
AcDbLine
 10
90.7623299529
 20
591.6243191607
 30
0.0
 11
90.7623299529
 21
589.7733351617
 31
0.0
  0
LINE
  5
105
330
5E
100
AcDbEntity
  8
DV1_Standard
  6
Continuous
 62
     7
100
AcDbLine
 10
90.7623299529
 20
596.6240807773
 30
0.0
 11
90.7623299529
 21
594.7931598961
 31
0.0
  0
LINE
  5
106
330
5E
100
AcDbEntity
  8
DV1_Standard
  6
Continuous
 62
     7
100
AcDbLine
 10
90.7623299529
 20
601.6234392592
 30
0.0
 11
90.7623299529
 21
599.7715570365
 31
0.0
  0
LINE
  5
107
330
5E
100
AcDbEntity
  8
DV1_Standard
  6
Continuous
 62
     7
100
AcDbLine
 10
90.7623299529
 20
606.6241436362
 30
0.0
 11
90.7623299529
 21
604.7820959998
 31
0.0
  0
LINE
  5
108
330
5E
100
AcDbEntity
  8
DV1_Standard
  6
Continuous
 62
     7
100
AcDbLine
 10
90.7623299529
 20
611.6240159524
 30
0.0
 11
90.7623299529
 21
609.7836634908
 31
0.0
  0
LINE
  5
109
330
5E
100
AcDbEntity
  8
DV1_Standard
  6
Continuous
 62
     7
100
AcDbLine
 10
90.7623299529
 20
616.6242362274
 30
0.0
 11
90.7623299529
 21
614.7742488839
 31
0.0
  0
LINE
  5
10A
330
5E
100
AcDbEntity
  8
DV1_Standard
  6
Continuous
 62
     7
100
AcDbLine
 10
90.7623299529
 20
621.6238636815
 30
0.0
 11
90.7623299529
 21
619.7941322193
 31
0.0
  0
LINE
  5
10B
330
5E
100
AcDbEntity
  8
DV1_Standard
  6
Continuous
 62
     7
100
AcDbLine
 10
90.7623299529
 20
626.6237247315
 30
0.0
 11
90.7623299529
 21
624.7723264444
 31
0.0
  0
LINE
  5
10C
330
5E
100
AcDbEntity
  8
DV1_Standard
  6
Continuous
 62
     7
100
AcDbLine
 10
90.7623299529
 20
631.6239663728
 30
0.0
 11
90.7623299529
 21
629.7827198953
 31
0.0
  0
LINE
  5
10D
330
5E
100
AcDbEntity
  8
DV1_Standard
  6
Continuous
 62
     7
100
AcDbLine
 10
90.7623299529
 20
636.6238923075
 30
0.0
 11
90.7623299529
 21
634.7852134855
 31
0.0
  0
LINE
  5
10E
330
5E
100
AcDbEntity
  8
DV1_Standard
  6
Continuous
 62
     7
100
AcDbLine
 10
90.7623299529
 20
641.6236090673
 30
0.0
 11
90.7623299529
 21
639.7741166428
 31
0.0
  0
LINE
  5
10F
330
5E
100
AcDbEntity
  8
DV1_Standard
  6
Continuous
 62
     7
100
AcDbLine
 10
90.7623299529
 20
646.6242862096
 30
0.0
 11
90.7623299529
 21
644.7941083912
 31
0.0
  0
LINE
  5
110
330
5E
100
AcDbEntity
  8
DV1_Standard
  6
Continuous
 62
     7
100
AcDbLine
 10
90.7623299529
 20
651.6236583545
 30
0.0
 11
90.7623299529
 21
649.7720440014
 31
0.0
  0
LINE
  5
111
330
5E
100
AcDbEntity
  8
DV1_Standard
  6
Continuous
 62
     7
100
AcDbLine
 10
90.7623299529
 20
655.8739094446
 30
0.0
 11
90.7623299529
 21
654.7819551794
 31
0.0
  0
LINE
  5
112
330
5E
100
AcDbEntity
  8
DV1_Standard
  6
Continuous
 62
     7
100
AcDbLine
 10
97.660658228
 20
655.8736765697
 30
0.0
 11
97.6606148165
 21
655.8736764765
 31
0.0
  0
LINE
  5
113
330
5E
100
AcDbEntity
  8
DV1_Standard
  6
Continuous
 62
     7
100
AcDbLine
 10
90.5914808013
 20
579.6435388291
 30
0.0
 11
90.481404597
 21
579.0213948023
 31
0.0
  0
ARC
  5
114
330
5E
100
AcDbEntity
  8
DV1_Standard
  6
Continuous
 62
     7
100
AcDbCircle
 10
99.2478667429
 20
655.50661999
 30
0.0
 40
5.664091963560177
100
AcDbArc
 50
345.6709280957
 51
3.724279831
  0
ARC
  5
115
330
5E
100
AcDbEntity
  8
DV1_Standard
  6
Continuous
 62
     7
100
AcDbCircle
 10
98.3234821109
 20
650.6237045304
 30
0.0
 40
6.58997184772642
100
AcDbArc
 50
346.6454814278
 51
13.342157425
  0
ARC
  5
116
330
5E
100
AcDbEntity
  8
DV1_Standard
  6
Continuous
 62
     7
100
AcDbCircle
 10
98.3221260507
 20
645.6228434782
 30
0.0
 40
6.591103485176595
100
AcDbArc
 50
346.651966114
 51
13.3348505706
  0
ARC
  5
117
330
5E
100
AcDbEntity
  8
DV1_Standard
  6
Continuous
 62
     7
100
AcDbCircle
 10
98.3202954456
 20
640.6222690907
 30
0.0
 40
6.592445268826191
100
AcDbArc
 50
346.6853591461
 51
13.3584472457
  0
ARC
  5
118
330
5E
100
AcDbEntity
  8
DV1_Standard
  6
Continuous
 62
     7
100
AcDbCircle
 10
98.3184587748
 20
635.6218679483
 30
0.0
 40
6.593691834663526
100
AcDbArc
 50
346.6748305787
 51
13.356590527
  0
ARC
  5
119
330
5E
100
AcDbEntity
  8
DV1_Standard
  6
Continuous
 62
     7
100
AcDbCircle
 10
98.3165618274
 20
630.621774535
 30
0.0
 40
6.594921496776943
100
AcDbArc
 50
346.6619549905
 51
13.3371966545
  0
ARC
  5
11A
330
5E
100
AcDbEntity
  8
DV1_Standard
  6
Continuous
 62
     7
100
AcDbCircle
 10
98.3146617764
 20
625.6218633717
 30
0.0
 40
6.596118061941882
100
AcDbArc
 50
346.6794296955
 51
13.3438497827
  0
ARC
  5
11B
330
5E
100
AcDbEntity
  8
DV1_Standard
  6
Continuous
 62
     7
100
AcDbCircle
 10
98.3129308483
 20
620.6220999796
 30
0.0
 40
6.597195633346826
100
AcDbArc
 50
346.6846471527
 51
13.3488311264
  0
ARC
  5
11C
330
5E
100
AcDbEntity
  8
DV1_Standard
  6
Continuous
 62
     7
100
AcDbCircle
 10
98.311586344
 20
615.6224594149
 30
0.0
 40
6.598018137326645
100
AcDbArc
 50
346.6682679049
 51
13.3346749923
  0
ARC
  5
11D
330
5E
100
AcDbEntity
  8
DV1_Standard
  6
Continuous
 62
     7
100
AcDbCircle
 10
98.3105945771
 20
610.6229387451
 30
0.0
 40
6.598609334908683
100
AcDbArc
 50
346.6713805842
 51
13.3308801927
  0
ARC
  5
11E
330
5E
100
AcDbEntity
  8
DV1_Standard
  6
Continuous
 62
     7
100
AcDbCircle
 10
98.3099904691
 20
605.6234891382
 30
0.0
 40
6.598976705170537
100
AcDbArc
 50
346.6782657466
 51
13.3381257374
  0
ARC
  5
11F
330
5E
100
AcDbEntity
  8
DV1_Standard
  6
Continuous
 62
     7
100
AcDbCircle
 10
98.3098739606
 20
600.6240522098
 30
0.0
 40
6.599050473919469
100
AcDbArc
 50
346.6674830539
 51
13.3289451305
  0
ARC
  5
120
330
5E
100
AcDbEntity
  8
DV1_Standard
  6
Continuous
 62
     7
100
AcDbCircle
 10
98.3102291055
 20
595.6246037705
 30
0.0
 40
6.598830635729348
100
AcDbArc
 50
346.6614054353
 51
13.3205205539
  0
ARC
  5
121
330
5E
100
AcDbEntity
  8
DV1_Standard
  6
Continuous
 62
     7
100
AcDbCircle
 10
98.3110450977
 20
590.6251310168
 30
0.0
 40
6.598339679112849
100
AcDbArc
 50
346.6693330308
 51
13.3306049127
  0
ARC
  5
122
330
5E
100
AcDbEntity
  8
DV1_Standard
  6
Continuous
 62
     7
100
AcDbCircle
 10
98.3122330155
 20
585.6255639648
 30
0.0
 40
6.597625579294236
100
AcDbArc
 50
346.6613211466
 51
13.3294765354
  0
LINE
  5
123
330
5E
100
AcDbEntity
  8
DV1_Standard
  6
Continuous
 62
     7
100
AcDbLine
 10
104.7811855542
 20
581.7336730504
 30
0.0
 11
104.7331754147
 21
582.1447851885
 31
0.0
  0
ARC
  5
124
330
5E
100
AcDbEntity
  8
DV1_Standard
  6
Continuous
 62
     7
100
AcDbCircle
 10
97.0071593648
 20
583.1218328274
 30
0.0
 40
6.594315184532321
100
AcDbArc
 50
166.6514081611
 51
193.3196024972
  0
ARC
  5
125
330
5E
100
AcDbEntity
  8
DV1_Standard
  6
Continuous
 62
     7
100
AcDbCircle
 10
97.0051582897
 20
588.1220487851
 30
0.0
 40
6.59298389151032
100
AcDbArc
 50
166.6631434766
 51
193.3439556324
  0
ARC
  5
126
330
5E
100
AcDbEntity
  8
DV1_Standard
  6
Continuous
 62
     7
100
AcDbCircle
 10
97.0033527743
 20
593.1224719785
 30
0.0
 40
6.591711676454878
100
AcDbArc
 50
166.6438667762
 51
193.3337767403
  0
ARC
  5
127
330
5E
100
AcDbEntity
  8
DV1_Standard
  6
Continuous
 62
     7
100
AcDbCircle
 10
97.0019675809
 20
598.1232004971
 30
0.0
 40
6.590657923301792
100
AcDbArc
 50
166.6385909698
 51
193.3218519141
  0
ARC
  5
128
330
5E
100
AcDbEntity
  8
DV1_Standard
  6
Continuous
 62
     7
100
AcDbCircle
 10
97.0013739677
 20
603.1241583153
 30
0.0
 40
6.59015820082385
100
AcDbArc
 50
166.6716559116
 51
193.3548755461
  0
ARC
  5
129
330
5E
100
AcDbEntity
  8
DV1_Standard
  6
Continuous
 62
     7
100
AcDbCircle
 10
97.0025790021
 20
608.1250412492
 30
0.0
 40
6.591132136481622
100
AcDbArc
 50
166.6708513709
 51
193.3619556815
  0
ARC
  5
12A
330
5E
100
AcDbEntity
  8
DV1_Standard
  6
Continuous
 62
     7
100
AcDbCircle
 10
97.0042059393
 20
613.1255614166
 30
0.0
 40
6.592320476388876
100
AcDbArc
 50
166.6527110718
 51
193.3375292148
  0
ARC
  5
12B
330
5E
100
AcDbEntity
  8
DV1_Standard
  6
Continuous
 62
     7
100
AcDbCircle
 10
97.0061632472
 20
618.1259092522
 30
0.0
 40
6.593664743265763
100
AcDbArc
 50
166.6742971363
 51
193.3452830694
  0
ARC
  5
12C
330
5E
100
AcDbEntity
  8
DV1_Standard
  6
Continuous
 62
     7
100
AcDbCircle
 10
97.0082340549
 20
623.1260304537
 30
0.0
 40
6.595015158488552
100
AcDbArc
 50
166.689216965
 51
193.3592254559
  0
ARC
  5
12D
330
5E
100
AcDbEntity
  8
DV1_Standard
  6
Continuous
 62
     7
100
AcDbCircle
 10
97.0099967796
 20
628.1259787827
 30
0.0
 40
6.596124518684661
100
AcDbArc
 50
166.6679958352
 51
193.341676061
  0
ARC
  5
12E
330
5E
100
AcDbEntity
  8
DV1_Standard
  6
Continuous
 62
     7
100
AcDbCircle
 10
97.0116682781
 20
633.1257324027
 30
0.0
 40
6.59715453459062
100
AcDbArc
 50
166.6704478116
 51
193.334893241
  0
ARC
  5
12F
330
5E
100
AcDbEntity
  8
DV1_Standard
  6
Continuous
 62
     7
100
AcDbCircle
 10
97.0130866124
 20
638.1253382586
 30
0.0
 40
6.598017675504871
100
AcDbArc
 50
166.6837098107
 51
193.3440922773
  0
ARC
  5
130
330
5E
100
AcDbEntity
  8
DV1_Standard
  6
Continuous
 62
     7
100
AcDbCircle
 10
97.0140938893
 20
643.1248802059
 30
0.0
 40
6.598635710797875
100
AcDbArc
 50
166.6737574441
 51
193.3370063743
  0
ARC
  5
131
330
5E
100
AcDbEntity
  8
DV1_Standard
  6
Continuous
 62
     7
100
AcDbCircle
 10
97.0146620264
 20
648.1243416604
 30
0.0
 40
6.598972685874527
100
AcDbArc
 50
166.6653654445
 51
193.3258198689
  0
ARC
  5
132
330
5E
100
AcDbEntity
  8
DV1_Standard
  6
Continuous
 62
     7
100
AcDbCircle
 10
97.0147654749
 20
653.1237616092
 30
0.0
 40
6.599029828926086
100
AcDbArc
 50
166.6737679753
 51
193.3319894396
  0
LINE
  5
133
330
5E
100
AcDbEntity
  8
DV1_Standard
  6
Continuous
 62
     7
100
AcDbLine
 10
78.6623299533
 20
498.7673261488
 30
0.0
 11
78.6623299533
 21
499.2992920301
 31
0.0
  0
LINE
  5
134
330
5E
100
AcDbEntity
  8
DV1_Standard
  6
Continuous
 62
     7
100
AcDbLine
 10
48.6623299525
 20
498.6739086504
 30
0.0
 11
48.6623299525
 21
499.3201891815
 31
0.0
  0
LINE
  5
135
330
5E
100
AcDbEntity
  8
DV1_Standard
  6
Continuous
 62
     7
100
AcDbLine
 10
78.662329953
 20
506.5280684454
 30
0.0
 11
78.6623299533
 21
502.7652672985
 31
0.0
  0
LINE
  5
136
330
5E
100
AcDbEntity
  8
DV1_Standard
  6
Continuous
 62
     7
100
AcDbLine
 10
50.0769618124
 20
508.6739086504
 30
0.0
 11
51.2623299529
 21
508.6739086504
 31
0.0
  0
SPLINE
  5
137
330
5E
100
AcDbEntity
  8
DV1_Standard
  6
Continuous
 62
     7
100
AcDbSpline
210
0.0
220
0.0
230
1.0
 70
    12
 71
     3
 72
     8
 73
     4
 74
     0
 42
0.0000000557125811
 43
0.0000000001
 40
0.0
 40
0.0
 40
0.0
 40
0.0
 40
1.0
 40
1.0
 40
1.0
 40
1.0
 10
48.66233264778685
 20
507.3916790999759
 30
0.0
 41
1.178838789651709
 10
48.66233393108088
 20
507.4508205299394
 30
0.0
 41
1.149664781112511
 10
48.66772252552734
 20
507.5104107833766
 30
0.0
 41
1.124060144083415
 10
48.67882159636903
 20
507.569902129281
 30
0.0
 41
1.10202487856442
  0
ARC
  5
138
330
5E
100
AcDbEntity
  8
DV1_Standard
  6
Continuous
 62
     7
100
AcDbCircle
 10
50.0919919915
 20
507.6884976007
 30
0.0
 40
0.9855256643902003
100
AcDbArc
 50
90.8738321709
 51
101.466229631
  0
SPLINE
  5
139
330
5E
100
AcDbEntity
  8
DV1_Standard
  6
Continuous
 62
     7
100
AcDbSpline
210
0.0
220
0.0
230
1.0
 70
    12
 71
     3
 72
     8
 73
     4
 74
     0
 42
0.0000000547663051
 43
0.0000000001
 40
0.0
 40
0.0
 40
0.0
 40
0.0
 40
1.0
 40
1.0
 40
1.0
 40
1.0
 10
77.42887528508932
 20
508.6563170589469
 30
0.0
 41
1.100137855873076
 10
77.36841929451472
 20
508.6681588028558
 30
0.0
 41
1.122667409201076
 10
77.3078298413323
 20
508.673904144753
 30
0.0
 41
1.148998577578154
 10
77.24770187870686
 20
508.6739059477418
 30
0.0
 41
1.17913136100431
  0
ARC
  5
13A
330
5E
100
AcDbEntity
  8
DV1_Standard
  6
Continuous
 62
     7
100
AcDbCircle
 10
77.6689824614
 20
507.3841303345
 30
0.0
 40
0.993373081392288
100
AcDbArc
 50
0.4354019416
 51
10.9493482094
  0
LINE
  5
13B
330
5E
100
AcDbEntity
  8
DV1_Standard
  6
Continuous
 62
     7
100
AcDbLine
 10
78.6623268604
 20
507.3916791
 30
0.0
 11
78.662329953
 21
506.5280684454
 31
0.0
  0
LINE
  5
13C
330
5E
100
AcDbEntity
  8
DV1_Standard
  6
Continuous
 62
     7
100
AcDbLine
 10
76.0623299529
 20
508.6739086504
 30
0.0
 11
77.2477018772
 21
508.6739086504
 31
0.0
  0
LINE
  5
13D
330
5E
100
AcDbEntity
  8
DV1_Standard
  6
Continuous
 62
     7
100
AcDbLine
 10
48.6623299524
 20
502.7652672985
 30
0.0
 11
48.6623299527
 21
506.5280684453
 31
0.0
  0
LINE
  5
13E
330
5E
100
AcDbEntity
  8
DV1_Standard
  6
Continuous
 62
     7
100
AcDbLine
 10
48.6623299528
 20
506.5280684453
 30
0.0
 11
48.6623326478
 21
507.3916791
 31
0.0
  0
SPLINE
  5
13F
330
5E
100
AcDbEntity
  8
DV1_Standard
  6
Continuous
 62
     7
100
AcDbSpline
210
0.0
220
0.0
230
1.0
 70
     8
 71
     3
 72
    11
 73
     7
 74
     0
 42
0.0000000055325832
 43
0.0000000001
 40
0.0
 40
0.0
 40
0.0
 40
0.0
 40
0.2466105750036323
 40
0.4974473798056261
 40
0.7496305696537139
 40
1.0
 40
1.0
 40
1.0
 40
1.0
 10
49.90699208878563
 20
508.6574443216912
 30
0.0
 10
49.7315244138175
 20
508.6287496775581
 30
0.0
 10
49.4365547170685
 20
508.5742748998291
 30
0.0
 10
49.04372969476857
 20
508.3354922729753
 30
0.0
 10
48.77102171608995
 20
507.9874252240436
 30
0.0
 10
48.71058944272458
 20
507.7259470021245
 30
0.0
 10
48.67878688504228
 20
507.5696852038031
 30
0.0
  0
SPLINE
  5
140
330
5E
100
AcDbEntity
  8
DV1_Standard
  6
Continuous
 62
     7
100
AcDbSpline
210
0.0
220
0.0
230
1.0
 70
     8
 71
     3
 72
    11
 73
     7
 74
     0
 42
0.0000000055103324
 43
0.0000000001
 40
0.0
 40
0.0
 40
0.0
 40
0.0
 40
0.250341982756131
 40
0.5025240553213458
 40
0.7533753549273248
 40
1.0
 40
1.0
 40
1.0
 40
1.0
 10
78.64644502064222
 20
507.5627350312905
 30
0.0
 10
78.61534697180456
 20
507.7199607847853
 30
0.0
 10
78.55604934656556
 20
507.9830721993983
 30
0.0
 10
78.28372672892031
 20
508.3334817505395
 30
0.0
 10
77.89000905697155
 20
508.5738714356584
 30
0.0
 10
77.59385595280412
 20
508.6286156599166
 30
0.0
 10
77.41766889985401
 20
508.6574438549103
 30
0.0
  0
LINE
  5
141
330
5E
100
AcDbEntity
  8
DV1_Standard
  6
Continuous
 62
     7
100
AcDbLine
 10
48.662329953
 20
498.7020592988
 30
0.0
 11
48.662329953
 21
498.8519530676
 31
0.0
  0
LINE
  5
142
330
5E
100
AcDbEntity
  8
DV1_Standard
  6
Continuous
 62
     7
100
AcDbLine
 10
78.6623299504
 20
498.8519530676
 30
0.0
 11
78.6623299509
 21
498.7013772343
 31
0.0
  0
LINE
  5
143
330
5E
100
AcDbEntity
  8
DV1_Standard
  6
Continuous
 62
     7
100
AcDbLine
 10
78.6623299504
 20
498.8519530676
 30
0.0
 11
78.6623299529
 21
503.5895064483
 31
0.0
  0
ARC
  5
144
330
5E
100
AcDbEntity
  8
DV1_Standard
  6
Continuous
 62
     7
100
AcDbCircle
 10
49.6819240249
 20
503.6103972932
 30
0.0
 40
1.019808476815929
100
AcDbArc
 50
87.156004376
 51
181.174906466
  0
ARC
  5
145
330
5E
100
AcDbEntity
  8
DV1_Standard
  6
Continuous
 62
     7
100
AcDbCircle
 10
63.6623304752
 20
684.250921628
 30
0.0
 40
180.1612952829619
100
AcDbArc
 50
265.5655486129
 51
274.4344766345
  0
ARC
  5
146
330
5E
100
AcDbEntity
  8
DV1_Standard
  6
Continuous
 62
     7
100
AcDbCircle
 10
77.6427392632
 20
503.6104032887
 30
0.0
 40
1.019804810951843
100
AcDbArc
 50
358.8258688798
 51
92.8396849674
  0
LINE
  5
147
330
5E
100
AcDbEntity
  8
DV1_Standard
  6
Continuous
 62
     7
100
AcDbLine
 10
48.662329953
 20
503.5894865801
 30
0.0
 11
48.662329953
 21
498.8519530676
 31
0.0
  0
LINE
  5
148
330
5E
100
AcDbEntity
  8
DV1_Standard
  6
Continuous
 62
     7
100
AcDbLine
 10
62.6623315047
 20
479.6829997473
 30
0.0
 11
62.6623315044
 21
479.7580156367
 31
0.0
  0
ARC
  5
149
330
5E
100
AcDbEntity
  8
DV1_Standard
  6
Continuous
 62
     7
100
AcDbCircle
 10
62.1623307288
 20
503.3876924242
 30
0.0
 40
23.70996532438548
100
AcDbArc
 50
268.7916448802
 51
271.2083551196
  0
LINE
  5
14A
330
5E
100
AcDbEntity
  8
DV1_Standard
  6
Continuous
 62
     7
100
AcDbLine
 10
120.9746599058
 20
483.6739086504
 30
0.0
 11
6.35
 21
483.6739086504
 31
0.0
  0
LINE
  5
14B
330
5E
100
AcDbEntity
  8
DV1_Standard
  6
Continuous
 62
     7
100
AcDbLine
 10
119.4666303565
 20
495.6739086504
 30
0.0
 11
7.8580295493
 21
495.6739086504
 31
0.0
  0
LINE
  5
14C
330
5E
100
AcDbEntity
  8
DV1_Standard
  6
Continuous
 62
     7
100
AcDbLine
 10
117.8353973612
 20
497.1739086504
 30
0.0
 11
9.4892625446
 21
497.1739086504
 31
0.0
  0
LINE
  5
14D
330
5E
100
AcDbEntity
  8
DV1_Standard
  6
Continuous
 62
     7
100
AcDbLine
 10
116.2041643659
 20
498.6739086504
 30
0.0
 11
11.1204955399
 21
498.6739086504
 31
0.0
  0
ARC
  5
14E
330
5E
100
AcDbEntity
  8
DV1_Standard
  6
Continuous
 62
     7
100
AcDbCircle
 10
63.6623299529
 20
699.6739086504
 30
0.0
 40
220.0
100
AcDbArc
 50
270.5208778976
 51
280.9424989069
  0
ARC
  5
14F
330
5E
100
AcDbEntity
  8
DV1_Standard
  6
Continuous
 62
     7
100
AcDbCircle
 10
63.6623299529
 20
699.6739086504
 30
0.0
 40
220.0000000000023
100
AcDbArc
 50
259.0575010931
 51
269.4822478038
  0
LINE
  5
150
330
5E
100
AcDbEntity
  8
DV1_Standard
  6
Continuous
 62
     7
100
AcDbLine
 10
120.9746599058
 20
483.6739086504
 30
0.0
 11
119.9647277055
 21
495.2174865218
 31
0.0
  0
LINE
  5
151
330
5E
100
AcDbEntity
  8
DV1_Standard
  6
Continuous
 62
     7
100
AcDbLine
 10
7.3599322003
 20
495.2174865218
 30
0.0
 11
6.35
 21
483.6739086504
 31
0.0
  0
ARC
  5
152
330
5E
100
AcDbEntity
  8
DV1_Standard
  6
Continuous
 62
     7
100
AcDbCircle
 10
119.4666303565
 20
495.1739086504
 30
0.0
 40
0.4999999999970888
100
AcDbArc
 50
5.0
 51
90.0
  0
ARC
  5
153
330
5E
100
AcDbEntity
  8
DV1_Standard
  6
Continuous
 62
     7
100
AcDbCircle
 10
7.8580295493
 20
495.1739086504
 30
0.0
 40
0.5000000000000004
100
AcDbArc
 50
90.0
 51
175.0
  0
ARC
  5
154
330
5E
100
AcDbEntity
  8
DV1_Standard
  6
Continuous
 62
     7
100
AcDbCircle
 10
118.6080621783
 20
495.8739086504
 30
0.0
 40
0.199999999999978
100
AcDbArc
 50
184.9999999998
 51
270.0
  0
ARC
  5
155
330
5E
100
AcDbEntity
  8
DV1_Standard
  6
Continuous
 62
     7
100
AcDbCircle
 10
8.7165977275
 20
495.8739086504
 30
0.0
 40
0.2000000000008068
100
AcDbArc
 50
270.0
 51
355.0000000002
  0
LINE
  5
156
330
5E
100
AcDbEntity
  8
DV1_Standard
  6
Continuous
 62
     7
100
AcDbLine
 10
118.4088232386
 20
495.8564775018
 30
0.0
 11
118.3334947102
 21
496.7174865218
 31
0.0
  0
LINE
  5
157
330
5E
100
AcDbEntity
  8
DV1_Standard
  6
Continuous
 62
     7
100
AcDbLine
 10
8.9911651956
 20
496.7174865218
 30
0.0
 11
8.9158366671
 21
495.8564775018
 31
0.0
  0
ARC
  5
158
330
5E
100
AcDbEntity
  8
DV1_Standard
  6
Continuous
 62
     7
100
AcDbCircle
 10
117.8353973612
 20
496.6739086504
 30
0.0
 40
0.5000000000020681
100
AcDbArc
 50
5.0
 51
90.0
  0
ARC
  5
159
330
5E
100
AcDbEntity
  8
DV1_Standard
  6
Continuous
 62
     7
100
AcDbCircle
 10
9.4892625446
 20
496.6739086504
 30
0.0
 40
0.5000000000000004
100
AcDbArc
 50
90.0
 51
175.0
  0
ARC
  5
15A
330
5E
100
AcDbEntity
  8
DV1_Standard
  6
Continuous
 62
     7
100
AcDbCircle
 10
116.976829183
 20
497.3739086504
 30
0.0
 40
0.2000000000000057
100
AcDbArc
 50
184.9999999998
 51
270.0
  0
ARC
  5
15B
330
5E
100
AcDbEntity
  8
DV1_Standard
  6
Continuous
 62
     7
100
AcDbCircle
 10
10.3478307228
 20
497.3739086504
 30
0.0
 40
0.2000000000008068
100
AcDbArc
 50
270.0
 51
355.0000000002
  0
LINE
  5
15C
330
5E
100
AcDbEntity
  8
DV1_Standard
  6
Continuous
 62
     7
100
AcDbLine
 10
116.7775902434
 20
497.3564775018
 30
0.0
 11
116.7022617149
 21
498.2174865218
 31
0.0
  0
LINE
  5
15D
330
5E
100
AcDbEntity
  8
DV1_Standard
  6
Continuous
 62
     7
100
AcDbLine
 10
10.6223981908
 20
498.2174865218
 30
0.0
 11
10.5470696624
 21
497.3564775018
 31
0.0
  0
ARC
  5
15E
330
5E
100
AcDbEntity
  8
DV1_Standard
  6
Continuous
 62
     7
100
AcDbCircle
 10
116.2041643659
 20
498.1739086504
 30
0.0
 40
0.5000000000020651
100
AcDbArc
 50
5.0
 51
90.0
  0
ARC
  5
15F
330
5E
100
AcDbEntity
  8
DV1_Standard
  6
Continuous
 62
     7
100
AcDbCircle
 10
11.1204955399
 20
498.1739086504
 30
0.0
 40
0.5000000000000004
100
AcDbArc
 50
90.0
 51
175.0
  0
LINE
  5
160
330
5E
100
AcDbEntity
  8
DV1_Standard
  6
Continuous
 62
     7
100
AcDbLine
 10
109.6546342502
 20
687.1756881026
 30
0.0
 11
110.9716540833
 21
687.1803644997
 31
0.0
  0
LINE
  5
161
330
5E
100
AcDbEntity
  8
DV1_Standard
  6
Continuous
 62
     7
100
AcDbLine
 10
62.6623315047
 20
479.6829997473
 30
0.0
 11
65.6623299529
 21
479.6829997473
 31
0.0
  0
ENDBLK
  5
163
330
5E
100
AcDbEntity
  8
0
100
AcDbBlockEnd
  0
BLOCK
  5
241
330
164
100
AcDbEntity
  8
0
100
AcDbBlockBegin
  2
SE1
 70
     0
 10
0.0
 20
0.0
 30
0.0
  3
SE1
  1

  0
LINE
  5
167
330
164
100
AcDbEntity
  8
DV2_Standard
  6
CENTER2
 62
     7
100
AcDbLine
 10
224.5673041402
 20
976.1739086504
 30
0.0
 11
184.5673050342
 21
976.1739086504
 31
0.0
  0
LINE
  5
168
330
164
100
AcDbEntity
  8
DV2_Standard
  6
CENTER2
 62
     7
100
AcDbLine
 10
204.5673045872
 20
996.1739082034
 30
0.0
 11
204.5673045872
 21
956.1739090974
 31
0.0
  0
LINE
  5
169
330
164
100
AcDbEntity
  8
DV2_Standard
  6
CENTER2
 62
     7
100
AcDbLine
 10
224.5673041402
 20
356.1739086504
 30
0.0
 11
184.5673050342
 21
356.1739086504
 31
0.0
  0
LINE
  5
16A
330
164
100
AcDbEntity
  8
DV2_Standard
  6
CENTER2
 62
     7
100
AcDbLine
 10
204.5673045872
 20
376.1739082034
 30
0.0
 11
204.5673045872
 21
336.1739090974
 31
0.0
  0
LINE
  5
16B
330
164
100
AcDbEntity
  8
DV2_Standard
  6
Continuous
 62
     7
100
AcDbLine
 10
296.5673045872
 20
676.0539999311
 30
0.0
 11
296.5673045872
 21
641.2938189582
 31
0.0
  0
LINE
  5
16C
330
164
100
AcDbEntity
  8
DV2_Standard
  6
Continuous
 62
     7
100
AcDbLine
 10
263.9673045872
 20
678.588429574
 30
0.0
 11
292.6371088968
 21
678.0879962783
 31
0.0
  0
LINE
  5
16D
330
164
100
AcDbEntity
  8
DV2_Standard
  6
Continuous
 62
     7
100
AcDbLine
 10
292.6371088968
 20
678.0879962783
 30
0.0
 11
294.6022094001
 21
678.0536953214
 31
0.0
  0
ARC
  5
16E
330
164
100
AcDbEntity
  8
DV2_Standard
  6
Continuous
 62
     7
100
AcDbCircle
 10
294.5673045872
 20
676.0539999311
 30
0.0
 40
2.000000000000023
100
AcDbArc
 50
0.0
 51
89.0
  0
LINE
  5
16F
330
164
100
AcDbEntity
  8
DV2_Standard
  6
Continuous
 62
     7
100
AcDbLine
 10
294.6022094001
 20
639.2941235679
 30
0.0
 11
292.6371088968
 21
639.259822611
 31
0.0
  0
LINE
  5
170
330
164
100
AcDbEntity
  8
DV2_Standard
  6
Continuous
 62
     7
100
AcDbLine
 10
292.6371088968
 20
639.259822611
 30
0.0
 11
263.9673045872
 21
638.7593893153
 31
0.0
  0
ARC
  5
171
330
164
100
AcDbEntity
  8
DV2_Standard
  6
Continuous
 62
     7
100
AcDbCircle
 10
294.5673045872
 20
641.2938189582
 30
0.0
 40
2.000000000000024
100
AcDbArc
 50
271.0
 51
0.0
  0
ARC
  5
172
330
164
100
AcDbEntity
  8
DV2_Standard
  6
Continuous
 62
     7
100
AcDbCircle
 10
251.5673045872
 20
658.6739086504
 30
0.0
 40
20.0
100
AcDbArc
 50
16.7454948682
 51
17.7600993207
  0
ARC
  5
173
330
164
100
AcDbEntity
  8
DV2_Standard
  6
Continuous
 62
     7
100
AcDbCircle
 10
251.5673045872
 20
658.6739086504
 30
0.0
 40
20.0
100
AcDbArc
 50
117.2399006793
 51
123.3459875913
  0
ARC
  5
174
330
164
100
AcDbEntity
  8
DV2_Standard
  6
Continuous
 62
     7
100
AcDbCircle
 10
251.5673045872
 20
658.6739086504
 30
0.0
 40
20.0
100
AcDbArc
 50
162.2399006793
 51
166.0905557425
  0
ARC
  5
175
330
164
100
AcDbEntity
  8
DV2_Standard
  6
Continuous
 62
     7
100
AcDbCircle
 10
251.5673045872
 20
658.6739086504
 30
0.0
 40
20.0
100
AcDbArc
 50
188.1041537957
 51
197.7600993207
  0
ARC
  5
176
330
164
100
AcDbEntity
  8
DV2_Standard
  6
Continuous
 62
     7
100
AcDbCircle
 10
251.5673045872
 20
658.6739086504
 30
0.0
 40
20.0
100
AcDbArc
 50
207.2399006793
 51
208.7678932188
  0
ARC
  5
177
330
164
100
AcDbEntity
  8
DV2_Standard
  6
Continuous
 62
     7
100
AcDbCircle
 10
251.5673045872
 20
658.6739086504
 30
0.0
 40
20.0
100
AcDbArc
 50
240.9872862288
 51
242.7600993207
  0
ARC
  5
178
330
164
100
AcDbEntity
  8
DV2_Standard
  6
Continuous
 62
     7
100
AcDbCircle
 10
251.5673045872
 20
658.6739086504
 30
0.0
 40
20.0
100
AcDbArc
 50
269.6578179125
 51
270.6357674292
  0
ARC
  5
179
330
164
100
AcDbEntity
  8
DV2_Standard
  6
Continuous
 62
     7
100
AcDbCircle
 10
251.5673045872
 20
658.6739086504
 30
0.0
 40
20.0
100
AcDbArc
 50
297.2399006793
 51
301.9226510088
  0
ARC
  5
17A
330
164
100
AcDbEntity
  8
DV2_Standard
  6
Continuous
 62
     7
100
AcDbCircle
 10
251.5673045872
 20
658.6739086504
 30
0.0
 40
20.0
100
AcDbArc
 50
323.8466942159
 51
332.7600993207
  0
ARC
  5
17B
330
164
100
AcDbEntity
  8
DV2_Standard
  6
Continuous
 62
     7
100
AcDbCircle
 10
251.5673045872
 20
658.6739086504
 30
0.0
 40
20.0
100
AcDbArc
 50
342.2399006793
 51
344.6573839584
  0
ARC
  5
17C
330
164
100
AcDbEntity
  8
DV2_Standard
  6
Continuous
 62
     7
100
AcDbCircle
 10
251.5673045872
 20
658.6739086504
 30
0.0
 40
20.00000003023414
100
AcDbArc
 50
62.7600993207
 51
72.2399006793
  0
ARC
  5
17D
330
164
100
AcDbEntity
  8
DV2_Standard
  6
Continuous
 62
     7
100
AcDbCircle
 10
251.5673045872
 20
658.6739086504
 30
0.0
 40
20.00000003023392
100
AcDbArc
 50
72.2399006793
 51
107.7600993207
  0
ARC
  5
17E
330
164
100
AcDbEntity
  8
DV2_Standard
  6
Continuous
 62
     7
100
AcDbCircle
 10
251.5673045872
 20
658.6739086504
 30
0.0
 40
20.00000003023417
100
AcDbArc
 50
17.7600993207
 51
27.2399006793
  0
ARC
  5
17F
330
164
100
AcDbEntity
  8
DV2_Standard
  6
Continuous
 62
     7
100
AcDbCircle
 10
251.5673045872
 20
658.6739086504
 30
0.0
 40
20.00000003023385
100
AcDbArc
 50
27.2399006793
 51
62.7600993207
  0
ARC
  5
180
330
164
100
AcDbEntity
  8
DV2_Standard
  6
Continuous
 62
     7
100
AcDbCircle
 10
251.5673045872
 20
658.6739086504
 30
0.0
 40
20.00000003023418
100
AcDbArc
 50
332.7600993207
 51
342.2399006793
  0
ARC
  5
181
330
164
100
AcDbEntity
  8
DV2_Standard
  6
Continuous
 62
     7
100
AcDbCircle
 10
251.5673045872
 20
658.6739086504
 30
0.0
 40
20.0000000302343
100
AcDbArc
 50
342.2399006793
 51
17.7600993207
  0
ARC
  5
182
330
164
100
AcDbEntity
  8
DV2_Standard
  6
Continuous
 62
     7
100
AcDbCircle
 10
251.5673045872
 20
658.6739086504
 30
0.0
 40
20.00000003023418
100
AcDbArc
 50
287.7600993207
 51
297.2399006793
  0
ARC
  5
183
330
164
100
AcDbEntity
  8
DV2_Standard
  6
Continuous
 62
     7
100
AcDbCircle
 10
251.5673045872
 20
658.6739086504
 30
0.0
 40
20.00000003023413
100
AcDbArc
 50
297.2399006793
 51
332.7600993207
  0
ARC
  5
184
330
164
100
AcDbEntity
  8
DV2_Standard
  6
Continuous
 62
     7
100
AcDbCircle
 10
251.5673045872
 20
658.6739086504
 30
0.0
 40
20.0000000302342
100
AcDbArc
 50
242.7600993207
 51
252.2399006793
  0
ARC
  5
185
330
164
100
AcDbEntity
  8
DV2_Standard
  6
Continuous
 62
     7
100
AcDbCircle
 10
251.5673045872
 20
658.6739086504
 30
0.0
 40
20.00000003023358
100
AcDbArc
 50
252.2399006793
 51
287.7600993207
  0
ARC
  5
186
330
164
100
AcDbEntity
  8
DV2_Standard
  6
Continuous
 62
     7
100
AcDbCircle
 10
251.5673045872
 20
658.6739086504
 30
0.0
 40
20.00000003023418
100
AcDbArc
 50
197.7600993207
 51
207.2399006793
  0
ARC
  5
187
330
164
100
AcDbEntity
  8
DV2_Standard
  6
Continuous
 62
     7
100
AcDbCircle
 10
251.5673045872
 20
658.6739086504
 30
0.0
 40
20.00000003023432
100
AcDbArc
 50
207.2399006793
 51
242.7600993207
  0
ARC
  5
188
330
164
100
AcDbEntity
  8
DV2_Standard
  6
Continuous
 62
     7
100
AcDbCircle
 10
251.5673045872
 20
658.6739086504
 30
0.0
 40
20.00000003023417
100
AcDbArc
 50
152.7600993207
 51
162.2399006793
  0
ARC
  5
189
330
164
100
AcDbEntity
  8
DV2_Standard
  6
Continuous
 62
     7
100
AcDbCircle
 10
251.5673045872
 20
658.6739086504
 30
0.0
 40
20.00000003023422
100
AcDbArc
 50
162.2399006793
 51
197.7600993207
  0
ARC
  5
18A
330
164
100
AcDbEntity
  8
DV2_Standard
  6
Continuous
 62
     7
100
AcDbCircle
 10
251.5673045872
 20
658.6739086504
 30
0.0
 40
20.00000003023418
100
AcDbArc
 50
107.7600993207
 51
117.2399006793
  0
ARC
  5
18B
330
164
100
AcDbEntity
  8
DV2_Standard
  6
Continuous
 62
     7
100
AcDbCircle
 10
251.5673045872
 20
658.6739086504
 30
0.0
 40
20.00000003023408
100
AcDbArc
 50
117.2399006793
 51
152.7600993207
  0
LINE
  5
18C
330
164
100
AcDbEntity
  8
DV2_Standard
  6
Continuous
 62
     7
100
AcDbLine
 10
263.9673045872
 20
376.0106161907
 30
0.0
 11
263.9673045872
 21
483.6739086504
 31
0.0
  0
LINE
  5
18D
330
164
100
AcDbEntity
  8
DV2_Standard
  6
Continuous
 62
     7
100
AcDbLine
 10
263.9673045872
 20
504.334919902
 30
0.0
 11
263.9673045872
 21
642.9818724536
 31
0.0
  0
LINE
  5
18E
330
164
100
AcDbEntity
  8
DV2_Standard
  6
Continuous
 62
     7
100
AcDbLine
 10
263.9673045872
 20
674.3659448471
 30
0.0
 11
263.9673045872
 21
956.3370674691
 31
0.0
  0
LINE
  5
18F
330
164
100
AcDbEntity
  8
DV2_Standard
  6
Continuous
 62
     7
100
AcDbLine
 10
239.1673045872
 20
956.1505077907
 30
0.0
 11
239.1673045872
 21
674.3659448471
 31
0.0
  0
LINE
  5
190
330
164
100
AcDbEntity
  8
DV2_Standard
  6
Continuous
 62
     7
100
AcDbLine
 10
239.1673045872
 20
642.9818724536
 30
0.0
 11
239.1673045872
 21
508.6739086504
 31
0.0
  0
LINE
  5
191
330
164
100
AcDbEntity
  8
DV2_Standard
  6
Continuous
 62
     7
100
AcDbLine
 10
239.1673045872
 20
483.6739086504
 30
0.0
 11
239.1673045872
 21
376.1977551529
 31
0.0
  0
LINE
  5
192
330
164
100
AcDbEntity
  8
DV2_Standard
  6
Continuous
 62
     7
100
AcDbLine
 10
271.5673045872
 20
336.4239086504
 30
0.0
 11
272.6629234949
 21
336.4239086504
 31
0.0
  0
LINE
  5
193
330
164
100
AcDbEntity
  8
DV2_Standard
  6
Continuous
 62
     7
100
AcDbLine
 10
272.6629234949
 20
375.9239086504
 30
0.0
 11
271.5673045872
 21
375.9239086504
 31
0.0
  0
ARC
  5
194
330
164
100
AcDbEntity
  8
DV2_Standard
  6
Continuous
 62
     7
100
AcDbCircle
 10
272.6629234949
 20
342.4239082738
 30
0.0
 40
5.999999623352745
100
AcDbArc
 50
270.0
 51
336.1457325071
  0
ARC
  5
195
330
164
100
AcDbEntity
  8
DV2_Standard
  6
Continuous
 62
     7
100
AcDbCircle
 10
272.6629234949
 20
369.923909027
 30
0.0
 40
5.999999623352744
100
AcDbArc
 50
23.8542674929
 51
90.0
  0
ARC
  5
196
330
164
100
AcDbEntity
  8
DV2_Standard
  6
Continuous
 62
     7
100
AcDbCircle
 10
241.5673045872
 20
356.1739086504
 30
0.0
 40
39.99999999997922
100
AcDbArc
 50
336.145729562
 51
23.854270438
  0
LINE
  5
197
330
164
100
AcDbEntity
  8
DV2_Standard
  6
Continuous
 62
     7
100
AcDbLine
 10
271.5673045872
 20
956.4239086504
 30
0.0
 11
272.6629234949
 21
956.4239086504
 31
0.0
  0
LINE
  5
198
330
164
100
AcDbEntity
  8
DV2_Standard
  6
Continuous
 62
     7
100
AcDbLine
 10
272.6629234949
 20
995.9239086504
 30
0.0
 11
271.5673045872
 21
995.9239086504
 31
0.0
  0
ARC
  5
199
330
164
100
AcDbEntity
  8
DV2_Standard
  6
Continuous
 62
     7
100
AcDbCircle
 10
272.6629234949
 20
962.4239082738
 30
0.0
 40
5.999999623352736
100
AcDbArc
 50
270.0
 51
336.1457325071
  0
ARC
  5
19A
330
164
100
AcDbEntity
  8
DV2_Standard
  6
Continuous
 62
     7
100
AcDbCircle
 10
272.6629234949
 20
989.923909027
 30
0.0
 40
5.999999623352746
100
AcDbArc
 50
23.8542674929
 51
90.0
  0
ARC
  5
19B
330
164
100
AcDbEntity
  8
DV2_Standard
  6
Continuous
 62
     7
100
AcDbCircle
 10
241.5673045872
 20
976.1739086504
 30
0.0
 40
39.99999999997921
100
AcDbArc
 50
336.145729562
 51
23.854270438
  0
LINE
  5
19C
330
164
100
AcDbEntity
  8
DV2_Standard
  6
Continuous
 62
     7
100
AcDbLine
 10
271.5673045872
 20
996.0170434834
 30
0.0
 11
271.5673045872
 21
956.1739086504
 31
0.0
  0
LINE
  5
19D
330
164
100
AcDbEntity
  8
DV2_Standard
  6
Continuous
 62
     7
100
AcDbLine
 10
204.5673045872
 20
955.6739086504
 30
0.0
 11
204.5673045872
 21
996.6739086504
 31
0.0
  0
ARC
  5
19E
330
164
100
AcDbEntity
  8
DV2_Standard
  6
Continuous
 62
     7
100
AcDbCircle
 10
251.6829623614
 20
940.5265311146
 30
0.0
 40
20.06929913124395
100
AcDbArc
 50
50.98411811
 51
129.8710243128
  0
LINE
  5
19F
330
164
100
AcDbEntity
  8
DV2_Standard
  6
Continuous
 62
     7
100
AcDbLine
 10
271.5673045872
 20
996.0170434834
 30
0.0
 11
269.5673045872
 21
996.0320867565
 31
0.0
  0
LINE
  5
1A0
330
164
100
AcDbEntity
  8
DV2_Standard
  6
Continuous
 62
     7
100
AcDbLine
 10
269.5673045872
 20
996.0320867565
 30
0.0
 11
269.5673045872
 21
996.1888340235
 31
0.0
  0
LINE
  5
1A1
330
164
100
AcDbEntity
  8
DV2_Standard
  6
Continuous
 62
     7
100
AcDbLine
 10
264.2925738722
 20
956.1196196152
 30
0.0
 11
271.5673045872
 21
956.1739086504
 31
0.0
  0
LINE
  5
1A2
330
164
100
AcDbEntity
  8
DV2_Standard
  6
Continuous
 62
     7
100
AcDbLine
 10
204.5673045872
 20
955.6739086504
 30
0.0
 11
238.8502685723
 21
955.9297516652
 31
0.0
  0
LINE
  5
1A3
330
164
100
AcDbEntity
  8
DV2_Standard
  6
Continuous
 62
     7
100
AcDbLine
 10
269.5673045872
 20
996.1888340235
 30
0.0
 11
204.5673045872
 21
996.6739086504
 31
0.0
  0
LINE
  5
1A4
330
164
100
AcDbEntity
  8
DV2_Standard
  6
Continuous
 62
     7
100
AcDbLine
 10
271.5673045872
 20
336.3307738174
 30
0.0
 11
271.5673045872
 21
376.1739086504
 31
0.0
  0
LINE
  5
1A5
330
164
100
AcDbEntity
  8
DV2_Standard
  6
Continuous
 62
     7
100
AcDbLine
 10
204.5673045872
 20
335.6739086504
 30
0.0
 11
204.5673045872
 21
376.6739086504
 31
0.0
  0
ARC
  5
1A6
330
164
100
AcDbEntity
  8
DV2_Standard
  6
Continuous
 62
     7
100
AcDbCircle
 10
251.6829623614
 20
391.8212861862
 30
0.0
 40
20.06929913124393
100
AcDbArc
 50
230.1289756872
 51
309.01588189
  0
LINE
  5
1A7
330
164
100
AcDbEntity
  8
DV2_Standard
  6
Continuous
 62
     7
100
AcDbLine
 10
269.5673045872
 20
336.3157305443
 30
0.0
 11
271.5673045872
 21
336.3307738174
 31
0.0
  0
LINE
  5
1A8
330
164
100
AcDbEntity
  8
DV2_Standard
  6
Continuous
 62
     7
100
AcDbLine
 10
269.5673045872
 20
336.3157305443
 30
0.0
 11
269.5673045872
 21
336.1589832773
 31
0.0
  0
LINE
  5
1A9
330
164
100
AcDbEntity
  8
DV2_Standard
  6
Continuous
 62
     7
100
AcDbLine
 10
204.5673045872
 20
335.6739086504
 30
0.0
 11
269.5673045872
 21
336.1589832773
 31
0.0
  0
LINE
  5
1AA
330
164
100
AcDbEntity
  8
DV2_Standard
  6
Continuous
 62
     7
100
AcDbLine
 10
238.8502685723
 20
376.4180656356
 30
0.0
 11
204.5673045872
 21
376.6739086504
 31
0.0
  0
LINE
  5
1AB
330
164
100
AcDbEntity
  8
DV2_Standard
  6
Continuous
 62
     7
100
AcDbLine
 10
271.5673045872
 20
376.1739086504
 30
0.0
 11
264.2925738722
 21
376.2281976856
 31
0.0
  0
ARC
  5
1AC
330
164
100
AcDbEntity
  8
DV2_Standard
  6
Continuous
 62
     7
100
AcDbCircle
 10
274.1254799405
 20
914.3198751345
 30
0.0
 40
89.07757828258111
100
AcDbArc
 50
358.8418546747
 51
0.7026895881
  0
ARC
  5
1AD
330
164
100
AcDbEntity
  8
DV2_Standard
  6
Continuous
 62
     7
100
AcDbCircle
 10
269.0517104546
 20
905.531848599
 30
0.0
 40
89.07757828258106
100
AcDbArc
 50
299.2973104119
 51
301.1600999496
  0
LINE
  5
1AE
330
164
100
AcDbEntity
  8
DV2_Standard
  6
Continuous
 62
     7
100
AcDbLine
 10
362.9463967522
 20
915.8391978962
 30
0.0
 11
362.5368264905
 21
916.0756633971
 31
0.0
  0
LINE
  5
1AF
330
164
100
AcDbEntity
  8
DV2_Standard
  6
Continuous
 62
     7
100
AcDbLine
 10
311.9013522387
 20
827.9924933876
 30
0.0
 11
312.1463967522
 21
827.8510168717
 31
0.0
  0
ARC
  5
1B0
330
164
100
AcDbEntity
  8
DV2_Standard
  6
Continuous
 62
     7
100
AcDbCircle
 10
362.6963967522
 20
915.4061851943
 30
0.0
 40
0.4999999999999858
100
AcDbArc
 50
0.7026895881
 51
60.0
  0
ARC
  5
1B1
330
164
100
AcDbEntity
  8
DV2_Standard
  6
Continuous
 62
     7
100
AcDbCircle
 10
312.3963967522
 20
828.2840295736
 30
0.0
 40
0.500000000000002
100
AcDbArc
 50
240.0
 51
299.2973104119
  0
LINE
  5
1B2
330
164
100
AcDbEntity
  8
DV2_Standard
  6
Continuous
 62
     7
100
AcDbLine
 10
298.7851475171
 20
686.6739094446
 30
0.0
 11
298.6380121351
 21
686.6739094446
 31
0.0
  0
SPLINE
  5
1B3
330
164
100
AcDbEntity
  8
DV2_Standard
  6
Continuous
 62
     7
100
AcDbSpline
210
0.0
220
0.0
230
1.0
 70
     8
 71
     3
 72
    10
 73
     6
 74
     0
 42
0.0000000124002373
 43
0.0000000001
 40
0.0
 40
0.0
 40
0.0
 40
0.0
 40
0.5
 40
0.5
 40
1.0
 40
1.0
 40
1.0
 40
1.0
 10
299.2865195779792
 20
687.1739094446292
 30
0.0
 10
299.2865195779792
 20
687.0416708859617
 30
0.0
 10
299.2320422872475
 20
686.9124029516245
 30
0.0
 10
299.0470787875881
 20
686.728064184851
 30
0.0
 10
298.9173758648512
 20
686.6739094446292
 30
0.0
 10
298.7851475171086
 20
686.6739094446292
 30
0.0
  0
ARC
  5
1B4
330
164
100
AcDbEntity
  8
DV2_Standard
  6
Continuous
 62
     7
100
AcDbCircle
 10
276.3173045872
 20
687.1739094446
 30
0.0
 40
0.5000000000000004
100
AcDbArc
 50
180.0
 51
270.0
  0
ARC
  5
1B5
330
164
100
AcDbEntity
  8
DV2_Standard
  6
Continuous
 62
     7
100
AcDbCircle
 10
358.4717742366
 20
921.2009976487
 30
0.0
 40
4.000000000000338
100
AcDbArc
 50
13.1732482223
 51
123.7456511218
  0
SPLINE
  5
1B6
330
164
100
AcDbEntity
  8
DV2_Standard
  6
Continuous
 62
     7
100
AcDbSpline
210
0.0
220
0.0
230
1.0
 70
     8
 71
     3
 72
    32
 73
    28
 74
     0
 42
0.0000000000383055
 43
0.0000000001
 40
0.0
 40
0.0
 40
0.0
 40
0.0
 40
0.1249999999999998
 40
0.1249999999999998
 40
0.2499999999999997
 40
0.2499999999999997
 40
0.3749999999999996
 40
0.3749999999999996
 40
0.4374999999999997
 40
0.4374999999999997
 40
0.4999999999999998
 40
0.4999999999999998
 40
0.5624999999999998
 40
0.5624999999999998
 40
0.6249999999999998
 40
0.6249999999999998
 40
0.6874999999999999
 40
0.6874999999999999
 40
0.7499999999999999
 40
0.7499999999999999
 40
0.8124999999999999
 40
0.8124999999999999
 40
0.8749999999999999
 40
0.8749999999999999
 40
0.9375
 40
0.9375
 40
1.0
 40
1.0
 40
1.0
 40
1.0
 10
273.6590206934829
 20
688.6985214761254
 30
0.0
 10
273.8526047584492
 20
699.5729027672351
 30
0.0
 10
274.1987003221697
 20
710.442291559132
 30
0.0
 10
275.2526565007405
 20
732.1692266802407
 30
0.0
 10
275.954821255413
 20
743.0231792586636
 30
0.0
 10
277.6528588647022
 20
764.7095361280001
 30
0.0
 10
278.6177954312752
 20
775.5423527013426
 30
0.0
 10
280.4886796740201
 20
791.7449819776414
 30
0.0
 10
281.1903558184983
 20
797.1425442839849
 30
0.0
 10
282.9752324630281
 20
807.8728248167562
 30
0.0
 10
284.0759249564305
 20
813.1951162879594
 30
0.0
 10
286.7536734752961
 20
823.7416862911475
 30
0.0
 10
288.3138780497993
 20
828.9628667807688
 30
0.0
 10
291.789330739856
 20
839.272287926369
 30
0.0
 10
293.7038346895016
 20
844.3613635796175
 30
0.0
 10
297.905727952237
 20
854.4010680456082
 30
0.0
 10
300.1919962066416
 20
859.3497399813637
 30
0.0
 10
305.2246086974839
 20
868.988320588687
 30
0.0
 10
307.9785760304468
 20
873.6712033929324
 30
0.0
 10
313.9446786826255
 20
882.7739997877253
 30
0.0
 10
317.1368843595517
 20
887.1765007137514
 30
0.0
 10
323.9074937062204
 20
895.6817758744393
 30
0.0
 10
327.4863148877624
 20
899.7920394513093
 30
0.0
 10
335.0006493335613
 20
907.6364934429546
 30
0.0
 10
338.963797872522
 20
911.3804558489571
 30
0.0
 10
347.3270628304488
 20
918.3266839478847
 30
0.0
 10
351.7281269016997
 20
921.5062583361448
 30
0.0
 10
356.2497457525427
 20
924.5270447644281
 30
0.0
  0
SPLINE
  5
1B7
330
164
100
AcDbEntity
  8
DV2_Standard
  6
Continuous
 62
     7
100
AcDbSpline
210
0.0
220
0.0
230
1.0
 70
     8
 71
     3
 72
    10
 73
     6
 74
     0
 42
0.000000011113775
 43
0.0000000001
 40
0.0
 40
0.0
 40
0.0
 40
0.0
 40
0.5
 40
0.5
 40
1.0
 40
1.0
 40
1.0
 40
1.0
 10
301.5738116082343
 20
688.6789092447036
 30
0.0
 10
301.5736554028642
 20
688.5279939041935
 30
0.0
 10
301.5512328982081
 20
688.3808942981007
 30
0.0
 10
301.4626258036483
 20
688.094194513311
 30
0.0
 10
301.3971465323273
 20
687.9585844509529
 30
0.0
 10
301.3129555348315
 20
687.8351664184465
 30
0.0
  0
SPLINE
  5
1B8
330
164
100
AcDbEntity
  8
DV2_Standard
  6
Continuous
 62
     7
100
AcDbSpline
210
0.0
220
0.0
230
1.0
 70
     8
 71
     3
 72
    18
 73
    14
 74
     0
 42
0.0000000042666035
 43
0.0000000001
 40
0.0
 40
0.0
 40
0.0
 40
0.0
 40
0.125
 40
0.125
 40
0.25
 40
0.25
 40
0.375
 40
0.375
 40
0.5
 40
0.5
 40
0.75
 40
0.75
 40
1.0
 40
1.0
 40
1.0
 40
1.0
 10
275.1593031715963
 20
687.1718230258517
 30
0.0
 10
275.0611488375299
 20
687.171788992416
 30
0.0
 10
274.9646161072255
 20
687.1812968290807
 30
0.0
 10
274.7746607559644
 20
687.2186130639166
 30
0.0
 10
274.6802794219452
 20
687.2468576525386
 30
0.0
 10
274.499972625924
 20
687.3207268629471
 30
0.0
 10
274.4144054382376
 20
687.3659437766388
 30
0.0
 10
274.252337347766
 20
687.4727505488023
 30
0.0
 10
274.1754231939126
 20
687.53498248017
 30
0.0
 10
273.9681427855981
 20
687.7390918986802
 30
0.0
 10
273.8559407805785
 20
687.9036691206353
 30
0.0
 10
273.7036300728284
 20
688.2595268412352
 30
0.0
 10
273.6618240073315
 20
688.4541275611153
 30
0.0
 10
273.6589454358121
 20
688.6497532946905
 30
0.0
  0
SPLINE
  5
1B9
330
164
100
AcDbEntity
  8
DV2_Standard
  6
Continuous
 62
     7
100
AcDbSpline
210
0.0
220
0.0
230
1.0
 70
     8
 71
     3
 72
    22
 73
    18
 74
     0
 42
0.0000000000808755
 43
0.0000000001
 40
0.0
 40
0.0
 40
0.0
 40
0.0
 40
0.03125
 40
0.03125
 40
0.0625
 40
0.0625
 40
0.1250000000000001
 40
0.1250000000000001
 40
0.2500000000000001
 40
0.2500000000000001
 40
0.3750000000000002
 40
0.3750000000000002
 40
0.5000000000000002
 40
0.5000000000000002
 40
0.7500000000000001
 40
0.7500000000000001
 40
1.0
 40
1.0
 40
1.0
 40
1.0
 10
311.3049153879975
 20
826.9271801502521
 30
0.0
 10
310.4129623459536
 20
825.9922345895035
 30
0.0
 10
309.7929003409551
 20
824.8378977097315
 30
0.0
 10
308.818374281465
 20
822.441920855022
 30
0.0
 10
308.4603687585671
 20
821.205983213155
 30
0.0
 10
307.4903530933252
 20
817.4676362575335
 30
0.0
 10
306.9740408706792
 20
814.9383219838726
 30
0.0
 10
305.6045190144635
 20
807.3342050239613
 30
0.0
 10
305.0057677664311
 20
802.2081027956993
 30
0.0
 10
304.0909811911616
 20
791.952034403789
 30
0.0
 10
303.774898794766
 20
786.8127668040379
 30
0.0
 10
303.2628159506367
 20
776.5246857796806
 30
0.0
 10
303.0693170375189
 20
771.3773304779484
 30
0.0
 10
302.5760950874129
 20
755.9362084578358
 30
0.0
 10
302.3618018415455
 20
745.6398406348172
 30
0.0
 10
301.9856214319655
 20
725.0460586753688
 30
0.0
 10
301.8180943884026
 20
714.7487571419364
 30
0.0
 10
301.6930409427183
 20
704.4506076020658
 30
0.0
  0
ARC
  5
1BA
330
164
100
AcDbEntity
  8
DV2_Standard
  6
Continuous
 62
     7
100
AcDbCircle
 10
311.0878513345
 20
827.1342627345
 30
0.0
 40
0.2999999999999388
100
AcDbArc
 50
316.3480963269
 51
328.5200687522
  0
ARC
  5
1BB
330
164
100
AcDbEntity
  8
DV2_Standard
  6
Continuous
 62
     7
100
AcDbCircle
 10
-861.35174057
 20
1525.0506543076
 30
0.0
 40
1364.396769621412
100
AcDbArc
 50
329.7485299367
 51
330.4036241273
  0
SPLINE
  5
1BC
330
164
100
AcDbEntity
  8
DV2_Standard
  6
Continuous
 62
     7
100
AcDbSpline
210
0.0
220
0.0
230
1.0
 70
     8
 71
     3
 72
    10
 73
     6
 74
     0
 42
0.0000000595292655
 43
0.0000000001
 40
0.0
 40
0.0
 40
0.0
 40
0.0
 40
0.1800873827161593
 40
0.1800873827161593
 40
1.0
 40
1.0
 40
1.0
 40
1.0
 10
316.2345214679872
 20
835.8345189461344
 30
0.0
 10
316.2302362901146
 20
835.825836008488
 30
0.0
 10
316.2253197991373
 20
835.8175007202935
 30
0.0
 10
316.194639049229
 20
835.7735679522533
 30
0.0
 10
316.1570021599086
 20
835.7458713087349
 30
0.0
 10
316.1112385327747
 20
835.730394806244
 30
0.0
  0
ARC
  5
1BD
330
164
100
AcDbEntity
  8
DV2_Standard
  6
Continuous
 62
     7
100
AcDbCircle
 10
434.6030498283
 20
765.3233191478
 30
0.0
 40
137.8312941492511
100
AcDbArc
 50
149.3818267064
 51
153.4515872912
  0
SPLINE
  5
1BE
330
164
100
AcDbEntity
  8
DV2_Standard
  6
Continuous
 62
     7
100
AcDbSpline
210
0.0
220
0.0
230
1.0
 70
     8
 71
     3
 72
    10
 73
     6
 74
     0
 42
0.0000000067936772
 43
0.0000000001
 40
0.0
 40
0.0
 40
0.0
 40
0.0
 40
0.5
 40
0.5
 40
1.0
 40
1.0
 40
1.0
 40
1.0
 10
301.3129555348315
 20
687.8351664184465
 30
0.0
 10
301.1763347783625
 20
687.6348900769798
 30
0.0
 10
300.9894042985673
 20
687.4678066459246
 30
0.0
 10
300.5605238963882
 20
687.241033806637
 30
0.0
 10
300.3192301648818
 20
687.1805468256342
 30
0.0
 10
300.0743325107181
 20
687.180461911314
 30
0.0
  0
LINE
  5
1BF
330
164
100
AcDbEntity
  8
DV2_Standard
  6
Continuous
 62
     7
100
AcDbLine
 10
273.6589454358
 20
688.6497532947
 30
0.0
 11
273.6590206935
 21
688.6985214761
 31
0.0
  0
LINE
  5
1C0
330
164
100
AcDbEntity
  8
DV2_Standard
  6
Continuous
 62
     7
100
AcDbLine
 10
275.1593031716
 20
687.1718230259
 30
0.0
 11
275.4426087822
 21
687.1718058446
 31
0.0
  0
SPLINE
  5
1C1
330
164
100
AcDbEntity
  8
DV2_Standard
  6
Continuous
 62
     7
100
AcDbSpline
210
0.0
220
0.0
230
1.0
 70
     8
 71
     3
 72
    18
 73
    14
 74
     0
 42
0.0000000025060016
 43
0.0000000001
 40
0.0
 40
0.0
 40
0.0
 40
0.0
 40
0.2499999999999982
 40
0.2499999999999982
 40
0.3749999999999983
 40
0.3749999999999983
 40
0.4999999999999986
 40
0.4999999999999986
 40
0.7499999999999996
 40
0.7499999999999996
 40
0.8749999999999998
 40
0.8749999999999998
 40
1.0
 40
1.0
 40
1.0
 40
1.0
 10
296.0839202034894
 20
687.1787337759116
 30
0.0
 10
296.7076455528857
 20
687.1789730809793
 30
0.0
 10
297.2676633270536
 20
687.1791919147576
 30
0.0
 10
298.0080590503759
 20
687.179488150806
 30
0.0
 10
298.2381544107843
 20
687.1795815288766
 30
0.0
 10
298.6629497405764
 20
687.179756911342
 30
0.0
 10
298.8583138493536
 20
687.1798392191502
 30
0.0
 10
299.3766453177384
 20
687.1800631386667
 30
0.0
 10
299.6360430082798
 20
687.1801834051083
 30
0.0
 10
299.8979386119337
 20
687.1803209698659
 30
0.0
 10
299.9639893379174
 20
687.1803596695871
 30
0.0
 10
300.0525116802822
 20
687.1804223937677
 30
0.0
 10
300.0743198648784
 20
687.1804459752728
 30
0.0
 10
300.0743325107181
 20
687.180461911314
 30
0.0
  0
ARC
  5
1C2
330
164
100
AcDbEntity
  8
DV2_Standard
  6
Continuous
 62
     7
100
AcDbCircle
 10
-3245.6504468322
 20
2978.3138228157
 30
0.0
 40
4146.290526125742
100
AcDbArc
 50
329.2172057363
 51
330.3084121044
  0
ARC
  5
1C3
330
164
100
AcDbEntity
  8
DV2_Standard
  6
Continuous
 62
     7
100
AcDbCircle
 10
230.9423252858
 20
899.2854474685
 30
0.0
 40
95.73265326622968
100
AcDbArc
 50
320.5470363845
 51
333.32277368
  0
SPLINE
  5
1C4
330
164
100
AcDbEntity
  8
DV2_Standard
  6
Continuous
 62
     7
100
AcDbSpline
210
0.0
220
0.0
230
1.0
 70
    12
 71
     3
 72
   414
 73
   410
 74
     0
 42
0.0000000000644499
 43
0.0000000001
 40
0.0
 40
0.0
 40
0.0
 40
0.0
 40
0.0020705589698746
 40
0.0020705589698746
 40
0.0031058384548119
 40
0.0031058384548119
 40
0.0041411179397491
 40
0.0041411179397491
 40
0.0082822358794981
 40
0.0082822358794981
 40
0.0103527948493726
 40
0.0103527948493726
 40
0.0108704345918413
 40
0.0108704345918413
 40
0.0113880743343099
 40
0.0113880743343099
 40
0.0124233538192471
 40
0.0124233538192471
 40
0.0165644717589961
 40
0.0165644717589961
 40
0.0248467076384942
 40
0.0248467076384942
 40
0.0331289435179922
 40
0.0331289435179922
 40
0.0372700614577412
 40
0.0372700614577412
 40
0.0414111793974902
 40
0.0414111793974902
 40
0.0455522973372392
 40
0.0455522973372392
 40
0.0476228563071137
 40
0.0476228563071137
 40
0.048658135792051
 40
0.048658135792051
 40
0.0496934152769883
 40
0.0496934152769883
 40
0.0579756511564865
 40
0.0579756511564865
 40
0.0662578870359845
 40
0.0662578870359845
 40
0.0703990049757335
 40
0.0703990049757335
 40
0.072469563945608
 40
0.072469563945608
 40
0.0735048434305452
 40
0.0735048434305452
 40
0.0745401229154825
 40
0.0745401229154825
 40
0.0828223587949806
 40
0.0828223587949806
 40
0.0911045946744788
 40
0.0911045946744788
 40
0.0952457126142278
 40
0.0952457126142278
 40
0.0973162715841023
 40
0.0973162715841023
 40
0.0978339113265709
 40
0.0978339113265709
 40
0.0983515510690395
 40
0.0983515510690395
 40
0.0993868305539768
 40
0.0993868305539768
 40
0.100422110038914
 40
0.100422110038914
 40
0.1014573895238513
 40
0.1014573895238513
 40
0.1035279484937258
 40
0.1035279484937258
 40
0.1076690664334748
 40
0.1076690664334748
 40
0.1159513023129729
 40
0.1159513023129729
 40
0.120092420252722
 40
0.120092420252722
 40
0.1242335381924711
 40
0.1242335381924711
 40
0.1325157740719691
 40
0.1325157740719691
 40
0.1407980099514671
 40
0.1407980099514671
 40
0.1490802458309652
 40
0.1490802458309652
 40
0.1573624817104634
 40
0.1573624817104634
 40
0.1656447175899614
 40
0.1656447175899614
 40
0.1739269534694594
 40
0.1739269534694594
 40
0.1759975124393339
 40
0.1759975124393339
 40
0.1770327919242712
 40
0.1770327919242712
 40
0.1780680714092084
 40
0.1780680714092084
 40
0.1791033508941456
 40
0.1791033508941456
 40
0.1801386303790829
 40
0.1801386303790829
 40
0.1822091893489575
 40
0.1822091893489575
 40
0.1987736611079537
 40
0.1987736611079537
 40
0.2029147790477027
 40
0.2029147790477027
 40
0.2039500585326399
 40
0.2039500585326399
 40
0.2044676982751086
 40
0.2044676982751086
 40
0.2049853380175772
 40
0.2049853380175772
 40
0.2070558969874517
 40
0.2070558969874517
 40
0.2153381328669498
 40
0.2153381328669498
 40
0.2236203687464479
 40
0.2236203687464479
 40
0.2277614866861969
 40
0.2277614866861969
 40
0.2298320456560715
 40
0.2298320456560715
 40
0.231902604625946
 40
0.231902604625946
 40
0.236043722565695
 40
0.236043722565695
 40
0.240184840505444
 40
0.240184840505444
 40
0.2484670763849421
 40
0.2484670763849421
 40
0.2526081943246912
 40
0.2526081943246912
 40
0.2567493122644403
 40
0.2567493122644403
 40
0.2650315481439383
 40
0.2650315481439383
 40
0.2733137840234363
 40
0.2733137840234363
 40
0.2774549019631853
 40
0.2774549019631853
 40
0.2815960199029344
 40
0.2815960199029344
 40
0.2981604916619305
 40
0.2981604916619305
 40
0.3064427275414286
 40
0.3064427275414286
 40
0.3105838454811776
 40
0.3105838454811776
 40
0.3147249634209267
 40
0.3147249634209267
 40
0.3230071993004248
 40
0.3230071993004248
 40
0.3271483172401738
 40
0.3271483172401738
 40
0.3292188762100484
 40
0.3292188762100484
 40
0.3302541556949856
 40
0.3302541556949856
 40
0.3312894351799229
 40
0.3312894351799229
 40
0.3354305531196718
 40
0.3354305531196718
 40
0.3395716710594209
 40
0.3395716710594209
 40
0.3437127889991699
 40
0.3437127889991699
 40
0.3457833479690444
 40
0.3457833479690444
 40
0.347853906938919
 40
0.347853906938919
 40
0.3644183786979152
 40
0.3644183786979152
 40
0.3809828504569112
 40
0.3809828504569112
 40
0.3851239683966602
 40
0.3851239683966602
 40
0.3871945273665347
 40
0.3871945273665347
 40
0.3892650863364092
 40
0.3892650863364092
 40
0.3903003658213465
 40
0.3903003658213465
 40
0.3913356453062837
 40
0.3913356453062837
 40
0.3934062042761582
 40
0.3934062042761582
 40
0.3975473222159073
 40
0.3975473222159073
 40
0.4306762657338995
 40
0.4306762657338995
 40
0.432746824703774
 40
0.432746824703774
 40
0.4337821041887113
 40
0.4337821041887113
 40
0.4342997439311799
 40
0.4342997439311799
 40
0.4348173836736485
 40
0.4348173836736485
 40
0.4389585016133976
 40
0.4389585016133976
 40
0.4472407374928957
 40
0.4472407374928957
 40
0.4493112964627703
 40
0.4493112964627703
 40
0.4513818554326448
 40
0.4513818554326448
 40
0.4555229733723938
 40
0.4555229733723938
 40
0.4575935323422683
 40
0.4575935323422683
 40
0.4596640913121428
 40
0.4596640913121428
 40
0.4638052092518918
 40
0.4638052092518918
 40
0.4720874451313898
 40
0.4720874451313898
 40
0.4762285630711388
 40
0.4762285630711388
 40
0.4782991220410133
 40
0.4782991220410133
 40
0.4793344015259506
 40
0.4793344015259506
 40
0.480369681010888
 40
0.480369681010888
 40
0.4969341527698841
 40
0.4969341527698841
 40
0.5134986245288803
 40
0.5134986245288803
 40
0.5217808604083782
 40
0.5217808604083782
 40
0.5259219783481274
 40
0.5259219783481274
 40
0.526439618090596
 40
0.526439618090596
 40
0.5269572578330647
 40
0.5269572578330647
 40
0.5279925373180019
 40
0.5279925373180019
 40
0.5300630962878764
 40
0.5300630962878764
 40
0.5383453321673746
 40
0.5383453321673746
 40
0.5424864501071236
 40
0.5424864501071236
 40
0.5435217295920608
 40
0.5435217295920608
 40
0.544557009076998
 40
0.544557009076998
 40
0.5466275680468725
 40
0.5466275680468725
 40
0.5631920398058687
 40
0.5631920398058687
 40
0.5714742756853668
 40
0.5714742756853668
 40
0.5735448346552413
 40
0.5735448346552413
 40
0.5756153936251158
 40
0.5756153936251158
 40
0.5797565115648649
 40
0.5797565115648649
 40
0.5880387474443629
 40
0.5880387474443629
 40
0.5921798653841118
 40
0.5921798653841118
 40
0.5942504243539863
 40
0.5942504243539863
 40
0.5963209833238609
 40
0.5963209833238609
 40
0.6128854550828571
 40
0.6128854550828571
 40
0.617026573022606
 40
0.617026573022606
 40
0.6190971319924805
 40
0.6190971319924805
 40
0.6211676909623551
 40
0.6211676909623551
 40
0.6294499268418532
 40
0.6294499268418532
 40
0.6377321627213512
 40
0.6377321627213512
 40
0.6418732806611003
 40
0.6418732806611003
 40
0.6439438396309748
 40
0.6439438396309748
 40
0.6460143986008493
 40
0.6460143986008493
 40
0.6625788703598455
 40
0.6625788703598455
 40
0.6646494293297199
 40
0.6646494293297199
 40
0.6656847088146572
 40
0.6656847088146572
 40
0.6667199882995944
 40
0.6667199882995944
 40
0.6708611062393435
 40
0.6708611062393435
 40
0.6791433421188416
 40
0.6791433421188416
 40
0.6957078138778378
 40
0.6957078138778378
 40
0.7039900497573358
 40
0.7039900497573358
 40
0.708131167697085
 40
0.708131167697085
 40
0.7102017266669595
 40
0.7102017266669595
 40
0.7112370061518967
 40
0.7112370061518967
 40
0.7122722856368339
 40
0.7122722856368339
 40
0.720554521516332
 40
0.720554521516332
 40
0.7246956394560811
 40
0.7246956394560811
 40
0.7267661984259556
 40
0.7267661984259556
 40
0.7278014779108928
 40
0.7278014779108928
 40
0.7288367573958301
 40
0.7288367573958301
 40
0.7454012291548262
 40
0.7454012291548262
 40
0.7536834650343244
 40
0.7536834650343244
 40
0.7557540240041989
 40
0.7557540240041989
 40
0.7578245829740734
 40
0.7578245829740734
 40
0.7619657009138223
 40
0.7619657009138223
 40
0.7785301726728184
 40
0.7785301726728184
 40
0.7868124085523165
 40
0.7868124085523165
 40
0.7909535264920655
 40
0.7909535264920655
 40
0.7930240854619401
 40
0.7930240854619401
 40
0.7940593649468775
 40
0.7940593649468775
 40
0.7950946444318147
 40
0.7950946444318147
 40
0.796129923916752
 40
0.796129923916752
 40
0.7971652034016892
 40
0.7971652034016892
 40
0.7992357623715637
 40
0.7992357623715637
 40
0.8033768803113127
 40
0.8033768803113127
 40
0.8116591161908107
 40
0.8116591161908107
 40
0.8199413520703088
 40
0.8199413520703088
 40
0.828223587949807
 40
0.828223587949807
 40
0.8365058238293049
 40
0.8365058238293049
 40
0.8385763827991795
 40
0.8385763827991795
 40
0.840646941769054
 40
0.840646941769054
 40
0.844788059708803
 40
0.844788059708803
 40
0.8613525314677991
 40
0.8613525314677991
 40
0.8779170032267953
 40
0.8779170032267953
 40
0.8789522827117325
 40
0.8789522827117325
 40
0.8799875621966698
 40
0.8799875621966698
 40
0.8820581211665443
 40
0.8820581211665443
 40
0.8861992391062933
 40
0.8861992391062933
 40
0.8944814749857914
 40
0.8944814749857914
 40
0.9027637108652896
 40
0.9027637108652896
 40
0.9069048288050385
 40
0.9069048288050385
 40
0.908975387774913
 40
0.908975387774913
 40
0.9100106672598504
 40
0.9100106672598504
 40
0.9110459467447876
 40
0.9110459467447876
 40
0.9151870646845366
 40
0.9151870646845366
 40
0.9172576236544111
 40
0.9172576236544111
 40
0.9193281826242856
 40
0.9193281826242856
 40
0.9276104185037838
 40
0.9276104185037838
 40
0.9441748902627799
 40
0.9441748902627799
 40
0.952457126142278
 40
0.952457126142278
 40
0.9545276851121524
 40
0.9545276851121524
 40
0.9565982440820269
 40
0.9565982440820269
 40
0.960739362021776
 40
0.960739362021776
 40
0.9773038337807721
 40
0.9773038337807721
 40
0.9938683055397683
 40
0.9938683055397683
 40
1.0
 40
1.0
 40
1.0
 40
1.0
 10
304.861958941384
 20
838.452654818326
 30
0.0
 41
1.0
 10
304.8154223365352
 20
838.3937584385435
 30
0.0
 41
1.0
 10
304.7689172238564
 20
838.3352659195747
 30
0.0
 41
1.0
 10
304.6992144399125
 20
838.2480552448575
 30
0.0
 41
1.0
 10
304.6759893304055
 20
838.2190730346656
 30
0.0
 41
1.0
 10
304.6295571316364
 20
838.1612799091412
 30
0.0
 41
1.0
 10
304.6089130336663
 20
838.1356784878495
 30
0.0
 41
1.0
 10
304.5018870735598
 20
838.0032267195828
 30
0.0
 41
1.0
 10
304.4160708753354
 20
837.8980836248163
 30
0.0
 41
1.0
 10
304.2867125105676
 20
837.7410048095477
 30
0.0
 41
1.0
 10
304.2434876946745
 20
837.6887515934587
 30
0.0
 41
1.0
 10
304.1892919317303
 20
837.6235093803166
 30
0.0
 41
1.0
 10
304.1784445487404
 20
837.6104646604114
 30
0.0
 41
1.0
 10
304.1567325225163
 20
837.5843812268458
 30
0.0
 41
1.0
 10
304.1442323403156
 20
837.56932762089
 30
0.0
 41
1.0
 10
304.1073942761163
 20
837.5250303195671
 30
0.0
 41
1.0
 10
304.0827800453304
 20
837.4954910878702
 30
0.0
 41
1.0
 10
303.9594481959628
 20
837.3477657394435
 30
0.0
 41
1.0
 10
303.8599493212919
 20
837.2294957309333
 30
0.0
 41
1.0
 10
303.5595806924182
 20
836.874683403428
 30
0.0
 41
1.0
 10
303.3568450121819
 20
836.6381793873223
 30
0.0
 41
1.0
 10
302.9495435900221
 20
836.1656187801163
 30
0.0
 41
1.0
 10
302.7449861423641
 20
835.9294891157932
 30
0.0
 41
1.0
 10
302.4389325803967
 20
835.5754917046992
 30
0.0
 41
1.0
 10
302.3370421321687
 20
835.4575289993124
 30
0.0
 41
1.0
 10
302.1338321102293
 20
835.2217180573691
 30
0.0
 41
1.0
 10
302.0341890132649
 20
835.105949066715
 30
0.0
 41
1.0
 10
301.8244533228762
 20
834.8606026994319
 30
0.0
 41
1.0
 10
301.7195178862025
 20
834.7373656191919
 30
0.0
 41
1.0
 10
301.5627073125706
 20
834.5523478956683
 30
0.0
 41
1.0
 10
301.5105993319369
 20
834.4907283163485
 30
0.0
 41
1.0
 10
301.4328277996621
 20
834.3985512180332
 30
0.0
 41
1.0
 10
301.4095818819056
 20
834.3711490109105
 30
0.0
 41
1.0
 10
301.3603936193743
 20
834.3128902249096
 30
0.0
 41
1.0
 10
301.3355174934846
 20
834.2833699724795
 30
0.0
 41
1.0
 10
301.1093477100893
 20
834.0144565158192
 30
0.0
 41
1.0
 10
300.8921955807209
 20
833.7526640220824
 30
0.0
 41
1.0
 10
300.451195134352
 20
833.220659445097
 30
0.0
 41
1.0
 10
300.2274704317384
 20
832.9499327681747
 30
0.0
 41
1.0
 10
299.9042052293391
 20
832.5581901937599
 30
0.0
 41
1.0
 10
299.7984779433291
 20
832.429962949583
 30
0.0
 41
1.0
 10
299.6447097443502
 20
832.2433607674116
 30
0.0
 41
1.0
 10
299.5942542773887
 20
832.1821126260573
 30
0.0
 41
1.0
 10
299.5199550669274
 20
832.0918985167549
 30
0.0
 41
1.0
 10
299.4915501295972
 20
832.0569194708476
 30
0.0
 41
1.0
 10
299.4368300135075
 20
831.9896522065604
 30
0.0
 41
1.0
 10
299.4094369884105
 20
831.9559242026246
 30
0.0
 41
1.0
 10
299.1625694851799
 20
831.6514166675435
 30
0.0
 41
1.0
 10
298.9406456543926
 20
831.3740607192336
 30
0.0
 41
1.0
 10
298.4898479579537
 20
830.7925761946275
 30
0.0
 41
1.0
 10
298.2610556234563
 20
830.4882399559089
 30
0.0
 41
1.0
 10
297.9130671679728
 20
830.001232298589
 30
0.0
 41
1.0
 10
297.7962827745746
 20
829.8338274127195
 30
0.0
 41
1.0
 10
297.6200101718916
 20
829.5740170036631
 30
0.0
 41
1.0
 10
297.5610700122957
 20
829.4859643379453
 30
0.0
 41
1.0
 10
297.4871737749806
 20
829.3739843546819
 30
0.0
 41
1.0
 10
297.4715400328536
 20
829.3500922246482
 30
0.0
 41
1.0
 10
297.4437771963345
 20
829.3079698980519
 30
0.0
 41
1.0
 10
297.4299094803998
 20
829.2868628034533
 30
0.0
 41
1.0
 10
297.3883437098353
 20
829.2233965235889
 30
0.0
 41
1.0
 10
297.3606830480091
 20
829.1808923653817
 30
0.0
 41
1.0
 10
297.3054412501473
 20
829.0954586138436
 30
0.0
 41
1.0
 10
297.2794568713706
 20
829.0552425602731
 30
0.0
 41
1.0
 10
297.2273122419519
 20
828.974029609982
 30
0.0
 41
1.0
 10
297.2012220684249
 20
828.933140765311
 30
0.0
 41
1.0
 10
297.1229159080471
 20
828.809646273507
 30
0.0
 41
1.0
 10
297.0706644317456
 20
828.726211420538
 30
0.0
 41
1.0
 10
296.9139087825512
 20
828.4727903253306
 30
0.0
 41
1.0
 10
296.8094097528485
 20
828.2996683743131
 30
0.0
 41
1.0
 10
296.4969044161962
 20
827.7700766034359
 30
0.0
 41
1.0
 10
296.2899061590651
 20
827.4034579646438
 30
0.0
 41
1.0
 10
295.984086468417
 20
826.8449713201339
 30
0.0
 41
1.0
 10
295.8829167424477
 20
826.6573850285226
 30
0.0
 41
1.0
 10
295.6825111362313
 20
826.2811232540266
 30
0.0
 41
1.0
 10
295.5837783028002
 20
826.0935091948513
 30
0.0
 41
1.0
 10
295.287654016069
 20
825.5239739150461
 30
0.0
 41
1.0
 10
295.0946606836234
 20
825.1447789137159
 30
0.0
 41
1.0
 10
294.7087187572527
 20
824.3652881207825
 30
0.0
 41
1.0
 10
294.5177220105399
 20
823.9658984631794
 30
0.0
 41
1.0
 10
294.1337690827612
 20
823.1491109450044
 30
0.0
 41
1.0
 10
293.9408307949447
 20
822.731483552282
 30
0.0
 41
1.0
 10
293.5540352236993
 20
821.8684294534766
 30
0.0
 41
1.0
 10
293.3670279977025
 20
821.4400140824334
 30
0.0
 41
1.0
 10
293.0047358453424
 20
820.5840791011996
 30
0.0
 41
1.0
 10
292.8296230260916
 20
820.1571073364101
 30
0.0
 41
1.0
 10
292.4925243451582
 20
819.3058815052685
 30
0.0
 41
1.0
 10
292.3311624438125
 20
818.8810839090477
 30
0.0
 41
1.0
 10
292.1362692033787
 20
818.3544628193702
 30
0.0
 41
1.0
 10
292.0976218607498
 20
818.2493621861206
 30
0.0
 41
1.0
 10
292.0401416728247
 20
818.092069579854
 30
0.0
 41
1.0
 10
292.0199658537472
 20
818.0362357411639
 30
0.0
 41
1.0
 10
291.9806102530217
 20
817.927268459135
 30
0.0
 41
1.0
 10
291.9610252377719
 20
817.8728642790578
 30
0.0
 41
1.0
 10
291.9220396048156
 20
817.7642196093702
 30
0.0
 41
1.0
 10
291.9026389872099
 20
817.7099791194303
 30
0.0
 41
1.0
 10
291.8640210070463
 20
817.6016666033088
 30
0.0
 41
1.0
 10
291.8450015299578
 20
817.5482441498311
 30
0.0
 41
1.0
 10
291.7852419278562
 20
817.3785244809886
 30
0.0
 41
1.0
 10
291.7457625924404
 20
817.2656207443966
 30
0.0
 41
1.0
 10
291.393676250771
 20
816.2519018323493
 30
0.0
 41
1.0
 10
291.1036893858914
 20
815.3680579531551
 30
0.0
 41
1.0
 10
290.7686119236793
 20
814.3005934075123
 30
0.0
 41
1.0
 10
290.7029654645908
 20
814.088964766507
 30
0.0
 41
1.0
 10
290.6225956038411
 20
813.8270037637932
 30
0.0
 41
1.0
 10
290.6066060401114
 20
813.774740313083
 30
0.0
 41
1.0
 10
290.5827478680216
 20
813.6965428827115
 30
0.0
 41
1.0
 10
290.5752654030278
 20
813.6723050075734
 30
0.0
 41
1.0
 10
290.5584142470823
 20
813.6161915576519
 30
0.0
 41
1.0
 10
290.5500052960911
 20
813.5881416940942
 30
0.0
 41
1.0
 10
290.5080439162106
 20
813.4479288916352
 30
0.0
 41
1.0
 10
290.4747416379054
 20
813.3358754909425
 30
0.0
 41
1.0
 10
290.3095787335685
 20
812.7763342321086
 30
0.0
 41
1.0
 10
290.1817704550729
 20
812.3310201646655
 30
0.0
 41
1.0
 10
289.9350575992669
 20
811.4486969852472
 30
0.0
 41
1.0
 10
289.8161536269923
 20
811.0116833342361
 30
0.0
 41
1.0
 10
289.6445322826626
 20
810.3652541502145
 30
0.0
 41
1.0
 10
289.5884460907066
 20
810.1512946516106
 30
0.0
 41
1.0
 10
289.5059910329235
 20
809.8330094543118
 30
0.0
 41
1.0
 10
289.4793252626857
 20
809.7300729180046
 30
0.0
 41
1.0
 10
289.4235136842199
 20
809.5099130489644
 30
0.0
 41
1.0
 10
289.3958379018058
 20
809.3999797522481
 30
0.0
 41
1.0
 10
289.3135013518977
 20
809.0707058633085
 30
0.0
 41
1.0
 10
289.2599004083227
 20
808.8538500575446
 30
0.0
 41
1.0
 10
289.1527250862612
 20
808.4124128351198
 30
0.0
 41
1.0
 10
289.0999319439301
 20
808.1918805291688
 30
0.0
 41
1.0
 10
288.9439128737002
 20
807.5314436229428
 30
0.0
 41
1.0
 10
288.8430530691371
 20
807.092694999916
 30
0.0
 41
1.0
 10
288.6962694823137
 20
806.439390797448
 30
0.0
 41
1.0
 10
288.647885895257
 20
806.2212331349383
 30
0.0
 41
1.0
 10
288.551801090146
 20
805.7821299013857
 30
0.0
 41
1.0
 10
288.5043317866901
 20
805.5625786803115
 30
0.0
 41
1.0
 10
288.3635539364523
 20
804.9043203692512
 30
0.0
 41
1.0
 10
288.2718744090683
 20
804.46601458857
 30
0.0
 41
1.0
 10
288.0923597113094
 20
803.5924684361518
 30
0.0
 41
1.0
 10
288.0045829835993
 20
803.1576933578331
 30
0.0
 41
1.0
 10
287.8746061761159
 20
802.503081985173
 30
0.0
 41
1.0
 10
287.8316169898897
 20
802.2848230058366
 30
0.0
 41
1.0
 10
287.7462693839454
 20
801.8482737280343
 30
0.0
 41
1.0
 10
287.7048427094863
 20
801.6364484078596
 30
0.0
 41
1.0
 10
287.4969919658611
 20
800.5622551481711
 30
0.0
 41
1.0
 10
287.3346287491039
 20
799.6942131307212
 30
0.0
 41
1.0
 10
287.0897727829616
 20
798.3818847010067
 30
0.0
 41
1.0
 10
287.0081705385073
 20
797.9426549785269
 30
0.0
 41
1.0
 10
286.8858092128065
 20
797.2813443725108
 30
0.0
 41
1.0
 10
286.8466095441451
 20
797.0722214080453
 30
0.0
 41
1.0
 10
286.767167651321
 20
796.6454632336022
 30
0.0
 41
1.0
 10
286.7273890637096
 20
796.4312401013465
 30
0.0
 41
1.0
 10
286.607866347165
 20
795.7858200134831
 30
0.0
 41
1.0
 10
286.5279342572584
 20
795.35186884565
 30
0.0
 41
1.0
 10
286.4076303500593
 20
794.694620251829
 30
0.0
 41
1.0
 10
286.3674617754146
 20
794.4744848485627
 30
0.0
 41
1.0
 10
286.3071050204497
 20
794.1426058494347
 30
0.0
 41
1.0
 10
286.2869687805481
 20
794.0317002060888
 30
0.0
 41
1.0
 10
286.2567380204681
 20
793.8649106798146
 30
0.0
 41
1.0
 10
286.2471063548736
 20
793.8127531699511
 30
0.0
 41
1.0
 10
286.2274554365271
 20
793.7053510657399
 30
0.0
 41
1.0
 10
286.2176254036367
 20
793.6515815365957
 30
0.0
 41
1.0
 10
286.1684521041395
 20
793.3823861782141
 30
0.0
 41
1.0
 10
286.1290394337935
 20
793.1659172451313
 30
0.0
 41
1.0
 10
286.0500591613416
 20
792.7306172499899
 30
0.0
 41
1.0
 10
286.0102725658934
 20
792.5100192956303
 30
0.0
 41
1.0
 10
285.9323069211467
 20
792.0805458884901
 30
0.0
 41
1.0
 10
285.8932458198802
 20
791.8646379881314
 30
0.0
 41
1.0
 10
285.8345321479337
 20
791.5389212164221
 30
0.0
 41
1.0
 10
285.8149405909229
 20
791.4300397925102
 30
0.0
 41
1.0
 10
285.7757160963621
 20
791.2116420814691
 30
0.0
 41
1.0
 10
285.7556575402508
 20
791.0986346654474
 30
0.0
 41
1.0
 10
285.5870019640013
 20
790.1774897352644
 30
0.0
 41
1.0
 10
285.4358608427815
 20
789.341496378241
 30
0.0
 41
1.0
 10
285.1310666056461
 20
787.6287161883478
 30
0.0
 41
1.0
 10
284.977410261896
 20
786.7519337128446
 30
0.0
 41
1.0
 10
284.7839165609504
 20
785.6261591086283
 30
0.0
 41
1.0
 10
284.7451475397287
 20
785.3995130211201
 30
0.0
 41
1.0
 10
284.6868943026063
 20
785.0572226938434
 30
0.0
 41
1.0
 10
284.6674599525361
 20
784.94273903849
 30
0.0
 41
1.0
 10
284.6285591518629
 20
784.7129837259844
 30
0.0
 41
1.0
 10
284.610275309125
 20
784.6085106016618
 30
0.0
 41
1.0
 10
284.5822684082671
 20
784.4461990553058
 30
0.0
 41
1.0
 10
284.5728019083932
 20
784.3908370966319
 30
0.0
 41
1.0
 10
284.5549036658836
 20
784.2895209961091
 30
0.0
 41
1.0
 10
284.5459513570459
 20
784.2387894245597
 30
0.0
 41
1.0
 10
284.519085182605
 20
784.0863732799231
 30
0.0
 41
1.0
 10
284.5011620670407
 20
783.9844672759224
 30
0.0
 41
1.0
 10
284.4473583105196
 20
783.6778566487732
 30
0.0
 41
1.0
 10
284.4114432310869
 20
783.4722593930527
 30
0.0
 41
1.0
 10
284.0878596795025
 20
781.6110089651786
 30
0.0
 41
1.0
 10
283.7977292721871
 20
779.8790946356371
 30
0.0
 41
1.0
 10
283.4911413615282
 20
777.9476421449593
 30
0.0
 41
1.0
 10
283.4731129517874
 20
777.8336922440895
 30
0.0
 41
1.0
 10
283.4460810646246
 20
777.6622620992117
 30
0.0
 41
1.0
 10
283.4370722233701
 20
777.6050345025262
 30
0.0
 41
1.0
 10
283.4235618254045
 20
777.5190664495924
 30
0.0
 41
1.0
 10
283.4190588367299
 20
777.4903893223358
 30
0.0
 41
1.0
 10
283.4100538442576
 20
777.4329927931122
 30
0.0
 41
1.0
 10
283.4057745887412
 20
777.406627750262
 30
0.0
 41
1.0
 10
283.3672488690342
 20
777.1690230512911
 30
0.0
 41
1.0
 10
283.3330306713002
 20
776.9566758773605
 30
0.0
 41
1.0
 10
283.2304785231026
 20
776.316186513925
 30
0.0
 41
1.0
 10
283.1622471827168
 20
775.884595852562
 30
0.0
 41
1.0
 10
283.0771993488367
 20
775.3393066091478
 30
0.0
 41
1.0
 10
283.0602018363445
 20
775.2299587637372
 30
0.0
 41
1.0
 10
283.0262326269507
 20
775.0106819359316
 30
0.0
 41
1.0
 10
283.0094841947156
 20
774.9032414657054
 30
0.0
 41
1.0
 10
282.9594710631062
 20
774.5822706048826
 30
0.0
 41
1.0
 10
282.9261811629256
 20
774.3671887830018
 30
0.0
 41
1.0
 10
282.8763340578917
 20
774.0429076607849
 30
0.0
 41
1.0
 10
282.8595248771375
 20
773.9321498922527
 30
0.0
 41
1.0
 10
282.827028624678
 20
773.7225975695206
 30
0.0
 41
1.0
 10
282.8107953369374
 20
773.6175662774875
 30
0.0
 41
1.0
 10
282.7621420504638
 20
773.3017043531661
 30
0.0
 41
1.0
 10
282.7297112236194
 20
773.0901135476589
 30
0.0
 41
1.0
 10
282.6322029169415
 20
772.4523052043404
 30
0.0
 41
1.0
 10
282.5670094021401
 20
772.0230376435302
 30
0.0
 41
1.0
 10
282.4689918193568
 20
771.3729670195345
 30
0.0
 41
1.0
 10
282.4362813879344
 20
771.1552486977117
 30
0.0
 41
1.0
 10
282.3871655365984
 20
770.8271204240955
 30
0.0
 41
1.0
 10
282.3707852174293
 20
770.7174858741987
 30
0.0
 41
1.0
 10
282.3462030050766
 20
770.5526453422489
 30
0.0
 41
1.0
 10
282.338006978583
 20
770.4976337141613
 30
0.0
 41
1.0
 10
282.3216111497385
 20
770.3874807248466
 30
0.0
 41
1.0
 10
282.3133312059664
 20
770.3313403599583
 30
0.0
 41
1.0
 10
282.179254834592
 20
769.4593624595451
 30
0.0
 41
1.0
 10
282.0526199287037
 20
768.6259530980507
 30
0.0
 41
1.0
 10
281.798813978617
 20
766.9316855146551
 30
0.0
 41
1.0
 10
281.671642825384
 20
766.0708277938345
 30
0.0
 41
1.0
 10
281.480735759356
 20
764.7573794236115
 30
0.0
 41
1.0
 10
281.4170748786146
 20
764.3158688327593
 30
0.0
 41
1.0
 10
281.3215762136641
 20
763.6478563326132
 30
0.0
 41
1.0
 10
281.2897420952503
 20
763.4242276730918
 30
0.0
 41
1.0
 10
281.2539301449849
 20
763.1715482719515
 30
0.0
 41
1.0
 10
281.2499510592799
 20
763.1434575443128
 30
0.0
 41
1.0
 10
281.2419929373734
 20
763.0872455431762
 30
0.0
 41
1.0
 10
281.2382289745253
 20
763.062258901835
 30
0.0
 41
1.0
 10
281.2266369416156
 20
762.9828900397944
 30
0.0
 41
1.0
 10
281.2189093287589
 20
762.9299321020596
 30
0.0
 41
1.0
 10
281.1957277845562
 20
762.7709209020454
 30
0.0
 41
1.0
 10
281.1802751474042
 20
762.6647302560621
 30
0.0
 41
1.0
 10
281.1030214890895
 20
762.1328436477357
 30
0.0
 41
1.0
 10
281.0412490120785
 20
761.704348525466
 30
0.0
 41
1.0
 10
280.9486536057549
 20
761.0567797982847
 30
0.0
 41
1.0
 10
280.917799029216
 20
760.8401190205719
 30
0.0
 41
1.0
 10
280.8792459144056
 20
760.5682497288176
 30
0.0
 41
1.0
 10
280.8717746184832
 20
760.5174873997491
 30
0.0
 41
1.0
 10
280.8566237874712
 20
760.4126547732426
 30
0.0
 41
1.0
 10
280.8490496114641
 20
760.360199504616
 30
0.0
 41
1.0
 10
280.8263308697437
 20
760.2027155371355
 30
0.0
 41
1.0
 10
280.8111900899851
 20
760.0975686794959
 30
0.0
 41
1.0
 10
280.6749701609032
 20
759.14979766673
 30
0.0
 41
1.0
 10
280.5542189157433
 20
758.2970441363852
 30
0.0
 41
1.0
 10
280.373750121954
 20
756.9996427129194
 30
0.0
 41
1.0
 10
280.3137038637856
 20
756.5641273958754
 30
0.0
 41
1.0
 10
280.2388027192494
 20
756.0156038738022
 30
0.0
 41
1.0
 10
280.2237568540928
 20
755.9044516724466
 30
0.0
 41
1.0
 10
280.1943625430841
 20
755.6931982339601
 30
0.0
 41
1.0
 10
280.1796752828536
 20
755.5874169437619
 30
0.0
 41
1.0
 10
280.1356440583702
 20
755.269599897865
 30
0.0
 41
1.0
 10
280.1063306433714
 20
755.0570910122868
 30
0.0
 41
1.0
 10
280.0185197950414
 20
754.4175944828435
 30
0.0
 41
1.0
 10
279.9601516504614
 20
753.9886377159277
 30
0.0
 41
1.0
 10
279.8728887239646
 20
753.3409414961385
 30
0.0
 41
1.0
 10
279.8438493238323
 20
753.1243323924263
 30
0.0
 41
1.0
 10
279.8003666626361
 20
752.7983111817822
 30
0.0
 41
1.0
 10
279.7858851837483
 20
752.6894528404475
 30
0.0
 41
1.0
 10
279.7569484095067
 20
752.4713598018344
 30
0.0
 41
1.0
 10
279.7427356759815
 20
752.366439387457
 30
0.0
 41
1.0
 10
279.614625768429
 20
751.4150358284388
 30
0.0
 41
1.0
 10
279.5016816480218
 20
750.5596181980028
 30
0.0
 41
1.0
 10
279.3619353489881
 20
749.4763374387175
 30
0.0
 41
1.0
 10
279.3340579192198
 20
749.2589800407666
 30
0.0
 41
1.0
 10
279.2923549895787
 20
748.931854890235
 30
0.0
 41
1.0
 10
279.2784728839695
 20
748.8226316539753
 30
0.0
 41
1.0
 10
279.2507473471634
 20
748.6038158183806
 30
0.0
 41
1.0
 10
279.2372164485562
 20
748.5001265893121
 30
0.0
 41
1.0
 10
279.1691457101028
 20
747.9711387705761
 30
0.0
 41
1.0
 10
279.1150175484267
 20
747.5454649352205
 30
0.0
 41
1.0
 10
279.0074866011126
 20
746.6888721424152
 30
0.0
 41
1.0
 10
278.9540838179967
 20
746.2579532006998
 30
0.0
 41
1.0
 10
278.8745774346547
 20
745.6074210534463
 30
0.0
 41
1.0
 10
278.848174963417
 20
745.3898845945884
 30
0.0
 41
1.0
 10
278.8087276785154
 20
745.0625127005941
 30
0.0
 41
1.0
 10
278.7956046552733
 20
744.9532108606169
 30
0.0
 41
1.0
 10
278.7694119265287
 20
744.7342465713102
 30
0.0
 41
1.0
 10
278.7562573453128
 20
744.6228825391403
 30
0.0
 41
1.0
 10
278.6404831835506
 20
743.6664830983303
 30
0.0
 41
1.0
 10
278.5393221253984
 20
742.8058273858862
 30
0.0
 41
1.0
 10
278.4278655630864
 20
741.8249158284149
 30
0.0
 41
1.0
 10
278.4155141589415
 20
741.7157495345106
 30
0.0
 41
1.0
 10
278.3970370653852
 20
741.5517336129831
 30
0.0
 41
1.0
 10
278.3908992082601
 20
741.4972832004379
 30
0.0
 41
1.0
 10
278.3788631904723
 20
741.3929549575349
 30
0.0
 41
1.0
 10
278.3728396899121
 20
741.3407482329857
 30
0.0
 41
1.0
 10
278.3426889587788
 20
741.0795020582757
 30
0.0
 41
1.0
 10
278.3184688019491
 20
740.8698241783989
 30
0.0
 41
1.0
 10
278.2455341001759
 20
740.2387371132155
 30
0.0
 41
1.0
 10
278.1965451311183
 20
739.8152745774902
 30
0.0
 41
1.0
 10
278.0486834358916
 20
738.5365860251882
 30
0.0
 41
1.0
 10
277.9489128585543
 20
737.6730603509425
 30
0.0
 41
1.0
 10
277.7983290467898
 20
736.3607997132729
 30
0.0
 41
1.0
 10
277.7479805581784
 20
735.9205504961952
 30
0.0
 41
1.0
 10
277.6723419804675
 20
735.2558837058695
 30
0.0
 41
1.0
 10
277.6471098586043
 20
735.0336125942052
 30
0.0
 41
1.0
 10
277.6092475469571
 20
734.6991262820602
 30
0.0
 41
1.0
 10
277.5966244241105
 20
734.5874509026033
 30
0.0
 41
1.0
 10
277.5776880805813
 20
734.4196671116403
 30
0.0
 41
1.0
 10
277.5715588475468
 20
734.3679207428527
 30
0.0
 41
1.0
 10
277.5591579694004
 20
734.2610750194835
 30
0.0
 41
1.0
 10
277.5529570807637
 20
734.2076058269312
 30
0.0
 41
1.0
 10
277.4971464300237
 20
733.7259652206861
 30
0.0
 41
1.0
 10
277.4475179176179
 20
733.2948688384837
 30
0.0
 41
1.0
 10
277.3731672275901
 20
732.6436892994133
 30
0.0
 41
1.0
 10
277.3483990442076
 20
732.4258735980292
 30
0.0
 41
1.0
 10
277.3112851991417
 20
732.0980062797397
 30
0.0
 41
1.0
 10
277.2989203244114
 20
731.9885265441633
 30
0.0
 41
1.0
 10
277.2803845582634
 20
731.8240197325842
 30
0.0
 41
1.0
 10
277.2741588251496
 20
731.7679542666742
 30
0.0
 41
1.0
 10
277.2619717729727
 20
731.6619953117236
 30
0.0
 41
1.0
 10
277.2558801455353
 20
731.6089685454183
 30
0.0
 41
1.0
 10
277.1523574393289
 20
730.70670666352
 30
0.0
 41
1.0
 10
277.0554491390416
 20
729.8453731102071
 30
0.0
 41
1.0
 10
276.9118600244086
 20
728.5340482730485
 30
0.0
 41
1.0
 10
276.8642928472996
 20
728.0937184210703
 30
0.0
 41
1.0
 10
276.8053080540013
 20
727.5391575011854
 30
0.0
 41
1.0
 10
276.7936977418758
 20
727.4322642046218
 30
0.0
 41
1.0
 10
276.7704842322941
 20
727.2170092036271
 30
0.0
 41
1.0
 10
276.7589019517282
 20
727.1091821968079
 30
0.0
 41
1.0
 10
276.7242322647857
 20
726.7850944361738
 30
0.0
 41
1.0
 10
276.7012220128912
 20
726.5682269695943
 30
0.0
 41
1.0
 10
276.5867349249026
 20
725.4797336060399
 30
0.0
 41
1.0
 10
276.4975628805507
 20
724.6119415761409
 30
0.0
 41
1.0
 10
276.3680373062591
 20
723.3067231710337
 30
0.0
 41
1.0
 10
276.3255836464357
 20
722.8714980711535
 30
0.0
 41
1.0
 10
276.2630957940488
 20
722.2184380079336
 30
0.0
 41
1.0
 10
276.2424651981535
 20
722.0007125885968
 30
0.0
 41
1.0
 10
276.2118308983951
 20
721.6740676578984
 30
0.0
 41
1.0
 10
276.2016713873354
 20
721.5651763056039
 30
0.0
 41
1.0
 10
276.186511684461
 20
721.4018249127549
 30
0.0
 41
1.0
 10
276.1814717095742
 20
721.3473720218619
 30
0.0
 41
1.0
 10
276.171418557352
 20
721.2384614231388
 30
0.0
 41
1.0
 10
276.166445013498
 20
721.1851867516439
 30
0.0
 41
1.0
 10
276.1563664635731
 20
721.0739003685052
 30
0.0
 41
1.0
 10
276.1513389811147
 20
721.0181978445602
 30
0.0
 41
1.0
 10
276.1413078878798
 20
720.9066729959104
 30
0.0
 41
1.0
 10
276.1362667543882
 20
720.8497183935301
 30
0.0
 41
1.0
 10
276.1216146500323
 20
720.6917853111345
 30
0.0
 41
1.0
 10
276.1118960046448
 20
720.5863410929182
 30
0.0
 41
1.0
 10
276.0828913887048
 20
720.2695247300069
 30
0.0
 41
1.0
 10
276.0637567393325
 20
720.0576689355086
 30
0.0
 41
1.0
 10
276.0069824099235
 20
719.4200270795827
 30
0.0
 41
1.0
 10
275.9699723518447
 20
718.9921675168575
 30
0.0
 41
1.0
 10
275.8977607476029
 20
718.1301499858159
 30
0.0
 41
1.0
 10
275.8628692645401
 20
717.6959671224839
 30
0.0
 41
1.0
 10
275.7928118570811
 20
716.8206818592462
 30
0.0
 41
1.0
 10
275.757770472505
 20
716.3795685686958
 30
0.0
 41
1.0
 10
275.6877392920111
 20
715.4895604146005
 30
0.0
 41
1.0
 10
275.6527495002333
 20
715.0406656330243
 30
0.0
 41
1.0
 10
275.6090935436982
 20
714.4741358329594
 30
0.0
 41
1.0
 10
275.6002622591856
 20
714.3567635393321
 30
0.0
 41
1.0
 10
275.5832445265681
 20
714.1445904250324
 30
0.0
 41
1.0
 10
275.5747429533989
 20
714.0384036879713
 30
0.0
 41
1.0
 10
275.5492612274469
 20
713.7195129643494
 30
0.0
 41
1.0
 10
275.5323040632371
 20
713.506478566817
 30
0.0
 41
1.0
 10
275.4476866002029
 20
712.4386980467332
 30
0.0
 41
1.0
 10
275.3805299810797
 20
711.5761603495158
 30
0.0
 41
1.0
 10
275.247699578572
 20
709.823541464108
 30
0.0
 41
1.0
 10
275.1820257361933
 20
708.9334643738887
 30
0.0
 41
1.0
 10
275.1132712809498
 20
707.9668329820195
 30
0.0
 41
1.0
 10
275.1093377722549
 20
707.9147716085738
 30
0.0
 41
1.0
 10
275.1014120947322
 20
707.8075335653549
 30
0.0
 41
1.0
 10
275.0974540007797
 20
707.7539001997186
 30
0.0
 41
1.0
 10
275.0855940137627
 20
707.5929511996956
 30
0.0
 41
1.0
 10
275.0777064148272
 20
707.4855866723701
 30
0.0
 41
1.0
 10
275.0541012962598
 20
707.1632501944092
 30
0.0
 41
1.0
 10
275.0384414465098
 20
706.9480355067908
 30
0.0
 41
1.0
 10
274.99169690364
 20
706.3010361916548
 30
0.0
 41
1.0
 10
274.9608470727184
 20
705.8678989457732
 30
0.0
 41
1.0
 10
274.8998002415258
 20
704.9959051765089
 30
0.0
 41
1.0
 10
274.8696032324937
 20
704.5570488365981
 30
0.0
 41
1.0
 10
274.824820692043
 20
703.892827384764
 30
0.0
 41
1.0
 10
274.8099787115333
 20
703.6704300523124
 30
0.0
 41
1.0
 10
274.7878473079872
 20
703.3351363634774
 30
0.0
 41
1.0
 10
274.7804921038531
 20
703.2230888064635
 30
0.0
 41
1.0
 10
274.7694926242694
 20
703.0545660057475
 30
0.0
 41
1.0
 10
274.7658316856365
 20
702.9983164917921
 30
0.0
 41
1.0
 10
274.7585209913854
 20
702.8856624378682
 30
0.0
 41
1.0
 10
274.7549340578133
 20
702.8327989267715
 30
0.0
 41
1.0
 10
274.7368916760604
 20
702.5605322161219
 30
0.0
 41
1.0
 10
274.7225559172808
 20
702.3421402053949
 30
0.0
 41
1.0
 10
274.7012028347124
 20
702.013531137365
 30
0.0
 41
1.0
 10
274.6941038829493
 20
701.9034308448784
 30
0.0
 41
1.0
 10
274.6801101455401
 20
701.6920045914428
 30
0.0
 41
1.0
 10
274.6731348775691
 20
701.5859450558991
 30
0.0
 41
1.0
 10
274.6383716585918
 20
701.05403343954
 30
0.0
 41
1.0
 10
274.6109235233061
 20
700.6233349975352
 30
0.0
 41
1.0
 10
274.5298519911361
 20
699.3203740026796
 30
0.0
 41
1.0
 10
274.4775064959589
 20
698.4371790354355
 30
0.0
 41
1.0
 10
274.4021856386519
 20
697.1102475241366
 30
0.0
 41
1.0
 10
274.3776102714328
 20
696.6675968288773
 30
0.0
 41
1.0
 10
274.3476139692377
 20
696.1160366151918
 30
0.0
 41
1.0
 10
274.3416437486104
 20
696.0052504227938
 30
0.0
 41
1.0
 10
274.3298548681831
 20
695.7900205806693
 30
0.0
 41
1.0
 10
274.3239977627389
 20
695.682252426725
 30
0.0
 41
1.0
 10
274.306438022484
 20
695.3585265181335
 30
0.0
 41
1.0
 10
274.2947733485182
 20
695.1421455014153
 30
0.0
 41
1.0
 10
274.2366658360539
 20
694.0578510520081
 30
0.0
 41
1.0
 10
274.1908674082904
 20
693.182732806392
 30
0.0
 41
1.0
 10
274.1008555467831
 20
691.4286962326094
 30
0.0
 41
1.0
 10
274.0566548833138
 20
690.5517358038744
 30
0.0
 41
1.0
 10
273.9973295642475
 20
689.3460907220699
 30
0.0
 41
1.0
 10
273.9814366155783
 20
689.0211879194133
 30
0.0
 41
1.0
 10
273.9656623640211
 20
688.6969804904646
 30
0.0
 41
1.0
  0
SPLINE
  5
1C5
330
164
100
AcDbEntity
  8
DV2_Standard
  6
Continuous
 62
     7
100
AcDbSpline
210
0.0
220
0.0
230
1.0
 70
     8
 71
     3
 72
    16
 73
    12
 74
     0
 42
0.0000000004844653
 43
0.0000000001
 40
0.0
 40
0.0
 40
0.0
 40
0.0
 40
0.1249999999999997
 40
0.1249999999999997
 40
0.2499999999999993
 40
0.2499999999999993
 40
0.4999999999999996
 40
0.4999999999999996
 40
0.7499999999999998
 40
0.7499999999999998
 40
1.0
 40
1.0
 40
1.0
 40
1.0
 10
275.4426087822134
 20
687.1718058445944
 30
0.0
 10
275.6394200756429
 20
687.171834407662
 30
0.0
 10
275.9812751618838
 20
687.1719151445816
 30
0.0
 10
276.9470389499937
 20
687.1721780762692
 30
0.0
 10
277.5702500867865
 20
687.1723604928433
 30
0.0
 10
279.764281265584
 20
687.1730318821518
 30
0.0
 10
281.7083807327914
 20
687.1736607106668
 30
0.0
 10
285.9384543164924
 20
687.1750803682318
 30
0.0
 10
288.2247942023772
 20
687.1758708551451
 30
0.0
 10
292.5340615499818
 20
687.1774042095855
 30
0.0
 10
294.5212848202138
 20
687.1781342649565
 30
0.0
 10
296.0839202034894
 20
687.1787337759116
 30
0.0
  0
LINE
  5
1C6
330
164
100
AcDbEntity
  8
DV2_Standard
  6
Continuous
 62
     7
100
AcDbLine
 10
301.6321953434
 20
698.8757160235
 30
0.0
 11
301.5738116082
 21
688.6789092447
 31
0.0
  0
SPLINE
  5
1C7
330
164
100
AcDbEntity
  8
DV2_Standard
  6
Continuous
 62
     7
100
AcDbSpline
210
0.0
220
0.0
230
1.0
 70
     8
 71
     3
 72
     8
 73
     4
 74
     0
 42
0.0000000019971016
 43
0.0000000001
 40
0.0
 40
0.0
 40
0.0
 40
0.0
 40
1.0
 40
1.0
 40
1.0
 40
1.0
 10
363.1212917849672
 20
917.1761163239782
 30
0.0
 10
363.0462523051939
 20
918.6407890226143
 30
0.0
 10
362.7869074369771
 20
920.2847231041451
 30
0.0
 10
362.3432571803168
 20
922.1079185685708
 30
0.0
  0
ARC
  5
1C8
330
164
100
AcDbEntity
  8
DV2_Standard
  6
Continuous
 62
     7
100
AcDbCircle
 10
300.1450226509
 20
688.5478693989
 30
0.0
 40
1.3509638176327
100
AcDbArc
 50
275.9099252674
 51
321.2051082635
  0
LINE
  5
1C9
330
164
100
AcDbEntity
  8
DV2_Standard
  6
Continuous
 62
     7
100
AcDbLine
 10
300.2469942292
 20
687.1955435842
 30
0.0
 11
300.2841244327
 21
687.2040859599
 31
0.0
  0
ARC
  5
1CA
330
164
100
AcDbEntity
  8
DV2_Standard
  6
Continuous
 62
     7
100
AcDbCircle
 10
362.8520188694
 20
917.2215926114
 30
0.0
 40
0.2999999999999977
100
AcDbArc
 50
330.0
 51
5.3805535549
  0
LINE
  5
1CB
330
164
100
AcDbEntity
  8
DV2_Standard
  6
Continuous
 62
     7
100
AcDbLine
 10
325.8958470677
 20
852.6116253976
 30
0.0
 11
363.1118264905
 21
917.0715926114
 31
0.0
  0
ARC
  5
1CC
330
164
100
AcDbEntity
  8
DV2_Standard
  6
Continuous
 62
     7
100
AcDbCircle
 10
389.3596122824
 20
813.8408111914
 30
0.0
 40
74.33036314656444
100
AcDbArc
 50
148.5764846442
 51
149.7910030055
  0
ARC
  5
1CD
330
164
100
AcDbEntity
  8
DV2_Standard
  6
Continuous
 62
     7
100
AcDbCircle
 10
374.4134538096
 20
804.5101228369
 30
0.0
 40
66.04341792399589
100
AcDbArc
 50
149.7589734432
 51
151.7042349672
  0
ARC
  5
1CE
330
164
100
AcDbEntity
  8
DV2_Standard
  6
Continuous
 62
     7
100
AcDbCircle
 10
311.8440241195
 20
838.1422087101
 30
0.0
 40
4.944060502049889
100
AcDbArc
 50
329.4763854476
 51
331.3088568922
  0
ARC
  5
1CF
330
164
100
AcDbEntity
  8
DV2_Standard
  6
Continuous
 62
     7
100
AcDbCircle
 10
300.1450226471
 20
688.5478694102
 30
0.0
 40
1.350963829284345
100
AcDbArc
 50
275.9099254588
 51
321.2051080044
  0
LINE
  5
1D0
330
164
100
AcDbEntity
  8
DV2_Standard
  6
Continuous
 62
     7
100
AcDbLine
 10
300.2469942292
 20
687.1955435841
 30
0.0
 11
300.2841244345
 21
687.2040859601
 31
0.0
  0
LINE
  5
1D1
330
164
100
AcDbEntity
  8
DV2_Standard
  6
Continuous
 62
     7
100
AcDbLine
 10
299.3673045872
 20
683.1739094446
 30
0.0
 11
275.7673045872
 21
683.1739094446
 31
0.0
  0
LINE
  5
1D2
330
164
100
AcDbEntity
  8
DV2_Standard
  6
Continuous
 62
     7
100
AcDbLine
 10
298.1367403597
 20
659.6933452172
 30
0.0
 11
296.5673045872
 21
659.6933452172
 31
0.0
  0
LINE
  5
1D3
330
164
100
AcDbEntity
  8
DV2_Standard
  6
Continuous
 62
     7
100
AcDbLine
 10
296.7173045872
 20
655.8739094446
 30
0.0
 11
296.5673045872
 21
655.8739094446
 31
0.0
  0
LINE
  5
1D4
330
164
100
AcDbEntity
  8
DV2_Standard
  6
Continuous
 62
     7
100
AcDbLine
 10
298.8673045872
 20
683.6739094446
 30
0.0
 11
298.8673045872
 21
686.1739094446
 31
0.0
  0
LINE
  5
1D5
330
164
100
AcDbEntity
  8
DV2_Standard
  6
Continuous
 62
     7
100
AcDbLine
 10
276.2673045872
 20
686.1739094446
 30
0.0
 11
276.2673045872
 21
683.6739094446
 31
0.0
  0
LINE
  5
1D6
330
164
100
AcDbEntity
  8
DV2_Standard
  6
Continuous
 62
     7
100
AcDbLine
 10
299.3673045872
 20
683.1739094446
 30
0.0
 11
298.8673045872
 21
683.6739094446
 31
0.0
  0
LINE
  5
1D7
330
164
100
AcDbEntity
  8
DV2_Standard
  6
Continuous
 62
     7
100
AcDbLine
 10
276.2673045872
 20
683.6739094446
 30
0.0
 11
275.7673045872
 21
683.1739094446
 31
0.0
  0
LINE
  5
1D8
330
164
100
AcDbEntity
  8
DV2_Standard
  6
Continuous
 62
     7
100
AcDbLine
 10
275.7673045872
 20
683.1739094446
 30
0.0
 11
276.0186437425
 21
678.3780726665
 31
0.0
  0
LINE
  5
1D9
330
164
100
AcDbEntity
  8
DV2_Standard
  6
Continuous
 62
     7
100
AcDbLine
 10
298.1367403597
 20
659.6933452172
 30
0.0
 11
299.3673045872
 21
683.1739094446
 31
0.0
  0
LINE
  5
1DA
330
164
100
AcDbEntity
  8
DV2_Standard
  6
Continuous
 62
     7
100
AcDbLine
 10
297.5173045872
 20
659.0739094446
 30
0.0
 11
298.1367403597
 21
659.6933452172
 31
0.0
  0
LINE
  5
1DB
330
164
100
AcDbEntity
  8
DV2_Standard
  6
Continuous
 62
     7
100
AcDbLine
 10
297.5173045872
 20
656.6739094446
 30
0.0
 11
297.5173045872
 21
659.0739094446
 31
0.0
  0
ARC
  5
1DC
330
164
100
AcDbEntity
  8
DV2_Standard
  6
Continuous
 62
     7
100
AcDbCircle
 10
276.7673045872
 20
686.1739094446
 30
0.0
 40
0.5000000000000004
100
AcDbArc
 50
90.0
 51
180.0
  0
ARC
  5
1DD
330
164
100
AcDbEntity
  8
DV2_Standard
  6
Continuous
 62
     7
100
AcDbCircle
 10
298.3673045872
 20
686.1739094446
 30
0.0
 40
0.5000000000000004
100
AcDbArc
 50
0.0
 51
90.0
  0
ARC
  5
1DE
330
164
100
AcDbEntity
  8
DV2_Standard
  6
Continuous
 62
     7
100
AcDbCircle
 10
296.7173045872
 20
656.6739094446
 30
0.0
 40
0.7999999999999674
100
AcDbArc
 50
270.0
 51
0.0
  0
SPLINE
  5
1DF
330
164
100
AcDbEntity
  8
DV2_Standard
  6
Continuous
 62
     7
100
AcDbSpline
210
0.0
220
0.0
230
1.0
 70
     8
 71
     3
 72
    16
 73
    12
 74
     0
 42
0.0000000007370675
 43
0.0000000001
 40
0.0
 40
0.0
 40
0.0
 40
0.0
 40
0.1023126580245886
 40
0.1023126580245886
 40
0.2305537068782186
 40
0.2305537068782186
 40
0.4870358045854791
 40
0.4870358045854791
 40
0.7435179022927396
 40
0.7435179022927396
 40
1.0
 40
1.0
 40
1.0
 40
1.0
 10
294.7534201319136
 20
580.1374953740973
 30
0.0
 10
294.7553384476403
 20
579.8393829413739
 30
0.0
 10
294.6787144641804
 20
579.5922740255663
 30
0.0
 10
294.3288742641064
 20
579.159087622158
 30
0.0
 10
294.0083728347641
 20
579.0084382953194
 30
0.0
 10
292.7484451960099
 20
578.766921193138
 30
0.0
 10
291.4896319921319
 20
578.8800302174325
 30
0.0
 10
288.6456240044774
 20
579.0278237984694
 30
0.0
 10
287.0435360489292
 20
579.0394427243226
 30
0.0
 10
284.1580539710266
 20
578.9014091958979
 30
0.0
 10
282.8318985630273
 20
578.7700399029866
 30
0.0
 10
281.9595785850771
 20
578.895777773558
 30
0.0
  0
SPLINE
  5
1E0
330
164
100
AcDbEntity
  8
DV2_Standard
  6
Continuous
 62
     7
100
AcDbSpline
210
0.0
220
0.0
230
1.0
 70
     8
 71
     3
 72
     8
 73
     4
 74
     0
 42
0.0000000946052424
 43
0.0000000001
 40
0.0
 40
0.0
 40
0.0
 40
0.0
 40
0.9999999999999999
 40
0.9999999999999999
 40
0.9999999999999999
 40
0.9999999999999999
 10
280.4916980303408
 20
580.3739049448129
 30
0.0
 10
280.4820227604687
 20
580.4086658943336
 30
0.0
 10
280.4735724278218
 20
580.4428613164529
 30
0.0
 10
280.46632855298
 20
580.4764858670924
 30
0.0
  0
LINE
  5
1E1
330
164
100
AcDbEntity
  8
DV2_Standard
  6
Continuous
 62
     7
100
AcDbLine
 10
280.4916980303
 20
580.3739049448
 30
0.0
 11
280.6673801659
 21
580.3739049448
 31
0.0
  0
SPLINE
  5
1E2
330
164
100
AcDbEntity
  8
DV2_Standard
  6
Continuous
 62
     7
100
AcDbSpline
210
0.0
220
0.0
230
1.0
 70
     8
 71
     3
 72
    16
 73
    12
 74
     0
 42
0.0000000042638881
 43
0.0000000001
 40
0.0
 40
0.0
 40
0.0
 40
0.0
 40
0.1249999999999999
 40
0.1249999999999999
 40
0.2499999999999998
 40
0.2499999999999998
 40
0.4999999999999998
 40
0.4999999999999998
 40
0.7499999999999999
 40
0.7499999999999999
 40
1.0
 40
1.0
 40
1.0
 40
1.0
 10
282.1332046758369
 20
578.9022659606013
 30
0.0
 10
282.0083160999344
 20
578.9192764905777
 30
0.0
 10
281.8899908499607
 20
578.9409175017917
 30
0.0
 10
281.6715385604819
 20
578.9938402731183
 30
0.0
 10
281.5706255477224
 20
579.0252068026713
 30
0.0
 10
281.2919682621157
 20
579.1357688888824
 30
0.0
 10
281.1379992521493
 20
579.2315159285722
 30
0.0
 10
280.8934788703056
 20
579.4769280912443
 30
0.0
 10
280.806829233834
 20
579.6225007350444
 30
0.0
 10
280.6936378090006
 20
579.9618242455025
 30
0.0
 10
280.6673045872045
 20
580.156924329504
 30
0.0
 10
280.6673801659244
 20
580.3739049448129
 30
0.0
  0
LINE
  5
1E3
330
164
100
AcDbEntity
  8
DV2_Standard
  6
Continuous
 62
     7
100
AcDbLine
 10
294.4673045872
 20
635.8737300914
 30
0.0
 11
294.4673045872
 21
637.7153576171
 31
0.0
  0
LINE
  5
1E4
330
164
100
AcDbEntity
  8
DV2_Standard
  6
Continuous
 62
     7
100
AcDbLine
 10
294.4673045872
 20
630.8738223037
 30
0.0
 11
294.4673045872
 21
632.724279902
 31
0.0
  0
LINE
  5
1E5
330
164
100
AcDbEntity
  8
DV2_Standard
  6
Continuous
 62
     7
100
AcDbLine
 10
294.4673045872
 20
625.8739140167
 30
0.0
 11
294.4673045872
 21
627.7044542302
 31
0.0
  0
LINE
  5
1E6
330
164
100
AcDbEntity
  8
DV2_Standard
  6
Continuous
 62
     7
100
AcDbLine
 10
294.4673045872
 20
620.8745284171
 30
0.0
 11
294.4673045872
 21
622.7259885671
 31
0.0
  0
LINE
  5
1E7
330
164
100
AcDbEntity
  8
DV2_Standard
  6
Continuous
 62
     7
100
AcDbLine
 10
294.4673045872
 20
615.8735857601
 30
0.0
 11
294.4673045872
 21
617.7154628689
 31
0.0
  0
LINE
  5
1E8
330
164
100
AcDbEntity
  8
DV2_Standard
  6
Continuous
 62
     7
100
AcDbLine
 10
294.4673045872
 20
610.8738927317
 30
0.0
 11
294.4673045872
 21
612.7136584285
 31
0.0
  0
LINE
  5
1E9
330
164
100
AcDbEntity
  8
DV2_Standard
  6
Continuous
 62
     7
100
AcDbLine
 10
294.4673045872
 20
605.8734524397
 30
0.0
 11
294.4673045872
 21
607.7234649227
 31
0.0
  0
LINE
  5
1EA
330
164
100
AcDbEntity
  8
DV2_Standard
  6
Continuous
 62
     7
100
AcDbLine
 10
294.4673045872
 20
600.8736456829
 30
0.0
 11
294.4673045872
 21
602.7035044121
 31
0.0
  0
LINE
  5
1EB
330
164
100
AcDbEntity
  8
DV2_Standard
  6
Continuous
 62
     7
100
AcDbLine
 10
294.4673045872
 20
595.8741687094
 30
0.0
 11
294.4673045872
 21
597.7254512169
 31
0.0
  0
LINE
  5
1EC
330
164
100
AcDbEntity
  8
DV2_Standard
  6
Continuous
 62
     7
100
AcDbLine
 10
294.4673045872
 20
590.873940051
 30
0.0
 11
294.4673045872
 21
592.7152176353
 31
0.0
  0
LINE
  5
1ED
330
164
100
AcDbEntity
  8
DV2_Standard
  6
Continuous
 62
     7
100
AcDbLine
 10
294.4673045872
 20
585.8733572756
 30
0.0
 11
294.4673045872
 21
587.712680894
 31
0.0
  0
LINE
  5
1EE
330
164
100
AcDbEntity
  8
DV2_Standard
  6
Continuous
 62
     7
100
AcDbLine
 10
294.4673045872
 20
580.8738998963
 30
0.0
 11
294.4673045872
 21
582.7238716845
 31
0.0
  0
LINE
  5
1EF
330
164
100
AcDbEntity
  8
DV2_Standard
  6
Continuous
 62
     7
100
AcDbLine
 10
280.6673045872
 20
585.3738103655
 30
0.0
 11
280.6673045872
 21
583.5240409269
 31
0.0
  0
LINE
  5
1F0
330
164
100
AcDbEntity
  8
DV2_Standard
  6
Continuous
 62
     7
100
AcDbLine
 10
280.6673045872
 20
590.3738864688
 30
0.0
 11
280.6673045872
 21
588.5438851457
 31
0.0
  0
LINE
  5
1F1
330
164
100
AcDbEntity
  8
DV2_Standard
  6
Continuous
 62
     7
100
AcDbLine
 10
280.6673045872
 20
595.3738983969
 30
0.0
 11
280.6673045872
 21
593.5222286619
 31
0.0
  0
LINE
  5
1F2
330
164
100
AcDbEntity
  8
DV2_Standard
  6
Continuous
 62
     7
100
AcDbLine
 10
280.6673045872
 20
600.3738706085
 30
0.0
 11
280.6673045872
 21
598.5327180785
 31
0.0
  0
LINE
  5
1F3
330
164
100
AcDbEntity
  8
DV2_Standard
  6
Continuous
 62
     7
100
AcDbLine
 10
280.6673045872
 20
605.373916908
 30
0.0
 11
280.6673045872
 21
603.5350112561
 31
0.0
  0
LINE
  5
1F4
330
164
100
AcDbEntity
  8
DV2_Standard
  6
Continuous
 62
     7
100
AcDbLine
 10
280.6673045872
 20
610.3737796701
 30
0.0
 11
280.6673045872
 21
608.5242554907
 31
0.0
  0
LINE
  5
1F5
330
164
100
AcDbEntity
  8
DV2_Standard
  6
Continuous
 62
     7
100
AcDbLine
 10
280.6673045872
 20
615.3738853229
 30
0.0
 11
280.6673045872
 21
613.5443017178
 31
0.0
  0
LINE
  5
1F6
330
164
100
AcDbEntity
  8
DV2_Standard
  6
Continuous
 62
     7
100
AcDbLine
 10
280.6673045872
 20
620.3738956959
 30
0.0
 11
280.6673045872
 21
618.5222483091
 31
0.0
  0
LINE
  5
1F7
330
164
100
AcDbEntity
  8
DV2_Standard
  6
Continuous
 62
     7
100
AcDbLine
 10
280.6673045872
 20
625.3739096167
 30
0.0
 11
280.6673045872
 21
623.5321836634
 31
0.0
  0
LINE
  5
1F8
330
164
100
AcDbEntity
  8
DV2_Standard
  6
Continuous
 62
     7
100
AcDbLine
 10
280.6673045872
 20
630.3739701248
 30
0.0
 11
280.6673045872
 21
628.5341884205
 31
0.0
  0
LINE
  5
1F9
330
164
100
AcDbEntity
  8
DV2_Standard
  6
Continuous
 62
     7
100
AcDbLine
 10
280.6673045872
 20
635.3738397133
 30
0.0
 11
280.6673045872
 21
633.5235495004
 31
0.0
  0
LINE
  5
1FA
330
164
100
AcDbEntity
  8
DV2_Standard
  6
Continuous
 62
     7
100
AcDbLine
 10
280.6673045872
 20
639.0508888996
 30
0.0
 11
280.6673045872
 21
638.5433418338
 31
0.0
  0
LINE
  5
1FB
330
164
100
AcDbEntity
  8
DV2_Standard
  6
Continuous
 62
     7
100
AcDbLine
 10
294.7422715133
 20
580.173792902
 30
0.0
 11
294.629153135
 21
580.8319738416
 31
0.0
  0
ARC
  5
1FC
330
164
100
AcDbEntity
  8
DV2_Standard
  6
Continuous
 62
     7
100
AcDbCircle
 10
288.2249022501
 20
639.3756719106
 30
0.0
 40
6.59270051260559
100
AcDbArc
 50
346.653493553
 51
359.6985446785
  0
ARC
  5
1FD
330
164
100
AcDbEntity
  8
DV2_Standard
  6
Continuous
 62
     7
100
AcDbCircle
 10
288.2267414035
 20
634.3751316643
 30
0.0
 40
6.591365197217102
100
AcDbArc
 50
346.6646104493
 51
13.3522004857
  0
ARC
  5
1FE
330
164
100
AcDbEntity
  8
DV2_Standard
  6
Continuous
 62
     7
100
AcDbCircle
 10
288.2281563389
 20
629.3744247591
 30
0.0
 40
6.590234885050722
100
AcDbArc
 50
346.6405490294
 51
13.3357434038
  0
ARC
  5
1FF
330
164
100
AcDbEntity
  8
DV2_Standard
  6
Continuous
 62
     7
100
AcDbCircle
 10
288.2281213975
 20
624.3734601287
 30
0.0
 40
6.590273732219557
100
AcDbArc
 50
346.6478469909
 51
13.3323977405
  0
ARC
  5
200
330
164
100
AcDbEntity
  8
DV2_Standard
  6
Continuous
 62
     7
100
AcDbCircle
 10
288.2265441449
 20
619.3726631526
 30
0.0
 40
6.591532997626586
100
AcDbArc
 50
346.6826046959
 51
13.3606417534
  0
ARC
  5
201
330
164
100
AcDbEntity
  8
DV2_Standard
  6
Continuous
 62
     7
100
AcDbCircle
 10
288.2248981463
 20
614.3721003856
 30
0.0
 40
6.592697782132248
100
AcDbArc
 50
346.6710336825
 51
13.3568967751
  0
ARC
  5
202
330
164
100
AcDbEntity
  8
DV2_Standard
  6
Continuous
 62
     7
100
AcDbCircle
 10
288.2230122152
 20
609.3718501956
 30
0.0
 40
6.593963679790515
100
AcDbArc
 50
346.659302077
 51
13.3373410127
  0
ARC
  5
203
330
164
100
AcDbEntity
  8
DV2_Standard
  6
Continuous
 62
     7
100
AcDbCircle
 10
288.2210260137
 20
604.3717949697
 30
0.0
 40
6.595244377260224
100
AcDbArc
 50
346.680023703
 51
13.3463089802
  0
ARC
  5
204
330
164
100
AcDbEntity
  8
DV2_Standard
  6
Continuous
 62
     7
100
AcDbCircle
 10
288.2191248498
 20
599.3719011242
 30
0.0
 40
6.596446316685534
100
AcDbArc
 50
346.685255073
 51
13.3523580424
  0
ARC
  5
205
330
164
100
AcDbEntity
  8
DV2_Standard
  6
Continuous
 62
     7
100
AcDbCircle
 10
288.2175735104
 20
594.3721657965
 30
0.0
 40
6.597400559217442
100
AcDbArc
 50
346.667728699
 51
13.3363435091
  0
ARC
  5
206
330
164
100
AcDbEntity
  8
DV2_Standard
  6
Continuous
 62
     7
100
AcDbCircle
 10
288.2162903286
 20
589.372574671
 30
0.0
 40
6.598173870733032
100
AcDbArc
 50
346.6726180754
 51
13.3332515946
  0
ARC
  5
207
330
164
100
AcDbEntity
  8
DV2_Standard
  6
Continuous
 62
     7
100
AcDbCircle
 10
288.2153531205
 20
584.3730797376
 30
0.0
 40
6.598743141145735
100
AcDbArc
 50
346.680291614
 51
13.340399715
  0
ARC
  5
208
330
164
100
AcDbEntity
  8
DV2_Standard
  6
Continuous
 62
     7
100
AcDbCircle
 10
286.6403112555
 20
581.906585762
 30
0.0
 40
6.32390515826402
100
AcDbArc
 50
166.399273321
 51
193.0508208362
  0
ARC
  5
209
330
164
100
AcDbEntity
  8
DV2_Standard
  6
Continuous
 62
     7
100
AcDbCircle
 10
286.9088476822
 20
586.8755010699
 30
0.0
 40
6.592093870164282
100
AcDbArc
 50
166.6760099489
 51
193.3627784519
  0
ARC
  5
20A
330
164
100
AcDbEntity
  8
DV2_Standard
  6
Continuous
 62
     7
100
AcDbCircle
 10
286.9106085805
 20
591.8758501031
 30
0.0
 40
6.593303861192235
100
AcDbArc
 50
166.6569090971
 51
193.3387635949
  0
ARC
  5
20B
330
164
100
AcDbEntity
  8
DV2_Standard
  6
Continuous
 62
     7
100
AcDbCircle
 10
286.9126022684
 20
596.8760225992
 30
0.0
 40
6.594619688062163
100
AcDbArc
 50
166.6747360405
 51
193.3436701048
  0
ARC
  5
20C
330
164
100
AcDbEntity
  8
DV2_Standard
  6
Continuous
 62
     7
100
AcDbCircle
 10
286.9145987057
 20
601.8759820721
 30
0.0
 40
6.595889458212892
100
AcDbArc
 50
166.6889394243
 51
193.3551049987
  0
ARC
  5
20D
330
164
100
AcDbEntity
  8
DV2_Standard
  6
Continuous
 62
     7
100
AcDbCircle
 10
286.9162650488
 20
606.8758121432
 30
0.0
 40
6.596928155556799
100
AcDbArc
 50
166.6695899799
 51
193.3403586236
  0
ARC
  5
20E
330
164
100
AcDbEntity
  8
DV2_Standard
  6
Continuous
 62
     7
100
AcDbCircle
 10
286.9177168193
 20
611.8754627324
 30
0.0
 40
6.597810606600174
100
AcDbArc
 50
166.6701042022
 51
193.332820119
  0
ARC
  5
20F
330
164
100
AcDbEntity
  8
DV2_Standard
  6
Continuous
 62
     7
100
AcDbCircle
 10
286.9188504413
 20
616.8749925774
 30
0.0
 40
6.598495838884536
100
AcDbArc
 50
166.6815917796
 51
193.3411946398
  0
ARC
  5
210
330
164
100
AcDbEntity
  8
DV2_Standard
  6
Continuous
 62
     7
100
AcDbCircle
 10
286.9195422603
 20
621.8744764058
 30
0.0
 40
6.598919713488163
100
AcDbArc
 50
166.6726567092
 51
193.3345625919
  0
ARC
  5
211
330
164
100
AcDbEntity
  8
DV2_Standard
  6
Continuous
 62
     7
100
AcDbCircle
 10
286.9197724272
 20
626.8739151552
 30
0.0
 40
6.599053986831224
100
AcDbArc
 50
166.663802008
 51
193.3237717424
  0
ARC
  5
212
330
164
100
AcDbEntity
  8
DV2_Standard
  6
Continuous
 62
     7
100
AcDbCircle
 10
286.919518593
 20
631.8733396616
 30
0.0
 40
6.598897118359459
100
AcDbArc
 50
166.6714656884
 51
193.3301564504
  0
ARC
  5
213
330
164
100
AcDbEntity
  8
DV2_Standard
  6
Continuous
 62
     7
100
AcDbCircle
 10
286.9188477479
 20
636.8728102948
 30
0.0
 40
6.598502208876061
100
AcDbArc
 50
166.6671832875
 51
193.3317509367
  0
LINE
  5
214
330
164
100
AcDbEntity
  8
DV2_Standard
  6
Continuous
 62
     7
100
AcDbLine
 10
251.5673045872
 20
483.6739086504
 30
0.0
 11
265.5673045872
 21
483.6739086504
 31
0.0
  0
LINE
  5
215
330
164
100
AcDbEntity
  8
DV2_Standard
  6
Continuous
 62
     7
100
AcDbLine
 10
236.5673045872
 20
483.6739086504
 30
0.0
 11
251.5673045872
 21
483.6739086504
 31
0.0
  0
LINE
  5
216
330
164
100
AcDbEntity
  8
DV2_Standard
  6
Continuous
 62
     7
100
AcDbLine
 10
265.5673045872
 20
483.6739086504
 30
0.0
 11
265.4006968243
 21
502.7652672985
 31
0.0
  0
ARC
  5
217
330
164
100
AcDbEntity
  8
DV2_Standard
  6
Continuous
 62
     7
100
AcDbCircle
 10
2335.5633711527
 20
6319.4666943465
 30
0.0
 40
6173.108979321462
100
AcDbArc
 50
250.30547084
 51
250.4040048533
  0
ARC
  5
218
330
164
100
AcDbEntity
  8
DV2_Standard
  6
Continuous
 62
     7
100
AcDbCircle
 10
248.2527147038
 20
488.1077928097
 30
0.0
 40
20.56621735596031
100
AcDbArc
 50
70.2791077503
 51
80.2478428827
  0
SPLINE
  5
219
330
164
100
AcDbEntity
  8
DV2_Standard
  6
Continuous
 62
     7
100
AcDbSpline
210
0.0
220
0.0
230
1.0
 70
    12
 71
     3
 72
    10
 73
     6
 74
     0
 42
0.000000002801898
 43
0.0000000001
 40
0.0
 40
0.0
 40
0.0
 40
0.0
 40
0.3193228416579572
 40
0.7358822118240597
 40
1.0
 40
1.0
 40
1.0
 40
1.0
 10
251.7363565161747
 20
508.376821796167
 30
0.0
 41
1.179134966749308
 10
251.3582876854451
 20
508.4417848543978
 30
0.0
 41
1.179134966749308
 10
250.4825570638707
 20
508.5662014840604
 30
0.0
 41
1.179134966749308
 10
249.2929977835924
 20
508.6574104237165
 30
0.0
 41
1.179134966749308
 10
248.4931808836085
 20
508.6738931890841
 30
0.0
 41
1.179134966749308
 10
248.1853431742047
 20
508.6739086503829
 30
0.0
 41
1.179134966749308
  0
LINE
  5
21A
330
164
100
AcDbEntity
  8
DV2_Standard
  6
Continuous
 62
     7
100
AcDbLine
 10
237.5673087547
 20
508.6739086504
 30
0.0
 11
248.1853432022
 21
508.6739086504
 31
0.0
  0
LINE
  5
21B
330
164
100
AcDbEntity
  8
DV2_Standard
  6
Continuous
 62
     7
100
AcDbLine
 10
236.5673045872
 20
507.6739086504
 30
0.0
 11
236.5673045872
 21
483.6739086504
 31
0.0
  0
ARC
  5
21C
330
164
100
AcDbEntity
  8
DV2_Standard
  6
Continuous
 62
     7
100
AcDbCircle
 10
237.5673045872
 20
507.6739086504
 30
0.0
 40
0.9999999999976755
100
AcDbArc
 50
89.9998806108
 51
180.0
  0
SPLINE
  5
21D
330
164
100
AcDbEntity
  8
DV2_Standard
  6
Continuous
 62
     7
100
AcDbSpline
210
0.0
220
0.0
230
1.0
 70
     8
 71
     3
 72
     8
 73
     4
 74
     0
 42
0.000000027621832
 43
0.0000000001
 40
0.0
 40
0.0
 40
0.0
 40
0.0
 40
1.0
 40
1.0
 40
1.0
 40
1.0
 10
282.1719228174647
 20
498.6790113388071
 30
0.0
 10
282.0785244813244
 20
498.7535563544683
 30
0.0
 10
281.9719445155141
 20
498.8122827584934
 30
0.0
 10
281.8577973106819
 20
498.8519530676323
 30
0.0
  0
ARC
  5
21E
330
164
100
AcDbEntity
  8
DV2_Standard
  6
Continuous
 62
     7
100
AcDbCircle
 10
265.4104064237
 20
501.6526574155
 30
0.0
 40
0.1999999999970166
100
AcDbArc
 50
180.4999999999
 51
270.500000001
  0
LINE
  5
21F
330
164
100
AcDbEntity
  8
DV2_Standard
  6
Continuous
 62
     7
100
AcDbLine
 10
265.2104140391
 20
501.6509121084
 30
0.0
 11
265.193496356
 21
503.5894865801
 31
0.0
  0
SPLINE
  5
220
330
164
100
AcDbEntity
  8
DV2_Standard
  6
Continuous
 62
     7
100
AcDbSpline
210
0.0
220
0.0
230
1.0
 70
     8
 71
     3
 72
    14
 73
    10
 74
     0
 42
0.0000000005772003
 43
0.0000000001
 40
0.0
 40
0.0
 40
0.0
 40
0.0
 40
0.1428571428571
 40
0.2857142857143
 40
0.4285714285714
 40
0.5714285714286
 40
0.7142857142857
 40
0.8571428571429
 40
1.0
 40
1.0
 40
1.0
 40
1.0
 10
265.1934963559577
 20
503.5894865801319
 30
0.0
 10
266.3453223211147
 20
503.2498352188699
 30
0.0
 10
268.5298829480147
 20
502.609616577339
 30
0.0
 10
271.4308259800147
 20
501.7698179330949
 30
0.0
 10
274.0095510860247
 20
501.0324412592369
 30
0.0
 10
276.3132027759447
 20
500.3817121548719
 30
0.0
 10
278.3547398850447
 20
499.8118845665969
 30
0.0
 10
280.1663428160347
 20
499.3121581831768
 30
0.0
 10
281.3096535141147
 20
499.0003833147936
 30
0.0
 10
281.8577973106819
 20
498.8519530676323
 30
0.0
  0
LINE
  5
221
330
164
100
AcDbEntity
  8
DV2_Standard
  6
Continuous
 62
     7
100
AcDbLine
 10
265.5673045872
 20
483.6739086504
 30
0.0
 11
265.4121517308
 21
501.4526650309
 31
0.0
  0
LINE
  5
222
330
164
100
AcDbEntity
  8
DV2_Standard
  6
Continuous
 62
     7
100
AcDbLine
 10
265.5673045872
 20
483.6739086504
 30
0.0
 11
274.7527209349
 21
483.6739086504
 31
0.0
  0
LINE
  5
223
330
164
100
AcDbEntity
  8
DV2_Standard
  6
Continuous
 62
     7
100
AcDbLine
 10
275.7998189932
 20
495.2174865218
 30
0.0
 11
274.7527209349
 21
483.6739086504
 31
0.0
  0
ARC
  5
224
330
164
100
AcDbEntity
  8
DV2_Standard
  6
Continuous
 62
     7
100
AcDbCircle
 10
276.3086480465
 20
495.1621438211
 30
0.0
 40
0.511829874090049
100
AcDbArc
 50
89.0865477556
 51
173.7926353531
  0
ARC
  5
225
330
164
100
AcDbEntity
  8
DV2_Standard
  6
Continuous
 62
     7
100
AcDbCircle
 10
277.2120438257
 20
495.8788889681
 30
0.0
 40
0.205007737513275
100
AcDbArc
 50
269.0628927428
 51
353.7238762139
  0
LINE
  5
226
330
164
100
AcDbEntity
  8
DV2_Standard
  6
Continuous
 62
     7
100
AcDbLine
 10
277.4941531131
 20
496.7174865218
 30
0.0
 11
277.4158228693
 21
495.8564775018
 31
0.0
  0
ARC
  5
227
330
164
100
AcDbEntity
  8
DV2_Standard
  6
Continuous
 62
     7
100
AcDbCircle
 10
278.0036895666
 20
496.6613639123
 30
0.0
 40
0.5126179325120647
100
AcDbArc
 50
89.0317558758
 51
173.7145245385
  0
ARC
  5
228
330
164
100
AcDbEntity
  8
DV2_Standard
  6
Continuous
 62
     7
100
AcDbCircle
 10
278.9099969875
 20
497.379227949
 30
0.0
 40
0.2053493132016948
100
AcDbArc
 50
269.0203693163
 51
353.6391994576
  0
LINE
  5
229
330
164
100
AcDbEntity
  8
DV2_Standard
  6
Continuous
 62
     7
100
AcDbLine
 10
279.1926118479
 20
498.2174865218
 30
0.0
 11
279.1140821599
 21
497.3564775018
 31
0.0
  0
ARC
  5
22A
330
164
100
AcDbEntity
  8
DV2_Standard
  6
Continuous
 62
     7
100
AcDbCircle
 10
279.7029305595
 20
498.1605009747
 30
0.0
 40
0.5134905451912563
100
AcDbArc
 50
88.9706227089
 51
173.6283720693
  0
LINE
  5
22B
330
164
100
AcDbEntity
  8
DV2_Standard
  6
Continuous
 62
     7
100
AcDbLine
 10
337.6673045872
 20
479.8125887235
 30
0.0
 11
343.0673045869
 21
480.0583354321
 31
0.0
  0
ARC
  5
22C
330
164
100
AcDbEntity
  8
DV2_Standard
  6
Continuous
 62
     7
100
AcDbCircle
 10
333.4140429239
 20
581.0296881675
 30
0.0
 40
101.3064235606157
100
AcDbArc
 50
271.5007743319
 51
272.4062204806
  0
ARC
  5
22D
330
164
100
AcDbEntity
  8
DV2_Standard
  6
Continuous
 62
     7
100
AcDbCircle
 10
330.0673045872
 20
699.6739086504
 30
0.0
 40
219.9977272609879
100
AcDbArc
 50
270.4510965984
 51
271.5628220946
  0
ARC
  5
22E
330
164
100
AcDbEntity
  8
DV2_Standard
  6
Continuous
 62
     7
100
AcDbCircle
 10
330.9333299911
 20
565.9710864091
 30
0.0
 40
86.29243245933229
100
AcDbArc
 50
269.4249735213
 51
270.5750264786
  0
LINE
  5
22F
330
164
100
AcDbEntity
  8
DV2_Standard
  6
Continuous
 62
     7
100
AcDbLine
 10
274.7527209349
 20
483.6739086504
 30
0.0
 11
387.3796345401
 21
483.6739086504
 31
0.0
  0
LINE
  5
230
330
164
100
AcDbEntity
  8
DV2_Standard
  6
Continuous
 62
     7
100
AcDbLine
 10
385.8716049908
 20
495.6739086504
 30
0.0
 11
276.3168076762
 21
495.6739086504
 31
0.0
  0
LINE
  5
231
330
164
100
AcDbEntity
  8
DV2_Standard
  6
Continuous
 62
     7
100
AcDbLine
 10
384.2403719955
 20
497.1739086504
 30
0.0
 11
278.0123519093
 21
497.1739086504
 31
0.0
  0
LINE
  5
232
330
164
100
AcDbEntity
  8
DV2_Standard
  6
Continuous
 62
     7
100
AcDbLine
 10
382.6091390002
 20
498.6739086504
 30
0.0
 11
279.7121554461
 21
498.6739086504
 31
0.0
  0
ARC
  5
233
330
164
100
AcDbEntity
  8
DV2_Standard
  6
Continuous
 62
     7
100
AcDbCircle
 10
330.0673045872
 20
699.6739086504
 30
0.0
 40
220.0000000000023
100
AcDbArc
 50
259.0575010931
 51
269.6187496911
  0
ARC
  5
234
330
164
100
AcDbEntity
  8
DV2_Standard
  6
Continuous
 62
     7
100
AcDbCircle
 10
330.0673045872
 20
699.6739086504
 30
0.0
 40
220.0
100
AcDbArc
 50
273.3875900235
 51
280.9424989069
  0
LINE
  5
235
330
164
100
AcDbEntity
  8
DV2_Standard
  6
Continuous
 62
     7
100
AcDbLine
 10
387.3796345401
 20
483.6739086504
 30
0.0
 11
386.3697023398
 21
495.2174865218
 31
0.0
  0
ARC
  5
236
330
164
100
AcDbEntity
  8
DV2_Standard
  6
Continuous
 62
     7
100
AcDbCircle
 10
385.8716049908
 20
495.1739086504
 30
0.0
 40
0.4999999999970888
100
AcDbArc
 50
5.0
 51
90.0
  0
ARC
  5
237
330
164
100
AcDbEntity
  8
DV2_Standard
  6
Continuous
 62
     7
100
AcDbCircle
 10
385.0130368126
 20
495.8739086504
 30
0.0
 40
0.2000000000000057
100
AcDbArc
 50
184.9999999998
 51
270.0
  0
LINE
  5
238
330
164
100
AcDbEntity
  8
DV2_Standard
  6
Continuous
 62
     7
100
AcDbLine
 10
384.813797873
 20
495.8564775018
 30
0.0
 11
384.7384693445
 21
496.7174865218
 31
0.0
  0
ARC
  5
239
330
164
100
AcDbEntity
  8
DV2_Standard
  6
Continuous
 62
     7
100
AcDbCircle
 10
384.2403719955
 20
496.6739086504
 30
0.0
 40
0.5000000000020659
100
AcDbArc
 50
5.0
 51
90.0
  0
ARC
  5
23A
330
164
100
AcDbEntity
  8
DV2_Standard
  6
Continuous
 62
     7
100
AcDbCircle
 10
383.3818038173
 20
497.3739086504
 30
0.0
 40
0.2000000000000057
100
AcDbArc
 50
184.9999999998
 51
270.0
  0
LINE
  5
23B
330
164
100
AcDbEntity
  8
DV2_Standard
  6
Continuous
 62
     7
100
AcDbLine
 10
383.1825648777
 20
497.3564775018
 30
0.0
 11
383.1072363492
 21
498.2174865218
 31
0.0
  0
ARC
  5
23C
330
164
100
AcDbEntity
  8
DV2_Standard
  6
Continuous
 62
     7
100
AcDbCircle
 10
382.6091390002
 20
498.1739086504
 30
0.0
 40
0.5000000000020765
100
AcDbArc
 50
5.0
 51
90.0
  0
LINE
  5
23D
330
164
100
AcDbEntity
  8
DV2_Standard
  6
Continuous
 62
     7
100
AcDbLine
 10
301.6930409427
 20
704.4506076021
 30
0.0
 11
301.6321953434
 21
698.8757160235
 31
0.0
  0
ARC
  5
23E
330
164
100
AcDbEntity
  8
DV2_Standard
  6
Continuous
 62
     7
100
AcDbCircle
 10
263.6245483533
 20
914.5072583414
 30
0.0
 40
99.56624209253295
100
AcDbArc
 50
301.1600999496
 51
358.3509964569
  0
LINE
  5
23F
330
164
100
AcDbEntity
  8
DV2_Standard
  6
Continuous
 62
     7
100
AcDbLine
 10
276.3173045872
 20
686.6739094446
 30
0.0
 11
276.7673045872
 21
686.6739094446
 31
0.0
  0
LINE
  5
240
330
164
100
AcDbEntity
  8
DV2_Standard
  6
Continuous
 62
     7
100
AcDbLine
 10
328.6034192937
 20
479.6787790683
 30
0.0
 11
330.0673045872
 21
479.6829997473
 31
0.0
  0
ENDBLK
  5
242
330
164
100
AcDbEntity
  8
0
100
AcDbBlockEnd
  0
BLOCK
  5
29F
330
243
100
AcDbEntity
  8
0
100
AcDbBlockBegin
  2
SE2
 70
     0
 10
0.0
 20
0.0
 30
0.0
  3
SE2
  1

  0
LINE
  5
246
330
243
100
AcDbEntity
  8
DV3_Standard
  6
CENTER2
 62
     7
100
AcDbLine
 10
83.6623295059
 20
289.1623299529
 30
0.0
 11
43.6623303999
 21
289.1623299529
 31
0.0
  0
LINE
  5
247
330
243
100
AcDbEntity
  8
DV3_Standard
  6
CENTER2
 62
     7
100
AcDbLine
 10
63.6623299529
 20
309.1623295059
 30
0.0
 11
63.6623299529
 21
269.1623303999
 31
0.0
  0
LINE
  5
248
330
243
100
AcDbEntity
  8
DV3_Standard
  6
Continuous
 62
     7
100
AcDbLine
 10
117.0623299529
 20
262.1623299831
 30
0.0
 11
117.0623299529
 21
222.1623299227
 31
0.0
  0
LINE
  5
249
330
243
100
AcDbEntity
  8
DV3_Standard
  6
Continuous
 62
     7
100
AcDbLine
 10
118.5685157107
 20
262.1623299831
 30
0.0
 11
117.0623299529
 21
262.1623299831
 31
0.0
  0
LINE
  5
24A
330
243
100
AcDbEntity
  8
DV3_Standard
  6
Continuous
 62
     7
100
AcDbLine
 10
117.0623299529
 20
222.1623299227
 30
0.0
 11
118.5685157107
 21
222.1623299227
 31
0.0
  0
ARC
  5
24B
330
243
100
AcDbEntity
  8
DV3_Standard
  6
Continuous
 62
     7
100
AcDbCircle
 10
87.0623299529
 20
242.1623299529
 30
0.0
 40
49.99999999999983
100
AcDbArc
 50
341.4469954235
 51
360.0
  0
ARC
  5
24C
330
243
100
AcDbEntity
  8
DV3_Standard
  6
Continuous
 62
     7
100
AcDbCircle
 10
87.0623299529
 20
242.1623299529
 30
0.0
 40
49.99999999999982
100
AcDbArc
 50
0.0
 51
18.5530045765
  0
ARC
  5
24D
330
243
100
AcDbEntity
  8
DV3_Standard
  6
Continuous
 62
     7
100
AcDbCircle
 10
128.775637172
 20
228.1623299227
 30
0.0
 40
6.000000000000001
100
AcDbArc
 50
337.9071092145
 51
341.4469954235
  0
ARC
  5
24E
330
243
100
AcDbEntity
  8
DV3_Standard
  6
Continuous
 62
     7
100
AcDbCircle
 10
128.775637172
 20
256.1623299831
 30
0.0
 40
5.999999999999996
100
AcDbArc
 50
18.5530045765
 51
22.0898308847
  0
SPLINE
  5
24F
330
243
100
AcDbEntity
  8
DV3_Standard
  6
Continuous
 62
     7
100
AcDbSpline
210
0.0
220
0.0
230
1.0
 70
     8
 71
     3
 72
    20
 73
    16
 74
     0
 42
0.0000000016388538
 43
0.0000000001
 40
0.0
 40
0.0
 40
0.0
 40
0.0
 40
0.0550905565424698
 40
0.1435800698053292
 40
0.2329854017097569
 40
0.3196672741000977
 40
0.4077613389484432
 40
0.4935752781283758
 40
0.5812958288825836
 40
0.667272323815788
 40
0.7558608903204702
 40
0.8413972374567995
 40
0.9173945173739781
 40
0.9695852991408357
 40
0.9999999999999999
 40
0.9999999999999999
 40
0.9999999999999999
 40
0.9999999999999999
 10
128.77598029565
 20
223.0292872754727
 30
0.0
 10
128.9458552930306
 20
223.0280032518478
 30
0.0
 10
129.322121541298
 20
223.0268833341138
 30
0.0
 10
129.9839039503469
 20
223.1052773139795
 30
0.0
 10
130.6879544116406
 20
223.2524747040581
 30
0.0
 10
131.3550986718196
 20
223.4618415916531
 30
0.0
 10
131.9583693907519
 20
223.7175268626674
 30
0.0
 10
132.4984331918819
 20
224.0094042825396
 30
0.0
 10
132.9605271490092
 20
224.3187525911573
 30
0.0
 10
133.352077722751
 20
224.6371892563513
 30
0.0
 10
133.6541955095604
 20
224.9306546304435
 30
0.0
 10
133.8797074568186
 20
225.1852799906788
 30
0.0
 10
134.023800225004
 20
225.3730460053255
 30
0.0
 10
134.0981774787028
 20
225.4799774766123
 30
0.0
 10
134.1052861849048
 20
225.4901843786422
 30
0.0
 10
134.1053847611626
 20
225.4903519935713
 30
0.0
  0
SPLINE
  5
250
330
243
100
AcDbEntity
  8
DV3_Standard
  6
Continuous
 62
     7
100
AcDbSpline
210
0.0
220
0.0
230
1.0
 70
     8
 71
     3
 72
     8
 73
     4
 74
     0
 42
0.0000000625373406
 43
0.0000000001
 40
0.0
 40
0.0
 40
0.0
 40
0.0
 40
1.0
 40
1.0
 40
1.0
 40
1.0
 10
128.7763143574144
 20
223.0264478815434
 30
0.0
 10
128.8315167073057
 20
223.0268413284433
 30
0.0
 10
128.8846037297567
 20
223.0272853555097
 30
0.0
 10
128.9362113985868
 20
223.0279410203771
 30
0.0
  0
SPLINE
  5
251
330
243
100
AcDbEntity
  8
DV3_Standard
  6
Continuous
 62
     7
100
AcDbSpline
210
0.0
220
0.0
230
1.0
 70
     8
 71
     3
 72
    14
 73
    10
 74
     0
 42
0.0000000178148508
 43
0.0000000001
 40
0.0
 40
0.0
 40
0.0
 40
0.0
 40
0.1383638279782406
 40
0.4770100258096369
 40
0.6296646543698166
 40
0.6996830538580314
 40
0.7602521532488266
 40
0.8482671931782326
 40
1.0
 40
1.0
 40
1.0
 40
1.0
 10
134.0580630198176
 20
225.422785044018
 30
0.0
 10
134.06470015259
 20
225.4318913537451
 30
0.0
 10
134.0859184070092
 20
225.4612454378477
 30
0.0
 10
134.1129931907504
 20
225.4991891080915
 30
0.0
 10
134.1411791924714
 20
225.5402419442932
 30
0.0
 10
134.168430422257
 20
225.5817101213488
 30
0.0
 10
134.2034866977171
 20
225.6378803125085
 30
0.0
 10
134.2680900399762
 20
225.7503775276459
 30
0.0
 10
134.3071310861011
 20
225.840054561055
 30
0.0
 10
134.3366621096393
 20
225.907976047837
 30
0.0
  0
LINE
  5
252
330
243
100
AcDbEntity
  8
DV3_Standard
  6
Continuous
 62
     7
100
AcDbLine
 10
124.3623299529
 20
223.0201730688
 30
0.0
 11
128.775637172
 21
223.0201730688
 31
0.0
  0
ARC
  5
253
330
243
100
AcDbEntity
  8
DV3_Standard
  6
Continuous
 62
     7
100
AcDbCircle
 10
123.7177536753
 20
207.2535982086
 30
0.0
 40
15.77596678443893
100
AcDbArc
 50
87.657928324
 51
109.05127123
  0
SPLINE
  5
254
330
243
100
AcDbEntity
  8
DV3_Standard
  6
Continuous
 62
     7
100
AcDbSpline
210
0.0
220
0.0
230
1.0
 70
     8
 71
     3
 72
    10
 73
     6
 74
     0
 42
0.0000001309291166
 43
0.0000000001
 40
0.0
 40
0.0
 40
0.0
 40
0.0
 40
0.2291601398556616
 40
0.8580540453210683
 40
1.0
 40
1.0
 40
1.0
 40
1.0
 10
119.151035827319
 20
222.2540403606916
 30
0.0
 10
119.1508306661292
 20
222.2539760406361
 30
0.0
 10
119.1594716183451
 20
222.2566558611992
 30
0.0
 10
119.1868023616323
 20
222.2650035135403
 30
0.0
 10
119.2176612273398
 20
222.2743999305533
 30
0.0
 10
119.2236699283905
 20
222.2762270411388
 30
0.0
  0
SPLINE
  5
255
330
243
100
AcDbEntity
  8
DV3_Standard
  6
Continuous
 62
     7
100
AcDbSpline
210
0.0
220
0.0
230
1.0
 70
     8
 71
     3
 72
    26
 73
    22
 74
     0
 42
0.0000000015197141
 43
0.0000000001
 40
0.0
 40
0.0
 40
0.0
 40
0.0
 40
0.0138509705589112
 40
0.0293202168887743
 40
0.0386925900562621
 40
0.0455984248345041
 40
0.0549653167831388
 40
0.0733410408905716
 40
0.1119906898200859
 40
0.1750411942422305
 40
0.2265302174723741
 40
0.2823141221856126
 40
0.3621483593628917
 40
0.4396810756818675
 40
0.5247469773783263
 40
0.600928911837532
 40
0.6837482331364712
 40
0.7667507002991959
 40
0.8466973170211604
 40
0.9287717368379638
 40
1.0
 40
1.0
 40
1.0
 40
1.0
 10
134.3351818588315
 20
258.4159134857401
 30
0.0
 10
134.3175509642179
 20
258.4598721070026
 30
0.0
 10
134.2860696608766
 20
258.5379617411327
 30
0.0
 10
134.2278363497253
 20
258.6454085871294
 30
0.0
 10
134.1855764677977
 20
258.7157904738215
 30
0.0
 10
134.1616074209168
 20
258.7533742417274
 30
0.0
 10
134.1404935540496
 20
258.7853538764419
 30
0.0
 10
134.1162633631475
 20
258.8207167870145
 30
0.0
 10
134.0804843957469
 20
258.8711963526865
 30
0.0
 10
134.033541146666
 20
258.9357488042446
 30
0.0
 10
133.9263933526166
 20
259.0776626072624
 30
0.0
 10
133.7550965408342
 20
259.2835518635123
 30
0.0
 10
133.5068284844814
 20
259.5434812431917
 30
0.0
 10
133.1478812075763
 20
259.8615209525304
 30
0.0
 10
132.708826159861
 20
260.1828997855481
 30
0.0
 10
132.1783330123329
 20
260.4966249058822
 30
0.0
 10
131.5818993227783
 20
260.7757937300971
 30
0.0
 10
130.9079346553878
 20
261.0117741803295
 30
0.0
 10
130.1945100217876
 20
261.1831202999444
 30
0.0
 10
129.465396618131
 20
261.2875842264
 30
0.0
 10
129.0207245996828
 20
261.2970245524779
 30
0.0
 10
128.7766463322617
 20
261.30071270818
 30
0.0
  0
LINE
  5
256
330
243
100
AcDbEntity
  8
DV3_Standard
  6
Continuous
 62
     7
100
AcDbLine
 10
128.775637172
 20
261.304486837
 30
0.0
 11
124.3623299529
 21
261.304486837
 31
0.0
  0
SPLINE
  5
257
330
243
100
AcDbEntity
  8
DV3_Standard
  6
Continuous
 62
     7
100
AcDbSpline
210
0.0
220
0.0
230
1.0
 70
     8
 71
     3
 72
    20
 73
    16
 74
     0
 42
0.0000000018915102
 43
0.0000000001
 40
0.0
 40
0.0
 40
0.0
 40
0.0
 40
0.0091732759665765
 40
0.1002797604409159
 40
0.1921408648657759
 40
0.28323733438195
 40
0.375279947455619
 40
0.4674705754761108
 40
0.5590660620186441
 40
0.6528631848364651
 40
0.7455588800273487
 40
0.8407323009057994
 40
0.9371322656959361
 40
0.9861039672657279
 40
1.0
 40
1.0
 40
1.0
 40
1.0
 10
124.3620346786623
 20
261.3059025098001
 30
0.0
 10
124.3343257013896
 20
261.3053914490866
 30
0.0
 10
124.0736862070362
 20
261.3006536960841
 30
0.0
 10
123.5266544782511
 20
261.3205686489586
 30
0.0
 10
122.7974052206117
 20
261.3659275849973
 30
0.0
 10
122.0924032607728
 20
261.4412354765541
 30
0.0
 10
121.4373017345859
 20
261.5355887491476
 30
0.0
 10
120.8465610741451
 20
261.6419364624758
 30
0.0
 10
120.33044408176
 20
261.7526387226615
 30
0.0
 10
119.8993276358589
 20
261.8576202635152
 30
0.0
 10
119.5602258479815
 20
261.9491303217691
 30
0.0
 10
119.3209269131708
 20
262.0186900528197
 30
0.0
 10
119.1942549333334
 20
262.0573561917227
 30
0.0
 10
119.1549603332378
 20
262.069418550845
 30
0.0
 10
119.151466931491
 20
262.0704756984974
 30
0.0
 10
119.1514847877919
 20
262.0704710412849
 30
0.0
  0
ARC
  5
258
330
243
100
AcDbEntity
  8
DV3_Standard
  6
Continuous
 62
     7
100
AcDbCircle
 10
123.8056944685
 20
277.6349229252
 30
0.0
 40
16.33882249040998
100
AcDbArc
 50
251.3039122184
 51
253.6059935638
  0
LINE
  5
259
330
243
100
AcDbEntity
  8
DV3_Standard
  6
Continuous
 62
     7
100
AcDbLine
 10
116.0623299529
 20
226.3951494379
 30
0.0
 11
116.0623299529
 21
226.0123299529
 31
0.0
  0
ELLIPSE
  5
25A
330
243
100
AcDbEntity
  8
DV3_Standard
  6
Continuous
 62
     7
100
AcDbEllipse
 10
116.0623299518
 20
242.1623299862
 30
0.0
 11
-27.8340211302856
 21
-5.04581380533916
 31
0.0
210
0.0
220
0.0
230
1.0
 40
0.551178748
 41
1.471207952022548
 42
1.506964813679862
  0
LINE
  5
25B
330
243
100
AcDbEntity
  8
DV3_Standard
  6
Continuous
 62
     7
100
AcDbLine
 10
116.0623299529
 20
257.9295104679
 30
0.0
 11
116.0623299529
 21
258.3123299529
 31
0.0
  0
ELLIPSE
  5
25C
330
243
100
AcDbEntity
  8
DV3_Standard
  6
Continuous
 62
     7
100
AcDbEllipse
 10
116.0623299515
 20
242.1623299081
 30
0.0
 11
-27.8340211402961
 21
5.045813808547455
 31
0.0
210
0.0
220
0.0
230
1.0
 40
0.5511787482
 41
-1.50696481361393
 42
-1.471207951969697
  0
LINE
  5
25D
330
243
100
AcDbEntity
  8
DV3_Standard
  6
Continuous
 62
     7
100
AcDbLine
 10
116.0623299529
 20
258.3123299529
 30
0.0
 11
115.1623299529
 21
258.3123299529
 31
0.0
  0
LINE
  5
25E
330
243
100
AcDbEntity
  8
DV3_Standard
  6
Continuous
 62
     7
100
AcDbLine
 10
115.1623299529
 20
226.0123299529
 30
0.0
 11
116.0623299529
 21
226.0123299529
 31
0.0
  0
LINE
  5
25F
330
243
100
AcDbEntity
  8
DV3_Standard
  6
Continuous
 62
     7
100
AcDbLine
 10
115.1623299529
 20
222.3623299529
 30
0.0
 11
115.1623299529
 21
261.9623299529
 31
0.0
  0
LINE
  5
260
330
243
100
AcDbEntity
  8
DV3_Standard
  6
Continuous
 62
     7
100
AcDbLine
 10
114.9623375683
 20
262.1605846458
 30
0.0
 11
99.8605846458
 21
262.0287936446
 31
0.0
  0
ARC
  5
261
330
243
100
AcDbEntity
  8
DV3_Standard
  6
Continuous
 62
     7
100
AcDbCircle
 10
99.8623299529
 20
261.82880126
 30
0.0
 40
0.2000000000000002
100
AcDbArc
 50
90.4999999999
 51
180.0
  0
LINE
  5
262
330
243
100
AcDbEntity
  8
DV3_Standard
  6
Continuous
 62
     7
100
AcDbLine
 10
115.1623299529
 20
261.9623299529
 30
0.0
 11
114.9623375683
 21
262.1605846458
 31
0.0
  0
LINE
  5
263
330
243
100
AcDbEntity
  8
DV3_Standard
  6
Continuous
 62
     7
100
AcDbLine
 10
99.6623299529
 20
234.1623299529
 30
0.0
 11
95.6623299529
 21
234.1623299529
 31
0.0
  0
LINE
  5
264
330
243
100
AcDbEntity
  8
DV3_Standard
  6
Continuous
 62
     7
100
AcDbLine
 10
99.6623299529
 20
242.1623299529
 30
0.0
 11
99.6623299529
 21
234.1623299529
 31
0.0
  0
LINE
  5
265
330
243
100
AcDbEntity
  8
DV3_Standard
  6
Continuous
 62
     7
100
AcDbLine
 10
99.6623299529
 20
242.1623299529
 30
0.0
 11
99.6623299529
 21
262.751420862
 31
0.0
  0
LINE
  5
266
330
243
100
AcDbEntity
  8
DV3_Standard
  6
Continuous
 62
     7
100
AcDbLine
 10
95.6623299529
 20
234.1623299529
 30
0.0
 11
83.7518821917
 21
234.1623299529
 31
0.0
  0
LINE
  5
267
330
243
100
AcDbEntity
  8
DV3_Standard
  6
Continuous
 62
     7
100
AcDbLine
 10
95.6623299529
 20
262.751420862
 30
0.0
 11
95.6623299529
 21
242.1623299529
 31
0.0
  0
LINE
  5
268
330
243
100
AcDbEntity
  8
DV3_Standard
  6
Continuous
 62
     7
100
AcDbLine
 10
95.6623299529
 20
234.1623299529
 30
0.0
 11
95.6623299529
 21
242.1623299529
 31
0.0
  0
LINE
  5
269
330
243
100
AcDbEntity
  8
DV3_Standard
  6
Continuous
 62
     7
100
AcDbLine
 10
80.6862844148
 20
204.184475529
 30
0.0
 11
80.4815633611
 21
215.9111505443
 31
0.0
  0
LINE
  5
26A
330
243
100
AcDbEntity
  8
DV3_Standard
  6
Continuous
 62
     7
100
AcDbLine
 10
113.1620252968
 20
234.1623299529
 30
0.0
 11
99.6623299529
 21
234.1623299529
 31
0.0
  0
LINE
  5
26B
330
243
100
AcDbEntity
  8
DV3_Standard
  6
Continuous
 62
     7
100
AcDbLine
 10
113.1620252968
 20
234.1623299529
 30
0.0
 11
114.5651504022
 21
234.1623299529
 31
0.0
  0
LINE
  5
26C
330
243
100
AcDbEntity
  8
DV3_Standard
  6
Continuous
 62
     7
100
AcDbLine
 10
115.1108195437
 20
231.2466548556
 30
0.0
 11
114.6382964529
 21
204.1799481301
 31
0.0
  0
LINE
  5
26D
330
243
100
AcDbEntity
  8
DV3_Standard
  6
Continuous
 62
     7
100
AcDbLine
 10
99.6623299529
 20
262.751420862
 30
0.0
 11
95.6623299529
 21
262.751420862
 31
0.0
  0
LINE
  5
26E
330
243
100
AcDbEntity
  8
DV3_Standard
  6
Continuous
 62
     7
100
AcDbLine
 10
95.46407526
 20
262.0287936446
 30
0.0
 11
83.9605900505
 21
262.1291830392
 31
0.0
  0
ARC
  5
26F
330
243
100
AcDbEntity
  8
DV3_Standard
  6
Continuous
 62
     7
100
AcDbCircle
 10
95.4623299529
 20
261.82880126
 30
0.0
 40
0.1999999999999988
100
AcDbArc
 50
0.0
 51
89.5000000001
  0
LINE
  5
270
330
243
100
AcDbEntity
  8
DV3_Standard
  6
Continuous
 62
     7
100
AcDbLine
 10
43.6061441951
 20
222.1623299227
 30
0.0
 11
43.6623299529
 21
222.1623299227
 31
0.0
  0
ARC
  5
271
330
243
100
AcDbEntity
  8
DV3_Standard
  6
Continuous
 62
     7
100
AcDbCircle
 10
75.1123299529
 20
242.1623299529
 30
0.0
 40
49.99999999999983
100
AcDbArc
 50
161.4469954235
 51
198.5530045765
  0
ARC
  5
272
330
243
100
AcDbEntity
  8
DV3_Standard
  6
Continuous
 62
     7
100
AcDbCircle
 10
33.3990227338
 20
256.1623299831
 30
0.0
 40
6.000000000000001
100
AcDbArc
 50
157.9071092145
 51
161.4469954235
  0
ARC
  5
273
330
243
100
AcDbEntity
  8
DV3_Standard
  6
Continuous
 62
     7
100
AcDbCircle
 10
33.3990227338
 20
228.1623299227
 30
0.0
 40
6.000000000000004
100
AcDbArc
 50
198.5530045765
 51
202.0898308847
  0
SPLINE
  5
274
330
243
100
AcDbEntity
  8
DV3_Standard
  6
Continuous
 62
     7
100
AcDbSpline
210
0.0
220
0.0
230
1.0
 70
     8
 71
     3
 72
    26
 73
    22
 74
     0
 42
0.0000000015197141
 43
0.0000000001
 40
0.0
 40
0.0
 40
0.0
 40
0.0
 40
0.0138509705598039
 40
0.0293202168889524
 40
0.0386925900563755
 40
0.0455984248345906
 40
0.0549653167832934
 40
0.0733410408908953
 40
0.1119906898209685
 40
0.1750411942432283
 40
0.2265302174728297
 40
0.282314122185328
 40
0.3621483593626258
 40
0.4396810756816041
 40
0.5247469773779788
 40
0.6009289118371856
 40
0.6837482331361429
 40
0.7667507002988893
 40
0.8466973170208419
 40
0.9287717368376546
 40
1.0
 40
1.0
 40
1.0
 40
1.0
 10
27.83947804694194
 20
225.9087464200338
 30
0.0
 10
27.85710894155687
 20
225.8647877987684
 30
0.0
 10
27.88859024489857
 20
225.786698164638
 30
0.0
 10
27.94682355604983
 20
225.6792513186419
 30
0.0
 10
27.98908343797638
 20
225.6088694319515
 30
0.0
 10
28.01305248485683
 20
225.5712856640462
 30
0.0
 10
28.03416635172417
 20
225.5393060293318
 30
0.0
 10
28.0583965426265
 20
225.5039431187586
 30
0.0
 10
28.09417551002731
 20
225.4534635530865
 30
0.0
 10
28.14111875910821
 20
225.3889111015284
 30
0.0
 10
28.24826655315805
 20
225.2469972985102
 30
0.0
 10
28.41956336493919
 20
225.0411080422618
 30
0.0
 10
28.66783142129099
 20
224.7811786625833
 30
0.0
 10
29.02677869819568
 20
224.4631389532449
 30
0.0
 10
29.46583374591057
 20
224.1417601202271
 30
0.0
 10
29.99632689343813
 20
223.828034999893
 30
0.0
 10
30.59276058299256
 20
223.5488661756779
 30
0.0
 10
31.26672525038295
 20
223.3128857254454
 30
0.0
 10
31.98014988398301
 20
223.1415396058299
 30
0.0
 10
32.70926328764057
 20
223.0370756793741
 30
0.0
 10
33.15393530608968
 20
223.027635353296
 30
0.0
 10
33.39801357351186
 20
223.0239471975938
 30
0.0
  0
LINE
  5
275
330
243
100
AcDbEntity
  8
DV3_Standard
  6
Continuous
 62
     7
100
AcDbLine
 10
33.3990227338
 20
223.0201730688
 30
0.0
 11
37.8123299529
 21
223.0201730688
 31
0.0
  0
SPLINE
  5
276
330
243
100
AcDbEntity
  8
DV3_Standard
  6
Continuous
 62
     7
100
AcDbSpline
210
0.0
220
0.0
230
1.0
 70
     8
 71
     3
 72
    20
 73
    16
 74
     0
 42
0.0000000018915102
 43
0.0000000001
 40
0.0
 40
0.0
 40
0.0
 40
0.0
 40
0.0091732759665758
 40
0.100279760440938
 40
0.1921408648658255
 40
0.2832373343820162
 40
0.3752799474557179
 40
0.4674705754762407
 40
0.5590660620188236
 40
0.6528631848367012
 40
0.7455588800276289
 40
0.840732300906081
 40
0.9371322656962634
 40
0.9861039672661364
 40
0.9999999999999999
 40
0.9999999999999999
 40
0.9999999999999999
 40
0.9999999999999999
 10
37.81262522711125
 20
223.0187573959738
 30
0.0
 10
37.84033420438389
 20
223.0192684566872
 30
0.0
 10
38.10097369873712
 20
223.0240062096898
 30
0.0
 10
38.64800542752251
 20
223.0040912568153
 30
0.0
 10
39.37725468516167
 20
222.9587323207767
 30
0.0
 10
40.08225664500072
 20
222.8834244292199
 30
0.0
 10
40.73735817118757
 20
222.7890711566263
 30
0.0
 10
41.32809883162842
 20
222.6827234432982
 30
0.0
 10
41.84421582401362
 20
222.5720211831123
 30
0.0
 10
42.27533226991495
 20
222.4670396422587
 30
0.0
 10
42.61443405779229
 20
222.3755295840047
 30
0.0
 10
42.85373299260279
 20
222.3059698529541
 30
0.0
 10
42.9804049724404
 20
222.2673037140511
 30
0.0
 10
43.01969957253536
 20
222.255241354929
 30
0.0
 10
43.02319297428273
 20
222.2541842072764
 30
0.0
 10
43.02317511798191
 20
222.254188864489
 30
0.0
  0
ARC
  5
277
330
243
100
AcDbEntity
  8
DV3_Standard
  6
Continuous
 62
     7
100
AcDbCircle
 10
38.3689654373
 20
206.6897369804
 30
0.0
 40
16.33882249054752
100
AcDbArc
 50
71.3039122185
 51
73.6059935639
  0
SPLINE
  5
278
330
243
100
AcDbEntity
  8
DV3_Standard
  6
Continuous
 62
     7
100
AcDbSpline
210
0.0
220
0.0
230
1.0
 70
     8
 71
     3
 72
    20
 73
    16
 74
     0
 42
0.0000000016388538
 43
0.0000000001
 40
0.0
 40
0.0
 40
0.0
 40
0.0
 40
0.0550905565424571
 40
0.1435800698053182
 40
0.2329854017097452
 40
0.3196672741000646
 40
0.4077613389484085
 40
0.4935752781283588
 40
0.5812958288825502
 40
0.6672723238157843
 40
0.7558608903204884
 40
0.8413972374568089
 40
0.9173945173740577
 40
0.9695852991409647
 40
1.0
 40
1.0
 40
1.0
 40
1.0
 10
33.39867961012354
 20
261.2953726303012
 30
0.0
 10
33.228804612743
 20
261.2966566539261
 30
0.0
 10
32.85253836447566
 20
261.29777657166
 30
0.0
 10
32.19075595542672
 20
261.2193825917944
 30
0.0
 10
31.48670549413315
 20
261.0721852017158
 30
0.0
 10
30.81956123395413
 20
260.8628183141209
 30
0.0
 10
30.21629051502192
 20
260.6071330431066
 30
0.0
 10
29.67622671389185
 20
260.3152556232344
 30
0.0
 10
29.2141327567646
 20
260.0059073146167
 30
0.0
 10
28.82258218302243
 20
259.6874706494227
 30
0.0
 10
28.52046439621328
 20
259.3940052753303
 30
0.0
 10
28.2949524489548
 20
259.139379915095
 30
0.0
 10
28.15085968076948
 20
258.9516139004482
 30
0.0
 10
28.07648242707069
 20
258.8446824291616
 30
0.0
 10
28.06937372086874
 20
258.8344755271318
 30
0.0
 10
28.06927514461102
 20
258.8343079122026
 30
0.0
  0
SPLINE
  5
279
330
243
100
AcDbEntity
  8
DV3_Standard
  6
Continuous
 62
     7
100
AcDbSpline
210
0.0
220
0.0
230
1.0
 70
     8
 71
     3
 72
     8
 73
     4
 74
     0
 42
0.0000000625373406
 43
0.0000000001
 40
0.0
 40
0.0
 40
0.0
 40
0.0
 40
1.0
 40
1.0
 40
1.0
 40
1.0
 10
33.3983455483591
 20
261.2982120242305
 30
0.0
 10
33.34314319846812
 20
261.2978185773306
 30
0.0
 10
33.29005617601732
 20
261.2973745502642
 30
0.0
 10
33.23844850718742
 20
261.2967188853968
 30
0.0
  0
SPLINE
  5
27A
330
243
100
AcDbEntity
  8
DV3_Standard
  6
Continuous
 62
     7
100
AcDbSpline
210
0.0
220
0.0
230
1.0
 70
     8
 71
     3
 72
    14
 73
    10
 74
     0
 42
0.0000000178148508
 43
0.0000000001
 40
0.0
 40
0.0
 40
0.0
 40
0.0
 40
0.1383638279768268
 40
0.4770100258123524
 40
0.6296646543726022
 40
0.6996830538598816
 40
0.7602521532503635
 40
0.8482671931824896
 40
1.0
 40
1.0
 40
1.0
 40
1.0
 10
28.11659688595591
 20
258.9018748617557
 30
0.0
 10
28.1099597531836
 20
258.8927685520288
 30
0.0
 10
28.08874149876433
 20
258.8634144679259
 30
0.0
 10
28.06166671502303
 20
258.8254707976822
 30
0.0
 10
28.03348071330149
 20
258.7844179614798
 30
0.0
 10
28.0062294835158
 20
258.7429497844239
 30
0.0
 10
27.97117320805519
 20
258.6867795932633
 30
0.0
 10
27.90656986579584
 20
258.5742823781252
 30
0.0
 10
27.86752881967164
 20
258.484605344717
 30
0.0
 10
27.83799779613441
 20
258.4166838579367
 30
0.0
  0
LINE
  5
27B
330
243
100
AcDbEntity
  8
DV3_Standard
  6
Continuous
 62
     7
100
AcDbLine
 10
37.8123299529
 20
261.304486837
 30
0.0
 11
33.3990227338
 21
261.304486837
 31
0.0
  0
ARC
  5
27C
330
243
100
AcDbEntity
  8
DV3_Standard
  6
Continuous
 62
     7
100
AcDbCircle
 10
38.4569062303
 20
277.0710616977
 30
0.0
 40
15.77596678501172
100
AcDbArc
 50
267.6579283245
 51
288.1987767657
  0
SPLINE
  5
27D
330
243
100
AcDbEntity
  8
DV3_Standard
  6
Continuous
 62
     7
100
AcDbSpline
210
0.0
220
0.0
230
1.0
 70
     8
 71
     3
 72
    10
 73
     6
 74
     0
 42
0.0000001309291166
 43
0.0000000001
 40
0.0
 40
0.0
 40
0.0
 40
0.0
 40
0.2291601401723363
 40
0.8580540459006009
 40
1.0
 40
1.0
 40
1.0
 40
1.0
 10
43.02362407845408
 20
262.070619545082
 30
0.0
 10
43.0238292396439
 20
262.0706838651377
 30
0.0
 10
43.0151882874162
 20
262.0680040445709
 30
0.0
 10
42.98785754411131
 20
262.0596563922244
 30
0.0
 10
42.95699867841067
 20
262.0502599752136
 30
0.0
 10
42.95098997738476
 20
262.0484328646356
 30
0.0
  0
LINE
  5
27E
330
243
100
AcDbEntity
  8
DV3_Standard
  6
Continuous
 62
     7
100
AcDbLine
 10
66.1623299529
 20
222.1623299529
 30
0.0
 11
61.1581322987
 21
222.1623299529
 31
0.0
  0
LINE
  5
27F
330
243
100
AcDbEntity
  8
DV3_Standard
  6
Continuous
 62
     7
100
AcDbLine
 10
43.9123299529
 20
222.1623299529
 30
0.0
 11
43.9123299529
 21
221.0667110452
 31
0.0
  0
LINE
  5
280
330
243
100
AcDbEntity
  8
DV3_Standard
  6
Continuous
 62
     7
100
AcDbLine
 10
83.4123299529
 20
221.0667110452
 30
0.0
 11
83.4123299529
 21
222.1623299529
 31
0.0
  0
ARC
  5
281
330
243
100
AcDbEntity
  8
DV3_Standard
  6
Continuous
 62
     7
100
AcDbCircle
 10
49.9123295762
 20
221.0667110452
 30
0.0
 40
5.999999623352742
100
AcDbArc
 50
180.0
 51
246.1457325071
  0
ARC
  5
282
330
243
100
AcDbEntity
  8
DV3_Standard
  6
Continuous
 62
     7
100
AcDbCircle
 10
77.4123303295
 20
221.0667110452
 30
0.0
 40
5.999999623352745
100
AcDbArc
 50
293.8542674929
 51
0.0
  0
ARC
  5
283
330
243
100
AcDbEntity
  8
DV3_Standard
  6
Continuous
 62
     7
100
AcDbCircle
 10
63.6623299529
 20
252.1623299529
 30
0.0
 40
39.99999999997917
100
AcDbArc
 50
246.145729562
 51
270.0
  0
ARC
  5
284
330
243
100
AcDbEntity
  8
DV3_Standard
  6
Continuous
 62
     7
100
AcDbCircle
 10
63.6623299529
 20
252.1623299529
 30
0.0
 40
39.99999999997912
100
AcDbArc
 50
270.0
 51
293.854270438
  0
LINE
  5
285
330
243
100
AcDbEntity
  8
DV3_Standard
  6
Continuous
 62
     7
100
AcDbLine
 10
43.6623299529
 20
222.1623299529
 30
0.0
 11
61.1623299529
 21
222.1623299529
 31
0.0
  0
LINE
  5
286
330
243
100
AcDbEntity
  8
DV3_Standard
  6
Continuous
 62
     7
100
AcDbLine
 10
66.1623299529
 20
222.1623299529
 30
0.0
 11
83.6623299529
 21
222.1623299529
 31
0.0
  0
LINE
  5
287
330
243
100
AcDbEntity
  8
DV3_Standard
  6
Continuous
 62
     7
100
AcDbLine
 10
43.1623299529
 20
289.1623299529
 30
0.0
 11
84.1623299529
 21
289.1623299529
 31
0.0
  0
LINE
  5
288
330
243
100
AcDbEntity
  8
DV3_Standard
  6
Continuous
 62
     7
100
AcDbLine
 10
43.1623299529
 20
289.1623299529
 30
0.0
 11
43.6623299529
 21
222.1623299529
 31
0.0
  0
LINE
  5
289
330
243
100
AcDbEntity
  8
DV3_Standard
  6
Continuous
 62
     7
100
AcDbLine
 10
83.6623299529
 20
222.1623299529
 30
0.0
 11
84.1623299529
 21
289.1623299529
 31
0.0
  0
ELLIPSE
  5
28A
330
243
100
AcDbEntity
  8
DV3_Standard
  6
Continuous
 62
     7
100
AcDbEllipse
 10
97.6623299529
 20
155.8109212105
 30
0.0
 11
50.55529164033927
 21
0.0
 31
0.0
210
0.0
220
0.0
230
1.0
 40
0.5
 41
4.373786641672885
 42
5.050991318969338
  0
ARC
  5
28B
330
243
100
AcDbEntity
  8
DV3_Standard
  6
Continuous
 62
     7
100
AcDbCircle
 10
98.7247323782
 20
206.3280250575
 30
0.0
 40
13.6493820746809
100
AcDbArc
 50
64.1318925917
 51
79.853546663
  0
ARC
  5
28C
330
243
100
AcDbEntity
  8
DV3_Standard
  6
Continuous
 62
     7
100
AcDbCircle
 10
97.6641436511
 20
200.3408939567
 30
0.0
 40
19.72971997322749
100
AcDbArc
 50
79.8852090196
 51
90.0052670414
  0
ELLIPSE
  5
28D
330
243
100
AcDbEntity
  8
DV3_Standard
  6
Continuous
 62
     7
100
AcDbEllipse
 10
97.6623299529
 20
156.6407881884
 30
0.0
 11
0.0
 21
36.93242726440026
 31
0.0
210
0.0
220
0.0
230
1.0
 40
1.0
 41
2.183388633095562
 42
4.102258134625441
  0
LINE
  5
28E
330
243
100
AcDbEntity
  8
DV3_Standard
  6
Continuous
 62
     7
100
AcDbLine
 10
97.6623299529
 20
220.0706891043
 30
0.0
 11
97.6623299529
 21
220.0706138466
 31
0.0
  0
ARC
  5
28F
330
243
100
AcDbEntity
  8
DV3_Standard
  6
Continuous
 62
     7
100
AcDbCircle
 10
97.6605162547
 20
200.3408939567
 30
0.0
 40
19.72971997322756
100
AcDbArc
 50
89.9947329586
 51
100.1147909804
  0
ARC
  5
290
330
243
100
AcDbEntity
  8
DV3_Standard
  6
Continuous
 62
     7
100
AcDbCircle
 10
96.5999275276
 20
206.3280250575
 30
0.0
 40
13.6493820746809
100
AcDbArc
 50
100.146453337
 51
115.5570194154
  0
ARC
  5
291
330
243
100
AcDbEntity
  8
DV3_Standard
  6
Continuous
 62
     7
100
AcDbCircle
 10
105.8937715914
 20
198.5988547634
 30
0.0
 40
66.89837913861427
100
AcDbArc
 50
289.2709868361
 51
301.6698463648
  0
ARC
  5
292
330
243
100
AcDbEntity
  8
DV3_Standard
  6
Continuous
 62
     7
100
AcDbCircle
 10
105.8937715914
 20
198.5988547634
 30
0.0
 40
66.89837913861427
100
AcDbArc
 50
302.562721475
 51
302.8642230775
  0
ARC
  5
293
330
243
100
AcDbEntity
  8
DV3_Standard
  6
Continuous
 62
     7
100
AcDbCircle
 10
89.3791004592
 20
198.3009658657
 30
0.0
 40
66.60798171170183
100
AcDbArc
 50
237.9579958521
 51
250.7939824265
  0
SPLINE
  5
294
330
243
100
AcDbEntity
  8
DV3_Standard
  6
Continuous
 62
     7
100
AcDbSpline
210
0.0
220
0.0
230
1.0
 70
     8
 71
     3
 72
    60
 73
    56
 74
     0
 42
0.0000000002460073
 43
0.0000000001
 40
0.0
 40
0.0
 40
0.0
 40
0.0
 40
0.0210337185899918
 40
0.0412861620039401
 40
0.0603407645357388
 40
0.0777568005249165
 40
0.0936169848381403
 40
0.1131812474103076
 40
0.1363462508555028
 40
0.1633590596737654
 40
0.1932630512848439
 40
0.2205854718111026
 40
0.2446188057186725
 40
0.2661480368903055
 40
0.2885426148479817
 40
0.3079744497868092
 40
0.3276920496606934
 40
0.3479577383756973
 40
0.3582263473341811
 40
0.368605221472873
 40
0.3790942636671304
 40
0.3896929556366877
 40
0.4004005672239757
 40
0.4112167492288277
 40
0.4221408654878774
 40
0.428879352083999
 40
0.4384135402690292
 40
0.4502947982276755
 40
0.46447935375008
 40
0.4747024913776766
 40
0.4871589793861316
 40
0.5021876995843046
 40
0.520157478646942
 40
0.54146472042432
 40
0.5582223500043245
 40
0.5924041193282849
 40
0.6203174624142137
 40
0.6369054671309339
 40
0.6512579405875392
 40
0.6682834958456996
 40
0.6888445919873089
 40
0.7101851281176165
 40
0.7360061948644162
 40
0.7570570577896738
 40
0.7750761295499244
 40
0.7955547324882097
 40
0.817912361795516
 40
0.831795049436839
 40
0.8483552201438403
 40
0.8676137706319079
 40
0.889496872736398
 40
0.9132355902454629
 40
0.93948189065825
 40
0.971294752623631
 40
1.0
 40
1.0
 40
1.0
 40
1.0
 10
142.2102488935749
 20
142.4137302552592
 30
0.0
 10
142.551923994052
 20
142.6411884755991
 30
0.0
 10
143.1152768727568
 20
143.0178236773564
 30
0.0
 10
143.9767583941532
 20
143.6426553291894
 30
0.0
 10
144.736172477793
 20
144.2256390069841
 30
0.0
 10
145.4127127661682
 20
144.7722335181278
 30
0.0
 10
146.0707688761095
 20
145.3295047024076
 30
0.0
 10
146.7446845871564
 20
145.9124620564693
 30
0.0
 10
147.4940844482946
 20
146.5850432520113
 30
0.0
 10
148.3073744571154
 20
147.3607348527476
 30
0.0
 10
149.1117842044868
 20
148.1881547949979
 30
0.0
 10
149.8417427962228
 20
149.0028207857593
 30
0.0
 10
150.4595491901106
 20
149.7478598082667
 30
0.0
 10
151.0047603781628
 20
150.4544518560938
 30
0.0
 10
151.4853924263768
 20
151.124083165557
 30
0.0
 10
151.9291768073988
 20
151.7900088109833
 30
0.0
 10
152.3304611793638
 20
152.4364066300136
 30
0.0
 10
152.6471132905263
 20
152.9871973741345
 30
0.0
 10
152.8928056093876
 20
153.442395403289
 30
0.0
 10
153.0731574546494
 20
153.7916987743698
 30
0.0
 10
153.2485998541266
 20
154.1476761906176
 30
0.0
 10
153.4188766176742
 20
154.5105710394163
 30
0.0
 10
153.5832563951621
 20
154.8794290100425
 30
0.0
 10
153.7428939917987
 20
155.2579946693233
 30
0.0
 10
153.8722139391688
 20
155.5831226915808
 30
0.0
 10
154.0016730352496
 20
155.9236879781065
 30
0.0
 10
154.1425496067149
 20
156.3163146978669
 30
0.0
 10
154.2877329463992
 20
156.7533671371811
 30
0.0
 10
154.4239346983487
 20
157.2009378926126
 30
0.0
 10
154.5495793359752
 20
157.6534713965426
 30
0.0
 10
154.666171665175
 20
158.1147520769727
 30
0.0
 10
154.7895690785728
 20
158.6673701941833
 30
0.0
 10
154.9136541310855
 20
159.3277768784062
 30
0.0
 10
155.011002846012
 20
159.9906853742086
 30
0.0
 10
155.1097226125859
 20
160.9057453517928
 30
0.0
 10
155.161927069363
 20
161.9036570826773
 30
0.0
 10
155.1469509196944
 20
162.9188487275934
 30
0.0
 10
155.098145279587
 20
163.6828232445048
 30
0.0
 10
155.0353763897314
 20
164.3173952520592
 30
0.0
 10
154.9461071614036
 20
164.9796493249617
 30
0.0
 10
154.8178638109096
 20
165.7114048664241
 30
0.0
 10
154.6310294295127
 20
166.557487579502
 30
0.0
 10
154.3993144215343
 20
167.4058630589358
 30
0.0
 10
154.137823973012
 20
168.2088213445651
 30
0.0
 10
153.8676178730073
 20
168.9386370805427
 30
0.0
 10
153.5667040709982
 20
169.6657193604634
 30
0.0
 10
153.2537088144651
 20
170.3421362662366
 30
0.0
 10
152.9417292530441
 20
170.9602716104667
 30
0.0
 10
152.6308440436484
 20
171.5359968712604
 30
0.0
 10
152.2463279963102
 20
172.1967768944989
 30
0.0
 10
151.7841493792593
 20
172.9299086432585
 30
0.0
 10
151.2322233344089
 20
173.7360329087828
 30
0.0
 10
150.5593369405357
 20
174.638025635523
 30
0.0
 10
149.7915911711444
 20
175.5818436434002
 30
0.0
 10
149.2453851021275
 20
176.1872720880025
 30
0.0
 10
148.9374830194269
 20
176.5264520361094
 30
0.0
  0
ARC
  5
295
330
243
100
AcDbEntity
  8
DV3_Standard
  6
Continuous
 62
     7
100
AcDbCircle
 10
98.7753127484
 20
125.7203811808
 30
0.0
 40
71.39666854826672
100
AcDbArc
 50
45.3655394339
 51
61.6770442372
  0
SPLINE
  5
296
330
243
100
AcDbEntity
  8
DV3_Standard
  6
Continuous
 62
     7
100
AcDbSpline
210
0.0
220
0.0
230
1.0
 70
     8
 71
     3
 72
    63
 73
    59
 74
     0
 42
0.00000000023566
 43
0.0000000001
 40
0.0
 40
0.0
 40
0.0
 40
0.0
 40
0.0244499531746702
 40
0.0476158940624332
 40
0.0693941003587765
 40
0.0893276306995304
 40
0.1040079529087277
 40
0.1167108176249224
 40
0.1281020287860754
 40
0.1379150880988684
 40
0.1473741528405966
 40
0.1550899526992615
 40
0.1608268620309981
 40
0.1646097208794358
 40
0.1684359198242796
 40
0.1734156893681995
 40
0.1794889637644672
 40
0.1867653073586346
 40
0.2005283964095625
 40
0.2119659259685632
 40
0.2219194814953966
 40
0.2305162056796463
 40
0.239515718143832
 40
0.2592609388869298
 40
0.2810920149258422
 40
0.3083732683465499
 40
0.3371711419309448
 40
0.3657781606563321
 40
0.3917930792912361
 40
0.4161296597764332
 40
0.4419717242399028
 40
0.4676212173941787
 40
0.4936009766876504
 40
0.5205147700697497
 40
0.5728968981230712
 40
0.6255029642364425
 40
0.6785329124805362
 40
0.7041384483781812
 40
0.7291212419125283
 40
0.7528409235995923
 40
0.775034599600963
 40
0.7957020333301019
 40
0.8116703954837973
 40
0.8270906086563382
 40
0.8423276846827277
 40
0.8592018859243692
 40
0.8780486212606615
 40
0.8974263990260516
 40
0.9105935024882086
 40
0.9227723594177599
 40
0.9333263080055396
 40
0.942191177808892
 40
0.9471609438721166
 40
0.9543125172825371
 40
0.9637160647788648
 40
0.9755330752391141
 40
0.9897793209017948
 40
1.0
 40
1.0
 40
1.0
 40
1.0
 10
132.648254397925
 20
188.5703381309025
 30
0.0
 10
131.6145780539313
 20
189.2134552990426
 30
0.0
 10
129.9254225040825
 20
190.268201651672
 30
0.0
 10
127.2282452619581
 20
192.0145297466991
 30
0.0
 10
124.869260914259
 20
193.6144264108908
 30
0.0
 10
122.8373092356362
 20
195.0286557641535
 30
0.0
 10
121.3033313973178
 20
196.1509253380908
 30
0.0
 10
120.1891686266862
 20
197.0142478385401
 30
0.0
 10
119.3005768805293
 20
197.7424230156542
 30
0.0
 10
118.5549815270101
 20
198.3851687690187
 30
0.0
 10
117.9631175446374
 20
198.9274362345178
 30
0.0
 10
117.5069536780848
 20
199.3677420924371
 30
0.0
 10
117.1967656866708
 20
199.6828623518839
 30
0.0
 10
116.9896502845814
 20
199.901408492188
 30
0.0
 10
116.8180024353688
 20
200.0883388829048
 30
0.0
 10
116.6278517364347
 20
200.303593135272
 30
0.0
 10
116.4213876231401
 20
200.5510386791465
 30
0.0
 10
116.1513734230451
 20
200.8942529841898
 30
0.0
 10
115.8852469027271
 20
201.2705905176249
 30
0.0
 10
115.6645365149222
 20
201.6117165318969
 30
0.0
 10
115.5066692921884
 20
201.8829480881202
 30
0.0
 10
115.3837131655107
 20
202.1081375952411
 30
0.0
 10
115.2422372010683
 20
202.3837640496547
 30
0.0
 10
115.096263753176
 20
202.7069878263615
 30
0.0
 10
114.9577644397972
 20
203.0639117486614
 30
0.0
 10
114.8255267024235
 20
203.5022883114424
 30
0.0
 10
114.6835814847819
 20
204.0238466317705
 30
0.0
 10
114.533019292703
 20
204.551575646649
 30
0.0
 10
114.38327255356
 20
205.0819460491109
 30
0.0
 10
114.1990996982027
 20
205.6616446512516
 30
0.0
 10
114.0200033554368
 20
206.2291034816215
 30
0.0
 10
113.8379713135094
 20
206.7658475894093
 30
0.0
 10
113.6535046364969
 20
207.273615573528
 30
0.0
 10
113.410239934968
 20
207.9051987832233
 30
0.0
 10
113.1118352288852
 20
208.6225374499698
 30
0.0
 10
112.7382145051476
 20
209.4770059570524
 30
0.0
 10
112.4589713344349
 20
210.15713500541
 30
0.0
 10
112.2251833370634
 20
210.6748053213364
 30
0.0
 10
112.0414526249312
 20
211.0433218770626
 30
0.0
 10
111.8435522716789
 20
211.4265924006263
 30
0.0
 10
111.6346311493829
 20
211.8145308229612
 30
0.0
 10
111.4318412980913
 20
212.1831277093216
 30
0.0
 10
111.2299452389993
 20
212.5431339564049
 30
0.0
 10
111.0416102667314
 20
212.8708739494943
 30
0.0
 10
110.7768328855804
 20
213.2886094186543
 30
0.0
 10
110.3902395502464
 20
213.8493304831594
 30
0.0
 10
109.8575004817261
 20
214.5442519080192
 30
0.0
 10
109.3362502303931
 20
215.134871836185
 30
0.0
 10
108.9615837808595
 20
215.5294200231486
 30
0.0
 10
108.6312548630473
 20
215.8533456887424
 30
0.0
 10
108.2342741962696
 20
216.2241335322155
 30
0.0
 10
107.7845815002983
 20
216.613336017874
 30
0.0
 10
107.3410724974251
 20
216.9669047874284
 30
0.0
 10
106.9716725133334
 20
217.2438726706825
 30
0.0
 10
106.486368525645
 20
217.5822172711038
 30
0.0
 10
105.9047963478327
 20
217.9517675188791
 30
0.0
 10
105.2833925227742
 20
218.3109553851825
 30
0.0
 10
104.877398498339
 20
218.507012839384
 30
0.0
 10
104.6768008857934
 20
218.6032120916223
 30
0.0
  0
SPLINE
  5
297
330
243
100
AcDbEntity
  8
DV3_Standard
  6
Continuous
 62
     7
100
AcDbSpline
210
0.0
220
0.0
230
1.0
 70
     8
 71
     3
 72
    57
 73
    53
 74
     0
 42
0.0000000002460035
 43
0.0000000001
 40
0.0
 40
0.0
 40
0.0
 40
0.0
 40
0.0271714510371108
 40
0.0577722193733573
 40
0.0830091826518502
 40
0.1059829836997468
 40
0.1271776998068985
 40
0.1461835377425887
 40
0.1711207408462713
 40
0.1901020317907376
 40
0.2059519473120064
 40
0.2259771996826413
 40
0.2436127792277656
 40
0.2644079694603608
 40
0.2898102425264145
 40
0.3168403833626763
 40
0.3424373930203715
 40
0.3603469527920479
 40
0.3813179476490521
 40
0.4067909678883871
 40
0.4262232571588272
 40
0.4480623743137828
 40
0.4756686924362655
 40
0.5009365259463981
 40
0.5205557448494024
 40
0.5355121554190431
 40
0.5506859978211032
 40
0.5633106512459651
 40
0.5728077681517235
 40
0.5789595030298407
 40
0.5854913202294455
 40
0.5919846650475268
 40
0.5984394613264128
 40
0.6048555064335528
 40
0.6296841145246381
 40
0.6493923468389894
 40
0.6687164227898291
 40
0.6880388921869794
 40
0.7058811461008421
 40
0.7263445823833574
 40
0.7483509404391899
 40
0.7731245775623788
 40
0.800877995034462
 40
0.8330327076729508
 40
0.8620484576976224
 40
0.8868206775452113
 40
0.9063846073737833
 40
0.9222445219413558
 40
0.9396602617233845
 40
0.9587145401797458
 40
0.9789666391457079
 40
1.0
 40
1.0
 40
1.0
 40
1.0
 10
46.38717688634655
 20
176.5264520361094
 30
0.0
 10
46.09525490784476
 20
176.205212023449
 30
0.0
 10
45.57270528433011
 20
175.626793234989
 30
0.0
 10
44.83509500284035
 20
174.7258363402981
 30
0.0
 10
44.18094873616874
 20
173.8581322556773
 30
0.0
 10
43.64172143891443
 20
173.0818558942935
 30
0.0
 10
43.1840914367828
 20
172.3690013906104
 30
0.0
 10
42.74226726121091
 20
171.6257019248632
 30
0.0
 10
42.34694225507171
 20
170.8977669523353
 30
0.0
 10
42.00074355246303
 20
170.1942464548048
 30
0.0
 10
41.70478397834299
 20
169.539061656675
 30
0.0
 10
41.44203555810406
 20
168.8997441743279
 30
0.0
 10
41.17773866215109
 20
168.1821143350963
 30
0.0
 10
40.921532604475
 20
167.3921728977319
 30
0.0
 10
40.67323949718157
 20
166.4823450834274
 30
0.0
 10
40.46365271094615
 20
165.502701401299
 30
0.0
 10
40.3269519380587
 20
164.6406831878729
 30
0.0
 10
40.2321276639285
 20
163.776935718706
 30
0.0
 10
40.17828260529784
 20
162.9439901521332
 30
0.0
 10
40.16630302554621
 20
162.0936459019007
 30
0.0
 10
40.19562764631019
 20
161.2445747648964
 30
0.0
 10
40.26570967234423
 20
160.368243318603
 30
0.0
 10
40.38500627778198
 20
159.4632679102873
 30
0.0
 10
40.54867283317996
 20
158.5874891815198
 30
0.0
 10
40.72011113159291
 20
157.8571924679289
 30
0.0
 10
40.88603138400266
 20
157.247725490161
 30
0.0
 10
41.048170966026
 20
156.7177864494829
 30
0.0
 10
41.19883075138637
 20
156.2664925556946
 30
0.0
 10
41.35165057494723
 20
155.8476414778028
 30
0.0
 10
41.44741157394761
 20
155.5972810392844
 30
0.0
 10
41.53699537449711
 20
155.3705265048775
 30
0.0
 10
41.62967654375592
 20
155.1444233878883
 30
0.0
 10
41.72486886992758
 20
154.919890874983
 30
0.0
 10
41.91533738395388
 20
154.4852635044754
 30
0.0
 10
42.19003061233672
 20
153.9046001550858
 30
0.0
 10
42.56392491586018
 20
153.1897785529352
 30
0.0
 10
42.92846864904392
 20
152.5475953010247
 30
0.0
 10
43.30362923641888
 20
151.934881091328
 30
0.0
 10
43.7146472175141
 20
151.3070859790195
 30
0.0
 10
44.1643406299384
 20
150.666314714696
 30
0.0
 10
44.69436634086401
 20
149.9629927500666
 30
0.0
 10
45.31592234624453
 20
149.1977480946676
 30
0.0
 10
46.0674306902873
 20
148.343581928931
 30
0.0
 10
46.9069816721961
 20
147.4690300421234
 30
0.0
 10
47.7754248124952
 20
146.6349154029545
 30
0.0
 10
48.56147333527148
 20
145.9284778753741
 30
0.0
 10
49.25389299896298
 20
145.3295009049702
 30
0.0
 10
49.91194660770641
 20
144.7722345437988
 30
0.0
 10
50.5884875913523
 20
144.2256386919507
 30
0.0
 10
51.34790146284973
 20
143.6426554232346
 30
0.0
 10
52.20938304790388
 20
143.0178236486491
 30
0.0
 10
52.77273591172149
 20
142.6411884755991
 30
0.0
 10
53.11441101219853
 20
142.4137302552592
 30
0.0
  0
ARC
  5
298
330
243
100
AcDbEntity
  8
DV3_Standard
  6
Continuous
 62
     7
100
AcDbCircle
 10
96.2578225285
 20
126.114660449
 30
0.0
 40
70.91131240311624
100
AcDbArc
 50
118.2667492272
 51
134.6906671016
  0
SPLINE
  5
299
330
243
100
AcDbEntity
  8
DV3_Standard
  6
Continuous
 62
     7
100
AcDbSpline
210
0.0
220
0.0
230
1.0
 70
     8
 71
     3
 72
    68
 73
    64
 74
     0
 42
0.0000000003228484
 43
0.0000000001
 40
0.0
 40
0.0
 40
0.0
 40
0.0
 40
0.0079534352863505
 40
0.0209175552561767
 40
0.0319632599963896
 40
0.0411099073506917
 40
0.0484062273384264
 40
0.0539794198288238
 40
0.059732853332114
 40
0.0676116530407863
 40
0.0771361056062094
 40
0.0874127837705034
 40
0.0972279432341758
 40
0.1070025159346531
 40
0.1210478947874214
 40
0.1334713528874215
 40
0.1432251137108118
 40
0.1503454181722845
 40
0.1554734200548709
 40
0.1615022779215938
 40
0.1728258499327026
 40
0.1868268746729955
 40
0.2040513632639895
 40
0.2234513171143468
 40
0.245635381508121
 40
0.2681454906006728
 40
0.28988019077247
 40
0.3261956501939275
 40
0.3598426447997595
 40
0.3902566407054638
 40
0.4184112409794287
 40
0.447768695225117
 40
0.4795125929502094
 40
0.5132636493953611
 40
0.5404548422404973
 40
0.5678464223241051
 40
0.5955688784663655
 40
0.6212530540354427
 40
0.6448034057465327
 40
0.6647977518920588
 40
0.6828195131434346
 40
0.6990711676447645
 40
0.7167380209271013
 40
0.736828003625127
 40
0.7586075626417426
 40
0.7776591612125173
 40
0.7978107875312751
 40
0.8193022604964133
 40
0.8402967509492882
 40
0.8584837976383433
 40
0.8736554732721445
 40
0.8860763901734756
 40
0.8911566006951201
 40
0.8952518454853549
 40
0.8987442705520596
 40
0.9041970071554679
 40
0.9122302489619455
 40
0.923019624991283
 40
0.9366105792962577
 40
0.9503252785096665
 40
0.9660546019872619
 40
0.9834973352446106
 40
1.0
 40
1.0
 40
1.0
 40
1.0
 10
90.71333556225856
 20
218.6390573056943
 30
0.0
 10
90.596607685766
 20
218.5839528818365
 30
0.0
 10
90.33565707665618
 20
218.4600793069694
 30
0.0
 10
89.8972132596294
 20
218.2241041248334
 30
0.0
 10
89.43673412867138
 20
217.9575065347029
 30
0.0
 10
89.0124250867813
 20
217.6919423538358
 30
0.0
 10
88.64182508828497
 20
217.4457917196172
 30
0.0
 10
88.22224534338974
 20
217.1473039133431
 30
0.0
 10
87.83667298635025
 20
216.8521312973008
 30
0.0
 10
87.49029293524987
 20
216.5694408434761
 30
0.0
 10
87.15122922619585
 20
216.2763916400602
 30
0.0
 10
86.83224226846018
 20
215.9859701292148
 30
0.0
 10
86.5055596781632
 20
215.6725417350676
 30
0.0
 10
86.17536568709201
 20
215.3344432150777
 30
0.0
 10
85.84085695200652
 20
214.9691624106382
 30
0.0
 10
85.5179852435783
 20
214.5933301055149
 30
0.0
 10
85.26481873108213
 20
214.2788161993936
 30
0.0
 10
85.08294915803366
 20
214.0400994779705
 30
0.0
 10
84.92258857409266
 20
213.8228189623771
 30
0.0
 10
84.77257094585373
 20
213.6127848506734
 30
0.0
 10
84.60047097970526
 20
213.3629399781219
 30
0.0
 10
84.41371703004458
 20
213.0772754319786
 30
0.0
 10
84.24316253821613
 20
212.7890921399626
 30
0.0
 10
84.05905938566991
 20
212.4691827775069
 30
0.0
 10
83.87262665040576
 20
212.1431310445556
 30
0.0
 10
83.67823854249481
 20
211.7965516915208
 30
0.0
 10
83.44881536305334
 20
211.3701536426291
 30
0.0
 10
83.19660454399026
 20
210.8789802629964
 30
0.0
 10
82.9567203021986
 20
210.3558292847944
 30
0.0
 10
82.75746112897093
 20
209.8823622705235
 30
0.0
 10
82.56754271770208
 20
209.4428695327728
 30
0.0
 10
82.36524446439617
 20
208.9758778072996
 30
0.0
 10
82.1490954590894
 20
208.4657867009763
 30
0.0
 10
81.93445248334126
 20
207.9536036100245
 30
0.0
 10
81.74474442442268
 20
207.4595162754989
 30
0.0
 10
81.5610479400128
 20
206.9801196237339
 30
0.0
 10
81.3957562130726
 20
206.4968968240276
 30
0.0
 10
81.2382310714338
 20
206.0233127077671
 30
0.0
 10
81.1013616277973
 20
205.5833496272047
 30
0.0
 10
80.97129856042238
 20
205.1787337007701
 30
0.0
 10
80.86608924378704
 20
204.8093075914411
 30
0.0
 10
80.76323273206906
 20
204.4556975892728
 30
0.0
 10
80.67662931319613
 20
204.1531594014461
 30
0.0
 10
80.59076761833106
 20
203.8352937526071
 30
0.0
 10
80.50578371795237
 20
203.5283919122323
 30
0.0
 10
80.42097168744199
 20
203.2300394967876
 30
0.0
 10
80.32231197918568
 20
202.9411776635922
 30
0.0
 10
80.18895176921217
 20
202.6116651349341
 30
0.0
 10
80.0030210638573
 20
202.2186875759748
 30
0.0
 10
79.76545995128374
 20
201.7837339199849
 30
0.0
 10
79.50438331148301
 20
201.367373401681
 30
0.0
 10
79.27837321365173
 20
201.0425884469845
 30
0.0
 10
79.10121421134367
 20
200.8047375768015
 30
0.0
 10
78.99061023726257
 20
200.662314298561
 30
0.0
 10
78.8715919098265
 20
200.513820962425
 30
0.0
 10
78.67156753941552
 20
200.2728934002914
 30
0.0
 10
78.34467809764652
 20
199.9035598203413
 30
0.0
 10
77.83424310903408
 20
199.369147771333
 30
0.0
 10
77.13670259667187
 20
198.6983991576808
 30
0.0
 10
76.23817156778169
 20
197.8988776808371
 30
0.0
 10
75.14304153565163
 20
196.9935576661297
 30
0.0
 10
73.85135104280518
 20
195.9984567017704
 30
0.0
 10
72.83453378587544
 20
195.2628926637878
 30
0.0
 10
72.32007266268063
 20
194.8981607458078
 30
0.0
  0
SPLINE
  5
29A
330
243
100
AcDbEntity
  8
DV3_Standard
  6
Continuous
 62
     7
100
AcDbSpline
210
0.0
220
0.0
230
1.0
 70
     8
 71
     3
 72
     9
 73
     5
 74
     0
 42
0.0000000018497438
 43
0.0000000001
 40
0.0
 40
0.0
 40
0.0
 40
0.0
 40
0.444489210660193
 40
0.9999999999999999
 40
0.9999999999999999
 40
0.9999999999999999
 40
0.9999999999999999
 10
67.24728237388477
 20
191.45679914793
 30
0.0
 10
66.57116007725976
 20
191.0170487990596
 30
0.0
 10
65.02437949364875
 20
190.0284774046451
 30
0.0
 10
63.61155310708748
 20
189.1498438342531
 30
0.0
 10
62.67640550784841
 20
188.5703381309025
 30
0.0
  0
ARC
  5
29B
330
243
100
AcDbEntity
  8
DV3_Standard
  6
Continuous
 62
     7
100
AcDbCircle
 10
63.6623299529
 20
163.6623299529
 30
0.0
 40
57.31232995288687
100
AcDbArc
 50
109.136117901
 51
325.4326150455
  0
LINE
  5
29C
330
243
100
AcDbEntity
  8
DV3_Standard
  6
Continuous
 62
     7
100
AcDbLine
 10
67.2024368637
 20
191.4276429357
 30
0.0
 11
72.335587675
 21
194.763657478
 31
0.0
  0
LINE
  5
29D
330
243
100
AcDbEntity
  8
DV3_Standard
  6
Continuous
 62
     7
100
AcDbLine
 10
141.0384914768
 20
141.6757329626
 30
0.0
 11
142.0592770547
 21
142.3059728733
 31
0.0
  0
LINE
  5
29E
330
243
100
AcDbEntity
  8
DV3_Standard
  6
Continuous
 62
     7
100
AcDbLine
 10
53.1144110122
 20
142.4137302553
 30
0.0
 11
54.304804652
 21
141.6757329626
 31
0.0
  0
ENDBLK
  5
2A0
330
243
100
AcDbEntity
  8
0
100
AcDbBlockEnd
  0
ENDSEC
  0
SECTION
  2
ENTITIES
  0
INSERT
  5
5F
330
1F
100
AcDbEntity
  8
Default
100
AcDbBlockReference
  2
SE
 10
0.0
 20
0.0
 30
0.0
  0
INSERT
  5
165
330
1F
100
AcDbEntity
  8
Default
100
AcDbBlockReference
  2
SE1
 10
0.0
 20
0.0
 30
0.0
  0
INSERT
  5
244
330
1F
100
AcDbEntity
  8
Default
100
AcDbBlockReference
  2
SE2
 10
0.0
 20
0.0
 30
0.0
  0
TEXT
  5
2A2
330
1F
100
AcDbEntity
  8
Default
  6
Continuous
 62
     7
100
AcDbText
 10
5.9362635081
 20
53.4225120485
 30
0.0
 40
10.0
  1
Grohe AG^J
  7
SEACAD_seiso_ttf
 11
5.9362635081
 21
63.4225120485
 31
0.0
100
AcDbText
 73
     3
  0
TEXT
  5
2A3
330
1F
100
AcDbEntity
  8
Default
  6
Continuous
 62
     7
100
AcDbText
 10
5.9362635081
 20
37.0588756849
 30
0.0
 40
10.0
  1
 
  7
SEACAD_seiso_ttf
 11
5.9362635081
 21
47.0588756849
 31
0.0
100
AcDbText
 73
     3
  0
TEXT
  5
2A4
330
1F
100
AcDbEntity
  8
Default
  6
Continuous
 62
     7
100
AcDbText
 10
5.9362635081
 20
20.6952393213
 30
0.0
 40
10.0
  1
ecn: 
  7
SEACAD_seiso_ttf
 11
5.9362635081
 21
30.6952393213
 31
0.0
100
AcDbText
 73
     3
  0
TEXT
  5
2A5
330
1F
100
AcDbEntity
  8
Default
  6
Continuous
 62
     7
100
AcDbText
 10
5.9362635081
 20
4.3316029576
 30
0.0
 40
10.0
  1
unit: mm
  7
SEACAD_seiso_ttf
 11
5.9362635081
 21
14.3316029576
 31
0.0
100
AcDbText
 73
     3
  0
LINE
  5
2A6
330
1F
100
AcDbEntity
  8
Default
  6
Continuous
 62
     7
100
AcDbLine
 10
0.0
 20
0.0
 30
0.0
 11
100.0
 21
0.0
 31
0.0
  0
LINE
  5
2A7
330
1F
100
AcDbEntity
  8
Default
  6
Continuous
 62
     7
100
AcDbLine
 10
0.0
 20
0.0
 30
0.0
 11
0.0
 21
100.0
 31
0.0
  0
TEXT
  5
2A8
330
1F
100
AcDbEntity
  8
Default
  6
Continuous
 62
     7
100
AcDbText
 10
24.3923665681
 20
-18.2375342018
 30
0.0
 40
10.0
  1
100 mm
  7
SEACAD_seiso_ttf
 11
24.3923665681
 21
-8.2375342018
 31
0.0
100
AcDbText
 73
     3
  0
TEXT
  5
2A9
330
1F
100
AcDbEntity
  8
Default
  6
Continuous
 62
     7
100
AcDbText
 10
-7.6150308803
 20
24.6231930421
 30
0.0
 40
10.0
  1
100 mm
 50
90.0
  7
SEACAD_seiso_ttf
 11
-17.6150308803
 21
24.6231930421
 31
0.0
100
AcDbText
 73
     3
  0
TEXT
  5
2AA
330
1F
100
AcDbEntity
  8
Default
  6
Continuous
 62
     7
100
AcDbText
 10
28.4878128572
 20
20.0907663715
 30
0.0
 40
10.0
  1
219041
  7
SEACAD_seiso_ttf
 11
28.4878128572
 21
30.0907663715
 31
0.0
100
AcDbText
 73
     3
  0
TEXT
  5
2AB
330
1F
100
AcDbEntity
  8
Default
  6
Continuous
 62
     7
100
AcDbText
 10
5.9012241913
 20
36.7242780188
 30
0.0
 40
10.0
  1
2726600E
  7
SEACAD_seiso_ttf
 11
5.9012241913
 21
46.7242780188
 31
0.0
100
AcDbText
 73
     3
  0
ENDSEC
  0
SECTION
  2
OBJECTS
  0
DICTIONARY
  5
C
330
0
100
AcDbDictionary
281
     1
  3
ACAD_GROUP
350
D
  3
ACAD_LAYOUT
350
1A
  3
ACAD_MLEADERSTYLE
350
2AF
  3
ACAD_MLINESTYLE
350
17
  3
ACAD_PLOTSETTINGS
350
19
  3
ACAD_PLOTSTYLENAME
350
E
  3
ACAD_SCALELIST
350
3B
  3
ACAD_TABLESTYLE
350
2AE
  3
ACAD_VISUALSTYLE
350
2A
  3
AcDbVariableDictionary
350
2AC
  0
DICTIONARY
  5
D
102
{ACAD_REACTORS
330
C
102
}
330
C
100
AcDbDictionary
281
     1
  0
DICTIONARY
  5
1A
102
{ACAD_REACTORS
330
C
102
}
330
C
100
AcDbDictionary
281
     1
  3
Layout1
350
1E
  3
Model
350
22
  0
DICTIONARY
  5
2AF
102
{ACAD_REACTORS
330
C
102
}
330
C
100
AcDbDictionary
281
     1
  0
DICTIONARY
  5
17
102
{ACAD_REACTORS
330
C
102
}
330
C
100
AcDbDictionary
281
     1
  3
Standard
350
18
  0
DICTIONARY
  5
19
102
{ACAD_REACTORS
330
C
102
}
330
C
100
AcDbDictionary
281
     1
  0
ACDBDICTIONARYWDFLT
  5
E
102
{ACAD_REACTORS
330
C
102
}
330
C
100
AcDbDictionary
281
     1
  3
Normal
350
F
100
AcDbDictionaryWithDefault
340
F
  0
DICTIONARY
  5
3B
102
{ACAD_REACTORS
330
C
102
}
330
C
100
AcDbDictionary
281
     1
  3
A0
350
3C
  3
A1
350
3D
  3
A2
350
3E
  3
A3
350
3F
  3
A4
350
40
  3
A5
350
41
  3
A6
350
42
  3
A7
350
43
  3
A8
350
44
  3
A9
350
45
  3
B0
350
46
  3
B1
350
47
  3
B2
350
48
  3
B3
350
49
  3
B4
350
4A
  3
B5
350
4B
  3
B6
350
4C
  3
B7
350
4D
  3
B8
350
4E
  3
B9
350
4F
  3
C0
350
50
  3
C1
350
51
  3
C2
350
52
  3
C3
350
53
  3
C4
350
54
  3
C5
350
55
  3
C6
350
56
  3
C7
350
57
  3
C8
350
58
  3
C9
350
59
  3
D0
350
5A
  3
D1
350
5B
  3
D2
350
5C
  0
DICTIONARY
  5
2AE
102
{ACAD_REACTORS
330
C
102
}
330
C
100
AcDbDictionary
281
     1
  0
DICTIONARY
  5
2A
102
{ACAD_REACTORS
330
C
102
}
330
C
100
AcDbDictionary
281
     1
  3
2dWireframe
350
2F
  3
3D Hidden
350
31
  3
3dWireframe
350
30
  3
Basic
350
32
  3
Brighten
350
36
  3
ColorChange
350
3A
  3
Conceptual
350
34
  3
Dim
350
35
  3
Facepattern
350
39
  3
Flat
350
2B
  3
FlatWithEdges
350
2C
  3
Gouraud
350
2D
  3
GouraudWithEdges
350
2E
  3
Linepattern
350
38
  3
Realistic
350
33
  3
Thicken
350
37
  0
DICTIONARY
  5
2AC
102
{ACAD_REACTORS
330
C
102
}
330
C
100
AcDbDictionary
281
     1
  3
CANNOSCALE
350
2AD
  3
PSOLHEIGHT
350
2B1
  3
PSOLWIDTH
350
2B0
  0
LAYOUT
  5
1E
102
{ACAD_REACTORS
330
1A
102
}
330
1A
100
AcDbPlotSettings
  1

  2
none_device
  4

  6

 40
0.0
 41
0.0
 42
0.0
 43
0.0
 44
0.0
 45
0.0
 46
0.0
 47
0.0
 48
0.0
 49
0.0
140
0.0
141
0.0
142
1.0
143
1.0
 70
   688
 72
     0
 73
     0
 74
     5
  7

 75
    16
147
1.0
148
0.0
149
0.0
100
AcDbLayout
  1
Layout1
 70
     1
 71
     1
 10
0.0
 20
0.0
 11
1682.0
 21
2378.0
 12
0.0
 22
0.0
 32
0.0
 14
0.0
 24
0.0
 34
0.0
 15
1682.0
 25
2378.0
 35
0.0
146
0.0
 13
0.0
 23
0.0
 33
0.0
 16
1.0
 26
0.0
 36
0.0
 17
0.0
 27
1.0
 37
0.0
 76
     0
330
1B
  0
LAYOUT
  5
22
102
{ACAD_REACTORS
330
1A
102
}
330
1A
100
AcDbPlotSettings
  1

  2
none_device
  4

  6

 40
0.0
 41
0.0
 42
0.0
 43
0.0
 44
0.0
 45
0.0
 46
0.0
 47
0.0
 48
0.0
 49
0.0
140
0.0
141
0.0
142
1.0
143
1.0
 70
  1712
 72
     0
 73
     0
 74
     0
  7

 75
     0
147
1.0
148
0.0
149
0.0
100
AcDbLayout
  1
Model
 70
     1
 71
     0
 10
0.0
 20
0.0
 11
1682.0
 21
2378.0
 12
0.0
 22
0.0
 32
0.0
 14
0.0
 24
0.0
 34
0.0
 15
1682.0
 25
2378.0
 35
0.0
146
0.0
 13
0.0
 23
0.0
 33
0.0
 16
1.0
 26
0.0
 36
0.0
 17
0.0
 27
1.0
 37
0.0
 76
     0
330
1F
331
29
  0
MLINESTYLE
  5
18
102
{ACAD_REACTORS
330
17
102
}
330
17
100
AcDbMlineStyle
  2
Standard
 70
     0
  3

 62
   256
 51
90.0
 52
90.0
 71
     2
 49
0.5
 62
   256
  6
BYLAYER
 49
-0.5
 62
   256
  6
BYLAYER
  0
ACDBPLACEHOLDER
  5
F
102
{ACAD_REACTORS
330
E
102
}
330
E
  0
SCALE
  5
3C
102
{ACAD_REACTORS
330
3B
102
}
330
3B
100
AcDbScale
 70
     0
300
1:1
140
1.0
141
1.0
290
     1
  0
SCALE
  5
3D
102
{ACAD_REACTORS
330
3B
102
}
330
3B
100
AcDbScale
 70
     0
300
1:2
140
1.0
141
2.0
290
     0
  0
SCALE
  5
3E
102
{ACAD_REACTORS
330
3B
102
}
330
3B
100
AcDbScale
 70
     0
300
1:4
140
1.0
141
4.0
290
     0
  0
SCALE
  5
3F
102
{ACAD_REACTORS
330
3B
102
}
330
3B
100
AcDbScale
 70
     0
300
1:5
140
1.0
141
5.0
290
     0
  0
SCALE
  5
40
102
{ACAD_REACTORS
330
3B
102
}
330
3B
100
AcDbScale
 70
     0
300
1:8
140
1.0
141
8.0
290
     0
  0
SCALE
  5
41
102
{ACAD_REACTORS
330
3B
102
}
330
3B
100
AcDbScale
 70
     0
300
1:10
140
1.0
141
10.0
290
     0
  0
SCALE
  5
42
102
{ACAD_REACTORS
330
3B
102
}
330
3B
100
AcDbScale
 70
     0
300
1:16
140
1.0
141
16.0
290
     0
  0
SCALE
  5
43
102
{ACAD_REACTORS
330
3B
102
}
330
3B
100
AcDbScale
 70
     0
300
1:20
140
1.0
141
20.0
290
     0
  0
SCALE
  5
44
102
{ACAD_REACTORS
330
3B
102
}
330
3B
100
AcDbScale
 70
     0
300
1:30
140
1.0
141
30.0
290
     0
  0
SCALE
  5
45
102
{ACAD_REACTORS
330
3B
102
}
330
3B
100
AcDbScale
 70
     0
300
1:40
140
1.0
141
40.0
290
     0
  0
SCALE
  5
46
102
{ACAD_REACTORS
330
3B
102
}
330
3B
100
AcDbScale
 70
     0
300
1:50
140
1.0
141
50.0
290
     0
  0
SCALE
  5
47
102
{ACAD_REACTORS
330
3B
102
}
330
3B
100
AcDbScale
 70
     0
300
1:100
140
1.0
141
100.0
290
     0
  0
SCALE
  5
48
102
{ACAD_REACTORS
330
3B
102
}
330
3B
100
AcDbScale
 70
     0
300
2:1
140
2.0
141
1.0
290
     0
  0
SCALE
  5
49
102
{ACAD_REACTORS
330
3B
102
}
330
3B
100
AcDbScale
 70
     0
300
4:1
140
4.0
141
1.0
290
     0
  0
SCALE
  5
4A
102
{ACAD_REACTORS
330
3B
102
}
330
3B
100
AcDbScale
 70
     0
300
8:1
140
8.0
141
1.0
290
     0
  0
SCALE
  5
4B
102
{ACAD_REACTORS
330
3B
102
}
330
3B
100
AcDbScale
 70
     0
300
10:1
140
10.0
141
1.0
290
     0
  0
SCALE
  5
4C
102
{ACAD_REACTORS
330
3B
102
}
330
3B
100
AcDbScale
 70
     0
300
100:1
140
100.0
141
1.0
290
     0
  0
SCALE
  5
4D
102
{ACAD_REACTORS
330
3B
102
}
330
3B
100
AcDbScale
 70
     0
300
1/128" = 1'-0"
140
0.0078125
141
12.0
290
     0
  0
SCALE
  5
4E
102
{ACAD_REACTORS
330
3B
102
}
330
3B
100
AcDbScale
 70
     0
300
1/64" = 1'-0"
140
0.015625
141
12.0
290
     0
  0
SCALE
  5
4F
102
{ACAD_REACTORS
330
3B
102
}
330
3B
100
AcDbScale
 70
     0
300
1/32" = 1'-0"
140
0.03125
141
12.0
290
     0
  0
SCALE
  5
50
102
{ACAD_REACTORS
330
3B
102
}
330
3B
100
AcDbScale
 70
     0
300
1/16" = 1'-0"
140
0.0625
141
12.0
290
     0
  0
SCALE
  5
51
102
{ACAD_REACTORS
330
3B
102
}
330
3B
100
AcDbScale
 70
     0
300
3/32" = 1'-0"
140
0.09375
141
12.0
290
     0
  0
SCALE
  5
52
102
{ACAD_REACTORS
330
3B
102
}
330
3B
100
AcDbScale
 70
     0
300
1/8" = 1'-0"
140
0.125
141
12.0
290
     0
  0
SCALE
  5
53
102
{ACAD_REACTORS
330
3B
102
}
330
3B
100
AcDbScale
 70
     0
300
3/16" = 1'-0"
140
0.1875
141
12.0
290
     0
  0
SCALE
  5
54
102
{ACAD_REACTORS
330
3B
102
}
330
3B
100
AcDbScale
 70
     0
300
1/4" = 1'-0"
140
0.25
141
12.0
290
     0
  0
SCALE
  5
55
102
{ACAD_REACTORS
330
3B
102
}
330
3B
100
AcDbScale
 70
     0
300
3/8" = 1'-0"
140
0.375
141
12.0
290
     0
  0
SCALE
  5
56
102
{ACAD_REACTORS
330
3B
102
}
330
3B
100
AcDbScale
 70
     0
300
1/2" = 1'-0"
140
0.5
141
12.0
290
     0
  0
SCALE
  5
57
102
{ACAD_REACTORS
330
3B
102
}
330
3B
100
AcDbScale
 70
     0
300
3/4" = 1'-0"
140
0.75
141
12.0
290
     0
  0
SCALE
  5
58
102
{ACAD_REACTORS
330
3B
102
}
330
3B
100
AcDbScale
 70
     0
300
1" = 1'-0"
140
1.0
141
12.0
290
     0
  0
SCALE
  5
59
102
{ACAD_REACTORS
330
3B
102
}
330
3B
100
AcDbScale
 70
     0
300
1-1/2" = 1'-0"
140
1.5
141
12.0
290
     0
  0
SCALE
  5
5A
102
{ACAD_REACTORS
330
3B
102
}
330
3B
100
AcDbScale
 70
     0
300
3" = 1'-0"
140
3.0
141
12.0
290
     0
  0
SCALE
  5
5B
102
{ACAD_REACTORS
330
3B
102
}
330
3B
100
AcDbScale
 70
     0
300
6" = 1'-0"
140
6.0
141
12.0
290
     0
  0
SCALE
  5
5C
102
{ACAD_REACTORS
330
3B
102
}
330
3B
100
AcDbScale
 70
     0
300
1'-0" = 1'-0"
140
12.0
141
12.0
290
     0
  0
VISUALSTYLE
  5
2F
102
{ACAD_REACTORS
330
2A
102
}
330
2A
100
AcDbVisualStyle
  2
2dWireframe
 70
     4
 71
     0
 72
     2
 73
     0
 90
        0
 40
-0.6
 41
-30.0
 62
     5
 63
     7
 74
     1
 91
        4
 64
     7
 65
   257
 75
     1
175
     1
 42
1.0
 92
        0
 66
   257
 43
1.0
 76
     1
 77
     6
 78
     2
 67
     7
 79
     5
170
     0
171
     0
290
     0
174
     0
 93
        1
 44
0.0
173
     0
291
     0
 45
0.0
1001
ACAD
1000
AcDbSavedByObjectVersion
1070
     0
  0
VISUALSTYLE
  5
31
102
{ACAD_REACTORS
330
2A
102
}
330
2A
100
AcDbVisualStyle
  2
3D Hidden
 70
     6
 71
     1
 72
     2
 73
     2
 90
        0
 40
-0.6
 41
-30.0
 62
     5
 63
     7
 74
     2
 91
        2
 64
     7
 65
   257
 75
     2
175
     1
 42
40.0
 92
        0
 66
   257
 43
1.0
 76
     1
 77
     6
 78
     2
 67
     7
 79
     3
170
     0
171
     0
290
     0
174
     0
 93
        1
 44
0.0
173
     0
291
     0
 45
0.0
1001
ACAD
1000
AcDbSavedByObjectVersion
1070
     0
  0
VISUALSTYLE
  5
30
102
{ACAD_REACTORS
330
2A
102
}
330
2A
100
AcDbVisualStyle
  2
3dWireframe
 70
     5
 71
     0
 72
     2
 73
     0
 90
        0
 40
-0.6
 41
-30.0
 62
     5
 63
     7
 74
     1
 91
        4
 64
     7
 65
   257
 75
     1
175
     1
 42
1.0
 92
        0
 66
   257
 43
1.0
 76
     1
 77
     6
 78
     2
 67
     7
 79
     5
170
     0
171
     0
290
     0
174
     0
 93
        1
 44
0.0
173
     0
291
     0
 45
0.0
1001
ACAD
1000
AcDbSavedByObjectVersion
1070
     0
  0
VISUALSTYLE
  5
32
102
{ACAD_REACTORS
330
2A
102
}
330
2A
100
AcDbVisualStyle
  2
Basic
 70
     7
 71
     1
 72
     0
 73
     1
 90
        0
 40
-0.6
 41
-30.0
 62
     5
 63
     7
 74
     0
 91
        4
 64
     7
 65
   257
 75
     1
175
     1
 42
1.0
 92
        8
 66
     7
 43
1.0
 76
     1
 77
     6
 78
     2
 67
     7
 79
     5
170
     0
171
     0
290
     0
174
     0
 93
        1
 44
0.0
173
     0
291
     1
 45
0.0
1001
ACAD
1000
AcDbSavedByObjectVersion
1070
     0
  0
VISUALSTYLE
  5
36
102
{ACAD_REACTORS
330
2A
102
}
330
2A
100
AcDbVisualStyle
  2
Brighten
 70
    12
 71
     2
 72
     2
 73
     0
 90
        0
 40
-0.6
 41
-30.0
 62
     5
 63
     7
 74
     1
 91
        4
 64
     7
 65
   257
 75
     1
175
     1
 42
1.0
 92
        8
 66
     7
 43
1.0
 76
     1
 77
     6
 78
     2
 67
     7
 79
     5
170
     0
171
     0
290
     0
174
     0
 93
        1
 44
50.0
173
     0
291
     1
 45
0.0
1001
ACAD
1000
AcDbSavedByObjectVersion
1070
     0
  0
VISUALSTYLE
  5
3A
102
{ACAD_REACTORS
330
2A
102
}
330
2A
100
AcDbVisualStyle
  2
ColorChange
 70
    16
 71
     2
 72
     2
 73
     3
 90
        0
 40
-0.6
 41
-30.0
 62
     5
 63
     8
 74
     1
 91
        4
 64
     7
 65
   257
 75
     1
175
     1
 42
1.0
 92
        8
 66
     8
 43
1.0
 76
     1
 77
     6
 78
     2
 67
     7
 79
     5
170
     0
171
     0
290
     0
174
     0
 93
        1
 44
0.0
173
     0
291
     1
 45
0.0
1001
ACAD
1000
AcDbSavedByObjectVersion
1070
     0
  0
VISUALSTYLE
  5
34
102
{ACAD_REACTORS
330
2A
102
}
330
2A
100
AcDbVisualStyle
  2
Conceptual
 70
     9
 71
     3
 72
     2
 73
     0
 90
        0
 40
-0.6
 41
-30.0
 62
     5
 63
     7
 74
     2
 91
        2
 64
     7
 65
   257
 75
     1
175
     1
 42
40.0
 92
        8
 66
     7
 43
1.0
 76
     1
 77
     6
 78
     2
 67
     7
 79
     3
170
     0
171
     0
290
     0
174
     0
 93
        1
 44
0.0
173
     0
291
     0
 45
0.0
1001
ACAD
1000
AcDbSavedByObjectVersion
1070
     0
  0
VISUALSTYLE
  5
35
102
{ACAD_REACTORS
330
2A
102
}
330
2A
100
AcDbVisualStyle
  2
Dim
 70
    11
 71
     2
 72
     2
 73
     0
 90
        0
 40
-0.6
 41
-30.0
 62
     5
 63
     7
 74
     1
 91
        4
 64
     7
 65
   257
 75
     1
175
     1
 42
1.0
 92
        8
 66
     7
 43
1.0
 76
     1
 77
     6
 78
     2
 67
     7
 79
     5
170
     0
171
     0
290
     0
174
     0
 93
        1
 44
-50.0
173
     0
291
     1
 45
0.0
1001
ACAD
1000
AcDbSavedByObjectVersion
1070
     0
  0
VISUALSTYLE
  5
39
102
{ACAD_REACTORS
330
2A
102
}
330
2A
100
AcDbVisualStyle
  2
Facepattern
 70
    15
 71
     2
 72
     2
 73
     0
 90
        0
 40
-0.6
 41
-30.0
 62
     5
 63
     7
 74
     1
 91
        4
 64
     7
 65
   257
 75
     1
175
     1
 42
1.0
 92
        8
 66
     7
 43
1.0
 76
     1
 77
     6
 78
     2
 67
     7
 79
     5
170
     0
171
     0
290
     0
174
     0
 93
        1
 44
0.0
173
     0
291
     1
 45
0.0
1001
ACAD
1000
AcDbSavedByObjectVersion
1070
     0
  0
VISUALSTYLE
  5
2B
102
{ACAD_REACTORS
330
2A
102
}
330
2A
100
AcDbVisualStyle
  2
Flat
 70
     0
 71
     2
 72
     1
 73
     1
 90
        2
 40
-0.6
 41
30.0
 62
     5
 63
     7
 74
     0
 91
        4
 64
     7
 65
   257
 75
     1
175
     1
 42
1.0
 92
        8
 66
     7
 43
1.0
 76
     1
 77
     6
 78
     2
 67
     7
 79
     5
170
     0
171
     0
290
     0
174
     0
 93
       13
 44
0.0
173
     0
291
     1
 45
0.0
1001
ACAD
1000
AcDbSavedByObjectVersion
1070
     0
  0
VISUALSTYLE
  5
2C
102
{ACAD_REACTORS
330
2A
102
}
330
2A
100
AcDbVisualStyle
  2
FlatWithEdges
 70
     1
 71
     2
 72
     1
 73
     1
 90
        2
 40
-0.6
 41
30.0
 62
     5
 63
     7
 74
     1
 91
        4
 64
     7
 65
   257
 75
     1
175
     1
 42
1.0
 92
        0
 66
   257
 43
1.0
 76
     1
 77
     6
 78
     2
 67
     7
 79
     5
170
     0
171
     0
290
     0
174
     0
 93
       13
 44
0.0
173
     0
291
     1
 45
0.0
1001
ACAD
1000
AcDbSavedByObjectVersion
1070
     0
  0
VISUALSTYLE
  5
2D
102
{ACAD_REACTORS
330
2A
102
}
330
2A
100
AcDbVisualStyle
  2
Gouraud
 70
     2
 71
     2
 72
     2
 73
     1
 90
        2
 40
-0.6
 41
30.0
 62
     5
 63
     7
 74
     0
 91
        4
 64
     7
 65
   257
 75
     1
175
     1
 42
1.0
 92
        0
 66
     7
 43
1.0
 76
     1
 77
     6
 78
     2
 67
     7
 79
     5
170
     0
171
     0
290
     0
174
     0
 93
       13
 44
0.0
173
     0
291
     1
 45
0.0
1001
ACAD
1000
AcDbSavedByObjectVersion
1070
     0
  0
VISUALSTYLE
  5
2E
102
{ACAD_REACTORS
330
2A
102
}
330
2A
100
AcDbVisualStyle
  2
GouraudWithEdges
 70
     3
 71
     2
 72
     2
 73
     1
 90
        2
 40
-0.6
 41
30.0
 62
     5
 63
     7
 74
     1
 91
        4
 64
     7
 65
   257
 75
     1
175
     1
 42
1.0
 92
        0
 66
   257
 43
1.0
 76
     1
 77
     6
 78
     2
 67
     7
 79
     5
170
     0
171
     0
290
     0
174
     0
 93
       13
 44
0.0
173
     0
291
     1
 45
0.0
1001
ACAD
1000
AcDbSavedByObjectVersion
1070
     0
  0
VISUALSTYLE
  5
38
102
{ACAD_REACTORS
330
2A
102
}
330
2A
100
AcDbVisualStyle
  2
Linepattern
 70
    14
 71
     2
 72
     2
 73
     0
 90
        0
 40
-0.6
 41
-30.0
 62
     5
 63
     7
 74
     1
 91
        4
 64
     7
 65
   257
 75
     7
175
     7
 42
1.0
 92
        8
 66
     7
 43
1.0
 76
     1
 77
     6
 78
     2
 67
     7
 79
     5
170
     0
171
     0
290
     0
174
     0
 93
        1
 44
0.0
173
     0
291
     1
 45
0.0
1001
ACAD
1000
AcDbSavedByObjectVersion
1070
     0
  0
VISUALSTYLE
  5
33
102
{ACAD_REACTORS
330
2A
102
}
330
2A
100
AcDbVisualStyle
  2
Realistic
 70
     8
 71
     2
 72
     2
 73
     0
 90
        0
 40
-0.6
 41
-30.0
 62
     5
 63
     7
 74
     1
 91
        0
 64
     7
 65
   257
 75
     1
175
     1
 42
1.0
 92
        8
 66
     8
 43
1.0
 76
     1
 77
     6
 78
     2
 67
     7
 79
     5
170
     0
171
     0
290
     0
174
     0
 93
       13
 44
0.0
173
     0
291
     0
 45
0.0
1001
ACAD
1000
AcDbSavedByObjectVersion
1070
     0
  0
VISUALSTYLE
  5
37
102
{ACAD_REACTORS
330
2A
102
}
330
2A
100
AcDbVisualStyle
  2
Thicken
 70
    13
 71
     2
 72
     2
 73
     0
 90
        0
 40
-0.6
 41
-30.0
 62
     5
 63
     7
 74
     1
 91
        4
 64
     7
 65
   257
 75
     1
175
     1
 42
1.0
 92
       12
 66
     7
 43
1.0
 76
     1
 77
     6
 78
     2
 67
     7
 79
     5
170
     0
171
     0
290
     0
174
     0
 93
        1
 44
0.0
173
     0
291
     1
 45
0.0
1001
ACAD
1000
AcDbSavedByObjectVersion
1070
     0
  0
DICTIONARYVAR
  5
2AD
102
{ACAD_REACTORS
330
2AC
102
}
330
2AC
100
DictionaryVariables
280
     0
  1
1:1
  0
DICTIONARYVAR
  5
2B1
102
{ACAD_REACTORS
330
2AC
102
}
330
2AC
100
DictionaryVariables
280
     0
  1
80.000000
  0
DICTIONARYVAR
  5
2B0
102
{ACAD_REACTORS
330
2AC
102
}
330
2AC
100
DictionaryVariables
280
     0
  1
5.000000
  0
ENDSEC
  0
EOF
