  0
SECTION
  2
HEADER
  9
$ACADVER
  1
AC1009
  9
$DWGCODEPAGE
  3
ansi_1252
  9
$INSBASE
 10
0.0
 20
0.0
 30
0.0
  9
$EXTMIN
 10
1.000000000000000E+20
 20
1.000000000000000E+20
 30
1.000000000000000E+20
  9
$EXTMAX
 10
-1.000000000000000E+20
 20
-1.000000000000000E+20
 30
-1.000000000000000E+20
  9
$LIMMIN
 10
0.0
 20
0.0
  9
$LIMMAX
 10
12.0
 20
9.0
  9
$ORTHOMODE
 70
     0
  9
$REGENMODE
 70
     1
  9
$FILLMODE
 70
     1
  9
$QTEXTMODE
 70
     0
  9
$MIRRTEXT
 70
     1
  9
$DRAGMODE
 70
     2
  9
$LTSCALE
 40
1.0
  9
$OSMODE
 70
    37
  9
$ATTMODE
 70
     1
  9
$TEXTSIZE
 40
0.2
  9
$TRACEWID
 40
0.05
  9
$TEXTSTYLE
  7
STANDARD
  9
$CLAYER
  8
0
  9
$CELTYPE
  6
BYLAYER
  9
$CECOLOR
 62
   256
  9
$DIMSCALE
 40
1.0
  9
$DIMASZ
 40
0.18
  9
$DIMEXO
 40
0.0625
  9
$DIMDLI
 40
0.38
  9
$DIMRND
 40
0.0
  9
$DIMDLE
 40
0.0
  9
$DIMEXE
 40
0.18
  9
$DIMTP
 40
0.0
  9
$DIMTM
 40
0.0
  9
$DIMTXT
 40
0.18
  9
$DIMCEN
 40
0.09
  9
$DIMTSZ
 40
0.0
  9
$DIMTOL
 70
     0
  9
$DIMLIM
 70
     0
  9
$DIMTIH
 70
     1
  9
$DIMTOH
 70
     1
  9
$DIMSE1
 70
     0
  9
$DIMSE2
 70
     0
  9
$DIMTAD
 70
     0
  9
$DIMZIN
 70
     0
  9
$DIMBLK
  1

  9
$DIMASO
 70
     1
  9
$DIMSHO
 70
     1
  9
$DIMPOST
  1

  9
$DIMAPOST
  1

  9
$DIMALT
 70
     0
  9
$DIMALTD
 70
     2
  9
$DIMALTF
 40
25.4
  9
$DIMLFAC
 40
1.0
  9
$DIMTOFL
 70
     0
  9
$DIMTVP
 40
0.0
  9
$DIMTIX
 70
     0
  9
$DIMSOXD
 70
     0
  9
$DIMSAH
 70
     0
  9
$DIMBLK1
  1

  9
$DIMBLK2
  1

  9
$DIMSTYLE
  2
STANDARD
  9
$DIMCLRD
 70
     0
  9
$DIMCLRE
 70
     0
  9
$DIMCLRT
 70
     0
  9
$DIMTFAC
 40
1.0
  9
$DIMGAP
 40
0.09
  9
$LUNITS
 70
     2
  9
$LUPREC
 70
     4
  9
$SKETCHINC
 40
0.1
  9
$FILLETRAD
 40
0.5
  9
$AUNITS
 70
     0
  9
$AUPREC
 70
     0
  9
$MENU
  1
.
  9
$ELEVATION
 40
0.0
  9
$PELEVATION
 40
0.0
  9
$THICKNESS
 40
0.0
  9
$LIMCHECK
 70
     0
  9
$CHAMFERA
 40
0.5
  9
$CHAMFERB
 40
0.5
  9
$SKPOLY
 70
     0
  9
$TDCREATE
 40
2455352.786159386
  9
$TDUPDATE
 40
2455352.786159386
  9
$TDINDWG
 40
0.0000000116
  9
$TDUSRTIMER
 40
0.0000000116
  9
$USRTIMER
 70
     1
  9
$ANGBASE
 50
0.0
  9
$ANGDIR
 70
     0
  9
$PDMODE
 70
     0
  9
$PDSIZE
 40
0.0
  9
$PLINEWID
 40
0.0
  9
$COORDS
 70
     1
  9
$SPLFRAME
 70
     0
  9
$SPLINETYPE
 70
     6
  9
$SPLINESEGS
 70
     8
  9
$ATTDIA
 70
     0
  9
$ATTREQ
 70
     1
  9
$HANDLING
 70
     1
  9
$HANDSEED
  5
441
  9
$SURFTAB1
 70
     6
  9
$SURFTAB2
 70
     6
  9
$SURFTYPE
 70
     6
  9
$SURFU
 70
     6
  9
$SURFV
 70
     6
  9
$UCSNAME
  2

  9
$UCSORG
 10
0.0
 20
0.0
 30
0.0
  9
$UCSXDIR
 10
1.0
 20
0.0
 30
0.0
  9
$UCSYDIR
 10
0.0
 20
1.0
 30
0.0
  9
$PUCSNAME
  2

  9
$PUCSORG
 10
0.0
 20
0.0
 30
0.0
  9
$PUCSXDIR
 10
1.0
 20
0.0
 30
0.0
  9
$PUCSYDIR
 10
0.0
 20
1.0
 30
0.0
  9
$USERI1
 70
     0
  9
$USERI2
 70
     0
  9
$USERI3
 70
     0
  9
$USERI4
 70
     0
  9
$USERI5
 70
     0
  9
$USERR1
 40
0.0
  9
$USERR2
 40
0.0
  9
$USERR3
 40
0.0
  9
$USERR4
 40
0.0
  9
$USERR5
 40
0.0
  9
$WORLDVIEW
 70
     1
  9
$SHADEDGE
 70
     3
  9
$SHADEDIF
 70
    70
  9
$TILEMODE
 70
     1
  9
$MAXACTVP
 70
    64
  9
$PLIMCHECK
 70
     0
  9
$PEXTMIN
 10
1.000000000000000E+20
 20
1.000000000000000E+20
 30
1.000000000000000E+20
  9
$PEXTMAX
 10
-1.000000000000000E+20
 20
-1.000000000000000E+20
 30
-1.000000000000000E+20
  9
$PLIMMIN
 10
0.0
 20
0.0
  9
$PLIMMAX
 10
12.0
 20
9.0
  9
$UNITMODE
 70
     0
  9
$VISRETAIN
 70
     1
  9
$PLINEGEN
 70
     0
  9
$PSLTSCALE
 70
     1
  0
ENDSEC
  0
SECTION
  2
TABLES
  0
TABLE
  2
VPORT
 70
     1
  0
VPORT
  2
*ACTIVE
 70
     0
 10
0.0
 20
0.0
 11
1.0
 21
1.0
 12
0.0
 22
0.0
 13
0.0
 23
0.0
 14
0.5
 24
0.5
 15
0.5
 25
0.5
 16
275.0727233886719
 26
157.1708679199219
 36
275.0726928710938
 17
0.118011474609375
 27
0.1179962158203125
 37
97.20101928710938
 40
157.9523006171603
 41
1.972972972850329
 42
50.0
 43
0.0
 44
0.0
 50
0.0
 51
0.0
 71
     0
 72
   100
 73
     1
 74
     3
 75
     0
 76
     0
 77
     0
 78
     0
  0
ENDTAB
  0
TABLE
  2
LTYPE
 70
     1
  0
LTYPE
  2
CONTINUOUS
 70
     0
  3
Solid line
 72
    65
 73
     0
 40
0.0
  0
ENDTAB
  0
TABLE
  2
LAYER
 70
     2
  0
LAYER
  2
0
 70
     0
 62
     7
  6
CONTINUOUS
  0
LAYER
  2
LAYER_1
 70
     0
 62
     7
  6
CONTINUOUS
  0
ENDTAB
  0
TABLE
  2
STYLE
 70
     1
  0
STYLE
  2
STANDARD
 70
     0
 40
0.0
 41
1.0
 50
0.0
 71
     0
 42
0.2
  3
txt
  4

  0
ENDTAB
  0
TABLE
  2
VIEW
 70
     0
  0
ENDTAB
  0
TABLE
  2
UCS
 70
     0
  0
ENDTAB
  0
TABLE
  2
APPID
 70
     1
  0
APPID
  2
ACAD
 70
     0
  0
ENDTAB
  0
TABLE
  2
DIMSTYLE
 70
     1
  0
DIMSTYLE
  2
STANDARD
 70
     0
  3

  4

  5

  6

  7

 40
1.0
 41
0.18
 42
0.0625
 43
0.38
 44
0.18
 45
0.0
 46
0.0
 47
0.0
 48
0.0
140
0.18
141
0.09
142
0.0
143
25.4
144
1.0
145
0.0
146
1.0
147
0.09
 71
     0
 72
     0
 73
     1
 74
     1
 75
     0
 76
     0
 77
     0
 78
     0
170
     0
171
     2
172
     0
173
     0
174
     0
175
     0
176
     0
177
     0
178
     0
  0
ENDTAB
  0
ENDSEC
  0
SECTION
  2
BLOCKS
  0
BLOCK
  8
0
  2
$MODEL_SPACE
 70
     0
 10
0.0
 20
0.0
 30
0.0
  3
$MODEL_SPACE
  1

  0
ENDBLK
  5
21
  8
0
  0
BLOCK
 67
     1
  8
0
  2
$PAPER_SPACE
 70
     0
 10
0.0
 20
0.0
 30
0.0
  3
$PAPER_SPACE
  1

  0
ENDBLK
  5
1D
 67
     1
  8
0
  0
BLOCK
  8
0
  2
E3_NODE
 70
     0
 10
0.0
 20
0.0
 30
0.0
  3
E3_NODE
  1

  0
POLYLINE
  5
3C
  8
0
 62
     9
 66
     1
 10
0.0
 20
0.0
 30
0.0
 70
    64
 71
    26
 72
    26
  0
VERTEX
  5
3D
  8
0
 10
0.0
 20
-15.55000019073486
 30
204.8000030517578
 70
   192
  0
VERTEX
  5
3E
  8
0
 10
7.22599983215332
 20
-13.76900005340576
 30
204.8000030517578
 70
   192
  0
VERTEX
  5
3F
  8
0
 10
7.133999824523926
 20
-13.59200000762939
 30
205.0
 70
   192
  0
VERTEX
  5
40
  8
0
 10
12.79699993133545
 20
-8.833000183105469
 30
204.8000030517578
 70
   192
  0
VERTEX
  5
41
  8
0
 10
12.63300037384033
 20
-8.720000267028809
 30
205.0
 70
   192
  0
VERTEX
  5
42
  8
0
 10
15.4370002746582
 20
-1.873999953269958
 30
204.8000030517578
 70
   192
  0
VERTEX
  5
43
  8
0
 10
15.23799991607666
 20
-1.850000023841858
 30
205.0
 70
   192
  0
VERTEX
  5
44
  8
0
 10
14.53999996185303
 20
5.513999938964844
 30
204.8000030517578
 70
   192
  0
VERTEX
  5
45
  8
0
 10
14.35200023651123
 20
5.442999839782715
 30
205.0
 70
   192
  0
VERTEX
  5
46
  8
0
 10
10.3120002746582
 20
11.63899993896484
 30
204.8000030517578
 70
   192
  0
VERTEX
  5
47
  8
0
 10
10.17899990081787
 20
11.48999977111816
 30
205.0
 70
   192
  0
VERTEX
  5
48
  8
0
 10
3.720999956130981
 20
15.09799957275391
 30
204.8000030517578
 70
   192
  0
VERTEX
  5
49
  8
0
 10
3.67300009727478
 20
14.9040002822876
 30
205.0
 70
   192
  0
VERTEX
  5
4A
  8
0
 10
-3.720999956130981
 20
15.09799957275391
 30
204.8000030517578
 70
   192
  0
VERTEX
  5
4B
  8
0
 10
-3.67300009727478
 20
14.9040002822876
 30
205.0
 70
   192
  0
VERTEX
  5
4C
  8
0
 10
-10.3120002746582
 20
11.63899993896484
 30
204.8000030517578
 70
   192
  0
VERTEX
  5
4D
  8
0
 10
-10.17899990081787
 20
11.48999977111816
 30
205.0
 70
   192
  0
VERTEX
  5
4E
  8
0
 10
-14.53999996185303
 20
5.513999938964844
 30
204.8000030517578
 70
   192
  0
VERTEX
  5
4F
  8
0
 10
-14.35200023651123
 20
5.442999839782715
 30
205.0
 70
   192
  0
VERTEX
  5
50
  8
0
 10
-15.4370002746582
 20
-1.873999953269958
 30
204.8000030517578
 70
   192
  0
VERTEX
  5
51
  8
0
 10
-15.23799991607666
 20
-1.850000023841858
 30
205.0
 70
   192
  0
VERTEX
  5
52
  8
0
 10
-12.79699993133545
 20
-8.833000183105469
 30
204.8000030517578
 70
   192
  0
VERTEX
  5
53
  8
0
 10
-12.63300037384033
 20
-8.720000267028809
 30
205.0
 70
   192
  0
VERTEX
  5
54
  8
0
 10
-7.22599983215332
 20
-13.76900005340576
 30
204.8000030517578
 70
   192
  0
VERTEX
  5
55
  8
0
 10
-7.133999824523926
 20
-13.59200000762939
 30
205.0
 70
   192
  0
VERTEX
  5
56
  8
0
 10
0.0
 20
-15.35000038146973
 30
205.0
 70
   192
  0
VERTEX
  5
57
  8
0
 62
     9
 10
0.0
 20
0.0
 30
0.0
 70
   128
 71
     3
 72
     2
 73
     1
  0
VERTEX
  5
58
  8
0
 62
     9
 10
0.0
 20
0.0
 30
0.0
 70
   128
 71
     5
 72
     4
 73
     2
  0
VERTEX
  5
59
  8
0
 62
     9
 10
0.0
 20
0.0
 30
0.0
 70
   128
 71
     7
 72
     6
 73
     4
  0
VERTEX
  5
5A
  8
0
 62
     9
 10
0.0
 20
0.0
 30
0.0
 70
   128
 71
     7
 72
     9
 73
     8
  0
VERTEX
  5
5B
  8
0
 62
     9
 10
0.0
 20
0.0
 30
0.0
 70
   128
 71
     9
 72
    11
 73
    10
  0
VERTEX
  5
5C
  8
0
 62
     9
 10
0.0
 20
0.0
 30
0.0
 70
   128
 71
    11
 72
    13
 73
    12
  0
VERTEX
  5
5D
  8
0
 62
     9
 10
0.0
 20
0.0
 30
0.0
 70
   128
 71
    13
 72
    15
 73
    14
  0
VERTEX
  5
5E
  8
0
 62
     9
 10
0.0
 20
0.0
 30
0.0
 70
   128
 71
    17
 72
    16
 73
    14
  0
VERTEX
  5
5F
  8
0
 62
     9
 10
0.0
 20
0.0
 30
0.0
 70
   128
 71
    19
 72
    18
 73
    16
  0
VERTEX
  5
60
  8
0
 62
     9
 10
0.0
 20
0.0
 30
0.0
 70
   128
 71
    19
 72
    21
 73
    20
  0
VERTEX
  5
61
  8
0
 62
     9
 10
0.0
 20
0.0
 30
0.0
 70
   128
 71
    21
 72
    23
 73
    22
  0
VERTEX
  5
62
  8
0
 62
     9
 10
0.0
 20
0.0
 30
0.0
 70
   128
 71
    23
 72
    25
 73
    24
  0
VERTEX
  5
63
  8
0
 62
     9
 10
0.0
 20
0.0
 30
0.0
 70
   128
 71
    26
 72
     1
 73
    24
  0
VERTEX
  5
64
  8
0
 62
     9
 10
0.0
 20
0.0
 30
0.0
 70
   128
 71
    24
 72
    25
 73
    26
  0
VERTEX
  5
65
  8
0
 62
     9
 10
0.0
 20
0.0
 30
0.0
 70
   128
 71
    24
 72
    22
 73
    23
  0
VERTEX
  5
66
  8
0
 62
     9
 10
0.0
 20
0.0
 30
0.0
 70
   128
 71
    22
 72
    20
 73
    21
  0
VERTEX
  5
67
  8
0
 62
     9
 10
0.0
 20
0.0
 30
0.0
 70
   128
 71
    20
 72
    18
 73
    19
  0
VERTEX
  5
68
  8
0
 62
     9
 10
0.0
 20
0.0
 30
0.0
 70
   128
 71
    16
 72
    17
 73
    19
  0
VERTEX
  5
69
  8
0
 62
     9
 10
0.0
 20
0.0
 30
0.0
 70
   128
 71
    14
 72
    15
 73
    17
  0
VERTEX
  5
6A
  8
0
 62
     9
 10
0.0
 20
0.0
 30
0.0
 70
   128
 71
    14
 72
    12
 73
    13
  0
VERTEX
  5
6B
  8
0
 62
     9
 10
0.0
 20
0.0
 30
0.0
 70
   128
 71
    12
 72
    10
 73
    11
  0
VERTEX
  5
6C
  8
0
 62
     9
 10
0.0
 20
0.0
 30
0.0
 70
   128
 71
    10
 72
     8
 73
     9
  0
VERTEX
  5
6D
  8
0
 62
     9
 10
0.0
 20
0.0
 30
0.0
 70
   128
 71
     8
 72
     6
 73
     7
  0
VERTEX
  5
6E
  8
0
 62
     9
 10
0.0
 20
0.0
 30
0.0
 70
   128
 71
     4
 72
     5
 73
     7
  0
VERTEX
  5
6F
  8
0
 62
     9
 10
0.0
 20
0.0
 30
0.0
 70
   128
 71
     2
 72
     3
 73
     5
  0
VERTEX
  5
70
  8
0
 62
     9
 10
0.0
 20
0.0
 30
0.0
 70
   128
 71
     1
 72
    26
 73
     3
  0
SEQEND
  5
71
  8
0
 62
     9
  0
ENDBLK
  5
75
  8
0
  0
BLOCK
  8
0
  2
E3_NODE_1_
 70
     0
 10
0.0
 20
0.0
 30
0.0
  3
E3_NODE_1_
  1

  0
POLYLINE
  5
77
  8
0
 62
     9
 66
     1
 10
0.0
 20
0.0
 30
0.0
 70
    64
 71
    13
 72
    11
  0
VERTEX
  5
78
  8
0
 10
-12.63300037384033
 20
-8.720000267028809
 30
205.0
 70
   192
  0
VERTEX
  5
79
  8
0
 10
-10.17899990081787
 20
11.48999977111816
 30
205.0
 70
   192
  0
VERTEX
  5
7A
  8
0
 10
-14.35200023651123
 20
5.442999839782715
 30
205.0
 70
   192
  0
VERTEX
  5
7B
  8
0
 10
3.67300009727478
 20
14.9040002822876
 30
205.0
 70
   192
  0
VERTEX
  5
7C
  8
0
 10
-3.67300009727478
 20
14.9040002822876
 30
205.0
 70
   192
  0
VERTEX
  5
7D
  8
0
 10
14.35200023651123
 20
5.442999839782715
 30
205.0
 70
   192
  0
VERTEX
  5
7E
  8
0
 10
7.133999824523926
 20
-13.59200000762939
 30
205.0
 70
   192
  0
VERTEX
  5
7F
  8
0
 10
12.63300037384033
 20
-8.720000267028809
 30
205.0
 70
   192
  0
VERTEX
  5
80
  8
0
 10
-7.133999824523926
 20
-13.59200000762939
 30
205.0
 70
   192
  0
VERTEX
  5
81
  8
0
 10
0.0
 20
-15.35000038146973
 30
205.0
 70
   192
  0
VERTEX
  5
82
  8
0
 10
10.17899990081787
 20
11.48999977111816
 30
205.0
 70
   192
  0
VERTEX
  5
83
  8
0
 10
-15.23799991607666
 20
-1.850000023841858
 30
205.0
 70
   192
  0
VERTEX
  5
84
  8
0
 10
15.23799991607666
 20
-1.850000023841858
 30
205.0
 70
   192
  0
VERTEX
  5
85
  8
0
 62
     9
 10
0.0
 20
0.0
 30
0.0
 70
   128
 71
     3
 72
     2
 73
     1
  0
VERTEX
  5
86
  8
0
 62
     9
 10
0.0
 20
0.0
 30
0.0
 70
   128
 71
     5
 72
     4
 73
     1
  0
VERTEX
  5
87
  8
0
 62
     9
 10
0.0
 20
0.0
 30
0.0
 70
   128
 71
     8
 72
     7
 73
     6
  0
VERTEX
  5
88
  8
0
 62
     9
 10
0.0
 20
0.0
 30
0.0
 70
   128
 71
     9
 72
     1
 73
     4
  0
VERTEX
  5
89
  8
0
 62
     9
 10
0.0
 20
0.0
 30
0.0
 70
   128
 71
     1
 72
     2
 73
     5
  0
VERTEX
  5
8A
  8
0
 62
     9
 10
0.0
 20
0.0
 30
0.0
 70
   128
 71
    11
 72
     6
 73
    10
  0
VERTEX
  5
8B
  8
0
 62
     9
 10
0.0
 20
0.0
 30
0.0
 70
   128
 71
     7
 72
    10
 73
     6
  0
VERTEX
  5
8C
  8
0
 62
     9
 10
0.0
 20
0.0
 30
0.0
 70
   128
 71
     1
 72
    12
 73
     3
  0
VERTEX
  5
8D
  8
0
 62
     9
 10
0.0
 20
0.0
 30
0.0
 70
   128
 71
     6
 72
    13
 73
     8
  0
VERTEX
  5
8E
  8
0
 62
     9
 10
0.0
 20
0.0
 30
0.0
 70
   128
 71
    10
 72
     4
 73
    11
  0
VERTEX
  5
8F
  8
0
 62
     9
 10
0.0
 20
0.0
 30
0.0
 70
   128
 71
     4
 72
    10
 73
     9
  0
SEQEND
  5
90
  8
0
 62
     9
  0
ENDBLK
  5
93
  8
0
  0
BLOCK
  8
0
  2
E3_NODE_2_
 70
     0
 10
0.0
 20
0.0
 30
0.0
  3
E3_NODE_2_
  1

  0
POLYLINE
  5
95
  8
0
 62
     9
 66
     1
 10
0.0
 20
0.0
 30
0.0
 70
    64
 71
    18
 72
    18
  0
VERTEX
  5
96
  8
0
 10
11.91199970245361
 20
-9.994999885559082
 30
204.0
 70
   192
  0
VERTEX
  5
97
  8
0
 10
11.91199970245361
 20
-9.994999885559082
 30
205.0
 70
   192
  0
VERTEX
  5
98
  8
0
 10
15.55000019073486
 20
0.0
 30
205.0
 70
   192
  0
VERTEX
  5
99
  8
0
 10
2.700000047683716
 20
-15.31400012969971
 30
204.0
 70
   192
  0
VERTEX
  5
9A
  8
0
 10
2.700000047683716
 20
-15.31400012969971
 30
205.0
 70
   192
  0
VERTEX
  5
9B
  8
0
 10
-7.775000095367432
 20
-13.46700000762939
 30
204.0
 70
   192
  0
VERTEX
  5
9C
  8
0
 10
-7.775000095367432
 20
-13.46700000762939
 30
205.0
 70
   192
  0
VERTEX
  5
9D
  8
0
 10
-14.61200046539307
 20
-5.317999839782715
 30
204.0
 70
   192
  0
VERTEX
  5
9E
  8
0
 10
-14.61200046539307
 20
-5.317999839782715
 30
205.0
 70
   192
  0
VERTEX
  5
9F
  8
0
 10
-14.61200046539307
 20
5.317999839782715
 30
204.0
 70
   192
  0
VERTEX
  5
A0
  8
0
 10
-14.61200046539307
 20
5.317999839782715
 30
205.0
 70
   192
  0
VERTEX
  5
A1
  8
0
 10
-7.775000095367432
 20
13.46700000762939
 30
204.0
 70
   192
  0
VERTEX
  5
A2
  8
0
 10
-7.775000095367432
 20
13.46700000762939
 30
205.0
 70
   192
  0
VERTEX
  5
A3
  8
0
 10
2.700000047683716
 20
15.31400012969971
 30
204.0
 70
   192
  0
VERTEX
  5
A4
  8
0
 10
2.700000047683716
 20
15.31400012969971
 30
205.0
 70
   192
  0
VERTEX
  5
A5
  8
0
 10
11.91199970245361
 20
9.994999885559082
 30
204.0
 70
   192
  0
VERTEX
  5
A6
  8
0
 10
11.91199970245361
 20
9.994999885559082
 30
205.0
 70
   192
  0
VERTEX
  5
A7
  8
0
 10
15.55000019073486
 20
0.0
 30
204.0
 70
   192
  0
VERTEX
  5
A8
  8
0
 62
     9
 10
0.0
 20
0.0
 30
0.0
 70
   128
 71
     3
 72
     2
 73
     1
  0
VERTEX
  5
A9
  8
0
 62
     9
 10
0.0
 20
0.0
 30
0.0
 70
   128
 71
     2
 72
     5
 73
     4
  0
VERTEX
  5
AA
  8
0
 62
     9
 10
0.0
 20
0.0
 30
0.0
 70
   128
 71
     5
 72
     7
 73
     6
  0
VERTEX
  5
AB
  8
0
 62
     9
 10
0.0
 20
0.0
 30
0.0
 70
   128
 71
     7
 72
     9
 73
     8
  0
VERTEX
  5
AC
  8
0
 62
     9
 10
0.0
 20
0.0
 30
0.0
 70
   128
 71
     9
 72
    11
 73
    10
  0
VERTEX
  5
AD
  8
0
 62
     9
 10
0.0
 20
0.0
 30
0.0
 70
   128
 71
    11
 72
    13
 73
    12
  0
VERTEX
  5
AE
  8
0
 62
     9
 10
0.0
 20
0.0
 30
0.0
 70
   128
 71
    13
 72
    15
 73
    14
  0
VERTEX
  5
AF
  8
0
 62
     9
 10
0.0
 20
0.0
 30
0.0
 70
   128
 71
    15
 72
    17
 73
    16
  0
VERTEX
  5
B0
  8
0
 62
     9
 10
0.0
 20
0.0
 30
0.0
 70
   128
 71
    17
 72
     3
 73
    18
  0
VERTEX
  5
B1
  8
0
 62
     9
 10
0.0
 20
0.0
 30
0.0
 70
   128
 71
    18
 72
    16
 73
    17
  0
VERTEX
  5
B2
  8
0
 62
     9
 10
0.0
 20
0.0
 30
0.0
 70
   128
 71
    16
 72
    14
 73
    15
  0
VERTEX
  5
B3
  8
0
 62
     9
 10
0.0
 20
0.0
 30
0.0
 70
   128
 71
    14
 72
    12
 73
    13
  0
VERTEX
  5
B4
  8
0
 62
     9
 10
0.0
 20
0.0
 30
0.0
 70
   128
 71
    12
 72
    10
 73
    11
  0
VERTEX
  5
B5
  8
0
 62
     9
 10
0.0
 20
0.0
 30
0.0
 70
   128
 71
    10
 72
     8
 73
     9
  0
VERTEX
  5
B6
  8
0
 62
     9
 10
0.0
 20
0.0
 30
0.0
 70
   128
 71
     8
 72
     6
 73
     7
  0
VERTEX
  5
B7
  8
0
 62
     9
 10
0.0
 20
0.0
 30
0.0
 70
   128
 71
     6
 72
     4
 73
     5
  0
VERTEX
  5
B8
  8
0
 62
     9
 10
0.0
 20
0.0
 30
0.0
 70
   128
 71
     4
 72
     1
 73
     2
  0
VERTEX
  5
B9
  8
0
 62
     9
 10
0.0
 20
0.0
 30
0.0
 70
   128
 71
     1
 72
    18
 73
     3
  0
SEQEND
  5
BA
  8
0
 62
     9
  0
ENDBLK
  5
BD
  8
0
  0
BLOCK
  8
0
  2
E3_NODE_3_
 70
     0
 10
0.0
 20
0.0
 30
0.0
  3
E3_NODE_3_
  1

  0
POLYLINE
  5
BF
  8
0
 62
     9
 66
     1
 10
0.0
 20
0.0
 30
0.0
 70
    64
 71
    19
 72
    19
  0
VERTEX
  5
C0
  8
0
 10
15.55000019073486
 20
0.0
 30
205.0
 70
   192
  0
VERTEX
  5
C1
  8
0
 10
17.0
 20
0.0
 30
205.0
 70
   192
  0
VERTEX
  5
C2
  8
0
 10
16.74200057983398
 20
2.95199990272522
 30
205.0
 70
   192
  0
VERTEX
  5
C3
  8
0
 10
10.92700004577637
 20
13.02299976348877
 30
205.0
 70
   192
  0
VERTEX
  5
C4
  8
0
 10
11.91199970245361
 20
9.994999885559082
 30
205.0
 70
   192
  0
VERTEX
  5
C5
  8
0
 10
0.0
 20
17.0
 30
205.0
 70
   192
  0
VERTEX
  5
C6
  8
0
 10
2.700000047683716
 20
15.31400012969971
 30
205.0
 70
   192
  0
VERTEX
  5
C7
  8
0
 10
-10.92700004577637
 20
13.02299976348877
 30
205.0
 70
   192
  0
VERTEX
  5
C8
  8
0
 10
-16.74200057983398
 20
2.95199990272522
 30
205.0
 70
   192
  0
VERTEX
  5
C9
  8
0
 10
-14.61200046539307
 20
5.317999839782715
 30
205.0
 70
   192
  0
VERTEX
  5
CA
  8
0
 10
-14.72200012207031
 20
-8.5
 30
205.0
 70
   192
  0
VERTEX
  5
CB
  8
0
 10
-14.61200046539307
 20
-5.317999839782715
 30
205.0
 70
   192
  0
VERTEX
  5
CC
  8
0
 10
-7.775000095367432
 20
13.46700000762939
 30
205.0
 70
   192
  0
VERTEX
  5
CD
  8
0
 10
-5.814000129699707
 20
-15.97500038146973
 30
205.0
 70
   192
  0
VERTEX
  5
CE
  8
0
 10
-7.775000095367432
 20
-13.46700000762939
 30
205.0
 70
   192
  0
VERTEX
  5
CF
  8
0
 10
5.814000129699707
 20
-15.97500038146973
 30
205.0
 70
   192
  0
VERTEX
  5
D0
  8
0
 10
14.72200012207031
 20
-8.5
 30
205.0
 70
   192
  0
VERTEX
  5
D1
  8
0
 10
11.91199970245361
 20
-9.994999885559082
 30
205.0
 70
   192
  0
VERTEX
  5
D2
  8
0
 10
2.700000047683716
 20
-15.31400012969971
 30
205.0
 70
   192
  0
VERTEX
  5
D3
  8
0
 62
     9
 10
0.0
 20
0.0
 30
0.0
 70
   128
 71
     3
 72
     2
 73
     1
  0
VERTEX
  5
D4
  8
0
 62
     9
 10
0.0
 20
0.0
 30
0.0
 70
   128
 71
     5
 72
     4
 73
     3
  0
VERTEX
  5
D5
  8
0
 62
     9
 10
0.0
 20
0.0
 30
0.0
 70
   128
 71
     7
 72
     6
 73
     4
  0
VERTEX
  5
D6
  8
0
 62
     9
 10
0.0
 20
0.0
 30
0.0
 70
   128
 71
    10
 72
     9
 73
     8
  0
VERTEX
  5
D7
  8
0
 62
     9
 10
0.0
 20
0.0
 30
0.0
 70
   128
 71
    12
 72
    11
 73
     9
  0
VERTEX
  5
D8
  8
0
 62
     9
 10
0.0
 20
0.0
 30
0.0
 70
   128
 71
     4
 72
     5
 73
     7
  0
VERTEX
  5
D9
  8
0
 62
     9
 10
0.0
 20
0.0
 30
0.0
 70
   128
 71
    13
 72
     8
 73
     6
  0
VERTEX
  5
DA
  8
0
 62
     9
 10
0.0
 20
0.0
 30
0.0
 70
   128
 71
     9
 72
    10
 73
    12
  0
VERTEX
  5
DB
  8
0
 62
     9
 10
0.0
 20
0.0
 30
0.0
 70
   128
 71
    15
 72
    14
 73
    11
  0
VERTEX
  5
DC
  8
0
 62
     9
 10
0.0
 20
0.0
 30
0.0
 70
   128
 71
     6
 72
     7
 73
    13
  0
VERTEX
  5
DD
  8
0
 62
     9
 10
0.0
 20
0.0
 30
0.0
 70
   128
 71
    11
 72
    12
 73
    15
  0
VERTEX
  5
DE
  8
0
 62
     9
 10
0.0
 20
0.0
 30
0.0
 70
   128
 71
    18
 72
    17
 73
    16
  0
VERTEX
  5
DF
  8
0
 62
     9
 10
0.0
 20
0.0
 30
0.0
 70
   128
 71
    17
 72
    18
 73
     1
  0
VERTEX
  5
E0
  8
0
 62
     9
 10
0.0
 20
0.0
 30
0.0
 70
   128
 71
     8
 72
    13
 73
    10
  0
VERTEX
  5
E1
  8
0
 62
     9
 10
0.0
 20
0.0
 30
0.0
 70
   128
 71
    19
 72
    16
 73
    14
  0
VERTEX
  5
E2
  8
0
 62
     9
 10
0.0
 20
0.0
 30
0.0
 70
   128
 71
     1
 72
     2
 73
    17
  0
VERTEX
  5
E3
  8
0
 62
     9
 10
0.0
 20
0.0
 30
0.0
 70
   128
 71
    14
 72
    15
 73
    19
  0
VERTEX
  5
E4
  8
0
 62
     9
 10
0.0
 20
0.0
 30
0.0
 70
   128
 71
     1
 72
     5
 73
     3
  0
VERTEX
  5
E5
  8
0
 62
     9
 10
0.0
 20
0.0
 30
0.0
 70
   128
 71
    16
 72
    19
 73
    18
  0
SEQEND
  5
E6
  8
0
 62
     9
  0
ENDBLK
  5
E9
  8
0
  0
BLOCK
  8
0
  2
E3_NODE_4_
 70
     0
 10
0.0
 20
0.0
 30
0.0
  3
E3_NODE_4_
  1

  0
POLYLINE
  5
EB
  8
0
 62
     9
 66
     1
 10
0.0
 20
0.0
 30
0.0
 70
    64
 71
    35
 72
    35
  0
VERTEX
  5
EC
  8
0
 10
0.0
 20
17.0
 30
205.0
 70
   192
  0
VERTEX
  5
ED
  8
0
 10
10.92700004577637
 20
13.02299976348877
 30
205.0
 70
   192
  0
VERTEX
  5
EE
  8
0
 10
6.215000152587891
 20
14.73799991607666
 30
143.3090057373047
 70
   192
  0
VERTEX
  5
EF
  8
0
 10
10.92700004577637
 20
13.02299976348877
 30
143.3090057373047
 70
   192
  0
VERTEX
  5
F0
  8
0
 10
16.74200057983398
 20
2.95199990272522
 30
205.0
 70
   192
  0
VERTEX
  5
F1
  8
0
 10
14.95499992370605
 20
6.046000003814697
 30
143.3090057373047
 70
   192
  0
VERTEX
  5
F2
  8
0
 10
11.65100002288818
 20
11.77000045776367
 30
143.3090057373047
 70
   192
  0
VERTEX
  5
F3
  8
0
 10
16.74200057983398
 20
2.95199990272522
 30
143.3090057373047
 70
   192
  0
VERTEX
  5
F4
  8
0
 10
17.0
 20
0.0
 30
205.0
 70
   192
  0
VERTEX
  5
F5
  8
0
 10
14.72200012207031
 20
-8.5
 30
205.0
 70
   192
  0
VERTEX
  5
F6
  8
0
 10
15.0959997177124
 20
-6.382999897003174
 30
143.3090057373047
 70
   192
  0
VERTEX
  5
F7
  8
0
 10
14.72200012207031
 20
-8.5
 30
143.3090057373047
 70
   192
  0
VERTEX
  5
F8
  8
0
 10
16.24300003051758
 20
0.125
 30
143.3090057373047
 70
   192
  0
VERTEX
  5
F9
  8
0
 10
5.814000129699707
 20
-15.97500038146973
 30
205.0
 70
   192
  0
VERTEX
  5
FA
  8
0
 10
6.39799976348877
 20
-15.48499965667725
 30
143.3090057373047
 70
   192
  0
VERTEX
  5
FB
  8
0
 10
11.43299961090088
 20
-11.26000022888184
 30
143.3090057373047
 70
   192
  0
VERTEX
  5
FC
  8
0
 10
5.814000129699707
 20
-15.97500038146973
 30
143.3090057373047
 70
   192
  0
VERTEX
  5
FD
  8
0
 10
-5.814000129699707
 20
-15.97500038146973
 30
205.0
 70
   192
  0
VERTEX
  5
FE
  8
0
 10
-5.814000129699707
 20
-15.97500038146973
 30
143.3090057373047
 70
   192
  0
VERTEX
  5
FF
  8
0
 10
0.0759999975562096
 20
-15.97500038146973
 30
143.3090057373047
 70
   192
  0
VERTEX
  5
100
  8
0
 10
-14.72200012207031
 20
-8.5
 30
205.0
 70
   192
  0
VERTEX
  5
101
  8
0
 10
-11.4350004196167
 20
-11.25899982452393
 30
143.3090057373047
 70
   192
  0
VERTEX
  5
102
  8
0
 10
-6.318999767303467
 20
-15.55099964141846
 30
143.3090057373047
 70
   192
  0
VERTEX
  5
103
  8
0
 10
-14.72200012207031
 20
-8.5
 30
143.3090057373047
 70
   192
  0
VERTEX
  5
104
  8
0
 10
-16.74200057983398
 20
2.95199990272522
 30
205.0
 70
   192
  0
VERTEX
  5
105
  8
0
 10
-16.2450008392334
 20
0.1340000033378601
 30
143.3090057373047
 70
   192
  0
VERTEX
  5
106
  8
0
 10
-15.11299991607666
 20
-6.282000064849854
 30
143.3090057373047
 70
   192
  0
VERTEX
  5
107
  8
0
 10
-16.74200057983398
 20
2.95199990272522
 30
143.3090057373047
 70
   192
  0
VERTEX
  5
108
  8
0
 10
-11.73700046539307
 20
11.80900001525879
 30
143.3090057373047
 70
   192
  0
VERTEX
  5
109
  8
0
 10
-15.01900005340576
 20
6.0
 30
143.3090057373047
 70
   192
  0
VERTEX
  5
10A
  8
0
 10
-11.16699981689453
 20
12.81799983978271
 30
143.3090057373047
 70
   192
  0
VERTEX
  5
10B
  8
0
 10
-10.92700004577637
 20
13.02299976348877
 30
205.0
 70
   192
  0
VERTEX
  5
10C
  8
0
 10
-10.92700004577637
 20
13.02299976348877
 30
143.3090057373047
 70
   192
  0
VERTEX
  5
10D
  8
0
 10
0.0
 20
17.0
 30
143.3090057373047
 70
   192
  0
VERTEX
  5
10E
  8
0
 10
-6.120999813079834
 20
14.77200031280518
 30
143.3090057373047
 70
   192
  0
VERTEX
  5
10F
  8
0
 62
     9
 10
0.0
 20
0.0
 30
0.0
 70
   128
 71
     3
 72
     2
 73
     1
  0
VERTEX
  5
110
  8
0
 62
     9
 10
0.0
 20
0.0
 30
0.0
 70
   128
 71
     3
 72
     4
 73
     2
  0
VERTEX
  5
111
  8
0
 62
     9
 10
0.0
 20
0.0
 30
0.0
 70
   128
 71
     6
 72
     5
 73
     2
  0
VERTEX
  5
112
  8
0
 62
     9
 10
0.0
 20
0.0
 30
0.0
 70
   128
 71
     2
 72
     7
 73
     6
  0
VERTEX
  5
113
  8
0
 62
     9
 10
0.0
 20
0.0
 30
0.0
 70
   128
 71
     6
 72
     8
 73
     5
  0
VERTEX
  5
114
  8
0
 62
     9
 10
0.0
 20
0.0
 30
0.0
 70
   128
 71
    11
 72
    10
 73
     9
  0
VERTEX
  5
115
  8
0
 62
     9
 10
0.0
 20
0.0
 30
0.0
 70
   128
 71
    11
 72
    12
 73
    10
  0
VERTEX
  5
116
  8
0
 62
     9
 10
0.0
 20
0.0
 30
0.0
 70
   128
 71
    13
 72
     9
 73
     5
  0
VERTEX
  5
117
  8
0
 62
     9
 10
0.0
 20
0.0
 30
0.0
 70
   128
 71
     5
 72
     8
 73
    13
  0
VERTEX
  5
118
  8
0
 62
     9
 10
0.0
 20
0.0
 30
0.0
 70
   128
 71
    16
 72
    15
 73
    14
  0
VERTEX
  5
119
  8
0
 62
     9
 10
0.0
 20
0.0
 30
0.0
 70
   128
 71
    14
 72
    10
 73
    16
  0
VERTEX
  5
11A
  8
0
 62
     9
 10
0.0
 20
0.0
 30
0.0
 70
   128
 71
    15
 72
    17
 73
    14
  0
VERTEX
  5
11B
  8
0
 62
     9
 10
0.0
 20
0.0
 30
0.0
 70
   128
 71
    20
 72
    19
 73
    18
  0
VERTEX
  5
11C
  8
0
 62
     9
 10
0.0
 20
0.0
 30
0.0
 70
   128
 71
    18
 72
    14
 73
    20
  0
VERTEX
  5
11D
  8
0
 62
     9
 10
0.0
 20
0.0
 30
0.0
 70
   128
 71
    22
 72
    21
 73
    18
  0
VERTEX
  5
11E
  8
0
 62
     9
 10
0.0
 20
0.0
 30
0.0
 70
   128
 71
    18
 72
    23
 73
    22
  0
VERTEX
  5
11F
  8
0
 62
     9
 10
0.0
 20
0.0
 30
0.0
 70
   128
 71
    22
 72
    24
 73
    21
  0
VERTEX
  5
120
  8
0
 62
     9
 10
0.0
 20
0.0
 30
0.0
 70
   128
 71
    26
 72
    25
 73
    21
  0
VERTEX
  5
121
  8
0
 62
     9
 10
0.0
 20
0.0
 30
0.0
 70
   128
 71
    21
 72
    27
 73
    26
  0
VERTEX
  5
122
  8
0
 62
     9
 10
0.0
 20
0.0
 30
0.0
 70
   128
 71
    26
 72
    28
 73
    25
  0
VERTEX
  5
123
  8
0
 62
     9
 10
0.0
 20
0.0
 30
0.0
 70
   128
 71
    30
 72
    29
 73
    25
  0
VERTEX
  5
124
  8
0
 62
     9
 10
0.0
 20
0.0
 30
0.0
 70
   128
 71
    29
 72
    31
 73
    25
  0
VERTEX
  5
125
  8
0
 62
     9
 10
0.0
 20
0.0
 30
0.0
 70
   128
 71
    31
 72
    33
 73
    32
  0
VERTEX
  5
126
  8
0
 62
     9
 10
0.0
 20
0.0
 30
0.0
 70
   128
 71
    32
 72
    25
 73
    31
  0
VERTEX
  5
127
  8
0
 62
     9
 10
0.0
 20
0.0
 30
0.0
 70
   128
 71
    25
 72
    28
 73
    30
  0
VERTEX
  5
128
  8
0
 62
     9
 10
0.0
 20
0.0
 30
0.0
 70
   128
 71
    35
 72
    34
 73
     1
  0
VERTEX
  5
129
  8
0
 62
     9
 10
0.0
 20
0.0
 30
0.0
 70
   128
 71
     1
 72
    32
 73
    35
  0
VERTEX
  5
12A
  8
0
 62
     9
 10
0.0
 20
0.0
 30
0.0
 70
   128
 71
    32
 72
    33
 73
    35
  0
VERTEX
  5
12B
  8
0
 62
     9
 10
0.0
 20
0.0
 30
0.0
 70
   128
 71
    21
 72
    24
 73
    27
  0
VERTEX
  5
12C
  8
0
 62
     9
 10
0.0
 20
0.0
 30
0.0
 70
   128
 71
    18
 72
    19
 73
    23
  0
VERTEX
  5
12D
  8
0
 62
     9
 10
0.0
 20
0.0
 30
0.0
 70
   128
 71
    14
 72
    17
 73
    20
  0
VERTEX
  5
12E
  8
0
 62
     9
 10
0.0
 20
0.0
 30
0.0
 70
   128
 71
    10
 72
    12
 73
    16
  0
VERTEX
  5
12F
  8
0
 62
     9
 10
0.0
 20
0.0
 30
0.0
 70
   128
 71
     9
 72
    13
 73
    11
  0
VERTEX
  5
130
  8
0
 62
     9
 10
0.0
 20
0.0
 30
0.0
 70
   128
 71
     2
 72
     4
 73
     7
  0
VERTEX
  5
131
  8
0
 62
     9
 10
0.0
 20
0.0
 30
0.0
 70
   128
 71
     1
 72
    34
 73
     3
  0
SEQEND
  5
132
  8
0
 62
     9
  0
ENDBLK
  5
135
  8
0
  0
BLOCK
  8
0
  2
E3_NODE_5_
 70
     0
 10
0.0
 20
0.0
 30
0.0
  3
E3_NODE_5_
  1

  0
POLYLINE
  5
137
  8
0
 62
     9
 66
     1
 10
0.0
 20
0.0
 30
0.0
 70
    64
 71
    65
 72
    81
  0
VERTEX
  5
138
  8
0
 10
16.24300003051758
 20
0.125
 30
143.3090057373047
 70
   192
  0
VERTEX
  5
139
  8
0
 10
15.0959997177124
 20
-6.382999897003174
 30
143.3090057373047
 70
   192
  0
VERTEX
  5
13A
  8
0
 10
15.49400043487549
 20
-6.401000022888184
 30
131.3300018310547
 70
   192
  0
VERTEX
  5
13B
  8
0
 10
16.76399993896484
 20
-0.0089999996125698
 30
131.3300018310547
 70
   192
  0
VERTEX
  5
13C
  8
0
 10
13.24499988555908
 20
-5.599999904632568
 30
119.4919967651367
 70
   192
  0
VERTEX
  5
13D
  8
0
 10
-15.52600002288818
 20
6.322000026702881
 30
131.3300018310547
 70
   192
  0
VERTEX
  5
13E
  8
0
 10
-16.76399993896484
 20
0.0010000000474975
 30
131.3309936523438
 70
   192
  0
VERTEX
  5
13F
  8
0
 10
-16.74200057983398
 20
2.95199990272522
 30
143.3090057373047
 70
   192
  0
VERTEX
  5
140
  8
0
 10
-16.2450008392334
 20
0.1340000033378601
 30
143.3090057373047
 70
   192
  0
VERTEX
  5
141
  8
0
 10
-13.1569995880127
 20
5.244999885559082
 30
119.4919967651367
 70
   192
  0
VERTEX
  5
142
  8
0
 10
-14.6899995803833
 20
2.589999914169312
 30
119.4919967651367
 70
   192
  0
VERTEX
  5
143
  8
0
 10
0.0750000029802322
 20
-16.76399993896484
 30
131.3300018310547
 70
   192
  0
VERTEX
  5
144
  8
0
 10
0.0759999975562096
 20
-15.97500038146973
 30
143.3090057373047
 70
   192
  0
VERTEX
  5
145
  8
0
 10
-5.814000129699707
 20
-15.97500038146973
 30
143.3090057373047
 70
   192
  0
VERTEX
  5
146
  8
0
 10
-6.374000072479248
 20
-15.50500011444092
 30
131.3300018310547
 70
   192
  0
VERTEX
  5
147
  8
0
 10
6.472000122070312
 20
-15.46399974822998
 30
131.3300018310547
 70
   192
  0
VERTEX
  5
148
  8
0
 10
11.88099956512451
 20
-11.82699966430664
 30
131.3300018310547
 70
   192
  0
VERTEX
  5
149
  8
0
 10
11.43299961090088
 20
-11.26000022888184
 30
143.3090057373047
 70
   192
  0
VERTEX
  5
14A
  8
0
 10
14.72200012207031
 20
-8.5
 30
143.3090057373047
 70
   192
  0
VERTEX
  5
14B
  8
0
 10
5.814000129699707
 20
-15.97500038146973
 30
143.3090057373047
 70
   192
  0
VERTEX
  5
14C
  8
0
 10
6.39799976348877
 20
-15.48499965667725
 30
143.3090057373047
 70
   192
  0
VERTEX
  5
14D
  8
0
 10
-11.88199996948242
 20
-11.82499980926514
 30
131.3300018310547
 70
   192
  0
VERTEX
  5
14E
  8
0
 10
-11.4350004196167
 20
-11.25899982452393
 30
143.3090057373047
 70
   192
  0
VERTEX
  5
14F
  8
0
 10
-14.72200012207031
 20
-8.5
 30
143.3090057373047
 70
   192
  0
VERTEX
  5
150
  8
0
 10
-15.53299999237061
 20
-6.306000232696533
 30
131.3300018310547
 70
   192
  0
VERTEX
  5
151
  8
0
 10
-6.318999767303467
 20
-15.55099964141846
 30
143.3090057373047
 70
   192
  0
VERTEX
  5
152
  8
0
 10
-5.10200023651123
 20
-14.01700019836426
 30
119.4919967651367
 70
   192
  0
VERTEX
  5
153
  8
0
 10
-5.544000148773193
 20
-13.64500045776367
 30
119.4919967651367
 70
   192
  0
VERTEX
  5
154
  8
0
 10
5.613999843597412
 20
-13.58699989318848
 30
119.4919967651367
 70
   192
  0
VERTEX
  5
155
  8
0
 10
10.0310001373291
 20
-9.880000114440918
 30
119.4919967651367
 70
   192
  0
VERTEX
  5
156
  8
0
 10
12.91800022125244
 20
-7.458000183105469
 30
119.4919967651367
 70
   192
  0
VERTEX
  5
157
  8
0
 10
0.0670000016689301
 20
-14.01700019836426
 30
119.4919967651367
 70
   192
  0
VERTEX
  5
158
  8
0
 10
5.10200023651123
 20
-14.01700019836426
 30
119.4919967651367
 70
   192
  0
VERTEX
  5
159
  8
0
 10
-12.91800022125244
 20
-7.458000183105469
 30
119.4919967651367
 70
   192
  0
VERTEX
  5
15A
  8
0
 10
-13.26099967956543
 20
-5.51200008392334
 30
119.4919967651367
 70
   192
  0
VERTEX
  5
15B
  8
0
 10
-10.03299999237061
 20
-9.878999710083008
 30
119.4919967651367
 70
   192
  0
VERTEX
  5
15C
  8
0
 10
-14.25399971008301
 20
0.1180000007152557
 30
119.4919967651367
 70
   192
  0
VERTEX
  5
15D
  8
0
 10
6.467999935150146
 20
15.46599960327148
 30
131.3300018310547
 70
   192
  0
VERTEX
  5
15E
  8
0
 10
5.453000068664551
 20
12.93200016021729
 30
119.4919967651367
 70
   192
  0
VERTEX
  5
15F
  8
0
 10
0.0
 20
14.91600036621094
 30
119.4919967651367
 70
   192
  0
VERTEX
  5
160
  8
0
 10
-6.376999855041504
 20
15.50399971008301
 30
131.3300018310547
 70
   192
  0
VERTEX
  5
161
  8
0
 10
-5.370999813079834
 20
12.96199989318848
 30
119.4919967651367
 70
   192
  0
VERTEX
  5
162
  8
0
 10
-9.588000297546387
 20
11.42700004577637
 30
119.4919967651367
 70
   192
  0
VERTEX
  5
163
  8
0
 10
-11.88599967956543
 20
11.82100009918213
 30
131.3300018310547
 70
   192
  0
VERTEX
  5
164
  8
0
 10
-10.22799968719482
 20
10.31700038909912
 30
119.4919967651367
 70
   192
  0
VERTEX
  5
165
  8
0
 10
0.0729999989271164
 20
16.76399993896484
 30
131.3300018310547
 70
   192
  0
VERTEX
  5
166
  8
0
 10
15.49600028991699
 20
6.394000053405762
 30
131.3300018310547
 70
   192
  0
VERTEX
  5
167
  8
0
 10
13.12199974060059
 20
5.304999828338623
 30
119.4919967651367
 70
   192
  0
VERTEX
  5
168
  8
0
 10
10.22299957275391
 20
10.32699966430664
 30
119.4919967651367
 70
   192
  0
VERTEX
  5
169
  8
0
 10
11.8769998550415
 20
11.82999992370605
 30
131.3300018310547
 70
   192
  0
VERTEX
  5
16A
  8
0
 10
9.588000297546387
 20
11.42700004577637
 30
119.4919967651367
 70
   192
  0
VERTEX
  5
16B
  8
0
 10
14.6899995803833
 20
2.589999914169312
 30
119.4919967651367
 70
   192
  0
VERTEX
  5
16C
  8
0
 10
14.2519998550415
 20
0.1089999973773956
 30
119.4919967651367
 70
   192
  0
VERTEX
  5
16D
  8
0
 10
0.0
 20
17.0
 30
143.3090057373047
 70
   192
  0
VERTEX
  5
16E
  8
0
 10
6.215000152587891
 20
14.73799991607666
 30
143.3090057373047
 70
   192
  0
VERTEX
  5
16F
  8
0
 10
-10.92700004577637
 20
13.02299976348877
 30
143.3090057373047
 70
   192
  0
VERTEX
  5
170
  8
0
 10
-11.73700046539307
 20
11.80900001525879
 30
143.3090057373047
 70
   192
  0
VERTEX
  5
171
  8
0
 10
-11.16699981689453
 20
12.81799983978271
 30
143.3090057373047
 70
   192
  0
VERTEX
  5
172
  8
0
 10
-15.01900005340576
 20
6.0
 30
143.3090057373047
 70
   192
  0
VERTEX
  5
173
  8
0
 10
-6.120999813079834
 20
14.77200031280518
 30
143.3090057373047
 70
   192
  0
VERTEX
  5
174
  8
0
 10
14.95499992370605
 20
6.046000003814697
 30
143.3090057373047
 70
   192
  0
VERTEX
  5
175
  8
0
 10
10.92700004577637
 20
13.02299976348877
 30
143.3090057373047
 70
   192
  0
VERTEX
  5
176
  8
0
 10
16.74200057983398
 20
2.95199990272522
 30
143.3090057373047
 70
   192
  0
VERTEX
  5
177
  8
0
 10
11.65100002288818
 20
11.77000045776367
 30
143.3090057373047
 70
   192
  0
VERTEX
  5
178
  8
0
 10
-15.11299991607666
 20
-6.282000064849854
 30
143.3090057373047
 70
   192
  0
VERTEX
  5
179
  8
0
 62
     9
 10
0.0
 20
0.0
 30
0.0
 70
   128
 71
     3
 72
     2
 73
     1
  0
VERTEX
  5
17A
  8
0
 62
     9
 10
0.0
 20
0.0
 30
0.0
 70
   128
 71
     5
 72
     3
 73
     4
  0
VERTEX
  5
17B
  8
0
 62
     9
 10
0.0
 20
0.0
 30
0.0
 70
   128
 71
     8
 72
     7
 73
     6
  0
VERTEX
  5
17C
  8
0
 62
     9
 10
0.0
 20
0.0
 30
0.0
 70
   128
 71
     8
 72
     9
 73
     7
  0
VERTEX
  5
17D
  8
0
 62
     9
 10
0.0
 20
0.0
 30
0.0
 70
   128
 71
    11
 72
    10
 73
     6
  0
VERTEX
  5
17E
  8
0
 62
     9
 10
0.0
 20
0.0
 30
0.0
 70
   128
 71
     6
 72
     7
 73
    11
  0
VERTEX
  5
17F
  8
0
 62
     9
 10
0.0
 20
0.0
 30
0.0
 70
   128
 71
    14
 72
    13
 73
    12
  0
VERTEX
  5
180
  8
0
 62
     9
 10
0.0
 20
0.0
 30
0.0
 70
   128
 71
    12
 72
    15
 73
    14
  0
VERTEX
  5
181
  8
0
 62
     9
 10
0.0
 20
0.0
 30
0.0
 70
   128
 71
    18
 72
    17
 73
    16
  0
VERTEX
  5
182
  8
0
 62
     9
 10
0.0
 20
0.0
 30
0.0
 70
   128
 71
    19
 72
     3
 73
    17
  0
VERTEX
  5
183
  8
0
 62
     9
 10
0.0
 20
0.0
 30
0.0
 70
   128
 71
    19
 72
     2
 73
     3
  0
VERTEX
  5
184
  8
0
 62
     9
 10
0.0
 20
0.0
 30
0.0
 70
   128
 71
    20
 72
    16
 73
    12
  0
VERTEX
  5
185
  8
0
 62
     9
 10
0.0
 20
0.0
 30
0.0
 70
   128
 71
    20
 72
    21
 73
    16
  0
VERTEX
  5
186
  8
0
 62
     9
 10
0.0
 20
0.0
 30
0.0
 70
   128
 71
    24
 72
    23
 73
    22
  0
VERTEX
  5
187
  8
0
 62
     9
 10
0.0
 20
0.0
 30
0.0
 70
   128
 71
    22
 72
    25
 73
    24
  0
VERTEX
  5
188
  8
0
 62
     9
 10
0.0
 20
0.0
 30
0.0
 70
   128
 71
    23
 72
    26
 73
    15
  0
VERTEX
  5
189
  8
0
 62
     9
 10
0.0
 20
0.0
 30
0.0
 70
   128
 71
    25
 72
     7
 73
     9
  0
VERTEX
  5
18A
  8
0
 62
     9
 10
0.0
 20
0.0
 30
0.0
 70
   128
 71
    27
 72
    15
 73
    12
  0
VERTEX
  5
18B
  8
0
 62
     9
 10
0.0
 20
0.0
 30
0.0
 70
   128
 71
    27
 72
    28
 73
    15
  0
VERTEX
  5
18C
  8
0
 62
     9
 10
0.0
 20
0.0
 30
0.0
 70
   128
 71
    29
 72
    16
 73
    17
  0
VERTEX
  5
18D
  8
0
 62
     9
 10
0.0
 20
0.0
 30
0.0
 70
   128
 71
    31
 72
    30
 73
    17
  0
VERTEX
  5
18E
  8
0
 62
     9
 10
0.0
 20
0.0
 30
0.0
 70
   128
 71
    17
 72
     3
 73
    31
  0
VERTEX
  5
18F
  8
0
 62
     9
 10
0.0
 20
0.0
 30
0.0
 70
   128
 71
    33
 72
    32
 73
    12
  0
VERTEX
  5
190
  8
0
 62
     9
 10
0.0
 20
0.0
 30
0.0
 70
   128
 71
    12
 72
    16
 73
    33
  0
VERTEX
  5
191
  8
0
 62
     9
 10
0.0
 20
0.0
 30
0.0
 70
   128
 71
    34
 72
    25
 73
    22
  0
VERTEX
  5
192
  8
0
 62
     9
 10
0.0
 20
0.0
 30
0.0
 70
   128
 71
    34
 72
    35
 73
    25
  0
VERTEX
  5
193
  8
0
 62
     9
 10
0.0
 20
0.0
 30
0.0
 70
   128
 71
    28
 72
    36
 73
    22
  0
VERTEX
  5
194
  8
0
 62
     9
 10
0.0
 20
0.0
 30
0.0
 70
   128
 71
    35
 72
    37
 73
     7
  0
VERTEX
  5
195
  8
0
 62
     9
 10
0.0
 20
0.0
 30
0.0
 70
   128
 71
    40
 72
    39
 73
    38
  0
VERTEX
  5
196
  8
0
 62
     9
 10
0.0
 20
0.0
 30
0.0
 70
   128
 71
    43
 72
    42
 73
    41
  0
VERTEX
  5
197
  8
0
 62
     9
 10
0.0
 20
0.0
 30
0.0
 70
   128
 71
    41
 72
    44
 73
    43
  0
VERTEX
  5
198
  8
0
 62
     9
 10
0.0
 20
0.0
 30
0.0
 70
   128
 71
    45
 72
    44
 73
     6
  0
VERTEX
  5
199
  8
0
 62
     9
 10
0.0
 20
0.0
 30
0.0
 70
   128
 71
    40
 72
    46
 73
    41
  0
VERTEX
  5
19A
  8
0
 62
     9
 10
0.0
 20
0.0
 30
0.0
 70
   128
 71
    49
 72
    48
 73
    47
  0
VERTEX
  5
19B
  8
0
 62
     9
 10
0.0
 20
0.0
 30
0.0
 70
   128
 71
    51
 72
    50
 73
    38
  0
VERTEX
  5
19C
  8
0
 62
     9
 10
0.0
 20
0.0
 30
0.0
 70
   128
 71
    51
 72
    49
 73
    50
  0
VERTEX
  5
19D
  8
0
 62
     9
 10
0.0
 20
0.0
 30
0.0
 70
   128
 71
    52
 72
     4
 73
    47
  0
VERTEX
  5
19E
  8
0
 62
     9
 10
0.0
 20
0.0
 30
0.0
 70
   128
 71
    52
 72
    53
 73
     4
  0
VERTEX
  5
19F
  8
0
 62
     9
 10
0.0
 20
0.0
 30
0.0
 70
   128
 71
    55
 72
    54
 73
    46
  0
VERTEX
  5
1A0
  8
0
 62
     9
 10
0.0
 20
0.0
 30
0.0
 70
   128
 71
    56
 72
    44
 73
    41
  0
VERTEX
  5
1A1
  8
0
 62
     9
 10
0.0
 20
0.0
 30
0.0
 70
   128
 71
    58
 72
    57
 73
    44
  0
VERTEX
  5
1A2
  8
0
 62
     9
 10
0.0
 20
0.0
 30
0.0
 70
   128
 71
    44
 72
    56
 73
    58
  0
VERTEX
  5
1A3
  8
0
 62
     9
 10
0.0
 20
0.0
 30
0.0
 70
   128
 71
    44
 72
    57
 73
    59
  0
VERTEX
  5
1A4
  8
0
 62
     9
 10
0.0
 20
0.0
 30
0.0
 70
   128
 71
    60
 72
    41
 73
    46
  0
VERTEX
  5
1A5
  8
0
 62
     9
 10
0.0
 20
0.0
 30
0.0
 70
   128
 71
    50
 72
    47
 73
    61
  0
VERTEX
  5
1A6
  8
0
 62
     9
 10
0.0
 20
0.0
 30
0.0
 70
   128
 71
    62
 72
    55
 73
    38
  0
VERTEX
  5
1A7
  8
0
 62
     9
 10
0.0
 20
0.0
 30
0.0
 70
   128
 71
    38
 72
    50
 73
    62
  0
VERTEX
  5
1A8
  8
0
 62
     9
 10
0.0
 20
0.0
 30
0.0
 70
   128
 71
    63
 72
    61
 73
    47
  0
VERTEX
  5
1A9
  8
0
 62
     9
 10
0.0
 20
0.0
 30
0.0
 70
   128
 71
    47
 72
     4
 73
    63
  0
VERTEX
  5
1AA
  8
0
 62
     9
 10
0.0
 20
0.0
 30
0.0
 70
   128
 71
     4
 72
     1
 73
    63
  0
VERTEX
  5
1AB
  8
0
 62
     9
 10
0.0
 20
0.0
 30
0.0
 70
   128
 71
    50
 72
    64
 73
    62
  0
VERTEX
  5
1AC
  8
0
 62
     9
 10
0.0
 20
0.0
 30
0.0
 70
   128
 71
    61
 72
    64
 73
    50
  0
VERTEX
  5
1AD
  8
0
 62
     9
 10
0.0
 20
0.0
 30
0.0
 70
   128
 71
    46
 72
    54
 73
    60
  0
VERTEX
  5
1AE
  8
0
 62
     9
 10
0.0
 20
0.0
 30
0.0
 70
   128
 71
    59
 72
     6
 73
    44
  0
VERTEX
  5
1AF
  8
0
 62
     9
 10
0.0
 20
0.0
 30
0.0
 70
   128
 71
    41
 72
    60
 73
    56
  0
VERTEX
  5
1B0
  8
0
 62
     9
 10
0.0
 20
0.0
 30
0.0
 70
   128
 71
    46
 72
    38
 73
    55
  0
VERTEX
  5
1B1
  8
0
 62
     9
 10
0.0
 20
0.0
 30
0.0
 70
   128
 71
    47
 72
    48
 73
    52
  0
VERTEX
  5
1B2
  8
0
 62
     9
 10
0.0
 20
0.0
 30
0.0
 70
   128
 71
    38
 72
    39
 73
    51
  0
VERTEX
  5
1B3
  8
0
 62
     9
 10
0.0
 20
0.0
 30
0.0
 70
   128
 71
    47
 72
    50
 73
    49
  0
VERTEX
  5
1B4
  8
0
 62
     9
 10
0.0
 20
0.0
 30
0.0
 70
   128
 71
    41
 72
    42
 73
    40
  0
VERTEX
  5
1B5
  8
0
 62
     9
 10
0.0
 20
0.0
 30
0.0
 70
   128
 71
     6
 72
    10
 73
    45
  0
VERTEX
  5
1B6
  8
0
 62
     9
 10
0.0
 20
0.0
 30
0.0
 70
   128
 71
    44
 72
    45
 73
    43
  0
VERTEX
  5
1B7
  8
0
 62
     9
 10
0.0
 20
0.0
 30
0.0
 70
   128
 71
    38
 72
    46
 73
    40
  0
VERTEX
  5
1B8
  8
0
 62
     9
 10
0.0
 20
0.0
 30
0.0
 70
   128
 71
     7
 72
    25
 73
    35
  0
VERTEX
  5
1B9
  8
0
 62
     9
 10
0.0
 20
0.0
 30
0.0
 70
   128
 71
    22
 72
    15
 73
    28
  0
VERTEX
  5
1BA
  8
0
 62
     9
 10
0.0
 20
0.0
 30
0.0
 70
   128
 71
    22
 72
    36
 73
    34
  0
VERTEX
  5
1BB
  8
0
 62
     9
 10
0.0
 20
0.0
 30
0.0
 70
   128
 71
    16
 72
    29
 73
    33
  0
VERTEX
  5
1BC
  8
0
 62
     9
 10
0.0
 20
0.0
 30
0.0
 70
   128
 71
     3
 72
     5
 73
    31
  0
VERTEX
  5
1BD
  8
0
 62
     9
 10
0.0
 20
0.0
 30
0.0
 70
   128
 71
    17
 72
    30
 73
    29
  0
VERTEX
  5
1BE
  8
0
 62
     9
 10
0.0
 20
0.0
 30
0.0
 70
   128
 71
    12
 72
    32
 73
    27
  0
VERTEX
  5
1BF
  8
0
 62
     9
 10
0.0
 20
0.0
 30
0.0
 70
   128
 71
     9
 72
    65
 73
    25
  0
VERTEX
  5
1C0
  8
0
 62
     9
 10
0.0
 20
0.0
 30
0.0
 70
   128
 71
    15
 72
    22
 73
    23
  0
VERTEX
  5
1C1
  8
0
 62
     9
 10
0.0
 20
0.0
 30
0.0
 70
   128
 71
    25
 72
    65
 73
    24
  0
VERTEX
  5
1C2
  8
0
 62
     9
 10
0.0
 20
0.0
 30
0.0
 70
   128
 71
    12
 72
    13
 73
    20
  0
VERTEX
  5
1C3
  8
0
 62
     9
 10
0.0
 20
0.0
 30
0.0
 70
   128
 71
    17
 72
    18
 73
    19
  0
VERTEX
  5
1C4
  8
0
 62
     9
 10
0.0
 20
0.0
 30
0.0
 70
   128
 71
    16
 72
    21
 73
    18
  0
VERTEX
  5
1C5
  8
0
 62
     9
 10
0.0
 20
0.0
 30
0.0
 70
   128
 71
    15
 72
    26
 73
    14
  0
VERTEX
  5
1C6
  8
0
 62
     9
 10
0.0
 20
0.0
 30
0.0
 70
   128
 71
     7
 72
    37
 73
    11
  0
VERTEX
  5
1C7
  8
0
 62
     9
 10
0.0
 20
0.0
 30
0.0
 70
   128
 71
     6
 72
    59
 73
     8
  0
VERTEX
  5
1C8
  8
0
 62
     9
 10
0.0
 20
0.0
 30
0.0
 70
   128
 71
     4
 72
    53
 73
     5
  0
VERTEX
  5
1C9
  8
0
 62
     9
 10
0.0
 20
0.0
 30
0.0
 70
   128
 71
     1
 72
     4
 73
     3
  0
SEQEND
  5
1CA
  8
0
 62
     9
  0
ENDBLK
  5
1CD
  8
0
  0
BLOCK
  8
0
  2
E3_NODE_6_
 70
     0
 10
0.0
 20
0.0
 30
0.0
  3
E3_NODE_6_
  1

  0
POLYLINE
  5
1CF
  8
0
 62
     9
 66
     1
 10
0.0
 20
0.0
 30
0.0
 70
    64
 71
    49
 72
    49
  0
VERTEX
  5
1D0
  8
0
 10
-9.37399959564209
 20
11.17199993133545
 30
117.6060028076172
 70
   192
  0
VERTEX
  5
1D1
  8
0
 10
-9.588000297546387
 20
11.42700004577637
 30
119.4919967651367
 70
   192
  0
VERTEX
  5
1D2
  8
0
 10
-5.370999813079834
 20
12.96199989318848
 30
119.4919967651367
 70
   192
  0
VERTEX
  5
1D3
  8
0
 10
-5.452000141143799
 20
13.52600002288818
 30
117.6060028076172
 70
   192
  0
VERTEX
  5
1D4
  8
0
 10
-5.498000144958496
 20
13.4980001449585
 30
117.6060028076172
 70
   192
  0
VERTEX
  5
1D5
  8
0
 10
0.0
 20
14.91600036621094
 30
119.4919967651367
 70
   192
  0
VERTEX
  5
1D6
  8
0
 10
0.0
 20
14.58399963378906
 30
117.6060028076172
 70
   192
  0
VERTEX
  5
1D7
  8
0
 10
-10.22799968719482
 20
10.31700038909912
 30
119.4919967651367
 70
   192
  0
VERTEX
  5
1D8
  8
0
 10
-9.97599983215332
 20
10.12899971008301
 30
117.6060028076172
 70
   192
  0
VERTEX
  5
1D9
  8
0
 10
-12.85200023651123
 20
5.14799976348877
 30
117.6060028076172
 70
   192
  0
VERTEX
  5
1DA
  8
0
 10
-13.1569995880127
 20
5.244999885559082
 30
119.4919967651367
 70
   192
  0
VERTEX
  5
1DB
  8
0
 10
-14.36200046539307
 20
2.532000064849854
 30
117.6060028076172
 70
   192
  0
VERTEX
  5
1DC
  8
0
 10
-14.6899995803833
 20
2.589999914169312
 30
119.4919967651367
 70
   192
  0
VERTEX
  5
1DD
  8
0
 10
-13.92000007629395
 20
0.0270000007003546
 30
117.6060028076172
 70
   192
  0
VERTEX
  5
1DE
  8
0
 10
-14.25399971008301
 20
0.1180000007152557
 30
119.4919967651367
 70
   192
  0
VERTEX
  5
1DF
  8
0
 10
-13.26099967956543
 20
-5.51200008392334
 30
119.4919967651367
 70
   192
  0
VERTEX
  5
1E0
  8
0
 10
-12.9350004196167
 20
-5.559000015258789
 30
117.6060028076172
 70
   192
  0
VERTEX
  5
1E1
  8
0
 10
-12.63000011444092
 20
-7.291999816894531
 30
117.6060028076172
 70
   192
  0
VERTEX
  5
1E2
  8
0
 10
-12.91800022125244
 20
-7.458000183105469
 30
119.4919967651367
 70
   192
  0
VERTEX
  5
1E3
  8
0
 10
-10.03299999237061
 20
-9.878999710083008
 30
119.4919967651367
 70
   192
  0
VERTEX
  5
1E4
  8
0
 10
-9.746999740600586
 20
-9.711000442504883
 30
117.6060028076172
 70
   192
  0
VERTEX
  5
1E5
  8
0
 10
-5.434000015258789
 20
-13.32999992370605
 30
117.6060028076172
 70
   192
  0
VERTEX
  5
1E6
  8
0
 10
-5.544000148773193
 20
-13.64500045776367
 30
119.4919967651367
 70
   192
  0
VERTEX
  5
1E7
  8
0
 10
-4.98799991607666
 20
-13.70400047302246
 30
117.6060028076172
 70
   192
  0
VERTEX
  5
1E8
  8
0
 10
-5.10200023651123
 20
-14.01700019836426
 30
119.4919967651367
 70
   192
  0
VERTEX
  5
1E9
  8
0
 10
0.0670000016689301
 20
-14.01700019836426
 30
119.4919967651367
 70
   192
  0
VERTEX
  5
1EA
  8
0
 10
-0.0060000000521541
 20
-13.70400047302246
 30
117.6060028076172
 70
   192
  0
VERTEX
  5
1EB
  8
0
 10
4.98799991607666
 20
-13.70400047302246
 30
117.6060028076172
 70
   192
  0
VERTEX
  5
1EC
  8
0
 10
5.10200023651123
 20
-14.01700019836426
 30
119.4919967651367
 70
   192
  0
VERTEX
  5
1ED
  8
0
 10
5.613999843597412
 20
-13.58699989318848
 30
119.4919967651367
 70
   192
  0
VERTEX
  5
1EE
  8
0
 10
5.432000160217285
 20
-13.33199977874756
 30
117.6060028076172
 70
   192
  0
VERTEX
  5
1EF
  8
0
 10
9.75100040435791
 20
-9.706999778747559
 30
117.6060028076172
 70
   192
  0
VERTEX
  5
1F0
  8
0
 10
10.0310001373291
 20
-9.880000114440918
 30
119.4919967651367
 70
   192
  0
VERTEX
  5
1F1
  8
0
 10
12.63000011444092
 20
-7.291999816894531
 30
117.6060028076172
 70
   192
  0
VERTEX
  5
1F2
  8
0
 10
12.91800022125244
 20
-7.458000183105469
 30
119.4919967651367
 70
   192
  0
VERTEX
  5
1F3
  8
0
 10
13.24499988555908
 20
-5.599999904632568
 30
119.4919967651367
 70
   192
  0
VERTEX
  5
1F4
  8
0
 10
12.93599987030029
 20
-5.553999900817871
 30
117.6060028076172
 70
   192
  0
VERTEX
  5
1F5
  8
0
 10
13.92099952697754
 20
0.0309999994933605
 30
117.6060028076172
 70
   192
  0
VERTEX
  5
1F6
  8
0
 10
14.2519998550415
 20
0.1089999973773956
 30
119.4919967651367
 70
   192
  0
VERTEX
  5
1F7
  8
0
 10
14.36200046539307
 20
2.532000064849854
 30
117.6060028076172
 70
   192
  0
VERTEX
  5
1F8
  8
0
 10
14.6899995803833
 20
2.589999914169312
 30
119.4919967651367
 70
   192
  0
VERTEX
  5
1F9
  8
0
 10
13.12199974060059
 20
5.304999828338623
 30
119.4919967651367
 70
   192
  0
VERTEX
  5
1FA
  8
0
 10
12.85000038146973
 20
5.151999950408936
 30
117.6060028076172
 70
   192
  0
VERTEX
  5
1FB
  8
0
 10
9.972999572753906
 20
10.13399982452393
 30
117.6060028076172
 70
   192
  0
VERTEX
  5
1FC
  8
0
 10
10.22299957275391
 20
10.32699966430664
 30
119.4919967651367
 70
   192
  0
VERTEX
  5
1FD
  8
0
 10
9.37399959564209
 20
11.17199993133545
 30
117.6060028076172
 70
   192
  0
VERTEX
  5
1FE
  8
0
 10
9.588000297546387
 20
11.42700004577637
 30
119.4919967651367
 70
   192
  0
VERTEX
  5
1FF
  8
0
 10
5.214000225067139
 20
12.68599987030029
 30
117.6060028076172
 70
   192
  0
VERTEX
  5
200
  8
0
 10
5.453000068664551
 20
12.93200016021729
 30
119.4919967651367
 70
   192
  0
VERTEX
  5
201
  8
0
 62
     9
 10
0.0
 20
0.0
 30
0.0
 70
   128
 71
     3
 72
     2
 73
     1
  0
VERTEX
  5
202
  8
0
 62
     9
 10
0.0
 20
0.0
 30
0.0
 70
   128
 71
     5
 72
     4
 73
     3
  0
VERTEX
  5
203
  8
0
 62
     9
 10
0.0
 20
0.0
 30
0.0
 70
   128
 71
     7
 72
     6
 73
     3
  0
VERTEX
  5
204
  8
0
 62
     9
 10
0.0
 20
0.0
 30
0.0
 70
   128
 71
     3
 72
     4
 73
     7
  0
VERTEX
  5
205
  8
0
 62
     9
 10
0.0
 20
0.0
 30
0.0
 70
   128
 71
     1
 72
     2
 73
     8
  0
VERTEX
  5
206
  8
0
 62
     9
 10
0.0
 20
0.0
 30
0.0
 70
   128
 71
    10
 72
     9
 73
     8
  0
VERTEX
  5
207
  8
0
 62
     9
 10
0.0
 20
0.0
 30
0.0
 70
   128
 71
     8
 72
    11
 73
    10
  0
VERTEX
  5
208
  8
0
 62
     9
 10
0.0
 20
0.0
 30
0.0
 70
   128
 71
    12
 72
    10
 73
    11
  0
VERTEX
  5
209
  8
0
 62
     9
 10
0.0
 20
0.0
 30
0.0
 70
   128
 71
    11
 72
    13
 73
    12
  0
VERTEX
  5
20A
  8
0
 62
     9
 10
0.0
 20
0.0
 30
0.0
 70
   128
 71
    15
 72
    14
 73
    12
  0
VERTEX
  5
20B
  8
0
 62
     9
 10
0.0
 20
0.0
 30
0.0
 70
   128
 71
    14
 72
    15
 73
    16
  0
VERTEX
  5
20C
  8
0
 62
     9
 10
0.0
 20
0.0
 30
0.0
 70
   128
 71
    16
 72
    17
 73
    14
  0
VERTEX
  5
20D
  8
0
 62
     9
 10
0.0
 20
0.0
 30
0.0
 70
   128
 71
    18
 72
    17
 73
    16
  0
VERTEX
  5
20E
  8
0
 62
     9
 10
0.0
 20
0.0
 30
0.0
 70
   128
 71
    16
 72
    19
 73
    18
  0
VERTEX
  5
20F
  8
0
 62
     9
 10
0.0
 20
0.0
 30
0.0
 70
   128
 71
    18
 72
    19
 73
    20
  0
VERTEX
  5
210
  8
0
 62
     9
 10
0.0
 20
0.0
 30
0.0
 70
   128
 71
    22
 72
    21
 73
    20
  0
VERTEX
  5
211
  8
0
 62
     9
 10
0.0
 20
0.0
 30
0.0
 70
   128
 71
    20
 72
    23
 73
    22
  0
VERTEX
  5
212
  8
0
 62
     9
 10
0.0
 20
0.0
 30
0.0
 70
   128
 71
    23
 72
    25
 73
    24
  0
VERTEX
  5
213
  8
0
 62
     9
 10
0.0
 20
0.0
 30
0.0
 70
   128
 71
    24
 72
    22
 73
    23
  0
VERTEX
  5
214
  8
0
 62
     9
 10
0.0
 20
0.0
 30
0.0
 70
   128
 71
    24
 72
    25
 73
    26
  0
VERTEX
  5
215
  8
0
 62
     9
 10
0.0
 20
0.0
 30
0.0
 70
   128
 71
    28
 72
    27
 73
    26
  0
VERTEX
  5
216
  8
0
 62
     9
 10
0.0
 20
0.0
 30
0.0
 70
   128
 71
    26
 72
    29
 73
    28
  0
VERTEX
  5
217
  8
0
 62
     9
 10
0.0
 20
0.0
 30
0.0
 70
   128
 71
    28
 72
    29
 73
    30
  0
VERTEX
  5
218
  8
0
 62
     9
 10
0.0
 20
0.0
 30
0.0
 70
   128
 71
    32
 72
    31
 73
    30
  0
VERTEX
  5
219
  8
0
 62
     9
 10
0.0
 20
0.0
 30
0.0
 70
   128
 71
    30
 72
    33
 73
    32
  0
VERTEX
  5
21A
  8
0
 62
     9
 10
0.0
 20
0.0
 30
0.0
 70
   128
 71
    34
 72
    32
 73
    33
  0
VERTEX
  5
21B
  8
0
 62
     9
 10
0.0
 20
0.0
 30
0.0
 70
   128
 71
    33
 72
    35
 73
    34
  0
VERTEX
  5
21C
  8
0
 62
     9
 10
0.0
 20
0.0
 30
0.0
 70
   128
 71
    34
 72
    35
 73
    36
  0
VERTEX
  5
21D
  8
0
 62
     9
 10
0.0
 20
0.0
 30
0.0
 70
   128
 71
    38
 72
    37
 73
    36
  0
VERTEX
  5
21E
  8
0
 62
     9
 10
0.0
 20
0.0
 30
0.0
 70
   128
 71
    36
 72
    39
 73
    38
  0
VERTEX
  5
21F
  8
0
 62
     9
 10
0.0
 20
0.0
 30
0.0
 70
   128
 71
    39
 72
    41
 73
    40
  0
VERTEX
  5
220
  8
0
 62
     9
 10
0.0
 20
0.0
 30
0.0
 70
   128
 71
    40
 72
    38
 73
    39
  0
VERTEX
  5
221
  8
0
 62
     9
 10
0.0
 20
0.0
 30
0.0
 70
   128
 71
    40
 72
    41
 73
    42
  0
VERTEX
  5
222
  8
0
 62
     9
 10
0.0
 20
0.0
 30
0.0
 70
   128
 71
    44
 72
    43
 73
    42
  0
VERTEX
  5
223
  8
0
 62
     9
 10
0.0
 20
0.0
 30
0.0
 70
   128
 71
    42
 72
    45
 73
    44
  0
VERTEX
  5
224
  8
0
 62
     9
 10
0.0
 20
0.0
 30
0.0
 70
   128
 71
    46
 72
    44
 73
    45
  0
VERTEX
  5
225
  8
0
 62
     9
 10
0.0
 20
0.0
 30
0.0
 70
   128
 71
    45
 72
    47
 73
    46
  0
VERTEX
  5
226
  8
0
 62
     9
 10
0.0
 20
0.0
 30
0.0
 70
   128
 71
    49
 72
    48
 73
    46
  0
VERTEX
  5
227
  8
0
 62
     9
 10
0.0
 20
0.0
 30
0.0
 70
   128
 71
    48
 72
    49
 73
     6
  0
VERTEX
  5
228
  8
0
 62
     9
 10
0.0
 20
0.0
 30
0.0
 70
   128
 71
     6
 72
     7
 73
    48
  0
VERTEX
  5
229
  8
0
 62
     9
 10
0.0
 20
0.0
 30
0.0
 70
   128
 71
    46
 72
    47
 73
    49
  0
VERTEX
  5
22A
  8
0
 62
     9
 10
0.0
 20
0.0
 30
0.0
 70
   128
 71
    42
 72
    43
 73
    40
  0
VERTEX
  5
22B
  8
0
 62
     9
 10
0.0
 20
0.0
 30
0.0
 70
   128
 71
    36
 72
    37
 73
    34
  0
VERTEX
  5
22C
  8
0
 62
     9
 10
0.0
 20
0.0
 30
0.0
 70
   128
 71
    30
 72
    31
 73
    28
  0
VERTEX
  5
22D
  8
0
 62
     9
 10
0.0
 20
0.0
 30
0.0
 70
   128
 71
    26
 72
    27
 73
    24
  0
VERTEX
  5
22E
  8
0
 62
     9
 10
0.0
 20
0.0
 30
0.0
 70
   128
 71
    20
 72
    21
 73
    18
  0
VERTEX
  5
22F
  8
0
 62
     9
 10
0.0
 20
0.0
 30
0.0
 70
   128
 71
    12
 72
    13
 73
    15
  0
VERTEX
  5
230
  8
0
 62
     9
 10
0.0
 20
0.0
 30
0.0
 70
   128
 71
     8
 72
     9
 73
     1
  0
VERTEX
  5
231
  8
0
 62
     9
 10
0.0
 20
0.0
 30
0.0
 70
   128
 71
     1
 72
     5
 73
     3
  0
SEQEND
  5
232
  8
0
 62
     9
  0
ENDBLK
  5
235
  8
0
  0
BLOCK
  8
0
  2
E3_NODE_7_
 70
     0
 10
0.0
 20
0.0
 30
0.0
  3
E3_NODE_7_
  1

  0
POLYLINE
  5
237
  8
0
 62
     9
 66
     1
 10
0.0
 20
0.0
 30
0.0
 70
    64
 71
    58
 72
    74
  0
VERTEX
  5
238
  8
0
 10
-4.98799991607666
 20
-13.70400047302246
 30
117.6060028076172
 70
   192
  0
VERTEX
  5
239
  8
0
 10
-4.85699987411499
 20
-11.77299976348877
 30
105.7679977416992
 70
   192
  0
VERTEX
  5
23A
  8
0
 10
-0.0049999998882413
 20
-12.73600006103516
 30
105.7679977416992
 70
   192
  0
VERTEX
  5
23B
  8
0
 10
-0.0060000000521541
 20
-13.70400047302246
 30
117.6060028076172
 70
   192
  0
VERTEX
  5
23C
  8
0
 10
-4.402999877929688
 20
-10.67599964141846
 30
93.78900146484375
 70
   192
  0
VERTEX
  5
23D
  8
0
 10
0.0
 20
-12.5
 30
93.78900146484375
 70
   192
  0
VERTEX
  5
23E
  8
0
 10
5.214000225067139
 20
12.68599987030029
 30
117.6060028076172
 70
   192
  0
VERTEX
  5
23F
  8
0
 10
4.813000202178955
 20
11.79100036621094
 30
105.7679977416992
 70
   192
  0
VERTEX
  5
240
  8
0
 10
0.0010000000474975
 20
12.73600006103516
 30
105.7679977416992
 70
   192
  0
VERTEX
  5
241
  8
0
 10
4.360000133514404
 20
10.69400024414062
 30
93.78900146484375
 70
   192
  0
VERTEX
  5
242
  8
0
 10
0.0
 20
12.5
 30
93.78900146484375
 70
   192
  0
VERTEX
  5
243
  8
0
 10
-11.78800010681152
 20
4.822000026702881
 30
105.7679977416992
 70
   192
  0
VERTEX
  5
244
  8
0
 10
-12.73600006103516
 20
-0.0780000016093254
 30
105.7679977416992
 70
   192
  0
VERTEX
  5
245
  8
0
 10
-14.36200046539307
 20
2.532000064849854
 30
117.6060028076172
 70
   192
  0
VERTEX
  5
246
  8
0
 10
-13.92000007629395
 20
0.0270000007003546
 30
117.6060028076172
 70
   192
  0
VERTEX
  5
247
  8
0
 10
-8.97700023651123
 20
-9.034000396728516
 30
105.7679977416992
 70
   192
  0
VERTEX
  5
248
  8
0
 10
-9.746999740600586
 20
-9.711000442504883
 30
117.6060028076172
 70
   192
  0
VERTEX
  5
249
  8
0
 10
-12.63000011444092
 20
-7.291999816894531
 30
117.6060028076172
 70
   192
  0
VERTEX
  5
24A
  8
0
 10
-11.74199962615967
 20
-4.933000087738037
 30
105.7679977416992
 70
   192
  0
VERTEX
  5
24B
  8
0
 10
-4.804999828338623
 20
11.79500007629395
 30
105.7679977416992
 70
   192
  0
VERTEX
  5
24C
  8
0
 10
-8.99899959564209
 20
9.01200008392334
 30
105.7679977416992
 70
   192
  0
VERTEX
  5
24D
  8
0
 10
-9.37399959564209
 20
11.17199993133545
 30
117.6060028076172
 70
   192
  0
VERTEX
  5
24E
  8
0
 10
-9.97599983215332
 20
10.12899971008301
 30
117.6060028076172
 70
   192
  0
VERTEX
  5
24F
  8
0
 10
-12.85200023651123
 20
5.14799976348877
 30
117.6060028076172
 70
   192
  0
VERTEX
  5
250
  8
0
 10
-5.452000141143799
 20
13.52600002288818
 30
117.6060028076172
 70
   192
  0
VERTEX
  5
251
  8
0
 10
0.0
 20
14.58399963378906
 30
117.6060028076172
 70
   192
  0
VERTEX
  5
252
  8
0
 10
-5.498000144958496
 20
13.4980001449585
 30
117.6060028076172
 70
   192
  0
VERTEX
  5
253
  8
0
 10
-10.69099998474121
 20
4.368000030517578
 30
93.78900146484375
 70
   192
  0
VERTEX
  5
254
  8
0
 10
-12.5
 20
0.0
 30
93.78900146484375
 70
   192
  0
VERTEX
  5
255
  8
0
 10
-10.64500045776367
 20
-4.478000164031982
 30
93.78900146484375
 70
   192
  0
VERTEX
  5
256
  8
0
 10
-8.83899974822998
 20
-8.83899974822998
 30
93.78900146484375
 70
   192
  0
VERTEX
  5
257
  8
0
 10
-4.711999893188477
 20
11.56900024414062
 30
93.78900146484375
 70
   192
  0
VERTEX
  5
258
  8
0
 10
-8.83899974822998
 20
8.83899974822998
 30
93.78900146484375
 70
   192
  0
VERTEX
  5
259
  8
0
 10
-4.676000118255615
 20
11.59200000762939
 30
93.78900146484375
 70
   192
  0
VERTEX
  5
25A
  8
0
 10
12.73600006103516
 20
-0.0750000029802322
 30
105.7679977416992
 70
   192
  0
VERTEX
  5
25B
  8
0
 10
11.74300003051758
 20
-4.928999900817871
 30
105.7679977416992
 70
   192
  0
VERTEX
  5
25C
  8
0
 10
10.64700031280518
 20
-4.473999977111816
 30
93.78900146484375
 70
   192
  0
VERTEX
  5
25D
  8
0
 10
11.78699970245361
 20
4.824999809265137
 30
105.7679977416992
 70
   192
  0
VERTEX
  5
25E
  8
0
 10
10.68900012969971
 20
4.372000217437744
 30
93.78900146484375
 70
   192
  0
VERTEX
  5
25F
  8
0
 10
8.83899974822998
 20
8.83899974822998
 30
93.78900146484375
 70
   192
  0
VERTEX
  5
260
  8
0
 10
8.996000289916992
 20
9.015999794006348
 30
105.7679977416992
 70
   192
  0
VERTEX
  5
261
  8
0
 10
12.5
 20
0.0
 30
93.78900146484375
 70
   192
  0
VERTEX
  5
262
  8
0
 10
8.979999542236328
 20
-9.031000137329102
 30
105.7679977416992
 70
   192
  0
VERTEX
  5
263
  8
0
 10
4.854000091552734
 20
-11.77499961853027
 30
105.7679977416992
 70
   192
  0
VERTEX
  5
264
  8
0
 10
4.400000095367432
 20
-10.67700004577637
 30
93.78900146484375
 70
   192
  0
VERTEX
  5
265
  8
0
 10
8.83899974822998
 20
-8.83899974822998
 30
93.78900146484375
 70
   192
  0
VERTEX
  5
266
  8
0
 10
13.92099952697754
 20
0.0309999994933605
 30
117.6060028076172
 70
   192
  0
VERTEX
  5
267
  8
0
 10
12.93599987030029
 20
-5.553999900817871
 30
117.6060028076172
 70
   192
  0
VERTEX
  5
268
  8
0
 10
12.85000038146973
 20
5.151999950408936
 30
117.6060028076172
 70
   192
  0
VERTEX
  5
269
  8
0
 10
9.37399959564209
 20
11.17199993133545
 30
117.6060028076172
 70
   192
  0
VERTEX
  5
26A
  8
0
 10
14.36200046539307
 20
2.532000064849854
 30
117.6060028076172
 70
   192
  0
VERTEX
  5
26B
  8
0
 10
9.75100040435791
 20
-9.706999778747559
 30
117.6060028076172
 70
   192
  0
VERTEX
  5
26C
  8
0
 10
5.432000160217285
 20
-13.33199977874756
 30
117.6060028076172
 70
   192
  0
VERTEX
  5
26D
  8
0
 10
12.63000011444092
 20
-7.291999816894531
 30
117.6060028076172
 70
   192
  0
VERTEX
  5
26E
  8
0
 10
4.98799991607666
 20
-13.70400047302246
 30
117.6060028076172
 70
   192
  0
VERTEX
  5
26F
  8
0
 10
9.972999572753906
 20
10.13399982452393
 30
117.6060028076172
 70
   192
  0
VERTEX
  5
270
  8
0
 10
-12.9350004196167
 20
-5.559000015258789
 30
117.6060028076172
 70
   192
  0
VERTEX
  5
271
  8
0
 10
-5.434000015258789
 20
-13.32999992370605
 30
117.6060028076172
 70
   192
  0
VERTEX
  5
272
  8
0
 62
     9
 10
0.0
 20
0.0
 30
0.0
 70
   128
 71
     3
 72
     2
 73
     1
  0
VERTEX
  5
273
  8
0
 62
     9
 10
0.0
 20
0.0
 30
0.0
 70
   128
 71
     1
 72
     4
 73
     3
  0
VERTEX
  5
274
  8
0
 62
     9
 10
0.0
 20
0.0
 30
0.0
 70
   128
 71
     6
 72
     5
 73
     2
  0
VERTEX
  5
275
  8
0
 62
     9
 10
0.0
 20
0.0
 30
0.0
 70
   128
 71
     9
 72
     8
 73
     7
  0
VERTEX
  5
276
  8
0
 62
     9
 10
0.0
 20
0.0
 30
0.0
 70
   128
 71
    11
 72
    10
 73
     8
  0
VERTEX
  5
277
  8
0
 62
     9
 10
0.0
 20
0.0
 30
0.0
 70
   128
 71
    14
 72
    13
 73
    12
  0
VERTEX
  5
278
  8
0
 62
     9
 10
0.0
 20
0.0
 30
0.0
 70
   128
 71
    14
 72
    15
 73
    13
  0
VERTEX
  5
279
  8
0
 62
     9
 10
0.0
 20
0.0
 30
0.0
 70
   128
 71
    18
 72
    17
 73
    16
  0
VERTEX
  5
27A
  8
0
 62
     9
 10
0.0
 20
0.0
 30
0.0
 70
   128
 71
    16
 72
    19
 73
    18
  0
VERTEX
  5
27B
  8
0
 62
     9
 10
0.0
 20
0.0
 30
0.0
 70
   128
 71
     2
 72
    16
 73
    17
  0
VERTEX
  5
27C
  8
0
 62
     9
 10
0.0
 20
0.0
 30
0.0
 70
   128
 71
    19
 72
    13
 73
    15
  0
VERTEX
  5
27D
  8
0
 62
     9
 10
0.0
 20
0.0
 30
0.0
 70
   128
 71
    22
 72
    21
 73
    20
  0
VERTEX
  5
27E
  8
0
 62
     9
 10
0.0
 20
0.0
 30
0.0
 70
   128
 71
    22
 72
    23
 73
    21
  0
VERTEX
  5
27F
  8
0
 62
     9
 10
0.0
 20
0.0
 30
0.0
 70
   128
 71
    21
 72
    23
 73
    24
  0
VERTEX
  5
280
  8
0
 62
     9
 10
0.0
 20
0.0
 30
0.0
 70
   128
 71
     9
 72
    26
 73
    25
  0
VERTEX
  5
281
  8
0
 62
     9
 10
0.0
 20
0.0
 30
0.0
 70
   128
 71
    25
 72
    20
 73
     9
  0
VERTEX
  5
282
  8
0
 62
     9
 10
0.0
 20
0.0
 30
0.0
 70
   128
 71
    25
 72
    27
 73
    20
  0
VERTEX
  5
283
  8
0
 62
     9
 10
0.0
 20
0.0
 30
0.0
 70
   128
 71
    29
 72
    28
 73
    12
  0
VERTEX
  5
284
  8
0
 62
     9
 10
0.0
 20
0.0
 30
0.0
 70
   128
 71
    31
 72
    30
 73
    19
  0
VERTEX
  5
285
  8
0
 62
     9
 10
0.0
 20
0.0
 30
0.0
 70
   128
 71
     5
 72
    31
 73
    16
  0
VERTEX
  5
286
  8
0
 62
     9
 10
0.0
 20
0.0
 30
0.0
 70
   128
 71
    30
 72
    29
 73
    13
  0
VERTEX
  5
287
  8
0
 62
     9
 10
0.0
 20
0.0
 30
0.0
 70
   128
 71
    32
 72
    20
 73
    21
  0
VERTEX
  5
288
  8
0
 62
     9
 10
0.0
 20
0.0
 30
0.0
 70
   128
 71
    33
 72
    21
 73
    12
  0
VERTEX
  5
289
  8
0
 62
     9
 10
0.0
 20
0.0
 30
0.0
 70
   128
 71
    34
 72
    11
 73
     9
  0
VERTEX
  5
28A
  8
0
 62
     9
 10
0.0
 20
0.0
 30
0.0
 70
   128
 71
     9
 72
    20
 73
    34
  0
VERTEX
  5
28B
  8
0
 62
     9
 10
0.0
 20
0.0
 30
0.0
 70
   128
 71
    37
 72
    36
 73
    35
  0
VERTEX
  5
28C
  8
0
 62
     9
 10
0.0
 20
0.0
 30
0.0
 70
   128
 71
    40
 72
    39
 73
    38
  0
VERTEX
  5
28D
  8
0
 62
     9
 10
0.0
 20
0.0
 30
0.0
 70
   128
 71
    40
 72
    41
 73
     8
  0
VERTEX
  5
28E
  8
0
 62
     9
 10
0.0
 20
0.0
 30
0.0
 70
   128
 71
    42
 72
    35
 73
    38
  0
VERTEX
  5
28F
  8
0
 62
     9
 10
0.0
 20
0.0
 30
0.0
 70
   128
 71
    45
 72
    44
 73
    43
  0
VERTEX
  5
290
  8
0
 62
     9
 10
0.0
 20
0.0
 30
0.0
 70
   128
 71
    46
 72
    43
 73
    36
  0
VERTEX
  5
291
  8
0
 62
     9
 10
0.0
 20
0.0
 30
0.0
 70
   128
 71
     6
 72
     3
 73
    44
  0
VERTEX
  5
292
  8
0
 62
     9
 10
0.0
 20
0.0
 30
0.0
 70
   128
 71
    36
 72
    48
 73
    47
  0
VERTEX
  5
293
  8
0
 62
     9
 10
0.0
 20
0.0
 30
0.0
 70
   128
 71
    41
 72
    38
 73
    49
  0
VERTEX
  5
294
  8
0
 62
     9
 10
0.0
 20
0.0
 30
0.0
 70
   128
 71
    50
 72
     7
 73
     8
  0
VERTEX
  5
295
  8
0
 62
     9
 10
0.0
 20
0.0
 30
0.0
 70
   128
 71
     8
 72
    41
 73
    50
  0
VERTEX
  5
296
  8
0
 62
     9
 10
0.0
 20
0.0
 30
0.0
 70
   128
 71
    51
 72
    49
 73
    38
  0
VERTEX
  5
297
  8
0
 62
     9
 10
0.0
 20
0.0
 30
0.0
 70
   128
 71
    38
 72
    35
 73
    51
  0
VERTEX
  5
298
  8
0
 62
     9
 10
0.0
 20
0.0
 30
0.0
 70
   128
 71
    44
 72
    53
 73
    52
  0
VERTEX
  5
299
  8
0
 62
     9
 10
0.0
 20
0.0
 30
0.0
 70
   128
 71
    54
 72
    36
 73
    43
  0
VERTEX
  5
29A
  8
0
 62
     9
 10
0.0
 20
0.0
 30
0.0
 70
   128
 71
    54
 72
    48
 73
    36
  0
VERTEX
  5
29B
  8
0
 62
     9
 10
0.0
 20
0.0
 30
0.0
 70
   128
 71
     4
 72
    55
 73
    44
  0
VERTEX
  5
29C
  8
0
 62
     9
 10
0.0
 20
0.0
 30
0.0
 70
   128
 71
    55
 72
    53
 73
    44
  0
VERTEX
  5
29D
  8
0
 62
     9
 10
0.0
 20
0.0
 30
0.0
 70
   128
 71
    44
 72
     3
 73
     4
  0
VERTEX
  5
29E
  8
0
 62
     9
 10
0.0
 20
0.0
 30
0.0
 70
   128
 71
    43
 72
    52
 73
    54
  0
VERTEX
  5
29F
  8
0
 62
     9
 10
0.0
 20
0.0
 30
0.0
 70
   128
 71
    52
 72
    43
 73
    44
  0
VERTEX
  5
2A0
  8
0
 62
     9
 10
0.0
 20
0.0
 30
0.0
 70
   128
 71
    35
 72
    47
 73
    51
  0
VERTEX
  5
2A1
  8
0
 62
     9
 10
0.0
 20
0.0
 30
0.0
 70
   128
 71
    41
 72
    56
 73
    50
  0
VERTEX
  5
2A2
  8
0
 62
     9
 10
0.0
 20
0.0
 30
0.0
 70
   128
 71
    49
 72
    56
 73
    41
  0
VERTEX
  5
2A3
  8
0
 62
     9
 10
0.0
 20
0.0
 30
0.0
 70
   128
 71
    47
 72
    35
 73
    36
  0
VERTEX
  5
2A4
  8
0
 62
     9
 10
0.0
 20
0.0
 30
0.0
 70
   128
 71
    44
 72
    45
 73
     6
  0
VERTEX
  5
2A5
  8
0
 62
     9
 10
0.0
 20
0.0
 30
0.0
 70
   128
 71
    36
 72
    37
 73
    46
  0
VERTEX
  5
2A6
  8
0
 62
     9
 10
0.0
 20
0.0
 30
0.0
 70
   128
 71
    43
 72
    46
 73
    45
  0
VERTEX
  5
2A7
  8
0
 62
     9
 10
0.0
 20
0.0
 30
0.0
 70
   128
 71
    38
 72
    39
 73
    42
  0
VERTEX
  5
2A8
  8
0
 62
     9
 10
0.0
 20
0.0
 30
0.0
 70
   128
 71
     8
 72
    10
 73
    40
  0
VERTEX
  5
2A9
  8
0
 62
     9
 10
0.0
 20
0.0
 30
0.0
 70
   128
 71
    38
 72
    41
 73
    40
  0
VERTEX
  5
2AA
  8
0
 62
     9
 10
0.0
 20
0.0
 30
0.0
 70
   128
 71
    35
 72
    42
 73
    37
  0
VERTEX
  5
2AB
  8
0
 62
     9
 10
0.0
 20
0.0
 30
0.0
 70
   128
 71
    20
 72
    32
 73
    34
  0
VERTEX
  5
2AC
  8
0
 62
     9
 10
0.0
 20
0.0
 30
0.0
 70
   128
 71
    12
 72
    28
 73
    33
  0
VERTEX
  5
2AD
  8
0
 62
     9
 10
0.0
 20
0.0
 30
0.0
 70
   128
 71
    21
 72
    33
 73
    32
  0
VERTEX
  5
2AE
  8
0
 62
     9
 10
0.0
 20
0.0
 30
0.0
 70
   128
 71
    13
 72
    19
 73
    30
  0
VERTEX
  5
2AF
  8
0
 62
     9
 10
0.0
 20
0.0
 30
0.0
 70
   128
 71
    16
 72
     2
 73
     5
  0
VERTEX
  5
2B0
  8
0
 62
     9
 10
0.0
 20
0.0
 30
0.0
 70
   128
 71
    19
 72
    16
 73
    31
  0
VERTEX
  5
2B1
  8
0
 62
     9
 10
0.0
 20
0.0
 30
0.0
 70
   128
 71
    12
 72
    13
 73
    29
  0
VERTEX
  5
2B2
  8
0
 62
     9
 10
0.0
 20
0.0
 30
0.0
 70
   128
 71
    24
 72
    12
 73
    21
  0
VERTEX
  5
2B3
  8
0
 62
     9
 10
0.0
 20
0.0
 30
0.0
 70
   128
 71
    20
 72
    27
 73
    22
  0
VERTEX
  5
2B4
  8
0
 62
     9
 10
0.0
 20
0.0
 30
0.0
 70
   128
 71
    15
 72
    57
 73
    19
  0
VERTEX
  5
2B5
  8
0
 62
     9
 10
0.0
 20
0.0
 30
0.0
 70
   128
 71
    17
 72
    58
 73
     2
  0
VERTEX
  5
2B6
  8
0
 62
     9
 10
0.0
 20
0.0
 30
0.0
 70
   128
 71
    19
 72
    57
 73
    18
  0
VERTEX
  5
2B7
  8
0
 62
     9
 10
0.0
 20
0.0
 30
0.0
 70
   128
 71
    12
 72
    24
 73
    14
  0
VERTEX
  5
2B8
  8
0
 62
     9
 10
0.0
 20
0.0
 30
0.0
 70
   128
 71
     8
 72
     9
 73
    11
  0
VERTEX
  5
2B9
  8
0
 62
     9
 10
0.0
 20
0.0
 30
0.0
 70
   128
 71
     7
 72
    26
 73
     9
  0
VERTEX
  5
2BA
  8
0
 62
     9
 10
0.0
 20
0.0
 30
0.0
 70
   128
 71
     2
 72
     3
 73
     6
  0
VERTEX
  5
2BB
  8
0
 62
     9
 10
0.0
 20
0.0
 30
0.0
 70
   128
 71
     2
 72
    58
 73
     1
  0
SEQEND
  5
2BC
  8
0
 62
     9
  0
ENDBLK
  5
2BF
  8
0
  0
BLOCK
  8
0
  2
E3_NODE_8_
 70
     0
 10
0.0
 20
0.0
 30
0.0
  3
E3_NODE_8_
  1

  0
POLYLINE
  5
2C1
  8
0
 62
     9
 66
     1
 10
0.0
 20
0.0
 30
0.0
 70
    64
 71
    33
 72
    33
  0
VERTEX
  5
2C2
  8
0
 10
8.83899974822998
 20
8.83899974822998
 30
0.0
 70
   192
  0
VERTEX
  5
2C3
  8
0
 10
8.83899974822998
 20
8.83899974822998
 30
93.78900146484375
 70
   192
  0
VERTEX
  5
2C4
  8
0
 10
10.68900012969971
 20
4.372000217437744
 30
93.78900146484375
 70
   192
  0
VERTEX
  5
2C5
  8
0
 10
12.5
 20
0.0
 30
0.0
 70
   192
  0
VERTEX
  5
2C6
  8
0
 10
12.5
 20
0.0
 30
93.78900146484375
 70
   192
  0
VERTEX
  5
2C7
  8
0
 10
10.64700031280518
 20
-4.473999977111816
 30
93.78900146484375
 70
   192
  0
VERTEX
  5
2C8
  8
0
 10
8.83899974822998
 20
-8.83899974822998
 30
0.0
 70
   192
  0
VERTEX
  5
2C9
  8
0
 10
-12.5
 20
0.0
 30
0.0
 70
   192
  0
VERTEX
  5
2CA
  8
0
 10
-8.83899974822998
 20
-8.83899974822998
 30
0.0
 70
   192
  0
VERTEX
  5
2CB
  8
0
 10
-10.64500045776367
 20
-4.478000164031982
 30
93.78900146484375
 70
   192
  0
VERTEX
  5
2CC
  8
0
 10
-8.83899974822998
 20
-8.83899974822998
 30
93.78900146484375
 70
   192
  0
VERTEX
  5
2CD
  8
0
 10
-8.83899974822998
 20
8.83899974822998
 30
0.0
 70
   192
  0
VERTEX
  5
2CE
  8
0
 10
-10.69099998474121
 20
4.368000030517578
 30
93.78900146484375
 70
   192
  0
VERTEX
  5
2CF
  8
0
 10
-12.5
 20
0.0
 30
93.78900146484375
 70
   192
  0
VERTEX
  5
2D0
  8
0
 10
0.0
 20
-12.5
 30
93.78900146484375
 70
   192
  0
VERTEX
  5
2D1
  8
0
 10
-4.402999877929688
 20
-10.67599964141846
 30
93.78900146484375
 70
   192
  0
VERTEX
  5
2D2
  8
0
 10
-1.0
 20
-12.46000003814697
 30
3.0
 70
   192
  0
VERTEX
  5
2D3
  8
0
 10
0.0
 20
-12.5
 30
3.0
 70
   192
  0
VERTEX
  5
2D4
  8
0
 10
-1.0
 20
-12.46000003814697
 30
0.0
 70
   192
  0
VERTEX
  5
2D5
  8
0
 10
8.83899974822998
 20
-8.83899974822998
 30
93.78900146484375
 70
   192
  0
VERTEX
  5
2D6
  8
0
 10
1.0
 20
-12.46000003814697
 30
3.0
 70
   192
  0
VERTEX
  5
2D7
  8
0
 10
4.400000095367432
 20
-10.67700004577637
 30
93.78900146484375
 70
   192
  0
VERTEX
  5
2D8
  8
0
 10
0.0
 20
12.5
 30
93.78900146484375
 70
   192
  0
VERTEX
  5
2D9
  8
0
 10
4.360000133514404
 20
10.69400024414062
 30
93.78900146484375
 70
   192
  0
VERTEX
  5
2DA
  8
0
 10
1.0
 20
12.46000003814697
 30
3.0
 70
   192
  0
VERTEX
  5
2DB
  8
0
 10
0.0
 20
12.5
 30
3.0
 70
   192
  0
VERTEX
  5
2DC
  8
0
 10
1.0
 20
12.46000003814697
 30
0.0
 70
   192
  0
VERTEX
  5
2DD
  8
0
 10
-8.83899974822998
 20
8.83899974822998
 30
93.78900146484375
 70
   192
  0
VERTEX
  5
2DE
  8
0
 10
-1.0
 20
12.46000003814697
 30
3.0
 70
   192
  0
VERTEX
  5
2DF
  8
0
 10
-4.711999893188477
 20
11.56900024414062
 30
93.78900146484375
 70
   192
  0
VERTEX
  5
2E0
  8
0
 10
-4.676000118255615
 20
11.59200000762939
 30
93.78900146484375
 70
   192
  0
VERTEX
  5
2E1
  8
0
 10
-1.0
 20
12.46000003814697
 30
0.0
 70
   192
  0
VERTEX
  5
2E2
  8
0
 10
1.0
 20
-12.46000003814697
 30
0.0
 70
   192
  0
VERTEX
  5
2E3
  8
0
 62
     9
 10
0.0
 20
0.0
 30
0.0
 70
   128
 71
     3
 72
     2
 73
     1
  0
VERTEX
  5
2E4
  8
0
 62
     9
 10
0.0
 20
0.0
 30
0.0
 70
   128
 71
     1
 72
     4
 73
     3
  0
VERTEX
  5
2E5
  8
0
 62
     9
 10
0.0
 20
0.0
 30
0.0
 70
   128
 71
     6
 72
     5
 73
     4
  0
VERTEX
  5
2E6
  8
0
 62
     9
 10
0.0
 20
0.0
 30
0.0
 70
   128
 71
     4
 72
     7
 73
     6
  0
VERTEX
  5
2E7
  8
0
 62
     9
 10
0.0
 20
0.0
 30
0.0
 70
   128
 71
    10
 72
     9
 73
     8
  0
VERTEX
  5
2E8
  8
0
 62
     9
 10
0.0
 20
0.0
 30
0.0
 70
   128
 71
    10
 72
    11
 73
     9
  0
VERTEX
  5
2E9
  8
0
 62
     9
 10
0.0
 20
0.0
 30
0.0
 70
   128
 71
    13
 72
     8
 73
    12
  0
VERTEX
  5
2EA
  8
0
 62
     9
 10
0.0
 20
0.0
 30
0.0
 70
   128
 71
    13
 72
    14
 73
     8
  0
VERTEX
  5
2EB
  8
0
 62
     9
 10
0.0
 20
0.0
 30
0.0
 70
   128
 71
    17
 72
    16
 73
    15
  0
VERTEX
  5
2EC
  8
0
 62
     9
 10
0.0
 20
0.0
 30
0.0
 70
   128
 71
    15
 72
    18
 73
    17
  0
VERTEX
  5
2ED
  8
0
 62
     9
 10
0.0
 20
0.0
 30
0.0
 70
   128
 71
    17
 72
    19
 73
     9
  0
VERTEX
  5
2EE
  8
0
 62
     9
 10
0.0
 20
0.0
 30
0.0
 70
   128
 71
     9
 72
    11
 73
    17
  0
VERTEX
  5
2EF
  8
0
 62
     9
 10
0.0
 20
0.0
 30
0.0
 70
   128
 71
    21
 72
    20
 73
     7
  0
VERTEX
  5
2F0
  8
0
 62
     9
 10
0.0
 20
0.0
 30
0.0
 70
   128
 71
    21
 72
    18
 73
    15
  0
VERTEX
  5
2F1
  8
0
 62
     9
 10
0.0
 20
0.0
 30
0.0
 70
   128
 71
    22
 72
    20
 73
    21
  0
VERTEX
  5
2F2
  8
0
 62
     9
 10
0.0
 20
0.0
 30
0.0
 70
   128
 71
    15
 72
    22
 73
    21
  0
VERTEX
  5
2F3
  8
0
 62
     9
 10
0.0
 20
0.0
 30
0.0
 70
   128
 71
    25
 72
    24
 73
    23
  0
VERTEX
  5
2F4
  8
0
 62
     9
 10
0.0
 20
0.0
 30
0.0
 70
   128
 71
    23
 72
    26
 73
    25
  0
VERTEX
  5
2F5
  8
0
 62
     9
 10
0.0
 20
0.0
 30
0.0
 70
   128
 71
    25
 72
    27
 73
     1
  0
VERTEX
  5
2F6
  8
0
 62
     9
 10
0.0
 20
0.0
 30
0.0
 70
   128
 71
     1
 72
     2
 73
    25
  0
VERTEX
  5
2F7
  8
0
 62
     9
 10
0.0
 20
0.0
 30
0.0
 70
   128
 71
    29
 72
    28
 73
    12
  0
VERTEX
  5
2F8
  8
0
 62
     9
 10
0.0
 20
0.0
 30
0.0
 70
   128
 71
    31
 72
    30
 73
    29
  0
VERTEX
  5
2F9
  8
0
 62
     9
 10
0.0
 20
0.0
 30
0.0
 70
   128
 71
    29
 72
    26
 73
    31
  0
VERTEX
  5
2FA
  8
0
 62
     9
 10
0.0
 20
0.0
 30
0.0
 70
   128
 71
    26
 72
    23
 73
    31
  0
VERTEX
  5
2FB
  8
0
 62
     9
 10
0.0
 20
0.0
 30
0.0
 70
   128
 71
    30
 72
    28
 73
    29
  0
VERTEX
  5
2FC
  8
0
 62
     9
 10
0.0
 20
0.0
 30
0.0
 70
   128
 71
    12
 72
    32
 73
    29
  0
VERTEX
  5
2FD
  8
0
 62
     9
 10
0.0
 20
0.0
 30
0.0
 70
   128
 71
    25
 72
     2
 73
    24
  0
VERTEX
  5
2FE
  8
0
 62
     9
 10
0.0
 20
0.0
 30
0.0
 70
   128
 71
     7
 72
    33
 73
    21
  0
VERTEX
  5
2FF
  8
0
 62
     9
 10
0.0
 20
0.0
 30
0.0
 70
   128
 71
    17
 72
    11
 73
    16
  0
VERTEX
  5
300
  8
0
 62
     9
 10
0.0
 20
0.0
 30
0.0
 70
   128
 71
    12
 72
    28
 73
    13
  0
VERTEX
  5
301
  8
0
 62
     9
 10
0.0
 20
0.0
 30
0.0
 70
   128
 71
     8
 72
    14
 73
    10
  0
VERTEX
  5
302
  8
0
 62
     9
 10
0.0
 20
0.0
 30
0.0
 70
   128
 71
     7
 72
    20
 73
     6
  0
VERTEX
  5
303
  8
0
 62
     9
 10
0.0
 20
0.0
 30
0.0
 70
   128
 71
     4
 72
     5
 73
     3
  0
SEQEND
  5
304
  8
0
 62
     9
  0
ENDBLK
  5
307
  8
0
  0
BLOCK
  8
0
  2
E3_NODE_9_
 70
     0
 10
0.0
 20
0.0
 30
0.0
  3
E3_NODE_9_
  1

  0
POLYLINE
  5
309
  8
0
 62
     9
 66
     1
 10
0.0
 20
0.0
 30
0.0
 70
    64
 71
    14
 72
    12
  0
VERTEX
  5
30A
  8
0
 10
1.0
 20
-11.00399971008301
 30
0.0
 70
   192
  0
VERTEX
  5
30B
  8
0
 10
-1.0
 20
11.00399971008301
 30
0.0
 70
   192
  0
VERTEX
  5
30C
  8
0
 10
1.0
 20
11.00399971008301
 30
0.0
 70
   192
  0
VERTEX
  5
30D
  8
0
 10
-1.0
 20
-11.00399971008301
 30
0.0
 70
   192
  0
VERTEX
  5
30E
  8
0
 10
1.0
 20
12.46000003814697
 30
0.0
 70
   192
  0
VERTEX
  5
30F
  8
0
 10
8.83899974822998
 20
8.83899974822998
 30
0.0
 70
   192
  0
VERTEX
  5
310
  8
0
 10
-12.5
 20
0.0
 30
0.0
 70
   192
  0
VERTEX
  5
311
  8
0
 10
12.5
 20
0.0
 30
0.0
 70
   192
  0
VERTEX
  5
312
  8
0
 10
8.83899974822998
 20
-8.83899974822998
 30
0.0
 70
   192
  0
VERTEX
  5
313
  8
0
 10
-1.0
 20
-12.46000003814697
 30
0.0
 70
   192
  0
VERTEX
  5
314
  8
0
 10
-8.83899974822998
 20
-8.83899974822998
 30
0.0
 70
   192
  0
VERTEX
  5
315
  8
0
 10
1.0
 20
-12.46000003814697
 30
0.0
 70
   192
  0
VERTEX
  5
316
  8
0
 10
-8.83899974822998
 20
8.83899974822998
 30
0.0
 70
   192
  0
VERTEX
  5
317
  8
0
 10
-1.0
 20
12.46000003814697
 30
0.0
 70
   192
  0
VERTEX
  5
318
  8
0
 62
     9
 10
0.0
 20
0.0
 30
0.0
 70
   128
 71
     3
 72
     2
 73
     1
  0
VERTEX
  5
319
  8
0
 62
     9
 10
0.0
 20
0.0
 30
0.0
 70
   128
 71
     4
 72
     1
 73
     2
  0
VERTEX
  5
31A
  8
0
 62
     9
 10
0.0
 20
0.0
 30
0.0
 70
   128
 71
     6
 72
     5
 73
     3
  0
VERTEX
  5
31B
  8
0
 62
     9
 10
0.0
 20
0.0
 30
0.0
 70
   128
 71
     2
 72
     7
 73
     4
  0
VERTEX
  5
31C
  8
0
 62
     9
 10
0.0
 20
0.0
 30
0.0
 70
   128
 71
     1
 72
     8
 73
     3
  0
VERTEX
  5
31D
  8
0
 62
     9
 10
0.0
 20
0.0
 30
0.0
 70
   128
 71
     9
 72
     8
 73
     1
  0
VERTEX
  5
31E
  8
0
 62
     9
 10
0.0
 20
0.0
 30
0.0
 70
   128
 71
    11
 72
    10
 73
     4
  0
VERTEX
  5
31F
  8
0
 62
     9
 10
0.0
 20
0.0
 30
0.0
 70
   128
 71
     1
 72
    12
 73
     9
  0
VERTEX
  5
320
  8
0
 62
     9
 10
0.0
 20
0.0
 30
0.0
 70
   128
 71
     3
 72
     8
 73
     6
  0
VERTEX
  5
321
  8
0
 62
     9
 10
0.0
 20
0.0
 30
0.0
 70
   128
 71
    13
 72
     7
 73
     2
  0
VERTEX
  5
322
  8
0
 62
     9
 10
0.0
 20
0.0
 30
0.0
 70
   128
 71
     2
 72
    14
 73
    13
  0
VERTEX
  5
323
  8
0
 62
     9
 10
0.0
 20
0.0
 30
0.0
 70
   128
 71
     4
 72
     7
 73
    11
  0
SEQEND
  5
324
  8
0
 62
     9
  0
ENDBLK
  5
327
  8
0
  0
BLOCK
  8
0
  2
E3_NODE_10_
 70
     0
 10
0.0
 20
0.0
 30
0.0
  3
E3_NODE_10_
  1

  0
POLYLINE
  5
329
  8
0
 62
     9
 66
     1
 10
0.0
 20
0.0
 30
0.0
 70
    64
 71
     4
 72
     2
  0
VERTEX
  5
32A
  8
0
 10
1.0
 20
-12.46000003814697
 30
3.0
 70
   192
  0
VERTEX
  5
32B
  8
0
 10
1.0
 20
-11.00399971008301
 30
3.0
 70
   192
  0
VERTEX
  5
32C
  8
0
 10
1.0
 20
-11.00399971008301
 30
0.0
 70
   192
  0
VERTEX
  5
32D
  8
0
 10
1.0
 20
-12.46000003814697
 30
0.0
 70
   192
  0
VERTEX
  5
32E
  8
0
 62
     9
 10
0.0
 20
0.0
 30
0.0
 70
   128
 71
     3
 72
     2
 73
     1
  0
VERTEX
  5
32F
  8
0
 62
     9
 10
0.0
 20
0.0
 30
0.0
 70
   128
 71
     1
 72
     4
 73
     3
  0
SEQEND
  5
330
  8
0
 62
     9
  0
ENDBLK
  5
333
  8
0
  0
BLOCK
  8
0
  2
E3_NODE_11_
 70
     0
 10
0.0
 20
0.0
 30
0.0
  3
E3_NODE_11_
  1

  0
POLYLINE
  5
335
  8
0
 62
     9
 66
     1
 10
0.0
 20
0.0
 30
0.0
 70
    64
 71
     5
 72
     3
  0
VERTEX
  5
336
  8
0
 10
1.0
 20
-11.00399971008301
 30
3.0
 70
   192
  0
VERTEX
  5
337
  8
0
 10
1.0
 20
-12.46000003814697
 30
3.0
 70
   192
  0
VERTEX
  5
338
  8
0
 10
0.0
 20
-12.5
 30
3.0
 70
   192
  0
VERTEX
  5
339
  8
0
 10
-1.0
 20
-11.00399971008301
 30
3.0
 70
   192
  0
VERTEX
  5
33A
  8
0
 10
-1.0
 20
-12.46000003814697
 30
3.0
 70
   192
  0
VERTEX
  5
33B
  8
0
 62
     9
 10
0.0
 20
0.0
 30
0.0
 70
   128
 71
     3
 72
     2
 73
     1
  0
VERTEX
  5
33C
  8
0
 62
     9
 10
0.0
 20
0.0
 30
0.0
 70
   128
 71
     1
 72
     4
 73
     3
  0
VERTEX
  5
33D
  8
0
 62
     9
 10
0.0
 20
0.0
 30
0.0
 70
   128
 71
     4
 72
     5
 73
     3
  0
SEQEND
  5
33E
  8
0
 62
     9
  0
ENDBLK
  5
341
  8
0
  0
BLOCK
  8
0
  2
E3_NODE_12_
 70
     0
 10
0.0
 20
0.0
 30
0.0
  3
E3_NODE_12_
  1

  0
POLYLINE
  5
343
  8
0
 62
     9
 66
     1
 10
0.0
 20
0.0
 30
0.0
 70
    64
 71
     4
 72
     2
  0
VERTEX
  5
344
  8
0
 10
-1.0
 20
-11.00399971008301
 30
3.0
 70
   192
  0
VERTEX
  5
345
  8
0
 10
-1.0
 20
-12.46000003814697
 30
3.0
 70
   192
  0
VERTEX
  5
346
  8
0
 10
-1.0
 20
-12.46000003814697
 30
0.0
 70
   192
  0
VERTEX
  5
347
  8
0
 10
-1.0
 20
-11.00399971008301
 30
0.0
 70
   192
  0
VERTEX
  5
348
  8
0
 62
     9
 10
0.0
 20
0.0
 30
0.0
 70
   128
 71
     3
 72
     2
 73
     1
  0
VERTEX
  5
349
  8
0
 62
     9
 10
0.0
 20
0.0
 30
0.0
 70
   128
 71
     1
 72
     4
 73
     3
  0
SEQEND
  5
34A
  8
0
 62
     9
  0
ENDBLK
  5
34D
  8
0
  0
BLOCK
  8
0
  2
E3_NODE_13_
 70
     0
 10
0.0
 20
0.0
 30
0.0
  3
E3_NODE_13_
  1

  0
POLYLINE
  5
34F
  8
0
 62
     9
 66
     1
 10
0.0
 20
0.0
 30
0.0
 70
    64
 71
     4
 72
     2
  0
VERTEX
  5
350
  8
0
 10
1.0
 20
12.46000003814697
 30
3.0
 70
   192
  0
VERTEX
  5
351
  8
0
 10
1.0
 20
12.46000003814697
 30
0.0
 70
   192
  0
VERTEX
  5
352
  8
0
 10
1.0
 20
11.00399971008301
 30
0.0
 70
   192
  0
VERTEX
  5
353
  8
0
 10
1.0
 20
11.00399971008301
 30
3.0
 70
   192
  0
VERTEX
  5
354
  8
0
 62
     9
 10
0.0
 20
0.0
 30
0.0
 70
   128
 71
     3
 72
     2
 73
     1
  0
VERTEX
  5
355
  8
0
 62
     9
 10
0.0
 20
0.0
 30
0.0
 70
   128
 71
     1
 72
     4
 73
     3
  0
SEQEND
  5
356
  8
0
 62
     9
  0
ENDBLK
  5
359
  8
0
  0
BLOCK
  8
0
  2
E3_NODE_14_
 70
     0
 10
0.0
 20
0.0
 30
0.0
  3
E3_NODE_14_
  1

  0
POLYLINE
  5
35B
  8
0
 62
     9
 66
     1
 10
0.0
 20
0.0
 30
0.0
 70
    64
 71
     5
 72
     3
  0
VERTEX
  5
35C
  8
0
 10
-1.0
 20
11.00399971008301
 30
3.0
 70
   192
  0
VERTEX
  5
35D
  8
0
 10
-1.0
 20
12.46000003814697
 30
3.0
 70
   192
  0
VERTEX
  5
35E
  8
0
 10
0.0
 20
12.5
 30
3.0
 70
   192
  0
VERTEX
  5
35F
  8
0
 10
1.0
 20
11.00399971008301
 30
3.0
 70
   192
  0
VERTEX
  5
360
  8
0
 10
1.0
 20
12.46000003814697
 30
3.0
 70
   192
  0
VERTEX
  5
361
  8
0
 62
     9
 10
0.0
 20
0.0
 30
0.0
 70
   128
 71
     3
 72
     2
 73
     1
  0
VERTEX
  5
362
  8
0
 62
     9
 10
0.0
 20
0.0
 30
0.0
 70
   128
 71
     1
 72
     4
 73
     3
  0
VERTEX
  5
363
  8
0
 62
     9
 10
0.0
 20
0.0
 30
0.0
 70
   128
 71
     4
 72
     5
 73
     3
  0
SEQEND
  5
364
  8
0
 62
     9
  0
ENDBLK
  5
367
  8
0
  0
BLOCK
  8
0
  2
E3_NODE_15_
 70
     0
 10
0.0
 20
0.0
 30
0.0
  3
E3_NODE_15_
  1

  0
POLYLINE
  5
369
  8
0
 62
     9
 66
     1
 10
0.0
 20
0.0
 30
0.0
 70
    64
 71
     4
 72
     2
  0
VERTEX
  5
36A
  8
0
 10
-1.0
 20
11.00399971008301
 30
0.0
 70
   192
  0
VERTEX
  5
36B
  8
0
 10
-1.0
 20
12.46000003814697
 30
0.0
 70
   192
  0
VERTEX
  5
36C
  8
0
 10
-1.0
 20
12.46000003814697
 30
3.0
 70
   192
  0
VERTEX
  5
36D
  8
0
 10
-1.0
 20
11.00399971008301
 30
3.0
 70
   192
  0
VERTEX
  5
36E
  8
0
 62
     9
 10
0.0
 20
0.0
 30
0.0
 70
   128
 71
     3
 72
     2
 73
     1
  0
VERTEX
  5
36F
  8
0
 62
     9
 10
0.0
 20
0.0
 30
0.0
 70
   128
 71
     1
 72
     4
 73
     3
  0
SEQEND
  5
370
  8
0
 62
     9
  0
ENDBLK
  5
373
  8
0
  0
BLOCK
  8
0
  2
E3_NODE_16_
 70
     0
 10
0.0
 20
0.0
 30
0.0
  3
E3_NODE_16_
  1

  0
POLYLINE
  5
375
  8
0
 62
     9
 66
     1
 10
0.0
 20
0.0
 30
0.0
 70
    64
 71
     6
 72
     4
  0
VERTEX
  5
376
  8
0
 10
-6.625
 20
3.825000047683716
 30
-10.59799957275391
 70
   192
  0
VERTEX
  5
377
  8
0
 10
6.625
 20
-3.825000047683716
 30
-10.59799957275391
 70
   192
  0
VERTEX
  5
378
  8
0
 10
0.0
 20
-7.650000095367432
 30
-10.59799957275391
 70
   192
  0
VERTEX
  5
379
  8
0
 10
0.0
 20
7.650000095367432
 30
-10.59799957275391
 70
   192
  0
VERTEX
  5
37A
  8
0
 10
6.625
 20
3.825000047683716
 30
-10.59799957275391
 70
   192
  0
VERTEX
  5
37B
  8
0
 10
-6.625
 20
-3.825000047683716
 30
-10.59799957275391
 70
   192
  0
VERTEX
  5
37C
  8
0
 62
     9
 10
0.0
 20
0.0
 30
0.0
 70
   128
 71
     3
 72
     2
 73
     1
  0
VERTEX
  5
37D
  8
0
 62
     9
 10
0.0
 20
0.0
 30
0.0
 70
   128
 71
     4
 72
     1
 73
     2
  0
VERTEX
  5
37E
  8
0
 62
     9
 10
0.0
 20
0.0
 30
0.0
 70
   128
 71
     2
 72
     5
 73
     4
  0
VERTEX
  5
37F
  8
0
 62
     9
 10
0.0
 20
0.0
 30
0.0
 70
   128
 71
     1
 72
     6
 73
     3
  0
SEQEND
  5
380
  8
0
 62
     9
  0
ENDBLK
  5
383
  8
0
  0
BLOCK
  8
0
  2
E3_NODE_17_
 70
     0
 10
0.0
 20
0.0
 30
0.0
  3
E3_NODE_17_
  1

  0
POLYLINE
  5
385
  8
0
 62
     9
 66
     1
 10
0.0
 20
0.0
 30
0.0
 70
    64
 71
    12
 72
    12
  0
VERTEX
  5
386
  8
0
 10
-6.625
 20
3.825000047683716
 30
-8.637999534606934
 70
   192
  0
VERTEX
  5
387
  8
0
 10
0.0
 20
7.650000095367432
 30
-8.637999534606934
 70
   192
  0
VERTEX
  5
388
  8
0
 10
0.0
 20
7.650000095367432
 30
-10.59799957275391
 70
   192
  0
VERTEX
  5
389
  8
0
 10
-6.625
 20
-3.825000047683716
 30
-10.59799957275391
 70
   192
  0
VERTEX
  5
38A
  8
0
 10
-6.625
 20
-3.825000047683716
 30
-8.637999534606934
 70
   192
  0
VERTEX
  5
38B
  8
0
 10
0.0
 20
-7.650000095367432
 30
-10.59799957275391
 70
   192
  0
VERTEX
  5
38C
  8
0
 10
6.625
 20
-3.825000047683716
 30
-10.59799957275391
 70
   192
  0
VERTEX
  5
38D
  8
0
 10
6.625
 20
-3.825000047683716
 30
-8.637999534606934
 70
   192
  0
VERTEX
  5
38E
  8
0
 10
0.0
 20
-7.650000095367432
 30
-8.637999534606934
 70
   192
  0
VERTEX
  5
38F
  8
0
 10
6.625
 20
3.825000047683716
 30
-10.59799957275391
 70
   192
  0
VERTEX
  5
390
  8
0
 10
6.625
 20
3.825000047683716
 30
-8.637999534606934
 70
   192
  0
VERTEX
  5
391
  8
0
 10
-6.625
 20
3.825000047683716
 30
-10.59799957275391
 70
   192
  0
VERTEX
  5
392
  8
0
 62
     9
 10
0.0
 20
0.0
 30
0.0
 70
   128
 71
     3
 72
     2
 73
     1
  0
VERTEX
  5
393
  8
0
 62
     9
 10
0.0
 20
0.0
 30
0.0
 70
   128
 71
     1
 72
     5
 73
     4
  0
VERTEX
  5
394
  8
0
 62
     9
 10
0.0
 20
0.0
 30
0.0
 70
   128
 71
     6
 72
     4
 73
     5
  0
VERTEX
  5
395
  8
0
 62
     9
 10
0.0
 20
0.0
 30
0.0
 70
   128
 71
     9
 72
     8
 73
     7
  0
VERTEX
  5
396
  8
0
 62
     9
 10
0.0
 20
0.0
 30
0.0
 70
   128
 71
     8
 72
    11
 73
    10
  0
VERTEX
  5
397
  8
0
 62
     9
 10
0.0
 20
0.0
 30
0.0
 70
   128
 71
     2
 72
     3
 73
    10
  0
VERTEX
  5
398
  8
0
 62
     9
 10
0.0
 20
0.0
 30
0.0
 70
   128
 71
    10
 72
    11
 73
     2
  0
VERTEX
  5
399
  8
0
 62
     9
 10
0.0
 20
0.0
 30
0.0
 70
   128
 71
    10
 72
     7
 73
     8
  0
VERTEX
  5
39A
  8
0
 62
     9
 10
0.0
 20
0.0
 30
0.0
 70
   128
 71
     7
 72
     6
 73
     9
  0
VERTEX
  5
39B
  8
0
 62
     9
 10
0.0
 20
0.0
 30
0.0
 70
   128
 71
     5
 72
     9
 73
     6
  0
VERTEX
  5
39C
  8
0
 62
     9
 10
0.0
 20
0.0
 30
0.0
 70
   128
 71
     4
 72
    12
 73
     1
  0
VERTEX
  5
39D
  8
0
 62
     9
 10
0.0
 20
0.0
 30
0.0
 70
   128
 71
     1
 72
    12
 73
     3
  0
SEQEND
  5
39E
  8
0
 62
     9
  0
ENDBLK
  5
3A1
  8
0
  0
BLOCK
  8
0
  2
E3_NODE_18_
 70
     0
 10
0.0
 20
0.0
 30
0.0
  3
E3_NODE_18_
  1

  0
POLYLINE
  5
3A3
  8
0
 62
     9
 66
     1
 10
0.0
 20
0.0
 30
0.0
 70
    64
 71
     4
 72
     2
  0
VERTEX
  5
3A4
  8
0
 10
-1.0
 20
-11.95400047302246
 30
3.0
 70
   192
  0
VERTEX
  5
3A5
  8
0
 10
-1.0
 20
-11.95400047302246
 30
0.0
 70
   192
  0
VERTEX
  5
3A6
  8
0
 10
1.0
 20
-11.95400047302246
 30
0.0
 70
   192
  0
VERTEX
  5
3A7
  8
0
 10
1.0
 20
-11.95400047302246
 30
3.0
 70
   192
  0
VERTEX
  5
3A8
  8
0
 62
     9
 10
0.0
 20
0.0
 30
0.0
 70
   128
 71
     3
 72
     2
 73
     1
  0
VERTEX
  5
3A9
  8
0
 62
     9
 10
0.0
 20
0.0
 30
0.0
 70
   128
 71
     1
 72
     4
 73
     3
  0
SEQEND
  5
3AA
  8
0
 62
     9
  0
ENDBLK
  5
3AD
  8
0
  0
BLOCK
  8
0
  2
E3_NODE_19_
 70
     0
 10
0.0
 20
0.0
 30
0.0
  3
E3_NODE_19_
  1

  0
POLYLINE
  5
3AF
  8
0
 62
     9
 66
     1
 10
0.0
 20
0.0
 30
0.0
 70
    64
 71
    31
 72
    31
  0
VERTEX
  5
3B0
  8
0
 10
8.053000450134277
 20
7.34499979019165
 30
0.0
 70
   192
  0
VERTEX
  5
3B1
  8
0
 10
10.16300010681152
 20
3.938999891281128
 30
0.0
 70
   192
  0
VERTEX
  5
3B2
  8
0
 10
9.442000389099121
 20
4.546999931335449
 30
0.0
 70
   192
  0
VERTEX
  5
3B3
  8
0
 10
10.89999961853027
 20
0.0
 30
0.0
 70
   192
  0
VERTEX
  5
3B4
  8
0
 10
10.21700000762939
 20
-2.332000017166138
 30
0.0
 70
   192
  0
VERTEX
  5
3B5
  8
0
 10
10.21700000762939
 20
2.332000017166138
 30
0.0
 70
   192
  0
VERTEX
  5
3B6
  8
0
 10
10.16300010681152
 20
-3.938999891281128
 30
0.0
 70
   192
  0
VERTEX
  5
3B7
  8
0
 10
8.053000450134277
 20
-7.34499979019165
 30
0.0
 70
   192
  0
VERTEX
  5
3B8
  8
0
 10
8.194000244140625
 20
-6.533999919891357
 30
0.0
 70
   192
  0
VERTEX
  5
3B9
  8
0
 10
4.546999931335449
 20
-9.442000389099121
 30
0.0
 70
   192
  0
VERTEX
  5
3BA
  8
0
 10
4.855000019073486
 20
-9.758999824523926
 30
0.0
 70
   192
  0
VERTEX
  5
3BB
  8
0
 10
1.0
 20
-10.85400009155273
 30
0.0
 70
   192
  0
VERTEX
  5
3BC
  8
0
 10
8.194000244140625
 20
6.533999919891357
 30
0.0
 70
   192
  0
VERTEX
  5
3BD
  8
0
 10
0.0
 20
10.47999954223633
 30
0.0
 70
   192
  0
VERTEX
  5
3BE
  8
0
 10
1.0
 20
10.85400009155273
 30
0.0
 70
   192
  0
VERTEX
  5
3BF
  8
0
 10
1.0
 20
11.95400047302246
 30
0.0
 70
   192
  0
VERTEX
  5
3C0
  8
0
 10
-1.0
 20
10.85400009155273
 30
0.0
 70
   192
  0
VERTEX
  5
3C1
  8
0
 10
1.0
 20
-11.95400047302246
 30
0.0
 70
   192
  0
VERTEX
  5
3C2
  8
0
 10
-1.0
 20
-11.95400047302246
 30
0.0
 70
   192
  0
VERTEX
  5
3C3
  8
0
 10
-1.0
 20
-10.85400009155273
 30
0.0
 70
   192
  0
VERTEX
  5
3C4
  8
0
 10
-10.89999961853027
 20
0.0
 30
0.0
 70
   192
  0
VERTEX
  5
3C5
  8
0
 10
-8.053000450134277
 20
7.34499979019165
 30
0.0
 70
   192
  0
VERTEX
  5
3C6
  8
0
 10
-8.194000244140625
 20
6.533999919891357
 30
0.0
 70
   192
  0
VERTEX
  5
3C7
  8
0
 10
-4.546999931335449
 20
-9.442000389099121
 30
0.0
 70
   192
  0
VERTEX
  5
3C8
  8
0
 10
0.0
 20
-10.47999954223633
 30
0.0
 70
   192
  0
VERTEX
  5
3C9
  8
0
 10
-4.855000019073486
 20
-9.758999824523926
 30
0.0
 70
   192
  0
VERTEX
  5
3CA
  8
0
 10
-8.053000450134277
 20
-7.34499979019165
 30
0.0
 70
   192
  0
VERTEX
  5
3CB
  8
0
 10
-10.16300010681152
 20
-3.938999891281128
 30
0.0
 70
   192
  0
VERTEX
  5
3CC
  8
0
 10
-10.21700000762939
 20
-2.332000017166138
 30
0.0
 70
   192
  0
VERTEX
  5
3CD
  8
0
 10
-8.194000244140625
 20
-6.533999919891357
 30
0.0
 70
   192
  0
VERTEX
  5
3CE
  8
0
 10
-1.0
 20
11.95400047302246
 30
0.0
 70
   192
  0
VERTEX
  5
3CF
  8
0
 62
     9
 10
0.0
 20
0.0
 30
0.0
 70
   128
 71
     3
 72
     2
 73
     1
  0
VERTEX
  5
3D0
  8
0
 62
     9
 10
0.0
 20
0.0
 30
0.0
 70
   128
 71
     6
 72
     5
 73
     4
  0
VERTEX
  5
3D1
  8
0
 62
     9
 10
0.0
 20
0.0
 30
0.0
 70
   128
 71
     3
 72
     6
 73
     2
  0
VERTEX
  5
3D2
  8
0
 62
     9
 10
0.0
 20
0.0
 30
0.0
 70
   128
 71
     5
 72
     7
 73
     4
  0
VERTEX
  5
3D3
  8
0
 62
     9
 10
0.0
 20
0.0
 30
0.0
 70
   128
 71
     4
 72
     2
 73
     6
  0
VERTEX
  5
3D4
  8
0
 62
     9
 10
0.0
 20
0.0
 30
0.0
 70
   128
 71
     9
 72
     8
 73
     7
  0
VERTEX
  5
3D5
  8
0
 62
     9
 10
0.0
 20
0.0
 30
0.0
 70
   128
 71
     8
 72
     9
 73
    10
  0
VERTEX
  5
3D6
  8
0
 62
     9
 10
0.0
 20
0.0
 30
0.0
 70
   128
 71
     7
 72
     5
 73
     9
  0
VERTEX
  5
3D7
  8
0
 62
     9
 10
0.0
 20
0.0
 30
0.0
 70
   128
 71
    10
 72
    12
 73
    11
  0
VERTEX
  5
3D8
  8
0
 62
     9
 10
0.0
 20
0.0
 30
0.0
 70
   128
 71
    15
 72
    14
 73
    13
  0
VERTEX
  5
3D9
  8
0
 62
     9
 10
0.0
 20
0.0
 30
0.0
 70
   128
 71
    10
 72
    11
 73
     8
  0
VERTEX
  5
3DA
  8
0
 62
     9
 10
0.0
 20
0.0
 30
0.0
 70
   128
 71
    17
 72
    14
 73
    16
  0
VERTEX
  5
3DB
  8
0
 62
     9
 10
0.0
 20
0.0
 30
0.0
 70
   128
 71
    20
 72
    19
 73
    18
  0
VERTEX
  5
3DC
  8
0
 62
     9
 10
0.0
 20
0.0
 30
0.0
 70
   128
 71
     1
 72
    13
 73
     3
  0
VERTEX
  5
3DD
  8
0
 62
     9
 10
0.0
 20
0.0
 30
0.0
 70
   128
 71
    14
 72
    15
 73
    16
  0
VERTEX
  5
3DE
  8
0
 62
     9
 10
0.0
 20
0.0
 30
0.0
 70
   128
 71
    23
 72
    22
 73
    21
  0
VERTEX
  5
3DF
  8
0
 62
     9
 10
0.0
 20
0.0
 30
0.0
 70
   128
 71
    17
 72
    22
 73
    23
  0
VERTEX
  5
3E0
  8
0
 62
     9
 10
0.0
 20
0.0
 30
0.0
 70
   128
 71
    20
 72
    25
 73
    24
  0
VERTEX
  5
3E1
  8
0
 62
     9
 10
0.0
 20
0.0
 30
0.0
 70
   128
 71
    27
 72
    26
 73
    24
  0
VERTEX
  5
3E2
  8
0
 62
     9
 10
0.0
 20
0.0
 30
0.0
 70
   128
 71
    30
 72
    29
 73
    28
  0
VERTEX
  5
3E3
  8
0
 62
     9
 10
0.0
 20
0.0
 30
0.0
 70
   128
 71
    18
 72
    25
 73
    20
  0
VERTEX
  5
3E4
  8
0
 62
     9
 10
0.0
 20
0.0
 30
0.0
 70
   128
 71
    16
 72
    31
 73
    17
  0
VERTEX
  5
3E5
  8
0
 62
     9
 10
0.0
 20
0.0
 30
0.0
 70
   128
 71
    23
 72
    14
 73
    17
  0
VERTEX
  5
3E6
  8
0
 62
     9
 10
0.0
 20
0.0
 30
0.0
 70
   128
 71
    24
 72
    30
 73
    27
  0
VERTEX
  5
3E7
  8
0
 62
     9
 10
0.0
 20
0.0
 30
0.0
 70
   128
 71
    29
 72
    21
 73
    28
  0
VERTEX
  5
3E8
  8
0
 62
     9
 10
0.0
 20
0.0
 30
0.0
 70
   128
 71
    12
 72
    10
 73
    25
  0
VERTEX
  5
3E9
  8
0
 62
     9
 10
0.0
 20
0.0
 30
0.0
 70
   128
 71
    21
 72
    29
 73
    23
  0
VERTEX
  5
3EA
  8
0
 62
     9
 10
0.0
 20
0.0
 30
0.0
 70
   128
 71
    28
 72
    27
 73
    30
  0
VERTEX
  5
3EB
  8
0
 62
     9
 10
0.0
 20
0.0
 30
0.0
 70
   128
 71
    13
 72
     1
 73
    15
  0
VERTEX
  5
3EC
  8
0
 62
     9
 10
0.0
 20
0.0
 30
0.0
 70
   128
 71
    18
 72
    12
 73
    25
  0
VERTEX
  5
3ED
  8
0
 62
     9
 10
0.0
 20
0.0
 30
0.0
 70
   128
 71
    24
 72
    26
 73
    20
  0
SEQEND
  5
3EE
  8
0
 62
     9
  0
ENDBLK
  5
3F1
  8
0
  0
BLOCK
  8
0
  2
E3_NODE_20_
 70
     0
 10
0.0
 20
0.0
 30
0.0
  3
E3_NODE_20_
  1

  0
POLYLINE
  5
3F3
  8
0
 62
     9
 66
     1
 10
0.0
 20
0.0
 30
0.0
 70
    64
 71
     4
 72
     2
  0
VERTEX
  5
3F4
  8
0
 10
1.0
 20
11.95400047302246
 30
0.0
 70
   192
  0
VERTEX
  5
3F5
  8
0
 10
-1.0
 20
11.95400047302246
 30
0.0
 70
   192
  0
VERTEX
  5
3F6
  8
0
 10
-1.0
 20
11.95400047302246
 30
3.0
 70
   192
  0
VERTEX
  5
3F7
  8
0
 10
1.0
 20
11.95400047302246
 30
3.0
 70
   192
  0
VERTEX
  5
3F8
  8
0
 62
     9
 10
0.0
 20
0.0
 30
0.0
 70
   128
 71
     3
 72
     2
 73
     1
  0
VERTEX
  5
3F9
  8
0
 62
     9
 10
0.0
 20
0.0
 30
0.0
 70
   128
 71
     1
 72
     4
 73
     3
  0
SEQEND
  5
3FA
  8
0
 62
     9
  0
ENDBLK
  5
3FD
  8
0
  0
BLOCK
  8
0
  2
E3_NODE_21_
 70
     0
 10
0.0
 20
0.0
 30
0.0
  3
E3_NODE_21_
  1

  0
POLYLINE
  5
3FF
  8
0
 62
     9
 66
     1
 10
0.0
 20
0.0
 30
0.0
 70
    64
 71
    19
 72
    19
  0
VERTEX
  5
400
  8
0
 10
8.194000244140625
 20
6.533999919891357
 30
0.0
 70
   192
  0
VERTEX
  5
401
  8
0
 10
8.194000244140625
 20
6.533999919891357
 30
-10.0
 70
   192
  0
VERTEX
  5
402
  8
0
 10
0.0
 20
10.47999954223633
 30
-10.0
 70
   192
  0
VERTEX
  5
403
  8
0
 10
9.442000389099121
 20
4.546999931335449
 30
0.0
 70
   192
  0
VERTEX
  5
404
  8
0
 10
10.21700000762939
 20
2.332000017166138
 30
0.0
 70
   192
  0
VERTEX
  5
405
  8
0
 10
10.21700000762939
 20
-2.332000017166138
 30
-10.0
 70
   192
  0
VERTEX
  5
406
  8
0
 10
4.546999931335449
 20
-9.442000389099121
 30
-10.0
 70
   192
  0
VERTEX
  5
407
  8
0
 10
8.194000244140625
 20
-6.533999919891357
 30
0.0
 70
   192
  0
VERTEX
  5
408
  8
0
 10
10.21700000762939
 20
-2.332000017166138
 30
0.0
 70
   192
  0
VERTEX
  5
409
  8
0
 10
-4.546999931335449
 20
-9.442000389099121
 30
-10.0
 70
   192
  0
VERTEX
  5
40A
  8
0
 10
0.0
 20
-10.47999954223633
 30
0.0
 70
   192
  0
VERTEX
  5
40B
  8
0
 10
4.546999931335449
 20
-9.442000389099121
 30
0.0
 70
   192
  0
VERTEX
  5
40C
  8
0
 10
-10.21700000762939
 20
-2.332000017166138
 30
-10.0
 70
   192
  0
VERTEX
  5
40D
  8
0
 10
-8.194000244140625
 20
-6.533999919891357
 30
0.0
 70
   192
  0
VERTEX
  5
40E
  8
0
 10
-4.546999931335449
 20
-9.442000389099121
 30
0.0
 70
   192
  0
VERTEX
  5
40F
  8
0
 10
-8.194000244140625
 20
6.533999919891357
 30
-10.0
 70
   192
  0
VERTEX
  5
410
  8
0
 10
-10.21700000762939
 20
-2.332000017166138
 30
0.0
 70
   192
  0
VERTEX
  5
411
  8
0
 10
-8.194000244140625
 20
6.533999919891357
 30
0.0
 70
   192
  0
VERTEX
  5
412
  8
0
 10
0.0
 20
10.47999954223633
 30
0.0
 70
   192
  0
VERTEX
  5
413
  8
0
 62
     9
 10
0.0
 20
0.0
 30
0.0
 70
   128
 71
     3
 72
     2
 73
     1
  0
VERTEX
  5
414
  8
0
 62
     9
 10
0.0
 20
0.0
 30
0.0
 70
   128
 71
     5
 72
     4
 73
     2
  0
VERTEX
  5
415
  8
0
 62
     9
 10
0.0
 20
0.0
 30
0.0
 70
   128
 71
     2
 72
     6
 73
     5
  0
VERTEX
  5
416
  8
0
 62
     9
 10
0.0
 20
0.0
 30
0.0
 70
   128
 71
     4
 72
     1
 73
     2
  0
VERTEX
  5
417
  8
0
 62
     9
 10
0.0
 20
0.0
 30
0.0
 70
   128
 71
     8
 72
     6
 73
     7
  0
VERTEX
  5
418
  8
0
 62
     9
 10
0.0
 20
0.0
 30
0.0
 70
   128
 71
     8
 72
     9
 73
     6
  0
VERTEX
  5
419
  8
0
 62
     9
 10
0.0
 20
0.0
 30
0.0
 70
   128
 71
    11
 72
     7
 73
    10
  0
VERTEX
  5
41A
  8
0
 62
     9
 10
0.0
 20
0.0
 30
0.0
 70
   128
 71
    11
 72
    12
 73
     7
  0
VERTEX
  5
41B
  8
0
 62
     9
 10
0.0
 20
0.0
 30
0.0
 70
   128
 71
    14
 72
    10
 73
    13
  0
VERTEX
  5
41C
  8
0
 62
     9
 10
0.0
 20
0.0
 30
0.0
 70
   128
 71
    14
 72
    15
 73
    10
  0
VERTEX
  5
41D
  8
0
 62
     9
 10
0.0
 20
0.0
 30
0.0
 70
   128
 71
    17
 72
    13
 73
    16
  0
VERTEX
  5
41E
  8
0
 62
     9
 10
0.0
 20
0.0
 30
0.0
 70
   128
 71
     3
 72
    19
 73
    18
  0
VERTEX
  5
41F
  8
0
 62
     9
 10
0.0
 20
0.0
 30
0.0
 70
   128
 71
    18
 72
    16
 73
     3
  0
VERTEX
  5
420
  8
0
 62
     9
 10
0.0
 20
0.0
 30
0.0
 70
   128
 71
    16
 72
    18
 73
    17
  0
VERTEX
  5
421
  8
0
 62
     9
 10
0.0
 20
0.0
 30
0.0
 70
   128
 71
    13
 72
    17
 73
    14
  0
VERTEX
  5
422
  8
0
 62
     9
 10
0.0
 20
0.0
 30
0.0
 70
   128
 71
    10
 72
    15
 73
    11
  0
VERTEX
  5
423
  8
0
 62
     9
 10
0.0
 20
0.0
 30
0.0
 70
   128
 71
     7
 72
    12
 73
     8
  0
VERTEX
  5
424
  8
0
 62
     9
 10
0.0
 20
0.0
 30
0.0
 70
   128
 71
     6
 72
     9
 73
     5
  0
VERTEX
  5
425
  8
0
 62
     9
 10
0.0
 20
0.0
 30
0.0
 70
   128
 71
     1
 72
    19
 73
     3
  0
SEQEND
  5
426
  8
0
 62
     9
  0
ENDBLK
  5
429
  8
0
  0
BLOCK
  8
0
  2
E3_NODE_22_
 70
     0
 10
0.0
 20
0.0
 30
0.0
  3
E3_NODE_22_
  1

  0
POLYLINE
  5
42B
  8
0
 62
     9
 66
     1
 10
0.0
 20
0.0
 30
0.0
 70
    64
 71
     7
 72
     5
  0
VERTEX
  5
42C
  8
0
 10
0.0
 20
10.47999954223633
 30
-10.0
 70
   192
  0
VERTEX
  5
42D
  8
0
 10
-4.546999931335449
 20
-9.442000389099121
 30
-10.0
 70
   192
  0
VERTEX
  5
42E
  8
0
 10
-10.21700000762939
 20
-2.332000017166138
 30
-10.0
 70
   192
  0
VERTEX
  5
42F
  8
0
 10
8.194000244140625
 20
6.533999919891357
 30
-10.0
 70
   192
  0
VERTEX
  5
430
  8
0
 10
10.21700000762939
 20
-2.332000017166138
 30
-10.0
 70
   192
  0
VERTEX
  5
431
  8
0
 10
4.546999931335449
 20
-9.442000389099121
 30
-10.0
 70
   192
  0
VERTEX
  5
432
  8
0
 10
-8.194000244140625
 20
6.533999919891357
 30
-10.0
 70
   192
  0
VERTEX
  5
433
  8
0
 62
     9
 10
0.0
 20
0.0
 30
0.0
 70
   128
 71
     3
 72
     2
 73
     1
  0
VERTEX
  5
434
  8
0
 62
     9
 10
0.0
 20
0.0
 30
0.0
 70
   128
 71
     5
 72
     4
 73
     1
  0
VERTEX
  5
435
  8
0
 62
     9
 10
0.0
 20
0.0
 30
0.0
 70
   128
 71
     2
 72
     6
 73
     1
  0
VERTEX
  5
436
  8
0
 62
     9
 10
0.0
 20
0.0
 30
0.0
 70
   128
 71
     1
 72
     7
 73
     3
  0
VERTEX
  5
437
  8
0
 62
     9
 10
0.0
 20
0.0
 30
0.0
 70
   128
 71
     1
 72
     6
 73
     5
  0
SEQEND
  5
438
  8
0
 62
     9
  0
ENDBLK
  5
43B
  8
0
  0
ENDSEC
  0
SECTION
  2
ENTITIES
  0
INSERT
  5
72
  8
LAYER_1
  2
E3_NODE
 10
0.0
 20
0.0
 30
0.0
  0
INSERT
  5
91
  8
LAYER_1
  2
E3_NODE_1_
 10
0.0
 20
0.0
 30
0.0
  0
INSERT
  5
BB
  8
LAYER_1
  2
E3_NODE_2_
 10
0.0
 20
0.0
 30
0.0
  0
INSERT
  5
E7
  8
LAYER_1
  2
E3_NODE_3_
 10
0.0
 20
0.0
 30
0.0
  0
INSERT
  5
133
  8
LAYER_1
  2
E3_NODE_4_
 10
0.0
 20
0.0
 30
0.0
  0
INSERT
  5
1CB
  8
LAYER_1
  2
E3_NODE_5_
 10
0.0
 20
0.0
 30
0.0
  0
INSERT
  5
233
  8
LAYER_1
  2
E3_NODE_6_
 10
0.0
 20
0.0
 30
0.0
  0
INSERT
  5
2BD
  8
LAYER_1
  2
E3_NODE_7_
 10
0.0
 20
0.0
 30
0.0
  0
INSERT
  5
305
  8
LAYER_1
  2
E3_NODE_8_
 10
0.0
 20
0.0
 30
0.0
  0
INSERT
  5
325
  8
LAYER_1
  2
E3_NODE_9_
 10
0.0
 20
0.0
 30
0.0
  0
INSERT
  5
331
  8
LAYER_1
  2
E3_NODE_10_
 10
0.0
 20
0.0
 30
0.0
  0
INSERT
  5
33F
  8
LAYER_1
  2
E3_NODE_11_
 10
0.0
 20
0.0
 30
0.0
  0
INSERT
  5
34B
  8
LAYER_1
  2
E3_NODE_12_
 10
0.0
 20
0.0
 30
0.0
  0
INSERT
  5
357
  8
LAYER_1
  2
E3_NODE_13_
 10
0.0
 20
0.0
 30
0.0
  0
INSERT
  5
365
  8
LAYER_1
  2
E3_NODE_14_
 10
0.0
 20
0.0
 30
0.0
  0
INSERT
  5
371
  8
LAYER_1
  2
E3_NODE_15_
 10
0.0
 20
0.0
 30
0.0
  0
INSERT
  5
381
  8
LAYER_1
  2
E3_NODE_16_
 10
0.0
 20
0.0
 30
0.0
  0
INSERT
  5
39F
  8
LAYER_1
  2
E3_NODE_17_
 10
0.0
 20
0.0
 30
0.0
  0
INSERT
  5
3AB
  8
LAYER_1
  2
E3_NODE_18_
 10
0.0
 20
0.0
 30
0.0
  0
INSERT
  5
3EF
  8
LAYER_1
  2
E3_NODE_19_
 10
0.0
 20
0.0
 30
0.0
  0
INSERT
  5
3FB
  8
LAYER_1
  2
E3_NODE_20_
 10
0.0
 20
0.0
 30
0.0
  0
INSERT
  5
427
  8
LAYER_1
  2
E3_NODE_21_
 10
0.0
 20
0.0
 30
0.0
  0
INSERT
  5
439
  8
LAYER_1
  2
E3_NODE_22_
 10
0.0
 20
0.0
 30
0.0
  0
ENDSEC
  0
EOF
