  0
SECTION
  2
HEADER
  9
$ACADVER
  1
AC1015
  9
$ACADMAINTVER
 70
     6
  9
$DWGCODEPAGE
  3
ANSI_1252
  9
$INSBASE
 10
0.0
 20
0.0
 30
0.0
  9
$EXTMIN
 10
0.0
 20
0.0
 30
0.0
  9
$EXTMAX
 10
1682.0
 20
2378.0
 30
0.0
  9
$LIMMIN
 10
0.0
 20
0.0
  9
$LIMMAX
 10
1682.0
 20
2378.0
  9
$ORTHOMODE
 70
     0
  9
$REGENMODE
 70
     1
  9
$FILLMODE
 70
     1
  9
$QTEXTMODE
 70
     0
  9
$MIRRTEXT
 70
     1
  9
$LTSCALE
 40
1.0
  9
$ATTMODE
 70
     1
  9
$TEXTSIZE
 40
2.5
  9
$TRACEWID
 40
1.0
  9
$TEXTSTYLE
  7
Standard
  9
$CLAYER
  8
0
  9
$CELTYPE
  6
ByLayer
  9
$CECOLOR
 62
   256
  9
$CELTSCALE
 40
1.0
  9
$DISPSILH
 70
     0
  9
$DIMSCALE
 40
1.0
  9
$DIMASZ
 40
2.5
  9
$DIMEXO
 40
0.625
  9
$DIMDLI
 40
3.75
  9
$DIMRND
 40
0.0
  9
$DIMDLE
 40
0.0
  9
$DIMEXE
 40
1.25
  9
$DIMTP
 40
0.0
  9
$DIMTM
 40
0.0
  9
$DIMTXT
 40
2.5
  9
$DIMCEN
 40
2.5
  9
$DIMTSZ
 40
0.0
  9
$DIMTOL
 70
     0
  9
$DIMLIM
 70
     0
  9
$DIMTIH
 70
     0
  9
$DIMTOH
 70
     0
  9
$DIMSE1
 70
     0
  9
$DIMSE2
 70
     0
  9
$DIMTAD
 70
     1
  9
$DIMZIN
 70
     8
  9
$DIMBLK
  1

  9
$DIMASO
 70
     1
  9
$DIMSHO
 70
     1
  9
$DIMPOST
  1

  9
$DIMAPOST
  1

  9
$DIMALT
 70
     0
  9
$DIMALTD
 70
     3
  9
$DIMALTF
 40
0.0393700787
  9
$DIMLFAC
 40
1.0
  9
$DIMTOFL
 70
     1
  9
$DIMTVP
 40
0.0
  9
$DIMTIX
 70
     0
  9
$DIMSOXD
 70
     0
  9
$DIMSAH
 70
     0
  9
$DIMBLK1
  1

  9
$DIMBLK2
  1

  9
$DIMSTYLE
  2
ISO-25
  9
$DIMCLRD
 70
     0
  9
$DIMCLRE
 70
     0
  9
$DIMCLRT
 70
     0
  9
$DIMTFAC
 40
1.0
  9
$DIMGAP
 40
0.625
  9
$DIMJUST
 70
     0
  9
$DIMSD1
 70
     0
  9
$DIMSD2
 70
     0
  9
$DIMTOLJ
 70
     0
  9
$DIMTZIN
 70
     8
  9
$DIMALTZ
 70
     0
  9
$DIMALTTZ
 70
     0
  9
$DIMUPT
 70
     0
  9
$DIMDEC
 70
     2
  9
$DIMTDEC
 70
     2
  9
$DIMALTU
 70
     2
  9
$DIMALTTD
 70
     3
  9
$DIMTXSTY
  7
Standard
  9
$DIMAUNIT
 70
     0
  9
$DIMADEC
 70
     0
  9
$DIMALTRND
 40
0.0
  9
$DIMAZIN
 70
     0
  9
$DIMDSEP
 70
    44
  9
$DIMATFIT
 70
     3
  9
$DIMFRAC
 70
     0
  9
$DIMLDRBLK
  1

  9
$DIMLUNIT
 70
     2
  9
$DIMLWD
 70
    -2
  9
$DIMLWE
 70
    -2
  9
$DIMTMOVE
 70
     0
  9
$LUNITS
 70
     2
  9
$LUPREC
 70
     4
  9
$SKETCHINC
 40
1.0
  9
$FILLETRAD
 40
10.0
  9
$AUNITS
 70
     0
  9
$AUPREC
 70
     0
  9
$MENU
  1
.
  9
$ELEVATION
 40
0.0
  9
$PELEVATION
 40
0.0
  9
$THICKNESS
 40
0.0
  9
$LIMCHECK
 70
     0
  9
$CHAMFERA
 40
10.0
  9
$CHAMFERB
 40
10.0
  9
$CHAMFERC
 40
20.0
  9
$CHAMFERD
 40
0.0
  9
$SKPOLY
 70
     0
  9
$TDCREATE
 40
2455446.433300995
  9
$TDUCREATE
 40
2455446.349967662
  9
$TDUPDATE
 40
2455446.433301007
  9
$TDUUPDATE
 40
2455446.349967673
  9
$TDINDWG
 40
0.0000000116
  9
$TDUSRTIMER
 40
0.0000000116
  9
$USRTIMER
 70
     1
  9
$ANGBASE
 50
0.0
  9
$ANGDIR
 70
     0
  9
$PDMODE
 70
     0
  9
$PDSIZE
 40
0.0
  9
$PLINEWID
 40
0.0
  9
$SPLFRAME
 70
     0
  9
$SPLINETYPE
 70
     6
  9
$SPLINESEGS
 70
     8
  9
$HANDSEED
  5
12C
  9
$SURFTAB1
 70
     6
  9
$SURFTAB2
 70
     6
  9
$SURFTYPE
 70
     6
  9
$SURFU
 70
     6
  9
$SURFV
 70
     6
  9
$UCSBASE
  2

  9
$UCSNAME
  2

  9
$UCSORG
 10
0.0
 20
0.0
 30
0.0
  9
$UCSXDIR
 10
1.0
 20
0.0
 30
0.0
  9
$UCSYDIR
 10
0.0
 20
1.0
 30
0.0
  9
$UCSORTHOREF
  2

  9
$UCSORTHOVIEW
 70
     0
  9
$UCSORGTOP
 10
0.0
 20
0.0
 30
0.0
  9
$UCSORGBOTTOM
 10
0.0
 20
0.0
 30
0.0
  9
$UCSORGLEFT
 10
0.0
 20
0.0
 30
0.0
  9
$UCSORGRIGHT
 10
0.0
 20
0.0
 30
0.0
  9
$UCSORGFRONT
 10
0.0
 20
0.0
 30
0.0
  9
$UCSORGBACK
 10
0.0
 20
0.0
 30
0.0
  9
$PUCSBASE
  2

  9
$PUCSNAME
  2

  9
$PUCSORG
 10
0.0
 20
0.0
 30
0.0
  9
$PUCSXDIR
 10
1.0
 20
0.0
 30
0.0
  9
$PUCSYDIR
 10
0.0
 20
1.0
 30
0.0
  9
$PUCSORTHOREF
  2

  9
$PUCSORTHOVIEW
 70
     0
  9
$PUCSORGTOP
 10
0.0
 20
0.0
 30
0.0
  9
$PUCSORGBOTTOM
 10
0.0
 20
0.0
 30
0.0
  9
$PUCSORGLEFT
 10
0.0
 20
0.0
 30
0.0
  9
$PUCSORGRIGHT
 10
0.0
 20
0.0
 30
0.0
  9
$PUCSORGFRONT
 10
0.0
 20
0.0
 30
0.0
  9
$PUCSORGBACK
 10
0.0
 20
0.0
 30
0.0
  9
$USERI1
 70
     0
  9
$USERI2
 70
     0
  9
$USERI3
 70
     0
  9
$USERI4
 70
     0
  9
$USERI5
 70
     0
  9
$USERR1
 40
0.0
  9
$USERR2
 40
0.0
  9
$USERR3
 40
0.0
  9
$USERR4
 40
0.0
  9
$USERR5
 40
0.0
  9
$WORLDVIEW
 70
     1
  9
$SHADEDGE
 70
     3
  9
$SHADEDIF
 70
    70
  9
$TILEMODE
 70
     1
  9
$MAXACTVP
 70
    64
  9
$PINSBASE
 10
0.0
 20
0.0
 30
0.0
  9
$PLIMCHECK
 70
     0
  9
$PEXTMIN
 10
0.0
 20
0.0
 30
0.0
  9
$PEXTMAX
 10
1682.0
 20
2378.0
 30
0.0
  9
$PLIMMIN
 10
0.0
 20
0.0
  9
$PLIMMAX
 10
1682.0
 20
2378.0
  9
$UNITMODE
 70
     0
  9
$VISRETAIN
 70
     1
  9
$PLINEGEN
 70
     0
  9
$PSLTSCALE
 70
     1
  9
$TREEDEPTH
 70
  3020
  9
$CMLSTYLE
  2
Standard
  9
$CMLJUST
 70
     0
  9
$CMLSCALE
 40
20.0
  9
$PROXYGRAPHICS
 70
     1
  9
$MEASUREMENT
 70
     1
  9
$CELWEIGHT
370
    -1
  9
$ENDCAPS
280
     0
  9
$JOINSTYLE
280
     0
  9
$LWDISPLAY
290
     0
  9
$INSUNITS
 70
     4
  9
$HYPERLINKBASE
  1

  9
$STYLESHEET
  1

  9
$XEDIT
290
     1
  9
$CEPSNTYPE
380
     0
  9
$PSTYLEMODE
290
     1
  9
$FINGERPRINTGUID
  2
{DDF16958-F81E-4411-BF06-CD01A0D09DAA}
  9
$VERSIONGUID
  2
{FAEB1C32-E019-11D5-929B-00C0DF256EC4}
  9
$EXTNAMES
290
     1
  9
$PSVPSCALE
 40
0.0
  9
$OLESTARTUP
290
     0
  0
ENDSEC
  0
SECTION
  2
CLASSES
  0
CLASS
  1
ACDBDICTIONARYWDFLT
  2
AcDbDictionaryWithDefault
  3
ObjectDBX Classes
 90
        0
280
     0
281
     0
  0
CLASS
  1
VISUALSTYLE
  2
AcDbVisualStyle
  3
ObjectDBX Classes
 90
     4095
280
     0
281
     0
  0
CLASS
  1
SCALE
  2
AcDbScale
  3
ObjectDBX Classes
 90
     1153
280
     0
281
     0
  0
CLASS
  1
DICTIONARYVAR
  2
AcDbDictionaryVar
  3
ObjectDBX Classes
 90
        0
280
     0
281
     0
  0
CLASS
  1
ACDBPLACEHOLDER
  2
AcDbPlaceHolder
  3
ObjectDBX Classes
 90
        0
280
     0
281
     0
  0
CLASS
  1
LAYOUT
  2
AcDbLayout
  3
ObjectDBX Classes
 90
        0
280
     0
281
     0
  0
ENDSEC
  0
SECTION
  2
TABLES
  0
TABLE
  2
VPORT
  5
8
330
0
100
AcDbSymbolTable
 70
     1
  0
VPORT
  5
29
330
8
100
AcDbSymbolTableRecord
100
AcDbViewportTableRecord
  2
*Active
 70
     0
 10
0.0
 20
0.0
 11
1.0
 21
1.0
 12
344.1869158879
 22
148.5
 13
0.0
 23
0.0
 14
10.0
 24
10.0
 15
10.0
 25
10.0
 16
0.0
 26
0.0
 36
1.0
 17
0.0
 27
0.0
 37
0.0
 40
297.0
 41
1.9729729729
 42
50.0
 43
0.0
 44
0.0
 50
0.0
 51
0.0
 71
     0
 72
   100
 73
     1
 74
     3
 75
     0
 76
     0
 77
     0
 78
     0
281
     0
 65
     1
110
0.0
120
0.0
130
0.0
111
1.0
121
0.0
131
0.0
112
0.0
122
1.0
132
0.0
 79
     0
146
0.0
  0
ENDTAB
  0
TABLE
  2
LTYPE
  5
5
330
0
100
AcDbSymbolTable
 70
     2
  0
LTYPE
  5
14
330
5
100
AcDbSymbolTableRecord
100
AcDbLinetypeTableRecord
  2
ByBlock
 70
     0
  3

 72
    65
 73
     0
 40
0.0
  0
LTYPE
  5
15
330
5
100
AcDbSymbolTableRecord
100
AcDbLinetypeTableRecord
  2
ByLayer
 70
     0
  3

 72
    65
 73
     0
 40
0.0
  0
LTYPE
  5
16
330
5
100
AcDbSymbolTableRecord
100
AcDbLinetypeTableRecord
  2
Continuous
 70
     0
  3
Solid line
 72
    65
 73
     0
 40
0.0
  0
LTYPE
  5
60
330
5
100
AcDbSymbolTableRecord
100
AcDbLinetypeTableRecord
  2
CENTER2
 70
     0
  3
Center (.5x) ___ _ ___ _ ___ _ ___ _ ___ _ ___
 72
    65
 73
     4
 40
28.575
 49
19.05
 74
     4
 75
     0
340
0
 46
0.0
 50
0.0
 44
0.0
 45
0.0
 49
-3.175
 74
     4
 75
     0
340
0
 46
0.0
 50
0.0
 44
0.0
 45
0.0
 49
3.175
 74
     4
 75
     0
340
0
 46
0.0
 50
0.0
 44
0.0
 45
0.0
 49
-3.175
 74
     4
 75
     0
340
0
 46
0.0
 50
0.0
 44
0.0
 45
0.0
  0
ENDTAB
  0
TABLE
  2
LAYER
  5
2
330
0
100
AcDbSymbolTable
 70
     5
  0
LAYER
  5
10
330
2
100
AcDbSymbolTableRecord
100
AcDbLayerTableRecord
  2
0
 70
     0
 62
     7
  6
Continuous
370
    -3
390
F
  0
LAYER
  5
5D
330
2
100
AcDbSymbolTableRecord
100
AcDbLayerTableRecord
  2
Default
 70
     0
 62
     7
  6
Continuous
370
    -3
390
F
  0
LAYER
  5
87
330
2
100
AcDbSymbolTableRecord
100
AcDbLayerTableRecord
  2
DV1_Standard
 70
     0
 62
     7
  6
Continuous
370
    -3
390
F
  0
LAYER
  5
BC
330
2
100
AcDbSymbolTableRecord
100
AcDbLayerTableRecord
  2
DV2_Standard
 70
     0
 62
     7
  6
Continuous
370
    -3
390
F
  0
LAYER
  5
F4
330
2
100
AcDbSymbolTableRecord
100
AcDbLayerTableRecord
  2
DV3_Standard
 70
     0
 62
     7
  6
Continuous
370
    -3
390
F
  0
ENDTAB
  0
TABLE
  2
STYLE
  5
3
330
0
100
AcDbSymbolTable
 70
     2
  0
STYLE
  5
11
330
3
100
AcDbSymbolTableRecord
100
AcDbTextStyleTableRecord
  2
Standard
 70
     0
 40
0.0
 41
1.0
 50
0.0
 71
     0
 42
2.5
  3
txt
  4

  0
STYLE
  5
11B
330
3
100
AcDbSymbolTableRecord
100
AcDbTextStyleTableRecord
  2
SEACAD_seiso_ttf
 70
     0
 40
0.0
 41
1.0
 50
0.0
 71
     0
 42
0.2
  3
seiso.ttf
  4

  0
ENDTAB
  0
TABLE
  2
VIEW
  5
6
330
0
100
AcDbSymbolTable
 70
     0
  0
ENDTAB
  0
TABLE
  2
UCS
  5
7
330
0
100
AcDbSymbolTable
 70
     0
  0
ENDTAB
  0
TABLE
  2
APPID
  5
9
330
0
100
AcDbSymbolTable
 70
     1
  0
APPID
  5
12
330
9
100
AcDbSymbolTableRecord
100
AcDbRegAppTableRecord
  2
ACAD
 70
     0
  0
ENDTAB
  0
TABLE
  2
DIMSTYLE
  5
A
330
0
100
AcDbSymbolTable
 70
     1
100
AcDbDimStyleTable
  0
DIMSTYLE
105
27
330
A
100
AcDbSymbolTableRecord
100
AcDbDimStyleTableRecord
  2
ISO-25
 70
     0
 41
2.5
 42
0.625
 43
3.75
 44
1.25
 73
     0
 74
     0
 77
     1
 78
     8
140
2.5
141
2.5
143
0.0393700787
147
0.625
171
     3
172
     1
271
     2
272
     2
274
     3
278
    44
283
     0
284
     8
340
11
  0
ENDTAB
  0
TABLE
  2
BLOCK_RECORD
  5
1
330
0
100
AcDbSymbolTable
 70
     9
  0
BLOCK_RECORD
  5
1F
330
1
100
AcDbSymbolTableRecord
100
AcDbBlockTableRecord
  2
*Model_Space
340
22
  0
BLOCK_RECORD
  5
1B
330
1
100
AcDbSymbolTableRecord
100
AcDbBlockTableRecord
  2
*Paper_Space
340
1E
  0
BLOCK_RECORD
  5
5E
330
1
100
AcDbSymbolTableRecord
100
AcDbBlockTableRecord
  2
SEANNOT_GROUP
340
0
102
{BLKREFS
331
5F
102
}
  0
BLOCK_RECORD
  5
65
330
1
100
AcDbSymbolTableRecord
100
AcDbBlockTableRecord
  2
SEANNOT_GROUP1
340
0
102
{BLKREFS
331
66
102
}
  0
BLOCK_RECORD
  5
6B
330
1
100
AcDbSymbolTableRecord
100
AcDbBlockTableRecord
  2
SEANNOT_GROUP2
340
0
102
{BLKREFS
331
6C
102
}
  0
BLOCK_RECORD
  5
75
330
1
100
AcDbSymbolTableRecord
100
AcDbBlockTableRecord
  2
SEANNOT_GROUP3
340
0
102
{BLKREFS
331
76
102
}
  0
BLOCK_RECORD
  5
7B
330
1
100
AcDbSymbolTableRecord
100
AcDbBlockTableRecord
  2
SEANNOT_GROUP4
340
0
102
{BLKREFS
331
7C
102
}
  0
BLOCK_RECORD
  5
85
330
1
100
AcDbSymbolTableRecord
100
AcDbBlockTableRecord
  2
SE
340
0
102
{BLKREFS
331
86
102
}
  0
BLOCK_RECORD
  5
BA
330
1
100
AcDbSymbolTableRecord
100
AcDbBlockTableRecord
  2
SE1
340
0
102
{BLKREFS
331
BB
102
}
  0
BLOCK_RECORD
  5
F2
330
1
100
AcDbSymbolTableRecord
100
AcDbBlockTableRecord
  2
SE2
340
0
102
{BLKREFS
331
F3
102
}
  0
ENDTAB
  0
ENDSEC
  0
SECTION
  2
BLOCKS
  0
BLOCK
  5
20
330
1F
100
AcDbEntity
  8
0
100
AcDbBlockBegin
  2
*Model_Space
 70
     0
 10
0.0
 20
0.0
 30
0.0
  3
*Model_Space
  1

  0
ENDBLK
  5
21
330
1F
100
AcDbEntity
  8
0
100
AcDbBlockEnd
  0
BLOCK
  5
1C
330
1B
100
AcDbEntity
 67
     1
  8
0
100
AcDbBlockBegin
  2
*Paper_Space
 70
     0
 10
0.0
 20
0.0
 30
0.0
  3
*Paper_Space
  1

  0
ENDBLK
  5
1D
330
1B
100
AcDbEntity
 67
     1
  8
0
100
AcDbBlockEnd
  0
BLOCK
  5
63
330
5E
100
AcDbEntity
  8
0
100
AcDbBlockBegin
  2
SEANNOT_GROUP
 70
     0
 10
0.0
 20
0.0
 30
0.0
  3
SEANNOT_GROUP
  1

  0
LINE
  5
61
330
5E
100
AcDbEntity
  8
Default
  6
CENTER2
 62
     7
100
AcDbLine
 10
153.7922476205
 20
459.855031622
 30
0.0
 11
113.7922485146
 21
459.855031622
 31
0.0
  0
LINE
  5
62
330
5E
100
AcDbEntity
  8
Default
  6
CENTER2
 62
     7
100
AcDbLine
 10
133.7922480675
 20
479.855031175
 30
0.0
 11
133.7922480675
 21
439.855032069
 31
0.0
  0
ENDBLK
  5
64
330
5E
100
AcDbEntity
  8
0
100
AcDbBlockEnd
  0
BLOCK
  5
69
330
65
100
AcDbEntity
  8
0
100
AcDbBlockBegin
  2
SEANNOT_GROUP1
 70
     0
 10
0.0
 20
0.0
 30
0.0
  3
SEANNOT_GROUP1
  1

  0
LINE
  5
67
330
65
100
AcDbEntity
  8
Default
  6
CENTER2
 62
     7
100
AcDbLine
 10
338.8957333919
 20
393.7880096285
 30
0.0
 11
298.895734286
 21
393.7880096285
 31
0.0
  0
LINE
  5
68
330
65
100
AcDbEntity
  8
Default
  6
CENTER2
 62
     7
100
AcDbLine
 10
318.8957338389
 20
413.7880091815
 30
0.0
 11
318.8957338389
 21
373.7880100756
 31
0.0
  0
ENDBLK
  5
6A
330
65
100
AcDbEntity
  8
0
100
AcDbBlockEnd
  0
BLOCK
  5
73
330
6B
100
AcDbEntity
  8
0
100
AcDbBlockBegin
  2
SEANNOT_GROUP2
 70
     0
 10
0.0
 20
0.0
 30
0.0
  3
SEANNOT_GROUP2
  1

  0
LINE
  5
6D
330
6B
100
AcDbEntity
  8
Default
  6
CENTER2
 62
     7
100
AcDbLine
 10
57.2002190728
 20
459.855031622
 30
0.0
 11
17.2002199669
 21
459.855031622
 31
0.0
  0
LINE
  5
6E
330
6B
100
AcDbEntity
  8
Default
  6
CENTER2
 62
     7
100
AcDbLine
 10
37.2002195199
 20
479.855031175
 30
0.0
 11
37.2002195199
 21
439.855032069
 31
0.0
  0
LINE
  5
6F
330
6B
100
AcDbEntity
  8
Default
  6
CENTER2
 62
     7
100
AcDbLine
 10
62.2002189611
 20
459.855031622
 30
0.0
 11
65.7002195199
 21
459.855031622
 31
0.0
  0
LINE
  5
70
330
6B
100
AcDbEntity
  8
Default
  6
CENTER2
 62
     7
100
AcDbLine
 10
37.2002195199
 20
484.8550310632
 30
0.0
 11
37.2002195199
 21
488.355031622
 31
0.0
  0
LINE
  5
71
330
6B
100
AcDbEntity
  8
Default
  6
CENTER2
 62
     7
100
AcDbLine
 10
12.2002200786
 20
459.855031622
 30
0.0
 11
8.7002195199
 21
459.855031622
 31
0.0
  0
LINE
  5
72
330
6B
100
AcDbEntity
  8
Default
  6
CENTER2
 62
     7
100
AcDbLine
 10
37.2002195199
 20
434.8550321808
 30
0.0
 11
37.2002195199
 21
431.355031622
 31
0.0
  0
ENDBLK
  5
74
330
6B
100
AcDbEntity
  8
0
100
AcDbBlockEnd
  0
BLOCK
  5
79
330
75
100
AcDbEntity
  8
0
100
AcDbBlockBegin
  2
SEANNOT_GROUP3
 70
     0
 10
0.0
 20
0.0
 30
0.0
  3
SEANNOT_GROUP3
  1

  0
LINE
  5
77
330
75
100
AcDbEntity
  8
Default
  6
CENTER2
 62
     7
100
AcDbLine
 10
57.2002190728
 20
325.0678277545
 30
0.0
 11
17.2002199669
 21
325.0678277545
 31
0.0
  0
LINE
  5
78
330
75
100
AcDbEntity
  8
Default
  6
CENTER2
 62
     7
100
AcDbLine
 10
37.2002195199
 20
345.0678273074
 30
0.0
 11
37.2002195199
 21
305.0678282015
 31
0.0
  0
ENDBLK
  5
7A
330
75
100
AcDbEntity
  8
0
100
AcDbBlockEnd
  0
BLOCK
  5
83
330
7B
100
AcDbEntity
  8
0
100
AcDbBlockBegin
  2
SEANNOT_GROUP4
 70
     0
 10
0.0
 20
0.0
 30
0.0
  3
SEANNOT_GROUP4
  1

  0
LINE
  5
7D
330
7B
100
AcDbEntity
  8
Default
  6
CENTER2
 62
     7
100
AcDbLine
 10
57.2029292959
 20
141.0467767146
 30
0.0
 11
17.20293019
 21
141.0467767146
 31
0.0
  0
LINE
  5
7E
330
7B
100
AcDbEntity
  8
Default
  6
CENTER2
 62
     7
100
AcDbLine
 10
37.2029297429
 20
161.0467762675
 30
0.0
 11
37.2029297429
 21
121.0467771616
 31
0.0
  0
LINE
  5
7F
330
7B
100
AcDbEntity
  8
Default
  6
CENTER2
 62
     7
100
AcDbLine
 10
62.2029291841
 20
141.0467767146
 30
0.0
 11
52.4896330234
 21
141.0467767146
 31
0.0
  0
LINE
  5
80
330
7B
100
AcDbEntity
  8
Default
  6
CENTER2
 62
     7
100
AcDbLine
 10
37.2029297429
 20
166.0467761558
 30
0.0
 11
37.2029297429
 21
156.3334799951
 31
0.0
  0
LINE
  5
81
330
7B
100
AcDbEntity
  8
Default
  6
CENTER2
 62
     7
100
AcDbLine
 10
12.2029303017
 20
141.0467767146
 30
0.0
 11
21.9162264624
 21
141.0467767146
 31
0.0
  0
LINE
  5
82
330
7B
100
AcDbEntity
  8
Default
  6
CENTER2
 62
     7
100
AcDbLine
 10
37.2029297429
 20
116.0467772733
 30
0.0
 11
37.2029297429
 21
125.760073434
 31
0.0
  0
ENDBLK
  5
84
330
7B
100
AcDbEntity
  8
0
100
AcDbBlockEnd
  0
BLOCK
  5
B8
330
85
100
AcDbEntity
  8
0
100
AcDbBlockBegin
  2
SE
 70
     0
 10
0.0
 20
0.0
 30
0.0
  3
SE
  1

  0
ARC
  5
88
330
85
100
AcDbEntity
  8
DV1_Standard
  6
Continuous
 62
     7
100
AcDbCircle
 10
37.2002195199
 20
459.855031622
 30
0.0
 40
11.5
100
AcDbArc
 50
0.0
 51
180.0
  0
ELLIPSE
  5
89
330
85
100
AcDbEntity
  8
DV1_Standard
  6
Continuous
 62
     7
100
AcDbEllipse
 10
37.2002195199
 20
418.0320792448
 30
0.0
 11
-11.5
 21
6.938893903907228E-15
 31
0.0
210
0.0
220
0.0
230
1.0
 40
0.3420201433
 41
3.141623835917222
 42
6.278652212871588
  0
ELLIPSE
  5
8A
330
85
100
AcDbEntity
  8
DV1_Standard
  6
Continuous
 62
     7
100
AcDbEllipse
 10
37.2002195199
 20
418.0320792448
 30
0.0
 11
-11.5
 21
6.938893903907228E-15
 31
0.0
210
0.0
220
0.0
230
1.0
 40
0.3420201433
 41
6.278652212871588
 42
6.283185307179586
  0
ELLIPSE
  5
8B
330
85
100
AcDbEntity
  8
DV1_Standard
  6
Continuous
 62
     7
100
AcDbEllipse
 10
37.2002195199
 20
417.7501766297
 30
0.0
 11
10.69999965644
 21
0.0
 31
0.0
210
0.0
220
0.0
230
1.0
 40
0.3420201433
 41
0.3102967284803529
 42
2.841546426291615
  0
LINE
  5
8C
330
85
100
AcDbEntity
  8
DV1_Standard
  6
Continuous
 62
     7
100
AcDbLine
 10
25.7002195199
 20
459.855031622
 30
0.0
 11
25.7002195199
 21
437.4837164951
 31
0.0
  0
LINE
  5
8D
330
85
100
AcDbEntity
  8
DV1_Standard
  6
Continuous
 62
     7
100
AcDbLine
 10
48.7002195199
 20
437.4837164951
 30
0.0
 11
48.7002195199
 21
459.855031622
 31
0.0
  0
LINE
  5
8E
330
85
100
AcDbEntity
  8
DV1_Standard
  6
Continuous
 62
     7
100
AcDbLine
 10
48.7002195199
 20
418.0320792448
 30
0.0
 11
48.7002195199
 21
437.4837164951
 31
0.0
  0
LINE
  5
8F
330
85
100
AcDbEntity
  8
DV1_Standard
  6
Continuous
 62
     7
100
AcDbLine
 10
25.7002195199
 20
437.4837164951
 30
0.0
 11
25.7002195199
 21
418.0320792448
 31
0.0
  0
SPLINE
  5
90
330
85
100
AcDbEntity
  8
DV1_Standard
  6
Continuous
 62
     7
100
AcDbSpline
210
0.0
220
0.0
230
1.0
 70
     8
 71
     3
 72
    11
 73
     7
 74
     0
 42
0.0000000157286569
 43
0.0000000001
 40
0.0
 40
0.0
 40
0.0
 40
0.0
 40
0.2187407487489419
 40
0.6026283905553894
 40
0.9877419747058078
 40
1.0
 40
1.0
 40
1.0
 40
1.0
 10
25.70483725382296
 20
418.0533899194456
 30
0.0
 10
25.70331261362535
 20
418.0029926691344
 30
0.0
 10
25.70050660955187
 20
417.8851976562496
 30
0.0
 10
25.73480660338673
 20
417.6742160417701
 30
0.0
 10
25.78176255267932
 20
417.5153791083077
 30
0.0
 10
25.81185193186275
 20
417.4353374319665
 30
0.0
 10
25.81278600712321
 20
417.4328690549041
 30
0.0
  0
SPLINE
  5
91
330
85
100
AcDbEntity
  8
DV1_Standard
  6
Continuous
 62
     7
100
AcDbSpline
210
0.0
220
0.0
230
1.0
 70
     8
 71
     3
 72
    11
 73
     7
 74
     0
 42
0.0000000162784693
 43
0.0000000001
 40
0.0
 40
0.0
 40
0.0
 40
0.0
 40
0.044909298256109
 40
0.4583825674983817
 40
0.8628929260761687
 40
1.0
 40
1.0
 40
1.0
 40
1.0
 10
48.58783185198525
 20
417.4332532130095
 30
0.0
 10
48.59113346082064
 20
417.4419904756845
 30
0.0
 10
48.6240702064921
 20
417.5312625658863
 30
0.0
 10
48.671212249787
 20
417.7009154607004
 30
0.0
 10
48.70139498458965
 20
417.8989926116365
 30
0.0
 10
48.69742192130276
 20
418.0017649386492
 30
0.0
 10
48.69612127575851
 20
418.0322575248031
 30
0.0
  0
ELLIPSE
  5
92
330
85
100
AcDbEntity
  8
DV1_Standard
  6
Continuous
 62
     7
100
AcDbEllipse
 10
37.2002195199
 20
393.7880096285
 30
0.0
 11
-8.799598690742428
 21
0.0
 31
0.0
210
0.0
220
0.0
230
1.0
 40
0.3420201433
 41
0.0
 42
6.283185307179586
  0
ELLIPSE
  5
93
330
85
100
AcDbEntity
  8
DV1_Standard
  6
Continuous
 62
     7
100
AcDbEllipse
 10
37.2002195199
 20
393.9763338482
 30
0.0
 11
-8.999999999999998
 21
0.0
 31
0.0
210
0.0
220
0.0
230
1.0
 40
0.3420201433
 41
2.769083508229439
 42
6.283185307179586
  0
ELLIPSE
  5
94
330
85
100
AcDbEntity
  8
DV1_Standard
  6
Continuous
 62
     7
100
AcDbEllipse
 10
37.2002195199
 20
393.9763338482
 30
0.0
 11
-8.999999999999998
 21
0.0
 31
0.0
210
0.0
220
0.0
230
1.0
 40
0.3420201433
 41
0.0
 42
0.3725091453603507
  0
ELLIPSE
  5
95
330
85
100
AcDbEntity
  8
DV1_Standard
  6
Continuous
 62
     7
100
AcDbEllipse
 10
37.2002195199
 20
394.7627784534
 30
0.0
 11
-8.999999999999998
 21
0.0
 31
0.0
210
0.0
220
0.0
230
1.0
 40
0.3420201433
 41
6.244735363283369
 42
6.283185307179586
  0
ELLIPSE
  5
96
330
85
100
AcDbEntity
  8
DV1_Standard
  6
Continuous
 62
     7
100
AcDbEllipse
 10
37.2002195199
 20
394.7627784534
 30
0.0
 11
-8.999999999999998
 21
0.0
 31
0.0
210
0.0
220
0.0
230
1.0
 40
0.3420201433
 41
3.141592653589793
 42
3.180042597486001
  0
LINE
  5
97
330
85
100
AcDbEntity
  8
DV1_Standard
  6
Continuous
 62
     7
100
AcDbLine
 10
28.8174659259
 20
392.8560185755
 30
0.0
 11
29.0041231254
 21
392.6926402055
 31
0.0
  0
LINE
  5
98
330
85
100
AcDbEntity
  8
DV1_Standard
  6
Continuous
 62
     7
100
AcDbLine
 10
45.3963159143
 20
392.6926402055
 30
0.0
 11
45.5829731138
 21
392.8560185755
 31
0.0
  0
LINE
  5
99
330
85
100
AcDbEntity
  8
DV1_Standard
  6
Continuous
 62
     7
100
AcDbLine
 10
28.2002195199
 20
394.7627784534
 30
0.0
 11
28.2002195199
 21
393.9763338482
 31
0.0
  0
LINE
  5
9A
330
85
100
AcDbEntity
  8
DV1_Standard
  6
Continuous
 62
     7
100
AcDbLine
 10
46.2002195199
 20
393.9763338482
 30
0.0
 11
46.2002195199
 21
394.7627784534
 31
0.0
  0
SPLINE
  5
9B
330
85
100
AcDbEntity
  8
DV1_Standard
  6
Continuous
 62
     7
100
AcDbSpline
210
0.0
220
0.0
230
1.0
 70
     8
 71
     3
 72
     9
 73
     5
 74
     0
 42
0.0000000244980763
 43
0.0000000001
 40
0.0
 40
0.0
 40
0.0
 40
0.0
 40
0.4651469181445985
 40
1.0
 40
1.0
 40
1.0
 40
1.0
 10
46.20430048922768
 20
394.1783461838368
 30
0.0
 10
46.24327706411822
 20
394.2292343350798
 30
0.0
 10
46.32220385035567
 20
394.341002433098
 30
0.0
 10
46.38993952341055
 20
394.4581017517268
 30
0.0
 10
46.42263459639274
 20
394.5222390506659
 30
0.0
  0
SPLINE
  5
9C
330
85
100
AcDbEntity
  8
DV1_Standard
  6
Continuous
 62
     7
100
AcDbSpline
210
0.0
220
0.0
230
1.0
 70
     8
 71
     3
 72
     9
 73
     5
 74
     0
 42
0.0000000246729922
 43
0.0000000001
 40
0.0
 40
0.0
 40
0.0
 40
0.0
 40
0.6373885411933694
 40
1.0
 40
1.0
 40
1.0
 40
1.0
 10
27.97951359274175
 20
394.5188953859031
 30
0.0
 10
28.0183400906043
 20
394.4430752410464
 30
0.0
 10
28.08699166381381
 20
394.3274470224887
 30
0.0
 10
28.16647670779137
 20
394.2170459544686
 30
0.0
 10
28.19665423842601
 20
394.1776728816119
 30
0.0
  0
ARC
  5
9D
330
85
100
AcDbEntity
  8
DV1_Standard
  6
Continuous
 62
     7
100
AcDbCircle
 10
37.2002195199
 20
459.855031622
 30
0.0
 40
11.55
100
AcDbArc
 50
0.0
 51
185.3332069535
  0
ARC
  5
9E
330
85
100
AcDbEntity
  8
DV1_Standard
  6
Continuous
 62
     7
100
AcDbCircle
 10
37.2002195199
 20
459.855031622
 30
0.0
 40
11.55
100
AcDbArc
 50
354.6667930465
 51
0.0
  0
ARC
  5
9F
330
85
100
AcDbEntity
  8
DV1_Standard
  6
Continuous
 62
     7
100
AcDbCircle
 10
37.2002195199
 20
459.855031622
 30
0.0
 40
11.62838327686
100
AcDbArc
 50
351.4781758119
 51
0.0
  0
ARC
  5
A0
330
85
100
AcDbEntity
  8
DV1_Standard
  6
Continuous
 62
     7
100
AcDbCircle
 10
37.2002195199
 20
459.855031622
 30
0.0
 40
12.99948624264
100
AcDbArc
 50
0.0
 51
207.7914765921
  0
ARC
  5
A1
330
85
100
AcDbEntity
  8
DV1_Standard
  6
Continuous
 62
     7
100
AcDbCircle
 10
37.2002195199
 20
459.855031622
 30
0.0
 40
12.99948624264
100
AcDbArc
 50
332.2085234079
 51
0.0
  0
ARC
  5
A2
330
85
100
AcDbEntity
  8
DV1_Standard
  6
Continuous
 62
     7
100
AcDbCircle
 10
37.2002195199
 20
459.855031622
 30
0.0
 40
20.83435971134
100
AcDbArc
 50
303.5024612817
 51
0.0
  0
ARC
  5
A3
330
85
100
AcDbEntity
  8
DV1_Standard
  6
Continuous
 62
     7
100
AcDbCircle
 10
37.2002195199
 20
459.855031622
 30
0.0
 40
20.83435971134
100
AcDbArc
 50
0.0
 51
236.4975387183
  0
ARC
  5
A4
330
85
100
AcDbEntity
  8
DV1_Standard
  6
Continuous
 62
     7
100
AcDbCircle
 10
37.2002195199
 20
459.855031622
 30
0.0
 40
25.0
100
AcDbArc
 50
0.0
 51
242.6128924973
  0
ARC
  5
A5
330
85
100
AcDbEntity
  8
DV1_Standard
  6
Continuous
 62
     7
100
AcDbCircle
 10
37.2002195199
 20
459.855031622
 30
0.0
 40
25.0
100
AcDbArc
 50
297.3871075027
 51
0.0
  0
ELLIPSE
  5
A6
330
85
100
AcDbEntity
  8
DV1_Standard
  6
Continuous
 62
     7
100
AcDbEllipse
 10
37.2002195199
 20
393.7880096285
 30
0.0
 11
-11.19999959785
 21
0.0
 31
0.0
210
0.0
220
0.0
230
1.0
 40
0.3420201433
 41
0.0
 42
6.283185307179586
  0
ELLIPSE
  5
A7
330
85
100
AcDbEntity
  8
DV1_Standard
  6
Continuous
 62
     7
100
AcDbEllipse
 10
37.2002195199
 20
393.7880096285
 30
0.0
 11
-9.574554663185397
 21
0.0
 31
0.0
210
0.0
220
0.0
230
1.0
 40
0.3420201433
 41
0.0
 42
6.283185307179586
  0
ELLIPSE
  5
A8
330
85
100
AcDbEntity
  8
DV1_Standard
  6
Continuous
 62
     7
100
AcDbEllipse
 10
37.2002195199
 20
416.8104788378
 30
0.0
 11
11.49999999999934
 21
-6.938893903907227E-15
 31
0.0
210
0.0
220
0.0
230
1.0
 40
0.3420201433
 41
3.139285526235327
 42
3.141592653589781
  0
ELLIPSE
  5
A9
330
85
100
AcDbEntity
  8
DV1_Standard
  6
Continuous
 62
     7
100
AcDbEllipse
 10
37.2002195199
 20
401.7500330479
 30
0.0
 11
11.26923007774
 21
0.0
 31
0.0
210
0.0
220
0.0
230
1.0
 40
0.3420201433
 41
0.990206666408849
 42
2.083477560798987
  0
ELLIPSE
  5
AA
330
85
100
AcDbEntity
  8
DV1_Standard
  6
Continuous
 62
     7
100
AcDbEllipse
 10
37.2002195199
 20
399.9213755825
 30
0.0
 11
11.26922980173
 21
0.0
 31
0.0
210
0.0
220
0.0
230
1.0
 40
0.3420201433
 41
1.158754100514387
 42
1.993174726064798
  0
ELLIPSE
  5
AB
330
85
100
AcDbEntity
  8
DV1_Standard
  6
Continuous
 62
     7
100
AcDbEllipse
 10
37.2002195199
 20
394.0699174148
 30
0.0
 11
11.5
 21
0.0
 31
0.0
210
0.0
220
0.0
230
1.0
 40
0.3420201433
 41
3.141592653589793
 42
3.147013617905332
  0
ELLIPSE
  5
AC
330
85
100
AcDbEntity
  8
DV1_Standard
  6
Continuous
 62
     7
100
AcDbEllipse
 10
37.2002195199
 20
394.0699174148
 30
0.0
 11
11.5
 21
0.0
 31
0.0
210
0.0
220
0.0
230
1.0
 40
0.3420201433
 41
0.022377356894213
 42
3.141592653589793
  0
ELLIPSE
  5
AD
330
85
100
AcDbEntity
  8
DV1_Standard
  6
Continuous
 62
     7
100
AcDbEllipse
 10
37.2002195199
 20
394.0699174148
 30
0.0
 11
11.5
 21
0.0
 31
0.0
210
0.0
220
0.0
230
1.0
 40
0.3420201433
 41
0.0
 42
0.022377356894213
  0
LINE
  5
AE
330
85
100
AcDbEntity
  8
DV1_Standard
  6
Continuous
 62
     7
100
AcDbLine
 10
25.7002195199
 20
416.8104788378
 30
0.0
 11
25.7002195199
 21
402.3026947951
 31
0.0
  0
LINE
  5
AF
330
85
100
AcDbEntity
  8
DV1_Standard
  6
Continuous
 62
     7
100
AcDbLine
 10
48.7002195199
 20
402.3062373761
 30
0.0
 11
48.7002195199
 21
416.8104788378
 31
0.0
  0
SPLINE
  5
B0
330
85
100
AcDbEntity
  8
DV1_Standard
  6
Continuous
 62
     7
100
AcDbSpline
210
0.0
220
0.0
230
1.0
 70
     8
 71
     3
 72
    64
 73
    60
 74
     0
 42
0.0000000003819585
 43
0.0000000001
 40
0.0
 40
0.0
 40
0.0
 40
0.0
 40
0.0017097595799443
 40
0.0176108951145621
 40
0.0335044657013837
 40
0.0495852632045065
 40
0.0660462872013391
 40
0.0830155094555658
 40
0.1005291334048609
 40
0.1185233428461764
 40
0.1368622958564502
 40
0.1553930053039334
 40
0.1739919059585358
 40
0.1925655964737472
 40
0.2110830397179982
 40
0.229534724439805
 40
0.2479215857820697
 40
0.2662491809177309
 40
0.2845246390745396
 40
0.3027551978348856
 40
0.3209475727392013
 40
0.33910774102078
 40
0.357240920171782
 40
0.3753516307935842
 40
0.3934437898044997
 40
0.4115208088637255
 40
0.4295856872493756
 40
0.4476410954649685
 40
0.4656894491838423
 40
0.4837329746359371
 40
0.5017737671443943
 40
0.5198138447125296
 40
0.5378548241358835
 40
0.5558984224243377
 40
0.5739467000853379
 40
0.592001825547596
 40
0.6100661310200858
 40
0.6281421744439812
 40
0.6462328094816416
 40
0.6643412653816353
 40
0.6824712379433288
 40
0.7006269912403041
 40
0.7188134662463603
 40
0.73703638508248
 40
0.7553023244553635
 40
0.7736187016234245
 40
0.7919935569345689
 40
0.8104349032103343
 40
0.8289492020642626
 40
0.8475381683315305
 40
0.866192598105268
 40
0.8848780176032824
 40
0.9034955700535187
 40
0.9219062790932497
 40
0.9399330030126074
 40
0.9574207678615758
 40
0.9743125659877849
 40
0.99068039386978
 40
1.0
 40
1.0
 40
1.0
 40
1.0
 10
48.698451580697
 20
416.8037117605674
 30
0.0
 10
48.69912601280159
 20
416.8137140214087
 30
0.0
 10
48.70500067542952
 20
416.902285043041
 30
0.0
 10
48.68288654147031
 20
417.0869369411354
 30
0.0
 10
48.62899518178118
 20
417.3352275602098
 30
0.0
 10
48.53681877872061
 20
417.5819984204786
 30
0.0
 10
48.41084857186544
 20
417.8238152592093
 30
0.0
 10
48.24908004430585
 20
418.062129155514
 30
0.0
 10
48.0509787893639
 20
418.2964689480771
 30
0.0
 10
47.81612487501455
 20
418.526045734423
 30
0.0
 10
47.54519738854453
 20
418.7494911367037
 30
0.0
 10
47.23974804096681
 20
418.9654035510786
 30
0.0
 10
46.90190258525185
 20
419.1725971403848
 30
0.0
 10
46.53378512860866
 20
419.3703251552005
 30
0.0
 10
46.1372861678152
 20
419.558180872791
 30
0.0
 10
45.71392125173367
 20
419.7359915159398
 30
0.0
 10
45.26508640687514
 20
419.9036199050207
 30
0.0
 10
44.79214346746996
 20
420.0609163046364
 30
0.0
 10
44.29647232091121
 20
420.2077047561937
 30
0.0
 10
43.77950096374973
 20
420.3437845508707
 30
0.0
 10
43.24272038137448
 20
420.4689377273872
 30
0.0
 10
42.68768998835553
 20
420.5829380906428
 30
0.0
 10
42.1160374532378
 20
420.6855598024904
 30
0.0
 10
41.52945525021659
 20
420.7765848511328
 30
0.0
 10
40.92969532231785
 20
420.8558092624837
 30
0.0
 10
40.31856266099201
 20
420.92304813735
 30
0.0
 10
39.6979082667763
 20
420.9781396658872
 30
0.0
 10
39.06962175838317
 20
421.0209482740097
 30
0.0
 10
38.435623783898
 20
421.0513670356218
 30
0.0
 10
37.79785832203174
 20
421.0693194571621
 30
0.0
 10
37.15828492496335
 20
421.0747607139998
 30
0.0
 10
36.51887535253096
 20
421.0676784425552
 30
0.0
 10
35.88160478426594
 20
421.0480934712759
 30
0.0
 10
35.24844052809672
 20
421.0160598660494
 30
0.0
 10
34.62132984784898
 20
420.9716639048502
 30
0.0
 10
34.00219335217822
 20
420.9150226712207
 30
0.0
 10
33.392920608336
 20
420.846282576001
 30
0.0
 10
32.79536240845492
 20
420.7656171697037
 30
0.0
 10
32.21132309747073
 20
420.6732242382139
 30
0.0
 10
31.64255301381683
 20
420.5693220270111
 30
0.0
 10
31.09074113373045
 20
420.4541443837988
 30
0.0
 10
30.55750808369592
 20
420.3279345411295
 30
0.0
 10
30.04439981529459
 20
420.1909371817939
 30
0.0
 10
29.55288246381607
 20
420.0433883521673
 30
0.0
 10
29.0843393087876
 20
419.8855027518472
 30
0.0
 10
28.64007143117497
 20
419.7174580175663
 30
0.0
 10
28.22130482151822
 20
419.5393760897247
 30
0.0
 10
27.82920846729133
 20
419.3513029643656
 30
0.0
 10
27.46493078981879
 20
419.1531915359239
 30
0.0
 10
27.12966374814722
 20
418.9448978075988
 30
0.0
 10
26.82476596745806
 20
418.7262308914097
 30
0.0
 10
26.55201251681579
 20
418.4971700886047
 30
0.0
 10
26.31358173113981
 20
418.2581045006198
 30
0.0
 10
26.11183323376079
 20
418.0100427030742
 30
0.0
 10
25.94908776180631
 20
417.7550750673076
 30
0.0
 10
25.82608812433012
 20
417.4949626277667
 30
0.0
 10
25.74520733363989
 20
417.2354896064658
 30
0.0
 10
25.70413976959721
 20
417.0049613501214
 30
0.0
 10
25.70430774193488
 20
416.8771510160183
 30
0.0
 10
25.70472031012538
 20
416.8224807250497
 30
0.0
  0
SPLINE
  5
B1
330
85
100
AcDbEntity
  8
DV1_Standard
  6
Continuous
 62
     7
100
AcDbSpline
210
0.0
220
0.0
230
1.0
 70
     8
 71
     3
 72
    28
 73
    24
 74
     0
 42
0.0000000012016819
 43
0.0000000001
 40
0.0
 40
0.0
 40
0.0
 40
0.0
 40
0.0252038870303009
 40
0.0744308206630978
 40
0.1236912431448995
 40
0.1729917323909755
 40
0.2223398874532884
 40
0.271744491245212
 40
0.3212156393237514
 40
0.370764766858054
 40
0.4204044371139093
 40
0.4701476251315571
 40
0.5200059926026773
 40
0.5699862360106376
 40
0.6200829433901632
 40
0.6702656374450012
 40
0.7204288637080353
 40
0.7703797907601031
 40
0.8198418519573806
 40
0.8684869437155621
 40
0.9160605336210558
 40
0.96253154668877
 40
1.0
 40
1.0
 40
1.0
 40
1.0
 10
32.53288637048327
 20
403.4311455383279
 30
0.0
 10
32.42236345637494
 20
403.4144190365319
 30
0.0
 10
32.14523108837145
 20
403.3722171935627
 30
0.0
 10
31.65644102249784
 20
403.2831738142388
 30
0.0
 10
31.10611640664185
 20
403.1707416038885
 30
0.0
 10
30.57025125228392
 20
403.0461767679792
 30
0.0
 10
30.05595285598627
 20
402.9114765677373
 30
0.0
 10
29.56327960344651
 20
402.7665019775429
 30
0.0
 10
29.09408398613017
 20
402.6116918364273
 30
0.0
 10
28.64963646106359
 20
402.4473234156043
 30
0.0
 10
28.23126353433836
 20
402.2736974854343
 30
0.0
 10
27.84018281995209
 20
402.0910733013047
 30
0.0
 10
27.47756357048997
 20
401.899670587207
 30
0.0
 10
27.14454168285955
 20
401.6996572308275
 30
0.0
 10
26.84226972484101
 20
401.4911569181908
 30
0.0
 10
26.57203206734193
 20
401.2743201191792
 30
0.0
 10
26.33531940516576
 20
401.0494662497445
 30
0.0
 10
26.1337657057956
 20
400.817172957713
 30
0.0
 10
25.96912517846288
 20
400.5787349202755
 30
0.0
 10
25.84243268478049
 20
400.3351727191333
 30
0.0
 10
25.75554286590659
 20
400.0910416540596
 30
0.0
 10
25.70700264801236
 20
399.8545000870736
 30
0.0
 10
25.70329774322797
 20
399.7158353480347
 30
0.0
 10
25.70200859926494
 20
399.6425392105717
 30
0.0
  0
SPLINE
  5
B2
330
85
100
AcDbEntity
  8
DV1_Standard
  6
Continuous
 62
     7
100
AcDbSpline
210
0.0
220
0.0
230
1.0
 70
     8
 71
     3
 72
    28
 73
    24
 74
     0
 42
0.0000000011907089
 43
0.0000000001
 40
0.0
 40
0.0
 40
0.0
 40
0.0
 40
0.0415371382106286
 40
0.0866283602463024
 40
0.132141568631314
 40
0.1784906067160356
 40
0.2258749268349345
 40
0.2742531249955047
 40
0.3234009457295564
 40
0.3730271024836863
 40
0.4228764388395399
 40
0.472763109276589
 40
0.522581149756844
 40
0.5722979445082732
 40
0.6219059649776991
 40
0.6714100673560001
 40
0.7208203593465325
 40
0.7701485117782044
 40
0.8194059952427213
 40
0.8686033308234008
 40
0.9177498507580866
 40
0.9668537019017595
 40
1.0
 40
1.0
 40
1.0
 40
1.0
 10
48.6987201807196
 20
399.671268589211
 30
0.0
 10
48.69525124125882
 20
399.7527668011269
 30
0.0
 10
48.6877683682439
 20
399.8960365356924
 30
0.0
 10
48.63212793349147
 20
400.133380969871
 30
0.0
 10
48.54290855834039
 20
400.36753888447
 30
0.0
 10
48.41758869974257
 20
400.6002208720704
 30
0.0
 10
48.25672299788955
 20
400.8292921021821
 30
0.0
 10
48.05966284795382
 20
401.0548132562103
 30
0.0
 10
47.82674620058782
 20
401.2756138502988
 30
0.0
 10
47.55890626364153
 20
401.4905600094263
 30
0.0
 10
47.25760244867731
 20
401.6985605962635
 30
0.0
 10
46.92447868265384
 20
401.8987857072283
 30
0.0
 10
46.56113089221023
 20
402.0906600022482
 30
0.0
 10
46.16901192490576
 20
402.2737890606616
 30
0.0
 10
45.74946190170244
 20
402.4478653964154
 30
0.0
 10
45.30380546027457
 20
402.6125960460424
 30
0.0
 10
44.83343065236124
 20
402.7676753621866
 30
0.0
 10
44.33964916972423
 20
402.9128264232522
 30
0.0
 10
43.82431082968525
 20
403.0476410362415
 30
0.0
 10
43.28756334480619
 20
403.1721938986479
 30
0.0
 10
42.73621547737472
 20
403.2847812027895
 30
0.0
 10
42.21564930358092
 20
403.378962526702
 30
0.0
 10
41.90909064114713
 20
403.4253924657585
 30
0.0
 10
41.76307864959897
 20
403.4473297476383
 30
0.0
  0
LINE
  5
B3
330
85
100
AcDbEntity
  8
DV1_Standard
  6
Continuous
 62
     7
100
AcDbLine
 10
25.7002195199
 20
399.6470767068
 30
0.0
 11
25.7002195199
 21
394.0699174148
 31
0.0
  0
LINE
  5
B4
330
85
100
AcDbEntity
  8
DV1_Standard
  6
Continuous
 62
     7
100
AcDbLine
 10
48.7002195199
 20
394.0699174148
 30
0.0
 11
48.7002195199
 21
399.6470767068
 31
0.0
  0
SPLINE
  5
B5
330
85
100
AcDbEntity
  8
DV1_Standard
  6
Continuous
 62
     7
100
AcDbSpline
210
0.0
220
0.0
230
1.0
 70
     8
 71
     3
 72
    63
 73
    59
 74
     0
 42
0.0000000003848603
 43
0.0000000001
 40
0.0
 40
0.0
 40
0.0
 40
0.0
 40
0.0153784363827828
 40
0.0319446356241163
 40
0.0486681508130474
 40
0.0657001950162392
 40
0.0831129248016911
 40
0.1008900831584204
 40
0.1189486885421574
 40
0.1371816974195089
 40
0.1554956925717045
 40
0.1738226588590632
 40
0.1921241760492913
 40
0.2103884181356244
 40
0.2286127006510567
 40
0.2467988449225554
 40
0.2649505780064478
 40
0.2830721895358876
 40
0.3011678902992645
 40
0.3192415402574658
 40
0.3372965622222256
 40
0.3553359438608259
 40
0.3733622780312105
 40
0.3913778165751755
 40
0.409384525774045
 40
0.4273841383633142
 40
0.4453782003555923
 40
0.4633681125462901
 40
0.4813551673214485
 40
0.4993405816948596
 40
0.517325527603832
 40
0.535310960305338
 40
0.553297857946378
 40
0.5712874128191471
 40
0.5892808767048016
 40
0.6072795921443149
 40
0.6252850269629617
 40
0.6432988130858139
 40
0.6613227906414468
 40
0.6793590580544319
 40
0.6974100280861741
 40
0.7154784881470047
 40
0.7335676598112614
 40
0.7516812456908184
 40
0.7698234385898465
 40
0.7879988424680497
 40
0.8062122068948404
 40
0.8244677890103667
 40
0.8427680044625337
 40
0.8611107909509558
 40
0.8794848311685292
 40
0.8978509854800599
 40
0.9161383431753248
 40
0.9342452437549443
 40
0.9520515536593336
 40
0.9694647957142735
 40
0.9864748715811958
 40
1.0
 40
1.0
 40
1.0
 40
1.0
 10
25.70162847717153
 20
394.044408387066
 30
0.0
 10
25.70526848063643
 20
393.962279589033
 30
0.0
 10
25.71303916553125
 20
393.8184940728137
 30
0.0
 10
25.76922041879906
 20
393.580622141963
 30
0.0
 10
25.85889163120127
 20
393.3465020313504
 30
0.0
 10
25.98465730589443
 20
393.1138599460236
 30
0.0
 10
26.14597857478655
 20
392.8848303122847
 30
0.0
 10
26.3434946111358
 20
392.6593614068701
 30
0.0
 10
26.57685945579954
 20
392.4386274651006
 30
0.0
 10
26.84513174918943
 20
392.223762612136
 30
0.0
 10
27.1468475115506
 20
392.0158557020508
 30
0.0
 10
27.48036244775081
 20
391.8157329675237
 30
0.0
 10
27.84408204725545
 20
391.6239669941961
 30
0.0
 10
28.23655529253514
 20
391.4409504450501
 30
0.0
 10
28.65644436748733
 20
391.2669899480612
 30
0.0
 10
29.1024171958583
 20
391.1023804190314
 30
0.0
 10
29.57311221462989
 20
390.9474202557926
 30
0.0
 10
30.06711640174141
 20
390.8024137102413
 30
0.0
 10
30.58295366056636
 20
390.6676674281295
 30
0.0
 10
31.11908026507151
 20
390.543484868478
 30
0.0
 10
31.67388480380206
 20
390.4301604291218
 30
0.0
 10
32.24569091277833
 20
390.3279740436837
 30
0.0
 10
32.83276171727699
 20
390.2371865091692
 30
0.0
 10
33.43330532023682
 20
390.1580355740984
 30
0.0
 10
34.04548093537338
 20
390.0907327276303
 30
0.0
 10
34.66740542153877
 20
390.0354606042632
 30
0.0
 10
35.2971600699323
 20
389.992370920404
 30
0.0
 10
35.93279755239145
 20
389.9615828711051
 30
0.0
 10
36.57234897276305
 20
389.9431819299619
 30
0.0
 10
37.21383098263523
 20
389.9372190094776
 30
0.0
 10
37.85525055650221
 20
389.9437099281688
 30
0.0
 10
38.49461233785107
 20
389.9626349646447
 30
0.0
 10
39.12992805002364
 20
389.9939388330239
 30
0.0
 10
39.75922602469313
 20
390.0375313164083
 30
0.0
 10
40.38055805292286
 20
390.0932882132555
 30
0.0
 10
40.99200430652191
 20
390.1610523364702
 30
0.0
 10
41.59168037764133
 20
390.2406349649055
 30
0.0
 10
42.1777442352221
 20
390.3318177412092
 30
0.0
 10
42.74840306051682
 20
390.4343550970302
 30
0.0
 10
43.30191990371279
 20
390.54797731533
 30
0.0
 10
43.83662006659891
 20
390.672394375066
 30
0.0
 10
44.35089705263155
 20
390.8073007651432
 30
0.0
 10
44.84321781737209
 20
390.9523814980461
 30
0.0
 10
45.3121268679417
 20
391.1073195828173
 30
0.0
 10
45.75624845464651
 20
391.2718052023619
 30
0.0
 10
46.17428558517423
 20
391.4455466713534
 30
0.0
 10
46.56501382467174
 20
391.6282828403559
 30
0.0
 10
46.92726657098029
 20
391.8197952240622
 30
0.0
 10
47.25990751294012
 20
392.0199164154121
 30
0.0
 10
47.56178363919326
 20
392.2285232065098
 30
0.0
 10
47.83160788195856
 20
392.4454638105188
 30
0.0
 10
48.06788701220804
 20
392.6704159697609
 30
0.0
 10
48.26898598867528
 20
392.9027968601832
 30
0.0
 10
48.43315023438022
 20
393.1413041217038
 30
0.0
 10
48.55935928076293
 20
393.3849135259883
 30
0.0
 10
48.64573962385377
 20
393.6290533812074
 30
0.0
 10
48.69369497248792
 20
393.8646725331185
 30
0.0
 10
48.69713233300344
 20
394.0024707467571
 30
0.0
 10
48.69828275425108
 20
394.074733673088
 30
0.0
  0
SPLINE
  5
B6
330
85
100
AcDbEntity
  8
DV1_Standard
  6
Continuous
 62
     7
100
AcDbSpline
210
0.0
220
0.0
230
1.0
 70
     8
 71
     3
 72
    14
 73
    10
 74
     0
 42
0.0000000006393698
 43
0.0000000001
 40
0.0
 40
0.0
 40
0.0
 40
0.0
 40
0.1390163626871078
 40
0.2932547826154831
 40
0.4495791966669005
 40
0.610398211134637
 40
0.7613342369359666
 40
0.8927163278195017
 40
1.0
 40
1.0
 40
1.0
 40
1.0
 10
37.20021951985371
 20
405.5979258610024
 30
0.0
 10
36.12593294776439
 20
405.5951576366799
 30
0.0
 10
34.21903865013635
 20
405.5084993214969
 30
0.0
 10
31.17007646616472
 20
405.0742995694933
 30
0.0
 10
28.57751979729467
 20
404.3363924162257
 30
0.0
 10
26.5930204949824
 20
403.3300999613282
 30
0.0
 10
25.37394542072662
 20
402.0985154223412
 30
0.0
 10
25.06926175755737
 20
400.5497101977682
 30
0.0
 10
25.45623042793304
 20
399.7070897144848
 30
0.0
 10
25.69903341812887
 20
399.3664394294498
 30
0.0
  0
SPLINE
  5
B7
330
85
100
AcDbEntity
  8
DV1_Standard
  6
Continuous
 62
     7
100
AcDbSpline
210
0.0
220
0.0
230
1.0
 70
     8
 71
     3
 72
    14
 73
    10
 74
     0
 42
0.0000000006396043
 43
0.0000000001
 40
0.0
 40
0.0
 40
0.0
 40
0.0
 40
0.1185965630581947
 40
0.2453146452062237
 40
0.3917831723140674
 40
0.5528047269426889
 40
0.7099875378186938
 40
0.8645779872986296
 40
1.0
 40
1.0
 40
1.0
 40
1.0
 10
48.70232707334333
 20
399.367956658731
 30
0.0
 10
48.96879524188626
 20
399.7455075944613
 30
0.0
 10
49.34878694095393
 20
400.6277944003127
 30
0.0
 10
48.97227613080817
 20
402.1632496789713
 30
0.0
 10
47.76547482751246
 20
403.3557561071355
 30
0.0
 10
45.78233426690424
 20
404.3524104805203
 30
0.0
 10
43.17265762835176
 20
405.0865202973705
 30
0.0
 10
40.13391009582242
 20
405.5116725538304
 30
0.0
 10
38.24661390881025
 20
405.5958456860047
 30
0.0
 10
37.20021951985371
 20
405.5979258610024
 30
0.0
  0
ENDBLK
  5
B9
330
85
100
AcDbEntity
  8
0
100
AcDbBlockEnd
  0
BLOCK
  5
F0
330
BA
100
AcDbEntity
  8
0
100
AcDbBlockBegin
  2
SE1
 70
     0
 10
0.0
 20
0.0
 30
0.0
  3
SE1
  1

  0
LINE
  5
BD
330
BA
100
AcDbEntity
  8
DV2_Standard
  6
Continuous
 62
     7
100
AcDbLine
 10
320.6987771346
 20
421.5807969174
 30
0.0
 11
299.6496632336
 21
413.9195459997
 31
0.0
  0
LINE
  5
BE
330
BA
100
AcDbEntity
  8
DV2_Standard
  6
Continuous
 62
     7
100
AcDbLine
 10
271.0422480675
 20
471.355031622
 30
0.0
 11
146.7922480675
 21
471.355031622
 31
0.0
  0
LINE
  5
BF
330
BA
100
AcDbEntity
  8
DV2_Standard
  6
Continuous
 62
     7
100
AcDbLine
 10
146.7922480675
 20
448.355031622
 30
0.0
 11
271.0422480675
 21
448.355031622
 31
0.0
  0
ARC
  5
C0
330
BA
100
AcDbEntity
  8
DV2_Standard
  6
Continuous
 62
     7
100
AcDbCircle
 10
271.0422480675
 20
425.855031622
 30
0.0
 40
22.5
100
AcDbArc
 50
20.0
 51
90.0
  0
ARC
  5
C1
330
BA
100
AcDbEntity
  8
DV2_Standard
  6
Continuous
 62
     7
100
AcDbCircle
 10
271.0422480675
 20
425.855031622
 30
0.0
 40
45.49999999998973
100
AcDbArc
 50
20.0
 51
90.0
  0
LINE
  5
C2
330
BA
100
AcDbEntity
  8
DV2_Standard
  6
Continuous
 62
     7
100
AcDbLine
 10
320.8780792801
 20
421.965310893
 30
0.0
 11
313.7982623133
 21
441.4169481433
 31
0.0
  0
LINE
  5
C3
330
BA
100
AcDbEntity
  8
DV2_Standard
  6
Continuous
 62
     7
100
AcDbLine
 10
292.1853320352
 20
433.5504848468
 30
0.0
 11
299.2651490021
 21
414.0988475965
 31
0.0
  0
ARC
  5
C4
330
BA
100
AcDbEntity
  8
DV2_Standard
  6
Continuous
 62
     7
100
AcDbCircle
 10
320.5961714939
 20
421.86270485
 30
0.0
 40
0.2999999999973917
100
AcDbArc
 50
289.9999591179
 51
20.0000000001
  0
ARC
  5
C5
330
BA
100
AcDbEntity
  8
DV2_Standard
  6
Continuous
 62
     7
100
AcDbCircle
 10
299.5470567883
 20
414.2014536396
 30
0.0
 40
0.2999999999999968
100
AcDbArc
 50
200.0000000001
 51
290.0000408828
  0
LINE
  5
C6
330
BA
100
AcDbEntity
  8
DV2_Standard
  6
Continuous
 62
     7
100
AcDbLine
 10
146.7922480675
 20
471.4834148989
 30
0.0
 11
146.7922480675
 21
448.2266483451
 31
0.0
  0
LINE
  5
C7
330
BA
100
AcDbEntity
  8
DV2_Standard
  6
Continuous
 62
     7
100
AcDbLine
 10
139.2922480675
 20
484.3550316526
 30
0.0
 11
139.2922480675
 21
435.3550315914
 31
0.0
  0
ARC
  5
C8
330
BA
100
AcDbEntity
  8
DV2_Standard
  6
Continuous
 62
     7
100
AcDbCircle
 10
136.5422480675
 20
409.9135899924
 30
0.0
 40
25.00276005889327
100
AcDbArc
 50
85.9864566129
 51
94.0135433871
  0
LINE
  5
C9
330
BA
100
AcDbEntity
  8
DV2_Standard
  6
Continuous
 62
     7
100
AcDbLine
 10
133.7922480675
 20
484.855031622
 30
0.0
 11
133.7922480675
 21
434.855031622
 31
0.0
  0
ARC
  5
CA
330
BA
100
AcDbEntity
  8
DV2_Standard
  6
Continuous
 62
     7
100
AcDbCircle
 10
145.3922480675
 20
471.4834150136
 30
0.0
 40
1.400000000000001
100
AcDbArc
 50
0.0
 51
78.3385925529
  0
ARC
  5
CB
330
BA
100
AcDbEntity
  8
DV2_Standard
  6
Continuous
 62
     7
100
AcDbCircle
 10
145.3922480675
 20
448.2266482304
 30
0.0
 40
1.400000000002669
100
AcDbArc
 50
281.6614074471
 51
0.0
  0
ARC
  5
CC
330
BA
100
AcDbEntity
  8
DV2_Standard
  6
Continuous
 62
     7
100
AcDbCircle
 10
147.2922480675
 20
480.6893913333
 30
0.0
 40
8.000000000001746
100
AcDbArc
 50
180.0
 51
258.3385937591
  0
ARC
  5
CD
330
BA
100
AcDbEntity
  8
DV2_Standard
  6
Continuous
 62
     7
100
AcDbCircle
 10
147.2922480675
 20
439.0206719107
 30
0.0
 40
8.0
100
AcDbArc
 50
101.6614062409
 51
180.0
  0
ARC
  5
CE
330
BA
100
AcDbEntity
  8
DV2_Standard
  6
Continuous
 62
     7
100
AcDbCircle
 10
138.7922480675
 20
484.355031622
 30
0.0
 40
0.4999999999999998
100
AcDbArc
 50
0.0000017544
 51
90.0
  0
ARC
  5
CF
330
BA
100
AcDbEntity
  8
DV2_Standard
  6
Continuous
 62
     7
100
AcDbCircle
 10
138.7922480675
 20
435.355031622
 30
0.0
 40
0.5000000000000004
100
AcDbArc
 50
270.0
 51
359.9999982456
  0
LINE
  5
D0
330
BA
100
AcDbEntity
  8
DV2_Standard
  6
Continuous
 62
     7
100
AcDbLine
 10
138.7922480675
 20
484.855031622
 30
0.0
 11
133.7922480675
 21
484.855031622
 31
0.0
  0
LINE
  5
D1
330
BA
100
AcDbEntity
  8
DV2_Standard
  6
Continuous
 62
     7
100
AcDbLine
 10
138.2922480675
 20
434.855031622
 30
0.0
 11
138.7922480675
 21
434.855031622
 31
0.0
  0
LINE
  5
D2
330
BA
100
AcDbEntity
  8
DV2_Standard
  6
Continuous
 62
     7
100
AcDbLine
 10
133.7922480675
 20
434.855031622
 30
0.0
 11
134.7922480675
 21
434.855031622
 31
0.0
  0
LINE
  5
D3
330
BA
100
AcDbEntity
  8
DV2_Standard
  6
Continuous
 62
     7
100
AcDbLine
 10
308.371176864
 20
389.9573841608
 30
0.0
 11
329.4202908138
 21
397.6186350962
 31
0.0
  0
LINE
  5
D4
330
BA
100
AcDbEntity
  8
DV2_Standard
  6
Continuous
 62
     7
100
AcDbLine
 10
300.1865879688
 20
413.5828817335
 30
0.0
 11
299.3122924695
 21
413.2646641958
 31
0.0
  0
LINE
  5
D5
330
BA
100
AcDbEntity
  8
DV2_Standard
  6
Continuous
 62
     7
100
AcDbLine
 10
300.1866242819
 20
413.5828949521
 30
0.0
 11
320.6818490844
 21
421.0425467248
 31
0.0
  0
LINE
  5
D6
330
BA
100
AcDbEntity
  8
DV2_Standard
  6
Continuous
 62
     7
100
AcDbLine
 10
296.7572776875
 20
412.3347148687
 30
0.0
 11
296.7196872544
 21
412.32103307
 31
0.0
  0
LINE
  5
D7
330
BA
100
AcDbEntity
  8
DV2_Standard
  6
Continuous
 62
     7
100
AcDbLine
 10
296.7572778671
 20
412.3347149341
 30
0.0
 11
299.3122944026
 21
413.264664901
 31
0.0
  0
ARC
  5
D8
330
BA
100
AcDbEntity
  8
DV2_Standard
  6
Continuous
 62
     7
100
AcDbCircle
 10
299.1233582396
 20
412.7964792092
 30
0.0
 40
2.41071489596529
100
AcDbArc
 50
191.0435496522
 51
191.2567840762
  0
LINE
  5
D9
330
BA
100
AcDbEntity
  8
DV2_Standard
  6
Continuous
 62
     7
100
AcDbLine
 10
302.4610302929
 20
405.8972888609
 30
0.0
 11
299.8958795342
 21
412.9449836319
 31
0.0
  0
SPLINE
  5
DA
330
BA
100
AcDbEntity
  8
DV2_Standard
  6
Continuous
 62
     7
100
AcDbSpline
210
0.0
220
0.0
230
1.0
 70
    12
 71
     3
 72
    18
 73
    14
 74
     0
 42
0.0000000097605336
 43
0.0000000001
 40
0.0
 40
0.0
 40
0.0
 40
0.0
 40
0.09090909090909
 40
0.1818181818182
 40
0.2727272727273
 40
0.3636363636364
 40
0.4545454545455
 40
0.5454545454545
 40
0.6363636363636
 40
0.7272727272727
 40
0.8181818181818
 40
0.9090909090909
 40
1.0
 40
1.0
 40
1.0
 40
1.0
 10
302.4610302929476
 20
405.8972888608884
 30
0.0
 41
1.0
 10
302.4733136011615
 20
405.8635407323274
 30
0.0
 41
1.0
 10
302.4970421009066
 20
405.7962904505773
 30
0.0
 41
1.0
 10
302.5302076513303
 20
405.696107953154
 30
0.0
 41
1.0
 10
302.5609109012645
 20
405.5968354971896
 30
0.0
 41
1.0
 10
302.5894414927379
 20
405.4975362104749
 30
0.0
 41
1.0
 10
302.6167920740436
 20
405.3937453171611
 30
0.0
 41
1.0
 10
302.6418839200285
 20
405.2873876188679
 30
0.0
 41
1.0
 10
302.6631328009307
 20
405.1829338469459
 30
0.0
 41
1.0
 10
302.6791209860442
 20
405.0844527040712
 30
0.0
 41
1.0
 10
302.6879744121857
 20
404.9983401115571
 30
0.0
 41
1.0
 10
302.6873475349384
 20
404.9335086680315
 30
0.0
 41
1.0
 10
302.6788335105882
 20
404.9123862842014
 30
0.0
 41
1.0
 10
302.6718819030636
 20
404.9098547983418
 30
0.0
 41
1.0
  0
LINE
  5
DB
330
BA
100
AcDbEntity
  8
DV2_Standard
  6
Continuous
 62
     7
100
AcDbLine
 10
305.4081819638
 20
397.8957293615
 30
0.0
 11
326.5874066558
 21
405.6043367343
 31
0.0
  0
LINE
  5
DC
330
BA
100
AcDbEntity
  8
DV2_Standard
  6
Continuous
 62
     7
100
AcDbLine
 10
306.0737591092
 20
396.0670719905
 30
0.0
 11
327.2529832825
 21
403.7756791744
 31
0.0
  0
LINE
  5
DD
330
BA
100
AcDbEntity
  8
DV2_Standard
  6
Continuous
 62
     7
100
AcDbLine
 10
299.6644489052
 20
404.3473275918
 30
0.0
 11
299.6268584727
 21
404.3336457933
 31
0.0
  0
LINE
  5
DE
330
BA
100
AcDbEntity
  8
DV2_Standard
  6
Continuous
 62
     7
100
AcDbLine
 10
302.0334262577
 20
405.2095648338
 30
0.0
 11
299.6644490326
 21
404.3473276382
 31
0.0
  0
LINE
  5
DF
330
BA
100
AcDbEntity
  8
DV2_Standard
  6
Continuous
 62
     7
100
AcDbLine
 10
302.6169464067
 20
404.8898599129
 30
0.0
 11
305.0914925661
 21
398.0911002166
 31
0.0
  0
LINE
  5
E0
330
BA
100
AcDbEntity
  8
DV2_Standard
  6
Continuous
 62
     7
100
AcDbLine
 10
326.7044228441
 20
405.9575635131
 30
0.0
 11
321.3227054665
 21
420.743710486
 31
0.0
  0
ARC
  5
E1
330
BA
100
AcDbEntity
  8
DV2_Standard
  6
Continuous
 62
     7
100
AcDbCircle
 10
320.8528591561
 20
420.5727004144
 30
0.0
 40
0.5000000000000102
100
AcDbArc
 50
20.0
 51
110.0
  0
ARC
  5
E2
330
BA
100
AcDbEntity
  8
DV2_Standard
  6
Continuous
 62
     7
100
AcDbCircle
 10
305.3734003478
 20
398.193706272
 30
0.0
 40
0.3000000000000099
100
AcDbArc
 50
200.000002526
 51
276.6577719314
  0
ARC
  5
E3
330
BA
100
AcDbEntity
  8
DV2_Standard
  6
Continuous
 62
     7
100
AcDbCircle
 10
326.4225150534
 20
405.8549574825
 30
0.0
 40
0.3000000000000545
100
AcDbArc
 50
303.3422280686
 51
19.999997474
  0
ARC
  5
E4
330
BA
100
AcDbEntity
  8
DV2_Standard
  6
Continuous
 62
     7
100
AcDbCircle
 10
306.2386504746
 20
395.8164510863
 30
0.0
 40
0.3000000000002118
100
AcDbArc
 50
123.3421738921
 51
199.9999969106
  0
ARC
  5
E5
330
BA
100
AcDbEntity
  8
DV2_Standard
  6
Continuous
 62
     7
100
AcDbCircle
 10
327.2877651802
 20
403.4777022968
 30
0.0
 40
0.3000000000000002
100
AcDbArc
 50
20.0000030894
 51
96.6578261079
  0
LINE
  5
E6
330
BA
100
AcDbEntity
  8
DV2_Standard
  6
Continuous
 62
     7
100
AcDbLine
 10
305.9567426829
 20
395.7138450585
 30
0.0
 11
307.9866626569
 21
390.1366857665
 31
0.0
  0
LINE
  5
E7
330
BA
100
AcDbEntity
  8
DV2_Standard
  6
Continuous
 62
     7
100
AcDbLine
 10
329.599592935
 20
398.003149063
 30
0.0
 11
327.5696729609
 21
403.580308355
 31
0.0
  0
ARC
  5
E8
330
BA
100
AcDbEntity
  8
DV2_Standard
  6
Continuous
 62
     7
100
AcDbCircle
 10
308.2685704431
 20
390.2392918095
 30
0.0
 40
0.2999999999999989
100
AcDbArc
 50
200.0
 51
290.0000384025
  0
ARC
  5
E9
330
BA
100
AcDbEntity
  8
DV2_Standard
  6
Continuous
 62
     7
100
AcDbCircle
 10
329.3176851487
 20
397.90054302
 30
0.0
 40
0.2999999999999326
100
AcDbArc
 50
289.9999615975
 51
20.0
  0
ARC
  5
EA
330
BA
100
AcDbEntity
  8
DV2_Standard
  6
Continuous
 62
     7
100
AcDbCircle
 10
297.2327174694
 20
410.9114941388
 30
0.0
 40
1.500000000000006
100
AcDbArc
 50
110.0
 51
200.0
  0
ARC
  5
EB
330
BA
100
AcDbEntity
  8
DV2_Standard
  6
Continuous
 62
     7
100
AcDbCircle
 10
299.1138282577
 20
405.7431847245
 30
0.0
 40
1.5
100
AcDbArc
 50
200.0
 51
290.0
  0
ARC
  5
EC
330
BA
100
AcDbEntity
  8
DV2_Standard
  6
Continuous
 62
     7
100
AcDbCircle
 10
302.1471000963
 20
404.7188498412
 30
0.0
 40
0.4999999999999989
100
AcDbArc
 50
20.0
 51
110.0
  0
LINE
  5
ED
330
BA
100
AcDbEntity
  8
DV2_Standard
  6
Continuous
 62
     7
100
AcDbLine
 10
295.8231785382
 20
410.3984639238
 30
0.0
 11
297.7042893265
 21
405.2301545095
 31
0.0
  0
ARC
  5
EE
330
BA
100
AcDbEntity
  8
DV2_Standard
  6
Continuous
 62
     7
100
AcDbCircle
 10
305.9939639353
 20
397.0734827078
 30
0.0
 40
1.000000000000007
100
AcDbArc
 50
124.4775121862
 51
275.5224878174
  0
ARC
  5
EF
330
BA
100
AcDbEntity
  8
DV2_Standard
  6
Continuous
 62
     7
100
AcDbCircle
 10
326.6672015926
 20
404.597925861
 30
0.0
 40
1.000000000000001
100
AcDbArc
 50
304.4775121865
 51
95.5224878099
  0
ENDBLK
  5
F1
330
BA
100
AcDbEntity
  8
0
100
AcDbBlockEnd
  0
BLOCK
  5
119
330
F2
100
AcDbEntity
  8
0
100
AcDbBlockBegin
  2
SE2
 70
     0
 10
0.0
 20
0.0
 30
0.0
  3
SE2
  1

  0
ELLIPSE
  5
F5
330
F2
100
AcDbEntity
  8
DV3_Standard
  6
Continuous
 62
     7
100
AcDbEllipse
 10
37.2002195199
 20
148.7884616809
 30
0.0
 11
-11.50000000000001
 21
-2.775557561562891E-14
 31
0.0
210
0.0
220
0.0
230
1.0
 40
0.9396926208
 41
2.763740991895161
 42
3.141592653589793
  0
ELLIPSE
  5
F6
330
F2
100
AcDbEntity
  8
DV3_Standard
  6
Continuous
 62
     7
100
AcDbEllipse
 10
37.2002195199
 20
148.7884616809
 30
0.0
 11
-11.50000000000001
 21
-2.775557561562891E-14
 31
0.0
210
0.0
220
0.0
230
1.0
 40
0.9396926208
 41
0.3720967903082738
 42
2.763740991895161
  0
ELLIPSE
  5
F7
330
F2
100
AcDbEntity
  8
DV3_Standard
  6
Continuous
 62
     7
100
AcDbEllipse
 10
37.2002195199
 20
148.7884616809
 30
0.0
 11
-11.50000000000001
 21
-2.775557561562891E-14
 31
0.0
210
0.0
220
0.0
230
1.0
 40
0.9396926208
 41
0.0000000000000001
 42
0.3720967903082738
  0
LINE
  5
F8
330
F2
100
AcDbEntity
  8
DV3_Standard
  6
Continuous
 62
     7
100
AcDbLine
 10
48.7002195199
 20
187.8178277545
 30
0.0
 11
48.7002195199
 21
312.0678277545
 31
0.0
  0
LINE
  5
F9
330
F2
100
AcDbEntity
  8
DV3_Standard
  6
Continuous
 62
     7
100
AcDbLine
 10
25.7002195199
 20
312.0678277545
 30
0.0
 11
25.7002195199
 21
187.8178277545
 31
0.0
  0
LINE
  5
FA
330
F2
100
AcDbEntity
  8
DV3_Standard
  6
Continuous
 62
     7
100
AcDbLine
 10
25.7002195199
 20
187.8178277545
 30
0.0
 11
25.7002195199
 21
155.8682786477
 31
0.0
  0
LINE
  5
FB
330
F2
100
AcDbEntity
  8
DV3_Standard
  6
Continuous
 62
     7
100
AcDbLine
 10
48.7002195199
 20
155.8682786478
 30
0.0
 11
48.7002195199
 21
187.8178277545
 31
0.0
  0
LINE
  5
FC
330
F2
100
AcDbEntity
  8
DV3_Standard
  6
Continuous
 62
     7
100
AcDbLine
 10
48.7002195199
 20
148.7884616809
 30
0.0
 11
48.7002195199
 21
155.8682786478
 31
0.0
  0
LINE
  5
FD
330
F2
100
AcDbEntity
  8
DV3_Standard
  6
Continuous
 62
     7
100
AcDbLine
 10
25.7002195199
 20
155.8682786478
 30
0.0
 11
25.7002195199
 21
148.7884616809
 31
0.0
  0
ARC
  5
FE
330
F2
100
AcDbEntity
  8
DV3_Standard
  6
Continuous
 62
     7
100
AcDbCircle
 10
37.0370243314
 20
149.4793963142
 30
0.0
 40
11.51888244779701
100
AcDbArc
 50
203.7113162348
 51
271.5755712253
  0
ARC
  5
FF
330
F2
100
AcDbEntity
  8
DV3_Standard
  6
Continuous
 62
     7
100
AcDbCircle
 10
37.3761429401
 20
149.4633098462
 30
0.0
 40
11.4984628456888
100
AcDbArc
 50
269.8883734835
 51
336.0229539012
  0
LINE
  5
100
330
F2
100
AcDbEntity
  8
DV3_Standard
  6
Continuous
 62
     7
100
AcDbLine
 10
25.571836243
 20
312.0678277545
 30
0.0
 11
48.8286027967
 21
312.0678277545
 31
0.0
  0
LINE
  5
101
330
F2
100
AcDbEntity
  8
DV3_Standard
  6
Continuous
 62
     7
100
AcDbLine
 10
12.7002194892
 20
319.5678277545
 30
0.0
 11
61.7002195505
 21
319.5678277545
 31
0.0
  0
LINE
  5
102
330
F2
100
AcDbEntity
  8
DV3_Standard
  6
Continuous
 62
     7
100
AcDbLine
 10
12.2002195199
 20
325.0678277545
 30
0.0
 11
62.2002195199
 21
325.0678277545
 31
0.0
  0
ARC
  5
103
330
F2
100
AcDbEntity
  8
DV3_Standard
  6
Continuous
 62
     7
100
AcDbCircle
 10
48.8286029114
 20
313.4678277545
 30
0.0
 40
1.400000000000001
100
AcDbArc
 50
269.9999976527
 51
348.3385925529
  0
ARC
  5
104
330
F2
100
AcDbEntity
  8
DV3_Standard
  6
Continuous
 62
     7
100
AcDbCircle
 10
25.5718361283
 20
313.4678277545
 30
0.0
 40
1.400000000002669
100
AcDbArc
 50
191.6614074471
 51
270.0000023473
  0
ARC
  5
105
330
F2
100
AcDbEntity
  8
DV3_Standard
  6
Continuous
 62
     7
100
AcDbCircle
 10
58.0345792312
 20
311.5678277545
 30
0.0
 40
8.000000000001746
100
AcDbArc
 50
90.0
 51
168.3385937591
  0
ARC
  5
106
330
F2
100
AcDbEntity
  8
DV3_Standard
  6
Continuous
 62
     7
100
AcDbCircle
 10
16.3658598085
 20
311.5678277545
 30
0.0
 40
8.0
100
AcDbArc
 50
11.6614062409
 51
90.0
  0
ARC
  5
107
330
F2
100
AcDbEntity
  8
DV3_Standard
  6
Continuous
 62
     7
100
AcDbCircle
 10
61.7002195199
 20
320.0678277545
 30
0.0
 40
0.4999999999999998
100
AcDbArc
 50
270.0000017544
 51
0.0
  0
ARC
  5
108
330
F2
100
AcDbEntity
  8
DV3_Standard
  6
Continuous
 62
     7
100
AcDbCircle
 10
12.7002195199
 20
320.0678277545
 30
0.0
 40
0.5000000000000004
100
AcDbArc
 50
180.0
 51
269.9999982456
  0
LINE
  5
109
330
F2
100
AcDbEntity
  8
DV3_Standard
  6
Continuous
 62
     7
100
AcDbLine
 10
62.2002195199
 20
320.0678277545
 30
0.0
 11
62.2002195199
 21
325.0678277545
 31
0.0
  0
LINE
  5
10A
330
F2
100
AcDbEntity
  8
DV3_Standard
  6
Continuous
 62
     7
100
AcDbLine
 10
12.2002195199
 20
325.0678277545
 30
0.0
 11
12.2002195199
 21
320.0678277545
 31
0.0
  0
ELLIPSE
  5
10B
330
F2
100
AcDbEntity
  8
DV3_Standard
  6
Continuous
 62
     7
100
AcDbEllipse
 10
37.2002195199
 20
148.3438354945
 30
0.0
 11
0.0
 21
11.49971533153519
 31
0.0
210
0.0
220
0.0
230
1.0
 40
1.0
 41
1.551463070575845
 42
1.762674763654049
  0
ELLIPSE
  5
10C
330
F2
100
AcDbEntity
  8
DV3_Standard
  6
Continuous
 62
     7
100
AcDbEllipse
 10
37.2002195199
 20
148.3438354945
 30
0.0
 11
0.0
 21
11.470894357467
 31
0.0
210
0.0
220
0.0
230
1.0
 40
1.0
 41
4.515269038680589
 42
4.731722236603408
  0
ELLIPSE
  5
10D
330
F2
100
AcDbEntity
  8
DV3_Standard
  6
Continuous
 62
     7
100
AcDbEllipse
 10
37.2002195199
 20
142.9621181169
 30
0.0
 11
-11.50000000000001
 21
5.551115123125783E-14
 31
0.0
210
0.0
220
0.0
230
1.0
 40
0.9396926208
 41
0.0
 42
0.3758033368274848
  0
ELLIPSE
  5
10E
330
F2
100
AcDbEntity
  8
DV3_Standard
  6
Continuous
 62
     7
100
AcDbEllipse
 10
37.2002195199
 20
142.9621181169
 30
0.0
 11
-11.50000000000001
 21
5.551115123125783E-14
 31
0.0
210
0.0
220
0.0
230
1.0
 40
0.9396926208
 41
0.3758033368274848
 42
2.763054194717913
  0
ELLIPSE
  5
10F
330
F2
100
AcDbEntity
  8
DV3_Standard
  6
Continuous
 62
     7
100
AcDbEllipse
 10
37.2002195199
 20
142.9621181169
 30
0.0
 11
-11.50000000000001
 21
5.551115123125783E-14
 31
0.0
210
0.0
220
0.0
230
1.0
 40
0.9396926208
 41
2.763054194717913
 42
3.141592653589793
  0
ELLIPSE
  5
110
330
F2
100
AcDbEntity
  8
DV3_Standard
  6
Continuous
 62
     7
100
AcDbEllipse
 10
37.2002195199
 20
140.0669480261
 30
0.0
 11
-11.50000000000001
 21
5.551115123125783E-14
 31
0.0
210
0.0
220
0.0
230
1.0
 40
0.9396926208
 41
0.0901229921114959
 42
0.376006652358561
  0
ELLIPSE
  5
111
330
F2
100
AcDbEntity
  8
DV3_Standard
  6
Continuous
 62
     7
100
AcDbEllipse
 10
37.2002195199
 20
140.0669480261
 30
0.0
 11
-11.50000000000001
 21
5.551115123125783E-14
 31
0.0
210
0.0
220
0.0
230
1.0
 40
0.9396926208
 41
0.376006652358561
 42
2.762896330997228
  0
ELLIPSE
  5
112
330
F2
100
AcDbEntity
  8
DV3_Standard
  6
Continuous
 62
     7
100
AcDbEllipse
 10
37.2002195199
 20
140.0669480261
 30
0.0
 11
-11.50000000000001
 21
5.551115123125783E-14
 31
0.0
210
0.0
220
0.0
230
1.0
 40
0.9396926208
 41
2.762896330997228
 42
3.052062522458182
  0
LINE
  5
113
330
F2
100
AcDbEntity
  8
DV3_Standard
  6
Continuous
 62
     7
100
AcDbLine
 10
25.7002195199
 20
148.3438354945
 30
0.0
 11
25.7002195199
 21
142.9621181169
 31
0.0
  0
LINE
  5
114
330
F2
100
AcDbEntity
  8
DV3_Standard
  6
Continuous
 62
     7
100
AcDbLine
 10
48.7002195199
 20
142.9621181169
 30
0.0
 11
48.7002195199
 21
148.3438354945
 31
0.0
  0
ARC
  5
115
330
F2
100
AcDbEntity
  8
DV3_Standard
  6
Continuous
 62
     7
100
AcDbCircle
 10
37.2032065331
 20
143.9524325144
 30
0.0
 40
11.7913580562666
100
AcDbArc
 50
204.9169171857
 51
334.9274682141
  0
ARC
  5
116
330
F2
100
AcDbEntity
  8
DV3_Standard
  6
Continuous
 62
     7
100
AcDbCircle
 10
37.2029297429
 20
141.0467767146
 30
0.0
 40
11.78670328050442
100
AcDbArc
 50
204.8820973756
 51
334.9654802313
  0
SPLINE
  5
117
330
F2
100
AcDbEntity
  8
DV3_Standard
  6
Continuous
 62
     7
100
AcDbSpline
210
0.0
220
0.0
230
1.0
 70
     8
 71
     3
 72
    14
 73
    10
 74
     0
 42
0.0000000004588871
 43
0.0000000001
 40
0.0
 40
0.0
 40
0.0
 40
0.0
 40
0.1347307589767604
 40
0.2828782522464172
 40
0.4308638015554067
 40
0.5785875143164323
 40
0.7260142338102046
 40
0.8732292435960599
 40
1.0
 40
1.0
 40
1.0
 40
1.0
 10
37.20021951985371
 20
131.1928742294233
 30
0.0
 10
38.29660400753161
 20
131.2006366189975
 30
0.0
 10
40.23077021188764
 20
131.4361002425176
 30
0.0
 10
43.31920058803817
 20
132.5950849152606
 30
0.0
 10
45.89522871669072
 20
134.5237992647692
 30
0.0
 10
47.89256519987065
 20
137.0587123368291
 30
0.0
 10
49.04870900578071
 20
139.9998912112588
 30
0.0
 10
49.32436277321533
 20
142.9862897416303
 30
0.0
 10
48.97291622879137
 20
144.9010523854878
 30
0.0
 10
48.70377020251192
 20
145.7565787301335
 30
0.0
  0
SPLINE
  5
118
330
F2
100
AcDbEntity
  8
DV3_Standard
  6
Continuous
 62
     7
100
AcDbSpline
210
0.0
220
0.0
230
1.0
 70
     8
 71
     3
 72
    14
 73
    10
 74
     0
 42
0.0000000004586617
 43
0.0000000001
 40
0.0
 40
0.0
 40
0.0
 40
0.0
 40
0.1185331412937313
 40
0.2656329899125902
 40
0.4128179842583665
 40
0.5602459415199281
 40
0.7079591847381336
 40
0.8559041932814102
 40
1.0
 40
1.0
 40
1.0
 40
1.0
 10
25.69984570941453
 20
145.7668484171866
 30
0.0
 10
25.44719024080093
 20
144.9667558645172
 30
0.0
 10
25.0897475519858
 20
143.1140146992832
 30
0.0
 10
25.31013484617688
 20
140.1829512173682
 30
0.0
 10
26.41297743966365
 20
137.2275380982252
 30
0.0
 10
28.36459713983609
 20
134.6635098977545
 30
0.0
 10
30.89883840446583
 20
132.697770821804
 30
0.0
 10
34.03558142336708
 20
131.4587218159282
 30
0.0
 10
36.02751497136867
 20
131.206042504339
 30
0.0
 10
37.20021951985371
 20
131.1928742294233
 30
0.0
  0
ENDBLK
  5
11A
330
F2
100
AcDbEntity
  8
0
100
AcDbBlockEnd
  0
ENDSEC
  0
SECTION
  2
ENTITIES
  0
INSERT
  5
5F
330
1F
100
AcDbEntity
  8
Default
100
AcDbBlockReference
  2
SEANNOT_GROUP
 10
0.0
 20
0.0
 30
0.0
  0
INSERT
  5
66
330
1F
100
AcDbEntity
  8
Default
100
AcDbBlockReference
  2
SEANNOT_GROUP1
 10
0.0
 20
0.0
 30
0.0
  0
INSERT
  5
6C
330
1F
100
AcDbEntity
  8
Default
100
AcDbBlockReference
  2
SEANNOT_GROUP2
 10
0.0
 20
0.0
 30
0.0
  0
INSERT
  5
76
330
1F
100
AcDbEntity
  8
Default
100
AcDbBlockReference
  2
SEANNOT_GROUP3
 10
0.0
 20
0.0
 30
0.0
  0
INSERT
  5
7C
330
1F
100
AcDbEntity
  8
Default
100
AcDbBlockReference
  2
SEANNOT_GROUP4
 10
0.0
 20
0.0
 30
0.0
  0
INSERT
  5
86
330
1F
100
AcDbEntity
  8
Default
100
AcDbBlockReference
  2
SE
 10
0.0
 20
0.0
 30
0.0
  0
INSERT
  5
BB
330
1F
100
AcDbEntity
  8
Default
100
AcDbBlockReference
  2
SE1
 10
0.0
 20
0.0
 30
0.0
  0
INSERT
  5
F3
330
1F
100
AcDbEntity
  8
Default
100
AcDbBlockReference
  2
SE2
 10
0.0
 20
0.0
 30
0.0
  0
TEXT
  5
11C
330
1F
100
AcDbEntity
  8
Default
  6
Continuous
 62
     7
100
AcDbText
 10
5.9362635081
 20
53.4225120485
 30
0.0
 40
10.0
  1
Grohe AG^J
  7
SEACAD_seiso_ttf
 11
5.9362635081
 21
63.4225120485
 31
0.0
100
AcDbText
 73
     3
  0
TEXT
  5
11D
330
1F
100
AcDbEntity
  8
Default
  6
Continuous
 62
     7
100
AcDbText
 10
5.9362635081
 20
37.0588756849
 30
0.0
 40
10.0
  1
 
  7
SEACAD_seiso_ttf
 11
5.9362635081
 21
47.0588756849
 31
0.0
100
AcDbText
 73
     3
  0
TEXT
  5
11E
330
1F
100
AcDbEntity
  8
Default
  6
Continuous
 62
     7
100
AcDbText
 10
5.9362635081
 20
20.6952393213
 30
0.0
 40
10.0
  1
ecn: 
  7
SEACAD_seiso_ttf
 11
5.9362635081
 21
30.6952393213
 31
0.0
100
AcDbText
 73
     3
  0
TEXT
  5
11F
330
1F
100
AcDbEntity
  8
Default
  6
Continuous
 62
     7
100
AcDbText
 10
5.9362635081
 20
4.3316029576
 30
0.0
 40
10.0
  1
unit: mm
  7
SEACAD_seiso_ttf
 11
5.9362635081
 21
14.3316029576
 31
0.0
100
AcDbText
 73
     3
  0
LINE
  5
120
330
1F
100
AcDbEntity
  8
Default
  6
Continuous
 62
     7
100
AcDbLine
 10
0.0
 20
0.0
 30
0.0
 11
100.0
 21
0.0
 31
0.0
  0
LINE
  5
121
330
1F
100
AcDbEntity
  8
Default
  6
Continuous
 62
     7
100
AcDbLine
 10
0.0
 20
0.0
 30
0.0
 11
0.0
 21
100.0
 31
0.0
  0
TEXT
  5
122
330
1F
100
AcDbEntity
  8
Default
  6
Continuous
 62
     7
100
AcDbText
 10
24.3923665681
 20
-18.2375342018
 30
0.0
 40
10.0
  1
100 mm
  7
SEACAD_seiso_ttf
 11
24.3923665681
 21
-8.2375342018
 31
0.0
100
AcDbText
 73
     3
  0
TEXT
  5
123
330
1F
100
AcDbEntity
  8
Default
  6
Continuous
 62
     7
100
AcDbText
 10
-7.6150308803
 20
24.6231930421
 30
0.0
 40
10.0
  1
100 mm
 50
90.0
  7
SEACAD_seiso_ttf
 11
-17.6150308803
 21
24.6231930421
 31
0.0
100
AcDbText
 73
     3
  0
TEXT
  5
124
330
1F
100
AcDbEntity
  8
Default
  6
Continuous
 62
     7
100
AcDbText
 10
28.4878128572
 20
20.0907663715
 30
0.0
 40
10.0
  1
218609
  7
SEACAD_seiso_ttf
 11
28.4878128572
 21
30.0907663715
 31
0.0
100
AcDbText
 73
     3
  0
TEXT
  5
125
330
1F
100
AcDbEntity
  8
Default
  6
Continuous
 62
     7
100
AcDbText
 10
5.9012241913
 20
36.7242780188
 30
0.0
 40
10.0
  1
20203000
  7
SEACAD_seiso_ttf
 11
5.9012241913
 21
46.7242780188
 31
0.0
100
AcDbText
 73
     3
  0
ENDSEC
  0
SECTION
  2
OBJECTS
  0
DICTIONARY
  5
C
330
0
100
AcDbDictionary
281
     1
  3
ACAD_GROUP
350
D
  3
ACAD_LAYOUT
350
1A
  3
ACAD_MLEADERSTYLE
350
129
  3
ACAD_MLINESTYLE
350
17
  3
ACAD_PLOTSETTINGS
350
19
  3
ACAD_PLOTSTYLENAME
350
E
  3
ACAD_SCALELIST
350
3B
  3
ACAD_TABLESTYLE
350
128
  3
ACAD_VISUALSTYLE
350
2A
  3
AcDbVariableDictionary
350
126
  0
DICTIONARY
  5
D
102
{ACAD_REACTORS
330
C
102
}
330
C
100
AcDbDictionary
281
     1
  0
DICTIONARY
  5
1A
102
{ACAD_REACTORS
330
C
102
}
330
C
100
AcDbDictionary
281
     1
  3
Layout1
350
1E
  3
Model
350
22
  0
DICTIONARY
  5
129
102
{ACAD_REACTORS
330
C
102
}
330
C
100
AcDbDictionary
281
     1
  0
DICTIONARY
  5
17
102
{ACAD_REACTORS
330
C
102
}
330
C
100
AcDbDictionary
281
     1
  3
Standard
350
18
  0
DICTIONARY
  5
19
102
{ACAD_REACTORS
330
C
102
}
330
C
100
AcDbDictionary
281
     1
  0
ACDBDICTIONARYWDFLT
  5
E
102
{ACAD_REACTORS
330
C
102
}
330
C
100
AcDbDictionary
281
     1
  3
Normal
350
F
100
AcDbDictionaryWithDefault
340
F
  0
DICTIONARY
  5
3B
102
{ACAD_REACTORS
330
C
102
}
330
C
100
AcDbDictionary
281
     1
  3
A0
350
3C
  3
A1
350
3D
  3
A2
350
3E
  3
A3
350
3F
  3
A4
350
40
  3
A5
350
41
  3
A6
350
42
  3
A7
350
43
  3
A8
350
44
  3
A9
350
45
  3
B0
350
46
  3
B1
350
47
  3
B2
350
48
  3
B3
350
49
  3
B4
350
4A
  3
B5
350
4B
  3
B6
350
4C
  3
B7
350
4D
  3
B8
350
4E
  3
B9
350
4F
  3
C0
350
50
  3
C1
350
51
  3
C2
350
52
  3
C3
350
53
  3
C4
350
54
  3
C5
350
55
  3
C6
350
56
  3
C7
350
57
  3
C8
350
58
  3
C9
350
59
  3
D0
350
5A
  3
D1
350
5B
  3
D2
350
5C
  0
DICTIONARY
  5
128
102
{ACAD_REACTORS
330
C
102
}
330
C
100
AcDbDictionary
281
     1
  0
DICTIONARY
  5
2A
102
{ACAD_REACTORS
330
C
102
}
330
C
100
AcDbDictionary
281
     1
  3
2dWireframe
350
2F
  3
3D Hidden
350
31
  3
3dWireframe
350
30
  3
Basic
350
32
  3
Brighten
350
36
  3
ColorChange
350
3A
  3
Conceptual
350
34
  3
Dim
350
35
  3
Facepattern
350
39
  3
Flat
350
2B
  3
FlatWithEdges
350
2C
  3
Gouraud
350
2D
  3
GouraudWithEdges
350
2E
  3
Linepattern
350
38
  3
Realistic
350
33
  3
Thicken
350
37
  0
DICTIONARY
  5
126
102
{ACAD_REACTORS
330
C
102
}
330
C
100
AcDbDictionary
281
     1
  3
CANNOSCALE
350
127
  3
PSOLHEIGHT
350
12B
  3
PSOLWIDTH
350
12A
  0
LAYOUT
  5
1E
102
{ACAD_REACTORS
330
1A
102
}
330
1A
100
AcDbPlotSettings
  1

  2
none_device
  4

  6

 40
0.0
 41
0.0
 42
0.0
 43
0.0
 44
0.0
 45
0.0
 46
0.0
 47
0.0
 48
0.0
 49
0.0
140
0.0
141
0.0
142
1.0
143
1.0
 70
   688
 72
     0
 73
     0
 74
     5
  7

 75
    16
147
1.0
148
0.0
149
0.0
100
AcDbLayout
  1
Layout1
 70
     1
 71
     1
 10
0.0
 20
0.0
 11
1682.0
 21
2378.0
 12
0.0
 22
0.0
 32
0.0
 14
0.0
 24
0.0
 34
0.0
 15
1682.0
 25
2378.0
 35
0.0
146
0.0
 13
0.0
 23
0.0
 33
0.0
 16
1.0
 26
0.0
 36
0.0
 17
0.0
 27
1.0
 37
0.0
 76
     0
330
1B
  0
LAYOUT
  5
22
102
{ACAD_REACTORS
330
1A
102
}
330
1A
100
AcDbPlotSettings
  1

  2
none_device
  4

  6

 40
0.0
 41
0.0
 42
0.0
 43
0.0
 44
0.0
 45
0.0
 46
0.0
 47
0.0
 48
0.0
 49
0.0
140
0.0
141
0.0
142
1.0
143
1.0
 70
  1712
 72
     0
 73
     0
 74
     0
  7

 75
     0
147
1.0
148
0.0
149
0.0
100
AcDbLayout
  1
Model
 70
     1
 71
     0
 10
0.0
 20
0.0
 11
1682.0
 21
2378.0
 12
0.0
 22
0.0
 32
0.0
 14
0.0
 24
0.0
 34
0.0
 15
1682.0
 25
2378.0
 35
0.0
146
0.0
 13
0.0
 23
0.0
 33
0.0
 16
1.0
 26
0.0
 36
0.0
 17
0.0
 27
1.0
 37
0.0
 76
     0
330
1F
331
29
  0
MLINESTYLE
  5
18
102
{ACAD_REACTORS
330
17
102
}
330
17
100
AcDbMlineStyle
  2
Standard
 70
     0
  3

 62
   256
 51
90.0
 52
90.0
 71
     2
 49
0.5
 62
   256
  6
BYLAYER
 49
-0.5
 62
   256
  6
BYLAYER
  0
ACDBPLACEHOLDER
  5
F
102
{ACAD_REACTORS
330
E
102
}
330
E
  0
SCALE
  5
3C
102
{ACAD_REACTORS
330
3B
102
}
330
3B
100
AcDbScale
 70
     0
300
1:1
140
1.0
141
1.0
290
     1
  0
SCALE
  5
3D
102
{ACAD_REACTORS
330
3B
102
}
330
3B
100
AcDbScale
 70
     0
300
1:2
140
1.0
141
2.0
290
     0
  0
SCALE
  5
3E
102
{ACAD_REACTORS
330
3B
102
}
330
3B
100
AcDbScale
 70
     0
300
1:4
140
1.0
141
4.0
290
     0
  0
SCALE
  5
3F
102
{ACAD_REACTORS
330
3B
102
}
330
3B
100
AcDbScale
 70
     0
300
1:5
140
1.0
141
5.0
290
     0
  0
SCALE
  5
40
102
{ACAD_REACTORS
330
3B
102
}
330
3B
100
AcDbScale
 70
     0
300
1:8
140
1.0
141
8.0
290
     0
  0
SCALE
  5
41
102
{ACAD_REACTORS
330
3B
102
}
330
3B
100
AcDbScale
 70
     0
300
1:10
140
1.0
141
10.0
290
     0
  0
SCALE
  5
42
102
{ACAD_REACTORS
330
3B
102
}
330
3B
100
AcDbScale
 70
     0
300
1:16
140
1.0
141
16.0
290
     0
  0
SCALE
  5
43
102
{ACAD_REACTORS
330
3B
102
}
330
3B
100
AcDbScale
 70
     0
300
1:20
140
1.0
141
20.0
290
     0
  0
SCALE
  5
44
102
{ACAD_REACTORS
330
3B
102
}
330
3B
100
AcDbScale
 70
     0
300
1:30
140
1.0
141
30.0
290
     0
  0
SCALE
  5
45
102
{ACAD_REACTORS
330
3B
102
}
330
3B
100
AcDbScale
 70
     0
300
1:40
140
1.0
141
40.0
290
     0
  0
SCALE
  5
46
102
{ACAD_REACTORS
330
3B
102
}
330
3B
100
AcDbScale
 70
     0
300
1:50
140
1.0
141
50.0
290
     0
  0
SCALE
  5
47
102
{ACAD_REACTORS
330
3B
102
}
330
3B
100
AcDbScale
 70
     0
300
1:100
140
1.0
141
100.0
290
     0
  0
SCALE
  5
48
102
{ACAD_REACTORS
330
3B
102
}
330
3B
100
AcDbScale
 70
     0
300
2:1
140
2.0
141
1.0
290
     0
  0
SCALE
  5
49
102
{ACAD_REACTORS
330
3B
102
}
330
3B
100
AcDbScale
 70
     0
300
4:1
140
4.0
141
1.0
290
     0
  0
SCALE
  5
4A
102
{ACAD_REACTORS
330
3B
102
}
330
3B
100
AcDbScale
 70
     0
300
8:1
140
8.0
141
1.0
290
     0
  0
SCALE
  5
4B
102
{ACAD_REACTORS
330
3B
102
}
330
3B
100
AcDbScale
 70
     0
300
10:1
140
10.0
141
1.0
290
     0
  0
SCALE
  5
4C
102
{ACAD_REACTORS
330
3B
102
}
330
3B
100
AcDbScale
 70
     0
300
100:1
140
100.0
141
1.0
290
     0
  0
SCALE
  5
4D
102
{ACAD_REACTORS
330
3B
102
}
330
3B
100
AcDbScale
 70
     0
300
1/128" = 1'-0"
140
0.0078125
141
12.0
290
     0
  0
SCALE
  5
4E
102
{ACAD_REACTORS
330
3B
102
}
330
3B
100
AcDbScale
 70
     0
300
1/64" = 1'-0"
140
0.015625
141
12.0
290
     0
  0
SCALE
  5
4F
102
{ACAD_REACTORS
330
3B
102
}
330
3B
100
AcDbScale
 70
     0
300
1/32" = 1'-0"
140
0.03125
141
12.0
290
     0
  0
SCALE
  5
50
102
{ACAD_REACTORS
330
3B
102
}
330
3B
100
AcDbScale
 70
     0
300
1/16" = 1'-0"
140
0.0625
141
12.0
290
     0
  0
SCALE
  5
51
102
{ACAD_REACTORS
330
3B
102
}
330
3B
100
AcDbScale
 70
     0
300
3/32" = 1'-0"
140
0.09375
141
12.0
290
     0
  0
SCALE
  5
52
102
{ACAD_REACTORS
330
3B
102
}
330
3B
100
AcDbScale
 70
     0
300
1/8" = 1'-0"
140
0.125
141
12.0
290
     0
  0
SCALE
  5
53
102
{ACAD_REACTORS
330
3B
102
}
330
3B
100
AcDbScale
 70
     0
300
3/16" = 1'-0"
140
0.1875
141
12.0
290
     0
  0
SCALE
  5
54
102
{ACAD_REACTORS
330
3B
102
}
330
3B
100
AcDbScale
 70
     0
300
1/4" = 1'-0"
140
0.25
141
12.0
290
     0
  0
SCALE
  5
55
102
{ACAD_REACTORS
330
3B
102
}
330
3B
100
AcDbScale
 70
     0
300
3/8" = 1'-0"
140
0.375
141
12.0
290
     0
  0
SCALE
  5
56
102
{ACAD_REACTORS
330
3B
102
}
330
3B
100
AcDbScale
 70
     0
300
1/2" = 1'-0"
140
0.5
141
12.0
290
     0
  0
SCALE
  5
57
102
{ACAD_REACTORS
330
3B
102
}
330
3B
100
AcDbScale
 70
     0
300
3/4" = 1'-0"
140
0.75
141
12.0
290
     0
  0
SCALE
  5
58
102
{ACAD_REACTORS
330
3B
102
}
330
3B
100
AcDbScale
 70
     0
300
1" = 1'-0"
140
1.0
141
12.0
290
     0
  0
SCALE
  5
59
102
{ACAD_REACTORS
330
3B
102
}
330
3B
100
AcDbScale
 70
     0
300
1-1/2" = 1'-0"
140
1.5
141
12.0
290
     0
  0
SCALE
  5
5A
102
{ACAD_REACTORS
330
3B
102
}
330
3B
100
AcDbScale
 70
     0
300
3" = 1'-0"
140
3.0
141
12.0
290
     0
  0
SCALE
  5
5B
102
{ACAD_REACTORS
330
3B
102
}
330
3B
100
AcDbScale
 70
     0
300
6" = 1'-0"
140
6.0
141
12.0
290
     0
  0
SCALE
  5
5C
102
{ACAD_REACTORS
330
3B
102
}
330
3B
100
AcDbScale
 70
     0
300
1'-0" = 1'-0"
140
12.0
141
12.0
290
     0
  0
VISUALSTYLE
  5
2F
102
{ACAD_REACTORS
330
2A
102
}
330
2A
100
AcDbVisualStyle
  2
2dWireframe
 70
     4
 71
     0
 72
     2
 73
     0
 90
        0
 40
-0.6
 41
-30.0
 62
     5
 63
     7
 74
     1
 91
        4
 64
     7
 65
   257
 75
     1
175
     1
 42
1.0
 92
        0
 66
   257
 43
1.0
 76
     1
 77
     6
 78
     2
 67
     7
 79
     5
170
     0
171
     0
290
     0
174
     0
 93
        1
 44
0.0
173
     0
291
     0
 45
0.0
1001
ACAD
1000
AcDbSavedByObjectVersion
1070
     0
  0
VISUALSTYLE
  5
31
102
{ACAD_REACTORS
330
2A
102
}
330
2A
100
AcDbVisualStyle
  2
3D Hidden
 70
     6
 71
     1
 72
     2
 73
     2
 90
        0
 40
-0.6
 41
-30.0
 62
     5
 63
     7
 74
     2
 91
        2
 64
     7
 65
   257
 75
     2
175
     1
 42
40.0
 92
        0
 66
   257
 43
1.0
 76
     1
 77
     6
 78
     2
 67
     7
 79
     3
170
     0
171
     0
290
     0
174
     0
 93
        1
 44
0.0
173
     0
291
     0
 45
0.0
1001
ACAD
1000
AcDbSavedByObjectVersion
1070
     0
  0
VISUALSTYLE
  5
30
102
{ACAD_REACTORS
330
2A
102
}
330
2A
100
AcDbVisualStyle
  2
3dWireframe
 70
     5
 71
     0
 72
     2
 73
     0
 90
        0
 40
-0.6
 41
-30.0
 62
     5
 63
     7
 74
     1
 91
        4
 64
     7
 65
   257
 75
     1
175
     1
 42
1.0
 92
        0
 66
   257
 43
1.0
 76
     1
 77
     6
 78
     2
 67
     7
 79
     5
170
     0
171
     0
290
     0
174
     0
 93
        1
 44
0.0
173
     0
291
     0
 45
0.0
1001
ACAD
1000
AcDbSavedByObjectVersion
1070
     0
  0
VISUALSTYLE
  5
32
102
{ACAD_REACTORS
330
2A
102
}
330
2A
100
AcDbVisualStyle
  2
Basic
 70
     7
 71
     1
 72
     0
 73
     1
 90
        0
 40
-0.6
 41
-30.0
 62
     5
 63
     7
 74
     0
 91
        4
 64
     7
 65
   257
 75
     1
175
     1
 42
1.0
 92
        8
 66
     7
 43
1.0
 76
     1
 77
     6
 78
     2
 67
     7
 79
     5
170
     0
171
     0
290
     0
174
     0
 93
        1
 44
0.0
173
     0
291
     1
 45
0.0
1001
ACAD
1000
AcDbSavedByObjectVersion
1070
     0
  0
VISUALSTYLE
  5
36
102
{ACAD_REACTORS
330
2A
102
}
330
2A
100
AcDbVisualStyle
  2
Brighten
 70
    12
 71
     2
 72
     2
 73
     0
 90
        0
 40
-0.6
 41
-30.0
 62
     5
 63
     7
 74
     1
 91
        4
 64
     7
 65
   257
 75
     1
175
     1
 42
1.0
 92
        8
 66
     7
 43
1.0
 76
     1
 77
     6
 78
     2
 67
     7
 79
     5
170
     0
171
     0
290
     0
174
     0
 93
        1
 44
50.0
173
     0
291
     1
 45
0.0
1001
ACAD
1000
AcDbSavedByObjectVersion
1070
     0
  0
VISUALSTYLE
  5
3A
102
{ACAD_REACTORS
330
2A
102
}
330
2A
100
AcDbVisualStyle
  2
ColorChange
 70
    16
 71
     2
 72
     2
 73
     3
 90
        0
 40
-0.6
 41
-30.0
 62
     5
 63
     8
 74
     1
 91
        4
 64
     7
 65
   257
 75
     1
175
     1
 42
1.0
 92
        8
 66
     8
 43
1.0
 76
     1
 77
     6
 78
     2
 67
     7
 79
     5
170
     0
171
     0
290
     0
174
     0
 93
        1
 44
0.0
173
     0
291
     1
 45
0.0
1001
ACAD
1000
AcDbSavedByObjectVersion
1070
     0
  0
VISUALSTYLE
  5
34
102
{ACAD_REACTORS
330
2A
102
}
330
2A
100
AcDbVisualStyle
  2
Conceptual
 70
     9
 71
     3
 72
     2
 73
     0
 90
        0
 40
-0.6
 41
-30.0
 62
     5
 63
     7
 74
     2
 91
        2
 64
     7
 65
   257
 75
     1
175
     1
 42
40.0
 92
        8
 66
     7
 43
1.0
 76
     1
 77
     6
 78
     2
 67
     7
 79
     3
170
     0
171
     0
290
     0
174
     0
 93
        1
 44
0.0
173
     0
291
     0
 45
0.0
1001
ACAD
1000
AcDbSavedByObjectVersion
1070
     0
  0
VISUALSTYLE
  5
35
102
{ACAD_REACTORS
330
2A
102
}
330
2A
100
AcDbVisualStyle
  2
Dim
 70
    11
 71
     2
 72
     2
 73
     0
 90
        0
 40
-0.6
 41
-30.0
 62
     5
 63
     7
 74
     1
 91
        4
 64
     7
 65
   257
 75
     1
175
     1
 42
1.0
 92
        8
 66
     7
 43
1.0
 76
     1
 77
     6
 78
     2
 67
     7
 79
     5
170
     0
171
     0
290
     0
174
     0
 93
        1
 44
-50.0
173
     0
291
     1
 45
0.0
1001
ACAD
1000
AcDbSavedByObjectVersion
1070
     0
  0
VISUALSTYLE
  5
39
102
{ACAD_REACTORS
330
2A
102
}
330
2A
100
AcDbVisualStyle
  2
Facepattern
 70
    15
 71
     2
 72
     2
 73
     0
 90
        0
 40
-0.6
 41
-30.0
 62
     5
 63
     7
 74
     1
 91
        4
 64
     7
 65
   257
 75
     1
175
     1
 42
1.0
 92
        8
 66
     7
 43
1.0
 76
     1
 77
     6
 78
     2
 67
     7
 79
     5
170
     0
171
     0
290
     0
174
     0
 93
        1
 44
0.0
173
     0
291
     1
 45
0.0
1001
ACAD
1000
AcDbSavedByObjectVersion
1070
     0
  0
VISUALSTYLE
  5
2B
102
{ACAD_REACTORS
330
2A
102
}
330
2A
100
AcDbVisualStyle
  2
Flat
 70
     0
 71
     2
 72
     1
 73
     1
 90
        2
 40
-0.6
 41
30.0
 62
     5
 63
     7
 74
     0
 91
        4
 64
     7
 65
   257
 75
     1
175
     1
 42
1.0
 92
        8
 66
     7
 43
1.0
 76
     1
 77
     6
 78
     2
 67
     7
 79
     5
170
     0
171
     0
290
     0
174
     0
 93
       13
 44
0.0
173
     0
291
     1
 45
0.0
1001
ACAD
1000
AcDbSavedByObjectVersion
1070
     0
  0
VISUALSTYLE
  5
2C
102
{ACAD_REACTORS
330
2A
102
}
330
2A
100
AcDbVisualStyle
  2
FlatWithEdges
 70
     1
 71
     2
 72
     1
 73
     1
 90
        2
 40
-0.6
 41
30.0
 62
     5
 63
     7
 74
     1
 91
        4
 64
     7
 65
   257
 75
     1
175
     1
 42
1.0
 92
        0
 66
   257
 43
1.0
 76
     1
 77
     6
 78
     2
 67
     7
 79
     5
170
     0
171
     0
290
     0
174
     0
 93
       13
 44
0.0
173
     0
291
     1
 45
0.0
1001
ACAD
1000
AcDbSavedByObjectVersion
1070
     0
  0
VISUALSTYLE
  5
2D
102
{ACAD_REACTORS
330
2A
102
}
330
2A
100
AcDbVisualStyle
  2
Gouraud
 70
     2
 71
     2
 72
     2
 73
     1
 90
        2
 40
-0.6
 41
30.0
 62
     5
 63
     7
 74
     0
 91
        4
 64
     7
 65
   257
 75
     1
175
     1
 42
1.0
 92
        0
 66
     7
 43
1.0
 76
     1
 77
     6
 78
     2
 67
     7
 79
     5
170
     0
171
     0
290
     0
174
     0
 93
       13
 44
0.0
173
     0
291
     1
 45
0.0
1001
ACAD
1000
AcDbSavedByObjectVersion
1070
     0
  0
VISUALSTYLE
  5
2E
102
{ACAD_REACTORS
330
2A
102
}
330
2A
100
AcDbVisualStyle
  2
GouraudWithEdges
 70
     3
 71
     2
 72
     2
 73
     1
 90
        2
 40
-0.6
 41
30.0
 62
     5
 63
     7
 74
     1
 91
        4
 64
     7
 65
   257
 75
     1
175
     1
 42
1.0
 92
        0
 66
   257
 43
1.0
 76
     1
 77
     6
 78
     2
 67
     7
 79
     5
170
     0
171
     0
290
     0
174
     0
 93
       13
 44
0.0
173
     0
291
     1
 45
0.0
1001
ACAD
1000
AcDbSavedByObjectVersion
1070
     0
  0
VISUALSTYLE
  5
38
102
{ACAD_REACTORS
330
2A
102
}
330
2A
100
AcDbVisualStyle
  2
Linepattern
 70
    14
 71
     2
 72
     2
 73
     0
 90
        0
 40
-0.6
 41
-30.0
 62
     5
 63
     7
 74
     1
 91
        4
 64
     7
 65
   257
 75
     7
175
     7
 42
1.0
 92
        8
 66
     7
 43
1.0
 76
     1
 77
     6
 78
     2
 67
     7
 79
     5
170
     0
171
     0
290
     0
174
     0
 93
        1
 44
0.0
173
     0
291
     1
 45
0.0
1001
ACAD
1000
AcDbSavedByObjectVersion
1070
     0
  0
VISUALSTYLE
  5
33
102
{ACAD_REACTORS
330
2A
102
}
330
2A
100
AcDbVisualStyle
  2
Realistic
 70
     8
 71
     2
 72
     2
 73
     0
 90
        0
 40
-0.6
 41
-30.0
 62
     5
 63
     7
 74
     1
 91
        0
 64
     7
 65
   257
 75
     1
175
     1
 42
1.0
 92
        8
 66
     8
 43
1.0
 76
     1
 77
     6
 78
     2
 67
     7
 79
     5
170
     0
171
     0
290
     0
174
     0
 93
       13
 44
0.0
173
     0
291
     0
 45
0.0
1001
ACAD
1000
AcDbSavedByObjectVersion
1070
     0
  0
VISUALSTYLE
  5
37
102
{ACAD_REACTORS
330
2A
102
}
330
2A
100
AcDbVisualStyle
  2
Thicken
 70
    13
 71
     2
 72
     2
 73
     0
 90
        0
 40
-0.6
 41
-30.0
 62
     5
 63
     7
 74
     1
 91
        4
 64
     7
 65
   257
 75
     1
175
     1
 42
1.0
 92
       12
 66
     7
 43
1.0
 76
     1
 77
     6
 78
     2
 67
     7
 79
     5
170
     0
171
     0
290
     0
174
     0
 93
        1
 44
0.0
173
     0
291
     1
 45
0.0
1001
ACAD
1000
AcDbSavedByObjectVersion
1070
     0
  0
DICTIONARYVAR
  5
127
102
{ACAD_REACTORS
330
126
102
}
330
126
100
DictionaryVariables
280
     0
  1
1:1
  0
DICTIONARYVAR
  5
12B
102
{ACAD_REACTORS
330
126
102
}
330
126
100
DictionaryVariables
280
     0
  1
80.000000
  0
DICTIONARYVAR
  5
12A
102
{ACAD_REACTORS
330
126
102
}
330
126
100
DictionaryVariables
280
     0
  1
5.000000
  0
ENDSEC
  0
EOF
