  0
SECTION
  2
HEADER
  9
$ACADVER
  1
AC1015
  9
$ACADMAINTVER
 70
     6
  9
$DWGCODEPAGE
  3
ANSI_1252
  9
$INSBASE
 10
0.0
 20
0.0
 30
0.0
  9
$EXTMIN
 10
0.0
 20
0.0
 30
0.0
  9
$EXTMAX
 10
1682.0
 20
2378.0
 30
0.0
  9
$LIMMIN
 10
0.0
 20
0.0
  9
$LIMMAX
 10
1682.0
 20
2378.0
  9
$ORTHOMODE
 70
     0
  9
$REGENMODE
 70
     1
  9
$FILLMODE
 70
     1
  9
$QTEXTMODE
 70
     0
  9
$MIRRTEXT
 70
     1
  9
$LTSCALE
 40
1.0
  9
$ATTMODE
 70
     1
  9
$TEXTSIZE
 40
2.5
  9
$TRACEWID
 40
1.0
  9
$TEXTSTYLE
  7
Standard
  9
$CLAYER
  8
0
  9
$CELTYPE
  6
ByLayer
  9
$CECOLOR
 62
   256
  9
$CELTSCALE
 40
1.0
  9
$DISPSILH
 70
     0
  9
$DIMSCALE
 40
1.0
  9
$DIMASZ
 40
2.5
  9
$DIMEXO
 40
0.625
  9
$DIMDLI
 40
3.75
  9
$DIMRND
 40
0.0
  9
$DIMDLE
 40
0.0
  9
$DIMEXE
 40
1.25
  9
$DIMTP
 40
0.0
  9
$DIMTM
 40
0.0
  9
$DIMTXT
 40
2.5
  9
$DIMCEN
 40
2.5
  9
$DIMTSZ
 40
0.0
  9
$DIMTOL
 70
     0
  9
$DIMLIM
 70
     0
  9
$DIMTIH
 70
     0
  9
$DIMTOH
 70
     0
  9
$DIMSE1
 70
     0
  9
$DIMSE2
 70
     0
  9
$DIMTAD
 70
     1
  9
$DIMZIN
 70
     8
  9
$DIMBLK
  1

  9
$DIMASO
 70
     1
  9
$DIMSHO
 70
     1
  9
$DIMPOST
  1

  9
$DIMAPOST
  1

  9
$DIMALT
 70
     0
  9
$DIMALTD
 70
     3
  9
$DIMALTF
 40
0.0393700787
  9
$DIMLFAC
 40
1.0
  9
$DIMTOFL
 70
     1
  9
$DIMTVP
 40
0.0
  9
$DIMTIX
 70
     0
  9
$DIMSOXD
 70
     0
  9
$DIMSAH
 70
     0
  9
$DIMBLK1
  1

  9
$DIMBLK2
  1

  9
$DIMSTYLE
  2
ISO-25
  9
$DIMCLRD
 70
     0
  9
$DIMCLRE
 70
     0
  9
$DIMCLRT
 70
     0
  9
$DIMTFAC
 40
1.0
  9
$DIMGAP
 40
0.625
  9
$DIMJUST
 70
     0
  9
$DIMSD1
 70
     0
  9
$DIMSD2
 70
     0
  9
$DIMTOLJ
 70
     0
  9
$DIMTZIN
 70
     8
  9
$DIMALTZ
 70
     0
  9
$DIMALTTZ
 70
     0
  9
$DIMUPT
 70
     0
  9
$DIMDEC
 70
     2
  9
$DIMTDEC
 70
     2
  9
$DIMALTU
 70
     2
  9
$DIMALTTD
 70
     3
  9
$DIMTXSTY
  7
Standard
  9
$DIMAUNIT
 70
     0
  9
$DIMADEC
 70
     0
  9
$DIMALTRND
 40
0.0
  9
$DIMAZIN
 70
     0
  9
$DIMDSEP
 70
    44
  9
$DIMATFIT
 70
     3
  9
$DIMFRAC
 70
     0
  9
$DIMLDRBLK
  1

  9
$DIMLUNIT
 70
     2
  9
$DIMLWD
 70
    -2
  9
$DIMLWE
 70
    -2
  9
$DIMTMOVE
 70
     0
  9
$LUNITS
 70
     2
  9
$LUPREC
 70
     4
  9
$SKETCHINC
 40
1.0
  9
$FILLETRAD
 40
10.0
  9
$AUNITS
 70
     0
  9
$AUPREC
 70
     0
  9
$MENU
  1
.
  9
$ELEVATION
 40
0.0
  9
$PELEVATION
 40
0.0
  9
$THICKNESS
 40
0.0
  9
$LIMCHECK
 70
     0
  9
$CHAMFERA
 40
10.0
  9
$CHAMFERB
 40
10.0
  9
$CHAMFERC
 40
20.0
  9
$CHAMFERD
 40
0.0
  9
$SKPOLY
 70
     0
  9
$TDCREATE
 40
2455446.379740035
  9
$TDUCREATE
 40
2455446.296406701
  9
$TDUPDATE
 40
2455446.379740046
  9
$TDUUPDATE
 40
2455446.296406713
  9
$TDINDWG
 40
0.0000000116
  9
$TDUSRTIMER
 40
0.0000000116
  9
$USRTIMER
 70
     1
  9
$ANGBASE
 50
0.0
  9
$ANGDIR
 70
     0
  9
$PDMODE
 70
     0
  9
$PDSIZE
 40
0.0
  9
$PLINEWID
 40
0.0
  9
$SPLFRAME
 70
     0
  9
$SPLINETYPE
 70
     6
  9
$SPLINESEGS
 70
     8
  9
$HANDSEED
  5
11A
  9
$SURFTAB1
 70
     6
  9
$SURFTAB2
 70
     6
  9
$SURFTYPE
 70
     6
  9
$SURFU
 70
     6
  9
$SURFV
 70
     6
  9
$UCSBASE
  2

  9
$UCSNAME
  2

  9
$UCSORG
 10
0.0
 20
0.0
 30
0.0
  9
$UCSXDIR
 10
1.0
 20
0.0
 30
0.0
  9
$UCSYDIR
 10
0.0
 20
1.0
 30
0.0
  9
$UCSORTHOREF
  2

  9
$UCSORTHOVIEW
 70
     0
  9
$UCSORGTOP
 10
0.0
 20
0.0
 30
0.0
  9
$UCSORGBOTTOM
 10
0.0
 20
0.0
 30
0.0
  9
$UCSORGLEFT
 10
0.0
 20
0.0
 30
0.0
  9
$UCSORGRIGHT
 10
0.0
 20
0.0
 30
0.0
  9
$UCSORGFRONT
 10
0.0
 20
0.0
 30
0.0
  9
$UCSORGBACK
 10
0.0
 20
0.0
 30
0.0
  9
$PUCSBASE
  2

  9
$PUCSNAME
  2

  9
$PUCSORG
 10
0.0
 20
0.0
 30
0.0
  9
$PUCSXDIR
 10
1.0
 20
0.0
 30
0.0
  9
$PUCSYDIR
 10
0.0
 20
1.0
 30
0.0
  9
$PUCSORTHOREF
  2

  9
$PUCSORTHOVIEW
 70
     0
  9
$PUCSORGTOP
 10
0.0
 20
0.0
 30
0.0
  9
$PUCSORGBOTTOM
 10
0.0
 20
0.0
 30
0.0
  9
$PUCSORGLEFT
 10
0.0
 20
0.0
 30
0.0
  9
$PUCSORGRIGHT
 10
0.0
 20
0.0
 30
0.0
  9
$PUCSORGFRONT
 10
0.0
 20
0.0
 30
0.0
  9
$PUCSORGBACK
 10
0.0
 20
0.0
 30
0.0
  9
$USERI1
 70
     0
  9
$USERI2
 70
     0
  9
$USERI3
 70
     0
  9
$USERI4
 70
     0
  9
$USERI5
 70
     0
  9
$USERR1
 40
0.0
  9
$USERR2
 40
0.0
  9
$USERR3
 40
0.0
  9
$USERR4
 40
0.0
  9
$USERR5
 40
0.0
  9
$WORLDVIEW
 70
     1
  9
$SHADEDGE
 70
     3
  9
$SHADEDIF
 70
    70
  9
$TILEMODE
 70
     1
  9
$MAXACTVP
 70
    64
  9
$PINSBASE
 10
0.0
 20
0.0
 30
0.0
  9
$PLIMCHECK
 70
     0
  9
$PEXTMIN
 10
0.0
 20
0.0
 30
0.0
  9
$PEXTMAX
 10
1682.0
 20
2378.0
 30
0.0
  9
$PLIMMIN
 10
0.0
 20
0.0
  9
$PLIMMAX
 10
1682.0
 20
2378.0
  9
$UNITMODE
 70
     0
  9
$VISRETAIN
 70
     1
  9
$PLINEGEN
 70
     0
  9
$PSLTSCALE
 70
     1
  9
$TREEDEPTH
 70
  3020
  9
$CMLSTYLE
  2
Standard
  9
$CMLJUST
 70
     0
  9
$CMLSCALE
 40
20.0
  9
$PROXYGRAPHICS
 70
     1
  9
$MEASUREMENT
 70
     1
  9
$CELWEIGHT
370
    -1
  9
$ENDCAPS
280
     0
  9
$JOINSTYLE
280
     0
  9
$LWDISPLAY
290
     0
  9
$INSUNITS
 70
     4
  9
$HYPERLINKBASE
  1

  9
$STYLESHEET
  1

  9
$XEDIT
290
     1
  9
$CEPSNTYPE
380
     0
  9
$PSTYLEMODE
290
     1
  9
$FINGERPRINTGUID
  2
{C3A11B25-901D-4D9D-AD1C-E0723F6373B8}
  9
$VERSIONGUID
  2
{FAEB1C32-E019-11D5-929B-00C0DF256EC4}
  9
$EXTNAMES
290
     1
  9
$PSVPSCALE
 40
0.0
  9
$OLESTARTUP
290
     0
  0
ENDSEC
  0
SECTION
  2
CLASSES
  0
CLASS
  1
ACDBDICTIONARYWDFLT
  2
AcDbDictionaryWithDefault
  3
ObjectDBX Classes
 90
        0
280
     0
281
     0
  0
CLASS
  1
VISUALSTYLE
  2
AcDbVisualStyle
  3
ObjectDBX Classes
 90
     4095
280
     0
281
     0
  0
CLASS
  1
SCALE
  2
AcDbScale
  3
ObjectDBX Classes
 90
     1153
280
     0
281
     0
  0
CLASS
  1
DICTIONARYVAR
  2
AcDbDictionaryVar
  3
ObjectDBX Classes
 90
        0
280
     0
281
     0
  0
CLASS
  1
ACDBPLACEHOLDER
  2
AcDbPlaceHolder
  3
ObjectDBX Classes
 90
        0
280
     0
281
     0
  0
CLASS
  1
LAYOUT
  2
AcDbLayout
  3
ObjectDBX Classes
 90
        0
280
     0
281
     0
  0
ENDSEC
  0
SECTION
  2
TABLES
  0
TABLE
  2
VPORT
  5
8
330
0
100
AcDbSymbolTable
 70
     1
  0
VPORT
  5
29
330
8
100
AcDbSymbolTableRecord
100
AcDbViewportTableRecord
  2
*Active
 70
     0
 10
0.0
 20
0.0
 11
1.0
 21
1.0
 12
344.1869158879
 22
148.5
 13
0.0
 23
0.0
 14
10.0
 24
10.0
 15
10.0
 25
10.0
 16
0.0
 26
0.0
 36
1.0
 17
0.0
 27
0.0
 37
0.0
 40
297.0
 41
1.9729729729
 42
50.0
 43
0.0
 44
0.0
 50
0.0
 51
0.0
 71
     0
 72
   100
 73
     1
 74
     3
 75
     0
 76
     0
 77
     0
 78
     0
281
     0
 65
     1
110
0.0
120
0.0
130
0.0
111
1.0
121
0.0
131
0.0
112
0.0
122
1.0
132
0.0
 79
     0
146
0.0
  0
ENDTAB
  0
TABLE
  2
LTYPE
  5
5
330
0
100
AcDbSymbolTable
 70
     1
  0
LTYPE
  5
14
330
5
100
AcDbSymbolTableRecord
100
AcDbLinetypeTableRecord
  2
ByBlock
 70
     0
  3

 72
    65
 73
     0
 40
0.0
  0
LTYPE
  5
15
330
5
100
AcDbSymbolTableRecord
100
AcDbLinetypeTableRecord
  2
ByLayer
 70
     0
  3

 72
    65
 73
     0
 40
0.0
  0
LTYPE
  5
16
330
5
100
AcDbSymbolTableRecord
100
AcDbLinetypeTableRecord
  2
Continuous
 70
     0
  3
Solid line
 72
    65
 73
     0
 40
0.0
  0
ENDTAB
  0
TABLE
  2
LAYER
  5
2
330
0
100
AcDbSymbolTable
 70
     5
  0
LAYER
  5
10
330
2
100
AcDbSymbolTableRecord
100
AcDbLayerTableRecord
  2
0
 70
     0
 62
     7
  6
Continuous
370
    -3
390
F
  0
LAYER
  5
5D
330
2
100
AcDbSymbolTableRecord
100
AcDbLayerTableRecord
  2
Default
 70
     0
 62
     7
  6
Continuous
370
    -3
390
F
  0
LAYER
  5
60
330
2
100
AcDbSymbolTableRecord
100
AcDbLayerTableRecord
  2
DV1_Standard
 70
     0
 62
     7
  6
Continuous
370
    -3
390
F
  0
LAYER
  5
76
330
2
100
AcDbSymbolTableRecord
100
AcDbLayerTableRecord
  2
DV2_Standard
 70
     0
 62
     7
  6
Continuous
370
    -3
390
F
  0
LAYER
  5
CB
330
2
100
AcDbSymbolTableRecord
100
AcDbLayerTableRecord
  2
DV3_Standard
 70
     0
 62
     7
  6
Continuous
370
    -3
390
F
  0
ENDTAB
  0
TABLE
  2
STYLE
  5
3
330
0
100
AcDbSymbolTable
 70
     2
  0
STYLE
  5
11
330
3
100
AcDbSymbolTableRecord
100
AcDbTextStyleTableRecord
  2
Standard
 70
     0
 40
0.0
 41
1.0
 50
0.0
 71
     0
 42
2.5
  3
txt
  4

  0
STYLE
  5
109
330
3
100
AcDbSymbolTableRecord
100
AcDbTextStyleTableRecord
  2
SEACAD_seiso_ttf
 70
     0
 40
0.0
 41
1.0
 50
0.0
 71
     0
 42
0.2
  3
seiso.ttf
  4

  0
ENDTAB
  0
TABLE
  2
VIEW
  5
6
330
0
100
AcDbSymbolTable
 70
     0
  0
ENDTAB
  0
TABLE
  2
UCS
  5
7
330
0
100
AcDbSymbolTable
 70
     0
  0
ENDTAB
  0
TABLE
  2
APPID
  5
9
330
0
100
AcDbSymbolTable
 70
     1
  0
APPID
  5
12
330
9
100
AcDbSymbolTableRecord
100
AcDbRegAppTableRecord
  2
ACAD
 70
     0
  0
ENDTAB
  0
TABLE
  2
DIMSTYLE
  5
A
330
0
100
AcDbSymbolTable
 70
     1
100
AcDbDimStyleTable
  0
DIMSTYLE
105
27
330
A
100
AcDbSymbolTableRecord
100
AcDbDimStyleTableRecord
  2
ISO-25
 70
     0
 41
2.5
 42
0.625
 43
3.75
 44
1.25
 73
     0
 74
     0
 77
     1
 78
     8
140
2.5
141
2.5
143
0.0393700787
147
0.625
171
     3
172
     1
271
     2
272
     2
274
     3
278
    44
283
     0
284
     8
340
11
  0
ENDTAB
  0
TABLE
  2
BLOCK_RECORD
  5
1
330
0
100
AcDbSymbolTable
 70
     4
  0
BLOCK_RECORD
  5
1F
330
1
100
AcDbSymbolTableRecord
100
AcDbBlockTableRecord
  2
*Model_Space
340
22
  0
BLOCK_RECORD
  5
1B
330
1
100
AcDbSymbolTableRecord
100
AcDbBlockTableRecord
  2
*Paper_Space
340
1E
  0
BLOCK_RECORD
  5
5E
330
1
100
AcDbSymbolTableRecord
100
AcDbBlockTableRecord
  2
SE
340
0
102
{BLKREFS
331
5F
102
}
  0
BLOCK_RECORD
  5
74
330
1
100
AcDbSymbolTableRecord
100
AcDbBlockTableRecord
  2
SE1
340
0
102
{BLKREFS
331
75
102
}
  0
BLOCK_RECORD
  5
C9
330
1
100
AcDbSymbolTableRecord
100
AcDbBlockTableRecord
  2
SE2
340
0
102
{BLKREFS
331
CA
102
}
  0
ENDTAB
  0
ENDSEC
  0
SECTION
  2
BLOCKS
  0
BLOCK
  5
20
330
1F
100
AcDbEntity
  8
0
100
AcDbBlockBegin
  2
*Model_Space
 70
     0
 10
0.0
 20
0.0
 30
0.0
  3
*Model_Space
  1

  0
ENDBLK
  5
21
330
1F
100
AcDbEntity
  8
0
100
AcDbBlockEnd
  0
BLOCK
  5
1C
330
1B
100
AcDbEntity
 67
     1
  8
0
100
AcDbBlockBegin
  2
*Paper_Space
 70
     0
 10
0.0
 20
0.0
 30
0.0
  3
*Paper_Space
  1

  0
ENDBLK
  5
1D
330
1B
100
AcDbEntity
 67
     1
  8
0
100
AcDbBlockEnd
  0
BLOCK
  5
72
330
5E
100
AcDbEntity
  8
0
100
AcDbBlockBegin
  2
SE
 70
     0
 10
0.0
 20
0.0
 30
0.0
  3
SE
  1

  0
ARC
  5
61
330
5E
100
AcDbEntity
  8
DV1_Standard
  6
Continuous
 62
     7
100
AcDbCircle
 10
36.1067883485
 20
241.2466943595
 30
0.0
 40
15.49999974044
100
AcDbArc
 50
317.8965546065
 51
0.0
  0
ARC
  5
62
330
5E
100
AcDbEntity
  8
DV1_Standard
  6
Continuous
 62
     7
100
AcDbCircle
 10
36.1067883485
 20
241.2466943595
 30
0.0
 40
15.49999974044
100
AcDbArc
 50
0.0
 51
222.1034502245
  0
ARC
  5
63
330
5E
100
AcDbEntity
  8
DV1_Standard
  6
Continuous
 62
     7
100
AcDbCircle
 10
36.1067883485
 20
241.2466943595
 30
0.0
 40
24.50000003062
100
AcDbArc
 50
297.9945628546
 51
0.0
  0
ARC
  5
64
330
5E
100
AcDbEntity
  8
DV1_Standard
  6
Continuous
 62
     7
100
AcDbCircle
 10
36.1067883485
 20
241.2466943595
 30
0.0
 40
25.0
100
AcDbArc
 50
0.0
 51
242.6128936282
  0
ARC
  5
65
330
5E
100
AcDbEntity
  8
DV1_Standard
  6
Continuous
 62
     7
100
AcDbCircle
 10
36.1067883485
 20
241.2466943595
 30
0.0
 40
25.0
100
AcDbArc
 50
297.3871086335
 51
0.0
  0
ARC
  5
66
330
5E
100
AcDbEntity
  8
DV1_Standard
  6
Continuous
 62
     7
100
AcDbCircle
 10
36.1067225139
 20
129.3734510114
 30
0.0
 40
11.91337308893891
100
AcDbArc
 50
0.0
 51
16.2830388337
  0
ARC
  5
67
330
5E
100
AcDbEntity
  8
DV1_Standard
  6
Continuous
 62
     7
100
AcDbCircle
 10
36.1067225139
 20
129.3734510114
 30
0.0
 40
11.91337308893891
100
AcDbArc
 50
163.6675927476
 51
0.0
  0
ELLIPSE
  5
68
330
5E
100
AcDbEntity
  8
DV1_Standard
  6
Continuous
 62
     7
100
AcDbEllipse
 10
36.1067887866
 20
132.544190261
 30
0.0
 11
-11.50000000000003
 21
-9.853229343548264E-13
 31
0.0
210
0.0
220
0.0
230
1.0
 40
0.984807753
 41
0.0
 42
3.141592653589793
  0
ARC
  5
69
330
5E
100
AcDbEntity
  8
DV1_Standard
  6
Continuous
 62
     7
100
AcDbCircle
 10
36.1067887866
 20
241.2466943595
 30
0.0
 40
11.5
100
AcDbArc
 50
0.0
 51
180.0
  0
LINE
  5
6A
330
5E
100
AcDbEntity
  8
DV1_Standard
  6
Continuous
 62
     7
100
AcDbLine
 10
47.6067887866
 20
132.544190261
 30
0.0
 11
47.6067887866
 21
136.0518834499
 31
0.0
  0
LINE
  5
6B
330
5E
100
AcDbEntity
  8
DV1_Standard
  6
Continuous
 62
     7
100
AcDbLine
 10
24.6067887866
 20
136.0518834499
 30
0.0
 11
24.6067887866
 21
132.544190261
 31
0.0
  0
LINE
  5
6C
330
5E
100
AcDbEntity
  8
DV1_Standard
  6
Continuous
 62
     7
100
AcDbLine
 10
24.6067887866
 20
241.2466943595
 30
0.0
 11
24.6067887866
 21
136.0518834498
 31
0.0
  0
LINE
  5
6D
330
5E
100
AcDbEntity
  8
DV1_Standard
  6
Continuous
 62
     7
100
AcDbLine
 10
47.6067887866
 20
136.0518834498
 30
0.0
 11
47.6067887866
 21
241.2466943594
 31
0.0
  0
ELLIPSE
  5
6E
330
5E
100
AcDbEntity
  8
DV1_Standard
  6
Continuous
 62
     7
100
AcDbEllipse
 10
36.1067887866
 20
129.5860781086
 30
0.0
 11
11.5
 21
1.110223024625157E-13
 31
0.0
210
0.0
220
0.0
230
1.0
 40
0.984807753
 41
3.141592653589793
 42
6.283185307179584
  0
ELLIPSE
  5
6F
330
5E
100
AcDbEntity
  8
DV1_Standard
  6
Continuous
 62
     7
100
AcDbEllipse
 10
36.1067887866
 20
128.1161617305
 30
0.0
 11
-11.50000000000003
 21
1.040834085586084E-12
 31
0.0
210
0.0
220
0.0
230
1.0
 40
0.984807753
 41
0.3682168845274925
 42
2.777775082835674
  0
LINE
  5
70
330
5E
100
AcDbEntity
  8
DV1_Standard
  6
Continuous
 62
     7
100
AcDbLine
 10
24.6067887866
 20
132.31844763
 30
0.0
 11
24.6067887866
 21
129.5860781086
 31
0.0
  0
LINE
  5
71
330
5E
100
AcDbEntity
  8
DV1_Standard
  6
Continuous
 62
     7
100
AcDbLine
 10
47.6067887866
 20
129.5860781086
 30
0.0
 11
47.6067887866
 21
132.31844763
 31
0.0
  0
ENDBLK
  5
73
330
5E
100
AcDbEntity
  8
0
100
AcDbBlockEnd
  0
BLOCK
  5
C7
330
74
100
AcDbEntity
  8
0
100
AcDbBlockBegin
  2
SE1
 70
     0
 10
0.0
 20
0.0
 30
0.0
  3
SE1
  1

  0
LINE
  5
77
330
74
100
AcDbEntity
  8
DV2_Standard
  6
Continuous
 62
     7
100
AcDbLine
 10
24.8567887574
 20
329.8177440948
 30
0.0
 11
47.3567879396
 21
329.8177440948
 31
0.0
  0
LINE
  5
78
330
74
100
AcDbEntity
  8
DV2_Standard
  6
Continuous
 62
     7
100
AcDbLine
 10
11.6067883179
 20
322.5177440948
 30
0.0
 11
60.6067883791
 21
322.5177440948
 31
0.0
  0
LINE
  5
79
330
74
100
AcDbEntity
  8
DV2_Standard
  6
Continuous
 62
     7
100
AcDbLine
 10
61.1067883485
 20
317.0177440948
 30
0.0
 11
11.1067883485
 21
317.0177440948
 31
0.0
  0
ARC
  5
7A
330
74
100
AcDbEntity
  8
DV2_Standard
  6
Continuous
 62
     7
100
AcDbCircle
 10
24.8567883485
 20
329.5677440948
 30
0.0
 40
0.2500000000000838
100
AcDbArc
 50
89.9999531435
 51
180.0
  0
ARC
  5
7B
330
74
100
AcDbEntity
  8
DV2_Standard
  6
Continuous
 62
     7
100
AcDbCircle
 10
47.3567883485
 20
329.5677440948
 30
0.0
 40
0.2500000000000002
100
AcDbArc
 50
0.0
 51
90.0000468565
  0
LINE
  5
7C
330
74
100
AcDbEntity
  8
DV2_Standard
  6
Continuous
 62
     7
100
AcDbLine
 10
24.6067883485
 20
329.5677440948
 30
0.0
 11
24.6067883485
 21
326.5177440948
 31
0.0
  0
LINE
  5
7D
330
74
100
AcDbEntity
  8
DV2_Standard
  6
Continuous
 62
     7
100
AcDbLine
 10
47.6067883485
 20
326.5177440948
 30
0.0
 11
47.6067883485
 21
329.5677440948
 31
0.0
  0
ARC
  5
7E
330
74
100
AcDbEntity
  8
DV2_Standard
  6
Continuous
 62
     7
100
AcDbCircle
 10
20.6067883485
 20
326.5177440948
 30
0.0
 40
4.0
100
AcDbArc
 50
270.000001859
 51
0.0
  0
ARC
  5
7F
330
74
100
AcDbEntity
  8
DV2_Standard
  6
Continuous
 62
     7
100
AcDbCircle
 10
51.6067883485
 20
326.5177440948
 30
0.0
 40
4.000000000000002
100
AcDbArc
 50
180.0
 51
269.999998141
  0
ARC
  5
80
330
74
100
AcDbEntity
  8
DV2_Standard
  6
Continuous
 62
     7
100
AcDbCircle
 10
11.6067883485
 20
322.0177440948
 30
0.0
 40
0.4999999999999998
100
AcDbArc
 50
90.0000017544
 51
180.0
  0
ARC
  5
81
330
74
100
AcDbEntity
  8
DV2_Standard
  6
Continuous
 62
     7
100
AcDbCircle
 10
60.6067883485
 20
322.0177440948
 30
0.0
 40
0.5000000000000004
100
AcDbArc
 50
0.0
 51
89.9999982456
  0
LINE
  5
82
330
74
100
AcDbEntity
  8
DV2_Standard
  6
Continuous
 62
     7
100
AcDbLine
 10
11.1067883485
 20
322.0177440948
 30
0.0
 11
11.1067883485
 21
317.0177440948
 31
0.0
  0
LINE
  5
83
330
74
100
AcDbEntity
  8
DV2_Standard
  6
Continuous
 62
     7
100
AcDbLine
 10
61.1067883485
 20
317.0177440948
 30
0.0
 11
61.1067883485
 21
322.0177440948
 31
0.0
  0
SPLINE
  5
84
330
74
100
AcDbEntity
  8
DV2_Standard
  6
Continuous
 62
     7
100
AcDbSpline
210
0.0
220
0.0
230
1.0
 70
     8
 71
     3
 72
    16
 73
    12
 74
     0
 42
0.0000000013257368
 43
0.0000000001
 40
0.0
 40
0.0
 40
0.0
 40
0.0
 40
0.0577009746800812
 40
0.2196326241132915
 40
0.3864694001451555
 40
0.5624595263158287
 40
0.6924981724783821
 40
0.7879831404660272
 40
0.8827182366873717
 40
0.9830074857942636
 40
1.0
 40
1.0
 40
1.0
 40
1.0
 10
29.31755258511269
 20
424.9477432580434
 30
0.0
 10
29.11374419674011
 20
424.9209353925517
 30
0.0
 10
28.35638303631693
 20
424.8142040766164
 30
0.0
 10
27.17148894193697
 20
424.596282907295
 30
0.0
 10
25.90710155791769
 20
424.2550495572048
 30
0.0
 10
25.02708618853456
 20
423.8682174315093
 30
0.0
 10
24.41699958624982
 20
423.3903351589589
 30
0.0
 10
24.05783014417426
 20
422.691534203332
 30
0.0
 10
24.14479013844203
 20
421.9076668996153
 30
0.0
 10
24.43126123270728
 20
421.5290339311795
 30
0.0
 10
24.6028472294552
 20
421.3633107396066
 30
0.0
 10
24.62800081607871
 20
421.3401339545459
 30
0.0
  0
SPLINE
  5
85
330
74
100
AcDbEntity
  8
DV2_Standard
  6
Continuous
 62
     7
100
AcDbSpline
210
0.0
220
0.0
230
1.0
 70
     8
 71
     3
 72
    16
 73
    12
 74
     0
 42
0.0000000012988857
 43
0.0000000001
 40
0.0
 40
0.0
 40
0.0
 40
0.0
 40
0.0181376785989295
 40
0.1187010485858197
 40
0.2131683503590691
 40
0.3074416454003207
 40
0.4284635173216508
 40
0.6024748327418955
 40
0.7724156910894531
 40
0.9337703697537857
 40
1.0
 40
1.0
 40
1.0
 40
1.0
 10
47.58440556761641
 20
421.3391853456956
 30
0.0
 10
47.61165306934171
 20
421.3643368684317
 30
0.0
 10
47.78772209968274
 20
421.5353226761727
 30
0.0
 10
48.07918139321313
 20
421.9252009140072
 30
0.0
 10
48.14984756614604
 20
422.7220160724313
 30
0.0
 10
47.78664562974312
 20
423.3941285571866
 30
0.0
 10
47.18834334458849
 20
423.8669181086698
 30
0.0
 10
46.31294384596486
 20
424.2535050547062
 30
0.0
 10
45.02912889645125
 20
424.6002465493026
 30
0.0
 10
43.78599878873453
 20
424.8264745259025
 30
0.0
 10
42.98274513680392
 20
424.9370730353455
 30
0.0
 10
42.74268668113924
 20
424.9675745005344
 30
0.0
  0
LINE
  5
86
330
74
100
AcDbEntity
  8
DV2_Standard
  6
Continuous
 62
     7
100
AcDbLine
 10
47.3567878095
 20
329.8177440948
 30
0.0
 11
24.8567897637
 21
329.8177440948
 31
0.0
  0
SPLINE
  5
87
330
74
100
AcDbEntity
  8
DV2_Standard
  6
Continuous
 62
     7
100
AcDbSpline
210
0.0
220
0.0
230
1.0
 70
     8
 71
     3
 72
     8
 73
     4
 74
     0
 42
0.0000024298940856
 43
0.0000000001
 40
0.0
 40
0.0
 40
0.0
 40
0.0
 40
1.0
 40
1.0
 40
1.0
 40
1.0
 10
42.34898080641131
 20
441.25403671765
 30
0.0
 10
42.34761903019376
 20
441.2538735156903
 30
0.0
 10
42.34625696332725
 20
441.2537103762979
 30
0.0
 10
42.34489460597589
 20
441.2535472995039
 30
0.0
  0
SPLINE
  5
88
330
74
100
AcDbEntity
  8
DV2_Standard
  6
Continuous
 62
     7
100
AcDbSpline
210
0.0
220
0.0
230
1.0
 70
     8
 71
     3
 72
     8
 73
     4
 74
     0
 42
0.0000023225000455
 43
0.0000000001
 40
0.0
 40
0.0
 40
0.0
 40
0.0
 40
0.9999999999999999
 40
0.9999999999999999
 40
0.9999999999999999
 40
0.9999999999999999
 10
42.97256172832694
 20
441.1736227411412
 30
0.0
 10
42.97398269926438
 20
441.1738273025129
 30
0.0
 10
42.97540327119138
 20
441.1740319365669
 30
0.0
 10
42.97682344387581
 20
441.1742366432595
 30
0.0
  0
SPLINE
  5
89
330
74
100
AcDbEntity
  8
DV2_Standard
  6
Continuous
 62
     7
100
AcDbSpline
210
0.0
220
0.0
230
1.0
 70
     8
 71
     3
 72
     8
 73
     4
 74
     0
 42
0.0000040826369876
 43
0.0000000001
 40
0.0
 40
0.0
 40
0.0
 40
0.0
 40
1.0
 40
1.0
 40
1.0
 40
1.0
 10
45.7938685867049
 20
440.9537609959904
 30
0.0
 10
45.79319137509405
 20
440.9533068054086
 30
0.0
 10
45.79251286747326
 20
440.9528526648217
 30
0.0
 10
45.79183306439216
 20
440.9523985744171
 30
0.0
  0
SPLINE
  5
8A
330
74
100
AcDbEntity
  8
DV2_Standard
  6
Continuous
 62
     7
100
AcDbSpline
210
0.0
220
0.0
230
1.0
 70
     8
 71
     3
 72
     8
 73
     4
 74
     0
 42
0.00001
 43
0.0000000001
 40
0.0
 40
0.0
 40
0.0
 40
0.0
 40
1.0
 40
1.0
 40
1.0
 40
1.0
 10
27.45752781897719
 20
440.869596373916
 30
0.0
 10
27.45776965893437
 20
440.8695148015378
 30
0.0
 10
27.45801153076793
 20
440.8694332322892
 30
0.0
 10
27.45825343447628
 20
440.869351666171
 30
0.0
  0
SPLINE
  5
8B
330
74
100
AcDbEntity
  8
DV2_Standard
  6
Continuous
 62
     7
100
AcDbSpline
210
0.0
220
0.0
230
1.0
 70
     8
 71
     3
 72
     8
 73
     4
 74
     0
 42
0.0000013730808489
 43
0.0000000001
 40
0.0
 40
0.0
 40
0.0
 40
0.0
 40
0.9999999999999999
 40
0.9999999999999999
 40
0.9999999999999999
 40
0.9999999999999999
 10
30.0488866955974
 20
441.2753269995562
 30
0.0
 10
30.05128549951017
 20
441.2749592918159
 30
0.0
 10
30.05368515034045
 20
441.274591775245
 30
0.0
 10
30.05608564724012
 20
441.2742244500037
 30
0.0
  0
LINE
  5
8C
330
74
100
AcDbEntity
  8
DV2_Standard
  6
Continuous
 62
     7
100
AcDbLine
 10
30.4340278049
 20
441.3161892627
 30
0.0
 11
30.4340278049
 21
441.3169554097
 31
0.0
  0
LINE
  5
8D
330
74
100
AcDbEntity
  8
DV2_Standard
  6
Continuous
 62
     7
100
AcDbLine
 10
31.212350026
 20
441.3901963514
 30
0.0
 11
31.2144839293
 21
441.3896126219
 31
0.0
  0
SPLINE
  5
8E
330
74
100
AcDbEntity
  8
DV2_Standard
  6
Continuous
 62
     7
100
AcDbSpline
210
0.0
220
0.0
230
1.0
 70
     8
 71
     3
 72
     8
 73
     4
 74
     0
 42
0.00001
 43
0.0000000001
 40
0.0
 40
0.0
 40
0.0
 40
0.0
 40
1.0
 40
1.0
 40
1.0
 40
1.0
 10
44.80410820449357
 20
440.8592317552739
 30
0.0
 10
44.80404968111047
 20
440.8592182822392
 30
0.0
 10
44.80399115642676
 20
440.8592048093575
 30
0.0
 10
44.80393263044245
 20
440.8591913366287
 30
0.0
  0
SPLINE
  5
8F
330
74
100
AcDbEntity
  8
DV2_Standard
  6
Continuous
 62
     7
100
AcDbSpline
210
0.0
220
0.0
230
1.0
 70
     8
 71
     3
 72
     8
 73
     4
 74
     0
 42
0.0000066218955851
 43
0.0000000001
 40
0.0
 40
0.0
 40
0.0
 40
0.0
 40
1.0
 40
1.0
 40
1.0
 40
1.0
 10
28.08790638933604
 20
440.9929417462189
 30
0.0
 10
28.08741558308079
 20
440.9930538222641
 30
0.0
 10
28.08692483991625
 20
440.993165907554
 30
0.0
 10
28.08643415985558
 20
440.9932780020866
 30
0.0
  0
SPLINE
  5
90
330
74
100
AcDbEntity
  8
DV2_Standard
  6
Continuous
 62
     7
100
AcDbSpline
210
0.0
220
0.0
230
1.0
 70
     8
 71
     3
 72
     8
 73
     4
 74
     0
 42
0.0000008959996431
 43
0.0000000001
 40
0.0
 40
0.0
 40
0.0
 40
0.0
 40
1.0
 40
1.0
 40
1.0
 40
1.0
 10
41.3620681935198
 20
441.3579684185959
 30
0.0
 10
41.35836204256739
 20
441.3576598963826
 30
0.0
 10
41.35465458447246
 20
441.3573517675487
 30
0.0
 10
41.35094582186161
 20
441.3570440324187
 30
0.0
  0
SPLINE
  5
91
330
74
100
AcDbEntity
  8
DV2_Standard
  6
Continuous
 62
     7
100
AcDbSpline
210
0.0
220
0.0
230
1.0
 70
     8
 71
     3
 72
     8
 73
     4
 74
     0
 42
0.0000005628560235
 43
0.0000000001
 40
0.0
 40
0.0
 40
0.0
 40
0.0
 40
1.0
 40
1.0
 40
1.0
 40
1.0
 10
31.73089806029778
 20
441.4285912280292
 30
0.0
 10
31.72500066851103
 20
441.4291581136134
 30
0.0
 10
31.71910577319301
 20
441.4297259467697
 30
0.0
 10
31.71321338410763
 20
441.4302947265392
 30
0.0
  0
LINE
  5
92
330
74
100
AcDbEntity
  8
DV2_Standard
  6
Continuous
 62
     7
100
AcDbLine
 10
30.8170561098
 20
441.354685316
 30
0.0
 11
30.8170561098
 21
441.3547383991
 31
0.0
  0
ELLIPSE
  5
93
330
74
100
AcDbEntity
  8
DV2_Standard
  6
Continuous
 62
     7
100
AcDbEllipse
 10
36.1067887866
 20
440.1625406584
 30
0.0
 11
-10.69999718295
 21
0.0
 31
0.0
210
0.0
220
0.0
230
1.0
 40
0.1736481777
 41
3.171019216404044
 42
6.256853861045713
  0
SPLINE
  5
94
330
74
100
AcDbEntity
  8
DV2_Standard
  6
Continuous
 62
     7
100
AcDbSpline
210
0.0
220
0.0
230
1.0
 70
     8
 71
     3
 72
     8
 73
     4
 74
     0
 42
0.00001
 43
0.0000000001
 40
0.0
 40
0.0
 40
0.0
 40
0.0
 40
1.0
 40
1.0
 40
1.0
 40
1.0
 10
26.5860121075545
 20
440.6551416954299
 30
0.0
 10
26.58593927564347
 20
440.6551715126909
 30
0.0
 10
26.58586644759327
 20
440.6552013302644
 30
0.0
 10
26.58579362340395
 20
440.6552311481503
 30
0.0
  0
SPLINE
  5
95
330
74
100
AcDbEntity
  8
DV2_Standard
  6
Continuous
 62
     7
100
AcDbSpline
210
0.0
220
0.0
230
1.0
 70
    24
 71
     3
 72
     8
 73
     4
 74
     0
 42
0.00001
 43
0.0000000001
 40
0.0
 40
0.0
 40
0.0
 40
0.0
 40
1.0
 40
1.0
 40
1.0
 40
1.0
 10
44.32944137773086
 20
440.9557466360041
 30
0.0
 10
44.32941583966451
 20
440.95574166231
 30
0.0
 10
44.32939030140759
 20
440.9557366886422
 30
0.0
 10
44.3293647629601
 20
440.9557317150007
 30
0.0
  0
SPLINE
  5
96
330
74
100
AcDbEntity
  8
DV2_Standard
  6
Continuous
 62
     7
100
AcDbSpline
210
0.0
220
0.0
230
1.0
 70
     8
 71
     3
 72
     8
 73
     4
 74
     0
 42
0.0000040404340255
 43
0.0000000001
 40
0.0
 40
0.0
 40
0.0
 40
0.0
 40
0.9999999999999999
 40
0.9999999999999999
 40
0.9999999999999999
 40
0.9999999999999999
 10
28.60350030856436
 20
441.0800226820714
 30
0.0
 10
28.60269104363044
 20
441.0801836754592
 30
0.0
 10
28.6018819153639
 20
441.0803446921244
 30
0.0
 10
28.60107292380377
 20
441.0805057320584
 30
0.0
  0
SPLINE
  5
97
330
74
100
AcDbEntity
  8
DV2_Standard
  6
Continuous
 62
     7
100
AcDbSpline
210
0.0
220
0.0
230
1.0
 70
     8
 71
     3
 72
     8
 73
     4
 74
     0
 42
0.0000006481099789
 43
0.0000000001
 40
0.0
 40
0.0
 40
0.0
 40
0.0
 40
1.0
 40
1.0
 40
1.0
 40
1.0
 10
40.02294154462896
 20
441.463792851555
 30
0.0
 10
40.01780738496311
 20
441.4635172393762
 30
0.0
 10
40.01267157459061
 20
441.4632423396964
 30
0.0
 10
40.00753412034199
 20
441.4629681527497
 30
0.0
  0
SPLINE
  5
98
330
74
100
AcDbEntity
  8
DV2_Standard
  6
Continuous
 62
     7
100
AcDbSpline
210
0.0
220
0.0
230
1.0
 70
     8
 71
     3
 72
     8
 73
     4
 74
     0
 42
0.000000551334737
 43
0.0000000001
 40
0.0
 40
0.0
 40
0.0
 40
0.0
 40
1.0
 40
1.0
 40
1.0
 40
1.0
 10
33.10418590178806
 20
441.5138155380722
 30
0.0
 10
33.09815206380081
 20
441.5142216603089
 30
0.0
 10
33.0921198455976
 20
441.5146287218287
 30
0.0
 10
33.08608925722154
 20
441.5150367222728
 30
0.0
  0
LINE
  5
99
330
74
100
AcDbEntity
  8
DV2_Standard
  6
Continuous
 62
     7
100
AcDbLine
 10
31.0977968721
 20
441.3793888977
 30
0.0
 11
31.0977968721
 21
441.380277348
 31
0.0
  0
ELLIPSE
  5
9A
330
74
100
AcDbEntity
  8
DV2_Standard
  6
Continuous
 62
     7
100
AcDbEllipse
 10
36.1067887866
 20
440.4579809003
 30
0.0
 11
11.5
 21
0.0
 31
0.0
210
0.0
220
0.0
230
1.0
 40
0.1736481777
 41
0.0
 42
3.141451023092047
  0
ELLIPSE
  5
9B
330
74
100
AcDbEntity
  8
DV2_Standard
  6
Continuous
 62
     7
100
AcDbEllipse
 10
36.1067887866
 20
440.4579809003
 30
0.0
 11
11.5
 21
0.0
 31
0.0
210
0.0
220
0.0
230
1.0
 40
0.1736481777
 41
6.279900555918511
 42
6.283185307179586
  0
SPLINE
  5
9C
330
74
100
AcDbEntity
  8
DV2_Standard
  6
Continuous
 62
     7
100
AcDbSpline
210
0.0
220
0.0
230
1.0
 70
     8
 71
     3
 72
    12
 73
     8
 74
     0
 42
0.000000014236599
 43
0.0000000001
 40
0.0
 40
0.0
 40
0.0
 40
0.0
 40
0.092399064930352
 40
0.3068336031080696
 40
0.5241662017469155
 40
0.7564258552177978
 40
1.0
 40
1.0
 40
1.0
 40
1.0
 10
24.61142204114425
 20
440.4583649829848
 30
0.0
 10
24.61009180041679
 20
440.4343318513471
 30
0.0
 10
24.6067556649297
 20
440.3665992530688
 30
0.0
 10
24.63897539314365
 20
440.2422618433782
 30
0.0
 10
24.70271720661774
 20
440.1041276119838
 30
0.0
 10
24.79676728473022
 20
439.9748114391583
 30
0.0
 10
24.87556894354204
 20
439.8958545175519
 30
0.0
 10
24.91945043877095
 20
439.8571648954567
 30
0.0
  0
SPLINE
  5
9D
330
74
100
AcDbEntity
  8
DV2_Standard
  6
Continuous
 62
     7
100
AcDbSpline
210
0.0
220
0.0
230
1.0
 70
     8
 71
     3
 72
    12
 73
     8
 74
     0
 42
0.000000014551037
 43
0.0000000001
 40
0.0
 40
0.0
 40
0.0
 40
0.0
 40
0.0899982069060786
 40
0.3524456493295682
 40
0.5870402173956901
 40
0.8032696178872051
 40
1.0
 40
1.0
 40
1.0
 40
1.0
 10
47.29591136318092
 20
439.8587227143903
 30
0.0
 10
47.31175476081615
 20
439.8727469150811
 30
0.0
 10
47.37199640067253
 20
439.9285960639942
 30
0.0
 10
47.46055276923914
 20
440.0284632216859
 30
0.0
 10
47.54313718297991
 20
440.1648698314564
 30
0.0
 10
47.59582726400722
 20
440.3074737824755
 30
0.0
 10
47.60152263656002
 20
440.3959504261924
 30
0.0
 10
47.60420218043087
 20
440.4461890216318
 30
0.0
  0
LINE
  5
9E
330
74
100
AcDbEntity
  8
DV2_Standard
  6
Continuous
 62
     7
100
AcDbLine
 10
47.6067887866
 20
440.4579809002
 30
0.0
 11
47.6067887866
 21
460.3510975111
 31
0.0
  0
LINE
  5
9F
330
74
100
AcDbEntity
  8
DV2_Standard
  6
Continuous
 62
     7
100
AcDbLine
 10
24.6067887866
 20
460.3510975111
 30
0.0
 11
24.6067887866
 21
440.4579809002
 31
0.0
  0
ARC
  5
A0
330
74
100
AcDbEntity
  8
DV2_Standard
  6
Continuous
 62
     7
100
AcDbCircle
 10
36.1067887866
 20
504.1477440948
 30
0.0
 40
11.5
100
AcDbArc
 50
0.0
 51
180.0
  0
LINE
  5
A1
330
74
100
AcDbEntity
  8
DV2_Standard
  6
Continuous
 62
     7
100
AcDbLine
 10
24.6067887866
 20
504.1477440948
 30
0.0
 11
24.6067887866
 21
460.3510975111
 31
0.0
  0
LINE
  5
A2
330
74
100
AcDbEntity
  8
DV2_Standard
  6
Continuous
 62
     7
100
AcDbLine
 10
47.6067887866
 20
460.3510975111
 30
0.0
 11
47.6067887866
 21
504.1477440947
 31
0.0
  0
LINE
  5
A3
330
74
100
AcDbEntity
  8
DV2_Standard
  6
Continuous
 62
     7
100
AcDbLine
 10
24.6067887866
 20
423.6816932299
 30
0.0
 11
24.6067887866
 21
423.5088025137
 31
0.0
  0
LINE
  5
A4
330
74
100
AcDbEntity
  8
DV2_Standard
  6
Continuous
 62
     7
100
AcDbLine
 10
24.6067887866
 20
421.3592024882
 30
0.0
 11
24.6067887866
 21
421.1903048133
 31
0.0
  0
LINE
  5
A5
330
74
100
AcDbEntity
  8
DV2_Standard
  6
Continuous
 62
     7
100
AcDbLine
 10
24.6067887866
 20
415.3453831984
 30
0.0
 11
24.6067887866
 21
330.0677440948
 31
0.0
  0
LINE
  5
A6
330
74
100
AcDbEntity
  8
DV2_Standard
  6
Continuous
 62
     7
100
AcDbLine
 10
47.6067887866
 20
330.0677440948
 30
0.0
 11
47.6067887866
 21
415.3453831984
 31
0.0
  0
LINE
  5
A7
330
74
100
AcDbEntity
  8
DV2_Standard
  6
Continuous
 62
     7
100
AcDbLine
 10
47.6067887866
 20
421.1903048133
 30
0.0
 11
47.6067887866
 21
421.3595266095
 31
0.0
  0
LINE
  5
A8
330
74
100
AcDbEntity
  8
DV2_Standard
  6
Continuous
 62
     7
100
AcDbLine
 10
47.6067887866
 20
423.509345534
 30
0.0
 11
47.6067887866
 21
423.6816932299
 31
0.0
  0
ARC
  5
A9
330
74
100
AcDbEntity
  8
DV2_Standard
  6
Continuous
 62
     7
100
AcDbCircle
 10
24.8567887866
 20
330.0677440948
 30
0.0
 40
0.2500000000000002
100
AcDbArc
 50
180.0
 51
270.0001119686
  0
ARC
  5
AA
330
74
100
AcDbEntity
  8
DV2_Standard
  6
Continuous
 62
     7
100
AcDbCircle
 10
47.3567887866
 20
330.0677440948
 30
0.0
 40
0.2499999999995235
100
AcDbArc
 50
269.9998880314
 51
0.0
  0
ELLIPSE
  5
AB
330
74
100
AcDbEntity
  8
DV2_Standard
  6
Continuous
 62
     7
100
AcDbEllipse
 10
36.1067887866
 20
415.0499408725
 30
0.0
 11
8.799598690742428
 21
0.0
 31
0.0
210
0.0
220
0.0
230
1.0
 40
0.1736481777
 41
0.0
 42
6.283185307179586
  0
ELLIPSE
  5
AC
330
74
100
AcDbEntity
  8
DV2_Standard
  6
Continuous
 62
     7
100
AcDbEllipse
 10
36.1067887866
 20
415.2473066361
 30
0.0
 11
-8.999999999999998
 21
0.0
 31
0.0
210
0.0
220
0.0
230
1.0
 40
0.1736481777
 41
5.806876258591719
 42
6.283185307179586
  0
ELLIPSE
  5
AD
330
74
100
AcDbEntity
  8
DV2_Standard
  6
Continuous
 62
     7
100
AcDbEllipse
 10
36.1067887866
 20
415.2473066361
 30
0.0
 11
-8.999999999999998
 21
0.0
 31
0.0
210
0.0
220
0.0
230
1.0
 40
0.1736481777
 41
2.96434711357964
 42
3.617901702177726
  0
ELLIPSE
  5
AE
330
74
100
AcDbEntity
  8
DV2_Standard
  6
Continuous
 62
     7
100
AcDbEllipse
 10
36.1067887866
 20
415.2473066361
 30
0.0
 11
-8.999999999999998
 21
0.0
 31
0.0
210
0.0
220
0.0
230
1.0
 40
0.1736481777
 41
0.0
 42
0.1772455400101446
  0
LINE
  5
AF
330
74
100
AcDbEntity
  8
DV2_Standard
  6
Continuous
 62
     7
100
AcDbLine
 10
27.247790979
 20
414.9717494732
 30
0.0
 11
27.445052619
 21
414.7805194891
 31
0.0
  0
LINE
  5
B0
330
74
100
AcDbEntity
  8
DV2_Standard
  6
Continuous
 62
     7
100
AcDbLine
 10
44.7685249542
 20
414.7805194891
 30
0.0
 11
44.9657865942
 21
414.9717494732
 31
0.0
  0
LINE
  5
B1
330
74
100
AcDbEntity
  8
DV2_Standard
  6
Continuous
 62
     7
100
AcDbLine
 10
27.1067887866
 20
415.6172177893
 30
0.0
 11
27.1067887866
 21
415.2473066361
 31
0.0
  0
LINE
  5
B2
330
74
100
AcDbEntity
  8
DV2_Standard
  6
Continuous
 62
     7
100
AcDbLine
 10
45.1067887866
 20
415.2473066361
 30
0.0
 11
45.1067887866
 21
415.6172177893
 31
0.0
  0
ELLIPSE
  5
B3
330
74
100
AcDbEntity
  8
DV2_Standard
  6
Continuous
 62
     7
100
AcDbEllipse
 10
36.1067887866
 20
415.0499408725
 30
0.0
 11
11.19999959785
 21
-1.387778780781446E-14
 31
0.0
210
0.0
220
0.0
230
1.0
 40
0.1736481777
 41
1.950692988887363
 42
6.283185307179586
  0
ELLIPSE
  5
B4
330
74
100
AcDbEntity
  8
DV2_Standard
  6
Continuous
 62
     7
100
AcDbEllipse
 10
36.1067887866
 20
415.0499408725
 30
0.0
 11
11.19999959785
 21
-1.387778780781446E-14
 31
0.0
210
0.0
220
0.0
230
1.0
 40
0.1736481777
 41
1.093917675808679
 42
1.950692988887363
  0
ELLIPSE
  5
B5
330
74
100
AcDbEntity
  8
DV2_Standard
  6
Continuous
 62
     7
100
AcDbEllipse
 10
36.1067887866
 20
415.0499408725
 30
0.0
 11
11.19999959785
 21
-1.387778780781446E-14
 31
0.0
210
0.0
220
0.0
230
1.0
 40
0.1736481777
 41
0.0000000000000071
 42
1.093917675808679
  0
ELLIPSE
  5
B6
330
74
100
AcDbEntity
  8
DV2_Standard
  6
Continuous
 62
     7
100
AcDbEllipse
 10
36.1067887866
 20
415.0499408725
 30
0.0
 11
9.574554663185403
 21
0.0
 31
0.0
210
0.0
220
0.0
230
1.0
 40
0.1736481777
 41
0.0
 42
6.283185307179586
  0
ELLIPSE
  5
B7
330
74
100
AcDbEntity
  8
DV2_Standard
  6
Continuous
 62
     7
100
AcDbEllipse
 10
36.1067887866
 20
439.1777308213
 30
0.0
 11
11.49999999999936
 21
0.0
 31
0.0
210
0.0
220
0.0
230
1.0
 40
0.1736481777
 41
3.113256450308451
 42
3.141592653589822
  0
ELLIPSE
  5
B8
330
74
100
AcDbEntity
  8
DV2_Standard
  6
Continuous
 62
     7
100
AcDbEllipse
 10
36.1067887866
 20
423.3942251838
 30
0.0
 11
11.26923007774
 21
0.0
 31
0.0
210
0.0
220
0.0
230
1.0
 40
0.1736481777
 41
0.3989134590011529
 42
2.694703443284495
  0
ELLIPSE
  5
B9
330
74
100
AcDbEntity
  8
DV2_Standard
  6
Continuous
 62
     7
100
AcDbEllipse
 10
36.1067887866
 20
421.4777729209
 30
0.0
 11
11.26922980173001
 21
0.0
 31
0.0
210
0.0
220
0.0
230
1.0
 40
0.1736481777
 41
0.5376134819469717
 42
2.612001390101486
  0
ELLIPSE
  5
BA
330
74
100
AcDbEntity
  8
DV2_Standard
  6
Continuous
 62
     7
100
AcDbEllipse
 10
36.1067887866
 20
415.3453831984
 30
0.0
 11
11.50000000000001
 21
0.0
 31
0.0
210
0.0
220
0.0
230
1.0
 40
0.1736481777
 41
0.0
 42
3.140260727486615
  0
LINE
  5
BB
330
74
100
AcDbEntity
  8
DV2_Standard
  6
Continuous
 62
     7
100
AcDbLine
 10
24.6067887866
 20
439.1777308213
 30
0.0
 11
24.6067887866
 21
423.6816932299
 31
0.0
  0
LINE
  5
BC
330
74
100
AcDbEntity
  8
DV2_Standard
  6
Continuous
 62
     7
100
AcDbLine
 10
47.6067887866
 20
423.6816932299
 30
0.0
 11
47.6067887866
 21
439.1777308213
 31
0.0
  0
SPLINE
  5
BD
330
74
100
AcDbEntity
  8
DV2_Standard
  6
Continuous
 62
     7
100
AcDbSpline
210
0.0
220
0.0
230
1.0
 70
     8
 71
     3
 72
    65
 73
    61
 74
     0
 42
0.0000000004088551
 43
0.0000000001
 40
0.0
 40
0.0
 40
0.0
 40
0.0
 40
0.0029064390069314
 40
0.0151068623008748
 40
0.0273167125662715
 40
0.0400424879142941
 40
0.0538773690233479
 40
0.0694529503744302
 40
0.0872140086883317
 40
0.1067818085512415
 40
0.12682114485188
 40
0.1464496290823498
 40
0.165661025015375
 40
0.1845622134094811
 40
0.2032437378011794
 40
0.2217687809957592
 40
0.2401802822246756
 40
0.2585077359838758
 40
0.2767718124336034
 40
0.2949873174894096
 40
0.3131650856834238
 40
0.3313132085120502
 40
0.3494378474349848
 40
0.3675437833171991
 40
0.3856347955427535
 40
0.4037139290141418
 40
0.4217836861040153
 40
0.4398461676558654
 40
0.4579031790428449
 40
0.4759563121758959
 40
0.4940070110793872
 40
0.5120566265558707
 40
0.5301063977624793
 40
0.5481572610846379
 40
0.5662105480261019
 40
0.5842676650495595
 40
0.6023301443603606
 40
0.6203997033717664
 40
0.6384783174216044
 40
0.6565683119928194
 40
0.6746724831611609
 40
0.6927942588177339
 40
0.7109379191618045
 40
0.7291089043085192
 40
0.7473142517493135
 40
0.7655632304419078
 40
0.7838682774874202
 40
0.8022464072081785
 40
0.8207213639030786
 40
0.8393269352960226
 40
0.858111974598582
 40
0.8771473637724913
 40
0.8965320362915274
 40
0.9163772039433533
 40
0.9346241257296549
 40
0.9506517824964017
 40
0.9646438967728669
 40
0.9772996973548771
 40
0.9891902043596479
 40
1.0
 40
1.0
 40
1.0
 40
1.0
 10
47.60338912123603
 20
439.1765885139743
 30
0.0
 10
47.60458593845972
 20
439.1916816411422
 30
0.0
 10
47.60969959766994
 20
439.258715606467
 30
0.0
 10
47.58348486746684
 20
439.3912519804809
 30
0.0
 10
47.52671532709229
 20
439.5500605821114
 30
0.0
 10
47.43924733903729
 20
439.6982136118181
 30
0.0
 10
47.32473344415775
 20
439.8371372461926
 30
0.0
 10
47.17709806259437
 20
439.9722875469257
 30
0.0
 10
46.98959982381515
 20
440.1059970609915
 30
0.0
 10
46.75872668739302
 20
440.2371764052773
 30
0.0
 10
46.48825191462247
 20
440.3626698106342
 30
0.0
 10
46.1860228458965
 20
440.4801725172223
 30
0.0
 10
45.85695800304215
 20
440.5896752897743
 30
0.0
 10
45.50172431297381
 20
440.692376598691
 30
0.0
 10
45.12043222662476
 20
440.7891366271259
 30
0.0
 10
44.7133878130732
 20
440.8804361502551
 30
0.0
 10
44.28118666085419
 20
440.9665014340023
 30
0.0
 10
43.8246778382185
 20
441.0474032467087
 30
0.0
 10
43.34491748280722
 20
441.1231192936709
 30
0.0
 10
42.84313104337784
 20
441.1935726027887
 30
0.0
 10
42.32068455288659
 20
441.2586555059545
 30
0.0
 10
41.77906258664795
 20
441.3182450429771
 30
0.0
 10
41.21985082046221
 20
441.3722131493662
 30
0.0
 10
40.64472169601801
 20
441.4204335862814
 30
0.0
 10
40.05542218450153
 20
441.4627867755233
 30
0.0
 10
39.45376297368917
 20
441.4991632467689
 30
0.0
 10
38.84160862629832
 20
441.5294661368475
 30
0.0
 10
38.22086840409131
 20
441.5536130201822
 30
0.0
 10
37.59348754936932
 20
441.5715372505126
 30
0.0
 10
36.96143888023256
 20
441.5831889313944
 30
0.0
 10
36.32671459908249
 20
441.5885355922792
 30
0.0
 10
35.69131902182619
 20
441.5875626207366
 30
0.0
 10
35.05726414446964
 20
441.5802735616199
 30
0.0
 10
34.42655748160647
 20
441.5666902804559
 30
0.0
 10
33.8011933513968
 20
441.5468527582541
 30
0.0
 10
33.18314163294352
 20
441.5208184872133
 30
0.0
 10
32.57434406244066
 20
441.4886619306213
 30
0.0
 10
31.97670613072136
 20
441.4504736715996
 30
0.0
 10
31.39208879214019
 20
441.4063592412124
 30
0.0
 10
30.82229988627979
 20
441.3564375355667
 30
0.0
 10
30.26908512892236
 20
441.3008386838775
 30
0.0
 10
29.73411846577334
 20
441.239701155558
 30
0.0
 10
29.21899148785508
 20
441.1731677766001
 30
0.0
 10
28.72520146567583
 20
441.1013801331113
 30
0.0
 10
28.25413734430482
 20
441.0244705161914
 30
0.0
 10
27.80706271597325
 20
440.9425500070373
 30
0.0
 10
27.38509429178242
 20
440.855690303729
 30
0.0
 10
26.98917368883835
 20
440.7638951097013
 30
0.0
 10
26.62002938741091
 20
440.667053387125
 30
0.0
 10
26.27812521216318
 20
440.564860641161
 30
0.0
 10
25.96359330644438
 20
440.4566803494805
 30
0.0
 10
25.67616875090124
 20
440.3413019652585
 30
0.0
 10
25.41521998902596
 20
440.2165119289035
 30
0.0
 10
25.18840189256919
 20
440.0833287339422
 30
0.0
 10
25.00104200651502
 20
439.9435621990465
 30
0.0
 10
24.85481409512852
 20
439.8007675809226
 30
0.0
 10
24.74395945206943
 20
439.6533747930551
 30
0.0
 10
24.66579341264925
 20
439.5009324097176
 30
0.0
 10
24.61590833612213
 20
439.3397891857148
 30
0.0
 10
24.61129943386549
 20
439.239991070816
 30
0.0
 10
24.60923254964239
 20
439.1833576185487
 30
0.0
  0
LINE
  5
BE
330
74
100
AcDbEntity
  8
DV2_Standard
  6
Continuous
 62
     7
100
AcDbLine
 10
24.608304381
 20
423.684687051
 30
0.0
 11
24.6088614913
 21
423.630297429
 31
0.0
  0
SPLINE
  5
BF
330
74
100
AcDbEntity
  8
DV2_Standard
  6
Continuous
 62
     7
100
AcDbSpline
210
0.0
220
0.0
230
1.0
 70
     8
 71
     3
 72
     9
 73
     5
 74
     0
 42
0.0000000641677144
 43
0.0000000001
 40
0.0
 40
0.0
 40
0.0
 40
0.0
 40
0.3959632364463939
 40
1.0
 40
1.0
 40
1.0
 40
1.0
 10
47.58909523321083
 20
423.5287551950643
 30
0.0
 10
47.59403527192281
 20
423.5487596075723
 30
0.0
 10
47.60352573347087
 20
423.5994052614352
 30
0.0
 10
47.60294991744059
 20
423.6481882135638
 30
0.0
 10
47.60224113726358
 20
423.683103741698
 30
0.0
  0
SPLINE
  5
C0
330
74
100
AcDbEntity
  8
DV2_Standard
  6
Continuous
 62
     7
100
AcDbSpline
210
0.0
220
0.0
230
1.0
 70
     8
 71
     3
 72
     8
 73
     4
 74
     0
 42
0.0000000953122178
 43
0.0000000001
 40
0.0
 40
0.0
 40
0.0
 40
0.0
 40
1.0
 40
1.0
 40
1.0
 40
1.0
 10
24.60886149133657
 20
423.6302974289763
 30
0.0
 10
24.61370906638553
 20
423.5919767009284
 30
0.0
 10
24.61814430909357
 20
423.5594801770451
 30
0.0
 10
24.62576632084113
 20
423.5268645127452
 30
0.0
  0
SPLINE
  5
C1
330
74
100
AcDbEntity
  8
DV2_Standard
  6
Continuous
 62
     7
100
AcDbSpline
210
0.0
220
0.0
230
1.0
 70
     8
 71
     3
 72
    18
 73
    14
 74
     0
 42
0.0000000043461873
 43
0.0000000001
 40
0.0
 40
0.0
 40
0.0
 40
0.0
 40
0.0829560049655029
 40
0.1912899055298172
 40
0.3005037277131662
 40
0.4109314984955534
 40
0.5229648517477196
 40
0.6367299219943474
 40
0.7348799729045061
 40
0.8224638212645873
 40
0.9023871817448577
 40
0.9784663532507443
 40
1.0
 40
1.0
 40
1.0
 40
1.0
 10
26.35786575221754
 20
422.4598897117161
 30
0.0
 10
26.26336332478383
 20
422.4316601144542
 30
0.0
 10
26.07999802902414
 20
422.3764380906707
 30
0.0
 10
25.79952337365629
 20
422.2763882200767
 30
0.0
 10
25.53151434506223
 20
422.1659733656249
 30
0.0
 10
25.29151210258925
 20
422.0481156608401
 30
0.0
 10
25.08164007704546
 20
421.9218622536407
 30
0.0
 10
24.9106636717601
 20
421.7900861645989
 30
0.0
 10
24.78007017705203
 20
421.654526456903
 30
0.0
 10
24.68766244483066
 20
421.5178774591561
 30
0.0
 10
24.62972461954084
 20
421.378328813004
 30
0.0
 10
24.60672541027713
 20
421.2634457754849
 30
0.0
 10
24.60796242728615
 20
421.2050856317351
 30
0.0
 10
24.60835904841667
 20
421.1899916683436
 30
0.0
  0
SPLINE
  5
C2
330
74
100
AcDbEntity
  8
DV2_Standard
  6
Continuous
 62
     7
100
AcDbSpline
210
0.0
220
0.0
230
1.0
 70
     8
 71
     3
 72
    18
 73
    14
 74
     0
 42
0.0000000042467436
 43
0.0000000001
 40
0.0
 40
0.0
 40
0.0
 40
0.0
 40
0.033763760969895
 40
0.1119978587767933
 40
0.1911942321249543
 40
0.2757070401520723
 40
0.3692679628818966
 40
0.4730441708944743
 40
0.5834019626172726
 40
0.6945771807080974
 40
0.8041950341080399
 40
0.9123321968224627
 40
1.0
 40
1.0
 40
1.0
 40
1.0
 10
47.60212076486587
 20
421.1852730251267
 30
0.0
 10
47.60363336893346
 20
421.2093303538232
 30
0.0
 10
47.60747555808138
 20
421.2770567351597
 30
0.0
 10
47.57611373309462
 20
421.4016663509754
 30
0.0
 10
47.51327190899932
 20
421.5400758187129
 30
0.0
 10
47.41830506354069
 20
421.672119673902
 30
0.0
 10
47.29043677273664
 20
421.8002699644293
 30
0.0
 10
47.12362156422622
 20
421.9271014632653
 30
0.0
 10
46.91645967061172
 20
422.0512544728858
 30
0.0
 10
46.67160688595781
 20
422.1707923067
 30
0.0
 10
46.39637129575513
 20
422.2832297123132
 30
0.0
 10
46.10396007940775
 20
422.3863135797472
 30
0.0
 10
45.9114737117956
 20
422.4435714028438
 30
0.0
 10
45.8089503825905
 20
422.4738065540886
 30
0.0
  0
LINE
  5
C3
330
74
100
AcDbEntity
  8
DV2_Standard
  6
Continuous
 62
     7
100
AcDbLine
 10
24.6067887866
 20
421.1903048133
 30
0.0
 11
24.6067887866
 21
415.3453831984
 31
0.0
  0
LINE
  5
C4
330
74
100
AcDbEntity
  8
DV2_Standard
  6
Continuous
 62
     7
100
AcDbLine
 10
47.6067887866
 20
415.3453831984
 30
0.0
 11
47.6067887866
 21
421.1903048133
 31
0.0
  0
SPLINE
  5
C5
330
74
100
AcDbEntity
  8
DV2_Standard
  6
Continuous
 62
     7
100
AcDbSpline
210
0.0
220
0.0
230
1.0
 70
     8
 71
     3
 72
    65
 73
    61
 74
     0
 42
0.0000000004122742
 43
0.0000000001
 40
0.0
 40
0.0
 40
0.0
 40
0.0
 40
0.0060200972928896
 40
0.0195516594145115
 40
0.0332579054420409
 40
0.0478949411029863
 40
0.0641045559734511
 40
0.0820780245998328
 40
0.1011751624369764
 40
0.1204010195398798
 40
0.1393565224426273
 40
0.1580567963019598
 40
0.1765652090376285
 40
0.1949355769671037
 40
0.2132064799327279
 40
0.231404702165361
 40
0.2495489065163416
 40
0.2676522900460097
 40
0.2857243550780134
 40
0.3037720728261955
 40
0.321800652623925
 40
0.3398140575215239
 40
0.3578153556935496
 40
0.3758069642009099
 40
0.3937908211447427
 40
0.4117685094942349
 40
0.4297413478767264
 40
0.4477104585509645
 40
0.465676819533509
 40
0.4836413057423813
 40
0.5016047226520004
 40
0.5195678350687571
 40
0.5375312489950074
 40
0.555495614763139
 40
0.5734617148326223
 40
0.5914303854527525
 40
0.6094025468643478
 40
0.6273792391738331
 40
0.6453616666793157
 40
0.6633512544397959
 40
0.6813497223892923
 40
0.6993591846070701
 40
0.7173822849042403
 40
0.7354223853927232
 40
0.7534838333340592
 40
0.7715723452185311
 40
0.7896955686962159
 40
0.807863917051297
 40
0.8260918222734654
 40
0.8443996201085753
 40
0.862816323641369
 40
0.88138333805262
 40
0.9001576803121101
 40
0.9192058740325302
 40
0.9385475730167158
 40
0.9552009813333117
 40
0.970061396822787
 40
0.9836306430022778
 40
0.9965570353820578
 40
1.0
 40
1.0
 40
1.0
 40
1.0
 10
24.6114847627037
 20
415.3501538186309
 30
0.0
 10
24.609999494515
 20
415.3253449032407
 30
0.0
 10
24.60633930337775
 20
415.2569910521393
 30
0.0
 10
24.6381854417042
 20
415.1318416093742
 30
0.0
 10
24.70152025115663
 20
414.9935639999424
 30
0.0
 10
24.79694752888114
 20
414.8616067722004
 30
0.0
 10
24.92537594226416
 20
414.7334811792445
 30
0.0
 10
25.09278221957537
 20
414.6066861637597
 30
0.0
 10
25.30064123326585
 20
414.4825407899672
 30
0.0
 10
25.54565163237315
 20
414.3632782881143
 30
0.0
 10
25.82268387800499
 20
414.250252550819
 30
0.0
 10
26.12916204966843
 20
414.1432279753037
 30
0.0
 10
26.46436388822288
 20
414.0415477612476
 30
0.0
 10
26.8277770407651
 20
413.9447918570049
 30
0.0
 10
27.2187584357223
 20
413.8527668966009
 30
0.0
 10
27.6364778781129
 20
413.7654311805502
 30
0.0
 10
28.07992873897135
 20
413.6828363779582
 30
0.0
 10
28.54795023073011
 20
413.6050892938653
 30
0.0
 10
29.03924825350504
 20
413.5323276172211
 30
0.0
 10
29.55241286248719
 20
413.4647043455511
 30
0.0
 10
30.08593272274947
 20
413.4023775548357
 30
0.0
 10
30.63820731187785
 20
413.3455034944718
 30
0.0
 10
31.2075575267857
 20
413.2942317986136
 30
0.0
 10
31.79223518651668
 20
413.2487020791463
 30
0.0
 10
32.39043177948717
 20
413.209041446655
 30
0.0
 10
33.00028669736105
 20
413.1753626739184
 30
0.0
 10
33.61989512222654
 20
413.1477628191769
 30
0.0
 10
34.24731568111693
 20
413.1263221904016
 30
0.0
 10
34.88057794538105
 20
413.1111035724732
 30
0.0
 10
35.51768982730716
 20
413.1021516656905
 30
0.0
 10
36.15664490866921
 20
413.0994927017413
 30
0.0
 10
36.79542801796044
 20
413.103134205904
 30
0.0
 10
37.43202291936466
 20
413.1130648261948
 30
0.0
 10
38.06442080929216
 20
413.1292543469236
 30
0.0
 10
38.69062921022002
 20
413.1516539579928
 30
0.0
 10
39.30867867621782
 20
413.1801966463198
 30
0.0
 10
39.91662880150542
 20
413.2147976637726
 30
0.0
 10
40.5125755090947
 20
413.2553551991304
 30
0.0
 10
41.09465841348665
 20
413.3017512724834
 30
0.0
 10
41.66106830824651
 20
413.3538529095293
 30
0.0
 10
42.21005485458229
 20
413.4115136829734
 30
0.0
 10
42.73993458293656
 20
413.4745757542939
 30
0.0
 10
43.24909937196541
 20
413.5428726222465
 30
0.0
 10
43.73602564540418
 20
413.6162329030822
 30
0.0
 10
44.19928463882975
 20
413.6944856650668
 30
0.0
 10
44.63755424679557
 20
413.7774681749827
 30
0.0
 10
45.04963319110234
 20
413.8650375063331
 30
0.0
 10
45.43445851370901
 20
413.9570884973691
 30
0.0
 10
45.79112775862349
 20
414.0535825433645
 30
0.0
 10
46.11892675161113
 20
414.1545950981178
 30
0.0
 10
46.41736316117097
 20
414.2603973008978
 30
0.0
 10
46.68619192088873
 20
414.3715954516388
 30
0.0
 10
46.92539941079093
 20
414.4893768274852
 30
0.0
 10
47.13491206501866
 20
414.6158352194548
 30
0.0
 10
47.30532219133978
 20
414.7477358222774
 30
0.0
 10
47.43534077645965
 20
414.8834215521301
 30
0.0
 10
47.5271856555009
 20
415.0201419576729
 30
0.0
 10
47.58453651948839
 20
415.1597607201087
 30
0.0
 10
47.60705318745295
 20
415.2738790279581
 30
0.0
 10
47.60565283095739
 20
415.3314770595172
 30
0.0
 10
47.60523957440871
 20
415.345671430132
 30
0.0
  0
ELLIPSE
  5
C6
330
74
100
AcDbEntity
  8
DV2_Standard
  6
Continuous
 62
     7
100
AcDbEllipse
 10
36.1067887866
 20
439.1777308213
 30
0.0
 11
11.49999999999936
 21
0.0
 31
0.0
210
0.0
220
0.0
230
1.0
 40
0.1736481777
 41
-0.0000000000000284
 42
0.0149889278656323
  0
ENDBLK
  5
C8
330
74
100
AcDbEntity
  8
0
100
AcDbBlockEnd
  0
BLOCK
  5
107
330
C9
100
AcDbEntity
  8
0
100
AcDbBlockBegin
  2
SE2
 70
     0
 10
0.0
 20
0.0
 30
0.0
  3
SE2
  1

  0
LINE
  5
CC
330
C9
100
AcDbEntity
  8
DV3_Standard
  6
Continuous
 62
     7
100
AcDbLine
 10
147.6745784723
 20
329.8177440948
 30
0.0
 11
125.1745792901
 21
329.8177440948
 31
0.0
  0
LINE
  5
CD
330
C9
100
AcDbEntity
  8
DV3_Standard
  6
Continuous
 62
     7
100
AcDbLine
 10
160.9245789118
 20
322.5177440948
 30
0.0
 11
111.9245788505
 21
322.5177440948
 31
0.0
  0
LINE
  5
CE
330
C9
100
AcDbEntity
  8
DV3_Standard
  6
Continuous
 62
     7
100
AcDbLine
 10
161.4245788812
 20
317.0177440948
 30
0.0
 11
111.4245788812
 21
317.0177440948
 31
0.0
  0
ARC
  5
CF
330
C9
100
AcDbEntity
  8
DV3_Standard
  6
Continuous
 62
     7
100
AcDbCircle
 10
125.1745788812
 20
329.5677440948
 30
0.0
 40
0.2500000000000838
100
AcDbArc
 50
89.9999531435
 51
180.0
  0
ARC
  5
D0
330
C9
100
AcDbEntity
  8
DV3_Standard
  6
Continuous
 62
     7
100
AcDbCircle
 10
147.6745788812
 20
329.5677440948
 30
0.0
 40
0.2500000000000002
100
AcDbArc
 50
0.0
 51
90.0000468565
  0
LINE
  5
D1
330
C9
100
AcDbEntity
  8
DV3_Standard
  6
Continuous
 62
     7
100
AcDbLine
 10
124.9245788812
 20
329.5677440948
 30
0.0
 11
124.9245788812
 21
326.5177440948
 31
0.0
  0
LINE
  5
D2
330
C9
100
AcDbEntity
  8
DV3_Standard
  6
Continuous
 62
     7
100
AcDbLine
 10
147.9245788812
 20
326.5177440948
 30
0.0
 11
147.9245788812
 21
329.5677440948
 31
0.0
  0
ARC
  5
D3
330
C9
100
AcDbEntity
  8
DV3_Standard
  6
Continuous
 62
     7
100
AcDbCircle
 10
120.9245788812
 20
326.5177440948
 30
0.0
 40
4.0
100
AcDbArc
 50
270.000001859
 51
0.0
  0
ARC
  5
D4
330
C9
100
AcDbEntity
  8
DV3_Standard
  6
Continuous
 62
     7
100
AcDbCircle
 10
151.9245788812
 20
326.5177440948
 30
0.0
 40
4.000000000000002
100
AcDbArc
 50
180.0
 51
269.999998141
  0
ARC
  5
D5
330
C9
100
AcDbEntity
  8
DV3_Standard
  6
Continuous
 62
     7
100
AcDbCircle
 10
111.9245788812
 20
322.0177440948
 30
0.0
 40
0.4999999999999998
100
AcDbArc
 50
90.0000017544
 51
180.0
  0
ARC
  5
D6
330
C9
100
AcDbEntity
  8
DV3_Standard
  6
Continuous
 62
     7
100
AcDbCircle
 10
160.9245788812
 20
322.0177440948
 30
0.0
 40
0.5000000000000004
100
AcDbArc
 50
0.0
 51
89.9999982456
  0
LINE
  5
D7
330
C9
100
AcDbEntity
  8
DV3_Standard
  6
Continuous
 62
     7
100
AcDbLine
 10
111.4245788812
 20
322.0177440948
 30
0.0
 11
111.4245788812
 21
317.0177440948
 31
0.0
  0
LINE
  5
D8
330
C9
100
AcDbEntity
  8
DV3_Standard
  6
Continuous
 62
     7
100
AcDbLine
 10
161.4245788812
 20
317.0177440948
 30
0.0
 11
161.4245788812
 21
322.0177440948
 31
0.0
  0
ARC
  5
D9
330
C9
100
AcDbEntity
  8
DV3_Standard
  6
Continuous
 62
     7
100
AcDbCircle
 10
237.4719593478
 20
420.5258690658
 30
0.0
 40
0.9999999999999979
100
AcDbArc
 50
114.4775121872
 51
265.5224878146
  0
ARC
  5
DA
330
C9
100
AcDbEntity
  8
DV3_Standard
  6
Continuous
 62
     7
100
AcDbCircle
 10
259.1377299141
 20
424.3461289745
 30
0.0
 40
0.9999999999999979
100
AcDbArc
 50
294.4775121843
 51
85.522487814
  0
LINE
  5
DB
330
C9
100
AcDbEntity
  8
DV3_Standard
  6
Continuous
 62
     7
100
AcDbLine
 10
147.674577904
 20
329.8177440948
 30
0.0
 11
125.1745798583
 21
329.8177440948
 31
0.0
  0
LINE
  5
DC
330
C9
100
AcDbEntity
  8
DV3_Standard
  6
Continuous
 62
     7
100
AcDbLine
 10
256.2090230961
 20
442.1073979578
 30
0.0
 11
234.1493317698
 21
438.2176791909
 31
0.0
  0
ARC
  5
DD
330
C9
100
AcDbEntity
  8
DV3_Standard
  6
Continuous
 62
     7
100
AcDbCircle
 10
256.1569298134
 20
442.4028404901
 30
0.0
 40
0.2999999999987829
100
AcDbArc
 50
279.9998864895
 51
10.0
  0
ARC
  5
DE
330
C9
100
AcDbEntity
  8
DV3_Standard
  6
Continuous
 62
     7
100
AcDbCircle
 10
234.0972361459
 20
438.5131213104
 30
0.0
 40
0.2999999999999913
100
AcDbArc
 50
190.0
 51
280.0001135106
  0
LINE
  5
DF
330
C9
100
AcDbEntity
  8
DV3_Standard
  6
Continuous
 62
     7
100
AcDbLine
 10
256.4523721393
 20
442.4549349434
 30
0.0
 11
252.9446789504
 21
462.3480515542
 31
0.0
  0
LINE
  5
E0
330
C9
100
AcDbEntity
  8
DV3_Standard
  6
Continuous
 62
     7
100
AcDbLine
 10
230.2941006311
 20
458.3541434679
 30
0.0
 11
233.80179382
 21
438.4610268571
 31
0.0
  0
ARC
  5
E1
330
C9
100
AcDbEntity
  8
DV3_Standard
  6
Continuous
 62
     7
100
AcDbCircle
 10
189.4245788812
 20
451.1477440948
 30
0.0
 40
41.49999999999999
100
AcDbArc
 50
90.0
 51
180.0
  0
ARC
  5
E2
330
C9
100
AcDbEntity
  8
DV3_Standard
  6
Continuous
 62
     7
100
AcDbCircle
 10
189.4245788812
 20
451.1477440948
 30
0.0
 40
41.49999999999998
100
AcDbArc
 50
9.9999999999
 51
90.0
  0
ARC
  5
E3
330
C9
100
AcDbEntity
  8
DV3_Standard
  6
Continuous
 62
     7
100
AcDbCircle
 10
189.4245788812
 20
451.1477440948
 30
0.0
 40
64.49999999997274
100
AcDbArc
 50
10.0
 51
180.0
  0
LINE
  5
E4
330
C9
100
AcDbEntity
  8
DV3_Standard
  6
Continuous
 62
     7
100
AcDbLine
 10
124.9245788812
 20
451.1477440948
 30
0.0
 11
124.9245788812
 21
330.0677440948
 31
0.0
  0
LINE
  5
E5
330
C9
100
AcDbEntity
  8
DV3_Standard
  6
Continuous
 62
     7
100
AcDbLine
 10
147.9245788812
 20
330.0677440948
 30
0.0
 11
147.9245788812
 21
451.1477440948
 31
0.0
  0
ARC
  5
E6
330
C9
100
AcDbEntity
  8
DV3_Standard
  6
Continuous
 62
     7
100
AcDbCircle
 10
125.1745788812
 20
330.0677440948
 30
0.0
 40
0.2500000000000002
100
AcDbArc
 50
180.0
 51
270.0001119686
  0
ARC
  5
E7
330
C9
100
AcDbEntity
  8
DV3_Standard
  6
Continuous
 62
     7
100
AcDbCircle
 10
147.6745788812
 20
330.0677440948
 30
0.0
 40
0.2499999999995235
100
AcDbArc
 50
269.9998880314
 51
0.0
  0
LINE
  5
E8
330
C9
100
AcDbEntity
  8
DV3_Standard
  6
Continuous
 62
     7
100
AcDbLine
 10
238.5773595258
 20
413.1050813525
 30
0.0
 11
260.6370524012
 21
416.9948003926
 31
0.0
  0
LINE
  5
E9
330
C9
100
AcDbEntity
  8
DV3_Standard
  6
Continuous
 62
     7
100
AcDbLine
 10
234.6196375265
 20
437.7928934775
 30
0.0
 11
233.7033666449
 21
437.6313301994
 31
0.0
  0
LINE
  5
EA
330
C9
100
AcDbEntity
  8
DV3_Standard
  6
Continuous
 62
     7
100
AcDbLine
 10
234.6196755833
 20
437.7929001895
 30
0.0
 11
256.0988868049
 21
441.5802646522
 31
0.0
  0
LINE
  5
EB
330
C9
100
AcDbEntity
  8
DV3_Standard
  6
Continuous
 62
     7
100
AcDbLine
 10
231.0256842724
 20
437.1591825529
 30
0.0
 11
230.9862891031
 21
437.1522361217
 31
0.0
  0
LINE
  5
EC
330
C9
100
AcDbEntity
  8
DV3_Standard
  6
Continuous
 62
     7
100
AcDbLine
 10
231.0256844607
 20
437.1591825861
 30
0.0
 11
233.703368671
 21
437.6313305582
 31
0.0
  0
LINE
  5
ED
330
C9
100
AcDbEntity
  8
DV3_Standard
  6
Continuous
 62
     7
100
AcDbLine
 10
235.5249367645
 20
429.8291092652
 30
0.0
 11
234.2225757634
 21
437.2151674712
 31
0.0
  0
SPLINE
  5
EE
330
C9
100
AcDbEntity
  8
DV3_Standard
  6
Continuous
 62
     7
100
AcDbSpline
210
0.0
220
0.0
230
1.0
 70
    12
 71
     3
 72
    18
 73
    14
 74
     0
 42
0.0000000097605336
 43
0.0000000001
 40
0.0
 40
0.0
 40
0.0
 40
0.0
 40
0.09090909090909
 40
0.1818181818182
 40
0.2727272727273
 40
0.3636363636364
 40
0.4545454545455
 40
0.5454545454545
 40
0.6363636363636
 40
0.7272727272727
 40
0.8181818181818
 40
0.9090909090909
 40
1.0
 40
1.0
 40
1.0
 40
1.0
 10
235.5249367644683
 20
429.8291092652088
 30
0.0
 41
1.0
 10
235.5311731606057
 20
429.7937408724652
 30
0.0
 41
1.0
 10
235.5428632822486
 20
429.723391862866
 30
0.0
 41
1.0
 10
235.558128465327
 20
429.618972225295
 30
0.0
 41
1.0
 10
235.5711267828341
 20
429.5158763776012
 30
0.0
 41
1.0
 10
235.5819807903336
 20
429.4131313849589
 30
0.0
 41
1.0
 10
235.5908927553704
 20
429.3061679299295
 30
0.0
 41
1.0
 10
235.5971345793443
 20
429.1970688907282
 30
0.0
 41
1.0
 10
235.5999224348549
 20
429.0905121768619
 30
0.0
 41
1.0
 10
235.5985666525165
 20
428.9907508646243
 30
0.0
 41
1.0
 10
235.5923322804571
 20
428.9044091345688
 30
0.0
 41
1.0
 10
235.58045706486
 20
428.8406714824374
 30
0.0
 41
1.0
 10
235.5684045242106
 20
428.8213484398925
 30
0.0
 41
1.0
 10
235.5611189393181
 20
428.8200625469698
 30
0.0
 41
1.0
  0
LINE
  5
EF
330
C9
100
AcDbEntity
  8
DV3_Standard
  6
Continuous
 62
     7
100
AcDbLine
 10
235.5611189393
 20
428.820062547
 30
0.0
 11
235.5035459611
 21
428.8099108776
 31
0.0
  0
ELLIPSE
  5
F0
330
C9
100
AcDbEntity
  8
DV3_Standard
  6
Continuous
 62
     7
100
AcDbEllipse
 10
234.7064996722
 20
437.300496313
 30
0.0
 11
-0.08682408883332883
 21
0.4924038765061479
 31
0.0
210
0.0
220
0.0
230
1.0
 40
0.9827784252
 41
0.0
 42
1.570796326795116
  0
LINE
  5
F1
330
C9
100
AcDbEntity
  8
DV3_Standard
  6
Continuous
 62
     7
100
AcDbLine
 10
237.0378583536
 20
421.4373439171
 30
0.0
 11
259.2339086557
 21
425.3511064505
 31
0.0
  0
LINE
  5
F2
330
C9
100
AcDbEntity
  8
DV3_Standard
  6
Continuous
 62
     7
100
AcDbLine
 10
237.3757808666
 20
419.5208917021
 30
0.0
 11
259.5718306251
 21
423.4346541397
 31
0.0
  0
LINE
  5
F3
330
C9
100
AcDbEntity
  8
DV3_Standard
  6
Continuous
 62
     7
100
AcDbLine
 10
232.5016937821
 20
428.7883166522
 30
0.0
 11
232.4622986133
 21
428.7813702211
 31
0.0
  0
LINE
  5
F4
330
C9
100
AcDbEntity
  8
DV3_Standard
  6
Continuous
 62
     7
100
AcDbLine
 10
234.9844069713
 20
429.2260859729
 30
0.0
 11
232.5016939156
 21
428.7883166758
 31
0.0
  0
LINE
  5
F5
330
C9
100
AcDbEntity
  8
DV3_Standard
  6
Continuous
 62
     7
100
AcDbLine
 10
235.5035459611
 20
428.8099108776
 30
0.0
 11
236.7599059724
 21
421.6847391867
 31
0.0
  0
LINE
  5
F6
330
C9
100
AcDbEntity
  8
DV3_Standard
  6
Continuous
 62
     7
100
AcDbLine
 10
259.4104842917
 20
425.678647273
 30
0.0
 11
256.6781147703
 21
441.1746848645
 31
0.0
  0
ARC
  5
F7
330
C9
100
AcDbEntity
  8
DV3_Standard
  6
Continuous
 62
     7
100
AcDbCircle
 10
256.1857108938
 20
441.0878607757
 30
0.0
 40
0.4999999999999977
100
AcDbArc
 50
10.0
 51
100.0
  0
ARC
  5
F8
330
C9
100
AcDbEntity
  8
DV3_Standard
  6
Continuous
 62
     7
100
AcDbCircle
 10
237.055348296
 20
421.736833653
 30
0.0
 40
0.3000000000000017
100
AcDbArc
 50
190.000002526
 51
266.6577719314
  0
ARC
  5
F9
330
C9
100
AcDbEntity
  8
DV3_Standard
  6
Continuous
 62
     7
100
AcDbCircle
 10
259.1150419635
 20
425.6265528328
 30
0.0
 40
0.3000000000000519
100
AcDbArc
 50
293.3422280685
 51
9.999997474
  0
ARC
  5
FA
330
C9
100
AcDbEntity
  8
DV3_Standard
  6
Continuous
 62
     7
100
AcDbCircle
 10
237.4946472984
 20
419.2454452075
 30
0.0
 40
0.3000000000002148
100
AcDbArc
 50
113.3421738921
 51
189.9999969106
  0
ARC
  5
FB
330
C9
100
AcDbEntity
  8
DV3_Standard
  6
Continuous
 62
     7
100
AcDbCircle
 10
259.5543409659
 20
423.1351643872
 30
0.0
 40
0.3000000000000082
100
AcDbArc
 50
10.0000030894
 51
86.6578261079
  0
LINE
  5
FC
330
C9
100
AcDbEntity
  8
DV3_Standard
  6
Continuous
 62
     7
100
AcDbLine
 10
237.1992049697
 20
419.1933507701
 30
0.0
 11
238.2298223505
 21
413.3484291553
 31
0.0
  0
LINE
  5
FD
330
C9
100
AcDbEntity
  8
DV3_Standard
  6
Continuous
 62
     7
100
AcDbLine
 10
260.8804006698
 20
417.3423372416
 30
0.0
 11
259.849783289
 21
423.1872588565
 31
0.0
  0
ARC
  5
FE
330
C9
100
AcDbEntity
  8
DV3_Standard
  6
Continuous
 62
     7
100
AcDbCircle
 10
238.5252646764
 20
413.4005236086
 30
0.0
 40
0.3000000000000098
100
AcDbArc
 50
190.0
 51
280.0000384025
  0
ARC
  5
FF
330
C9
100
AcDbEntity
  8
DV3_Standard
  6
Continuous
 62
     7
100
AcDbCircle
 10
260.5849583439
 20
417.2902427883
 30
0.0
 40
0.2999999999999332
100
AcDbArc
 50
279.9999615975
 51
10.0
  0
ARC
  5
100
330
C9
100
AcDbEntity
  8
DV3_Standard
  6
Continuous
 62
     7
100
AcDbCircle
 10
231.2467613696
 20
435.6750244921
 30
0.0
 40
1.500000000000014
100
AcDbArc
 50
100.0
 51
190.0
  0
ARC
  5
101
330
C9
100
AcDbEntity
  8
DV3_Standard
  6
Continuous
 62
     7
100
AcDbCircle
 10
232.2018263468
 20
430.2585818506
 30
0.0
 40
1.500000000000014
100
AcDbArc
 50
190.0
 51
280.0
  0
ARC
  5
102
330
C9
100
AcDbEntity
  8
DV3_Standard
  6
Continuous
 62
     7
100
AcDbCircle
 10
235.0111420846
 20
428.7230867887
 30
0.0
 40
0.5000000000000001
100
AcDbArc
 50
10.0
 51
100.0
  0
LINE
  5
103
330
C9
100
AcDbEntity
  8
DV3_Standard
  6
Continuous
 62
     7
100
AcDbLine
 10
229.7695497401
 20
435.4145522256
 30
0.0
 11
230.7246147173
 21
429.9981095841
 31
0.0
  0
ARC
  5
104
330
C9
100
AcDbEntity
  8
DV3_Standard
  6
Continuous
 62
     7
100
AcDbCircle
 10
236.7357577718
 20
437.6583092668
 30
0.0
 40
0.7500000000000071
100
AcDbArc
 50
100.0
 51
148.1896851056
  0
ARC
  5
105
330
C9
100
AcDbEntity
  8
DV3_Standard
  6
Continuous
 62
     7
100
AcDbCircle
 10
253.9698934495
 20
440.6971523759
 30
0.0
 40
0.7500000000000071
100
AcDbArc
 50
51.8103148944
 51
100.0
  0
LINE
  5
106
330
C9
100
AcDbEntity
  8
DV3_Standard
  6
Continuous
 62
     7
100
AcDbLine
 10
253.8396573163
 20
441.4357581907
 30
0.0
 11
236.6055216386
 21
438.3969150815
 31
0.0
  0
ENDBLK
  5
108
330
C9
100
AcDbEntity
  8
0
100
AcDbBlockEnd
  0
ENDSEC
  0
SECTION
  2
ENTITIES
  0
INSERT
  5
5F
330
1F
100
AcDbEntity
  8
Default
100
AcDbBlockReference
  2
SE
 10
0.0
 20
0.0
 30
0.0
  0
INSERT
  5
75
330
1F
100
AcDbEntity
  8
Default
100
AcDbBlockReference
  2
SE1
 10
0.0
 20
0.0
 30
0.0
  0
INSERT
  5
CA
330
1F
100
AcDbEntity
  8
Default
100
AcDbBlockReference
  2
SE2
 10
0.0
 20
0.0
 30
0.0
  0
TEXT
  5
10A
330
1F
100
AcDbEntity
  8
Default
  6
Continuous
 62
     7
100
AcDbText
 10
5.9362635081
 20
53.4225120485
 30
0.0
 40
10.0
  1
Grohe AG^J
  7
SEACAD_seiso_ttf
 11
5.9362635081
 21
63.4225120485
 31
0.0
100
AcDbText
 73
     3
  0
TEXT
  5
10B
330
1F
100
AcDbEntity
  8
Default
  6
Continuous
 62
     7
100
AcDbText
 10
5.9362635081
 20
37.0588756849
 30
0.0
 40
10.0
  1
 
  7
SEACAD_seiso_ttf
 11
5.9362635081
 21
47.0588756849
 31
0.0
100
AcDbText
 73
     3
  0
TEXT
  5
10C
330
1F
100
AcDbEntity
  8
Default
  6
Continuous
 62
     7
100
AcDbText
 10
5.9362635081
 20
20.6952393213
 30
0.0
 40
10.0
  1
ecn: 
  7
SEACAD_seiso_ttf
 11
5.9362635081
 21
30.6952393213
 31
0.0
100
AcDbText
 73
     3
  0
TEXT
  5
10D
330
1F
100
AcDbEntity
  8
Default
  6
Continuous
 62
     7
100
AcDbText
 10
5.9362635081
 20
4.3316029576
 30
0.0
 40
10.0
  1
unit: mm
  7
SEACAD_seiso_ttf
 11
5.9362635081
 21
14.3316029576
 31
0.0
100
AcDbText
 73
     3
  0
LINE
  5
10E
330
1F
100
AcDbEntity
  8
Default
  6
Continuous
 62
     7
100
AcDbLine
 10
0.0
 20
0.0
 30
0.0
 11
100.0
 21
0.0
 31
0.0
  0
LINE
  5
10F
330
1F
100
AcDbEntity
  8
Default
  6
Continuous
 62
     7
100
AcDbLine
 10
0.0
 20
0.0
 30
0.0
 11
0.0
 21
100.0
 31
0.0
  0
TEXT
  5
110
330
1F
100
AcDbEntity
  8
Default
  6
Continuous
 62
     7
100
AcDbText
 10
24.3923665681
 20
-18.2375342018
 30
0.0
 40
10.0
  1
100 mm
  7
SEACAD_seiso_ttf
 11
24.3923665681
 21
-8.2375342018
 31
0.0
100
AcDbText
 73
     3
  0
TEXT
  5
111
330
1F
100
AcDbEntity
  8
Default
  6
Continuous
 62
     7
100
AcDbText
 10
-7.6150308803
 20
24.6231930421
 30
0.0
 40
10.0
  1
100 mm
 50
90.0
  7
SEACAD_seiso_ttf
 11
-17.6150308803
 21
24.6231930421
 31
0.0
100
AcDbText
 73
     3
  0
TEXT
  5
112
330
1F
100
AcDbEntity
  8
Default
  6
Continuous
 62
     7
100
AcDbText
 10
28.4878128572
 20
20.0907663715
 30
0.0
 40
10.0
  1
218609
  7
SEACAD_seiso_ttf
 11
28.4878128572
 21
30.0907663715
 31
0.0
100
AcDbText
 73
     3
  0
TEXT
  5
113
330
1F
100
AcDbEntity
  8
Default
  6
Continuous
 62
     7
100
AcDbText
 10
5.9012241913
 20
36.7242780188
 30
0.0
 40
10.0
  1
20201000
  7
SEACAD_seiso_ttf
 11
5.9012241913
 21
46.7242780188
 31
0.0
100
AcDbText
 73
     3
  0
ENDSEC
  0
SECTION
  2
OBJECTS
  0
DICTIONARY
  5
C
330
0
100
AcDbDictionary
281
     1
  3
ACAD_GROUP
350
D
  3
ACAD_LAYOUT
350
1A
  3
ACAD_MLEADERSTYLE
350
117
  3
ACAD_MLINESTYLE
350
17
  3
ACAD_PLOTSETTINGS
350
19
  3
ACAD_PLOTSTYLENAME
350
E
  3
ACAD_SCALELIST
350
3B
  3
ACAD_TABLESTYLE
350
116
  3
ACAD_VISUALSTYLE
350
2A
  3
AcDbVariableDictionary
350
114
  0
DICTIONARY
  5
D
102
{ACAD_REACTORS
330
C
102
}
330
C
100
AcDbDictionary
281
     1
  0
DICTIONARY
  5
1A
102
{ACAD_REACTORS
330
C
102
}
330
C
100
AcDbDictionary
281
     1
  3
Layout1
350
1E
  3
Model
350
22
  0
DICTIONARY
  5
117
102
{ACAD_REACTORS
330
C
102
}
330
C
100
AcDbDictionary
281
     1
  0
DICTIONARY
  5
17
102
{ACAD_REACTORS
330
C
102
}
330
C
100
AcDbDictionary
281
     1
  3
Standard
350
18
  0
DICTIONARY
  5
19
102
{ACAD_REACTORS
330
C
102
}
330
C
100
AcDbDictionary
281
     1
  0
ACDBDICTIONARYWDFLT
  5
E
102
{ACAD_REACTORS
330
C
102
}
330
C
100
AcDbDictionary
281
     1
  3
Normal
350
F
100
AcDbDictionaryWithDefault
340
F
  0
DICTIONARY
  5
3B
102
{ACAD_REACTORS
330
C
102
}
330
C
100
AcDbDictionary
281
     1
  3
A0
350
3C
  3
A1
350
3D
  3
A2
350
3E
  3
A3
350
3F
  3
A4
350
40
  3
A5
350
41
  3
A6
350
42
  3
A7
350
43
  3
A8
350
44
  3
A9
350
45
  3
B0
350
46
  3
B1
350
47
  3
B2
350
48
  3
B3
350
49
  3
B4
350
4A
  3
B5
350
4B
  3
B6
350
4C
  3
B7
350
4D
  3
B8
350
4E
  3
B9
350
4F
  3
C0
350
50
  3
C1
350
51
  3
C2
350
52
  3
C3
350
53
  3
C4
350
54
  3
C5
350
55
  3
C6
350
56
  3
C7
350
57
  3
C8
350
58
  3
C9
350
59
  3
D0
350
5A
  3
D1
350
5B
  3
D2
350
5C
  0
DICTIONARY
  5
116
102
{ACAD_REACTORS
330
C
102
}
330
C
100
AcDbDictionary
281
     1
  0
DICTIONARY
  5
2A
102
{ACAD_REACTORS
330
C
102
}
330
C
100
AcDbDictionary
281
     1
  3
2dWireframe
350
2F
  3
3D Hidden
350
31
  3
3dWireframe
350
30
  3
Basic
350
32
  3
Brighten
350
36
  3
ColorChange
350
3A
  3
Conceptual
350
34
  3
Dim
350
35
  3
Facepattern
350
39
  3
Flat
350
2B
  3
FlatWithEdges
350
2C
  3
Gouraud
350
2D
  3
GouraudWithEdges
350
2E
  3
Linepattern
350
38
  3
Realistic
350
33
  3
Thicken
350
37
  0
DICTIONARY
  5
114
102
{ACAD_REACTORS
330
C
102
}
330
C
100
AcDbDictionary
281
     1
  3
CANNOSCALE
350
115
  3
PSOLHEIGHT
350
119
  3
PSOLWIDTH
350
118
  0
LAYOUT
  5
1E
102
{ACAD_REACTORS
330
1A
102
}
330
1A
100
AcDbPlotSettings
  1

  2
none_device
  4

  6

 40
0.0
 41
0.0
 42
0.0
 43
0.0
 44
0.0
 45
0.0
 46
0.0
 47
0.0
 48
0.0
 49
0.0
140
0.0
141
0.0
142
1.0
143
1.0
 70
   688
 72
     0
 73
     0
 74
     5
  7

 75
    16
147
1.0
148
0.0
149
0.0
100
AcDbLayout
  1
Layout1
 70
     1
 71
     1
 10
0.0
 20
0.0
 11
1682.0
 21
2378.0
 12
0.0
 22
0.0
 32
0.0
 14
0.0
 24
0.0
 34
0.0
 15
1682.0
 25
2378.0
 35
0.0
146
0.0
 13
0.0
 23
0.0
 33
0.0
 16
1.0
 26
0.0
 36
0.0
 17
0.0
 27
1.0
 37
0.0
 76
     0
330
1B
  0
LAYOUT
  5
22
102
{ACAD_REACTORS
330
1A
102
}
330
1A
100
AcDbPlotSettings
  1

  2
none_device
  4

  6

 40
0.0
 41
0.0
 42
0.0
 43
0.0
 44
0.0
 45
0.0
 46
0.0
 47
0.0
 48
0.0
 49
0.0
140
0.0
141
0.0
142
1.0
143
1.0
 70
  1712
 72
     0
 73
     0
 74
     0
  7

 75
     0
147
1.0
148
0.0
149
0.0
100
AcDbLayout
  1
Model
 70
     1
 71
     0
 10
0.0
 20
0.0
 11
1682.0
 21
2378.0
 12
0.0
 22
0.0
 32
0.0
 14
0.0
 24
0.0
 34
0.0
 15
1682.0
 25
2378.0
 35
0.0
146
0.0
 13
0.0
 23
0.0
 33
0.0
 16
1.0
 26
0.0
 36
0.0
 17
0.0
 27
1.0
 37
0.0
 76
     0
330
1F
331
29
  0
MLINESTYLE
  5
18
102
{ACAD_REACTORS
330
17
102
}
330
17
100
AcDbMlineStyle
  2
Standard
 70
     0
  3

 62
   256
 51
90.0
 52
90.0
 71
     2
 49
0.5
 62
   256
  6
BYLAYER
 49
-0.5
 62
   256
  6
BYLAYER
  0
ACDBPLACEHOLDER
  5
F
102
{ACAD_REACTORS
330
E
102
}
330
E
  0
SCALE
  5
3C
102
{ACAD_REACTORS
330
3B
102
}
330
3B
100
AcDbScale
 70
     0
300
1:1
140
1.0
141
1.0
290
     1
  0
SCALE
  5
3D
102
{ACAD_REACTORS
330
3B
102
}
330
3B
100
AcDbScale
 70
     0
300
1:2
140
1.0
141
2.0
290
     0
  0
SCALE
  5
3E
102
{ACAD_REACTORS
330
3B
102
}
330
3B
100
AcDbScale
 70
     0
300
1:4
140
1.0
141
4.0
290
     0
  0
SCALE
  5
3F
102
{ACAD_REACTORS
330
3B
102
}
330
3B
100
AcDbScale
 70
     0
300
1:5
140
1.0
141
5.0
290
     0
  0
SCALE
  5
40
102
{ACAD_REACTORS
330
3B
102
}
330
3B
100
AcDbScale
 70
     0
300
1:8
140
1.0
141
8.0
290
     0
  0
SCALE
  5
41
102
{ACAD_REACTORS
330
3B
102
}
330
3B
100
AcDbScale
 70
     0
300
1:10
140
1.0
141
10.0
290
     0
  0
SCALE
  5
42
102
{ACAD_REACTORS
330
3B
102
}
330
3B
100
AcDbScale
 70
     0
300
1:16
140
1.0
141
16.0
290
     0
  0
SCALE
  5
43
102
{ACAD_REACTORS
330
3B
102
}
330
3B
100
AcDbScale
 70
     0
300
1:20
140
1.0
141
20.0
290
     0
  0
SCALE
  5
44
102
{ACAD_REACTORS
330
3B
102
}
330
3B
100
AcDbScale
 70
     0
300
1:30
140
1.0
141
30.0
290
     0
  0
SCALE
  5
45
102
{ACAD_REACTORS
330
3B
102
}
330
3B
100
AcDbScale
 70
     0
300
1:40
140
1.0
141
40.0
290
     0
  0
SCALE
  5
46
102
{ACAD_REACTORS
330
3B
102
}
330
3B
100
AcDbScale
 70
     0
300
1:50
140
1.0
141
50.0
290
     0
  0
SCALE
  5
47
102
{ACAD_REACTORS
330
3B
102
}
330
3B
100
AcDbScale
 70
     0
300
1:100
140
1.0
141
100.0
290
     0
  0
SCALE
  5
48
102
{ACAD_REACTORS
330
3B
102
}
330
3B
100
AcDbScale
 70
     0
300
2:1
140
2.0
141
1.0
290
     0
  0
SCALE
  5
49
102
{ACAD_REACTORS
330
3B
102
}
330
3B
100
AcDbScale
 70
     0
300
4:1
140
4.0
141
1.0
290
     0
  0
SCALE
  5
4A
102
{ACAD_REACTORS
330
3B
102
}
330
3B
100
AcDbScale
 70
     0
300
8:1
140
8.0
141
1.0
290
     0
  0
SCALE
  5
4B
102
{ACAD_REACTORS
330
3B
102
}
330
3B
100
AcDbScale
 70
     0
300
10:1
140
10.0
141
1.0
290
     0
  0
SCALE
  5
4C
102
{ACAD_REACTORS
330
3B
102
}
330
3B
100
AcDbScale
 70
     0
300
100:1
140
100.0
141
1.0
290
     0
  0
SCALE
  5
4D
102
{ACAD_REACTORS
330
3B
102
}
330
3B
100
AcDbScale
 70
     0
300
1/128" = 1'-0"
140
0.0078125
141
12.0
290
     0
  0
SCALE
  5
4E
102
{ACAD_REACTORS
330
3B
102
}
330
3B
100
AcDbScale
 70
     0
300
1/64" = 1'-0"
140
0.015625
141
12.0
290
     0
  0
SCALE
  5
4F
102
{ACAD_REACTORS
330
3B
102
}
330
3B
100
AcDbScale
 70
     0
300
1/32" = 1'-0"
140
0.03125
141
12.0
290
     0
  0
SCALE
  5
50
102
{ACAD_REACTORS
330
3B
102
}
330
3B
100
AcDbScale
 70
     0
300
1/16" = 1'-0"
140
0.0625
141
12.0
290
     0
  0
SCALE
  5
51
102
{ACAD_REACTORS
330
3B
102
}
330
3B
100
AcDbScale
 70
     0
300
3/32" = 1'-0"
140
0.09375
141
12.0
290
     0
  0
SCALE
  5
52
102
{ACAD_REACTORS
330
3B
102
}
330
3B
100
AcDbScale
 70
     0
300
1/8" = 1'-0"
140
0.125
141
12.0
290
     0
  0
SCALE
  5
53
102
{ACAD_REACTORS
330
3B
102
}
330
3B
100
AcDbScale
 70
     0
300
3/16" = 1'-0"
140
0.1875
141
12.0
290
     0
  0
SCALE
  5
54
102
{ACAD_REACTORS
330
3B
102
}
330
3B
100
AcDbScale
 70
     0
300
1/4" = 1'-0"
140
0.25
141
12.0
290
     0
  0
SCALE
  5
55
102
{ACAD_REACTORS
330
3B
102
}
330
3B
100
AcDbScale
 70
     0
300
3/8" = 1'-0"
140
0.375
141
12.0
290
     0
  0
SCALE
  5
56
102
{ACAD_REACTORS
330
3B
102
}
330
3B
100
AcDbScale
 70
     0
300
1/2" = 1'-0"
140
0.5
141
12.0
290
     0
  0
SCALE
  5
57
102
{ACAD_REACTORS
330
3B
102
}
330
3B
100
AcDbScale
 70
     0
300
3/4" = 1'-0"
140
0.75
141
12.0
290
     0
  0
SCALE
  5
58
102
{ACAD_REACTORS
330
3B
102
}
330
3B
100
AcDbScale
 70
     0
300
1" = 1'-0"
140
1.0
141
12.0
290
     0
  0
SCALE
  5
59
102
{ACAD_REACTORS
330
3B
102
}
330
3B
100
AcDbScale
 70
     0
300
1-1/2" = 1'-0"
140
1.5
141
12.0
290
     0
  0
SCALE
  5
5A
102
{ACAD_REACTORS
330
3B
102
}
330
3B
100
AcDbScale
 70
     0
300
3" = 1'-0"
140
3.0
141
12.0
290
     0
  0
SCALE
  5
5B
102
{ACAD_REACTORS
330
3B
102
}
330
3B
100
AcDbScale
 70
     0
300
6" = 1'-0"
140
6.0
141
12.0
290
     0
  0
SCALE
  5
5C
102
{ACAD_REACTORS
330
3B
102
}
330
3B
100
AcDbScale
 70
     0
300
1'-0" = 1'-0"
140
12.0
141
12.0
290
     0
  0
VISUALSTYLE
  5
2F
102
{ACAD_REACTORS
330
2A
102
}
330
2A
100
AcDbVisualStyle
  2
2dWireframe
 70
     4
 71
     0
 72
     2
 73
     0
 90
        0
 40
-0.6
 41
-30.0
 62
     5
 63
     7
 74
     1
 91
        4
 64
     7
 65
   257
 75
     1
175
     1
 42
1.0
 92
        0
 66
   257
 43
1.0
 76
     1
 77
     6
 78
     2
 67
     7
 79
     5
170
     0
171
     0
290
     0
174
     0
 93
        1
 44
0.0
173
     0
291
     0
 45
0.0
1001
ACAD
1000
AcDbSavedByObjectVersion
1070
     0
  0
VISUALSTYLE
  5
31
102
{ACAD_REACTORS
330
2A
102
}
330
2A
100
AcDbVisualStyle
  2
3D Hidden
 70
     6
 71
     1
 72
     2
 73
     2
 90
        0
 40
-0.6
 41
-30.0
 62
     5
 63
     7
 74
     2
 91
        2
 64
     7
 65
   257
 75
     2
175
     1
 42
40.0
 92
        0
 66
   257
 43
1.0
 76
     1
 77
     6
 78
     2
 67
     7
 79
     3
170
     0
171
     0
290
     0
174
     0
 93
        1
 44
0.0
173
     0
291
     0
 45
0.0
1001
ACAD
1000
AcDbSavedByObjectVersion
1070
     0
  0
VISUALSTYLE
  5
30
102
{ACAD_REACTORS
330
2A
102
}
330
2A
100
AcDbVisualStyle
  2
3dWireframe
 70
     5
 71
     0
 72
     2
 73
     0
 90
        0
 40
-0.6
 41
-30.0
 62
     5
 63
     7
 74
     1
 91
        4
 64
     7
 65
   257
 75
     1
175
     1
 42
1.0
 92
        0
 66
   257
 43
1.0
 76
     1
 77
     6
 78
     2
 67
     7
 79
     5
170
     0
171
     0
290
     0
174
     0
 93
        1
 44
0.0
173
     0
291
     0
 45
0.0
1001
ACAD
1000
AcDbSavedByObjectVersion
1070
     0
  0
VISUALSTYLE
  5
32
102
{ACAD_REACTORS
330
2A
102
}
330
2A
100
AcDbVisualStyle
  2
Basic
 70
     7
 71
     1
 72
     0
 73
     1
 90
        0
 40
-0.6
 41
-30.0
 62
     5
 63
     7
 74
     0
 91
        4
 64
     7
 65
   257
 75
     1
175
     1
 42
1.0
 92
        8
 66
     7
 43
1.0
 76
     1
 77
     6
 78
     2
 67
     7
 79
     5
170
     0
171
     0
290
     0
174
     0
 93
        1
 44
0.0
173
     0
291
     1
 45
0.0
1001
ACAD
1000
AcDbSavedByObjectVersion
1070
     0
  0
VISUALSTYLE
  5
36
102
{ACAD_REACTORS
330
2A
102
}
330
2A
100
AcDbVisualStyle
  2
Brighten
 70
    12
 71
     2
 72
     2
 73
     0
 90
        0
 40
-0.6
 41
-30.0
 62
     5
 63
     7
 74
     1
 91
        4
 64
     7
 65
   257
 75
     1
175
     1
 42
1.0
 92
        8
 66
     7
 43
1.0
 76
     1
 77
     6
 78
     2
 67
     7
 79
     5
170
     0
171
     0
290
     0
174
     0
 93
        1
 44
50.0
173
     0
291
     1
 45
0.0
1001
ACAD
1000
AcDbSavedByObjectVersion
1070
     0
  0
VISUALSTYLE
  5
3A
102
{ACAD_REACTORS
330
2A
102
}
330
2A
100
AcDbVisualStyle
  2
ColorChange
 70
    16
 71
     2
 72
     2
 73
     3
 90
        0
 40
-0.6
 41
-30.0
 62
     5
 63
     8
 74
     1
 91
        4
 64
     7
 65
   257
 75
     1
175
     1
 42
1.0
 92
        8
 66
     8
 43
1.0
 76
     1
 77
     6
 78
     2
 67
     7
 79
     5
170
     0
171
     0
290
     0
174
     0
 93
        1
 44
0.0
173
     0
291
     1
 45
0.0
1001
ACAD
1000
AcDbSavedByObjectVersion
1070
     0
  0
VISUALSTYLE
  5
34
102
{ACAD_REACTORS
330
2A
102
}
330
2A
100
AcDbVisualStyle
  2
Conceptual
 70
     9
 71
     3
 72
     2
 73
     0
 90
        0
 40
-0.6
 41
-30.0
 62
     5
 63
     7
 74
     2
 91
        2
 64
     7
 65
   257
 75
     1
175
     1
 42
40.0
 92
        8
 66
     7
 43
1.0
 76
     1
 77
     6
 78
     2
 67
     7
 79
     3
170
     0
171
     0
290
     0
174
     0
 93
        1
 44
0.0
173
     0
291
     0
 45
0.0
1001
ACAD
1000
AcDbSavedByObjectVersion
1070
     0
  0
VISUALSTYLE
  5
35
102
{ACAD_REACTORS
330
2A
102
}
330
2A
100
AcDbVisualStyle
  2
Dim
 70
    11
 71
     2
 72
     2
 73
     0
 90
        0
 40
-0.6
 41
-30.0
 62
     5
 63
     7
 74
     1
 91
        4
 64
     7
 65
   257
 75
     1
175
     1
 42
1.0
 92
        8
 66
     7
 43
1.0
 76
     1
 77
     6
 78
     2
 67
     7
 79
     5
170
     0
171
     0
290
     0
174
     0
 93
        1
 44
-50.0
173
     0
291
     1
 45
0.0
1001
ACAD
1000
AcDbSavedByObjectVersion
1070
     0
  0
VISUALSTYLE
  5
39
102
{ACAD_REACTORS
330
2A
102
}
330
2A
100
AcDbVisualStyle
  2
Facepattern
 70
    15
 71
     2
 72
     2
 73
     0
 90
        0
 40
-0.6
 41
-30.0
 62
     5
 63
     7
 74
     1
 91
        4
 64
     7
 65
   257
 75
     1
175
     1
 42
1.0
 92
        8
 66
     7
 43
1.0
 76
     1
 77
     6
 78
     2
 67
     7
 79
     5
170
     0
171
     0
290
     0
174
     0
 93
        1
 44
0.0
173
     0
291
     1
 45
0.0
1001
ACAD
1000
AcDbSavedByObjectVersion
1070
     0
  0
VISUALSTYLE
  5
2B
102
{ACAD_REACTORS
330
2A
102
}
330
2A
100
AcDbVisualStyle
  2
Flat
 70
     0
 71
     2
 72
     1
 73
     1
 90
        2
 40
-0.6
 41
30.0
 62
     5
 63
     7
 74
     0
 91
        4
 64
     7
 65
   257
 75
     1
175
     1
 42
1.0
 92
        8
 66
     7
 43
1.0
 76
     1
 77
     6
 78
     2
 67
     7
 79
     5
170
     0
171
     0
290
     0
174
     0
 93
       13
 44
0.0
173
     0
291
     1
 45
0.0
1001
ACAD
1000
AcDbSavedByObjectVersion
1070
     0
  0
VISUALSTYLE
  5
2C
102
{ACAD_REACTORS
330
2A
102
}
330
2A
100
AcDbVisualStyle
  2
FlatWithEdges
 70
     1
 71
     2
 72
     1
 73
     1
 90
        2
 40
-0.6
 41
30.0
 62
     5
 63
     7
 74
     1
 91
        4
 64
     7
 65
   257
 75
     1
175
     1
 42
1.0
 92
        0
 66
   257
 43
1.0
 76
     1
 77
     6
 78
     2
 67
     7
 79
     5
170
     0
171
     0
290
     0
174
     0
 93
       13
 44
0.0
173
     0
291
     1
 45
0.0
1001
ACAD
1000
AcDbSavedByObjectVersion
1070
     0
  0
VISUALSTYLE
  5
2D
102
{ACAD_REACTORS
330
2A
102
}
330
2A
100
AcDbVisualStyle
  2
Gouraud
 70
     2
 71
     2
 72
     2
 73
     1
 90
        2
 40
-0.6
 41
30.0
 62
     5
 63
     7
 74
     0
 91
        4
 64
     7
 65
   257
 75
     1
175
     1
 42
1.0
 92
        0
 66
     7
 43
1.0
 76
     1
 77
     6
 78
     2
 67
     7
 79
     5
170
     0
171
     0
290
     0
174
     0
 93
       13
 44
0.0
173
     0
291
     1
 45
0.0
1001
ACAD
1000
AcDbSavedByObjectVersion
1070
     0
  0
VISUALSTYLE
  5
2E
102
{ACAD_REACTORS
330
2A
102
}
330
2A
100
AcDbVisualStyle
  2
GouraudWithEdges
 70
     3
 71
     2
 72
     2
 73
     1
 90
        2
 40
-0.6
 41
30.0
 62
     5
 63
     7
 74
     1
 91
        4
 64
     7
 65
   257
 75
     1
175
     1
 42
1.0
 92
        0
 66
   257
 43
1.0
 76
     1
 77
     6
 78
     2
 67
     7
 79
     5
170
     0
171
     0
290
     0
174
     0
 93
       13
 44
0.0
173
     0
291
     1
 45
0.0
1001
ACAD
1000
AcDbSavedByObjectVersion
1070
     0
  0
VISUALSTYLE
  5
38
102
{ACAD_REACTORS
330
2A
102
}
330
2A
100
AcDbVisualStyle
  2
Linepattern
 70
    14
 71
     2
 72
     2
 73
     0
 90
        0
 40
-0.6
 41
-30.0
 62
     5
 63
     7
 74
     1
 91
        4
 64
     7
 65
   257
 75
     7
175
     7
 42
1.0
 92
        8
 66
     7
 43
1.0
 76
     1
 77
     6
 78
     2
 67
     7
 79
     5
170
     0
171
     0
290
     0
174
     0
 93
        1
 44
0.0
173
     0
291
     1
 45
0.0
1001
ACAD
1000
AcDbSavedByObjectVersion
1070
     0
  0
VISUALSTYLE
  5
33
102
{ACAD_REACTORS
330
2A
102
}
330
2A
100
AcDbVisualStyle
  2
Realistic
 70
     8
 71
     2
 72
     2
 73
     0
 90
        0
 40
-0.6
 41
-30.0
 62
     5
 63
     7
 74
     1
 91
        0
 64
     7
 65
   257
 75
     1
175
     1
 42
1.0
 92
        8
 66
     8
 43
1.0
 76
     1
 77
     6
 78
     2
 67
     7
 79
     5
170
     0
171
     0
290
     0
174
     0
 93
       13
 44
0.0
173
     0
291
     0
 45
0.0
1001
ACAD
1000
AcDbSavedByObjectVersion
1070
     0
  0
VISUALSTYLE
  5
37
102
{ACAD_REACTORS
330
2A
102
}
330
2A
100
AcDbVisualStyle
  2
Thicken
 70
    13
 71
     2
 72
     2
 73
     0
 90
        0
 40
-0.6
 41
-30.0
 62
     5
 63
     7
 74
     1
 91
        4
 64
     7
 65
   257
 75
     1
175
     1
 42
1.0
 92
       12
 66
     7
 43
1.0
 76
     1
 77
     6
 78
     2
 67
     7
 79
     5
170
     0
171
     0
290
     0
174
     0
 93
        1
 44
0.0
173
     0
291
     1
 45
0.0
1001
ACAD
1000
AcDbSavedByObjectVersion
1070
     0
  0
DICTIONARYVAR
  5
115
102
{ACAD_REACTORS
330
114
102
}
330
114
100
DictionaryVariables
280
     0
  1
1:1
  0
DICTIONARYVAR
  5
119
102
{ACAD_REACTORS
330
114
102
}
330
114
100
DictionaryVariables
280
     0
  1
80.000000
  0
DICTIONARYVAR
  5
118
102
{ACAD_REACTORS
330
114
102
}
330
114
100
DictionaryVariables
280
     0
  1
5.000000
  0
ENDSEC
  0
EOF
