  0
SECTION
  2
HEADER
  9
$ACADVER
  1
AC1015
  9
$ACADMAINTVER
 70
     6
  9
$DWGCODEPAGE
  3
ANSI_1252
  9
$INSBASE
 10
0.0
 20
0.0
 30
0.0
  9
$EXTMIN
 10
0.0
 20
0.0
 30
0.0
  9
$EXTMAX
 10
1682.0
 20
2378.0
 30
0.0
  9
$LIMMIN
 10
0.0
 20
0.0
  9
$LIMMAX
 10
1682.0
 20
2378.0
  9
$ORTHOMODE
 70
     0
  9
$REGENMODE
 70
     1
  9
$FILLMODE
 70
     1
  9
$QTEXTMODE
 70
     0
  9
$MIRRTEXT
 70
     1
  9
$LTSCALE
 40
1.0
  9
$ATTMODE
 70
     1
  9
$TEXTSIZE
 40
2.5
  9
$TRACEWID
 40
1.0
  9
$TEXTSTYLE
  7
Standard
  9
$CLAYER
  8
0
  9
$CELTYPE
  6
ByLayer
  9
$CECOLOR
 62
   256
  9
$CELTSCALE
 40
1.0
  9
$DISPSILH
 70
     0
  9
$DIMSCALE
 40
1.0
  9
$DIMASZ
 40
2.5
  9
$DIMEXO
 40
0.625
  9
$DIMDLI
 40
3.75
  9
$DIMRND
 40
0.0
  9
$DIMDLE
 40
0.0
  9
$DIMEXE
 40
1.25
  9
$DIMTP
 40
0.0
  9
$DIMTM
 40
0.0
  9
$DIMTXT
 40
2.5
  9
$DIMCEN
 40
2.5
  9
$DIMTSZ
 40
0.0
  9
$DIMTOL
 70
     0
  9
$DIMLIM
 70
     0
  9
$DIMTIH
 70
     0
  9
$DIMTOH
 70
     0
  9
$DIMSE1
 70
     0
  9
$DIMSE2
 70
     0
  9
$DIMTAD
 70
     1
  9
$DIMZIN
 70
     8
  9
$DIMBLK
  1

  9
$DIMASO
 70
     1
  9
$DIMSHO
 70
     1
  9
$DIMPOST
  1

  9
$DIMAPOST
  1

  9
$DIMALT
 70
     0
  9
$DIMALTD
 70
     3
  9
$DIMALTF
 40
0.0393700787
  9
$DIMLFAC
 40
1.0
  9
$DIMTOFL
 70
     1
  9
$DIMTVP
 40
0.0
  9
$DIMTIX
 70
     0
  9
$DIMSOXD
 70
     0
  9
$DIMSAH
 70
     0
  9
$DIMBLK1
  1

  9
$DIMBLK2
  1

  9
$DIMSTYLE
  2
ISO-25
  9
$DIMCLRD
 70
     0
  9
$DIMCLRE
 70
     0
  9
$DIMCLRT
 70
     0
  9
$DIMTFAC
 40
1.0
  9
$DIMGAP
 40
0.625
  9
$DIMJUST
 70
     0
  9
$DIMSD1
 70
     0
  9
$DIMSD2
 70
     0
  9
$DIMTOLJ
 70
     0
  9
$DIMTZIN
 70
     8
  9
$DIMALTZ
 70
     0
  9
$DIMALTTZ
 70
     0
  9
$DIMUPT
 70
     0
  9
$DIMDEC
 70
     2
  9
$DIMTDEC
 70
     2
  9
$DIMALTU
 70
     2
  9
$DIMALTTD
 70
     3
  9
$DIMTXSTY
  7
Standard
  9
$DIMAUNIT
 70
     0
  9
$DIMADEC
 70
     0
  9
$DIMALTRND
 40
0.0
  9
$DIMAZIN
 70
     0
  9
$DIMDSEP
 70
    44
  9
$DIMATFIT
 70
     3
  9
$DIMFRAC
 70
     0
  9
$DIMLDRBLK
  1

  9
$DIMLUNIT
 70
     2
  9
$DIMLWD
 70
    -2
  9
$DIMLWE
 70
    -2
  9
$DIMTMOVE
 70
     0
  9
$LUNITS
 70
     2
  9
$LUPREC
 70
     4
  9
$SKETCHINC
 40
1.0
  9
$FILLETRAD
 40
10.0
  9
$AUNITS
 70
     0
  9
$AUPREC
 70
     0
  9
$MENU
  1
.
  9
$ELEVATION
 40
0.0
  9
$PELEVATION
 40
0.0
  9
$THICKNESS
 40
0.0
  9
$LIMCHECK
 70
     0
  9
$CHAMFERA
 40
10.0
  9
$CHAMFERB
 40
10.0
  9
$CHAMFERC
 40
20.0
  9
$CHAMFERD
 40
0.0
  9
$SKPOLY
 70
     0
  9
$TDCREATE
 40
2455442.553402986
  9
$TDUCREATE
 40
2455442.470069653
  9
$TDUPDATE
 40
2455442.553402998
  9
$TDUUPDATE
 40
2455442.470069665
  9
$TDINDWG
 40
0.0000000116
  9
$TDUSRTIMER
 40
0.0000000116
  9
$USRTIMER
 70
     1
  9
$ANGBASE
 50
0.0
  9
$ANGDIR
 70
     0
  9
$PDMODE
 70
     0
  9
$PDSIZE
 40
0.0
  9
$PLINEWID
 40
0.0
  9
$SPLFRAME
 70
     0
  9
$SPLINETYPE
 70
     6
  9
$SPLINESEGS
 70
     8
  9
$HANDSEED
  5
37E
  9
$SURFTAB1
 70
     6
  9
$SURFTAB2
 70
     6
  9
$SURFTYPE
 70
     6
  9
$SURFU
 70
     6
  9
$SURFV
 70
     6
  9
$UCSBASE
  2

  9
$UCSNAME
  2

  9
$UCSORG
 10
0.0
 20
0.0
 30
0.0
  9
$UCSXDIR
 10
1.0
 20
0.0
 30
0.0
  9
$UCSYDIR
 10
0.0
 20
1.0
 30
0.0
  9
$UCSORTHOREF
  2

  9
$UCSORTHOVIEW
 70
     0
  9
$UCSORGTOP
 10
0.0
 20
0.0
 30
0.0
  9
$UCSORGBOTTOM
 10
0.0
 20
0.0
 30
0.0
  9
$UCSORGLEFT
 10
0.0
 20
0.0
 30
0.0
  9
$UCSORGRIGHT
 10
0.0
 20
0.0
 30
0.0
  9
$UCSORGFRONT
 10
0.0
 20
0.0
 30
0.0
  9
$UCSORGBACK
 10
0.0
 20
0.0
 30
0.0
  9
$PUCSBASE
  2

  9
$PUCSNAME
  2

  9
$PUCSORG
 10
0.0
 20
0.0
 30
0.0
  9
$PUCSXDIR
 10
1.0
 20
0.0
 30
0.0
  9
$PUCSYDIR
 10
0.0
 20
1.0
 30
0.0
  9
$PUCSORTHOREF
  2

  9
$PUCSORTHOVIEW
 70
     0
  9
$PUCSORGTOP
 10
0.0
 20
0.0
 30
0.0
  9
$PUCSORGBOTTOM
 10
0.0
 20
0.0
 30
0.0
  9
$PUCSORGLEFT
 10
0.0
 20
0.0
 30
0.0
  9
$PUCSORGRIGHT
 10
0.0
 20
0.0
 30
0.0
  9
$PUCSORGFRONT
 10
0.0
 20
0.0
 30
0.0
  9
$PUCSORGBACK
 10
0.0
 20
0.0
 30
0.0
  9
$USERI1
 70
     0
  9
$USERI2
 70
     0
  9
$USERI3
 70
     0
  9
$USERI4
 70
     0
  9
$USERI5
 70
     0
  9
$USERR1
 40
0.0
  9
$USERR2
 40
0.0
  9
$USERR3
 40
0.0
  9
$USERR4
 40
0.0
  9
$USERR5
 40
0.0
  9
$WORLDVIEW
 70
     1
  9
$SHADEDGE
 70
     3
  9
$SHADEDIF
 70
    70
  9
$TILEMODE
 70
     1
  9
$MAXACTVP
 70
    64
  9
$PINSBASE
 10
0.0
 20
0.0
 30
0.0
  9
$PLIMCHECK
 70
     0
  9
$PEXTMIN
 10
0.0
 20
0.0
 30
0.0
  9
$PEXTMAX
 10
1682.0
 20
2378.0
 30
0.0
  9
$PLIMMIN
 10
0.0
 20
0.0
  9
$PLIMMAX
 10
1682.0
 20
2378.0
  9
$UNITMODE
 70
     0
  9
$VISRETAIN
 70
     1
  9
$PLINEGEN
 70
     0
  9
$PSLTSCALE
 70
     1
  9
$TREEDEPTH
 70
  3020
  9
$CMLSTYLE
  2
Standard
  9
$CMLJUST
 70
     0
  9
$CMLSCALE
 40
20.0
  9
$PROXYGRAPHICS
 70
     1
  9
$MEASUREMENT
 70
     1
  9
$CELWEIGHT
370
    -1
  9
$ENDCAPS
280
     0
  9
$JOINSTYLE
280
     0
  9
$LWDISPLAY
290
     0
  9
$INSUNITS
 70
     4
  9
$HYPERLINKBASE
  1

  9
$STYLESHEET
  1

  9
$XEDIT
290
     1
  9
$CEPSNTYPE
380
     0
  9
$PSTYLEMODE
290
     1
  9
$FINGERPRINTGUID
  2
{ED314EE5-068E-4CC7-970F-391DF95B72B3}
  9
$VERSIONGUID
  2
{FAEB1C32-E019-11D5-929B-00C0DF256EC4}
  9
$EXTNAMES
290
     1
  9
$PSVPSCALE
 40
0.0
  9
$OLESTARTUP
290
     0
  0
ENDSEC
  0
SECTION
  2
CLASSES
  0
CLASS
  1
ACDBDICTIONARYWDFLT
  2
AcDbDictionaryWithDefault
  3
ObjectDBX Classes
 90
        0
280
     0
281
     0
  0
CLASS
  1
VISUALSTYLE
  2
AcDbVisualStyle
  3
ObjectDBX Classes
 90
     4095
280
     0
281
     0
  0
CLASS
  1
SCALE
  2
AcDbScale
  3
ObjectDBX Classes
 90
     1153
280
     0
281
     0
  0
CLASS
  1
DICTIONARYVAR
  2
AcDbDictionaryVar
  3
ObjectDBX Classes
 90
        0
280
     0
281
     0
  0
CLASS
  1
ACDBPLACEHOLDER
  2
AcDbPlaceHolder
  3
ObjectDBX Classes
 90
        0
280
     0
281
     0
  0
CLASS
  1
LAYOUT
  2
AcDbLayout
  3
ObjectDBX Classes
 90
        0
280
     0
281
     0
  0
ENDSEC
  0
SECTION
  2
TABLES
  0
TABLE
  2
VPORT
  5
8
330
0
100
AcDbSymbolTable
 70
     1
  0
VPORT
  5
29
330
8
100
AcDbSymbolTableRecord
100
AcDbViewportTableRecord
  2
*Active
 70
     0
 10
0.0
 20
0.0
 11
1.0
 21
1.0
 12
344.1869158879
 22
148.5
 13
0.0
 23
0.0
 14
10.0
 24
10.0
 15
10.0
 25
10.0
 16
0.0
 26
0.0
 36
1.0
 17
0.0
 27
0.0
 37
0.0
 40
297.0
 41
1.9729729729
 42
50.0
 43
0.0
 44
0.0
 50
0.0
 51
0.0
 71
     0
 72
   100
 73
     1
 74
     3
 75
     0
 76
     0
 77
     0
 78
     0
281
     0
 65
     1
110
0.0
120
0.0
130
0.0
111
1.0
121
0.0
131
0.0
112
0.0
122
1.0
132
0.0
 79
     0
146
0.0
  0
ENDTAB
  0
TABLE
  2
LTYPE
  5
5
330
0
100
AcDbSymbolTable
 70
     1
  0
LTYPE
  5
14
330
5
100
AcDbSymbolTableRecord
100
AcDbLinetypeTableRecord
  2
ByBlock
 70
     0
  3

 72
    65
 73
     0
 40
0.0
  0
LTYPE
  5
15
330
5
100
AcDbSymbolTableRecord
100
AcDbLinetypeTableRecord
  2
ByLayer
 70
     0
  3

 72
    65
 73
     0
 40
0.0
  0
LTYPE
  5
16
330
5
100
AcDbSymbolTableRecord
100
AcDbLinetypeTableRecord
  2
Continuous
 70
     0
  3
Solid line
 72
    65
 73
     0
 40
0.0
  0
ENDTAB
  0
TABLE
  2
LAYER
  5
2
330
0
100
AcDbSymbolTable
 70
    15
  0
LAYER
  5
10
330
2
100
AcDbSymbolTableRecord
100
AcDbLayerTableRecord
  2
0
 70
     0
 62
     7
  6
Continuous
370
    -3
390
F
  0
LAYER
  5
5D
330
2
100
AcDbSymbolTableRecord
100
AcDbLayerTableRecord
  2
Default
 70
     0
 62
     7
  6
Continuous
370
    -3
390
F
  0
LAYER
  5
6D
330
2
100
AcDbSymbolTableRecord
100
AcDbLayerTableRecord
  2
T14080042__HE_RO
 70
     0
 62
     7
  6
Continuous
370
    -3
390
F
  0
LAYER
  5
7F
330
2
100
AcDbSymbolTableRecord
100
AcDbLayerTableRecord
  2
11185038__LAVATO
 70
     0
 62
     7
  6
Continuous
370
    -3
390
F
  0
LAYER
  5
87
330
2
100
AcDbSymbolTableRecord
100
AcDbLayerTableRecord
  2
15799038_BASE_BA
 70
     0
 62
     7
  6
Continuous
370
    -3
390
F
  0
LAYER
  5
B0
330
2
100
AcDbSymbolTableRecord
100
AcDbLayerTableRecord
  2
T14080038__HE_WT
 70
     0
 62
     7
  6
Continuous
370
    -3
390
F
  0
LAYER
  5
D1
330
2
100
AcDbSymbolTableRecord
100
AcDbLayerTableRecord
  2
$DDT_AUDIT_GENERATED_(D1)
 70
     0
 62
     7
  6
Continuous
370
    -3
390
F
  0
LAYER
  5
10C
330
2
100
AcDbSymbolTableRecord
100
AcDbLayerTableRecord
  2
4221035_0__HUELS
 70
     0
 62
     7
  6
Continuous
370
    -3
390
F
  0
LAYER
  5
116
330
2
100
AcDbSymbolTableRecord
100
AcDbLayerTableRecord
  2
4221039_0__SIEB_
 70
     0
 62
     7
  6
Continuous
370
    -3
390
F
  0
LAYER
  5
1EE
330
2
100
AcDbSymbolTableRecord
100
AcDbLayerTableRecord
  2
14080043_LIFT_RO
 70
     0
 62
     7
  6
Continuous
370
    -3
390
F
  0
LAYER
  5
205
330
2
100
AcDbSymbolTableRecord
100
AcDbLayerTableRecord
  2
T14080006__MP_HE
 70
     0
 62
     7
  6
Continuous
370
    -3
390
F
  0
LAYER
  5
217
330
2
100
AcDbSymbolTableRecord
100
AcDbLayerTableRecord
  2
14080049_HE_CROS
 70
     0
 62
     7
  6
Continuous
370
    -3
390
F
  0
LAYER
  5
223
330
2
100
AcDbSymbolTableRecord
100
AcDbLayerTableRecord
  2
12080006_MP_HE_P
 70
     0
 62
     7
  6
Continuous
370
    -3
390
F
  0
LAYER
  5
2F5
330
2
100
AcDbSymbolTableRecord
100
AcDbLayerTableRecord
  2
$DDT_AUDIT_GENERATED_(2F5)
 70
     0
 62
     7
  6
Continuous
370
    -3
390
F
  0
LAYER
  5
308
330
2
100
AcDbSymbolTableRecord
100
AcDbLayerTableRecord
  2
NO_DOC_NO_010416
 70
     0
 62
     7
  6
Continuous
370
    -3
390
F
  0
ENDTAB
  0
TABLE
  2
STYLE
  5
3
330
0
100
AcDbSymbolTable
 70
     2
  0
STYLE
  5
11
330
3
100
AcDbSymbolTableRecord
100
AcDbTextStyleTableRecord
  2
Standard
 70
     0
 40
0.0
 41
1.0
 50
0.0
 71
     0
 42
2.5
  3
txt
  4

  0
STYLE
  5
36D
330
3
100
AcDbSymbolTableRecord
100
AcDbTextStyleTableRecord
  2
SEACAD_seiso_ttf
 70
     0
 40
0.0
 41
1.0
 50
0.0
 71
     0
 42
0.2
  3
seiso.ttf
  4

  0
ENDTAB
  0
TABLE
  2
VIEW
  5
6
330
0
100
AcDbSymbolTable
 70
     0
  0
ENDTAB
  0
TABLE
  2
UCS
  5
7
330
0
100
AcDbSymbolTable
 70
     0
  0
ENDTAB
  0
TABLE
  2
APPID
  5
9
330
0
100
AcDbSymbolTable
 70
     1
  0
APPID
  5
12
330
9
100
AcDbSymbolTableRecord
100
AcDbRegAppTableRecord
  2
ACAD
 70
     0
  0
ENDTAB
  0
TABLE
  2
DIMSTYLE
  5
A
330
0
100
AcDbSymbolTable
 70
     1
100
AcDbDimStyleTable
  0
DIMSTYLE
105
27
330
A
100
AcDbSymbolTableRecord
100
AcDbDimStyleTableRecord
  2
ISO-25
 70
     0
 41
2.5
 42
0.625
 43
3.75
 44
1.25
 73
     0
 74
     0
 77
     1
 78
     8
140
2.5
141
2.5
143
0.0393700787
147
0.625
171
     3
172
     1
271
     2
272
     2
274
     3
278
    44
283
     0
284
     8
340
11
  0
ENDTAB
  0
TABLE
  2
BLOCK_RECORD
  5
1
330
0
100
AcDbSymbolTable
 70
     4
  0
BLOCK_RECORD
  5
1F
330
1
100
AcDbSymbolTableRecord
100
AcDbBlockTableRecord
  2
*Model_Space
340
22
  0
BLOCK_RECORD
  5
1B
330
1
100
AcDbSymbolTableRecord
100
AcDbBlockTableRecord
  2
*Paper_Space
340
1E
  0
BLOCK_RECORD
  5
6B
330
1
100
AcDbSymbolTableRecord
100
AcDbBlockTableRecord
  2
SE
340
0
102
{BLKREFS
331
6C
102
}
  0
BLOCK_RECORD
  5
1CF
330
1
100
AcDbSymbolTableRecord
100
AcDbBlockTableRecord
  2
SE1
340
0
102
{BLKREFS
331
1D0
102
}
  0
BLOCK_RECORD
  5
279
330
1
100
AcDbSymbolTableRecord
100
AcDbBlockTableRecord
  2
SE2
340
0
102
{BLKREFS
331
27A
102
}
  0
ENDTAB
  0
ENDSEC
  0
SECTION
  2
BLOCKS
  0
BLOCK
  5
20
330
1F
100
AcDbEntity
  8
0
100
AcDbBlockBegin
  2
*Model_Space
 70
     0
 10
0.0
 20
0.0
 30
0.0
  3
*Model_Space
  1

  0
ENDBLK
  5
21
330
1F
100
AcDbEntity
  8
0
100
AcDbBlockEnd
  0
BLOCK
  5
1C
330
1B
100
AcDbEntity
 67
     1
  8
0
100
AcDbBlockBegin
  2
*Paper_Space
 70
     0
 10
0.0
 20
0.0
 30
0.0
  3
*Paper_Space
  1

  0
ENDBLK
  5
1D
330
1B
100
AcDbEntity
 67
     1
  8
0
100
AcDbBlockEnd
  0
BLOCK
  5
1CD
330
6B
100
AcDbEntity
  8
0
100
AcDbBlockBegin
  2
SE
 70
     0
 10
0.0
 20
0.0
 30
0.0
  3
SE
  1

  0
LINE
  5
6E
330
6B
100
AcDbEntity
  8
T14080042__HE_RO
  6
Continuous
 62
     7
100
AcDbLine
 10
199.5753125325
 20
508.9549712165
 30
0.0
 11
130.3753125325
 21
508.9549712165
 31
0.0
  0
LINE
  5
6F
330
6B
100
AcDbEntity
  8
T14080042__HE_RO
  6
Continuous
 62
     7
100
AcDbLine
 10
202.6253125325
 20
504.4549712165
 30
0.0
 11
127.3253125325
 21
504.4549712165
 31
0.0
  0
LINE
  5
70
330
6B
100
AcDbEntity
  8
T14080042__HE_RO
  6
Continuous
 62
     7
100
AcDbLine
 10
203.1253125325
 20
501.8549712165
 30
0.0
 11
126.8253125325
 21
501.8549712165
 31
0.0
  0
LINE
  5
71
330
6B
100
AcDbEntity
  8
T14080042__HE_RO
  6
Continuous
 62
     7
100
AcDbLine
 10
196.9753125325
 20
510.8549712165
 30
0.0
 11
132.9753125325
 21
510.8549712165
 31
0.0
  0
LINE
  5
72
330
6B
100
AcDbEntity
  8
T14080042__HE_RO
  6
Continuous
 62
     7
100
AcDbLine
 10
200.3049261982
 20
506.3479653079
 30
0.0
 11
129.6456988669
 21
506.3479653079
 31
0.0
  0
ARC
  5
73
330
6B
100
AcDbEntity
  8
T14080042__HE_RO
  6
Continuous
 62
     7
100
AcDbCircle
 10
198.9073348165
 20
507.5010779017
 30
0.0
 40
1.600000000000045
100
AcDbArc
 50
336.778605052
 51
65.3240258272
  0
ARC
  5
74
330
6B
100
AcDbEntity
  8
T14080042__HE_RO
  6
Continuous
 62
     7
100
AcDbCircle
 10
131.0432902486
 20
507.5010779017
 30
0.0
 40
1.600000000000003
100
AcDbArc
 50
114.6759741728
 51
203.221394948
  0
ARC
  5
75
330
6B
100
AcDbEntity
  8
T14080042__HE_RO
  6
Continuous
 62
     7
100
AcDbCircle
 10
205.9729868393
 20
511.7208556593
 30
0.0
 40
8.000000000000002
100
AcDbArc
 50
228.0149459115
 51
245.2626459224
  0
ARC
  5
76
330
6B
100
AcDbEntity
  8
T14080042__HE_RO
  6
Continuous
 62
     7
100
AcDbCircle
 10
123.9776382257
 20
511.7208556593
 30
0.0
 40
7.999999999999995
100
AcDbArc
 50
294.7373540776
 51
311.9850540885
  0
ARC
  5
77
330
6B
100
AcDbEntity
  8
T14080042__HE_RO
  6
Continuous
 62
     7
100
AcDbCircle
 10
201.9928716821
 20
502.985271053
 30
0.0
 40
1.599999999999995
100
AcDbArc
 50
315.0542134714
 51
66.7168406379
  0
ARC
  5
78
330
6B
100
AcDbEntity
  8
T14080042__HE_RO
  6
Continuous
 62
     7
100
AcDbCircle
 10
127.957753383
 20
502.985271053
 30
0.0
 40
1.599999999999996
100
AcDbArc
 50
113.2831593621
 51
224.9457865286
  0
ARC
  5
79
330
6B
100
AcDbEntity
  8
T14080042__HE_RO
  6
Continuous
 62
     7
100
AcDbCircle
 10
202.8988558539
 20
516.2319252353
 30
0.0
 40
8.000000000000002
100
AcDbArc
 50
222.2308411764
 51
245.452787944
  0
ARC
  5
7A
330
6B
100
AcDbEntity
  8
T14080042__HE_RO
  6
Continuous
 62
     7
100
AcDbCircle
 10
127.0517692111
 20
516.2319252353
 30
0.0
 40
7.999999999999996
100
AcDbArc
 50
294.547212056
 51
317.7691588236
  0
ARC
  5
7B
330
6B
100
AcDbEntity
  8
T14080042__HE_RO
  6
Continuous
 62
     7
100
AcDbCircle
 10
201.2967040648
 20
506.4759366455
 30
0.0
 40
1.000000000000002
100
AcDbArc
 50
156.7786050521
 51
187.3523793599
  0
ARC
  5
7C
330
6B
100
AcDbEntity
  8
T14080042__HE_RO
  6
Continuous
 62
     7
100
AcDbCircle
 10
128.6539210003
 20
506.4759366455
 30
0.0
 40
0.9999999999999577
100
AcDbArc
 50
352.6476206401
 51
23.2213949479
  0
ARC
  5
7D
330
6B
100
AcDbEntity
  8
T14080042__HE_RO
  6
Continuous
 62
     7
100
AcDbCircle
 10
201.2904297274
 20
506.5176202338
 30
0.0
 40
0.9999999999999966
100
AcDbArc
 50
189.7677563329
 51
228.0149459115
  0
ARC
  5
7E
330
6B
100
AcDbEntity
  8
T14080042__HE_RO
  6
Continuous
 62
     7
100
AcDbCircle
 10
128.6601953377
 20
506.5176202338
 30
0.0
 40
1.000000000000002
100
AcDbArc
 50
311.9850540885
 51
350.2322436671
  0
ELLIPSE
  5
80
330
6B
100
AcDbEntity
  8
11185038__LAVATO
  6
Continuous
 62
     7
100
AcDbEllipse
 10
164.9753125325
 20
619.8942212165
 30
0.0
 11
15.00001219741176
 21
0.0
 31
0.0
210
0.0
220
0.0
230
1.0
 40
0.4703762842
 41
1.570796326794897
 42
3.108677103091821
  0
ELLIPSE
  5
81
330
6B
100
AcDbEntity
  8
11185038__LAVATO
  6
Continuous
 62
     7
100
AcDbEllipse
 10
164.9753125325
 20
619.8942212165
 30
0.0
 11
-15.00001219741175
 21
-1.387778780781446E-14
 31
0.0
210
0.0
220
0.0
230
1.0
 40
0.4703762842
 41
3.174508204087633
 42
4.712388980384685
  0
SPLINE
  5
82
330
6B
100
AcDbEntity
  8
11185038__LAVATO
  6
Continuous
 62
     7
100
AcDbSpline
210
0.0
220
0.0
230
1.0
 70
     8
 71
     3
 72
    86
 73
    82
 74
     0
 42
0.0000000000309219
 43
0.0000000001
 40
0.0
 40
0.0
 40
0.0
 40
0.0
 40
0.0217419087148338
 40
0.0468943396857161
 40
0.0716753257021039
 40
0.0958322458025971
 40
0.1190621458085945
 40
0.1408643298380727
 40
0.1616584255263739
 40
0.181428393808643
 40
0.2001586171030283
 40
0.2201800689856774
 40
0.2388617719589192
 40
0.256237231750765
 40
0.2722929896550777
 40
0.2869681837872614
 40
0.3005005009624589
 40
0.3130523636021913
 40
0.3246371402634766
 40
0.3352747586776382
 40
0.3450062484830242
 40
0.3538270810199269
 40
0.3617874365735519
 40
0.3688567171446894
 40
0.3772258091573528
 40
0.3869034941940129
 40
0.3979004140820882
 40
0.4096322223186235
 40
0.4234260000075726
 40
0.4361313109748668
 40
0.4420654904113806
 40
0.4476364360739284
 40
0.4527515807825532
 40
0.4575907790660663
 40
0.4623704875393843
 40
0.4673135349561119
 40
0.4725895351087567
 40
0.4782292609360332
 40
0.4842655837260371
 40
0.4907285768578111
 40
0.4974472771662558
 40
0.5037673179152407
 40
0.5096428629402862
 40
0.5151986525295338
 40
0.5207238034202537
 40
0.5261038795472205
 40
0.5308214124126244
 40
0.5348552009562952
 40
0.5383974393856599
 40
0.5421642359047766
 40
0.5470049855499917
 40
0.5527212319993378
 40
0.5593504115366258
 40
0.566367280766446
 40
0.5779970758846987
 40
0.5903388686216965
 40
0.6020999072430517
 40
0.6130968271311272
 40
0.6227745121677877
 40
0.6311436041804511
 40
0.6382128847515889
 40
0.6461732403052138
 40
0.6549940728421167
 40
0.6647255626475027
 40
0.6753631810616643
 40
0.6869479577229498
 40
0.6994998203626822
 40
0.7130321375378798
 40
0.7277073316700635
 40
0.743763089574376
 40
0.7611385493662217
 40
0.7798202523394636
 40
0.7998417042221126
 40
0.8189220689019815
 40
0.8390802988372423
 40
0.8602991140335416
 40
0.8825627748139073
 40
0.9058668277141354
 40
0.9377031695963647
 40
0.9704481917937249
 40
1.0
 40
1.0
 40
1.0
 40
1.0
 10
198.0553233510607
 20
512.618115783383
 30
0.0
 10
197.5344930497421
 20
515.6304103522485
 30
0.0
 10
196.5879737353836
 20
521.1171890124253
 30
0.0
 10
195.0783148964983
 20
530.3829007167533
 30
0.0
 10
193.6081730881317
 20
539.7353641185963
 30
0.0
 10
192.2154495343031
 20
548.928853765076
 30
0.0
 10
190.9141768283118
 20
557.7277253775756
 30
0.0
 10
189.7057022267427
 20
566.0711020349722
 30
0.0
 10
188.5936668606169
 20
573.9223081429574
 30
0.0
 10
187.5690005167335
 20
581.3305088445424
 30
0.0
 10
186.5909037710391
 20
588.5922750978851
 30
0.0
 10
185.6674533416965
 20
595.6553149036093
 30
0.0
 10
184.804357184424
 20
602.4898257722406
 30
0.0
 10
184.0407815896268
 20
608.7363653573252
 30
0.0
 10
183.3710169880011
 20
614.4044291924858
 30
0.0
 10
182.7822538223328
 20
619.4439558479497
 30
0.0
 10
182.2658632859423
 20
623.9231131347947
 30
0.0
 10
181.8119069424644
 20
627.9076446922168
 30
0.0
 10
181.4139865781496
 20
631.4405977409347
 30
0.0
 10
181.0670514874271
 20
634.5569299947838
 30
0.0
 10
180.7682289148784
 20
637.2158550404916
 30
0.0
 10
180.5114497636175
 20
639.4762322175113
 30
0.0
 10
180.2933340032823
 20
641.3689310283868
 30
0.0
 10
180.0875487208871
 20
643.1243298494929
 30
0.0
 10
179.8763338059958
 20
644.8861708241864
 30
0.0
 10
179.6461815420745
 20
646.7423740447022
 30
0.0
 10
179.4088390259028
 20
648.5651284348104
 30
0.0
 10
179.1627488981879
 20
650.3106836190537
 30
0.0
 10
178.8996263501429
 20
652.0153413180466
 30
0.0
 10
178.6443824383904
 20
653.385683234436
 30
0.0
 10
178.4099044375806
 20
654.3910422431971
 30
0.0
 10
178.212901644223
 20
655.1198040463308
 30
0.0
 10
177.8937970113797
 20
656.0810836819833
 30
0.0
 10
177.4122002348195
 20
657.2261203247999
 30
0.0
 10
176.7014874828104
 20
658.5443976874967
 30
0.0
 10
175.6893812016288
 20
659.9852157474415
 30
0.0
 10
174.3510186213681
 20
661.4266323696658
 30
0.0
 10
172.6822348101625
 20
662.7597221451446
 30
0.0
 10
170.6594298281118
 20
663.8992809307036
 30
0.0
 10
168.3201043383306
 20
664.7216665380122
 30
0.0
 10
165.8251706755103
 20
665.1052213827026
 30
0.0
 10
163.3799398038202
 20
665.0290390346764
 30
0.0
 10
161.1340841576812
 20
664.5671969299719
 30
0.0
 10
159.0930710198106
 20
663.7911607973308
 30
0.0
 10
157.2582360765738
 20
662.7452422037529
 30
0.0
 10
155.6927219473166
 20
661.5053345069371
 30
0.0
 10
154.4633855291047
 20
660.2154285305611
 30
0.0
 10
153.5564464146735
 20
659.0068936948417
 30
0.0
 10
152.8708537702005
 20
657.8706247674878
 30
0.0
 10
152.3672763049356
 20
656.8452275139919
 30
0.0
 10
151.9879659669066
 20
655.8933980860191
 30
0.0
 10
151.7060294886047
 20
655.014784086619
 30
0.0
 10
151.499536297596
 20
654.2286210914501
 30
0.0
 10
151.2634183579335
 20
653.1684317989578
 30
0.0
 10
151.026214815626
 20
651.8539720027377
 30
0.0
 10
150.7783951326473
 20
650.2441207008773
 30
0.0
 10
150.5420202080126
 20
648.5667300676432
 30
0.0
 10
150.3044389635847
 20
646.7423836868273
 30
0.0
 10
150.0742922466207
 20
644.8861687357141
 30
0.0
 10
149.8630761396515
 20
643.1243302820031
 30
0.0
 10
149.6572911196612
 20
641.3689309059694
 30
0.0
 10
149.4391752832562
 20
639.4762322559593
 30
0.0
 10
149.1823961558286
 20
637.21585502856
 30
0.0
 10
148.8835735758877
 20
634.5569299983867
 30
0.0
 10
148.5366384874642
 20
631.4405977400951
 30
0.0
 10
148.1387181223087
 20
627.9076446913771
 30
0.0
 10
147.6847617796797
 20
623.9231131396444
 30
0.0
 10
147.1683712405382
 20
619.4439558272287
 30
0.0
 10
146.5796080862551
 20
614.4044292803867
 30
0.0
 10
145.909843436287
 20
608.7363649831378
 30
0.0
 10
145.1462680446938
 20
602.4898273406716
 30
0.0
 10
144.2831710413907
 20
595.6553083839615
 30
0.0
 10
143.3540941846076
 20
588.5492411094259
 30
0.0
 10
142.3633039153035
 20
581.195136523321
 30
0.0
 10
141.3176376343658
 20
573.6406251947526
 30
0.0
 10
140.1811729135061
 20
565.6248875311015
 30
0.0
 10
138.9532982830047
 20
557.1606584912854
 30
0.0
 10
137.493470841438
 20
547.2992878299192
 30
0.0
 10
135.7966086530659
 20
536.1865598438296
 30
0.0
 10
133.849888425374
 20
524.0023167121201
 30
0.0
 10
132.5987800097607
 20
516.7137708609519
 30
0.0
 10
131.8936615573953
 20
512.6179632205681
 30
0.0
  0
SPLINE
  5
83
330
6B
100
AcDbEntity
  8
11185038__LAVATO
  6
Continuous
 62
     7
100
AcDbSpline
210
0.0
220
0.0
230
1.0
 70
     8
 71
     3
 72
    24
 73
    20
 74
     0
 42
0.0000000001132925
 43
0.0000000001
 40
0.0
 40
0.0
 40
0.0
 40
0.0
 40
0.0333288824458863
 40
0.0646818581165257
 40
0.0940524568139006
 40
0.1214348027930584
 40
0.1468240222579131
 40
0.1702159039167613
 40
0.1916071031863233
 40
0.2109908848496722
 40
0.2336518855319426
 40
0.2527620675641831
 40
0.2683230431107735
 40
0.2816764903380091
 40
0.2952561272185148
 40
0.3091018246405461
 40
0.323203434529751
 40
0.3375516257780877
 40
0.3422819235993584
 40
0.3422819235993584
 40
0.3422819235993584
 40
0.3422819235993584
 10
179.9725721367354
 20
620.029207991535
 30
0.0
 10
179.8990856028474
 20
621.8180739483665
 30
0.0
 10
179.7790174533757
 20
624.7347754960606
 30
0.0
 10
179.5905049713693
 20
629.0834833818645
 30
0.0
 10
179.4243634520714
 20
632.797252250431
 30
0.0
 10
179.2762442886038
 20
636.0185889570384
 30
0.0
 10
179.1478401522071
 20
638.7527807572421
 30
0.0
 10
179.0384330676484
 20
641.0461985362675
 30
0.0
 10
178.94711066895
 20
642.9421233652516
 30
0.0
 10
178.8657565915302
 20
644.6237658720082
 30
0.0
 10
178.7967393510575
 20
646.0600525850275
 30
0.0
 10
178.7424349725914
 20
647.2496780979833
 30
0.0
 10
178.7046890625179
 20
648.1317112443089
 30
0.0
 10
178.678023900819
 20
648.8065166408763
 30
0.0
 10
178.6591987846811
 20
649.3298488706092
 30
0.0
 10
178.6458873979628
 20
649.7452710842048
 30
0.0
 10
178.6372959454601
 20
650.0376269987315
 30
0.0
 10
178.6330291315261
 20
650.1878207754769
 30
0.0
 10
178.631219634036
 20
650.2105168052943
 30
0.0
 10
178.6305591165582
 20
650.2098664383444
 30
0.0
  0
SPLINE
  5
84
330
6B
100
AcDbEntity
  8
11185038__LAVATO
  6
Continuous
 62
     7
100
AcDbSpline
210
0.0
220
0.0
230
1.0
 70
     8
 71
     3
 72
    24
 73
    20
 74
     0
 42
0.0000000001132452
 43
0.0000000001
 40
0.6579005193275975
 40
0.6579005193275975
 40
0.6579005193275975
 40
0.6579005193275975
 40
0.6624515700240009
 40
0.6767983564495709
 40
0.6908987427902554
 40
0.7047434455468095
 40
0.7183223587279952
 40
0.7316753751290578
 40
0.7472360487608863
 40
0.7663460697698478
 40
0.7890070901050581
 40
0.808390991233089
 40
0.8297823837949356
 40
0.8531745248111667
 40
0.8785640537317131
 40
0.9059467350835698
 40
0.9353176631585494
 40
0.9666709232547686
 40
1.0
 40
1.0
 40
1.0
 40
1.0
 10
151.3200994755472
 20
650.2047001819881
 30
0.0
 10
151.3194400226385
 20
650.2062480840656
 30
0.0
 10
151.3175726122518
 20
650.1875937645327
 30
0.0
 10
151.3133501361812
 20
650.0332289186226
 30
0.0
 10
151.3046823253855
 20
649.7417326724598
 30
0.0
 10
151.2913308861622
 20
649.3259028054372
 30
0.0
 10
151.272486952755
 20
648.8030743399485
 30
0.0
 10
151.2458496342119
 20
648.1293685860054
 30
0.0
 10
151.2081376597347
 20
647.2483413362598
 30
0.0
 10
151.1538603971523
 20
646.0594387906714
 30
0.0
 10
151.0848643238363
 20
644.6236702948298
 30
0.0
 10
151.0035246253839
 20
642.9423648725723
 30
0.0
 10
150.9122113299888
 20
641.0466470269487
 30
0.0
 10
150.8028091010795
 20
638.7533370178884
 30
0.0
 10
150.6744057525495
 20
636.0191616033734
 30
0.0
 10
150.526283689395
 20
632.7977599415999
 30
0.0
 10
150.3601363639223
 20
629.0838613549482
 30
0.0
 10
150.1716158763485
 20
624.7349731739708
 30
0.0
 10
150.0515425115514
 20
621.81814680837
 30
0.0
 10
149.9780529283219
 20
620.0292079915354
 30
0.0
  0
ARC
  5
85
330
6B
100
AcDbEntity
  8
11185038__LAVATO
  6
Continuous
 62
     7
100
AcDbCircle
 10
196.573713113
 20
512.354971594
 30
0.0
 40
1.499998860934852
100
AcDbArc
 50
269.9983644192
 51
10.0614276115
  0
ARC
  5
86
330
6B
100
AcDbEntity
  8
11185038__LAVATO
  6
Continuous
 62
     7
100
AcDbCircle
 10
133.3769109046
 20
512.3549715758
 30
0.0
 40
1.499998916599028
100
AcDbArc
 50
169.9285919792
 51
270.0015553832
  0
LINE
  5
88
330
6B
100
AcDbEntity
  8
15799038_BASE_BA
  6
Continuous
 62
     7
100
AcDbLine
 10
294.4253125325
 20
501.8549712165
 30
0.0
 11
235.5253125325
 21
501.8549712165
 31
0.0
  0
LINE
  5
89
330
6B
100
AcDbEntity
  8
15799038_BASE_BA
  6
Continuous
 62
     7
100
AcDbLine
 10
253.6882886107
 20
543.1549712165
 30
0.0
 11
276.2623364543
 21
543.1549712165
 31
0.0
  0
ARC
  5
8A
330
6B
100
AcDbEntity
  8
15799038_BASE_BA
  6
Continuous
 62
     7
100
AcDbCircle
 10
293.1753125325
 20
502.8537204343
 30
0.0
 40
1.600000000000003
100
AcDbArc
 50
321.3751671269
 51
61.7231465066
  0
ARC
  5
8B
330
6B
100
AcDbEntity
  8
15799038_BASE_BA
  6
Continuous
 62
     7
100
AcDbCircle
 10
236.7753125325
 20
502.8537204343
 30
0.0
 40
1.59999999999999
100
AcDbArc
 50
118.2768534934
 51
218.6248328731
  0
ARC
  5
8C
330
6B
100
AcDbEntity
  8
15799038_BASE_BA
  6
Continuous
 62
     7
100
AcDbCircle
 10
297.7231442705
 20
511.3081409634
 30
0.0
 40
8.000000000000007
100
AcDbArc
 50
219.3277777595
 51
241.7231465066
  0
ARC
  5
8D
330
6B
100
AcDbEntity
  8
15799038_BASE_BA
  6
Continuous
 62
     7
100
AcDbCircle
 10
232.2274807945
 20
511.3081409634
 30
0.0
 40
7.999999999999991
100
AcDbArc
 50
298.2768534934
 51
320.6722222405
  0
ARC
  5
8E
330
6B
100
AcDbEntity
  8
15799038_BASE_BA
  6
Continuous
 62
     7
100
AcDbCircle
 10
291.9216464159
 20
506.5549712165
 30
0.0
 40
0.4999999999999925
100
AcDbArc
 50
154.5574012529
 51
219.3277777595
  0
ARC
  5
8F
330
6B
100
AcDbEntity
  8
15799038_BASE_BA
  6
Continuous
 62
     7
100
AcDbCircle
 10
238.0289786492
 20
506.5549712165
 30
0.0
 40
0.5000000000000007
100
AcDbArc
 50
320.6722222405
 51
25.442598747
  0
ARC
  5
90
330
6B
100
AcDbEntity
  8
15799038_BASE_BA
  6
Continuous
 62
     7
100
AcDbCircle
 10
290.0253125325
 20
507.4571451481
 30
0.0
 40
1.600000000000009
100
AcDbArc
 50
334.557401253
 51
65.6517944674
  0
ARC
  5
91
330
6B
100
AcDbEntity
  8
15799038_BASE_BA
  6
Continuous
 62
     7
100
AcDbCircle
 10
239.9253125325
 20
507.4571451481
 30
0.0
 40
1.600000000000002
100
AcDbArc
 50
114.3482055326
 51
205.442598747
  0
ARC
  5
92
330
6B
100
AcDbEntity
  8
15799038_BASE_BA
  6
Continuous
 62
     7
100
AcDbCircle
 10
293.9832103024
 20
516.2032897412
 30
0.0
 40
7.999999999999998
100
AcDbArc
 50
225.4884496017
 51
245.6517944674
  0
ARC
  5
93
330
6B
100
AcDbEntity
  8
15799038_BASE_BA
  6
Continuous
 62
     7
100
AcDbCircle
 10
235.9674147626
 20
516.2032897412
 30
0.0
 40
7.999999999999993
100
AcDbArc
 50
294.3482055326
 51
314.5115503983
  0
ARC
  5
94
330
6B
100
AcDbEntity
  8
15799038_BASE_BA
  6
Continuous
 62
     7
100
AcDbCircle
 10
288.7253125325
 20
510.8549712165
 30
0.0
 40
0.4999999999999986
100
AcDbArc
 50
127.8529027323
 51
225.4884496017
  0
ARC
  5
95
330
6B
100
AcDbEntity
  8
15799038_BASE_BA
  6
Continuous
 62
     7
100
AcDbCircle
 10
241.2253125325
 20
510.8549712165
 30
0.0
 40
0.4999999999999968
100
AcDbArc
 50
314.5115503983
 51
52.1470972677
  0
ARC
  5
96
330
6B
100
AcDbEntity
  8
15799038_BASE_BA
  6
Continuous
 62
     7
100
AcDbCircle
 10
287.3753125325
 20
512.5920664931
 30
0.0
 40
1.700000000000002
100
AcDbArc
 50
307.8529027323
 51
30.347716353
  0
ARC
  5
97
330
6B
100
AcDbEntity
  8
15799038_BASE_BA
  6
Continuous
 62
     7
100
AcDbCircle
 10
242.5753125325
 20
512.5920664931
 30
0.0
 40
1.700000000000004
100
AcDbArc
 50
149.652283647
 51
232.1470972677
  0
ARC
  5
98
330
6B
100
AcDbEntity
  8
15799038_BASE_BA
  6
Continuous
 62
     7
100
AcDbCircle
 10
387.9982064957
 20
571.5038073474
 30
0.0
 40
114.9
100
AcDbArc
 50
194.4769153778
 51
210.347716353
  0
ARC
  5
99
330
6B
100
AcDbEntity
  8
15799038_BASE_BA
  6
Continuous
 62
     7
100
AcDbCircle
 10
141.9524185694
 20
571.5038073474
 30
0.0
 40
114.9
100
AcDbArc
 50
329.652283647
 51
345.5230846222
  0
ARC
  5
9A
330
6B
100
AcDbEntity
  8
15799038_BASE_BA
  6
Continuous
 62
     7
100
AcDbCircle
 10
253.6882886107
 20
542.6549712165
 30
0.0
 40
0.5000000000000004
100
AcDbArc
 50
90.0
 51
165.5230846222
  0
ARC
  5
9B
330
6B
100
AcDbEntity
  8
15799038_BASE_BA
  6
Continuous
 62
     7
100
AcDbCircle
 10
276.2623364543
 20
542.6549712165
 30
0.0
 40
0.4999999999999993
100
AcDbArc
 50
14.4769153778
 51
90.0
  0
LINE
  5
9C
330
6B
100
AcDbEntity
  8
15799038_BASE_BA
  6
Continuous
 62
     7
100
AcDbLine
 10
94.4253125325
 20
501.8549712165
 30
0.0
 11
35.5253125325
 21
501.8549712165
 31
0.0
  0
LINE
  5
9D
330
6B
100
AcDbEntity
  8
15799038_BASE_BA
  6
Continuous
 62
     7
100
AcDbLine
 10
53.6882886107
 20
543.1549712165
 30
0.0
 11
76.2623364543
 21
543.1549712165
 31
0.0
  0
ARC
  5
9E
330
6B
100
AcDbEntity
  8
15799038_BASE_BA
  6
Continuous
 62
     7
100
AcDbCircle
 10
93.1753125325
 20
502.8537204343
 30
0.0
 40
1.599999999999992
100
AcDbArc
 50
321.3751671269
 51
61.7231465066
  0
ARC
  5
9F
330
6B
100
AcDbEntity
  8
15799038_BASE_BA
  6
Continuous
 62
     7
100
AcDbCircle
 10
36.7753125325
 20
502.8537204343
 30
0.0
 40
1.600000000000003
100
AcDbArc
 50
118.2768534934
 51
218.6248328731
  0
ARC
  5
A0
330
6B
100
AcDbEntity
  8
15799038_BASE_BA
  6
Continuous
 62
     7
100
AcDbCircle
 10
97.7231442705
 20
511.3081409634
 30
0.0
 40
8.0
100
AcDbArc
 50
219.3277777595
 51
241.7231465066
  0
ARC
  5
A1
330
6B
100
AcDbEntity
  8
15799038_BASE_BA
  6
Continuous
 62
     7
100
AcDbCircle
 10
32.2274807945
 20
511.3081409634
 30
0.0
 40
8.000000000000004
100
AcDbArc
 50
298.2768534934
 51
320.6722222405
  0
ARC
  5
A2
330
6B
100
AcDbEntity
  8
15799038_BASE_BA
  6
Continuous
 62
     7
100
AcDbCircle
 10
91.9216464159
 20
506.5549712165
 30
0.0
 40
0.5000000000000032
100
AcDbArc
 50
154.557401253
 51
219.3277777595
  0
ARC
  5
A3
330
6B
100
AcDbEntity
  8
15799038_BASE_BA
  6
Continuous
 62
     7
100
AcDbCircle
 10
38.0289786492
 20
506.5549712165
 30
0.0
 40
0.5000000000000007
100
AcDbArc
 50
320.6722222405
 51
25.442598747
  0
ARC
  5
A4
330
6B
100
AcDbEntity
  8
15799038_BASE_BA
  6
Continuous
 62
     7
100
AcDbCircle
 10
90.0253125325
 20
507.4571451481
 30
0.0
 40
1.599999999999996
100
AcDbArc
 50
334.557401253
 51
65.6517944674
  0
ARC
  5
A5
330
6B
100
AcDbEntity
  8
15799038_BASE_BA
  6
Continuous
 62
     7
100
AcDbCircle
 10
39.9253125325
 20
507.4571451481
 30
0.0
 40
1.599999999999994
100
AcDbArc
 50
114.3482055326
 51
205.442598747
  0
ARC
  5
A6
330
6B
100
AcDbEntity
  8
15799038_BASE_BA
  6
Continuous
 62
     7
100
AcDbCircle
 10
93.9832103024
 20
516.2032897412
 30
0.0
 40
8.000000000000005
100
AcDbArc
 50
225.4884496017
 51
245.6517944674
  0
ARC
  5
A7
330
6B
100
AcDbEntity
  8
15799038_BASE_BA
  6
Continuous
 62
     7
100
AcDbCircle
 10
35.9674147626
 20
516.2032897412
 30
0.0
 40
8.000000000000014
100
AcDbArc
 50
294.3482055326
 51
314.5115503983
  0
ARC
  5
A8
330
6B
100
AcDbEntity
  8
15799038_BASE_BA
  6
Continuous
 62
     7
100
AcDbCircle
 10
88.7253125325
 20
510.8549712165
 30
0.0
 40
0.5000000000000071
100
AcDbArc
 50
127.8529027323
 51
225.4884496017
  0
ARC
  5
A9
330
6B
100
AcDbEntity
  8
15799038_BASE_BA
  6
Continuous
 62
     7
100
AcDbCircle
 10
41.2253125325
 20
510.8549712165
 30
0.0
 40
0.5000000000000039
100
AcDbArc
 50
314.5115503983
 51
52.1470972677
  0
ARC
  5
AA
330
6B
100
AcDbEntity
  8
15799038_BASE_BA
  6
Continuous
 62
     7
100
AcDbCircle
 10
87.3753125325
 20
512.5920664931
 30
0.0
 40
1.700000000000002
100
AcDbArc
 50
307.8529027323
 51
30.347716353
  0
ARC
  5
AB
330
6B
100
AcDbEntity
  8
15799038_BASE_BA
  6
Continuous
 62
     7
100
AcDbCircle
 10
42.5753125325
 20
512.5920664931
 30
0.0
 40
1.699999999999992
100
AcDbArc
 50
149.652283647
 51
232.1470972677
  0
ARC
  5
AC
330
6B
100
AcDbEntity
  8
15799038_BASE_BA
  6
Continuous
 62
     7
100
AcDbCircle
 10
187.9982064957
 20
571.5038073474
 30
0.0
 40
114.9
100
AcDbArc
 50
194.4769153778
 51
210.347716353
  0
ARC
  5
AD
330
6B
100
AcDbEntity
  8
15799038_BASE_BA
  6
Continuous
 62
     7
100
AcDbCircle
 10
-58.0475814306
 20
571.5038073474
 30
0.0
 40
114.9
100
AcDbArc
 50
329.652283647
 51
345.5230846222
  0
ARC
  5
AE
330
6B
100
AcDbEntity
  8
15799038_BASE_BA
  6
Continuous
 62
     7
100
AcDbCircle
 10
53.6882886107
 20
542.6549712165
 30
0.0
 40
0.5000000000000004
100
AcDbArc
 50
90.0
 51
165.5230846222
  0
ARC
  5
AF
330
6B
100
AcDbEntity
  8
15799038_BASE_BA
  6
Continuous
 62
     7
100
AcDbCircle
 10
76.2623364543
 20
542.6549712165
 30
0.0
 40
0.4999999999999993
100
AcDbArc
 50
14.4769153778
 51
90.0
  0
LINE
  5
B1
330
6B
100
AcDbEntity
  8
T14080038__HE_WT
  6
Continuous
 62
     7
100
AcDbLine
 10
169.7711440558
 20
615.2729883077
 30
0.0
 11
160.1794810092
 21
615.2729883077
 31
0.0
  0
ELLIPSE
  5
B2
330
6B
100
AcDbEntity
  8
T14080038__HE_WT
  6
Continuous
 62
     7
100
AcDbEllipse
 10
164.9753125325
 20
610.0988491817
 30
0.0
 11
-12.00000000000012
 21
0.0
 31
0.0
210
0.0
220
0.0
230
1.0
 40
0.4703762842
 41
4.301251118062348
 42
5.123526842707031
  0
LINE
  5
B3
330
6B
100
AcDbEntity
  8
T14080038__HE_WT
  6
Continuous
 62
     7
100
AcDbLine
 10
169.7711440558
 20
615.2729883077
 30
0.0
 11
169.7711440558
 21
613.1550700299
 31
0.0
  0
ELLIPSE
  5
B4
330
6B
100
AcDbEntity
  8
T14080038__HE_WT
  6
Continuous
 62
     7
100
AcDbEllipse
 10
164.9753125325
 20
611.9520276748
 30
0.0
 11
12.00000000000001
 21
0.0
 31
0.0
210
0.0
220
0.0
230
1.0
 40
0.4703762842
 41
0.0
 42
3.141592653589793
  0
ELLIPSE
  5
B5
330
6B
100
AcDbEntity
  8
T14080038__HE_WT
  6
Continuous
 62
     7
100
AcDbEllipse
 10
164.9753125325
 20
617.0247791505
 30
0.0
 11
16.19507943710346
 21
0.0
 31
0.0
210
0.0
220
0.0
230
1.0
 40
0.4703762842
 41
0.0
 42
0.1404286506311162
  0
ELLIPSE
  5
B6
330
6B
100
AcDbEntity
  8
T14080038__HE_WT
  6
Continuous
 62
     7
100
AcDbEllipse
 10
164.9753125325
 20
617.0247791505
 30
0.0
 11
16.19507943710346
 21
0.0
 31
0.0
210
0.0
220
0.0
230
1.0
 40
0.4703762842
 41
3.006676224197811
 42
3.238243620601871
  0
ELLIPSE
  5
B7
330
6B
100
AcDbEntity
  8
T14080038__HE_WT
  6
Continuous
 62
     7
100
AcDbEllipse
 10
164.9753125325
 20
617.0247791505
 30
0.0
 11
16.19507943710346
 21
0.0
 31
0.0
210
0.0
220
0.0
230
1.0
 40
0.4703762842
 41
6.186864650925079
 42
6.283185307179586
  0
ELLIPSE
  5
B8
330
6B
100
AcDbEntity
  8
T14080038__HE_WT
  6
Continuous
 62
     7
100
AcDbEllipse
 10
164.9753125325
 20
617.3978475127
 30
0.0
 11
16.07502092386459
 21
0.0
 31
0.0
210
0.0
220
0.0
230
1.0
 40
0.4703762842
 41
0.1754390262904595
 42
3.002008592401983
  0
ELLIPSE
  5
B9
330
6B
100
AcDbEntity
  8
T14080038__HE_WT
  6
Continuous
 62
     7
100
AcDbEllipse
 10
164.9753125325
 20
611.9520276748
 30
0.0
 11
13.17259587201091
 21
0.0
 31
0.0
210
0.0
220
0.0
230
1.0
 40
0.4703762842
 41
0.8438236426945794
 42
2.193938944050347
  0
ELLIPSE
  5
BA
330
6B
100
AcDbEntity
  8
T14080038__HE_WT
  6
Continuous
 62
     7
100
AcDbEllipse
 10
164.9753125325
 20
612.1066041079
 30
0.0
 11
13.55270335222435
 21
0.0
 31
0.0
210
0.0
220
0.0
230
1.0
 40
0.4703762842
 41
5.807360517564334
 42
6.11348472149102
  0
ELLIPSE
  5
BB
330
6B
100
AcDbEntity
  8
T14080038__HE_WT
  6
Continuous
 62
     7
100
AcDbEllipse
 10
164.9753125325
 20
612.1066041079
 30
0.0
 11
13.55270335222435
 21
0.0
 31
0.0
210
0.0
220
0.0
230
1.0
 40
0.4703762842
 41
3.303955563854283
 42
3.618196245108589
  0
ELLIPSE
  5
BC
330
6B
100
AcDbEntity
  8
T14080038__HE_WT
  6
Continuous
 62
     7
100
AcDbEllipse
 10
164.9753125325
 20
607.5396979294
 30
0.0
 11
10.05000000000001
 21
0.0
 31
0.0
210
0.0
220
0.0
230
1.0
 40
0.4703762842
 41
0.0
 42
6.283185307179586
  0
LINE
  5
BD
330
6B
100
AcDbEntity
  8
T14080038__HE_WT
  6
Continuous
 62
     7
100
AcDbLine
 10
160.1794810092
 20
613.1550700299
 30
0.0
 11
160.1794810092
 21
615.2729883077
 31
0.0
  0
ELLIPSE
  5
BE
330
6B
100
AcDbEntity
  8
T14080038__HE_WT
  6
Continuous
 62
     7
100
AcDbEllipse
 10
164.9753125325
 20
607.9809309039
 30
0.0
 11
11.99999999999996
 21
-2.775557561562891E-14
 31
0.0
210
0.0
220
0.0
230
1.0
 40
0.4703762842
 41
3.141592653589793
 42
3.172718692489301
  0
SPLINE
  5
BF
330
6B
100
AcDbEntity
  8
T14080038__HE_WT
  6
Continuous
 62
     7
100
AcDbSpline
210
0.0
220
0.0
230
1.0
 70
     8
 71
     3
 72
    14
 73
    10
 74
     0
 42
0.0000000062363145
 43
0.0000000001
 40
0.0
 40
0.0
 40
0.0
 40
0.0
 40
0.1249999999999994
 40
0.1249999999999994
 40
0.2499999999999988
 40
0.2499999999999988
 40
0.499999999999999
 40
0.499999999999999
 40
1.0
 40
1.0
 40
1.0
 40
1.0
 10
160.1794810092156
 20
613.1550700298595
 30
0.0
 10
160.1794810092156
 20
613.0937386040265
 30
0.0
 10
160.217356507191
 20
613.0378208642504
 30
0.0
 10
160.3134250037463
 20
612.952122339154
 30
0.0
 10
160.3720708110378
 20
612.919032448285
 30
0.0
 10
160.5534476235495
 20
612.8369273466947
 30
0.0
 10
160.6861004014705
 20
612.8028292030881
 30
0.0
 10
161.0816839945265
 20
612.7279325984994
 30
0.0
 10
161.3504544739177
 20
612.7138370553196
 30
0.0
 10
161.6212105662786
 20
612.7138370553196
 30
0.0
  0
LINE
  5
C0
330
6B
100
AcDbEntity
  8
T14080038__HE_WT
  6
Continuous
 62
     7
100
AcDbLine
 10
161.6212105663
 20
602.3655588035
 30
0.0
 11
168.3294144988
 21
602.3655588035
 31
0.0
  0
SPLINE
  5
C1
330
6B
100
AcDbEntity
  8
T14080038__HE_WT
  6
Continuous
 62
     7
100
AcDbSpline
210
0.0
220
0.0
230
1.0
 70
     8
 71
     3
 72
     8
 73
     4
 74
     0
 42
0.0000000061864263
 43
0.0000000001
 40
0.0
 40
0.0
 40
0.0
 40
0.0
 40
0.4478229450298429
 40
0.4478229450298429
 40
0.4478229450298429
 40
0.4478229450298429
 10
161.6212105662786
 20
602.3655588034669
 30
0.0
 10
161.3786927628025
 20
602.3655588034669
 30
0.0
 10
161.1377732707231
 20
602.3768684112779
 30
0.0
 10
160.9006590469139
 20
602.4151039934873
 30
0.0
  0
ELLIPSE
  5
C2
330
6B
100
AcDbEntity
  8
T14080038__HE_WT
  6
Continuous
 62
     7
100
AcDbEllipse
 10
164.9753125325
 20
607.9809309039
 30
0.0
 11
-12.0
 21
5.551115123125783E-14
 31
0.0
210
0.0
220
0.0
230
1.0
 40
0.4703762842
 41
3.141592653589803
 42
3.172718692489326
  0
SPLINE
  5
C3
330
6B
100
AcDbEntity
  8
T14080038__HE_WT
  6
Continuous
 62
     7
100
AcDbSpline
210
0.0
220
0.0
230
1.0
 70
     8
 71
     3
 72
     8
 73
     4
 74
     0
 42
0.0000000061866075
 43
0.0000000001
 40
0.5411064360432828
 40
0.5411064360432828
 40
0.5411064360432828
 40
0.5411064360432828
 40
1.0
 40
1.0
 40
1.0
 40
1.0
 10
169.0675186816245
 20
602.4179850383782
 30
0.0
 10
168.824734863773
 20
602.3774319476307
 30
0.0
 10
168.577910955151
 20
602.3655588034669
 30
0.0
 10
168.329414498778
 20
602.3655588034669
 30
0.0
  0
LINE
  5
C4
330
6B
100
AcDbEntity
  8
T14080038__HE_WT
  6
Continuous
 62
     7
100
AcDbLine
 10
168.3294144988
 20
612.7138370553
 30
0.0
 11
161.6212105663
 21
612.7138370553
 31
0.0
  0
SPLINE
  5
C5
330
6B
100
AcDbEntity
  8
T14080038__HE_WT
  6
Continuous
 62
     7
100
AcDbSpline
210
0.0
220
0.0
230
1.0
 70
     8
 71
     3
 72
    14
 73
    10
 74
     0
 42
0.0000000062360904
 43
0.0000000001
 40
0.0
 40
0.0
 40
0.0
 40
0.0
 40
0.4999999999999989
 40
0.4999999999999989
 40
0.7499999999999994
 40
0.7499999999999994
 40
0.8749999999999997
 40
0.8749999999999997
 40
1.0
 40
1.0
 40
1.0
 40
1.0
 10
168.329414498778
 20
612.7138370553196
 30
0.0
 10
168.600188703369
 20
612.7138370553196
 30
0.0
 10
168.8689704520427
 20
612.7279356189986
 30
0.0
 10
169.2645467771304
 20
612.8028346612451
 30
0.0
 10
169.3974251863287
 20
612.8369216630254
 30
0.0
 10
169.579556678236
 20
612.9195456864676
 30
0.0
 10
169.6365687397726
 20
612.9516703467897
 30
0.0
 10
169.7331176581216
 20
613.0375759691674
 30
0.0
 10
169.771144055841
 20
613.0935601060758
 30
0.0
 10
169.771144055841
 20
613.1550700298595
 30
0.0
  0
LINE
  5
C6
330
6B
100
AcDbEntity
  8
T14080038__HE_WT
  6
Continuous
 62
     7
100
AcDbLine
 10
176.9753125325
 20
607.9809309039
 30
0.0
 11
176.9753125325
 21
611.9520276748
 31
0.0
  0
LINE
  5
C7
330
6B
100
AcDbEntity
  8
T14080038__HE_WT
  6
Continuous
 62
     7
100
AcDbLine
 10
152.9753125325
 20
611.9520276748
 30
0.0
 11
152.9753125325
 21
607.9809309039
 31
0.0
  0
ARC
  5
C8
330
6B
100
AcDbEntity
  8
T14080038__HE_WT
  6
Continuous
 62
     7
100
AcDbCircle
 10
161.5773174383
 20
618.8635465098
 30
0.0
 40
12.96174377604349
100
AcDbArc
 50
191.4741661992
 51
228.365370233
  0
ARC
  5
C9
330
6B
100
AcDbEntity
  8
T14080038__HE_WT
  6
Continuous
 62
     7
100
AcDbCircle
 10
168.3489687829
 20
618.833021396
 30
0.0
 40
12.97068828642545
100
AcDbArc
 50
311.8509390186
 51
348.7094214491
  0
SPLINE
  5
CA
330
6B
100
AcDbEntity
  8
T14080038__HE_WT
  6
Continuous
 62
     7
100
AcDbSpline
210
0.0
220
0.0
230
1.0
 70
     8
 71
     3
 72
    21
 73
    17
 74
     0
 42
0.0000000005744128
 43
0.0000000001
 40
0.0
 40
0.0
 40
0.0
 40
0.0
 40
0.0670609766089537
 40
0.1440009344859423
 40
0.2209750373162695
 40
0.2980110170462785
 40
0.3751393207191818
 40
0.4523935576651323
 40
0.529808997638963
 40
0.6074159356578719
 40
0.6852206725437272
 40
0.7631571985486807
 40
0.840884968524342
 40
0.9178397729630722
 40
0.9933703493767849
 40
1.0
 40
1.0
 40
1.0
 40
1.0
 10
164.8107023801534
 20
626.7792642683962
 30
0.0
 10
164.2674733327364
 20
626.7723164698226
 30
0.0
 10
163.2812656806251
 20
626.7562211410498
 30
0.0
 10
161.6392549296606
 20
626.6203806855956
 30
0.0
 10
160.0103972137776
 20
626.3968577979049
 30
0.0
 10
158.4325518581419
 20
626.083271098519
 30
0.0
 10
156.9404461305367
 20
625.6859425618009
 30
0.0
 10
155.5486591703146
 20
625.2082075824
 30
0.0
 10
154.2755780261303
 20
624.6549423943138
 30
0.0
 10
153.1371185433597
 20
624.0312027218351
 30
0.0
 10
152.1477960295818
 20
623.34208797711
 30
0.0
 10
151.3244828056799
 20
622.5946543582651
 30
0.0
 10
150.6741312740087
 20
621.7937999719022
 30
0.0
 10
150.2385668618627
 20
620.9634000862293
 30
0.0
 10
150.0170609306323
 20
620.340163981504
 30
0.0
 10
150.0025993283043
 20
620.03994561535
 30
0.0
 10
150.0012840136427
 20
620.011793568509
 30
0.0
  0
ARC
  5
CB
330
6B
100
AcDbEntity
  8
T14080038__HE_WT
  6
Continuous
 62
     7
100
AcDbCircle
 10
165.0032974606
 20
623.4129998182
 30
0.0
 40
3.371769448477176
100
AcDbArc
 50
87.229561516
 51
93.2745105543
  0
SPLINE
  5
CC
330
6B
100
AcDbEntity
  8
T14080038__HE_WT
  6
Continuous
 62
     7
100
AcDbSpline
210
0.0
220
0.0
230
1.0
 70
     8
 71
     3
 72
    20
 73
    16
 74
     0
 42
0.0000000005705815
 43
0.0000000001
 40
0.0259492292206779
 40
0.0259492292206779
 40
0.0259492292206779
 40
0.0259492292206779
 40
0.0839096412631675
 40
0.1578131068560293
 40
0.2331262170309959
 40
0.3097741475978673
 40
0.3872223940297314
 40
0.4649575699512812
 40
0.542639204258064
 40
0.6201827234715787
 40
0.6975829967565322
 40
0.774861807781386
 40
0.852048314413729
 40
0.9291718660733045
 40
1.0
 40
1.0
 40
1.0
 40
1.0
 10
179.9088164466935
 20
620.3140808892449
 30
0.0
 10
179.8644118125279
 20
620.5313718007086
 30
0.0
 10
179.6725516337619
 20
621.0411008825906
 30
0.0
 10
179.2781165683375
 20
621.7867995178157
 30
0.0
 10
178.653277310727
 20
622.5640385979267
 30
0.0
 10
177.8546856309905
 20
623.2999241741742
 30
0.0
 10
176.8841015576447
 20
623.9871468419905
 30
0.0
 10
175.7577095256566
 20
624.6143213425381
 30
0.0
 10
174.4923249370864
 20
625.1730463880191
 30
0.0
 10
173.1059241754878
 20
625.6567148775151
 30
0.0
 10
171.6177825627353
 20
626.0600188415599
 30
0.0
 10
170.042968754783
 20
626.3794499293296
 30
0.0
 10
168.4160584986327
 20
626.6089536228685
 30
0.0
 10
166.749164574893
 20
626.7520517223238
 30
0.0
 10
165.738776520488
 20
626.7717683721593
 30
0.0
 10
165.1662700268097
 20
626.7808283703018
 30
0.0
  0
ARC
  5
CD
330
6B
100
AcDbEntity
  8
T14080038__HE_WT
  6
Continuous
 62
     7
100
AcDbCircle
 10
176.7646008417
 20
617.3306046983
 30
0.0
 40
4.323529537272405
100
AcDbArc
 50
12.6502372625
 51
16.240142431
  0
LINE
  5
CE
330
6B
100
AcDbEntity
  8
T14080038__HE_WT
  6
Continuous
 62
     7
100
AcDbLine
 10
148.9892353993
 20
618.3411161576
 30
0.0
 11
148.9591522592
 21
618.2323350797
 31
0.0
  0
SPLINE
  5
CF
330
6B
100
AcDbEntity
  8
T14080038__HE_WT
  6
Continuous
 62
     7
100
AcDbSpline
210
0.0
220
0.0
230
1.0
 70
     8
 71
     3
 72
    18
 73
    14
 74
     0
 42
0.0000000009771214
 43
0.0000000001
 40
0.0
 40
0.0
 40
0.0
 40
0.0
 40
0.0219975642833589
 40
0.1235067461668382
 40
0.2255769504563626
 40
0.3300543370385486
 40
0.4371210022108367
 40
0.5457617797018902
 40
0.6549022238409318
 40
0.7638776571568284
 40
0.8725769305764458
 40
0.9810192992743839
 40
1.0
 40
1.0
 40
1.0
 40
1.0
 10
152.9985863088183
 20
607.7802077692701
 30
0.0
 10
152.9968073180942
 20
607.7192553168154
 30
0.0
 10
152.989392770181
 20
607.4260499161492
 30
0.0
 10
153.1646296835873
 20
606.8476383669315
 30
0.0
 10
153.5258610808453
 20
606.122719487786
 30
0.0
 10
154.0830853349756
 20
605.4241560064763
 30
0.0
 10
154.813439853787
 20
604.7676725821788
 30
0.0
 10
155.7147960097505
 20
604.1611558897395
 30
0.0
 10
156.7678515953613
 20
603.6181103157309
 30
0.0
 10
157.9564093029853
 20
603.1450245542444
 30
0.0
 10
159.2441485342237
 20
602.7590067365036
 30
0.0
 10
160.2753632905168
 20
602.5178823782151
 30
0.0
 10
160.8107187765251
 20
602.4337552630855
 30
0.0
 10
160.9037270890937
 20
602.4192380100683
 30
0.0
  0
SPLINE
  5
D0
330
6B
100
AcDbEntity
  8
T14080038__HE_WT
  6
Continuous
 62
     7
100
AcDbSpline
210
0.0
220
0.0
230
1.0
 70
     8
 71
     3
 72
    17
 73
    13
 74
     0
 42
0.0000000009415499
 43
0.0000000001
 40
0.0
 40
0.0
 40
0.0
 40
0.0
 40
0.0973252644335769
 40
0.2003956885778125
 40
0.3037198498171567
 40
0.4073724665286033
 40
0.5114054003263978
 40
0.6157724613615942
 40
0.7199807646194201
 40
0.8229291409857099
 40
0.923304534477576
 40
1.0
 40
1.0
 40
1.0
 40
1.0
 10
169.0647183682839
 20
602.4199374100215
 30
0.0
 10
169.5555401362611
 20
602.5126795168303
 30
0.0
 10
170.4067690583724
 20
602.6777712820343
 30
0.0
 10
171.7230261411527
 20
603.0547761640034
 30
0.0
 10
172.9269228423591
 20
603.5055218374936
 30
0.0
 10
174.0147452999668
 20
604.034734614305
 30
0.0
 10
174.9587339105172
 20
604.6329692918147
 30
0.0
 10
175.7441039104315
 20
605.295117009397
 30
0.0
 10
176.3545701881168
 20
606.0152041769048
 30
0.0
 10
176.7660287753566
 20
606.772562519038
 30
0.0
 10
176.9777510964688
 20
607.520559025102
 30
0.0
 10
176.9628730089361
 20
607.9578991441075
 30
0.0
 10
176.9520387562384
 20
608.1816540385962
 30
0.0
  0
LINE
  5
D2
330
6B
100
AcDbEntity
  8
$DDT_AUDIT_GENERATED_(D1)
  6
Continuous
 62
     7
100
AcDbLine
 10
61.7753125325
 20
548.9249712165
 30
0.0
 11
68.1753125325
 21
548.9249712165
 31
0.0
  0
LINE
  5
D3
330
6B
100
AcDbEntity
  8
$DDT_AUDIT_GENERATED_(D1)
  6
Continuous
 62
     7
100
AcDbLine
 10
68.7487425149
 20
543.1549712165
 30
0.0
 11
68.7487425149
 21
547.885740732
 31
0.0
  0
LINE
  5
D4
330
6B
100
AcDbEntity
  8
$DDT_AUDIT_GENERATED_(D1)
  6
Continuous
 62
     7
100
AcDbLine
 10
68.7487425149
 20
547.885740732
 30
0.0
 11
68.3001601162
 21
548.7087288584
 31
0.0
  0
LINE
  5
D5
330
6B
100
AcDbEntity
  8
$DDT_AUDIT_GENERATED_(D1)
  6
Continuous
 62
     7
100
AcDbLine
 10
68.7026772906
 20
547.885740732
 30
0.0
 11
68.7487425149
 21
547.885740732
 31
0.0
  0
LINE
  5
D6
330
6B
100
AcDbEntity
  8
$DDT_AUDIT_GENERATED_(D1)
  6
Continuous
 62
     7
100
AcDbLine
 10
68.4254381214
 20
543.1549712165
 30
0.0
 11
68.4254381214
 21
547.885740732
 31
0.0
  0
LINE
  5
D7
330
6B
100
AcDbEntity
  8
$DDT_AUDIT_GENERATED_(D1)
  6
Continuous
 62
     7
100
AcDbLine
 10
68.4254381214
 20
547.885740732
 30
0.0
 11
68.1374304926
 21
548.7087288584
 31
0.0
  0
LINE
  5
D8
330
6B
100
AcDbEntity
  8
$DDT_AUDIT_GENERATED_(D1)
  6
Continuous
 62
     7
100
AcDbLine
 10
68.1374304926
 20
548.7087288584
 30
0.0
 11
68.7026772906
 21
547.885740732
 31
0.0
  0
LINE
  5
D9
330
6B
100
AcDbEntity
  8
$DDT_AUDIT_GENERATED_(D1)
  6
Continuous
 62
     7
100
AcDbLine
 10
68.7026772906
 20
547.885740732
 30
0.0
 11
68.7026772906
 21
543.1549712165
 31
0.0
  0
LINE
  5
DA
330
6B
100
AcDbEntity
  8
$DDT_AUDIT_GENERATED_(D1)
  6
Continuous
 62
     7
100
AcDbLine
 10
68.2917516337
 20
547.885740732
 30
0.0
 11
68.4254381214
 21
547.885740732
 31
0.0
  0
LINE
  5
DB
330
6B
100
AcDbEntity
  8
$DDT_AUDIT_GENERATED_(D1)
  6
Continuous
 62
     7
100
AcDbLine
 10
67.7644113969
 20
543.1549712165
 30
0.0
 11
67.7644113969
 21
547.885740732
 31
0.0
  0
LINE
  5
DC
330
6B
100
AcDbEntity
  8
$DDT_AUDIT_GENERATED_(D1)
  6
Continuous
 62
     7
100
AcDbLine
 10
67.7644113969
 20
547.885740732
 30
0.0
 11
67.6651707314
 21
548.7087288584
 31
0.0
  0
LINE
  5
DD
330
6B
100
AcDbEntity
  8
$DDT_AUDIT_GENERATED_(D1)
  6
Continuous
 62
     7
100
AcDbLine
 10
67.6651707314
 20
548.7087288584
 30
0.0
 11
68.2917516337
 21
547.885740732
 31
0.0
  0
LINE
  5
DE
330
6B
100
AcDbEntity
  8
$DDT_AUDIT_GENERATED_(D1)
  6
Continuous
 62
     7
100
AcDbLine
 10
68.2917516337
 20
547.885740732
 30
0.0
 11
68.2917516337
 21
543.1549712165
 31
0.0
  0
LINE
  5
DF
330
6B
100
AcDbEntity
  8
$DDT_AUDIT_GENERATED_(D1)
  6
Continuous
 62
     7
100
AcDbLine
 10
67.5561898106
 20
547.885740732
 30
0.0
 11
67.7644113969
 21
547.885740732
 31
0.0
  0
LINE
  5
E0
330
6B
100
AcDbEntity
  8
$DDT_AUDIT_GENERATED_(D1)
  6
Continuous
 62
     7
100
AcDbLine
 10
66.9296089083
 20
543.1549712165
 30
0.0
 11
66.9296089083
 21
548.7087288584
 31
0.0
  0
LINE
  5
E1
330
6B
100
AcDbEntity
  8
$DDT_AUDIT_GENERATED_(D1)
  6
Continuous
 62
     7
100
AcDbLine
 10
66.8303682428
 20
543.1549712165
 30
0.0
 11
66.8303682428
 21
547.885740732
 31
0.0
  0
LINE
  5
E2
330
6B
100
AcDbEntity
  8
$DDT_AUDIT_GENERATED_(D1)
  6
Continuous
 62
     7
100
AcDbLine
 10
66.8303682428
 20
547.885740732
 30
0.0
 11
66.9296089083
 21
548.7087288584
 31
0.0
  0
LINE
  5
E3
330
6B
100
AcDbEntity
  8
$DDT_AUDIT_GENERATED_(D1)
  6
Continuous
 62
     7
100
AcDbLine
 10
66.9296089083
 20
548.7087288584
 30
0.0
 11
67.5561898106
 21
547.885740732
 31
0.0
  0
LINE
  5
E4
330
6B
100
AcDbEntity
  8
$DDT_AUDIT_GENERATED_(D1)
  6
Continuous
 62
     7
100
AcDbLine
 10
67.5561898106
 20
547.885740732
 30
0.0
 11
67.5561898106
 21
543.1549712165
 31
0.0
  0
LINE
  5
E5
330
6B
100
AcDbEntity
  8
$DDT_AUDIT_GENERATED_(D1)
  6
Continuous
 62
     7
100
AcDbLine
 10
66.5679937375
 20
547.885740732
 30
0.0
 11
66.8303682428
 21
547.885740732
 31
0.0
  0
LINE
  5
E6
330
6B
100
AcDbEntity
  8
$DDT_AUDIT_GENERATED_(D1)
  6
Continuous
 62
     7
100
AcDbLine
 10
66.0027469396
 20
543.1549712165
 30
0.0
 11
66.0027469396
 21
548.7087288584
 31
0.0
  0
LINE
  5
E7
330
6B
100
AcDbEntity
  8
$DDT_AUDIT_GENERATED_(D1)
  6
Continuous
 62
     7
100
AcDbLine
 10
65.7147393108
 20
543.1549712165
 30
0.0
 11
65.7147393108
 21
547.885740732
 31
0.0
  0
LINE
  5
E8
330
6B
100
AcDbEntity
  8
$DDT_AUDIT_GENERATED_(D1)
  6
Continuous
 62
     7
100
AcDbLine
 10
65.7147393108
 20
547.885740732
 30
0.0
 11
66.0027469396
 21
548.7087288584
 31
0.0
  0
LINE
  5
E9
330
6B
100
AcDbEntity
  8
$DDT_AUDIT_GENERATED_(D1)
  6
Continuous
 62
     7
100
AcDbLine
 10
66.0027469396
 20
548.7087288584
 30
0.0
 11
66.5679937375
 21
547.885740732
 31
0.0
  0
LINE
  5
EA
330
6B
100
AcDbEntity
  8
$DDT_AUDIT_GENERATED_(D1)
  6
Continuous
 62
     7
100
AcDbLine
 10
66.5679937375
 20
547.885740732
 30
0.0
 11
66.5679937375
 21
543.1549712165
 31
0.0
  0
LINE
  5
EB
330
6B
100
AcDbEntity
  8
$DDT_AUDIT_GENERATED_(D1)
  6
Continuous
 62
     7
100
AcDbLine
 10
65.4238949312
 20
547.885740732
 30
0.0
 11
65.7147393108
 21
547.885740732
 31
0.0
  0
LINE
  5
EC
330
6B
100
AcDbEntity
  8
$DDT_AUDIT_GENERATED_(D1)
  6
Continuous
 62
     7
100
AcDbLine
 10
64.9753125325
 20
543.1549712165
 30
0.0
 11
64.9753125325
 21
548.7087288584
 31
0.0
  0
LINE
  5
ED
330
6B
100
AcDbEntity
  8
$DDT_AUDIT_GENERATED_(D1)
  6
Continuous
 62
     7
100
AcDbLine
 10
64.5267301338
 20
543.1549712165
 30
0.0
 11
64.5267301338
 21
547.885740732
 31
0.0
  0
LINE
  5
EE
330
6B
100
AcDbEntity
  8
$DDT_AUDIT_GENERATED_(D1)
  6
Continuous
 62
     7
100
AcDbLine
 10
64.5267301338
 20
547.885740732
 30
0.0
 11
64.9753125325
 21
548.7087288584
 31
0.0
  0
LINE
  5
EF
330
6B
100
AcDbEntity
  8
$DDT_AUDIT_GENERATED_(D1)
  6
Continuous
 62
     7
100
AcDbLine
 10
64.9753125325
 20
548.7087288584
 30
0.0
 11
65.4238949312
 21
547.885740732
 31
0.0
  0
LINE
  5
F0
330
6B
100
AcDbEntity
  8
$DDT_AUDIT_GENERATED_(D1)
  6
Continuous
 62
     7
100
AcDbLine
 10
65.4238949312
 20
547.885740732
 30
0.0
 11
65.4238949312
 21
543.1549712165
 31
0.0
  0
LINE
  5
F1
330
6B
100
AcDbEntity
  8
$DDT_AUDIT_GENERATED_(D1)
  6
Continuous
 62
     7
100
AcDbLine
 10
64.2358857543
 20
547.885740732
 30
0.0
 11
64.5267301338
 21
547.885740732
 31
0.0
  0
LINE
  5
F2
330
6B
100
AcDbEntity
  8
$DDT_AUDIT_GENERATED_(D1)
  6
Continuous
 62
     7
100
AcDbLine
 10
63.9478781255
 20
543.1549712165
 30
0.0
 11
63.9478781255
 21
548.7087288584
 31
0.0
  0
LINE
  5
F3
330
6B
100
AcDbEntity
  8
$DDT_AUDIT_GENERATED_(D1)
  6
Continuous
 62
     7
100
AcDbLine
 10
63.3826313275
 20
543.1549712165
 30
0.0
 11
63.3826313275
 21
547.885740732
 31
0.0
  0
LINE
  5
F4
330
6B
100
AcDbEntity
  8
$DDT_AUDIT_GENERATED_(D1)
  6
Continuous
 62
     7
100
AcDbLine
 10
63.3826313275
 20
547.885740732
 30
0.0
 11
63.9478781255
 21
548.7087288584
 31
0.0
  0
LINE
  5
F5
330
6B
100
AcDbEntity
  8
$DDT_AUDIT_GENERATED_(D1)
  6
Continuous
 62
     7
100
AcDbLine
 10
63.9478781255
 20
548.7087288584
 30
0.0
 11
64.2358857543
 21
547.885740732
 31
0.0
  0
LINE
  5
F6
330
6B
100
AcDbEntity
  8
$DDT_AUDIT_GENERATED_(D1)
  6
Continuous
 62
     7
100
AcDbLine
 10
64.2358857543
 20
547.885740732
 30
0.0
 11
64.2358857543
 21
543.1549712165
 31
0.0
  0
LINE
  5
F7
330
6B
100
AcDbEntity
  8
$DDT_AUDIT_GENERATED_(D1)
  6
Continuous
 62
     7
100
AcDbLine
 10
63.1202568223
 20
547.885740732
 30
0.0
 11
63.3826313275
 21
547.885740732
 31
0.0
  0
LINE
  5
F8
330
6B
100
AcDbEntity
  8
$DDT_AUDIT_GENERATED_(D1)
  6
Continuous
 62
     7
100
AcDbLine
 10
63.0210161567
 20
543.1549712165
 30
0.0
 11
63.0210161567
 21
548.7087288584
 31
0.0
  0
LINE
  5
F9
330
6B
100
AcDbEntity
  8
$DDT_AUDIT_GENERATED_(D1)
  6
Continuous
 62
     7
100
AcDbLine
 10
62.3944352544
 20
543.1549712165
 30
0.0
 11
62.3944352544
 21
547.885740732
 31
0.0
  0
LINE
  5
FA
330
6B
100
AcDbEntity
  8
$DDT_AUDIT_GENERATED_(D1)
  6
Continuous
 62
     7
100
AcDbLine
 10
62.3944352544
 20
547.885740732
 30
0.0
 11
63.0210161567
 21
548.7087288584
 31
0.0
  0
LINE
  5
FB
330
6B
100
AcDbEntity
  8
$DDT_AUDIT_GENERATED_(D1)
  6
Continuous
 62
     7
100
AcDbLine
 10
63.0210161567
 20
548.7087288584
 30
0.0
 11
63.1202568223
 21
547.885740732
 31
0.0
  0
LINE
  5
FC
330
6B
100
AcDbEntity
  8
$DDT_AUDIT_GENERATED_(D1)
  6
Continuous
 62
     7
100
AcDbLine
 10
63.1202568223
 20
547.885740732
 30
0.0
 11
63.1202568223
 21
543.1549712165
 31
0.0
  0
LINE
  5
FD
330
6B
100
AcDbEntity
  8
$DDT_AUDIT_GENERATED_(D1)
  6
Continuous
 62
     7
100
AcDbLine
 10
62.1862136681
 20
547.885740732
 30
0.0
 11
62.3944352544
 21
547.885740732
 31
0.0
  0
LINE
  5
FE
330
6B
100
AcDbEntity
  8
$DDT_AUDIT_GENERATED_(D1)
  6
Continuous
 62
     7
100
AcDbLine
 10
61.6588734313
 20
543.1549712165
 30
0.0
 11
61.6588734313
 21
547.885740732
 31
0.0
  0
LINE
  5
FF
330
6B
100
AcDbEntity
  8
$DDT_AUDIT_GENERATED_(D1)
  6
Continuous
 62
     7
100
AcDbLine
 10
61.6588734313
 20
547.885740732
 30
0.0
 11
62.2854543337
 21
548.7087288584
 31
0.0
  0
LINE
  5
100
330
6B
100
AcDbEntity
  8
$DDT_AUDIT_GENERATED_(D1)
  6
Continuous
 62
     7
100
AcDbLine
 10
62.2854543337
 20
548.7087288584
 30
0.0
 11
62.1862136681
 21
547.885740732
 31
0.0
  0
LINE
  5
101
330
6B
100
AcDbEntity
  8
$DDT_AUDIT_GENERATED_(D1)
  6
Continuous
 62
     7
100
AcDbLine
 10
62.1862136681
 20
547.885740732
 30
0.0
 11
62.1862136681
 21
543.1549712165
 31
0.0
  0
LINE
  5
102
330
6B
100
AcDbEntity
  8
$DDT_AUDIT_GENERATED_(D1)
  6
Continuous
 62
     7
100
AcDbLine
 10
61.5251869436
 20
547.885740732
 30
0.0
 11
61.6588734313
 21
547.885740732
 31
0.0
  0
LINE
  5
103
330
6B
100
AcDbEntity
  8
$DDT_AUDIT_GENERATED_(D1)
  6
Continuous
 62
     7
100
AcDbLine
 10
61.2479477745
 20
543.1549712165
 30
0.0
 11
61.2479477745
 21
547.885740732
 31
0.0
  0
LINE
  5
104
330
6B
100
AcDbEntity
  8
$DDT_AUDIT_GENERATED_(D1)
  6
Continuous
 62
     7
100
AcDbLine
 10
61.2479477745
 20
547.885740732
 30
0.0
 11
61.8131945724
 21
548.7087288584
 31
0.0
  0
LINE
  5
105
330
6B
100
AcDbEntity
  8
$DDT_AUDIT_GENERATED_(D1)
  6
Continuous
 62
     7
100
AcDbLine
 10
61.8131945724
 20
548.7087288584
 30
0.0
 11
61.5251869436
 21
547.885740732
 31
0.0
  0
LINE
  5
106
330
6B
100
AcDbEntity
  8
$DDT_AUDIT_GENERATED_(D1)
  6
Continuous
 62
     7
100
AcDbLine
 10
61.5251869436
 20
547.885740732
 30
0.0
 11
61.5251869436
 21
543.1549712165
 31
0.0
  0
LINE
  5
107
330
6B
100
AcDbEntity
  8
$DDT_AUDIT_GENERATED_(D1)
  6
Continuous
 62
     7
100
AcDbLine
 10
61.2018825502
 20
547.885740732
 30
0.0
 11
61.2479477745
 21
547.885740732
 31
0.0
  0
LINE
  5
108
330
6B
100
AcDbEntity
  8
$DDT_AUDIT_GENERATED_(D1)
  6
Continuous
 62
     7
100
AcDbLine
 10
61.6504649489
 20
548.7087288584
 30
0.0
 11
61.2018825502
 21
547.885740732
 31
0.0
  0
LINE
  5
109
330
6B
100
AcDbEntity
  8
$DDT_AUDIT_GENERATED_(D1)
  6
Continuous
 62
     7
100
AcDbLine
 10
61.2018825502
 20
547.885740732
 30
0.0
 11
61.2018825502
 21
543.1549712165
 31
0.0
  0
LINE
  5
10A
330
6B
100
AcDbEntity
  8
$DDT_AUDIT_GENERATED_(D1)
  6
Continuous
 62
     7
100
AcDbLine
 10
68.3001601162
 20
548.7087288584
 30
0.0
 11
68.1753125325
 21
548.9249712165
 31
0.0
  0
LINE
  5
10B
330
6B
100
AcDbEntity
  8
$DDT_AUDIT_GENERATED_(D1)
  6
Continuous
 62
     7
100
AcDbLine
 10
61.7753125325
 20
548.9249712165
 30
0.0
 11
61.6504649489
 21
548.7087288584
 31
0.0
  0
ELLIPSE
  5
10D
330
6B
100
AcDbEntity
  8
4221035_0__HUELS
  6
Continuous
 62
     7
100
AcDbEllipse
 10
164.9753125325
 20
614.3788090348
 30
0.0
 11
8.500000000000002
 21
0.0
 31
0.0
210
0.0
220
0.0
230
1.0
 40
0.4703762842
 41
3.973102167604743
 42
4.126506224194856
  0
ELLIPSE
  5
10E
330
6B
100
AcDbEntity
  8
4221035_0__HUELS
  6
Continuous
 62
     7
100
AcDbEllipse
 10
164.9753125325
 20
614.3788090348
 30
0.0
 11
8.500000000000002
 21
0.0
 31
0.0
210
0.0
220
0.0
230
1.0
 40
0.4703762842
 41
4.161400811545516
 42
4.330030962824719
  0
ELLIPSE
  5
10F
330
6B
100
AcDbEntity
  8
4221035_0__HUELS
  6
Continuous
 62
     7
100
AcDbEllipse
 10
164.9753125325
 20
614.3788090348
 30
0.0
 11
8.500000000000002
 21
0.0
 31
0.0
210
0.0
220
0.0
230
1.0
 40
0.4703762842
 41
4.355266377421557
 42
4.518744044693635
  0
ELLIPSE
  5
110
330
6B
100
AcDbEntity
  8
4221035_0__HUELS
  6
Continuous
 62
     7
100
AcDbEllipse
 10
164.9753125325
 20
614.3788090348
 30
0.0
 11
8.500000000000002
 21
0.0
 31
0.0
210
0.0
220
0.0
230
1.0
 40
0.4703762842
 41
4.54266777879901
 42
4.882110181970362
  0
ELLIPSE
  5
111
330
6B
100
AcDbEntity
  8
4221035_0__HUELS
  6
Continuous
 62
     7
100
AcDbEllipse
 10
164.9753125325
 20
614.3788090348
 30
0.0
 11
8.500000000000002
 21
0.0
 31
0.0
210
0.0
220
0.0
230
1.0
 40
0.4703762842
 41
-1.377151391103846
 42
-1.213272329959899
  0
ELLIPSE
  5
112
330
6B
100
AcDbEntity
  8
4221035_0__HUELS
  6
Continuous
 62
     7
100
AcDbEllipse
 10
164.9753125325
 20
614.3788090348
 30
0.0
 11
8.500000000000002
 21
0.0
 31
0.0
210
0.0
220
0.0
230
1.0
 40
0.4703762842
 41
-1.188438309234933
 42
-1.127080085391115
  0
ELLIPSE
  5
113
330
6B
100
AcDbEntity
  8
4221035_0__HUELS
  6
Continuous
 62
     7
100
AcDbEllipse
 10
164.9753125325
 20
614.3788090348
 30
0.0
 11
8.500000000000002
 21
0.0
 31
0.0
210
0.0
220
0.0
230
1.0
 40
0.4703762842
 41
-0.978222176753766
 42
-0.8315095140149502
  0
ELLIPSE
  5
114
330
6B
100
AcDbEntity
  8
4221035_0__HUELS
  6
Continuous
 62
     7
100
AcDbEllipse
 10
164.9753125325
 20
614.11406925
 30
0.0
 11
8.500000000000002
 21
0.0
 31
0.0
210
0.0
220
0.0
230
1.0
 40
0.4703762842
 41
3.918612486693404
 42
5.50616547407598
  0
ELLIPSE
  5
115
330
6B
100
AcDbEntity
  8
4221035_0__HUELS
  6
Continuous
 62
     7
100
AcDbEllipse
 10
164.9753125325
 20
614.11406925
 30
0.0
 11
-9.399999999999993
 21
0.0
 31
0.0
210
0.0
220
0.0
230
1.0
 40
0.4703762842
 41
0.7688861998544865
 42
2.372706453735303
  0
ELLIPSE
  5
117
330
6B
100
AcDbEntity
  8
4221039_0__SIEB_
  6
Continuous
 62
     7
100
AcDbEllipse
 10
160.3681696754
 20
611.5901496357
 30
0.0
 11
0.08574311296468198
 21
0.08574311296472015
 31
0.0
210
0.0
220
0.0
230
1.0
 40
0.600163345
 41
3.682132251803221
 42
4.171849382171218
  0
ELLIPSE
  5
118
330
6B
100
AcDbEntity
  8
4221039_0__SIEB_
  6
Continuous
 62
     7
100
AcDbEllipse
 10
160.3681696754
 20
611.5901496357
 30
0.0
 11
-0.08574311296469066
 21
0.08574311296469239
 31
0.0
210
0.0
220
0.0
230
1.0
 40
0.600163345
 41
2.111335925008501
 42
2.601053055374813
  0
ELLIPSE
  5
119
330
6B
100
AcDbEntity
  8
4221039_0__SIEB_
  6
Continuous
 62
     7
100
AcDbEllipse
 10
160.3681696754
 20
611.5901496357
 30
0.0
 11
-0.08574311296468978
 21
-0.08574311296469239
 31
0.0
210
0.0
220
0.0
230
0.9999999999999998
 40
0.600163345
 41
1.030256728582446
 42
2.601053055375773
  0
ELLIPSE
  5
11A
330
6B
100
AcDbEntity
  8
4221039_0__SIEB_
  6
Continuous
 62
     7
100
AcDbEllipse
 10
160.3681696754
 20
611.5901496357
 30
0.0
 11
0.08574311296469155
 21
-0.08574311296469241
 31
0.0
210
0.0
220
0.0
230
1.0
 40
0.600163345
 41
3.682132251802537
 42
5.252928578598288
  0
ELLIPSE
  5
11B
330
6B
100
AcDbEntity
  8
4221039_0__SIEB_
  6
Continuous
 62
     7
100
AcDbEllipse
 10
161.9038839611
 20
611.5901496357
 30
0.0
 11
-0.08574311296468892
 21
-0.08574311296469239
 31
0.0
210
0.0
220
0.0
230
0.9999999999999999
 40
0.600163345
 41
1.03025672858128
 42
2.601053055375778
  0
ELLIPSE
  5
11C
330
6B
100
AcDbEntity
  8
4221039_0__SIEB_
  6
Continuous
 62
     7
100
AcDbEllipse
 10
161.9038839611
 20
611.5901496357
 30
0.0
 11
0.08574311296469109
 21
-0.08574311296469239
 31
0.0
210
0.0
220
0.0
230
1.0
 40
0.600163345
 41
3.682132251802534
 42
5.252928578598291
  0
ELLIPSE
  5
11D
330
6B
100
AcDbEntity
  8
4221039_0__SIEB_
  6
Continuous
 62
     7
100
AcDbEllipse
 10
161.9038839611
 20
610.8677860565
 30
0.0
 11
-0.08574311296469066
 21
-0.08574311296467851
 31
0.0
210
0.0
220
0.0
230
1.0
 40
0.600163345
 41
1.030256728581872
 42
2.601053055377239
  0
ELLIPSE
  5
11E
330
6B
100
AcDbEntity
  8
4221039_0__SIEB_
  6
Continuous
 62
     7
100
AcDbEllipse
 10
161.9038839611
 20
610.8677860565
 30
0.0
 11
0.08574311296469976
 21
-0.08574311296469239
 31
0.0
210
0.0
220
0.0
230
1.0
 40
0.600163345
 41
3.682132251802265
 42
5.252928578596684
  0
ELLIPSE
  5
11F
330
6B
100
AcDbEntity
  8
4221039_0__SIEB_
  6
Continuous
 62
     7
100
AcDbEllipse
 10
161.9038839611
 20
611.5901496357
 30
0.0
 11
0.08574311296469325
 21
0.08574311296467851
 31
0.0
210
0.0
220
0.0
230
1.0
 40
0.600163345
 41
3.682132251803755
 42
4.171849382171876
  0
ELLIPSE
  5
120
330
6B
100
AcDbEntity
  8
4221039_0__SIEB_
  6
Continuous
 62
     7
100
AcDbEllipse
 10
161.9038839611
 20
611.5901496357
 30
0.0
 11
-0.08574311296468978
 21
0.08574311296469239
 31
0.0
210
0.0
220
0.0
230
0.9999999999999998
 40
0.600163345
 41
2.111335925007347
 42
2.60105305537418
  0
ELLIPSE
  5
121
330
6B
100
AcDbEntity
  8
4221039_0__SIEB_
  6
Continuous
 62
     7
100
AcDbEllipse
 10
161.9038839611
 20
610.8677860565
 30
0.0
 11
0.08574311296468633
 21
0.08574311296470628
 31
0.0
210
0.0
220
0.0
230
1.0
 40
0.600163345
 41
3.682132251803514
 42
4.171849382172407
  0
ELLIPSE
  5
122
330
6B
100
AcDbEntity
  8
4221039_0__SIEB_
  6
Continuous
 62
     7
100
AcDbEllipse
 10
161.9038839611
 20
610.8677860565
 30
0.0
 11
-0.08574311296468719
 21
0.08574311296469239
 31
0.0
210
0.0
220
0.0
230
1.0
 40
0.600163345
 41
2.111335925007172
 42
2.601053055376147
  0
ELLIPSE
  5
123
330
6B
100
AcDbEntity
  8
4221039_0__SIEB_
  6
Continuous
 62
     7
100
AcDbEllipse
 10
163.4395982468
 20
610.8677860565
 30
0.0
 11
0.08574311296467829
 21
0.08574311296469239
 31
0.0
210
0.0
220
0.0
230
1.0
 40
0.600163345
 41
3.682132251803321
 42
4.171849382171771
  0
ELLIPSE
  5
124
330
6B
100
AcDbEntity
  8
4221039_0__SIEB_
  6
Continuous
 62
     7
100
AcDbEllipse
 10
163.4395982468
 20
610.8677860565
 30
0.0
 11
-0.08574311296468676
 21
0.08574311296469239
 31
0.0
210
0.0
220
0.0
230
1.0
 40
0.600163345
 41
2.111335925007175
 42
2.601053055376153
  0
ELLIPSE
  5
125
330
6B
100
AcDbEntity
  8
4221039_0__SIEB_
  6
Continuous
 62
     7
100
AcDbEllipse
 10
163.4395982468
 20
610.8677860565
 30
0.0
 11
-0.08574311296468112
 21
-0.08574311296469239
 31
0.0
210
0.0
220
0.0
230
1.0
 40
0.600163345
 41
1.030256728581419
 42
2.601053055376148
  0
ELLIPSE
  5
126
330
6B
100
AcDbEntity
  8
4221039_0__SIEB_
  6
Continuous
 62
     7
100
AcDbEllipse
 10
163.4395982468
 20
610.8677860565
 30
0.0
 11
0.08574311296470019
 21
-0.08574311296469239
 31
0.0
210
0.0
220
0.0
230
1.0
 40
0.600163345
 41
3.682132251802591
 42
5.252928578596874
  0
ELLIPSE
  5
127
330
6B
100
AcDbEntity
  8
4221039_0__SIEB_
  6
Continuous
 62
     7
100
AcDbEllipse
 10
163.4395982468
 20
611.5901496357
 30
0.0
 11
0.0857431129646937
 21
0.08574311296467851
 31
0.0
210
0.0
220
0.0
230
1.0
 40
0.600163345
 41
3.682132251803761
 42
4.171849382170914
  0
ELLIPSE
  5
128
330
6B
100
AcDbEntity
  8
4221039_0__SIEB_
  6
Continuous
 62
     7
100
AcDbEllipse
 10
163.4395982468
 20
611.5901496357
 30
0.0
 11
-0.08574311296469023
 21
0.08574311296469239
 31
0.0
210
0.0
220
0.0
230
1.0
 40
0.600163345
 41
2.111335925008504
 42
2.601053055374818
  0
ELLIPSE
  5
129
330
6B
100
AcDbEntity
  8
4221039_0__SIEB_
  6
Continuous
 62
     7
100
AcDbEllipse
 10
163.4395982468
 20
611.5901496357
 30
0.0
 11
-0.08574311296468869
 21
-0.08574311296469238
 31
0.0
210
0.0
220
0.0
230
1.0
 40
0.600163345
 41
1.030256728581279
 42
2.601053055378356
  0
ELLIPSE
  5
12A
330
6B
100
AcDbEntity
  8
4221039_0__SIEB_
  6
Continuous
 62
     7
100
AcDbEllipse
 10
163.4395982468
 20
611.5901496357
 30
0.0
 11
0.08574311296469131
 21
-0.08574311296469239
 31
0.0
210
0.0
220
0.0
230
1.0
 40
0.600163345
 41
3.682132251802535
 42
5.252928578598289
  0
ELLIPSE
  5
12B
330
6B
100
AcDbEntity
  8
4221039_0__SIEB_
  6
Continuous
 62
     7
100
AcDbEllipse
 10
164.9753125325
 20
612.312513215
 30
0.0
 11
-0.08574311296468215
 21
-0.08574311296469239
 31
0.0
210
0.0
220
0.0
230
1.0
 40
0.600163345
 41
1.030256728581426
 42
1.637729455067401
  0
ELLIPSE
  5
12C
330
6B
100
AcDbEntity
  8
4221039_0__SIEB_
  6
Continuous
 62
     7
100
AcDbEllipse
 10
164.9753125325
 20
612.312513215
 30
0.0
 11
0.08574311296468959
 21
-0.08574311296469239
 31
0.0
210
0.0
220
0.0
230
0.9999999999999998
 40
0.600163345
 41
4.645455852118807
 42
5.252928578598302
  0
ELLIPSE
  5
12D
330
6B
100
AcDbEntity
  8
4221039_0__SIEB_
  6
Continuous
 62
     7
100
AcDbEllipse
 10
164.9753125325
 20
611.5901496357
 30
0.0
 11
-0.08574311296468863
 21
-0.08574311296469238
 31
0.0
210
0.0
220
0.0
230
1.0
 40
0.600163345
 41
1.030256728581278
 42
2.601053055378356
  0
ELLIPSE
  5
12E
330
6B
100
AcDbEntity
  8
4221039_0__SIEB_
  6
Continuous
 62
     7
100
AcDbEllipse
 10
164.9753125325
 20
611.5901496357
 30
0.0
 11
0.08574311296469141
 21
-0.08574311296469239
 31
0.0
210
0.0
220
0.0
230
1.0
 40
0.600163345
 41
3.682132251801248
 42
5.252928578597322
  0
ELLIPSE
  5
12F
330
6B
100
AcDbEntity
  8
4221039_0__SIEB_
  6
Continuous
 62
     7
100
AcDbEllipse
 10
164.9753125325
 20
612.312513215
 30
0.0
 11
0.08574311296468974
 21
0.08574311296469239
 31
0.0
210
0.0
220
0.0
230
1.0
 40
0.600163345
 41
3.68213225180154
 42
4.171849382171079
  0
ELLIPSE
  5
130
330
6B
100
AcDbEntity
  8
4221039_0__SIEB_
  6
Continuous
 62
     7
100
AcDbEllipse
 10
164.9753125325
 20
612.312513215
 30
0.0
 11
-0.08574311296468204
 21
0.08574311296469239
 31
0.0
210
0.0
220
0.0
230
1.0
 40
0.600163345
 41
2.111335925007981
 42
2.601053055376215
  0
ELLIPSE
  5
131
330
6B
100
AcDbEntity
  8
4221039_0__SIEB_
  6
Continuous
 62
     7
100
AcDbEllipse
 10
164.9753125325
 20
610.8677860565
 30
0.0
 11
-0.08574311296468859
 21
-0.08574311296470626
 31
0.0
210
0.0
220
0.0
230
1.0
 40
0.600163345
 41
1.030256728582631
 42
2.601053055377207
  0
ELLIPSE
  5
132
330
6B
100
AcDbEntity
  8
4221039_0__SIEB_
  6
Continuous
 62
     7
100
AcDbEllipse
 10
164.9753125325
 20
610.8677860565
 30
0.0
 11
0.08574311296470007
 21
-0.08574311296469239
 31
0.0
210
0.0
220
0.0
230
0.9999999999999998
 40
0.600163345
 41
3.682132251802268
 42
5.252928578596681
  0
ELLIPSE
  5
133
330
6B
100
AcDbEntity
  8
4221039_0__SIEB_
  6
Continuous
 62
     7
100
AcDbEllipse
 10
164.9753125325
 20
611.5901496357
 30
0.0
 11
0.08574311296469334
 21
0.08574311296469239
 31
0.0
210
0.0
220
0.0
230
0.9999999999999998
 40
0.600163345
 41
3.682132251804164
 42
4.171849382171877
  0
ELLIPSE
  5
134
330
6B
100
AcDbEntity
  8
4221039_0__SIEB_
  6
Continuous
 62
     7
100
AcDbEllipse
 10
164.9753125325
 20
611.5901496357
 30
0.0
 11
-0.08574311296469041
 21
0.08574311296469238
 31
0.0
210
0.0
220
0.0
230
1.0
 40
0.600163345
 41
2.111335925008503
 42
2.601053055374816
  0
ELLIPSE
  5
135
330
6B
100
AcDbEntity
  8
4221039_0__SIEB_
  6
Continuous
 62
     7
100
AcDbEllipse
 10
164.9753125325
 20
610.8677860565
 30
0.0
 11
0.08574311296468577
 21
0.08574311296469239
 31
0.0
210
0.0
220
0.0
230
1.0
 40
0.600163345
 41
3.682132251803421
 42
4.171849382172211
  0
ELLIPSE
  5
136
330
6B
100
AcDbEntity
  8
4221039_0__SIEB_
  6
Continuous
 62
     7
100
AcDbEllipse
 10
164.9753125325
 20
610.8677860565
 30
0.0
 11
-0.08574311296468676
 21
0.08574311296469239
 31
0.0
210
0.0
220
0.0
230
1.0
 40
0.600163345
 41
2.111335925007175
 42
2.601053055376153
  0
ELLIPSE
  5
137
330
6B
100
AcDbEntity
  8
4221039_0__SIEB_
  6
Continuous
 62
     7
100
AcDbEllipse
 10
166.5110268182
 20
610.8677860565
 30
0.0
 11
0.08574311296468869
 21
0.08574311296469238
 31
0.0
210
0.0
220
0.0
230
1.0
 40
0.600163345
 41
3.682132251801526
 42
4.171849382170878
  0
ELLIPSE
  5
138
330
6B
100
AcDbEntity
  8
4221039_0__SIEB_
  6
Continuous
 62
     7
100
AcDbEllipse
 10
166.5110268182
 20
610.8677860565
 30
0.0
 11
-0.08574311296468329
 21
0.08574311296470627
 31
0.0
210
0.0
220
0.0
230
1.0
 40
0.600163345
 41
2.1113359250072
 42
2.601053055376113
  0
ELLIPSE
  5
139
330
6B
100
AcDbEntity
  8
4221039_0__SIEB_
  6
Continuous
 62
     7
100
AcDbEllipse
 10
166.5110268182
 20
610.8677860565
 30
0.0
 11
-0.08574311296467829
 21
-0.08574311296469239
 31
0.0
210
0.0
220
0.0
230
1.0
 40
0.600163345
 41
1.030256728581399
 42
2.601053055376166
  0
ELLIPSE
  5
13A
330
6B
100
AcDbEntity
  8
4221039_0__SIEB_
  6
Continuous
 62
     7
100
AcDbEllipse
 10
166.5110268182
 20
610.8677860565
 30
0.0
 11
0.08574311296469389
 21
-0.08574311296469238
 31
0.0
210
0.0
220
0.0
230
1.0
 40
0.600163345
 41
3.682132251802229
 42
5.252928578597498
  0
ELLIPSE
  5
13B
330
6B
100
AcDbEntity
  8
4221039_0__SIEB_
  6
Continuous
 62
     7
100
AcDbEllipse
 10
166.5110268182
 20
611.5901496357
 30
0.0
 11
0.08574311296468978
 21
0.08574311296469239
 31
0.0
210
0.0
220
0.0
230
0.9999999999999998
 40
0.600163345
 41
3.682132251804118
 42
4.171849382171079
  0
ELLIPSE
  5
13C
330
6B
100
AcDbEntity
  8
4221039_0__SIEB_
  6
Continuous
 62
     7
100
AcDbEllipse
 10
166.5110268182
 20
611.5901496357
 30
0.0
 11
-0.08574311296469023
 21
0.08574311296469239
 31
0.0
210
0.0
220
0.0
230
1.0
 40
0.600163345
 41
2.111335925008504
 42
2.601053055374818
  0
ELLIPSE
  5
13D
330
6B
100
AcDbEntity
  8
4221039_0__SIEB_
  6
Continuous
 62
     7
100
AcDbEllipse
 10
166.5110268182
 20
611.5901496357
 30
0.0
 11
-0.08574311296468978
 21
-0.08574311296469239
 31
0.0
210
0.0
220
0.0
230
0.9999999999999998
 40
0.600163345
 41
1.030256728581286
 42
2.601053055375773
  0
ELLIPSE
  5
13E
330
6B
100
AcDbEntity
  8
4221039_0__SIEB_
  6
Continuous
 62
     7
100
AcDbEllipse
 10
166.5110268182
 20
611.5901496357
 30
0.0
 11
0.08574311296469131
 21
-0.08574311296469239
 31
0.0
210
0.0
220
0.0
230
1.0
 40
0.600163345
 41
3.682132251802535
 42
5.252928578597516
  0
ELLIPSE
  5
13F
330
6B
100
AcDbEntity
  8
4221039_0__SIEB_
  6
Continuous
 62
     7
100
AcDbEllipse
 10
168.046741104
 20
611.5901496357
 30
0.0
 11
-0.08574311296468978
 21
-0.08574311296469239
 31
0.0
210
0.0
220
0.0
230
0.9999999999999998
 40
0.600163345
 41
1.030256728581286
 42
2.601053055375773
  0
ELLIPSE
  5
140
330
6B
100
AcDbEntity
  8
4221039_0__SIEB_
  6
Continuous
 62
     7
100
AcDbEllipse
 10
168.046741104
 20
611.5901496357
 30
0.0
 11
0.08574311296468978
 21
-0.08574311296469239
 31
0.0
210
0.0
220
0.0
230
0.9999999999999998
 40
0.600163345
 41
3.682132251802526
 42
5.2529285785983
  0
ELLIPSE
  5
141
330
6B
100
AcDbEntity
  8
4221039_0__SIEB_
  6
Continuous
 62
     7
100
AcDbEllipse
 10
168.046741104
 20
610.8677860565
 30
0.0
 11
-0.08574311296468978
 21
-0.08574311296469239
 31
0.0
210
0.0
220
0.0
230
0.9999999999999998
 40
0.600163345
 41
1.03025672858206
 42
2.60105305537706
  0
ELLIPSE
  5
142
330
6B
100
AcDbEntity
  8
4221039_0__SIEB_
  6
Continuous
 62
     7
100
AcDbEllipse
 10
168.046741104
 20
610.8677860565
 30
0.0
 11
0.08574311296468849
 21
-0.08574311296469239
 31
0.0
210
0.0
220
0.0
230
0.9999999999999999
 40
0.600163345
 41
3.682132251802518
 42
5.252928578596956
  0
ELLIPSE
  5
143
330
6B
100
AcDbEntity
  8
4221039_0__SIEB_
  6
Continuous
 62
     7
100
AcDbEllipse
 10
168.046741104
 20
611.5901496357
 30
0.0
 11
0.08574311296469023
 21
0.08574311296469239
 31
0.0
210
0.0
220
0.0
230
1.0
 40
0.600163345
 41
3.682132251804124
 42
4.171849382171082
  0
ELLIPSE
  5
144
330
6B
100
AcDbEntity
  8
4221039_0__SIEB_
  6
Continuous
 62
     7
100
AcDbEllipse
 10
168.046741104
 20
611.5901496357
 30
0.0
 11
-0.08574311296468198
 21
0.08574311296472015
 31
0.0
210
0.0
220
0.0
230
1.0
 40
0.600163345
 41
2.111335925008368
 42
2.6010530553754
  0
ELLIPSE
  5
145
330
6B
100
AcDbEntity
  8
4221039_0__SIEB_
  6
Continuous
 62
     7
100
AcDbEllipse
 10
168.046741104
 20
610.8677860565
 30
0.0
 11
0.08574311296468978
 21
0.08574311296469239
 31
0.0
210
0.0
220
0.0
230
0.9999999999999998
 40
0.600163345
 41
3.682132251803474
 42
4.17184938217166
  0
ELLIPSE
  5
146
330
6B
100
AcDbEntity
  8
4221039_0__SIEB_
  6
Continuous
 62
     7
100
AcDbEllipse
 10
168.046741104
 20
610.8677860565
 30
0.0
 11
-0.08574311296468588
 21
0.08574311296469239
 31
0.0
210
0.0
220
0.0
230
1.0
 40
0.600163345
 41
2.111335925007375
 42
2.601053055376164
  0
ELLIPSE
  5
147
330
6B
100
AcDbEntity
  8
4221039_0__SIEB_
  6
Continuous
 62
     7
100
AcDbEllipse
 10
169.5824553897
 20
611.5901496357
 30
0.0
 11
0.08574311296468978
 21
0.08574311296469239
 31
0.0
210
0.0
220
0.0
230
0.9999999999999998
 40
0.600163345
 41
3.682132251804118
 42
4.171849382171079
  0
ELLIPSE
  5
148
330
6B
100
AcDbEntity
  8
4221039_0__SIEB_
  6
Continuous
 62
     7
100
AcDbEllipse
 10
169.5824553897
 20
611.5901496357
 30
0.0
 11
-0.08574311296468978
 21
0.08574311296469239
 31
0.0
210
0.0
220
0.0
230
0.9999999999999998
 40
0.600163345
 41
2.111335925008507
 42
2.601053055374824
  0
ELLIPSE
  5
149
330
6B
100
AcDbEntity
  8
4221039_0__SIEB_
  6
Continuous
 62
     7
100
AcDbEllipse
 10
169.5824553897
 20
611.5901496357
 30
0.0
 11
-0.08574311296468978
 21
-0.08574311296469239
 31
0.0
210
0.0
220
0.0
230
0.9999999999999998
 40
0.600163345
 41
1.030256728581286
 42
2.601053055375773
  0
ELLIPSE
  5
14A
330
6B
100
AcDbEntity
  8
4221039_0__SIEB_
  6
Continuous
 62
     7
100
AcDbEllipse
 10
169.5824553897
 20
611.5901496357
 30
0.0
 11
0.08574311296468978
 21
-0.08574311296469239
 31
0.0
210
0.0
220
0.0
230
0.9999999999999998
 40
0.600163345
 41
3.682132251802848
 42
5.2529285785983
  0
ELLIPSE
  5
14B
330
6B
100
AcDbEntity
  8
4221039_0__SIEB_
  6
Continuous
 62
     7
100
AcDbEllipse
 10
164.9753125325
 20
615.7025079584
 30
0.0
 11
8.800000000000001
 21
0.0
 31
0.0
210
0.0
220
0.0
230
1.0
 40
0.4703762842
 41
-1.20211078950191
 42
-1.140553431671045
  0
ELLIPSE
  5
14C
330
6B
100
AcDbEntity
  8
4221039_0__SIEB_
  6
Continuous
 62
     7
100
AcDbEllipse
 10
164.9753125325
 20
615.7025079584
 30
0.0
 11
8.800000000000001
 21
0.0
 31
0.0
210
0.0
220
0.0
230
1.0
 40
0.4703762842
 41
-1.322489487780075
 42
-1.226364065659669
  0
ELLIPSE
  5
14D
330
6B
100
AcDbEntity
  8
4221039_0__SIEB_
  6
Continuous
 62
     7
100
AcDbEllipse
 10
164.9753125325
 20
615.7025079584
 30
0.0
 11
8.800000000000001
 21
0.0
 31
0.0
210
0.0
220
0.0
230
1.0
 40
0.4703762842
 41
4.367956719249459
 42
4.464082141369865
  0
ELLIPSE
  5
14E
330
6B
100
AcDbEntity
  8
4221039_0__SIEB_
  6
Continuous
 62
     7
100
AcDbEllipse
 10
164.9753125325
 20
615.7025079584
 30
0.0
 11
8.800000000000001
 21
0.0
 31
0.0
210
0.0
220
0.0
230
1.0
 40
0.4703762842
 41
4.282146085260838
 42
4.343703443091696
  0
LINE
  5
14F
330
6B
100
AcDbEntity
  8
4221039_0__SIEB_
  6
Continuous
 62
     7
100
AcDbLine
 10
159.4555459327
 20
611.4901496357
 30
0.0
 11
160.321132047
 21
611.4901496357
 31
0.0
  0
LINE
  5
150
330
6B
100
AcDbEntity
  8
4221039_0__SIEB_
  6
Continuous
 62
     7
100
AcDbLine
 10
160.2681696754
 20
611.6901496357
 30
0.0
 11
160.1643770564
 21
611.6901496357
 31
0.0
  0
LINE
  5
151
330
6B
100
AcDbEntity
  8
4221039_0__SIEB_
  6
Continuous
 62
     7
100
AcDbLine
 10
160.4681696754
 20
610.9889763865
 30
0.0
 11
160.4681696754
 21
611.4901496357
 31
0.0
  0
LINE
  5
152
330
6B
100
AcDbEntity
  8
4221039_0__SIEB_
  6
Continuous
 62
     7
100
AcDbLine
 10
160.2681696754
 20
611.4901496357
 30
0.0
 11
160.2681696754
 21
611.0496610736
 31
0.0
  0
LINE
  5
153
330
6B
100
AcDbEntity
  8
4221039_0__SIEB_
  6
Continuous
 62
     7
100
AcDbLine
 10
160.4681696754
 20
611.6371872641
 30
0.0
 11
160.4681696754
 21
611.7649277064
 31
0.0
  0
LINE
  5
154
330
6B
100
AcDbEntity
  8
4221039_0__SIEB_
  6
Continuous
 62
     7
100
AcDbLine
 10
160.2681696754
 20
611.7163984732
 30
0.0
 11
160.2681696754
 21
611.6371872641
 31
0.0
  0
LINE
  5
155
330
6B
100
AcDbEntity
  8
4221039_0__SIEB_
  6
Continuous
 62
     7
100
AcDbLine
 10
160.4152073038
 20
610.7677860565
 30
0.0
 11
161.8568463327
 21
610.7677860565
 31
0.0
  0
LINE
  5
156
330
6B
100
AcDbEntity
  8
4221039_0__SIEB_
  6
Continuous
 62
     7
100
AcDbLine
 10
161.8038839611
 20
610.9677860565
 30
0.0
 11
160.5410152156
 21
610.9677860565
 31
0.0
  0
LINE
  5
157
330
6B
100
AcDbEntity
  8
4221039_0__SIEB_
  6
Continuous
 62
     7
100
AcDbLine
 10
160.4152073038
 20
611.4901496357
 30
0.0
 11
161.8568463327
 21
611.4901496357
 31
0.0
  0
LINE
  5
158
330
6B
100
AcDbEntity
  8
4221039_0__SIEB_
  6
Continuous
 62
     7
100
AcDbLine
 10
161.8038839611
 20
611.6901496357
 30
0.0
 11
160.4681696754
 21
611.6901496357
 31
0.0
  0
LINE
  5
159
330
6B
100
AcDbEntity
  8
4221039_0__SIEB_
  6
Continuous
 62
     7
100
AcDbLine
 10
162.0038839611
 20
611.6371872641
 30
0.0
 11
162.0038839611
 21
612.0556314799
 31
0.0
  0
LINE
  5
15A
330
6B
100
AcDbEntity
  8
4221039_0__SIEB_
  6
Continuous
 62
     7
100
AcDbLine
 10
161.8038839611
 20
612.0254341761
 30
0.0
 11
161.8038839611
 21
611.6371872641
 31
0.0
  0
LINE
  5
15B
330
6B
100
AcDbEntity
  8
4221039_0__SIEB_
  6
Continuous
 62
     7
100
AcDbLine
 10
162.0038839611
 20
610.9148236849
 30
0.0
 11
162.0038839611
 21
611.4901496357
 31
0.0
  0
LINE
  5
15C
330
6B
100
AcDbEntity
  8
4221039_0__SIEB_
  6
Continuous
 62
     7
100
AcDbLine
 10
161.8038839611
 20
611.4901496357
 30
0.0
 11
161.8038839611
 21
610.9148236849
 31
0.0
  0
LINE
  5
15D
330
6B
100
AcDbEntity
  8
4221039_0__SIEB_
  6
Continuous
 62
     7
100
AcDbLine
 10
162.0038839611
 20
610.632870628
 30
0.0
 11
162.0038839611
 21
610.7677860565
 31
0.0
  0
LINE
  5
15E
330
6B
100
AcDbEntity
  8
4221039_0__SIEB_
  6
Continuous
 62
     7
100
AcDbLine
 10
161.8038839611
 20
610.7677860565
 30
0.0
 11
161.8038839611
 21
610.6693308518
 31
0.0
  0
LINE
  5
15F
330
6B
100
AcDbEntity
  8
4221039_0__SIEB_
  6
Continuous
 62
     7
100
AcDbLine
 10
161.9509215895
 20
611.4901496357
 30
0.0
 11
163.3925606184
 21
611.4901496357
 31
0.0
  0
LINE
  5
160
330
6B
100
AcDbEntity
  8
4221039_0__SIEB_
  6
Continuous
 62
     7
100
AcDbLine
 10
163.3395982468
 20
611.6901496357
 30
0.0
 11
162.0038839611
 21
611.6901496357
 31
0.0
  0
LINE
  5
161
330
6B
100
AcDbEntity
  8
4221039_0__SIEB_
  6
Continuous
 62
     7
100
AcDbLine
 10
161.9509215895
 20
610.7677860565
 30
0.0
 11
163.3925606184
 21
610.7677860565
 31
0.0
  0
LINE
  5
162
330
6B
100
AcDbEntity
  8
4221039_0__SIEB_
  6
Continuous
 62
     7
100
AcDbLine
 10
163.3395982468
 20
610.9677860565
 30
0.0
 11
162.0038839611
 21
610.9677860565
 31
0.0
  0
LINE
  5
163
330
6B
100
AcDbEntity
  8
4221039_0__SIEB_
  6
Continuous
 62
     7
100
AcDbLine
 10
163.5395982468
 20
610.4380571484
 30
0.0
 11
163.5395982468
 21
610.7677860565
 31
0.0
  0
LINE
  5
164
330
6B
100
AcDbEntity
  8
4221039_0__SIEB_
  6
Continuous
 62
     7
100
AcDbLine
 10
163.3395982468
 20
610.7677860565
 30
0.0
 11
163.3395982468
 21
610.4553396069
 31
0.0
  0
LINE
  5
165
330
6B
100
AcDbEntity
  8
4221039_0__SIEB_
  6
Continuous
 62
     7
100
AcDbLine
 10
163.5395982468
 20
610.9148236849
 30
0.0
 11
163.5395982468
 21
611.4901496357
 31
0.0
  0
LINE
  5
166
330
6B
100
AcDbEntity
  8
4221039_0__SIEB_
  6
Continuous
 62
     7
100
AcDbLine
 10
163.3395982468
 20
611.4901496357
 30
0.0
 11
163.3395982468
 21
610.9148236849
 31
0.0
  0
LINE
  5
167
330
6B
100
AcDbEntity
  8
4221039_0__SIEB_
  6
Continuous
 62
     7
100
AcDbLine
 10
163.5395982468
 20
611.6371872641
 30
0.0
 11
163.5395982468
 21
612.212513215
 31
0.0
  0
LINE
  5
168
330
6B
100
AcDbEntity
  8
4221039_0__SIEB_
  6
Continuous
 62
     7
100
AcDbLine
 10
163.3395982468
 20
612.2039463829
 30
0.0
 11
163.3395982468
 21
611.6371872641
 31
0.0
  0
LINE
  5
169
330
6B
100
AcDbEntity
  8
4221039_0__SIEB_
  6
Continuous
 62
     7
100
AcDbLine
 10
163.4866358752
 20
610.7677860565
 30
0.0
 11
164.9282749041
 21
610.7677860565
 31
0.0
  0
LINE
  5
16A
330
6B
100
AcDbEntity
  8
4221039_0__SIEB_
  6
Continuous
 62
     7
100
AcDbLine
 10
164.8753125325
 20
610.9677860565
 30
0.0
 11
163.5395982468
 21
610.9677860565
 31
0.0
  0
LINE
  5
16B
330
6B
100
AcDbEntity
  8
4221039_0__SIEB_
  6
Continuous
 62
     7
100
AcDbLine
 10
163.4866358752
 20
611.4901496357
 30
0.0
 11
164.9282749041
 21
611.4901496357
 31
0.0
  0
LINE
  5
16C
330
6B
100
AcDbEntity
  8
4221039_0__SIEB_
  6
Continuous
 62
     7
100
AcDbLine
 10
164.8753125325
 20
611.6901496357
 30
0.0
 11
163.5395982468
 21
611.6901496357
 31
0.0
  0
LINE
  5
16D
330
6B
100
AcDbEntity
  8
4221039_0__SIEB_
  6
Continuous
 62
     7
100
AcDbLine
 10
163.4866358752
 20
612.212513215
 30
0.0
 11
164.9282749041
 21
612.212513215
 31
0.0
  0
LINE
  5
16E
330
6B
100
AcDbEntity
  8
4221039_0__SIEB_
  6
Continuous
 62
     7
100
AcDbLine
 10
165.0753125325
 20
611.6371872641
 30
0.0
 11
165.0753125325
 21
612.212513215
 31
0.0
  0
LINE
  5
16F
330
6B
100
AcDbEntity
  8
4221039_0__SIEB_
  6
Continuous
 62
     7
100
AcDbLine
 10
164.8753125325
 20
612.212513215
 30
0.0
 11
164.8753125325
 21
611.6371872641
 31
0.0
  0
LINE
  5
170
330
6B
100
AcDbEntity
  8
4221039_0__SIEB_
  6
Continuous
 62
     7
100
AcDbLine
 10
165.0753125325
 20
610.9148236849
 30
0.0
 11
165.0753125325
 21
611.4901496357
 31
0.0
  0
LINE
  5
171
330
6B
100
AcDbEntity
  8
4221039_0__SIEB_
  6
Continuous
 62
     7
100
AcDbLine
 10
164.8753125325
 20
611.4901496357
 30
0.0
 11
164.8753125325
 21
610.9148236849
 31
0.0
  0
LINE
  5
172
330
6B
100
AcDbEntity
  8
4221039_0__SIEB_
  6
Continuous
 62
     7
100
AcDbLine
 10
165.0753125325
 20
610.3808873208
 30
0.0
 11
165.0753125325
 21
610.7677860565
 31
0.0
  0
LINE
  5
173
330
6B
100
AcDbEntity
  8
4221039_0__SIEB_
  6
Continuous
 62
     7
100
AcDbLine
 10
164.8753125325
 20
610.7677860565
 30
0.0
 11
164.8753125325
 21
610.3808873208
 31
0.0
  0
LINE
  5
174
330
6B
100
AcDbEntity
  8
4221039_0__SIEB_
  6
Continuous
 62
     7
100
AcDbLine
 10
165.0223501609
 20
612.212513215
 30
0.0
 11
166.4639891898
 21
612.212513215
 31
0.0
  0
LINE
  5
175
330
6B
100
AcDbEntity
  8
4221039_0__SIEB_
  6
Continuous
 62
     7
100
AcDbLine
 10
165.0223501609
 20
611.4901496357
 30
0.0
 11
166.4639891898
 21
611.4901496357
 31
0.0
  0
LINE
  5
176
330
6B
100
AcDbEntity
  8
4221039_0__SIEB_
  6
Continuous
 62
     7
100
AcDbLine
 10
166.4110268182
 20
611.6901496357
 30
0.0
 11
165.0753125325
 21
611.6901496357
 31
0.0
  0
LINE
  5
177
330
6B
100
AcDbEntity
  8
4221039_0__SIEB_
  6
Continuous
 62
     7
100
AcDbLine
 10
165.0223501609
 20
610.7677860565
 30
0.0
 11
166.4639891898
 21
610.7677860565
 31
0.0
  0
LINE
  5
178
330
6B
100
AcDbEntity
  8
4221039_0__SIEB_
  6
Continuous
 62
     7
100
AcDbLine
 10
166.4110268182
 20
610.9677860565
 30
0.0
 11
165.0753125325
 21
610.9677860565
 31
0.0
  0
LINE
  5
179
330
6B
100
AcDbEntity
  8
4221039_0__SIEB_
  6
Continuous
 62
     7
100
AcDbLine
 10
166.6110268182
 20
610.4553396069
 30
0.0
 11
166.6110268182
 21
610.7677860565
 31
0.0
  0
LINE
  5
17A
330
6B
100
AcDbEntity
  8
4221039_0__SIEB_
  6
Continuous
 62
     7
100
AcDbLine
 10
166.4110268182
 20
610.7677860565
 30
0.0
 11
166.4110268182
 21
610.4380571484
 31
0.0
  0
LINE
  5
17B
330
6B
100
AcDbEntity
  8
4221039_0__SIEB_
  6
Continuous
 62
     7
100
AcDbLine
 10
166.6110268182
 20
610.9148236849
 30
0.0
 11
166.6110268182
 21
611.4901496357
 31
0.0
  0
LINE
  5
17C
330
6B
100
AcDbEntity
  8
4221039_0__SIEB_
  6
Continuous
 62
     7
100
AcDbLine
 10
166.4110268182
 20
611.4901496357
 30
0.0
 11
166.4110268182
 21
610.9148236849
 31
0.0
  0
LINE
  5
17D
330
6B
100
AcDbEntity
  8
4221039_0__SIEB_
  6
Continuous
 62
     7
100
AcDbLine
 10
166.6110268182
 20
611.6371872641
 30
0.0
 11
166.6110268182
 21
612.2039463829
 31
0.0
  0
LINE
  5
17E
330
6B
100
AcDbEntity
  8
4221039_0__SIEB_
  6
Continuous
 62
     7
100
AcDbLine
 10
166.4110268182
 20
612.212513215
 30
0.0
 11
166.4110268182
 21
611.6371872641
 31
0.0
  0
LINE
  5
17F
330
6B
100
AcDbEntity
  8
4221039_0__SIEB_
  6
Continuous
 62
     7
100
AcDbLine
 10
166.5580644467
 20
610.7677860565
 30
0.0
 11
167.9997034755
 21
610.7677860565
 31
0.0
  0
LINE
  5
180
330
6B
100
AcDbEntity
  8
4221039_0__SIEB_
  6
Continuous
 62
     7
100
AcDbLine
 10
167.946741104
 20
610.9677860565
 30
0.0
 11
166.6110268182
 21
610.9677860565
 31
0.0
  0
LINE
  5
181
330
6B
100
AcDbEntity
  8
4221039_0__SIEB_
  6
Continuous
 62
     7
100
AcDbLine
 10
166.5580644467
 20
611.4901496357
 30
0.0
 11
167.9997034755
 21
611.4901496357
 31
0.0
  0
LINE
  5
182
330
6B
100
AcDbEntity
  8
4221039_0__SIEB_
  6
Continuous
 62
     7
100
AcDbLine
 10
167.946741104
 20
611.6901496357
 30
0.0
 11
166.6110268182
 21
611.6901496357
 31
0.0
  0
LINE
  5
183
330
6B
100
AcDbEntity
  8
4221039_0__SIEB_
  6
Continuous
 62
     7
100
AcDbLine
 10
168.146741104
 20
611.6371872641
 30
0.0
 11
168.146741104
 21
612.0254341761
 31
0.0
  0
LINE
  5
184
330
6B
100
AcDbEntity
  8
4221039_0__SIEB_
  6
Continuous
 62
     7
100
AcDbLine
 10
167.946741104
 20
612.0556314799
 30
0.0
 11
167.946741104
 21
611.6371872641
 31
0.0
  0
LINE
  5
185
330
6B
100
AcDbEntity
  8
4221039_0__SIEB_
  6
Continuous
 62
     7
100
AcDbLine
 10
168.146741104
 20
610.9148236849
 30
0.0
 11
168.146741104
 21
611.4901496357
 31
0.0
  0
LINE
  5
186
330
6B
100
AcDbEntity
  8
4221039_0__SIEB_
  6
Continuous
 62
     7
100
AcDbLine
 10
167.946741104
 20
611.4901496357
 30
0.0
 11
167.946741104
 21
610.9148236849
 31
0.0
  0
LINE
  5
187
330
6B
100
AcDbEntity
  8
4221039_0__SIEB_
  6
Continuous
 62
     7
100
AcDbLine
 10
168.146741104
 20
610.6693308518
 30
0.0
 11
168.146741104
 21
610.7677860565
 31
0.0
  0
LINE
  5
188
330
6B
100
AcDbEntity
  8
4221039_0__SIEB_
  6
Continuous
 62
     7
100
AcDbLine
 10
167.946741104
 20
610.7677860565
 30
0.0
 11
167.946741104
 21
610.632870628
 31
0.0
  0
LINE
  5
189
330
6B
100
AcDbEntity
  8
4221039_0__SIEB_
  6
Continuous
 62
     7
100
AcDbLine
 10
168.0937787324
 20
611.4901496357
 30
0.0
 11
169.5354177613
 21
611.4901496357
 31
0.0
  0
LINE
  5
18A
330
6B
100
AcDbEntity
  8
4221039_0__SIEB_
  6
Continuous
 62
     7
100
AcDbLine
 10
169.4824553897
 20
611.6901496357
 30
0.0
 11
168.146741104
 21
611.6901496357
 31
0.0
  0
LINE
  5
18B
330
6B
100
AcDbEntity
  8
4221039_0__SIEB_
  6
Continuous
 62
     7
100
AcDbLine
 10
168.0937787324
 20
610.7677860565
 30
0.0
 11
169.5354177613
 21
610.7677860565
 31
0.0
  0
LINE
  5
18C
330
6B
100
AcDbEntity
  8
4221039_0__SIEB_
  6
Continuous
 62
     7
100
AcDbLine
 10
169.4096098495
 20
610.9677860565
 30
0.0
 11
168.146741104
 21
610.9677860565
 31
0.0
  0
LINE
  5
18D
330
6B
100
AcDbEntity
  8
4221039_0__SIEB_
  6
Continuous
 62
     7
100
AcDbLine
 10
169.6824553897
 20
611.0496610736
 30
0.0
 11
169.6824553897
 21
611.4901496357
 31
0.0
  0
LINE
  5
18E
330
6B
100
AcDbEntity
  8
4221039_0__SIEB_
  6
Continuous
 62
     7
100
AcDbLine
 10
169.4824553897
 20
611.4901496357
 30
0.0
 11
169.4824553897
 21
610.9889763865
 31
0.0
  0
LINE
  5
18F
330
6B
100
AcDbEntity
  8
4221039_0__SIEB_
  6
Continuous
 62
     7
100
AcDbLine
 10
169.6824553897
 20
611.6371872641
 30
0.0
 11
169.6824553897
 21
611.7163984732
 31
0.0
  0
LINE
  5
190
330
6B
100
AcDbEntity
  8
4221039_0__SIEB_
  6
Continuous
 62
     7
100
AcDbLine
 10
169.4824553897
 20
611.7649277064
 30
0.0
 11
169.4824553897
 21
611.6371872641
 31
0.0
  0
LINE
  5
191
330
6B
100
AcDbEntity
  8
4221039_0__SIEB_
  6
Continuous
 62
     7
100
AcDbLine
 10
169.6294930181
 20
611.4901496357
 30
0.0
 11
170.4950791323
 21
611.4901496357
 31
0.0
  0
LINE
  5
192
330
6B
100
AcDbEntity
  8
4221039_0__SIEB_
  6
Continuous
 62
     7
100
AcDbLine
 10
169.7862480086
 20
611.6901496357
 30
0.0
 11
169.6824553897
 21
611.6901496357
 31
0.0
  0
LINE
  5
193
330
6B
100
AcDbEntity
  8
$DDT_AUDIT_GENERATED_(D1)
  6
Continuous
 62
     7
100
AcDbLine
 10
261.7753125325
 20
548.9249712165
 30
0.0
 11
268.1753125325
 21
548.9249712165
 31
0.0
  0
LINE
  5
194
330
6B
100
AcDbEntity
  8
$DDT_AUDIT_GENERATED_(D1)
  6
Continuous
 62
     7
100
AcDbLine
 10
265.4238949312
 20
547.885740732
 30
0.0
 11
265.7147393108
 21
547.885740732
 31
0.0
  0
LINE
  5
195
330
6B
100
AcDbEntity
  8
$DDT_AUDIT_GENERATED_(D1)
  6
Continuous
 62
     7
100
AcDbLine
 10
264.9753125325
 20
543.1549712165
 30
0.0
 11
264.9753125325
 21
548.7087288584
 31
0.0
  0
LINE
  5
196
330
6B
100
AcDbEntity
  8
$DDT_AUDIT_GENERATED_(D1)
  6
Continuous
 62
     7
100
AcDbLine
 10
264.5267301338
 20
543.1549712165
 30
0.0
 11
264.5267301338
 21
547.885740732
 31
0.0
  0
LINE
  5
197
330
6B
100
AcDbEntity
  8
$DDT_AUDIT_GENERATED_(D1)
  6
Continuous
 62
     7
100
AcDbLine
 10
264.5267301338
 20
547.885740732
 30
0.0
 11
264.9753125325
 21
548.7087288584
 31
0.0
  0
LINE
  5
198
330
6B
100
AcDbEntity
  8
$DDT_AUDIT_GENERATED_(D1)
  6
Continuous
 62
     7
100
AcDbLine
 10
264.9753125325
 20
548.7087288584
 30
0.0
 11
265.4238949312
 21
547.885740732
 31
0.0
  0
LINE
  5
199
330
6B
100
AcDbEntity
  8
$DDT_AUDIT_GENERATED_(D1)
  6
Continuous
 62
     7
100
AcDbLine
 10
265.4238949312
 20
547.885740732
 30
0.0
 11
265.4238949312
 21
543.1549712165
 31
0.0
  0
LINE
  5
19A
330
6B
100
AcDbEntity
  8
$DDT_AUDIT_GENERATED_(D1)
  6
Continuous
 62
     7
100
AcDbLine
 10
264.2358857543
 20
547.885740732
 30
0.0
 11
264.5267301338
 21
547.885740732
 31
0.0
  0
LINE
  5
19B
330
6B
100
AcDbEntity
  8
$DDT_AUDIT_GENERATED_(D1)
  6
Continuous
 62
     7
100
AcDbLine
 10
263.9478781255
 20
543.1549712165
 30
0.0
 11
263.9478781255
 21
548.7087288584
 31
0.0
  0
LINE
  5
19C
330
6B
100
AcDbEntity
  8
$DDT_AUDIT_GENERATED_(D1)
  6
Continuous
 62
     7
100
AcDbLine
 10
263.3826313275
 20
543.1549712165
 30
0.0
 11
263.3826313275
 21
547.885740732
 31
0.0
  0
LINE
  5
19D
330
6B
100
AcDbEntity
  8
$DDT_AUDIT_GENERATED_(D1)
  6
Continuous
 62
     7
100
AcDbLine
 10
263.3826313275
 20
547.885740732
 30
0.0
 11
263.9478781255
 21
548.7087288584
 31
0.0
  0
LINE
  5
19E
330
6B
100
AcDbEntity
  8
$DDT_AUDIT_GENERATED_(D1)
  6
Continuous
 62
     7
100
AcDbLine
 10
263.9478781255
 20
548.7087288584
 30
0.0
 11
264.2358857543
 21
547.885740732
 31
0.0
  0
LINE
  5
19F
330
6B
100
AcDbEntity
  8
$DDT_AUDIT_GENERATED_(D1)
  6
Continuous
 62
     7
100
AcDbLine
 10
264.2358857543
 20
547.885740732
 30
0.0
 11
264.2358857543
 21
543.1549712165
 31
0.0
  0
LINE
  5
1A0
330
6B
100
AcDbEntity
  8
$DDT_AUDIT_GENERATED_(D1)
  6
Continuous
 62
     7
100
AcDbLine
 10
263.1202568223
 20
547.885740732
 30
0.0
 11
263.3826313275
 21
547.885740732
 31
0.0
  0
LINE
  5
1A1
330
6B
100
AcDbEntity
  8
$DDT_AUDIT_GENERATED_(D1)
  6
Continuous
 62
     7
100
AcDbLine
 10
263.0210161567
 20
543.1549712165
 30
0.0
 11
263.0210161567
 21
548.7087288584
 31
0.0
  0
LINE
  5
1A2
330
6B
100
AcDbEntity
  8
$DDT_AUDIT_GENERATED_(D1)
  6
Continuous
 62
     7
100
AcDbLine
 10
262.3944352544
 20
543.1549712165
 30
0.0
 11
262.3944352544
 21
547.885740732
 31
0.0
  0
LINE
  5
1A3
330
6B
100
AcDbEntity
  8
$DDT_AUDIT_GENERATED_(D1)
  6
Continuous
 62
     7
100
AcDbLine
 10
262.3944352544
 20
547.885740732
 30
0.0
 11
263.0210161567
 21
548.7087288584
 31
0.0
  0
LINE
  5
1A4
330
6B
100
AcDbEntity
  8
$DDT_AUDIT_GENERATED_(D1)
  6
Continuous
 62
     7
100
AcDbLine
 10
263.0210161567
 20
548.7087288584
 30
0.0
 11
263.1202568223
 21
547.885740732
 31
0.0
  0
LINE
  5
1A5
330
6B
100
AcDbEntity
  8
$DDT_AUDIT_GENERATED_(D1)
  6
Continuous
 62
     7
100
AcDbLine
 10
263.1202568223
 20
547.885740732
 30
0.0
 11
263.1202568223
 21
543.1549712165
 31
0.0
  0
LINE
  5
1A6
330
6B
100
AcDbEntity
  8
$DDT_AUDIT_GENERATED_(D1)
  6
Continuous
 62
     7
100
AcDbLine
 10
262.1862136681
 20
547.885740732
 30
0.0
 11
262.3944352544
 21
547.885740732
 31
0.0
  0
LINE
  5
1A7
330
6B
100
AcDbEntity
  8
$DDT_AUDIT_GENERATED_(D1)
  6
Continuous
 62
     7
100
AcDbLine
 10
261.6588734313
 20
543.1549712165
 30
0.0
 11
261.6588734313
 21
547.885740732
 31
0.0
  0
LINE
  5
1A8
330
6B
100
AcDbEntity
  8
$DDT_AUDIT_GENERATED_(D1)
  6
Continuous
 62
     7
100
AcDbLine
 10
261.6588734313
 20
547.885740732
 30
0.0
 11
262.2854543337
 21
548.7087288584
 31
0.0
  0
LINE
  5
1A9
330
6B
100
AcDbEntity
  8
$DDT_AUDIT_GENERATED_(D1)
  6
Continuous
 62
     7
100
AcDbLine
 10
262.2854543337
 20
548.7087288584
 30
0.0
 11
262.1862136681
 21
547.885740732
 31
0.0
  0
LINE
  5
1AA
330
6B
100
AcDbEntity
  8
$DDT_AUDIT_GENERATED_(D1)
  6
Continuous
 62
     7
100
AcDbLine
 10
262.1862136681
 20
547.885740732
 30
0.0
 11
262.1862136681
 21
543.1549712165
 31
0.0
  0
LINE
  5
1AB
330
6B
100
AcDbEntity
  8
$DDT_AUDIT_GENERATED_(D1)
  6
Continuous
 62
     7
100
AcDbLine
 10
261.5251869436
 20
547.885740732
 30
0.0
 11
261.6588734313
 21
547.885740732
 31
0.0
  0
LINE
  5
1AC
330
6B
100
AcDbEntity
  8
$DDT_AUDIT_GENERATED_(D1)
  6
Continuous
 62
     7
100
AcDbLine
 10
261.2479477745
 20
543.1549712165
 30
0.0
 11
261.2479477745
 21
547.885740732
 31
0.0
  0
LINE
  5
1AD
330
6B
100
AcDbEntity
  8
$DDT_AUDIT_GENERATED_(D1)
  6
Continuous
 62
     7
100
AcDbLine
 10
261.2479477745
 20
547.885740732
 30
0.0
 11
261.8131945724
 21
548.7087288584
 31
0.0
  0
LINE
  5
1AE
330
6B
100
AcDbEntity
  8
$DDT_AUDIT_GENERATED_(D1)
  6
Continuous
 62
     7
100
AcDbLine
 10
261.8131945724
 20
548.7087288584
 30
0.0
 11
261.5251869436
 21
547.885740732
 31
0.0
  0
LINE
  5
1AF
330
6B
100
AcDbEntity
  8
$DDT_AUDIT_GENERATED_(D1)
  6
Continuous
 62
     7
100
AcDbLine
 10
261.5251869436
 20
547.885740732
 30
0.0
 11
261.5251869436
 21
543.1549712165
 31
0.0
  0
LINE
  5
1B0
330
6B
100
AcDbEntity
  8
$DDT_AUDIT_GENERATED_(D1)
  6
Continuous
 62
     7
100
AcDbLine
 10
261.2018825502
 20
547.885740732
 30
0.0
 11
261.2479477745
 21
547.885740732
 31
0.0
  0
LINE
  5
1B1
330
6B
100
AcDbEntity
  8
$DDT_AUDIT_GENERATED_(D1)
  6
Continuous
 62
     7
100
AcDbLine
 10
261.6504649489
 20
548.7087288584
 30
0.0
 11
261.2018825502
 21
547.885740732
 31
0.0
  0
LINE
  5
1B2
330
6B
100
AcDbEntity
  8
$DDT_AUDIT_GENERATED_(D1)
  6
Continuous
 62
     7
100
AcDbLine
 10
261.2018825502
 20
547.885740732
 30
0.0
 11
261.2018825502
 21
543.1549712165
 31
0.0
  0
LINE
  5
1B3
330
6B
100
AcDbEntity
  8
$DDT_AUDIT_GENERATED_(D1)
  6
Continuous
 62
     7
100
AcDbLine
 10
268.7487425149
 20
543.1549712165
 30
0.0
 11
268.7487425149
 21
547.885740732
 31
0.0
  0
LINE
  5
1B4
330
6B
100
AcDbEntity
  8
$DDT_AUDIT_GENERATED_(D1)
  6
Continuous
 62
     7
100
AcDbLine
 10
268.7487425149
 20
547.885740732
 30
0.0
 11
268.3001601162
 21
548.7087288584
 31
0.0
  0
LINE
  5
1B5
330
6B
100
AcDbEntity
  8
$DDT_AUDIT_GENERATED_(D1)
  6
Continuous
 62
     7
100
AcDbLine
 10
268.7026772906
 20
547.885740732
 30
0.0
 11
268.7487425149
 21
547.885740732
 31
0.0
  0
LINE
  5
1B6
330
6B
100
AcDbEntity
  8
$DDT_AUDIT_GENERATED_(D1)
  6
Continuous
 62
     7
100
AcDbLine
 10
268.4254381214
 20
543.1549712165
 30
0.0
 11
268.4254381214
 21
547.885740732
 31
0.0
  0
LINE
  5
1B7
330
6B
100
AcDbEntity
  8
$DDT_AUDIT_GENERATED_(D1)
  6
Continuous
 62
     7
100
AcDbLine
 10
268.4254381214
 20
547.885740732
 30
0.0
 11
268.1374304926
 21
548.7087288584
 31
0.0
  0
LINE
  5
1B8
330
6B
100
AcDbEntity
  8
$DDT_AUDIT_GENERATED_(D1)
  6
Continuous
 62
     7
100
AcDbLine
 10
268.1374304926
 20
548.7087288584
 30
0.0
 11
268.7026772906
 21
547.885740732
 31
0.0
  0
LINE
  5
1B9
330
6B
100
AcDbEntity
  8
$DDT_AUDIT_GENERATED_(D1)
  6
Continuous
 62
     7
100
AcDbLine
 10
268.7026772906
 20
547.885740732
 30
0.0
 11
268.7026772906
 21
543.1549712165
 31
0.0
  0
LINE
  5
1BA
330
6B
100
AcDbEntity
  8
$DDT_AUDIT_GENERATED_(D1)
  6
Continuous
 62
     7
100
AcDbLine
 10
268.2917516337
 20
547.885740732
 30
0.0
 11
268.4254381214
 21
547.885740732
 31
0.0
  0
LINE
  5
1BB
330
6B
100
AcDbEntity
  8
$DDT_AUDIT_GENERATED_(D1)
  6
Continuous
 62
     7
100
AcDbLine
 10
267.7644113969
 20
543.1549712165
 30
0.0
 11
267.7644113969
 21
547.885740732
 31
0.0
  0
LINE
  5
1BC
330
6B
100
AcDbEntity
  8
$DDT_AUDIT_GENERATED_(D1)
  6
Continuous
 62
     7
100
AcDbLine
 10
267.7644113969
 20
547.885740732
 30
0.0
 11
267.6651707314
 21
548.7087288584
 31
0.0
  0
LINE
  5
1BD
330
6B
100
AcDbEntity
  8
$DDT_AUDIT_GENERATED_(D1)
  6
Continuous
 62
     7
100
AcDbLine
 10
267.6651707314
 20
548.7087288584
 30
0.0
 11
268.2917516337
 21
547.885740732
 31
0.0
  0
LINE
  5
1BE
330
6B
100
AcDbEntity
  8
$DDT_AUDIT_GENERATED_(D1)
  6
Continuous
 62
     7
100
AcDbLine
 10
268.2917516337
 20
547.885740732
 30
0.0
 11
268.2917516337
 21
543.1549712165
 31
0.0
  0
LINE
  5
1BF
330
6B
100
AcDbEntity
  8
$DDT_AUDIT_GENERATED_(D1)
  6
Continuous
 62
     7
100
AcDbLine
 10
267.5561898106
 20
547.885740732
 30
0.0
 11
267.7644113969
 21
547.885740732
 31
0.0
  0
LINE
  5
1C0
330
6B
100
AcDbEntity
  8
$DDT_AUDIT_GENERATED_(D1)
  6
Continuous
 62
     7
100
AcDbLine
 10
266.9296089083
 20
543.1549712165
 30
0.0
 11
266.9296089083
 21
548.7087288584
 31
0.0
  0
LINE
  5
1C1
330
6B
100
AcDbEntity
  8
$DDT_AUDIT_GENERATED_(D1)
  6
Continuous
 62
     7
100
AcDbLine
 10
266.8303682428
 20
543.1549712165
 30
0.0
 11
266.8303682428
 21
547.885740732
 31
0.0
  0
LINE
  5
1C2
330
6B
100
AcDbEntity
  8
$DDT_AUDIT_GENERATED_(D1)
  6
Continuous
 62
     7
100
AcDbLine
 10
266.8303682428
 20
547.885740732
 30
0.0
 11
266.9296089083
 21
548.7087288584
 31
0.0
  0
LINE
  5
1C3
330
6B
100
AcDbEntity
  8
$DDT_AUDIT_GENERATED_(D1)
  6
Continuous
 62
     7
100
AcDbLine
 10
266.9296089083
 20
548.7087288584
 30
0.0
 11
267.5561898106
 21
547.885740732
 31
0.0
  0
LINE
  5
1C4
330
6B
100
AcDbEntity
  8
$DDT_AUDIT_GENERATED_(D1)
  6
Continuous
 62
     7
100
AcDbLine
 10
267.5561898106
 20
547.885740732
 30
0.0
 11
267.5561898106
 21
543.1549712165
 31
0.0
  0
LINE
  5
1C5
330
6B
100
AcDbEntity
  8
$DDT_AUDIT_GENERATED_(D1)
  6
Continuous
 62
     7
100
AcDbLine
 10
266.5679937375
 20
547.885740732
 30
0.0
 11
266.8303682428
 21
547.885740732
 31
0.0
  0
LINE
  5
1C6
330
6B
100
AcDbEntity
  8
$DDT_AUDIT_GENERATED_(D1)
  6
Continuous
 62
     7
100
AcDbLine
 10
266.0027469396
 20
543.1549712165
 30
0.0
 11
266.0027469396
 21
548.7087288584
 31
0.0
  0
LINE
  5
1C7
330
6B
100
AcDbEntity
  8
$DDT_AUDIT_GENERATED_(D1)
  6
Continuous
 62
     7
100
AcDbLine
 10
265.7147393108
 20
543.1549712165
 30
0.0
 11
265.7147393108
 21
547.885740732
 31
0.0
  0
LINE
  5
1C8
330
6B
100
AcDbEntity
  8
$DDT_AUDIT_GENERATED_(D1)
  6
Continuous
 62
     7
100
AcDbLine
 10
265.7147393108
 20
547.885740732
 30
0.0
 11
266.0027469396
 21
548.7087288584
 31
0.0
  0
LINE
  5
1C9
330
6B
100
AcDbEntity
  8
$DDT_AUDIT_GENERATED_(D1)
  6
Continuous
 62
     7
100
AcDbLine
 10
266.0027469396
 20
548.7087288584
 30
0.0
 11
266.5679937375
 21
547.885740732
 31
0.0
  0
LINE
  5
1CA
330
6B
100
AcDbEntity
  8
$DDT_AUDIT_GENERATED_(D1)
  6
Continuous
 62
     7
100
AcDbLine
 10
266.5679937375
 20
547.885740732
 30
0.0
 11
266.5679937375
 21
543.1549712165
 31
0.0
  0
LINE
  5
1CB
330
6B
100
AcDbEntity
  8
$DDT_AUDIT_GENERATED_(D1)
  6
Continuous
 62
     7
100
AcDbLine
 10
268.3001601162
 20
548.7087288584
 30
0.0
 11
268.1753125325
 21
548.9249712165
 31
0.0
  0
LINE
  5
1CC
330
6B
100
AcDbEntity
  8
$DDT_AUDIT_GENERATED_(D1)
  6
Continuous
 62
     7
100
AcDbLine
 10
261.7753125325
 20
548.9249712165
 30
0.0
 11
261.6504649489
 21
548.7087288584
 31
0.0
  0
ENDBLK
  5
1CE
330
6B
100
AcDbEntity
  8
0
100
AcDbBlockEnd
  0
BLOCK
  5
277
330
1CF
100
AcDbEntity
  8
0
100
AcDbBlockBegin
  2
SE1
 70
     0
 10
0.0
 20
0.0
 30
0.0
  3
SE1
  1

  0
LINE
  5
1D1
330
1CF
100
AcDbEntity
  8
T14080042__HE_RO
  6
Continuous
 62
     7
100
AcDbLine
 10
435.4911258639
 20
508.9549712165
 30
0.0
 11
426.5134840833
 21
508.9549712165
 31
0.0
  0
LINE
  5
1D2
330
1CF
100
AcDbEntity
  8
T14080042__HE_RO
  6
Continuous
 62
     7
100
AcDbLine
 10
375.2687677971
 20
508.9549712165
 30
0.0
 11
366.2911258639
 21
508.9549712165
 31
0.0
  0
LINE
  5
1D3
330
1CF
100
AcDbEntity
  8
T14080042__HE_RO
  6
Continuous
 62
     7
100
AcDbLine
 10
438.5411258639
 20
504.4549712165
 30
0.0
 11
429.5117232021
 21
504.4549712165
 31
0.0
  0
LINE
  5
1D4
330
1CF
100
AcDbEntity
  8
T14080042__HE_RO
  6
Continuous
 62
     7
100
AcDbLine
 10
372.2705286783
 20
504.4549712165
 30
0.0
 11
363.2411258639
 21
504.4549712165
 31
0.0
  0
LINE
  5
1D5
330
1CF
100
AcDbEntity
  8
T14080042__HE_RO
  6
Continuous
 62
     7
100
AcDbLine
 10
439.0411258639
 20
501.8549712165
 30
0.0
 11
430.3411259402
 21
501.8549712165
 31
0.0
  0
LINE
  5
1D6
330
1CF
100
AcDbEntity
  8
T14080042__HE_RO
  6
Continuous
 62
     7
100
AcDbLine
 10
371.4411259402
 20
501.8549712165
 30
0.0
 11
362.7411258639
 21
501.8549712165
 31
0.0
  0
LINE
  5
1D7
330
1CF
100
AcDbEntity
  8
T14080042__HE_RO
  6
Continuous
 62
     7
100
AcDbLine
 10
432.8911258639
 20
510.8549712165
 30
0.0
 11
424.1411259402
 21
510.8549712165
 31
0.0
  0
LINE
  5
1D8
330
1CF
100
AcDbEntity
  8
T14080042__HE_RO
  6
Continuous
 62
     7
100
AcDbLine
 10
377.6411259402
 20
510.8549712165
 30
0.0
 11
368.8911258639
 21
510.8549712165
 31
0.0
  0
LINE
  5
1D9
330
1CF
100
AcDbEntity
  8
T14080042__HE_RO
  6
Continuous
 62
     7
100
AcDbLine
 10
436.2207395296
 20
506.3479653079
 30
0.0
 11
427.3823240704
 21
506.3479653079
 31
0.0
  0
LINE
  5
1DA
330
1CF
100
AcDbEntity
  8
T14080042__HE_RO
  6
Continuous
 62
     7
100
AcDbLine
 10
374.39992781
 20
506.3479653079
 30
0.0
 11
365.5615121983
 21
506.3479653079
 31
0.0
  0
ARC
  5
1DB
330
1CF
100
AcDbEntity
  8
T14080042__HE_RO
  6
Continuous
 62
     7
100
AcDbCircle
 10
434.8231481479
 20
507.5010779017
 30
0.0
 40
1.600000000000045
100
AcDbArc
 50
336.778605052
 51
65.3240258272
  0
ARC
  5
1DC
330
1CF
100
AcDbEntity
  8
T14080042__HE_RO
  6
Continuous
 62
     7
100
AcDbCircle
 10
366.95910358
 20
507.5010779017
 30
0.0
 40
1.600000000000003
100
AcDbArc
 50
114.6759741728
 51
203.221394948
  0
ARC
  5
1DD
330
1CF
100
AcDbEntity
  8
T14080042__HE_RO
  6
Continuous
 62
     7
100
AcDbCircle
 10
441.8888001708
 20
511.7208556593
 30
0.0
 40
8.000000000000002
100
AcDbArc
 50
228.0149459115
 51
245.2626459224
  0
ARC
  5
1DE
330
1CF
100
AcDbEntity
  8
T14080042__HE_RO
  6
Continuous
 62
     7
100
AcDbCircle
 10
359.8934515571
 20
511.7208556593
 30
0.0
 40
7.999999999999995
100
AcDbArc
 50
294.7373540776
 51
311.9850540885
  0
ARC
  5
1DF
330
1CF
100
AcDbEntity
  8
T14080042__HE_RO
  6
Continuous
 62
     7
100
AcDbCircle
 10
437.9086850135
 20
502.985271053
 30
0.0
 40
1.599999999999995
100
AcDbArc
 50
315.0542134714
 51
66.7168406379
  0
ARC
  5
1E0
330
1CF
100
AcDbEntity
  8
T14080042__HE_RO
  6
Continuous
 62
     7
100
AcDbCircle
 10
363.8735667144
 20
502.985271053
 30
0.0
 40
1.599999999999996
100
AcDbArc
 50
113.2831593621
 51
224.9457865286
  0
ARC
  5
1E1
330
1CF
100
AcDbEntity
  8
T14080042__HE_RO
  6
Continuous
 62
     7
100
AcDbCircle
 10
438.8146691853
 20
516.2319252353
 30
0.0
 40
8.000000000000002
100
AcDbArc
 50
222.2308411764
 51
245.452787944
  0
ARC
  5
1E2
330
1CF
100
AcDbEntity
  8
T14080042__HE_RO
  6
Continuous
 62
     7
100
AcDbCircle
 10
362.9675825426
 20
516.2319252353
 30
0.0
 40
7.999999999999996
100
AcDbArc
 50
294.547212056
 51
317.7691588236
  0
ARC
  5
1E3
330
1CF
100
AcDbEntity
  8
T14080042__HE_RO
  6
Continuous
 62
     7
100
AcDbCircle
 10
437.2125173962
 20
506.4759366455
 30
0.0
 40
1.000000000000002
100
AcDbArc
 50
156.7786050521
 51
187.3523793599
  0
ARC
  5
1E4
330
1CF
100
AcDbEntity
  8
T14080042__HE_RO
  6
Continuous
 62
     7
100
AcDbCircle
 10
364.5697343317
 20
506.4759366455
 30
0.0
 40
0.9999999999999577
100
AcDbArc
 50
352.6476206401
 51
23.2213949479
  0
ARC
  5
1E5
330
1CF
100
AcDbEntity
  8
T14080042__HE_RO
  6
Continuous
 62
     7
100
AcDbCircle
 10
437.2062430588
 20
506.5176202338
 30
0.0
 40
0.9999999999999966
100
AcDbArc
 50
189.7677563329
 51
228.0149459115
  0
ARC
  5
1E6
330
1CF
100
AcDbEntity
  8
T14080042__HE_RO
  6
Continuous
 62
     7
100
AcDbCircle
 10
364.5760086691
 20
506.5176202338
 30
0.0
 40
1.000000000000002
100
AcDbArc
 50
311.9850540885
 51
350.2322436671
  0
LINE
  5
1E7
330
1CF
100
AcDbEntity
  8
11185038__LAVATO
  6
Continuous
 62
     7
100
AcDbLine
 10
542.2688365932
 20
626.9498712165
 30
0.0
 11
515.7948365932
 21
612.8385712165
 31
0.0
  0
ARC
  5
1E8
330
1CF
100
AcDbEntity
  8
11185038__LAVATO
  6
Continuous
 62
     7
100
AcDbCircle
 10
184.708475048
 20
724.1865855063
 30
0.0
 40
242.1625542755407
100
AcDbArc
 50
330.7242445427
 51
335.9454573928
  0
SPLINE
  5
1E9
330
1CF
100
AcDbEntity
  8
11185038__LAVATO
  6
Continuous
 62
     7
100
AcDbSpline
210
0.0
220
0.0
230
1.0
 70
     8
 71
     3
 72
    52
 73
    48
 74
     0
 42
0.0000000000495434
 43
0.0000000001
 40
0.0
 40
0.0
 40
0.0
 40
0.0
 40
0.0308576136745734
 40
0.0689470866361778
 40
0.1056178275160471
 40
0.1408697745542454
 40
0.1747028127219712
 40
0.2071169629023685
 40
0.2381121744931593
 40
0.2676884659859011
 40
0.2958479111627658
 40
0.3225879577953139
 40
0.3479085993892528
 40
0.3718098299145203
 40
0.398615170631086
 40
0.4233764279501552
 40
0.4460943045549038
 40
0.4668840071198099
 40
0.4864201714798744
 40
0.509230963268004
 40
0.53025451445915
 40
0.5494847964893649
 40
0.5669271826345238
 40
0.5777916300138448
 40
0.5898059408570864
 40
0.6033262292462436
 40
0.6183522861372714
 40
0.6346640532109687
 40
0.6510057473464852
 40
0.6671934685992947
 40
0.6834099579036991
 40
0.6996334751366581
 40
0.7242360469045329
 40
0.7486290358940395
 40
0.7724404424570777
 40
0.7964983929432331
 40
0.8211304569310011
 40
0.8466906901648481
 40
0.860570273484363
 40
0.8760485618391372
 40
0.8930670312078847
 40
0.9115407905511931
 40
0.9314696260286701
 40
0.9528531871823852
 40
0.9679218273545078
 40
0.9836374243549796
 40
1.0
 40
1.0
 40
1.0
 40
1.0
 10
433.534543277026
 20
512.8976653007675
 30
0.0
 10
432.7405840323171
 20
515.0369061223256
 30
0.0
 10
431.2565162365737
 20
519.0833186944285
 30
0.0
 10
429.3059287586457
 20
526.0771043306936
 30
0.0
 10
427.7462265191029
 20
533.2670388881728
 30
0.0
 10
426.6634045164195
 20
540.3086636195724
 30
0.0
 10
426.0177414312247
 20
547.1022980264472
 30
0.0
 10
425.7643592263775
 20
553.6381183570791
 30
0.0
 10
425.8453442125289
 20
559.8916355608408
 30
0.0
 10
426.2561988720353
 20
565.8444221613532
 30
0.0
 10
426.8101764304069
 20
571.4963474025649
 30
0.0
 10
427.4153462502268
 20
576.8552695927805
 30
0.0
 10
428.077605852643
 20
581.918958474424
 30
0.0
 10
428.8139653997546
 20
586.9763741789017
 30
0.0
 10
429.6463411582238
 20
591.9828091945169
 30
0.0
 10
430.765756560023
 20
596.8524132926638
 30
0.0
 10
432.0087251636829
 20
601.2717970845007
 30
0.0
 10
433.3440745313897
 20
605.2955272314522
 30
0.0
 10
434.8502414527869
 20
609.2647652814392
 30
0.0
 10
436.5397967426734
 20
613.1776116237407
 30
0.0
 10
438.3940389076196
 20
616.9903538629179
 30
0.0
 10
440.251752980479
 20
620.4010880557903
 30
0.0
 10
442.105169458452
 20
623.0132599104215
 30
0.0
 10
443.8443955052962
 20
625.0938841889935
 30
0.0
 10
445.5370364482065
 20
626.8638389870816
 30
0.0
 10
447.5637896352675
 20
628.6919092394605
 30
0.0
 10
449.9655050507817
 20
630.5219173497331
 30
0.0
 10
452.6849042724722
 20
632.2271420371287
 30
0.0
 10
455.6221005222924
 20
633.7066970791757
 30
0.0
 10
458.6838983515918
 20
634.8854573717967
 30
0.0
 10
461.8094124593296
 20
635.8503727961017
 30
0.0
 10
465.541816354504
 20
636.7411240680672
 30
0.0
 10
469.8835966366861
 20
637.4036088163084
 30
0.0
 10
474.779232852202
 20
637.6588961236424
 30
0.0
 10
479.6394992209395
 20
637.4371982795919
 30
0.0
 10
484.471595273898
 20
636.7431855797205
 30
0.0
 10
489.3260396886524
 20
635.5479340534946
 30
0.0
 10
493.3905969527795
 20
634.0969250085604
 30
0.0
 10
496.7572226779646
 20
632.5783852202021
 30
0.0
 10
499.5247801274593
 20
631.1378834878187
 30
0.0
 10
502.4318254061108
 20
629.3157203977627
 30
0.0
 10
505.3931630857397
 20
627.0445452233033
 30
0.0
 10
508.3259908500727
 20
624.2885899251878
 30
0.0
 10
510.8001280850746
 20
621.3979927137726
 30
0.0
 10
512.8085534990705
 20
618.5401387857503
 30
0.0
 10
514.4553695641476
 20
615.7554222229725
 30
0.0
 10
515.2940802718673
 20
613.9400474620539
 30
0.0
 10
515.7948365932184
 20
612.8385712165126
 30
0.0
  0
SPLINE
  5
1EA
330
1CF
100
AcDbEntity
  8
11185038__LAVATO
  6
Continuous
 62
     7
100
AcDbSpline
210
0.0
220
0.0
230
1.0
 70
     8
 71
     3
 72
    21
 73
    17
 74
     0
 42
0.0000000001029861
 43
0.0000000001
 40
0.0
 40
0.0
 40
0.0
 40
0.0
 40
0.0548151051305095
 40
0.1209984424867477
 40
0.1921194927559126
 40
0.2681781364783382
 40
0.3491742923512395
 40
0.4351078942821727
 40
0.5259786973520234
 40
0.5899645693585538
 40
0.6561809859414145
 40
0.7246363900997735
 40
0.7953303292266356
 40
0.8682627013145098
 40
0.9434338176264582
 40
1.0
 40
1.0
 40
1.0
 40
1.0
 10
395.9567407510707
 20
605.7593505886794
 30
0.0
 10
395.1924475173082
 20
603.9645889378804
 30
0.0
 10
393.7741083862343
 20
600.614543436039
 30
0.0
 10
391.543006431249
 20
594.6713832607005
 30
0.0
 10
389.3434714066934
 20
588.1697460610891
 30
0.0
 10
387.2406567331607
 20
581.0791921761867
 30
0.0
 10
385.307382578067
 20
573.4605045564178
 30
0.0
 10
383.6109701466123
 20
565.2914830973709
 30
0.0
 10
382.3346528078221
 20
557.6025667952559
 30
0.0
 10
381.5510867956846
 20
550.4921635676179
 30
0.0
 10
380.4875852905985
 20
544.1486045807459
 30
0.0
 10
378.9751659829743
 20
537.6773577279878
 30
0.0
 10
376.9848499923636
 20
531.0944335726429
 30
0.0
 10
374.494325083198
 20
524.5084493696877
 30
0.0
 10
371.7030901450609
 20
518.3330849458556
 30
0.0
 10
369.7622291879463
 20
514.8729944543296
 30
0.0
 10
368.7704964219509
 20
513.1211994781942
 30
0.0
  0
SPLINE
  5
1EB
330
1CF
100
AcDbEntity
  8
11185038__LAVATO
  6
Continuous
 62
     7
100
AcDbSpline
210
0.0
220
0.0
230
1.0
 70
     8
 71
     3
 72
    39
 73
    35
 74
     0
 42
0.0000000000606821
 43
0.0000000001
 40
0.0
 40
0.0
 40
0.0
 40
0.0
 40
0.0296832610891457
 40
0.0575154074356796
 40
0.0834963771533643
 40
0.1076260420202266
 40
0.12990423487185
 40
0.1503308659733091
 40
0.1723978080352612
 40
0.1917984285896976
 40
0.2086274299587682
 40
0.22503733115734
 40
0.2419212987089017
 40
0.2711107830144586
 40
0.3017340153436642
 40
0.3338558343066231
 40
0.3673563926055834
 40
0.4019612423480894
 40
0.4361168512506324
 40
0.47577636454267
 40
0.5138988039647528
 40
0.550867729020398
 40
0.5867802103452356
 40
0.621697644963179
 40
0.6648938510805
 40
0.7081059479512634
 40
0.7513897100035966
 40
0.794803159998824
 40
0.8296717123575841
 40
0.864780679263241
 40
0.9004051684219189
 40
0.9365952768236248
 40
0.9733907075499832
 40
1.0
 40
1.0
 40
1.0
 40
1.0
 10
542.2688365932186
 20
626.9498712165126
 30
0.0
 10
541.4252226349372
 20
628.5309932093212
 30
0.0
 10
540.0349934861925
 20
631.1049186179144
 30
0.0
 10
537.4718191779241
 20
635.0150767302678
 30
0.0
 10
534.9138117684992
 20
638.4205785964074
 30
0.0
 10
532.3326847883085
 20
641.4508937802259
 30
0.0
 10
529.7990429828762
 20
644.1044154064266
 30
0.0
 10
527.211855379522
 20
646.5451200173218
 30
0.0
 10
524.6220050508234
 20
648.7460235141812
 30
0.0
 10
522.0810666318612
 20
650.6925830809251
 30
0.0
 10
519.7113006336042
 20
652.3466831139974
 30
0.0
 10
517.3926819513839
 20
653.8286468065502
 30
0.0
 10
514.4301457942225
 20
655.557997791887
 30
0.0
 10
510.6745747318979
 20
657.4678777795095
 30
0.0
 10
506.0308121515444
 20
659.4499914891098
 30
0.0
 10
501.0518710255674
 20
661.2253967334332
 30
0.0
 10
495.7551222625368
 20
662.72615623926
 30
0.0
 10
490.2589533754265
 20
663.8858682242217
 30
0.0
 10
484.361193863526
 20
664.7110785391844
 30
0.0
 10
478.2236911382923
 20
665.1099536628097
 30
0.0
 10
471.9199764244318
 20
665.0277343681405
 30
0.0
 10
465.8456832546913
 20
664.4893691830816
 30
0.0
 10
460.0009521105502
 20
663.5372228927987
 30
0.0
 10
453.906232310185
 20
662.0939602920772
 30
0.0
 10
447.5581566072738
 20
660.0544060740741
 30
0.0
 10
440.9869066607948
 20
657.2950931957729
 30
0.0
 10
434.6687956174403
 20
653.9711688603094
 30
0.0
 10
429.0488706607824
 20
650.3588999970938
 30
0.0
 10
424.0892290435531
 20
646.5901395417497
 30
0.0
 10
419.7299284057789
 20
642.7669277780363
 30
0.0
 10
415.5922650653453
 20
638.584471098523
 30
0.0
 10
411.7412333003514
 20
634.075870730097
 30
0.0
 10
408.3992686394016
 20
629.585972646101
 30
0.0
 10
406.7088786549999
 20
626.8204824890875
 30
0.0
 10
405.8766017876203
 20
625.4463635320978
 30
0.0
  0
ARC
  5
1EC
330
1CF
100
AcDbEntity
  8
11185038__LAVATO
  6
Continuous
 62
     7
100
AcDbCircle
 10
432.0877879694
 20
512.3549718857
 30
0.0
 40
1.499998910452571
100
AcDbArc
 50
269.9984693822
 51
20.6254291959
  0
ARC
  5
1ED
330
1CF
100
AcDbEntity
  8
11185038__LAVATO
  6
Continuous
 62
     7
100
AcDbCircle
 10
370.1214645718
 20
512.354971218
 30
0.0
 40
1.500000228329465
100
AcDbArc
 50
150.4453043248
 51
270.0004825829
  0
LINE
  5
1EF
330
1CF
100
AcDbEntity
  8
14080043_LIFT_RO
  6
Continuous
 62
     7
100
AcDbLine
 10
405.3411258639
 20
624.4079910107
 30
0.0
 11
405.3411258639
 21
632.8549712165
 31
0.0
  0
LINE
  5
1F0
330
1CF
100
AcDbEntity
  8
14080043_LIFT_RO
  6
Continuous
 62
     7
100
AcDbLine
 10
396.4411258639
 20
632.8549712165
 30
0.0
 11
396.4411258639
 21
606.6597387073
 31
0.0
  0
LINE
  5
1F1
330
1CF
100
AcDbEntity
  8
15799038_BASE_BA
  6
Continuous
 62
     7
100
AcDbLine
 10
371.4411259402
 20
501.8549712165
 30
0.0
 11
430.3411259402
 21
501.8549712165
 31
0.0
  0
LINE
  5
1F2
330
1CF
100
AcDbEntity
  8
15799038_BASE_BA
  6
Continuous
 62
     7
100
AcDbLine
 10
412.178149862
 20
543.1549712165
 30
0.0
 11
389.6041020184
 21
543.1549712165
 31
0.0
  0
ARC
  5
1F3
330
1CF
100
AcDbEntity
  8
15799038_BASE_BA
  6
Continuous
 62
     7
100
AcDbCircle
 10
429.0911259402
 20
502.8537204343
 30
0.0
 40
1.599999999999999
100
AcDbArc
 50
321.3751671269
 51
61.7231465066
  0
ARC
  5
1F4
330
1CF
100
AcDbEntity
  8
15799038_BASE_BA
  6
Continuous
 62
     7
100
AcDbCircle
 10
372.6911259402
 20
502.8537204343
 30
0.0
 40
1.599999999999994
100
AcDbArc
 50
118.2768534934
 51
218.6248328731
  0
ARC
  5
1F5
330
1CF
100
AcDbEntity
  8
15799038_BASE_BA
  6
Continuous
 62
     7
100
AcDbCircle
 10
433.6389576782
 20
511.3081409634
 30
0.0
 40
7.999999999999998
100
AcDbArc
 50
219.3277777595
 51
241.7231465066
  0
ARC
  5
1F6
330
1CF
100
AcDbEntity
  8
15799038_BASE_BA
  6
Continuous
 62
     7
100
AcDbCircle
 10
368.1432942022
 20
511.3081409634
 30
0.0
 40
8.0
100
AcDbArc
 50
298.2768534934
 51
320.6722222405
  0
ARC
  5
1F7
330
1CF
100
AcDbEntity
  8
15799038_BASE_BA
  6
Continuous
 62
     7
100
AcDbCircle
 10
427.8374598235
 20
506.5549712165
 30
0.0
 40
0.5000000000000012
100
AcDbArc
 50
154.5574012529
 51
219.3277777595
  0
ARC
  5
1F8
330
1CF
100
AcDbEntity
  8
15799038_BASE_BA
  6
Continuous
 62
     7
100
AcDbCircle
 10
373.9447920568
 20
506.5549712165
 30
0.0
 40
0.500000000000001
100
AcDbArc
 50
320.6722222405
 51
25.442598747
  0
ARC
  5
1F9
330
1CF
100
AcDbEntity
  8
15799038_BASE_BA
  6
Continuous
 62
     7
100
AcDbCircle
 10
425.9411259402
 20
507.4571451481
 30
0.0
 40
1.600000000000002
100
AcDbArc
 50
334.557401253
 51
65.6517944674
  0
ARC
  5
1FA
330
1CF
100
AcDbEntity
  8
15799038_BASE_BA
  6
Continuous
 62
     7
100
AcDbCircle
 10
375.8411259402
 20
507.4571451481
 30
0.0
 40
1.599999999999998
100
AcDbArc
 50
114.3482055326
 51
205.442598747
  0
ARC
  5
1FB
330
1CF
100
AcDbEntity
  8
15799038_BASE_BA
  6
Continuous
 62
     7
100
AcDbCircle
 10
429.8990237101
 20
516.2032897412
 30
0.0
 40
8.000000000000002
100
AcDbArc
 50
225.4884496017
 51
245.6517944674
  0
ARC
  5
1FC
330
1CF
100
AcDbEntity
  8
15799038_BASE_BA
  6
Continuous
 62
     7
100
AcDbCircle
 10
371.8832281703
 20
516.2032897412
 30
0.0
 40
8.0
100
AcDbArc
 50
294.3482055326
 51
314.5115503983
  0
ARC
  5
1FD
330
1CF
100
AcDbEntity
  8
15799038_BASE_BA
  6
Continuous
 62
     7
100
AcDbCircle
 10
424.6411259402
 20
510.8549712165
 30
0.0
 40
0.4999999999999997
100
AcDbArc
 50
127.8529027323
 51
225.4884496017
  0
ARC
  5
1FE
330
1CF
100
AcDbEntity
  8
15799038_BASE_BA
  6
Continuous
 62
     7
100
AcDbCircle
 10
377.1411259402
 20
510.8549712165
 30
0.0
 40
0.500000000000001
100
AcDbArc
 50
314.5115503983
 51
52.1470972677
  0
ARC
  5
1FF
330
1CF
100
AcDbEntity
  8
15799038_BASE_BA
  6
Continuous
 62
     7
100
AcDbCircle
 10
423.2911259402
 20
512.5920664931
 30
0.0
 40
1.699999999999999
100
AcDbArc
 50
307.8529027323
 51
30.347716353
  0
ARC
  5
200
330
1CF
100
AcDbEntity
  8
15799038_BASE_BA
  6
Continuous
 62
     7
100
AcDbCircle
 10
378.4911259402
 20
512.5920664931
 30
0.0
 40
1.699999999999997
100
AcDbArc
 50
149.652283647
 51
232.1470972677
  0
ARC
  5
201
330
1CF
100
AcDbEntity
  8
15799038_BASE_BA
  6
Continuous
 62
     7
100
AcDbCircle
 10
523.9140199033
 20
571.5038073474
 30
0.0
 40
114.9
100
AcDbArc
 50
194.4769153778
 51
210.347716353
  0
ARC
  5
202
330
1CF
100
AcDbEntity
  8
15799038_BASE_BA
  6
Continuous
 62
     7
100
AcDbCircle
 10
277.8682319771
 20
571.5038073474
 30
0.0
 40
114.9
100
AcDbArc
 50
329.652283647
 51
345.5230846222
  0
ARC
  5
203
330
1CF
100
AcDbEntity
  8
15799038_BASE_BA
  6
Continuous
 62
     7
100
AcDbCircle
 10
389.6041020184
 20
542.6549712165
 30
0.0
 40
0.5000000000000004
100
AcDbArc
 50
90.0
 51
165.5230846222
  0
ARC
  5
204
330
1CF
100
AcDbEntity
  8
15799038_BASE_BA
  6
Continuous
 62
     7
100
AcDbCircle
 10
412.178149862
 20
542.6549712165
 30
0.0
 40
0.4999999999999993
100
AcDbArc
 50
14.4769153778
 51
90.0
  0
LINE
  5
206
330
1CF
100
AcDbEntity
  8
T14080006__MP_HE
  6
Continuous
 62
     7
100
AcDbLine
 10
405.0411258639
 20
638.3034110424
 30
0.0
 11
396.7411258639
 21
638.3034110424
 31
0.0
  0
LINE
  5
207
330
1CF
100
AcDbEntity
  8
T14080006__MP_HE
  6
Continuous
 62
     7
100
AcDbLine
 10
411.3911258639
 20
653.0034110424
 30
0.0
 11
390.3911258639
 21
653.0034110424
 31
0.0
  0
LINE
  5
208
330
1CF
100
AcDbEntity
  8
T14080006__MP_HE
  6
Continuous
 62
     7
100
AcDbLine
 10
407.1911258639
 20
632.8549712165
 30
0.0
 11
394.5911258639
 21
632.8549712165
 31
0.0
  0
LINE
  5
209
330
1CF
100
AcDbEntity
  8
T14080006__MP_HE
  6
Continuous
 62
     7
100
AcDbLine
 10
407.6911258639
 20
633.3549712165
 30
0.0
 11
407.6911258639
 21
634.5055554095
 31
0.0
  0
LINE
  5
20A
330
1CF
100
AcDbEntity
  8
T14080006__MP_HE
  6
Continuous
 62
     7
100
AcDbLine
 10
394.0911258639
 20
634.5055554095
 30
0.0
 11
394.0911258639
 21
633.3549712165
 31
0.0
  0
ARC
  5
20B
330
1CF
100
AcDbEntity
  8
T14080006__MP_HE
  6
Continuous
 62
     7
100
AcDbCircle
 10
408.8371106263
 20
638.4780526294
 30
0.0
 40
3.800000000000015
100
AcDbArc
 50
182.63414518
 51
247.4935673948
  0
ARC
  5
20C
330
1CF
100
AcDbEntity
  8
T14080006__MP_HE
  6
Continuous
 62
     7
100
AcDbCircle
 10
392.9451411016
 20
638.4780526294
 30
0.0
 40
3.8
100
AcDbArc
 50
292.5064326052
 51
357.36585482
  0
ARC
  5
20D
330
1CF
100
AcDbEntity
  8
T14080006__MP_HE
  6
Continuous
 62
     7
100
AcDbCircle
 10
422.3267424345
 20
637.5981027571
 30
0.0
 40
17.3
100
AcDbArc
 50
130.7091512818
 51
177.6634455967
  0
ARC
  5
20E
330
1CF
100
AcDbEntity
  8
T14080006__MP_HE
  6
Continuous
 62
     7
100
AcDbCircle
 10
379.4555092934
 20
637.5981027571
 30
0.0
 40
17.30000000000001
100
AcDbArc
 50
2.3365544033
 51
49.2908487182
  0
LINE
  5
20F
330
1CF
100
AcDbEntity
  8
T14080006__MP_HE
  6
Continuous
 62
     7
100
AcDbLine
 10
411.3911258639
 20
651.4700549298
 30
0.0
 11
411.3911258639
 21
653.0034110424
 31
0.0
  0
LINE
  5
210
330
1CF
100
AcDbEntity
  8
T14080006__MP_HE
  6
Continuous
 62
     7
100
AcDbLine
 10
390.3911258639
 20
653.0034110424
 30
0.0
 11
390.3911258639
 21
651.4700549298
 31
0.0
  0
ARC
  5
211
330
1CF
100
AcDbEntity
  8
T14080006__MP_HE
  6
Continuous
 62
     7
100
AcDbCircle
 10
391.3911258639
 20
651.4700549298
 30
0.0
 40
1.000000000000003
100
AcDbArc
 50
180.0
 51
229.2908487182
  0
ARC
  5
212
330
1CF
100
AcDbEntity
  8
T14080006__MP_HE
  6
Continuous
 62
     7
100
AcDbCircle
 10
410.3911258639
 20
651.4700549298
 30
0.0
 40
0.9999999999999913
100
AcDbArc
 50
310.7091512818
 51
0.0
  0
ARC
  5
213
330
1CF
100
AcDbEntity
  8
T14080006__MP_HE
  6
Continuous
 62
     7
100
AcDbCircle
 10
394.5911258639
 20
634.5055554095
 30
0.0
 40
0.499999999999987
100
AcDbArc
 50
112.5064326052
 51
180.0
  0
ARC
  5
214
330
1CF
100
AcDbEntity
  8
T14080006__MP_HE
  6
Continuous
 62
     7
100
AcDbCircle
 10
407.1911258639
 20
634.5055554095
 30
0.0
 40
0.5000000000000004
100
AcDbArc
 50
0.0
 51
67.4935673948
  0
ARC
  5
215
330
1CF
100
AcDbEntity
  8
T14080006__MP_HE
  6
Continuous
 62
     7
100
AcDbCircle
 10
394.5911258639
 20
633.3549712165
 30
0.0
 40
0.5000000000000004
100
AcDbArc
 50
180.0
 51
270.0
  0
ARC
  5
216
330
1CF
100
AcDbEntity
  8
T14080006__MP_HE
  6
Continuous
 62
     7
100
AcDbCircle
 10
407.1911258639
 20
633.3549712165
 30
0.0
 40
0.5000000000000004
100
AcDbArc
 50
270.0
 51
0.0
  0
ARC
  5
218
330
1CF
100
AcDbEntity
  8
14080049_HE_CROS
  6
Continuous
 62
     7
100
AcDbCircle
 10
420.491001733
 20
652.9558803426
 30
0.0
 40
9.099999999999998
100
AcDbArc
 50
157.5715376457
 51
176.7303925793
  0
ARC
  5
219
330
1CF
100
AcDbEntity
  8
14080049_HE_CROS
  6
Continuous
 62
     7
100
AcDbCircle
 10
381.2912499949
 20
652.9558803426
 30
0.0
 40
9.099999999999987
100
AcDbArc
 50
3.2696074207
 51
22.4284623543
  0
ARC
  5
21A
330
1CF
100
AcDbEntity
  8
14080049_HE_CROS
  6
Continuous
 62
     7
100
AcDbCircle
 10
390.3499448546
 20
656.6948705055
 30
0.0
 40
0.7000000000000036
100
AcDbArc
 50
108.4545309966
 51
202.4284623543
  0
ARC
  5
21B
330
1CF
100
AcDbEntity
  8
14080049_HE_CROS
  6
Continuous
 62
     7
100
AcDbCircle
 10
411.4323068733
 20
656.6948705055
 30
0.0
 40
0.6999999999999995
100
AcDbArc
 50
337.5715376457
 51
71.5454690034
  0
ARC
  5
21C
330
1CF
100
AcDbEntity
  8
14080049_HE_CROS
  6
Continuous
 62
     7
100
AcDbCircle
 10
410.9066285071
 20
653.5034110424
 30
0.0
 40
0.5000000000000004
100
AcDbArc
 50
270.0
 51
356.7303925793
  0
ARC
  5
21D
330
1CF
100
AcDbEntity
  8
14080049_HE_CROS
  6
Continuous
 62
     7
100
AcDbCircle
 10
390.8756232207
 20
653.5034110424
 30
0.0
 40
0.5000000000000022
100
AcDbArc
 50
183.2696074207
 51
270.0
  0
ARC
  5
21E
330
1CF
100
AcDbEntity
  8
14080049_HE_CROS
  6
Continuous
 62
     7
100
AcDbCircle
 10
400.8911258639
 20
625.1073175309
 30
0.0
 40
33.99999999999999
100
AcDbArc
 50
105.7945875071
 51
108.4545309966
  0
ARC
  5
21F
330
1CF
100
AcDbEntity
  8
14080049_HE_CROS
  6
Continuous
 62
     7
100
AcDbCircle
 10
400.8911258639
 20
625.1073175309
 30
0.0
 40
33.99999999999999
100
AcDbArc
 50
71.5454690034
 51
74.2054124929
  0
ARC
  5
220
330
1CF
100
AcDbEntity
  8
14080049_HE_CROS
  6
Continuous
 62
     7
100
AcDbCircle
 10
410.0911258639
 20
657.6311549428
 30
0.0
 40
0.1999999999999916
100
AcDbArc
 50
74.2054124929
 51
90.0
  0
ARC
  5
221
330
1CF
100
AcDbEntity
  8
14080049_HE_CROS
  6
Continuous
 62
     7
100
AcDbCircle
 10
391.6911258639
 20
657.6311549428
 30
0.0
 40
0.2000000000000057
100
AcDbArc
 50
90.0
 51
105.7945875071
  0
LINE
  5
222
330
1CF
100
AcDbEntity
  8
14080049_HE_CROS
  6
Continuous
 62
     7
100
AcDbLine
 10
410.0911258639
 20
657.8311549428
 30
0.0
 11
391.6911258639
 21
657.8311549428
 31
0.0
  0
LINE
  5
224
330
1CF
100
AcDbEntity
  8
12080006_MP_HE_P
  6
Continuous
 62
     7
100
AcDbLine
 10
409.8411258639
 20
657.8311549428
 30
0.0
 11
409.8411258639
 21
658.0445166077
 31
0.0
  0
LINE
  5
225
330
1CF
100
AcDbEntity
  8
12080006_MP_HE_P
  6
Continuous
 62
     7
100
AcDbLine
 10
391.9411258639
 20
658.0445166077
 30
0.0
 11
391.9411258639
 21
657.8311549428
 31
0.0
  0
ARC
  5
226
330
1CF
100
AcDbEntity
  8
12080006_MP_HE_P
  6
Continuous
 62
     7
100
AcDbCircle
 10
400.8911258639
 20
640.9034110424
 30
0.0
 40
19.50000000000002
100
AcDbArc
 50
63.2228950132
 51
116.7771049868
  0
ARC
  5
227
330
1CF
100
AcDbEntity
  8
12080006_MP_HE_P
  6
Continuous
 62
     7
100
AcDbCircle
 10
409.5411258639
 20
658.0445166077
 30
0.0
 40
0.2999999999999999
100
AcDbArc
 50
0.0
 51
63.2228950132
  0
ARC
  5
228
330
1CF
100
AcDbEntity
  8
12080006_MP_HE_P
  6
Continuous
 62
     7
100
AcDbCircle
 10
392.2411258639
 20
658.0445166077
 30
0.0
 40
0.2999999999999995
100
AcDbArc
 50
116.7771049868
 51
180.0
  0
LINE
  5
229
330
1CF
100
AcDbEntity
  8
T14080038__HE_WT
  6
Continuous
 62
     7
100
AcDbLine
 10
523.6634219586
 20
604.4543337716
 30
0.0
 11
524.5458879077
 21
604.9247100558
 31
0.0
  0
LINE
  5
22A
330
1CF
100
AcDbEntity
  8
T14080038__HE_WT
  6
Continuous
 62
     7
100
AcDbLine
 10
543.9601387874
 20
615.2729883077
 30
0.0
 11
544.8426047365
 21
615.7433645918
 31
0.0
  0
LINE
  5
22B
330
1CF
100
AcDbEntity
  8
T14080038__HE_WT
  6
Continuous
 62
     7
100
AcDbLine
 10
524.5458879077
 20
604.9247100558
 30
0.0
 11
525.6747909897
 21
602.806791778
 31
0.0
  0
LINE
  5
22C
330
1CF
100
AcDbEntity
  8
T14080038__HE_WT
  6
Continuous
 62
     7
100
AcDbLine
 10
544.8895904688
 20
618.148104374
 30
0.0
 11
521.6408558328
 21
605.7559509756
 31
0.0
  0
LINE
  5
22D
330
1CF
100
AcDbEntity
  8
T14080038__HE_WT
  6
Continuous
 62
     7
100
AcDbLine
 10
545.0890418695
 20
613.1550700299
 30
0.0
 11
543.9601387874
 21
615.2729883077
 31
0.0
  0
LINE
  5
22E
330
1CF
100
AcDbEntity
  8
T14080038__HE_WT
  6
Continuous
 62
     7
100
AcDbLine
 10
545.0890418695
 20
613.1550700299
 30
0.0
 11
545.3242300115
 21
612.7138370553
 31
0.0
  0
LINE
  5
22F
330
1CF
100
AcDbEntity
  8
T14080038__HE_WT
  6
Continuous
 62
     7
100
AcDbLine
 10
545.3242300115
 20
612.7138370553
 30
0.0
 11
525.9099791318
 21
602.3655588035
 31
0.0
  0
LINE
  5
230
330
1CF
100
AcDbEntity
  8
T14080038__HE_WT
  6
Continuous
 62
     7
100
AcDbLine
 10
525.9099791318
 20
602.3655588035
 30
0.0
 11
525.6747909897
 21
602.806791778
 31
0.0
  0
LINE
  5
231
330
1CF
100
AcDbEntity
  8
T14080038__HE_WT
  6
Continuous
 62
     7
100
AcDbLine
 10
544.8426047365
 20
615.7433645918
 30
0.0
 11
543.8548145398
 21
617.5965430849
 31
0.0
  0
LINE
  5
232
330
1CF
100
AcDbEntity
  8
T14080038__HE_WT
  6
Continuous
 62
     7
100
AcDbLine
 10
522.6756317618
 20
606.3075122647
 30
0.0
 11
523.6634219586
 21
604.4543337716
 31
0.0
  0
ARC
  5
233
330
1CF
100
AcDbEntity
  8
T14080038__HE_WT
  6
Continuous
 62
     7
100
AcDbCircle
 10
545.9857774947
 20
628.9054396449
 30
0.0
 40
4.199999999999991
100
AcDbArc
 50
213.8880979568
 51
249.9830359466
  0
ARC
  5
234
330
1CF
100
AcDbEntity
  8
T14080038__HE_WT
  6
Continuous
 62
     7
100
AcDbCircle
 10
512.0991927311
 20
610.8430477293
 30
0.0
 40
4.200000000000015
100
AcDbArc
 50
346.1344135041
 51
22.2293514939
  0
ARC
  5
235
330
1CF
100
AcDbEntity
  8
T14080038__HE_WT
  6
Continuous
 62
     7
100
AcDbCircle
 10
533.6204728144
 20
621.0270410869
 30
0.0
 40
11.8
100
AcDbArc
 50
347.5418767159
 51
17.8424077887
  0
ARC
  5
236
330
1CF
100
AcDbEntity
  8
T14080038__HE_WT
  6
Continuous
 62
     7
100
AcDbCircle
 10
525.5332604325
 20
616.7163558832
 30
0.0
 40
11.8
100
AcDbArc
 50
218.275041662
 51
248.5755727348
  0
ARC
  5
237
330
1CF
100
AcDbEntity
  8
T14080038__HE_WT
  6
Continuous
 62
     7
100
AcDbCircle
 10
542.0841752955
 20
626.2848480554
 30
0.0
 40
0.5000000000000133
100
AcDbArc
 50
33.8880979569
 51
118.0587247254
  0
ARC
  5
238
330
1CF
100
AcDbEntity
  8
T14080038__HE_WT
  6
Continuous
 62
     7
100
AcDbCircle
 10
516.4498741751
 20
612.6211284286
 30
0.0
 40
0.4999999999999943
100
AcDbArc
 50
118.0587247254
 51
202.2293514939
  0
ARC
  5
239
330
1CF
100
AcDbEntity
  8
T14080038__HE_WT
  6
Continuous
 62
     7
100
AcDbCircle
 10
516.6622375248
 20
609.7167164232
 30
0.0
 40
0.5000000000000009
100
AcDbArc
 50
166.1344135041
 51
218.275041662
  0
ARC
  5
23A
330
1CF
100
AcDbEntity
  8
T14080038__HE_WT
  6
Continuous
 62
     7
100
AcDbCircle
 10
544.3769752441
 20
624.4893604656
 30
0.0
 40
0.5000000000000077
100
AcDbArc
 50
17.8424077887
 51
69.9830359466
  0
ARC
  5
23B
330
1CF
100
AcDbEntity
  8
T14080038__HE_WT
  6
Continuous
 62
     7
100
AcDbCircle
 10
544.6544023267
 20
618.5893373486
 30
0.0
 40
0.5000000000000064
100
AcDbArc
 50
298.0587247254
 51
347.5418767159
  0
ARC
  5
23C
330
1CF
100
AcDbEntity
  8
T14080038__HE_WT
  6
Continuous
 62
     7
100
AcDbCircle
 10
521.4056676907
 20
606.1971839501
 30
0.0
 40
0.5000000000000064
100
AcDbArc
 50
248.5755727348
 51
298.0587247254
  0
LINE
  5
23D
330
1CF
100
AcDbEntity
  8
$DDT_AUDIT_GENERATED_(D1)
  6
Continuous
 62
     7
100
AcDbLine
 10
404.0911258639
 20
548.9249712165
 30
0.0
 11
397.6911258639
 21
548.9249712165
 31
0.0
  0
LINE
  5
23E
330
1CF
100
AcDbEntity
  8
$DDT_AUDIT_GENERATED_(D1)
  6
Continuous
 62
     7
100
AcDbLine
 10
397.1176958816
 20
547.885740732
 30
0.0
 11
397.1637611059
 21
547.885740732
 31
0.0
  0
LINE
  5
23F
330
1CF
100
AcDbEntity
  8
$DDT_AUDIT_GENERATED_(D1)
  6
Continuous
 62
     7
100
AcDbLine
 10
397.5662782803
 20
548.7087288584
 30
0.0
 11
397.1176958816
 21
547.885740732
 31
0.0
  0
LINE
  5
240
330
1CF
100
AcDbEntity
  8
$DDT_AUDIT_GENERATED_(D1)
  6
Continuous
 62
     7
100
AcDbLine
 10
397.1176958816
 20
547.885740732
 30
0.0
 11
397.1176958816
 21
543.1549712165
 31
0.0
  0
LINE
  5
241
330
1CF
100
AcDbEntity
  8
$DDT_AUDIT_GENERATED_(D1)
  6
Continuous
 62
     7
100
AcDbLine
 10
404.6645558463
 20
543.1549712165
 30
0.0
 11
404.6645558463
 21
547.885740732
 31
0.0
  0
LINE
  5
242
330
1CF
100
AcDbEntity
  8
$DDT_AUDIT_GENERATED_(D1)
  6
Continuous
 62
     7
100
AcDbLine
 10
404.6645558463
 20
547.885740732
 30
0.0
 11
404.2159734476
 21
548.7087288584
 31
0.0
  0
LINE
  5
243
330
1CF
100
AcDbEntity
  8
$DDT_AUDIT_GENERATED_(D1)
  6
Continuous
 62
     7
100
AcDbLine
 10
404.618490622
 20
547.885740732
 30
0.0
 11
404.6645558463
 21
547.885740732
 31
0.0
  0
LINE
  5
244
330
1CF
100
AcDbEntity
  8
$DDT_AUDIT_GENERATED_(D1)
  6
Continuous
 62
     7
100
AcDbLine
 10
404.3412514528
 20
543.1549712165
 30
0.0
 11
404.3412514528
 21
547.885740732
 31
0.0
  0
LINE
  5
245
330
1CF
100
AcDbEntity
  8
$DDT_AUDIT_GENERATED_(D1)
  6
Continuous
 62
     7
100
AcDbLine
 10
404.3412514528
 20
547.885740732
 30
0.0
 11
404.053243824
 21
548.7087288584
 31
0.0
  0
LINE
  5
246
330
1CF
100
AcDbEntity
  8
$DDT_AUDIT_GENERATED_(D1)
  6
Continuous
 62
     7
100
AcDbLine
 10
404.053243824
 20
548.7087288584
 30
0.0
 11
404.618490622
 21
547.885740732
 31
0.0
  0
LINE
  5
247
330
1CF
100
AcDbEntity
  8
$DDT_AUDIT_GENERATED_(D1)
  6
Continuous
 62
     7
100
AcDbLine
 10
404.618490622
 20
547.885740732
 30
0.0
 11
404.618490622
 21
543.1549712165
 31
0.0
  0
LINE
  5
248
330
1CF
100
AcDbEntity
  8
$DDT_AUDIT_GENERATED_(D1)
  6
Continuous
 62
     7
100
AcDbLine
 10
404.2075649651
 20
547.885740732
 30
0.0
 11
404.3412514528
 21
547.885740732
 31
0.0
  0
LINE
  5
249
330
1CF
100
AcDbEntity
  8
$DDT_AUDIT_GENERATED_(D1)
  6
Continuous
 62
     7
100
AcDbLine
 10
403.6802247283
 20
543.1549712165
 30
0.0
 11
403.6802247283
 21
547.885740732
 31
0.0
  0
LINE
  5
24A
330
1CF
100
AcDbEntity
  8
$DDT_AUDIT_GENERATED_(D1)
  6
Continuous
 62
     7
100
AcDbLine
 10
403.6802247283
 20
547.885740732
 30
0.0
 11
403.5809840628
 21
548.7087288584
 31
0.0
  0
LINE
  5
24B
330
1CF
100
AcDbEntity
  8
$DDT_AUDIT_GENERATED_(D1)
  6
Continuous
 62
     7
100
AcDbLine
 10
403.5809840628
 20
548.7087288584
 30
0.0
 11
404.2075649651
 21
547.885740732
 31
0.0
  0
LINE
  5
24C
330
1CF
100
AcDbEntity
  8
$DDT_AUDIT_GENERATED_(D1)
  6
Continuous
 62
     7
100
AcDbLine
 10
404.2075649651
 20
547.885740732
 30
0.0
 11
404.2075649651
 21
543.1549712165
 31
0.0
  0
LINE
  5
24D
330
1CF
100
AcDbEntity
  8
$DDT_AUDIT_GENERATED_(D1)
  6
Continuous
 62
     7
100
AcDbLine
 10
403.472003142
 20
547.885740732
 30
0.0
 11
403.6802247283
 21
547.885740732
 31
0.0
  0
LINE
  5
24E
330
1CF
100
AcDbEntity
  8
$DDT_AUDIT_GENERATED_(D1)
  6
Continuous
 62
     7
100
AcDbLine
 10
402.8454222397
 20
543.1549712165
 30
0.0
 11
402.8454222397
 21
548.7087288584
 31
0.0
  0
LINE
  5
24F
330
1CF
100
AcDbEntity
  8
$DDT_AUDIT_GENERATED_(D1)
  6
Continuous
 62
     7
100
AcDbLine
 10
402.7461815742
 20
543.1549712165
 30
0.0
 11
402.7461815742
 21
547.885740732
 31
0.0
  0
LINE
  5
250
330
1CF
100
AcDbEntity
  8
$DDT_AUDIT_GENERATED_(D1)
  6
Continuous
 62
     7
100
AcDbLine
 10
402.7461815742
 20
547.885740732
 30
0.0
 11
402.8454222397
 21
548.7087288584
 31
0.0
  0
LINE
  5
251
330
1CF
100
AcDbEntity
  8
$DDT_AUDIT_GENERATED_(D1)
  6
Continuous
 62
     7
100
AcDbLine
 10
402.8454222397
 20
548.7087288584
 30
0.0
 11
403.472003142
 21
547.885740732
 31
0.0
  0
LINE
  5
252
330
1CF
100
AcDbEntity
  8
$DDT_AUDIT_GENERATED_(D1)
  6
Continuous
 62
     7
100
AcDbLine
 10
403.472003142
 20
547.885740732
 30
0.0
 11
403.472003142
 21
543.1549712165
 31
0.0
  0
LINE
  5
253
330
1CF
100
AcDbEntity
  8
$DDT_AUDIT_GENERATED_(D1)
  6
Continuous
 62
     7
100
AcDbLine
 10
402.4838070689
 20
547.885740732
 30
0.0
 11
402.7461815742
 21
547.885740732
 31
0.0
  0
LINE
  5
254
330
1CF
100
AcDbEntity
  8
$DDT_AUDIT_GENERATED_(D1)
  6
Continuous
 62
     7
100
AcDbLine
 10
401.918560271
 20
543.1549712165
 30
0.0
 11
401.918560271
 21
548.7087288584
 31
0.0
  0
LINE
  5
255
330
1CF
100
AcDbEntity
  8
$DDT_AUDIT_GENERATED_(D1)
  6
Continuous
 62
     7
100
AcDbLine
 10
401.6305526422
 20
543.1549712165
 30
0.0
 11
401.6305526422
 21
547.885740732
 31
0.0
  0
LINE
  5
256
330
1CF
100
AcDbEntity
  8
$DDT_AUDIT_GENERATED_(D1)
  6
Continuous
 62
     7
100
AcDbLine
 10
401.6305526422
 20
547.885740732
 30
0.0
 11
401.918560271
 21
548.7087288584
 31
0.0
  0
LINE
  5
257
330
1CF
100
AcDbEntity
  8
$DDT_AUDIT_GENERATED_(D1)
  6
Continuous
 62
     7
100
AcDbLine
 10
401.918560271
 20
548.7087288584
 30
0.0
 11
402.4838070689
 21
547.885740732
 31
0.0
  0
LINE
  5
258
330
1CF
100
AcDbEntity
  8
$DDT_AUDIT_GENERATED_(D1)
  6
Continuous
 62
     7
100
AcDbLine
 10
402.4838070689
 20
547.885740732
 30
0.0
 11
402.4838070689
 21
543.1549712165
 31
0.0
  0
LINE
  5
259
330
1CF
100
AcDbEntity
  8
$DDT_AUDIT_GENERATED_(D1)
  6
Continuous
 62
     7
100
AcDbLine
 10
401.3397082626
 20
547.885740732
 30
0.0
 11
401.6305526422
 21
547.885740732
 31
0.0
  0
LINE
  5
25A
330
1CF
100
AcDbEntity
  8
$DDT_AUDIT_GENERATED_(D1)
  6
Continuous
 62
     7
100
AcDbLine
 10
400.8911258639
 20
543.1549712165
 30
0.0
 11
400.8911258639
 21
548.7087288584
 31
0.0
  0
LINE
  5
25B
330
1CF
100
AcDbEntity
  8
$DDT_AUDIT_GENERATED_(D1)
  6
Continuous
 62
     7
100
AcDbLine
 10
400.4425434652
 20
543.1549712165
 30
0.0
 11
400.4425434652
 21
547.885740732
 31
0.0
  0
LINE
  5
25C
330
1CF
100
AcDbEntity
  8
$DDT_AUDIT_GENERATED_(D1)
  6
Continuous
 62
     7
100
AcDbLine
 10
400.4425434652
 20
547.885740732
 30
0.0
 11
400.8911258639
 21
548.7087288584
 31
0.0
  0
LINE
  5
25D
330
1CF
100
AcDbEntity
  8
$DDT_AUDIT_GENERATED_(D1)
  6
Continuous
 62
     7
100
AcDbLine
 10
400.8911258639
 20
548.7087288584
 30
0.0
 11
401.3397082626
 21
547.885740732
 31
0.0
  0
LINE
  5
25E
330
1CF
100
AcDbEntity
  8
$DDT_AUDIT_GENERATED_(D1)
  6
Continuous
 62
     7
100
AcDbLine
 10
401.3397082626
 20
547.885740732
 30
0.0
 11
401.3397082626
 21
543.1549712165
 31
0.0
  0
LINE
  5
25F
330
1CF
100
AcDbEntity
  8
$DDT_AUDIT_GENERATED_(D1)
  6
Continuous
 62
     7
100
AcDbLine
 10
400.1516990857
 20
547.885740732
 30
0.0
 11
400.4425434652
 21
547.885740732
 31
0.0
  0
LINE
  5
260
330
1CF
100
AcDbEntity
  8
$DDT_AUDIT_GENERATED_(D1)
  6
Continuous
 62
     7
100
AcDbLine
 10
399.8636914569
 20
543.1549712165
 30
0.0
 11
399.8636914569
 21
548.7087288584
 31
0.0
  0
LINE
  5
261
330
1CF
100
AcDbEntity
  8
$DDT_AUDIT_GENERATED_(D1)
  6
Continuous
 62
     7
100
AcDbLine
 10
399.2984446589
 20
543.1549712165
 30
0.0
 11
399.2984446589
 21
547.885740732
 31
0.0
  0
LINE
  5
262
330
1CF
100
AcDbEntity
  8
$DDT_AUDIT_GENERATED_(D1)
  6
Continuous
 62
     7
100
AcDbLine
 10
399.2984446589
 20
547.885740732
 30
0.0
 11
399.8636914569
 21
548.7087288584
 31
0.0
  0
LINE
  5
263
330
1CF
100
AcDbEntity
  8
$DDT_AUDIT_GENERATED_(D1)
  6
Continuous
 62
     7
100
AcDbLine
 10
399.8636914569
 20
548.7087288584
 30
0.0
 11
400.1516990857
 21
547.885740732
 31
0.0
  0
LINE
  5
264
330
1CF
100
AcDbEntity
  8
$DDT_AUDIT_GENERATED_(D1)
  6
Continuous
 62
     7
100
AcDbLine
 10
400.1516990857
 20
547.885740732
 30
0.0
 11
400.1516990857
 21
543.1549712165
 31
0.0
  0
LINE
  5
265
330
1CF
100
AcDbEntity
  8
$DDT_AUDIT_GENERATED_(D1)
  6
Continuous
 62
     7
100
AcDbLine
 10
399.0360701537
 20
547.885740732
 30
0.0
 11
399.2984446589
 21
547.885740732
 31
0.0
  0
LINE
  5
266
330
1CF
100
AcDbEntity
  8
$DDT_AUDIT_GENERATED_(D1)
  6
Continuous
 62
     7
100
AcDbLine
 10
398.9368294882
 20
543.1549712165
 30
0.0
 11
398.9368294882
 21
548.7087288584
 31
0.0
  0
LINE
  5
267
330
1CF
100
AcDbEntity
  8
$DDT_AUDIT_GENERATED_(D1)
  6
Continuous
 62
     7
100
AcDbLine
 10
398.3102485858
 20
543.1549712165
 30
0.0
 11
398.3102485858
 21
547.885740732
 31
0.0
  0
LINE
  5
268
330
1CF
100
AcDbEntity
  8
$DDT_AUDIT_GENERATED_(D1)
  6
Continuous
 62
     7
100
AcDbLine
 10
398.3102485858
 20
547.885740732
 30
0.0
 11
398.9368294882
 21
548.7087288584
 31
0.0
  0
LINE
  5
269
330
1CF
100
AcDbEntity
  8
$DDT_AUDIT_GENERATED_(D1)
  6
Continuous
 62
     7
100
AcDbLine
 10
398.9368294882
 20
548.7087288584
 30
0.0
 11
399.0360701537
 21
547.885740732
 31
0.0
  0
LINE
  5
26A
330
1CF
100
AcDbEntity
  8
$DDT_AUDIT_GENERATED_(D1)
  6
Continuous
 62
     7
100
AcDbLine
 10
399.0360701537
 20
547.885740732
 30
0.0
 11
399.0360701537
 21
543.1549712165
 31
0.0
  0
LINE
  5
26B
330
1CF
100
AcDbEntity
  8
$DDT_AUDIT_GENERATED_(D1)
  6
Continuous
 62
     7
100
AcDbLine
 10
398.1020269995
 20
547.885740732
 30
0.0
 11
398.3102485858
 21
547.885740732
 31
0.0
  0
LINE
  5
26C
330
1CF
100
AcDbEntity
  8
$DDT_AUDIT_GENERATED_(D1)
  6
Continuous
 62
     7
100
AcDbLine
 10
397.5746867628
 20
543.1549712165
 30
0.0
 11
397.5746867628
 21
547.885740732
 31
0.0
  0
LINE
  5
26D
330
1CF
100
AcDbEntity
  8
$DDT_AUDIT_GENERATED_(D1)
  6
Continuous
 62
     7
100
AcDbLine
 10
397.5746867628
 20
547.885740732
 30
0.0
 11
398.2012676651
 21
548.7087288584
 31
0.0
  0
LINE
  5
26E
330
1CF
100
AcDbEntity
  8
$DDT_AUDIT_GENERATED_(D1)
  6
Continuous
 62
     7
100
AcDbLine
 10
398.2012676651
 20
548.7087288584
 30
0.0
 11
398.1020269995
 21
547.885740732
 31
0.0
  0
LINE
  5
26F
330
1CF
100
AcDbEntity
  8
$DDT_AUDIT_GENERATED_(D1)
  6
Continuous
 62
     7
100
AcDbLine
 10
398.1020269995
 20
547.885740732
 30
0.0
 11
398.1020269995
 21
543.1549712165
 31
0.0
  0
LINE
  5
270
330
1CF
100
AcDbEntity
  8
$DDT_AUDIT_GENERATED_(D1)
  6
Continuous
 62
     7
100
AcDbLine
 10
397.441000275
 20
547.885740732
 30
0.0
 11
397.5746867628
 21
547.885740732
 31
0.0
  0
LINE
  5
271
330
1CF
100
AcDbEntity
  8
$DDT_AUDIT_GENERATED_(D1)
  6
Continuous
 62
     7
100
AcDbLine
 10
397.1637611059
 20
543.1549712165
 30
0.0
 11
397.1637611059
 21
547.885740732
 31
0.0
  0
LINE
  5
272
330
1CF
100
AcDbEntity
  8
$DDT_AUDIT_GENERATED_(D1)
  6
Continuous
 62
     7
100
AcDbLine
 10
397.1637611059
 20
547.885740732
 30
0.0
 11
397.7290079038
 21
548.7087288584
 31
0.0
  0
LINE
  5
273
330
1CF
100
AcDbEntity
  8
$DDT_AUDIT_GENERATED_(D1)
  6
Continuous
 62
     7
100
AcDbLine
 10
397.7290079038
 20
548.7087288584
 30
0.0
 11
397.441000275
 21
547.885740732
 31
0.0
  0
LINE
  5
274
330
1CF
100
AcDbEntity
  8
$DDT_AUDIT_GENERATED_(D1)
  6
Continuous
 62
     7
100
AcDbLine
 10
397.441000275
 20
547.885740732
 30
0.0
 11
397.441000275
 21
543.1549712165
 31
0.0
  0
LINE
  5
275
330
1CF
100
AcDbEntity
  8
$DDT_AUDIT_GENERATED_(D1)
  6
Continuous
 62
     7
100
AcDbLine
 10
404.2159734476
 20
548.7087288584
 30
0.0
 11
404.0911258639
 21
548.9249712165
 31
0.0
  0
LINE
  5
276
330
1CF
100
AcDbEntity
  8
$DDT_AUDIT_GENERATED_(D1)
  6
Continuous
 62
     7
100
AcDbLine
 10
397.6911258639
 20
548.9249712165
 30
0.0
 11
397.5662782803
 21
548.7087288584
 31
0.0
  0
ENDBLK
  5
278
330
1CF
100
AcDbEntity
  8
0
100
AcDbBlockEnd
  0
BLOCK
  5
36B
330
279
100
AcDbEntity
  8
0
100
AcDbBlockBegin
  2
SE2
 70
     0
 10
0.0
 20
0.0
 30
0.0
  3
SE2
  1

  0
ARC
  5
27B
330
279
100
AcDbEntity
  8
T14080042__HE_RO
  6
Continuous
 62
     7
100
AcDbCircle
 10
164.9753125325
 20
271.5493542525
 30
0.0
 40
34.60000000000002
100
AcDbArc
 50
298.16998078
 51
0.0
  0
ARC
  5
27C
330
279
100
AcDbEntity
  8
T14080042__HE_RO
  6
Continuous
 62
     7
100
AcDbCircle
 10
164.9753125325
 20
271.5493542525
 30
0.0
 40
34.60000000000002
100
AcDbArc
 50
0.0
 51
241.8180002038
  0
ARC
  5
27D
330
279
100
AcDbEntity
  8
T14080042__HE_RO
  6
Continuous
 62
     7
100
AcDbCircle
 10
164.9753125325
 20
271.5493542525
 30
0.0
 40
37.65
100
AcDbArc
 50
294.9035100974
 51
0.0
  0
ARC
  5
27E
330
279
100
AcDbEntity
  8
T14080042__HE_RO
  6
Continuous
 62
     7
100
AcDbCircle
 10
164.9753125325
 20
271.5493542525
 30
0.0
 40
37.65
100
AcDbArc
 50
0.0
 51
245.0204729311
  0
ARC
  5
27F
330
279
100
AcDbEntity
  8
T14080042__HE_RO
  6
Continuous
 62
     7
100
AcDbCircle
 10
164.9753125325
 20
271.5493542525
 30
0.0
 40
35.53202228395141
100
AcDbArc
 50
0.0
 51
242.9143967161
  0
ARC
  5
280
330
279
100
AcDbEntity
  8
T14080042__HE_RO
  6
Continuous
 62
     7
100
AcDbCircle
 10
164.9753125325
 20
271.5493542525
 30
0.0
 40
35.53202228395141
100
AcDbArc
 50
297.107411315
 51
0.0
  0
ARC
  5
281
330
279
100
AcDbEntity
  8
T14080042__HE_RO
  6
Continuous
 62
     7
100
AcDbCircle
 10
164.9753125325
 20
271.5493542525
 30
0.0
 40
38.61755914957797
100
AcDbArc
 50
0.0
 51
245.8808513104
  0
ARC
  5
282
330
279
100
AcDbEntity
  8
T14080042__HE_RO
  6
Continuous
 62
     7
100
AcDbCircle
 10
164.9753125325
 20
271.5493542525
 30
0.0
 40
38.61755914957797
100
AcDbArc
 50
294.0781549501
 51
0.0
  0
ELLIPSE
  5
283
330
279
100
AcDbEntity
  8
11185038__LAVATO
  6
Continuous
 62
     7
100
AcDbEllipse
 10
164.9753125325
 20
143.4086435232
 30
0.0
 11
15.00001219741176
 21
8.497694209043069E-31
 31
0.0
210
0.0
220
0.0
230
1.0
 40
0.8824659491
 41
3.064976908509595
 42
4.71238898038469
  0
ELLIPSE
  5
284
330
279
100
AcDbEntity
  8
11185038__LAVATO
  6
Continuous
 62
     7
100
AcDbEllipse
 10
164.9753125325
 20
143.4086435232
 30
0.0
 11
-15.00001219741175
 21
5.551115123125782E-14
 31
0.0
210
0.0
220
0.0
230
1.0
 40
0.8824659491
 41
1.570796326794902
 42
3.218169828948805
  0
SPLINE
  5
285
330
279
100
AcDbEntity
  8
11185038__LAVATO
  6
Continuous
 62
     7
100
AcDbSpline
210
0.0
220
0.0
230
1.0
 70
     8
 71
     3
 72
    42
 73
    38
 74
     0
 42
0.0000000000366217
 43
0.0000000001
 40
0.0
 40
0.0
 40
0.0
 40
0.0
 40
0.0166437685150271
 40
0.0319461451420786
 40
0.0457833476585924
 40
0.0586935811163882
 40
0.0716300709480312
 40
0.0823566861432686
 40
0.0928350841791816
 40
0.1066935397253584
 40
0.1203405166923916
 40
0.1310022094972086
 40
0.1388207779079007
 40
0.1487383351829594
 40
0.1633603834511726
 40
0.1766374514874307
 40
0.1916704243395721
 40
0.2072390456233913
 40
0.2213049837591439
 40
0.2365579017767814
 40
0.2526060595343541
 40
0.2672901015364878
 40
0.2798981599487
 40
0.2909191460328557
 40
0.3007290600240867
 40
0.3093660161974112
 40
0.3186063218489408
 40
0.328551264322884
 40
0.3369616450716296
 40
0.3446059824224437
 40
0.3504037262674539
 40
0.3554549978141066
 40
0.3634186785479288
 40
0.3739387284330031
 40
0.3842835865388985
 40
0.3958932927161323
 40
0.4053048166666409
 40
0.4053048166666409
 40
0.4053048166666409
 40
0.4053048166666409
 10
179.9313509513137
 20
144.4208689680043
 30
0.0
 10
179.843908627496
 20
145.4734321543136
 30
0.0
 10
179.7045024391039
 20
147.2535101192429
 30
0.0
 10
179.4796962895051
 20
151.0014365439813
 30
0.0
 10
179.2950778621295
 20
154.7604580160171
 30
0.0
 10
179.1270075119529
 20
158.8393039830698
 30
0.0
 10
178.9904965306129
 20
162.871840350124
 30
0.0
 10
178.8772197606075
 20
166.9243139881135
 30
0.0
 10
178.7788096316868
 20
171.2531824873555
 30
0.0
 10
178.6965869238172
 20
176.1149969195284
 30
0.0
 10
178.6467473695534
 20
181.1495001100766
 30
0.0
 10
178.6316237593367
 20
185.4717870242872
 30
0.0
 10
178.6382280273457
 20
189.3327813484885
 30
0.0
 10
178.6681478807251
 20
193.7646949119574
 30
0.0
 10
178.7435492601164
 20
198.9669803631524
 30
0.0
 10
178.8799671650571
 20
204.8518887737376
 30
0.0
 10
179.0686050040077
 20
210.7954551891148
 30
0.0
 10
179.3151451332162
 20
216.7073384416108
 30
0.0
 10
179.6167501971624
 20
222.4379684697553
 30
0.0
 10
179.9706336624571
 20
227.9143982926202
 30
0.0
 10
180.3806073690222
 20
233.0373937667991
 30
0.0
 10
180.8119385879154
 20
237.4009085526555
 30
0.0
 10
181.2255535442841
 20
240.8041555307253
 30
0.0
 10
181.6080866970729
 20
243.443357639664
 30
0.0
 10
181.9518757898923
 20
245.560930913512
 30
0.0
 10
182.2729146696777
 20
247.3172504283964
 30
0.0
 10
182.5941260644358
 20
248.8951947924436
 30
0.0
 10
182.8985137059501
 20
250.2118323626342
 30
0.0
 10
183.1746967346271
 20
251.2721744853754
 30
0.0
 10
183.3968804864198
 20
252.02418081483
 30
0.0
 10
183.5796618373298
 20
252.5920790910113
 30
0.0
 10
183.7444761893211
 20
253.0704334380811
 30
0.0
 10
183.9078459714636
 20
253.5102797138228
 30
0.0
 10
184.0723670327863
 20
253.8921432506764
 30
0.0
 10
184.2487077762733
 20
254.2558931403493
 30
0.0
 10
184.3736751538122
 20
254.4938421819446
 30
0.0
 10
184.4089732707105
 20
254.5516977710802
 30
0.0
 10
184.4083222312399
 20
254.5517935305144
 30
0.0
  0
SPLINE
  5
286
330
279
100
AcDbEntity
  8
11185038__LAVATO
  6
Continuous
 62
     7
100
AcDbSpline
210
0.0
220
0.0
230
1.0
 70
     8
 71
     3
 72
    41
 73
    37
 74
     0
 42
0.0000000000366141
 43
0.0000000001
 40
0.5947704950837278
 40
0.5947704950837278
 40
0.5947704950837278
 40
0.5947704950837278
 40
0.6034828530890486
 40
0.6188711121987217
 40
0.633564782814311
 40
0.6419085066935152
 40
0.6478068127236102
 40
0.6533622395983043
 40
0.6619734611603285
 40
0.6730149450714447
 40
0.6825750094439835
 40
0.6903555625765554
 40
0.700382759586245
 40
0.7101833902686752
 40
0.719909177927928
 40
0.7316302785623334
 40
0.7459676736555936
 40
0.762306920329594
 40
0.7785385978634232
 40
0.7977786042898048
 40
0.8158681106754555
 40
0.8278015316888723
 40
0.8379067081868022
 40
0.8449366135420706
 40
0.8516253883156081
 40
0.8604891198409268
 40
0.8686066081496073
 40
0.8829605930815316
 40
0.896153185340287
 40
0.9070965701220575
 40
0.9208814474546053
 40
0.9368176602469678
 40
0.953082242351468
 40
0.9690153087822697
 40
0.9839691172219298
 40
1.0
 40
1.0
 40
1.0
 40
1.0
 10
145.5422350354435
 20
254.5515106733264
 30
0.0
 10
145.5411601414453
 20
254.5524992295781
 30
0.0
 10
145.5772873271023
 20
254.494948155199
 30
0.0
 10
145.7482187693205
 20
254.1653628763713
 30
0.0
 10
145.9641530216107
 20
253.7078240126451
 30
0.0
 10
146.1469187951492
 20
253.2326409952096
 30
0.0
 10
146.3069698042592
 20
252.7828334129316
 30
0.0
 10
146.5000154364556
 20
252.1965200420427
 30
0.0
 10
146.7551635117994
 20
251.3556195086038
 30
0.0
 10
147.0651401728619
 20
250.1654961884305
 30
0.0
 10
147.3802362452236
 20
248.7796177925168
 30
0.0
 10
147.6961499092253
 20
247.2212685374743
 30
0.0
 10
148.0163848836723
 20
245.4637983993306
 30
0.0
 10
148.3609905506421
 20
243.3171365540014
 30
0.0
 10
148.7184891010296
 20
240.8390142008805
 30
0.0
 10
149.1069262185951
 20
237.6798155084788
 30
0.0
 10
149.5331989294493
 20
233.4527791755954
 30
0.0
 10
149.9561218059859
 20
228.2648638650741
 30
0.0
 10
150.3631113677388
 20
222.0286264038931
 30
0.0
 10
150.7132802744109
 20
215.1304798924543
 30
0.0
 10
150.9600268300165
 20
208.5428352598104
 30
0.0
 10
151.1140817106346
 20
203.0762646861772
 30
0.0
 10
151.1995326149959
 20
199.0886729298999
 30
0.0
 10
151.2525471167153
 20
195.8144307734257
 30
0.0
 10
151.2889605134199
 20
192.712768248977
 30
0.0
 10
151.3116261107693
 20
189.4716305397009
 30
0.0
 10
151.3202575180663
 20
185.2068174788694
 30
0.0
 10
151.299964353936
 20
180.4169406932973
 30
0.0
 10
151.2419956637124
 20
175.3650525414232
 30
0.0
 10
151.1579755600495
 20
170.5477605813328
 30
0.0
 10
151.0403269551921
 20
165.5460790680187
 30
0.0
 10
150.8793340127382
 20
160.2880341451273
 30
0.0
 10
150.6800927766831
 20
155.2451663485214
 30
0.0
 10
150.4719143230791
 20
150.9940404368334
 30
0.0
 10
150.241330266797
 20
147.1886322214934
 30
0.0
 10
150.1043957995787
 20
145.4437561507737
 30
0.0
 10
150.0192741137436
 20
144.420868968003
 30
0.0
  0
SPLINE
  5
287
330
279
100
AcDbEntity
  8
11185038__LAVATO
  6
Continuous
 62
     7
100
AcDbSpline
210
0.0
220
0.0
230
1.0
 70
     8
 71
     3
 72
    51
 73
    47
 74
     0
 42
0.0000000000485136
 43
0.0000000001
 40
0.0
 40
0.0
 40
0.0
 40
0.0
 40
0.0058298514046237
 40
0.0166506179925974
 40
0.0275153862165297
 40
0.0384473753463061
 40
0.0494367928699591
 40
0.0604700609797116
 40
0.0715305486657159
 40
0.0825970037832039
 40
0.0936463993894975
 40
0.1046606848171093
 40
0.1156243795796172
 40
0.1265280917455399
 40
0.1373067576802343
 40
0.1479775839942357
 40
0.1587600364163123
 40
0.1696320317952728
 40
0.1805678591669465
 40
0.1915379396025511
 40
0.2025048333245407
 40
0.2134322238830964
 40
0.2242916733229035
 40
0.2350595532824596
 40
0.2457185369884383
 40
0.256250391699937
 40
0.2667173117059795
 40
0.2772879954576412
 40
0.2879559522064436
 40
0.2987045272253685
 40
0.3095127531547837
 40
0.3203566487714088
 40
0.3312079778274495
 40
0.3420362460270748
 40
0.3528195017560782
 40
0.3635401144371047
 40
0.3741859753337136
 40
0.3847134976197182
 40
0.3952248196351865
 40
0.405840172339103
 40
0.416551870136921
 40
0.4273499725829114
 40
0.4382192451575423
 40
0.4491400306156984
 40
0.4600894355088576
 40
0.470723566681702
 40
0.470723566681702
 40
0.470723566681702
 40
0.470723566681702
 10
176.1021476348296
 20
301.9356011508082
 30
0.0
 10
175.6851597517579
 20
302.0769302620993
 30
0.0
 10
174.6725427452141
 20
302.4164456745492
 30
0.0
 10
172.8022457733629
 20
302.9240643047399
 30
0.0
 10
170.6200426289447
 20
303.3634516188357
 30
0.0
 10
168.3831467078601
 20
303.6618997198404
 30
0.0
 10
166.1249321313767
 20
303.8112383466054
 30
0.0
 10
163.8515806752716
 20
303.8109169433514
 30
0.0
 10
161.5783375850585
 20
303.6594100380823
 30
0.0
 10
159.3189935319773
 20
303.356909448123
 30
0.0
 10
157.0880370129297
 20
302.904738465953
 30
0.0
 10
154.8992722164591
 20
302.305548792601
 30
0.0
 10
152.7656289300836
 20
301.5626255613436
 30
0.0
 10
150.7021985009943
 20
300.6827754266669
 30
0.0
 10
148.7234860377262
 20
299.6694549276889
 30
0.0
 10
146.8260718165258
 20
298.5273593851276
 30
0.0
 10
145.0043688825449
 20
297.2567845748721
 30
0.0
 10
143.2575516237617
 20
295.8558002790808
 30
0.0
 10
141.5987219023893
 20
294.3325422472257
 30
0.0
 10
140.0410387484401
 20
292.6969635903381
 30
0.0
 10
138.5971888684997
 20
290.9607996999499
 30
0.0
 10
137.2786317112153
 20
289.137005825404
 30
0.0
 10
136.0950024897519
 20
287.2389388275768
 30
0.0
 10
135.0541055125873
 20
285.2798188247015
 30
0.0
 10
134.1619597817772
 20
283.2731657709961
 30
0.0
 10
133.4221467443871
 20
281.2274800571415
 30
0.0
 10
132.8285154173299
 20
279.1411122324762
 30
0.0
 10
132.377157240399
 20
277.0098756536001
 30
0.0
 10
132.0692201254751
 20
274.8337109142523
 30
0.0
 10
131.9083663543612
 20
272.625405126833
 30
0.0
 10
131.8973678267284
 20
270.3991871214537
 30
0.0
 10
132.0377771349553
 20
268.1702914201399
 30
0.0
 10
132.32970394828
 20
265.9547340037984
 30
0.0
 10
132.7717055172388
 20
263.7684034021707
 30
0.0
 10
133.3609477380353
 20
261.6263618528552
 30
0.0
 10
134.0935104990708
 20
259.5422561241177
 30
0.0
 10
134.963655485962
 20
257.5308135410155
 30
0.0
 10
135.9671794417327
 20
255.5987340060902
 30
0.0
 10
137.1002079064255
 20
253.7421940829741
 30
0.0
 10
138.3641630844986
 20
251.9566803934864
 30
0.0
 10
139.7582690749815
 20
250.2453622989412
 30
0.0
 10
141.2761326392842
 20
248.6188633888163
 30
0.0
 10
142.9100418113647
 20
247.0879006579247
 30
0.0
 10
144.650828357485
 20
245.6631765451783
 30
0.0
 10
146.4700884648966
 20
244.367767344223
 30
0.0
 10
147.7324995674595
 20
243.5896628456497
 30
0.0
 10
148.3664374764887
 20
243.2271909122099
 30
0.0
  0
SPLINE
  5
288
330
279
100
AcDbEntity
  8
11185038__LAVATO
  6
Continuous
 62
     7
100
AcDbSpline
210
0.0
220
0.0
230
1.0
 70
     8
 71
     3
 72
    41
 73
    37
 74
     0
 42
0.0000000000485135
 43
0.0000000001
 40
0.6393231385570415
 40
0.6393231385570415
 40
0.6393231385570415
 40
0.6393231385570415
 40
0.6459516026862813
 40
0.6567031940208367
 40
0.6675484452488892
 40
0.6784626083551271
 40
0.6894167911318294
 40
0.7003759370731254
 40
0.7113015171230173
 40
0.722164480070234
 40
0.732940253891573
 40
0.7436103183864503
 40
0.7541583954250625
 40
0.7646203200777755
 40
0.7751684319340413
 40
0.785816273003437
 40
0.7965483576087025
 40
0.8073447911796222
 40
0.8181823675033004
 40
0.8290352678982383
 40
0.8398709664794451
 40
0.8506669815401826
 40
0.861404804912055
 40
0.8720711747710957
 40
0.8826258158500353
 40
0.8931649876715032
 40
0.9038201835789111
 40
0.9145431461378519
 40
0.9253298768319759
 40
0.9361723858264621
 40
0.9470596302798318
 40
0.9579784188715907
 40
0.9689144832590721
 40
0.9798493481910173
 40
0.990770245223585
 40
1.0
 40
1.0
 40
1.0
 40
1.0
 10
181.5920255285331
 20
243.221672537814
 30
0.0
 10
181.9870794257428
 20
243.4477684549203
 30
0.0
 10
183.0103886272795
 20
244.0625030512361
 30
0.0
 10
184.6157107294126
 20
245.1505907588283
 30
0.0
 10
186.376629245651
 20
246.5249830713446
 30
0.0
 10
188.0520743272535
 20
248.0233303418794
 30
0.0
 10
189.6289197424713
 20
249.636092774293
 30
0.0
 10
191.094299479864
 20
251.3518233707673
 30
0.0
 10
192.4364864744228
 20
253.1577777720326
 30
0.0
 10
193.6454554466607
 20
255.0405850759794
 30
0.0
 10
194.7130647562507
 20
256.9870348404463
 30
0.0
 10
195.6330773898993
 20
258.9837176655802
 30
0.0
 10
196.400962733084
 20
261.0206858357056
 30
0.0
 10
197.0215358708594
 20
263.0984040703623
 30
0.0
 10
197.4996427147975
 20
265.2204433136518
 30
0.0
 10
197.8348233949548
 20
267.3884687601663
 30
0.0
 10
198.0235781753448
 20
269.5912283916276
 30
0.0
 10
198.0629326726699
 20
271.8147475407627
 30
0.0
 10
197.9510873669499
 20
274.0441185509885
 30
0.0
 10
197.6876245617731
 20
276.2634226362919
 30
0.0
 10
197.2736730455615
 20
278.4567528907122
 30
0.0
 10
196.7118240642639
 20
280.6087912645356
 30
0.0
 10
196.0057761790073
 20
282.705677578174
 30
0.0
 10
195.1609652030816
 20
284.7327144617845
 30
0.0
 10
194.1813962596349
 20
286.6828264922146
 30
0.0
 10
193.0717025015408
 20
288.5609474402848
 30
0.0
 10
191.8303793241936
 20
290.3688693935092
 30
0.0
 10
190.4588874514106
 20
292.1018566813217
 30
0.0
 10
188.9648226241925
 20
293.7477978389616
 30
0.0
 10
187.3551958662526
 20
295.2971136716902
 30
0.0
 10
185.6376952201027
 20
296.7405340133724
 30
0.0
 10
183.8227127393633
 20
298.0682406744137
 30
0.0
 10
181.9155980939129
 20
299.2741975783013
 30
0.0
 10
179.9455704725601
 20
300.3407742145014
 30
0.0
 10
177.9623700883754
 20
301.2493176000243
 30
0.0
 10
176.7568151895406
 20
301.6962273163588
 30
0.0
 10
176.1021476348296
 20
301.9356011508082
 30
0.0
  0
CIRCLE
  5
289
330
279
100
AcDbEntity
  8
15799038_BASE_BA
  6
Continuous
 62
     7
100
AcDbCircle
 10
264.9753125325
 20
271.5493542525
 30
0.0
 40
8.458500000000003
  0
CIRCLE
  5
28A
330
279
100
AcDbEntity
  8
15799038_BASE_BA
  6
Continuous
 62
     7
100
AcDbCircle
 10
264.9753125325
 20
271.5493542525
 30
0.0
 40
9.249999999999998
  0
CIRCLE
  5
28B
330
279
100
AcDbEntity
  8
15799038_BASE_BA
  6
Continuous
 62
     7
100
AcDbCircle
 10
264.9753125325
 20
271.5493542525
 30
0.0
 40
9.750000000000023
  0
CIRCLE
  5
28C
330
279
100
AcDbEntity
  8
15799038_BASE_BA
  6
Continuous
 62
     7
100
AcDbCircle
 10
264.9753125325
 20
271.5493542525
 30
0.0
 40
29.8
  0
CIRCLE
  5
28D
330
279
100
AcDbEntity
  8
15799038_BASE_BA
  6
Continuous
 62
     7
100
AcDbCircle
 10
264.9753125325
 20
271.5493542525
 30
0.0
 40
26.65
  0
CIRCLE
  5
28E
330
279
100
AcDbEntity
  8
15799038_BASE_BA
  6
Continuous
 62
     7
100
AcDbCircle
 10
264.9753125325
 20
271.5493542525
 30
0.0
 40
24.1
  0
ARC
  5
28F
330
279
100
AcDbEntity
  8
15799038_BASE_BA
  6
Continuous
 62
     7
100
AcDbCircle
 10
264.9753125325
 20
271.5493542525
 30
0.0
 40
9.000000000000004
100
AcDbArc
 50
255.0
 51
195.0
  0
CIRCLE
  5
290
330
279
100
AcDbEntity
  8
15799038_BASE_BA
  6
Continuous
 62
     7
100
AcDbCircle
 10
64.9753125325
 20
271.5493541762
 30
0.0
 40
8.458500000000003
  0
CIRCLE
  5
291
330
279
100
AcDbEntity
  8
15799038_BASE_BA
  6
Continuous
 62
     7
100
AcDbCircle
 10
64.9753125325
 20
271.5493541762
 30
0.0
 40
9.249999999999998
  0
CIRCLE
  5
292
330
279
100
AcDbEntity
  8
15799038_BASE_BA
  6
Continuous
 62
     7
100
AcDbCircle
 10
64.9753125325
 20
271.5493541762
 30
0.0
 40
9.750000000000023
  0
CIRCLE
  5
293
330
279
100
AcDbEntity
  8
15799038_BASE_BA
  6
Continuous
 62
     7
100
AcDbCircle
 10
64.9753125325
 20
271.5493541762
 30
0.0
 40
29.8
  0
CIRCLE
  5
294
330
279
100
AcDbEntity
  8
15799038_BASE_BA
  6
Continuous
 62
     7
100
AcDbCircle
 10
64.9753125325
 20
271.5493541762
 30
0.0
 40
26.65
  0
CIRCLE
  5
295
330
279
100
AcDbEntity
  8
15799038_BASE_BA
  6
Continuous
 62
     7
100
AcDbCircle
 10
64.9753125325
 20
271.5493541762
 30
0.0
 40
24.1
  0
ARC
  5
296
330
279
100
AcDbEntity
  8
15799038_BASE_BA
  6
Continuous
 62
     7
100
AcDbCircle
 10
64.9753125325
 20
271.5493541762
 30
0.0
 40
9.000000000000004
100
AcDbArc
 50
255.0
 51
195.0
  0
CIRCLE
  5
297
330
279
100
AcDbEntity
  8
14080049_HE_CROS
  6
Continuous
 62
     7
100
AcDbCircle
 10
164.9753125325
 20
271.5493542525
 30
0.0
 40
9.000000000000002
  0
CIRCLE
  5
298
330
279
100
AcDbEntity
  8
14080049_HE_CROS
  6
Continuous
 62
     7
100
AcDbCircle
 10
164.9753125325
 20
271.5493542525
 30
0.0
 40
11.24118100934424
  0
CIRCLE
  5
299
330
279
100
AcDbEntity
  8
12080006_MP_HE_P
  6
Continuous
 62
     7
100
AcDbCircle
 10
164.9753125325
 20
271.5493542525
 30
0.0
 40
8.949999999999989
  0
LINE
  5
29A
330
279
100
AcDbEntity
  8
T14080038__HE_WT
  6
Continuous
 62
     7
100
AcDbLine
 10
169.7711440558
 20
127.731538587
 30
0.0
 11
169.7711440558
 21
127.351438247
 31
0.0
  0
ELLIPSE
  5
29B
330
279
100
AcDbEntity
  8
T14080038__HE_WT
  6
Continuous
 62
     7
100
AcDbEllipse
 10
164.9753125325
 20
143.197342575
 30
0.0
 11
15.0216581519529
 21
-5.551115123125783E-14
 31
0.0
210
0.0
220
0.0
230
1.0
 40
0.8824659491
 41
5.856155964283032
 42
6.283185307179586
  0
ELLIPSE
  5
29C
330
279
100
AcDbEntity
  8
T14080038__HE_WT
  6
Continuous
 62
     7
100
AcDbEllipse
 10
164.9753125325
 20
143.197342575
 30
0.0
 11
15.0216581519529
 21
-5.551115123125783E-14
 31
0.0
210
0.0
220
0.0
230
1.0
 40
0.8824659491
 41
2.960591368143017
 42
3.588418209294499
  0
ELLIPSE
  5
29D
330
279
100
AcDbEntity
  8
T14080038__HE_WT
  6
Continuous
 62
     7
100
AcDbEllipse
 10
164.9753125325
 20
143.197342575
 30
0.0
 11
15.0216581519529
 21
-5.551115123125783E-14
 31
0.0
210
0.0
220
0.0
230
1.0
 40
0.8824659491
 41
0.0
 42
0.1971808103582945
  0
ELLIPSE
  5
29E
330
279
100
AcDbEntity
  8
T14080038__HE_WT
  6
Continuous
 62
     7
100
AcDbEllipse
 10
164.9753125325
 20
141.8791595833
 30
0.0
 11
-16.19507943710345
 21
-2.775557561562891E-14
 31
0.0
210
0.0
220
0.0
230
1.0
 40
0.8824659491
 41
5.991891468809312
 42
6.283185307179586
  0
ELLIPSE
  5
29F
330
279
100
AcDbEntity
  8
T14080038__HE_WT
  6
Continuous
 62
     7
100
AcDbEllipse
 10
164.9753125325
 20
141.8791595833
 30
0.0
 11
-16.19507943710345
 21
-2.775557561562891E-14
 31
0.0
210
0.0
220
0.0
230
1.0
 40
0.8824659491
 41
0.0
 42
3.420222436023062
  0
LINE
  5
2A0
330
279
100
AcDbEntity
  8
T14080038__HE_WT
  6
Continuous
 62
     7
100
AcDbLine
 10
160.1794810092
 20
127.351438247
 30
0.0
 11
160.1794810092
 21
127.7311019731
 31
0.0
  0
SPLINE
  5
2A1
330
279
100
AcDbEntity
  8
T14080038__HE_WT
  6
Continuous
 62
     7
100
AcDbSpline
210
0.0
220
0.0
230
1.0
 70
     8
 71
     3
 72
    14
 73
    10
 74
     0
 42
0.0000000066392124
 43
0.0000000001
 40
0.0
 40
0.0
 40
0.0
 40
0.0
 40
0.1249999999999994
 40
0.1249999999999994
 40
0.2499999999999988
 40
0.2499999999999988
 40
0.499999999999999
 40
0.499999999999999
 40
1.0
 40
1.0
 40
1.0
 40
1.0
 10
160.1794810092156
 20
127.3514382469646
 30
0.0
 10
160.1794810092156
 20
127.3187470726291
 30
0.0
 10
160.217356507191
 20
127.2889415275169
 30
0.0
 10
160.3134250037463
 20
127.2432620836401
 30
0.0
 10
160.3720708110378
 20
127.2256243493718
 30
0.0
 10
160.5534476235495
 20
127.1818602895368
 30
0.0
 10
160.6861004014705
 20
127.1636851314996
 30
0.0
 10
161.0816839945265
 20
127.1237633797306
 30
0.0
 10
161.3504544739177
 20
127.1162501048771
 30
0.0
 10
161.6212105662786
 20
127.1162501048771
 30
0.0
  0
LINE
  5
2A2
330
279
100
AcDbEntity
  8
T14080038__HE_WT
  6
Continuous
 62
     7
100
AcDbLine
 10
168.3294144988
 20
127.1162501049
 30
0.0
 11
166.596813094
 21
127.1162501049
 31
0.0
  0
LINE
  5
2A3
330
279
100
AcDbEntity
  8
T14080038__HE_WT
  6
Continuous
 62
     7
100
AcDbLine
 10
163.3531425645
 20
127.1162501049
 30
0.0
 11
161.6212105663
 21
127.1162501049
 31
0.0
  0
SPLINE
  5
2A4
330
279
100
AcDbEntity
  8
T14080038__HE_WT
  6
Continuous
 62
     7
100
AcDbSpline
210
0.0
220
0.0
230
1.0
 70
     8
 71
     3
 72
    14
 73
    10
 74
     0
 42
0.0000000066390014
 43
0.0000000001
 40
0.0
 40
0.0
 40
0.0
 40
0.0
 40
0.4999999999999989
 40
0.4999999999999989
 40
0.7499999999999994
 40
0.7499999999999994
 40
0.8749999999999997
 40
0.8749999999999997
 40
1.0
 40
1.0
 40
1.0
 40
1.0
 10
168.329414498778
 20
127.1162501048771
 30
0.0
 10
168.600188703369
 20
127.1162501048771
 30
0.0
 10
168.8689704520427
 20
127.1237649897317
 30
0.0
 10
169.2645467771304
 20
127.163688040833
 30
0.0
 10
169.3974251863287
 20
127.1818572599998
 30
0.0
 10
169.579556678236
 20
127.2258979180795
 30
0.0
 10
169.6365687397726
 20
127.2430211604758
 30
0.0
 10
169.7331176581216
 20
127.2888109923509
 30
0.0
 10
169.771144055841
 20
127.3186519287849
 30
0.0
 10
169.771144055841
 20
127.3514382469646
 30
0.0
  0
ARC
  5
2A5
330
279
100
AcDbEntity
  8
T14080038__HE_WT
  6
Continuous
 62
     7
100
AcDbCircle
 10
164.9680479178
 20
143.6327159075
 30
0.0
 40
16.59351152005924
100
AcDbArc
 50
203.3858111192
 51
334.1943047874
  0
ARC
  5
2A6
330
279
100
AcDbEntity
  8
T14080038__HE_WT
  6
Continuous
 62
     7
100
AcDbCircle
 10
164.9680479178
 20
143.6327159075
 30
0.0
 40
16.59351152005924
100
AcDbArc
 50
335.1503753292
 51
336.4745619714
  0
SPLINE
  5
2A7
330
279
100
AcDbEntity
  8
T14080038__HE_WT
  6
Continuous
 62
     7
100
AcDbSpline
210
0.0
220
0.0
230
1.0
 70
     8
 71
     3
 72
    10
 73
     6
 74
     0
 42
0.0000000002656533
 43
0.0000000001
 40
0.0
 40
0.0
 40
0.0
 40
0.0
 40
0.0167352393574673
 40
0.0543380781313881
 40
0.059735955645152
 40
0.059735955645152
 40
0.059735955645152
 40
0.059735955645152
 10
180.5302472138623
 20
145.8819866662492
 30
0.0
 10
180.4645438863671
 20
146.1012544154066
 30
0.0
 10
180.2805294908812
 20
146.7070321209147
 30
0.0
 10
179.9604620025924
 20
147.4092628479425
 30
0.0
 10
179.7094483700137
 20
147.8946087401641
 30
0.0
 10
179.6775897549598
 20
147.9552340357613
 30
0.0
  0
SPLINE
  5
2A8
330
279
100
AcDbEntity
  8
T14080038__HE_WT
  6
Continuous
 62
     7
100
AcDbSpline
210
0.0
220
0.0
230
1.0
 70
     8
 71
     3
 72
    10
 73
     6
 74
     0
 42
0.0000000002650591
 43
0.0000000001
 40
0.9457453453411483
 40
0.9457453453411483
 40
0.9457453453411483
 40
0.9457453453411483
 40
0.9601747746085039
 40
0.9978360458206044
 40
1.0
 40
1.0
 40
1.0
 40
1.0
 10
150.2661197795924
 20
147.9382872681535
 30
0.0
 10
150.1821084999388
 20
147.7768777961032
 30
0.0
 10
149.8874515001323
 20
147.187109436058
 30
0.0
 10
149.6012065260816
 20
146.5405318895458
 30
0.0
 10
149.4726777669
 20
146.0895242031004
 30
0.0
 10
149.4645849507401
 20
146.0610780290763
 30
0.0
  0
ARC
  5
2A9
330
279
100
AcDbEntity
  8
T14080038__HE_WT
  6
Continuous
 62
     7
100
AcDbCircle
 10
164.1158771793
 20
137.9819797972
 30
0.0
 40
11.37419017200288
100
AcDbArc
 50
233.3337629987
 51
250.5362332965
  0
ARC
  5
2AA
330
279
100
AcDbEntity
  8
T14080038__HE_WT
  6
Continuous
 62
     7
100
AcDbCircle
 10
165.8575065453
 20
137.9472144531
 30
0.0
 40
11.3321588220929
100
AcDbArc
 50
289.3541511491
 51
306.8608909149
  0
CIRCLE
  5
2AB
330
279
100
AcDbEntity
  8
$DDT_AUDIT_GENERATED_(D1)
  6
Continuous
 62
     7
100
AcDbCircle
 10
64.9753125325
 20
271.5493542525
 30
0.0
 40
3.2
  0
ARC
  5
2AC
330
279
100
AcDbEntity
  8
$DDT_AUDIT_GENERATED_(D1)
  6
Continuous
 62
     7
100
AcDbCircle
 10
64.9753125325
 20
271.5493542525
 30
0.0
 40
3.8
100
AcDbArc
 50
96.7794604489
 51
101.2205395511
  0
CIRCLE
  5
2AD
330
279
100
AcDbEntity
  8
$DDT_AUDIT_GENERATED_(D1)
  6
Continuous
 62
     7
100
AcDbCircle
 10
64.9753125325
 20
271.5493542525
 30
0.0
 40
4.250000000000004
  0
CIRCLE
  5
2AE
330
279
100
AcDbEntity
  8
$DDT_AUDIT_GENERATED_(D1)
  6
Continuous
 62
     7
100
AcDbCircle
 10
64.9753125325
 20
271.5493542525
 30
0.0
 40
4.450000000000006
  0
ARC
  5
2AF
330
279
100
AcDbEntity
  8
$DDT_AUDIT_GENERATED_(D1)
  6
Continuous
 62
     7
100
AcDbCircle
 10
64.9753125325
 20
271.5493542525
 30
0.0
 40
4.500000000000003
100
AcDbArc
 50
0.0
 51
15.8767804028
  0
ARC
  5
2B0
330
279
100
AcDbEntity
  8
$DDT_AUDIT_GENERATED_(D1)
  6
Continuous
 62
     7
100
AcDbCircle
 10
64.9753125325
 20
271.5493542525
 30
0.0
 40
4.500000000000003
100
AcDbArc
 50
33.2504212619
 51
58.1585617245
  0
ARC
  5
2B1
330
279
100
AcDbEntity
  8
$DDT_AUDIT_GENERATED_(D1)
  6
Continuous
 62
     7
100
AcDbCircle
 10
64.9753125325
 20
271.5493542525
 30
0.0
 40
4.500000000000003
100
AcDbArc
 50
79.2011441768
 51
130.1240345935
  0
ARC
  5
2B2
330
279
100
AcDbEntity
  8
$DDT_AUDIT_GENERATED_(D1)
  6
Continuous
 62
     7
100
AcDbCircle
 10
64.9753125325
 20
271.5493542525
 30
0.0
 40
4.500000000000003
100
AcDbArc
 50
143.0288401181
 51
216.9711598819
  0
ARC
  5
2B3
330
279
100
AcDbEntity
  8
$DDT_AUDIT_GENERATED_(D1)
  6
Continuous
 62
     7
100
AcDbCircle
 10
64.9753125325
 20
271.5493542525
 30
0.0
 40
4.500000000000003
100
AcDbArc
 50
229.8759654065
 51
280.7988558232
  0
ARC
  5
2B4
330
279
100
AcDbEntity
  8
$DDT_AUDIT_GENERATED_(D1)
  6
Continuous
 62
     7
100
AcDbCircle
 10
64.9753125325
 20
271.5493542525
 30
0.0
 40
4.500000000000003
100
AcDbArc
 50
301.4655155383
 51
326.7495787255
  0
ARC
  5
2B5
330
279
100
AcDbEntity
  8
$DDT_AUDIT_GENERATED_(D1)
  6
Continuous
 62
     7
100
AcDbCircle
 10
64.9753125325
 20
271.5493542525
 30
0.0
 40
4.500000000000003
100
AcDbArc
 50
344.1232195972
 51
0.0
  0
LINE
  5
2B6
330
279
100
AcDbEntity
  8
$DDT_AUDIT_GENERATED_(D1)
  6
Continuous
 62
     7
100
AcDbLine
 10
65.4238949312
 20
275.3227842348
 30
0.0
 11
64.9753125325
 21
274.8742018361
 31
0.0
  0
LINE
  5
2B7
330
279
100
AcDbEntity
  8
$DDT_AUDIT_GENERATED_(D1)
  6
Continuous
 62
     7
100
AcDbLine
 10
64.9753125325
 20
274.8742018361
 30
0.0
 11
64.5267301338
 21
275.3227842348
 31
0.0
  0
ARC
  5
2B8
330
279
100
AcDbEntity
  8
$DDT_AUDIT_GENERATED_(D1)
  6
Continuous
 62
     7
100
AcDbCircle
 10
64.9753125325
 20
271.5493542525
 30
0.0
 40
3.800000000000002
100
AcDbArc
 50
78.7794604489
 51
83.2205395511
  0
LINE
  5
2B9
330
279
100
AcDbEntity
  8
$DDT_AUDIT_GENERATED_(D1)
  6
Continuous
 62
     7
100
AcDbLine
 10
66.5679937375
 20
274.9994798414
 30
0.0
 11
66.0027469396
 21
274.7114722126
 31
0.0
  0
LINE
  5
2BA
330
279
100
AcDbEntity
  8
$DDT_AUDIT_GENERATED_(D1)
  6
Continuous
 62
     7
100
AcDbLine
 10
66.0027469396
 20
274.7114722126
 30
0.0
 11
65.7147393108
 21
275.2767190105
 31
0.0
  0
ARC
  5
2BB
330
279
100
AcDbEntity
  8
$DDT_AUDIT_GENERATED_(D1)
  6
Continuous
 62
     7
100
AcDbCircle
 10
64.9753125325
 20
271.5493542525
 30
0.0
 40
3.800000000000002
100
AcDbArc
 50
60.7794604489
 51
65.2205395511
  0
LINE
  5
2BC
330
279
100
AcDbEntity
  8
$DDT_AUDIT_GENERATED_(D1)
  6
Continuous
 62
     7
100
AcDbLine
 10
67.5561898106
 20
274.3384531169
 30
0.0
 11
66.9296089083
 21
274.2392124514
 31
0.0
  0
LINE
  5
2BD
330
279
100
AcDbEntity
  8
$DDT_AUDIT_GENERATED_(D1)
  6
Continuous
 62
     7
100
AcDbLine
 10
66.9296089083
 20
274.2392124514
 30
0.0
 11
66.8303682428
 21
274.8657933537
 31
0.0
  0
ARC
  5
2BE
330
279
100
AcDbEntity
  8
$DDT_AUDIT_GENERATED_(D1)
  6
Continuous
 62
     7
100
AcDbCircle
 10
64.9753125325
 20
271.5493542525
 30
0.0
 40
3.800000000000006
100
AcDbArc
 50
42.7794604489
 51
47.2205395511
  0
LINE
  5
2BF
330
279
100
AcDbEntity
  8
$DDT_AUDIT_GENERATED_(D1)
  6
Continuous
 62
     7
100
AcDbLine
 10
68.2917516337
 20
273.4044099627
 30
0.0
 11
67.6651707314
 21
273.5036506283
 31
0.0
  0
LINE
  5
2C0
330
279
100
AcDbEntity
  8
$DDT_AUDIT_GENERATED_(D1)
  6
Continuous
 62
     7
100
AcDbLine
 10
67.6651707314
 20
273.5036506283
 30
0.0
 11
67.7644113969
 21
274.1302315306
 31
0.0
  0
ARC
  5
2C1
330
279
100
AcDbEntity
  8
$DDT_AUDIT_GENERATED_(D1)
  6
Continuous
 62
     7
100
AcDbCircle
 10
64.9753125325
 20
271.5493542525
 30
0.0
 40
3.799999999999998
100
AcDbArc
 50
24.7794604489
 51
29.2205395511
  0
LINE
  5
2C2
330
279
100
AcDbEntity
  8
$DDT_AUDIT_GENERATED_(D1)
  6
Continuous
 62
     7
100
AcDbLine
 10
68.7026772906
 20
272.2887810307
 30
0.0
 11
68.1374304926
 21
272.5767886595
 31
0.0
  0
LINE
  5
2C3
330
279
100
AcDbEntity
  8
$DDT_AUDIT_GENERATED_(D1)
  6
Continuous
 62
     7
100
AcDbLine
 10
68.1374304926
 20
272.5767886595
 30
0.0
 11
68.4254381214
 21
273.1420354575
 31
0.0
  0
ARC
  5
2C4
330
279
100
AcDbEntity
  8
$DDT_AUDIT_GENERATED_(D1)
  6
Continuous
 62
     7
100
AcDbCircle
 10
64.9753125325
 20
271.5493542525
 30
0.0
 40
3.800000000000003
100
AcDbArc
 50
6.7794604489
 51
11.2205395511
  0
LINE
  5
2C5
330
279
100
AcDbEntity
  8
$DDT_AUDIT_GENERATED_(D1)
  6
Continuous
 62
     7
100
AcDbLine
 10
68.7487425149
 20
271.1007718538
 30
0.0
 11
68.3001601162
 21
271.5493542525
 31
0.0
  0
LINE
  5
2C6
330
279
100
AcDbEntity
  8
$DDT_AUDIT_GENERATED_(D1)
  6
Continuous
 62
     7
100
AcDbLine
 10
68.3001601162
 20
271.5493542525
 30
0.0
 11
68.7487425149
 21
271.9979366512
 31
0.0
  0
ARC
  5
2C7
330
279
100
AcDbEntity
  8
$DDT_AUDIT_GENERATED_(D1)
  6
Continuous
 62
     7
100
AcDbCircle
 10
64.9753125325
 20
271.5493542525
 30
0.0
 40
3.799999999999998
100
AcDbArc
 50
348.7794604489
 51
353.2205395511
  0
LINE
  5
2C8
330
279
100
AcDbEntity
  8
$DDT_AUDIT_GENERATED_(D1)
  6
Continuous
 62
     7
100
AcDbLine
 10
68.4254381214
 20
269.9566730475
 30
0.0
 11
68.1374304926
 21
270.5219198454
 31
0.0
  0
LINE
  5
2C9
330
279
100
AcDbEntity
  8
$DDT_AUDIT_GENERATED_(D1)
  6
Continuous
 62
     7
100
AcDbLine
 10
68.1374304926
 20
270.5219198454
 30
0.0
 11
68.7026772906
 21
270.8099274742
 31
0.0
  0
ARC
  5
2CA
330
279
100
AcDbEntity
  8
$DDT_AUDIT_GENERATED_(D1)
  6
Continuous
 62
     7
100
AcDbCircle
 10
64.9753125325
 20
271.5493542525
 30
0.0
 40
3.799999999999997
100
AcDbArc
 50
330.7794604489
 51
335.2205395511
  0
LINE
  5
2CB
330
279
100
AcDbEntity
  8
$DDT_AUDIT_GENERATED_(D1)
  6
Continuous
 62
     7
100
AcDbLine
 10
67.7644113969
 20
268.9684769744
 30
0.0
 11
67.6651707314
 21
269.5950578767
 31
0.0
  0
LINE
  5
2CC
330
279
100
AcDbEntity
  8
$DDT_AUDIT_GENERATED_(D1)
  6
Continuous
 62
     7
100
AcDbLine
 10
67.6651707314
 20
269.5950578767
 30
0.0
 11
68.2917516337
 21
269.6942985422
 31
0.0
  0
ARC
  5
2CD
330
279
100
AcDbEntity
  8
$DDT_AUDIT_GENERATED_(D1)
  6
Continuous
 62
     7
100
AcDbCircle
 10
64.9753125325
 20
271.5493542525
 30
0.0
 40
3.800000000000006
100
AcDbArc
 50
312.7794604489
 51
317.2205395511
  0
LINE
  5
2CE
330
279
100
AcDbEntity
  8
$DDT_AUDIT_GENERATED_(D1)
  6
Continuous
 62
     7
100
AcDbLine
 10
66.8303682428
 20
268.2329151513
 30
0.0
 11
66.9296089083
 21
268.8594960536
 31
0.0
  0
LINE
  5
2CF
330
279
100
AcDbEntity
  8
$DDT_AUDIT_GENERATED_(D1)
  6
Continuous
 62
     7
100
AcDbLine
 10
66.9296089083
 20
268.8594960536
 30
0.0
 11
67.5561898106
 21
268.7602553881
 31
0.0
  0
ARC
  5
2D0
330
279
100
AcDbEntity
  8
$DDT_AUDIT_GENERATED_(D1)
  6
Continuous
 62
     7
100
AcDbCircle
 10
64.9753125325
 20
271.5493542525
 30
0.0
 40
3.800000000000003
100
AcDbArc
 50
294.7794604489
 51
299.2205395511
  0
LINE
  5
2D1
330
279
100
AcDbEntity
  8
$DDT_AUDIT_GENERATED_(D1)
  6
Continuous
 62
     7
100
AcDbLine
 10
65.7147393108
 20
267.8219894944
 30
0.0
 11
66.0027469396
 21
268.3872362924
 31
0.0
  0
LINE
  5
2D2
330
279
100
AcDbEntity
  8
$DDT_AUDIT_GENERATED_(D1)
  6
Continuous
 62
     7
100
AcDbLine
 10
66.0027469396
 20
268.3872362924
 30
0.0
 11
66.5679937375
 21
268.0992286636
 31
0.0
  0
ARC
  5
2D3
330
279
100
AcDbEntity
  8
$DDT_AUDIT_GENERATED_(D1)
  6
Continuous
 62
     7
100
AcDbCircle
 10
64.9753125325
 20
271.5493542525
 30
0.0
 40
3.800000000000001
100
AcDbArc
 50
276.7794604489
 51
281.2205395511
  0
LINE
  5
2D4
330
279
100
AcDbEntity
  8
$DDT_AUDIT_GENERATED_(D1)
  6
Continuous
 62
     7
100
AcDbLine
 10
64.5267301338
 20
267.7759242702
 30
0.0
 11
64.9753125325
 21
268.2245066688
 31
0.0
  0
LINE
  5
2D5
330
279
100
AcDbEntity
  8
$DDT_AUDIT_GENERATED_(D1)
  6
Continuous
 62
     7
100
AcDbLine
 10
64.9753125325
 20
268.2245066688
 30
0.0
 11
65.4238949312
 21
267.7759242702
 31
0.0
  0
ARC
  5
2D6
330
279
100
AcDbEntity
  8
$DDT_AUDIT_GENERATED_(D1)
  6
Continuous
 62
     7
100
AcDbCircle
 10
64.9753125325
 20
271.5493542525
 30
0.0
 40
3.8
100
AcDbArc
 50
258.7794604489
 51
263.2205395511
  0
LINE
  5
2D7
330
279
100
AcDbEntity
  8
$DDT_AUDIT_GENERATED_(D1)
  6
Continuous
 62
     7
100
AcDbLine
 10
63.3826313275
 20
268.0992286636
 30
0.0
 11
63.9478781255
 21
268.3872362924
 31
0.0
  0
LINE
  5
2D8
330
279
100
AcDbEntity
  8
$DDT_AUDIT_GENERATED_(D1)
  6
Continuous
 62
     7
100
AcDbLine
 10
63.9478781255
 20
268.3872362924
 30
0.0
 11
64.2358857543
 21
267.8219894944
 31
0.0
  0
ARC
  5
2D9
330
279
100
AcDbEntity
  8
$DDT_AUDIT_GENERATED_(D1)
  6
Continuous
 62
     7
100
AcDbCircle
 10
64.9753125325
 20
271.5493542525
 30
0.0
 40
3.799999999999998
100
AcDbArc
 50
240.7794604489
 51
245.2205395511
  0
LINE
  5
2DA
330
279
100
AcDbEntity
  8
$DDT_AUDIT_GENERATED_(D1)
  6
Continuous
 62
     7
100
AcDbLine
 10
62.3944352544
 20
268.7602553881
 30
0.0
 11
63.0210161567
 21
268.8594960536
 31
0.0
  0
LINE
  5
2DB
330
279
100
AcDbEntity
  8
$DDT_AUDIT_GENERATED_(D1)
  6
Continuous
 62
     7
100
AcDbLine
 10
63.0210161567
 20
268.8594960536
 30
0.0
 11
63.1202568223
 21
268.2329151513
 31
0.0
  0
ARC
  5
2DC
330
279
100
AcDbEntity
  8
$DDT_AUDIT_GENERATED_(D1)
  6
Continuous
 62
     7
100
AcDbCircle
 10
64.9753125325
 20
271.5493542525
 30
0.0
 40
3.799999999999998
100
AcDbArc
 50
222.7794604489
 51
227.2205395511
  0
LINE
  5
2DD
330
279
100
AcDbEntity
  8
$DDT_AUDIT_GENERATED_(D1)
  6
Continuous
 62
     7
100
AcDbLine
 10
61.6588734313
 20
269.6942985422
 30
0.0
 11
62.2854543337
 21
269.5950578767
 31
0.0
  0
LINE
  5
2DE
330
279
100
AcDbEntity
  8
$DDT_AUDIT_GENERATED_(D1)
  6
Continuous
 62
     7
100
AcDbLine
 10
62.2854543337
 20
269.5950578767
 30
0.0
 11
62.1862136681
 21
268.9684769744
 31
0.0
  0
ARC
  5
2DF
330
279
100
AcDbEntity
  8
$DDT_AUDIT_GENERATED_(D1)
  6
Continuous
 62
     7
100
AcDbCircle
 10
64.9753125325
 20
271.5493542525
 30
0.0
 40
3.799999999999999
100
AcDbArc
 50
204.7794604489
 51
209.2205395511
  0
LINE
  5
2E0
330
279
100
AcDbEntity
  8
$DDT_AUDIT_GENERATED_(D1)
  6
Continuous
 62
     7
100
AcDbLine
 10
61.2479477745
 20
270.8099274742
 30
0.0
 11
61.8131945724
 21
270.5219198454
 31
0.0
  0
LINE
  5
2E1
330
279
100
AcDbEntity
  8
$DDT_AUDIT_GENERATED_(D1)
  6
Continuous
 62
     7
100
AcDbLine
 10
61.8131945724
 20
270.5219198454
 30
0.0
 11
61.5251869436
 21
269.9566730475
 31
0.0
  0
ARC
  5
2E2
330
279
100
AcDbEntity
  8
$DDT_AUDIT_GENERATED_(D1)
  6
Continuous
 62
     7
100
AcDbCircle
 10
64.9753125325
 20
271.5493542525
 30
0.0
 40
3.800000000000004
100
AcDbArc
 50
186.7794604489
 51
191.2205395511
  0
LINE
  5
2E3
330
279
100
AcDbEntity
  8
$DDT_AUDIT_GENERATED_(D1)
  6
Continuous
 62
     7
100
AcDbLine
 10
61.2018825502
 20
271.9979366512
 30
0.0
 11
61.6504649489
 21
271.5493542525
 31
0.0
  0
LINE
  5
2E4
330
279
100
AcDbEntity
  8
$DDT_AUDIT_GENERATED_(D1)
  6
Continuous
 62
     7
100
AcDbLine
 10
61.6504649489
 20
271.5493542525
 30
0.0
 11
61.2018825502
 21
271.1007718538
 31
0.0
  0
ARC
  5
2E5
330
279
100
AcDbEntity
  8
$DDT_AUDIT_GENERATED_(D1)
  6
Continuous
 62
     7
100
AcDbCircle
 10
64.9753125325
 20
271.5493542525
 30
0.0
 40
3.799999999999998
100
AcDbArc
 50
168.7794604489
 51
173.2205395511
  0
LINE
  5
2E6
330
279
100
AcDbEntity
  8
$DDT_AUDIT_GENERATED_(D1)
  6
Continuous
 62
     7
100
AcDbLine
 10
61.5251869436
 20
273.1420354575
 30
0.0
 11
61.8131945724
 21
272.5767886595
 31
0.0
  0
LINE
  5
2E7
330
279
100
AcDbEntity
  8
$DDT_AUDIT_GENERATED_(D1)
  6
Continuous
 62
     7
100
AcDbLine
 10
61.8131945724
 20
272.5767886595
 30
0.0
 11
61.2479477745
 21
272.2887810307
 31
0.0
  0
ARC
  5
2E8
330
279
100
AcDbEntity
  8
$DDT_AUDIT_GENERATED_(D1)
  6
Continuous
 62
     7
100
AcDbCircle
 10
64.9753125325
 20
271.5493542525
 30
0.0
 40
3.799999999999996
100
AcDbArc
 50
150.7794604489
 51
155.2205395511
  0
LINE
  5
2E9
330
279
100
AcDbEntity
  8
$DDT_AUDIT_GENERATED_(D1)
  6
Continuous
 62
     7
100
AcDbLine
 10
62.1862136681
 20
274.1302315306
 30
0.0
 11
62.2854543337
 21
273.5036506283
 31
0.0
  0
LINE
  5
2EA
330
279
100
AcDbEntity
  8
$DDT_AUDIT_GENERATED_(D1)
  6
Continuous
 62
     7
100
AcDbLine
 10
62.2854543337
 20
273.5036506283
 30
0.0
 11
61.6588734313
 21
273.4044099627
 31
0.0
  0
ARC
  5
2EB
330
279
100
AcDbEntity
  8
$DDT_AUDIT_GENERATED_(D1)
  6
Continuous
 62
     7
100
AcDbCircle
 10
64.9753125325
 20
271.5493542525
 30
0.0
 40
3.799999999999995
100
AcDbArc
 50
132.7794604489
 51
137.2205395511
  0
LINE
  5
2EC
330
279
100
AcDbEntity
  8
$DDT_AUDIT_GENERATED_(D1)
  6
Continuous
 62
     7
100
AcDbLine
 10
63.1202568223
 20
274.8657933537
 30
0.0
 11
63.0210161567
 21
274.2392124514
 31
0.0
  0
LINE
  5
2ED
330
279
100
AcDbEntity
  8
$DDT_AUDIT_GENERATED_(D1)
  6
Continuous
 62
     7
100
AcDbLine
 10
63.0210161567
 20
274.2392124514
 30
0.0
 11
62.3944352544
 21
274.3384531169
 31
0.0
  0
ARC
  5
2EE
330
279
100
AcDbEntity
  8
$DDT_AUDIT_GENERATED_(D1)
  6
Continuous
 62
     7
100
AcDbCircle
 10
64.9753125325
 20
271.5493542525
 30
0.0
 40
3.799999999999996
100
AcDbArc
 50
114.7794604489
 51
119.2205395511
  0
LINE
  5
2EF
330
279
100
AcDbEntity
  8
$DDT_AUDIT_GENERATED_(D1)
  6
Continuous
 62
     7
100
AcDbLine
 10
64.2358857543
 20
275.2767190105
 30
0.0
 11
63.9478781255
 21
274.7114722126
 31
0.0
  0
LINE
  5
2F0
330
279
100
AcDbEntity
  8
$DDT_AUDIT_GENERATED_(D1)
  6
Continuous
 62
     7
100
AcDbLine
 10
63.9478781255
 20
274.7114722126
 30
0.0
 11
63.3826313275
 21
274.9994798414
 31
0.0
  0
CIRCLE
  5
2F1
330
279
100
AcDbEntity
  8
$DDT_AUDIT_GENERATED_(D1)
  6
Continuous
 62
     7
100
AcDbCircle
 10
64.9753125325
 20
271.5493542525
 30
0.0
 40
2.1
  0
CIRCLE
  5
2F2
330
279
100
AcDbEntity
  8
$DDT_AUDIT_GENERATED_(D1)
  6
Continuous
 62
     7
100
AcDbCircle
 10
64.9753125325
 20
271.5493542525
 30
0.0
 40
2.01
  0
CIRCLE
  5
2F3
330
279
100
AcDbEntity
  8
$DDT_AUDIT_GENERATED_(D1)
  6
Continuous
 62
     7
100
AcDbCircle
 10
64.9753125325
 20
271.5493542525
 30
0.0
 40
1.65
  0
ARC
  5
2F4
330
279
100
AcDbEntity
  8
$DDT_AUDIT_GENERATED_(D1)
  6
Continuous
 62
     7
100
AcDbCircle
 10
64.9753125325
 20
271.5493542525
 30
0.0
 40
2.0
100
AcDbArc
 50
255.0
 51
195.0
  0
LINE
  5
2F6
330
279
100
AcDbEntity
  8
$DDT_AUDIT_GENERATED_(2F5)
  6
Continuous
 62
     7
100
AcDbLine
 10
60.740043946
 20
275.7993542525
 30
0.0
 11
60.2291587995
 21
274.9397052735
 31
0.0
  0
LINE
  5
2F7
330
279
100
AcDbEntity
  8
$DDT_AUDIT_GENERATED_(2F5)
  6
Continuous
 62
     7
100
AcDbLine
 10
60.740043946
 20
275.7993542525
 30
0.0
 11
61.9813788074
 21
275.0616350693
 31
0.0
  0
LINE
  5
2F8
330
279
100
AcDbEntity
  8
$DDT_AUDIT_GENERATED_(2F5)
  6
Continuous
 62
     7
100
AcDbLine
 10
60.2291587995
 20
274.9397052735
 30
0.0
 11
61.4233322488
 21
274.2300138848
 31
0.0
  0
ARC
  5
2F9
330
279
100
AcDbEntity
  8
$DDT_AUDIT_GENERATED_(2F5)
  6
Continuous
 62
     7
100
AcDbCircle
 10
62.3900869246
 20
275.7493542525
 30
0.0
 40
0.7999999999999999
100
AcDbArc
 50
239.2771930886
 51
252.4591106551
  0
LINE
  5
2FA
330
279
100
AcDbEntity
  8
$DDT_AUDIT_GENERATED_(2F5)
  6
Continuous
 62
     7
100
AcDbLine
 10
65.7143516199
 20
275.9375567578
 30
0.0
 11
67.0711029359
 21
276.3560577238
 31
0.0
  0
LINE
  5
2FB
330
279
100
AcDbEntity
  8
$DDT_AUDIT_GENERATED_(2F5)
  6
Continuous
 62
     7
100
AcDbLine
 10
67.2602786745
 20
275.3679180833
 30
0.0
 11
67.3658572163
 21
275.4004846422
 31
0.0
  0
ARC
  5
2FC
330
279
100
AcDbEntity
  8
$DDT_AUDIT_GENERATED_(2F5)
  6
Continuous
 62
     7
100
AcDbCircle
 10
67.6900869246
 20
274.3493542525
 30
0.0
 40
2.1
100
AcDbArc
 50
332.6763446357
 51
107.1428035347
  0
ARC
  5
2FD
330
279
100
AcDbEntity
  8
$DDT_AUDIT_GENERATED_(2F5)
  6
Continuous
 62
     7
100
AcDbCircle
 10
67.6900869246
 20
274.3493542525
 30
0.0
 40
1.100000000000001
100
AcDbArc
 50
339.1033892074
 51
107.1428035347
  0
ARC
  5
2FE
330
279
100
AcDbEntity
  8
$DDT_AUDIT_GENERATED_(2F5)
  6
Continuous
 62
     7
100
AcDbCircle
 10
73.1094964866
 20
271.5493542525
 30
0.0
 40
4.000000000000008
100
AcDbArc
 50
152.6763446357
 51
163.4033033541
  0
ARC
  5
2FF
330
279
100
AcDbEntity
  8
$DDT_AUDIT_GENERATED_(2F5)
  6
Continuous
 62
     7
100
AcDbCircle
 10
73.1094964866
 20
271.5493542525
 30
0.0
 40
4.000000000000008
100
AcDbArc
 50
196.5966966459
 51
207.3236553643
  0
ARC
  5
300
330
279
100
AcDbEntity
  8
$DDT_AUDIT_GENERATED_(2F5)
  6
Continuous
 62
     7
100
AcDbCircle
 10
67.6900869246
 20
268.7493542525
 30
0.0
 40
1.100000000000003
100
AcDbArc
 50
252.8571964653
 51
20.896610807
  0
ARC
  5
301
330
279
100
AcDbEntity
  8
$DDT_AUDIT_GENERATED_(2F5)
  6
Continuous
 62
     7
100
AcDbCircle
 10
67.6900869246
 20
268.7493542525
 30
0.0
 40
2.099999999999993
100
AcDbArc
 50
252.8571964653
 51
27.3236553643
  0
LINE
  5
302
330
279
100
AcDbEntity
  8
$DDT_AUDIT_GENERATED_(2F5)
  6
Continuous
 62
     7
100
AcDbLine
 10
67.3658572163
 20
267.6982238628
 30
0.0
 11
67.2602786745
 21
267.7307904217
 31
0.0
  0
LINE
  5
303
330
279
100
AcDbEntity
  8
$DDT_AUDIT_GENERATED_(2F5)
  6
Continuous
 62
     7
100
AcDbLine
 10
67.0711029359
 20
266.7426507812
 30
0.0
 11
65.7143516199
 21
267.1611517472
 31
0.0
  0
ARC
  5
304
330
279
100
AcDbEntity
  8
$DDT_AUDIT_GENERATED_(2F5)
  6
Continuous
 62
     7
100
AcDbCircle
 10
62.3900869246
 20
267.3493542525
 30
0.0
 40
0.7999999999999954
100
AcDbArc
 50
107.5408893538
 51
120.7228069114
  0
LINE
  5
305
330
279
100
AcDbEntity
  8
$DDT_AUDIT_GENERATED_(2F5)
  6
Continuous
 62
     7
100
AcDbLine
 10
61.4233322488
 20
268.8686946202
 30
0.0
 11
60.2291587995
 21
268.1590032315
 31
0.0
  0
LINE
  5
306
330
279
100
AcDbEntity
  8
$DDT_AUDIT_GENERATED_(2F5)
  6
Continuous
 62
     7
100
AcDbLine
 10
60.2291587995
 20
268.1590032315
 30
0.0
 11
60.740043946
 21
267.2993542525
 31
0.0
  0
LINE
  5
307
330
279
100
AcDbEntity
  8
$DDT_AUDIT_GENERATED_(2F5)
  6
Continuous
 62
     7
100
AcDbLine
 10
61.9813788074
 20
268.0370734357
 30
0.0
 11
60.740043946
 21
267.2993542525
 31
0.0
  0
LINE
  5
309
330
279
100
AcDbEntity
  8
NO_DOC_NO_010416
  6
Continuous
 62
     7
100
AcDbLine
 10
176.0459908695
 20
315.1433293332
 30
0.0
 11
171.0459908695
 21
315.1433293332
 31
0.0
  0
LINE
  5
30A
330
279
100
AcDbEntity
  8
NO_DOC_NO_010416
  6
Continuous
 62
     7
100
AcDbLine
 10
172.5459908695
 20
316.6433293332
 30
0.0
 11
174.5459908695
 21
316.6433293332
 31
0.0
  0
LINE
  5
30B
330
279
100
AcDbEntity
  8
NO_DOC_NO_010416
  6
Continuous
 62
     7
100
AcDbLine
 10
176.0459908695
 20
308.5460562113
 30
0.0
 11
176.0459908695
 21
315.1433293332
 31
0.0
  0
LINE
  5
30C
330
279
100
AcDbEntity
  8
NO_DOC_NO_010416
  6
Continuous
 62
     7
100
AcDbLine
 10
171.0459908695
 20
315.1433293332
 30
0.0
 11
171.0459908695
 21
309.6867733996
 31
0.0
  0
LINE
  5
30D
330
279
100
AcDbEntity
  8
NO_DOC_NO_010416
  6
Continuous
 62
     7
100
AcDbLine
 10
176.0459908695
 20
315.1433293332
 30
0.0
 11
174.5459908695
 21
316.6433293332
 31
0.0
  0
LINE
  5
30E
330
279
100
AcDbEntity
  8
NO_DOC_NO_010416
  6
Continuous
 62
     7
100
AcDbLine
 10
172.5459908695
 20
316.6433293332
 30
0.0
 11
171.0459908695
 21
315.1433293332
 31
0.0
  0
CIRCLE
  5
30F
330
279
100
AcDbEntity
  8
$DDT_AUDIT_GENERATED_(D1)
  6
Continuous
 62
     7
100
AcDbCircle
 10
264.9753125325
 20
271.5493542525
 30
0.0
 40
3.2
  0
ARC
  5
310
330
279
100
AcDbEntity
  8
$DDT_AUDIT_GENERATED_(D1)
  6
Continuous
 62
     7
100
AcDbCircle
 10
264.9753125325
 20
271.5493542525
 30
0.0
 40
3.799999999999999
100
AcDbArc
 50
276.7794604489
 51
281.2205395511
  0
CIRCLE
  5
311
330
279
100
AcDbEntity
  8
$DDT_AUDIT_GENERATED_(D1)
  6
Continuous
 62
     7
100
AcDbCircle
 10
264.9753125325
 20
271.5493542525
 30
0.0
 40
4.250000000000004
  0
CIRCLE
  5
312
330
279
100
AcDbEntity
  8
$DDT_AUDIT_GENERATED_(D1)
  6
Continuous
 62
     7
100
AcDbCircle
 10
264.9753125325
 20
271.5493542525
 30
0.0
 40
4.450000000000006
  0
ARC
  5
313
330
279
100
AcDbEntity
  8
$DDT_AUDIT_GENERATED_(D1)
  6
Continuous
 62
     7
100
AcDbCircle
 10
264.9753125325
 20
271.5493542525
 30
0.0
 40
4.500000000000003
100
AcDbArc
 50
0.0
 51
36.9711598819
  0
ARC
  5
314
330
279
100
AcDbEntity
  8
$DDT_AUDIT_GENERATED_(D1)
  6
Continuous
 62
     7
100
AcDbCircle
 10
264.9753125325
 20
271.5493542525
 30
0.0
 40
4.500000000000003
100
AcDbArc
 50
49.8759654065
 51
100.7988558232
  0
ARC
  5
315
330
279
100
AcDbEntity
  8
$DDT_AUDIT_GENERATED_(D1)
  6
Continuous
 62
     7
100
AcDbCircle
 10
264.9753125325
 20
271.5493542525
 30
0.0
 40
4.500000000000003
100
AcDbArc
 50
121.4655155383
 51
146.7495787243
  0
ARC
  5
316
330
279
100
AcDbEntity
  8
$DDT_AUDIT_GENERATED_(D1)
  6
Continuous
 62
     7
100
AcDbCircle
 10
264.9753125325
 20
271.5493542525
 30
0.0
 40
4.500000000000003
100
AcDbArc
 50
164.1232195972
 51
195.8767804028
  0
ARC
  5
317
330
279
100
AcDbEntity
  8
$DDT_AUDIT_GENERATED_(D1)
  6
Continuous
 62
     7
100
AcDbCircle
 10
264.9753125325
 20
271.5493542525
 30
0.0
 40
4.500000000000003
100
AcDbArc
 50
213.2504212743
 51
238.5344844617
  0
ARC
  5
318
330
279
100
AcDbEntity
  8
$DDT_AUDIT_GENERATED_(D1)
  6
Continuous
 62
     7
100
AcDbCircle
 10
264.9753125325
 20
271.5493542525
 30
0.0
 40
4.500000000000003
100
AcDbArc
 50
259.2011441768
 51
310.1240345935
  0
ARC
  5
319
330
279
100
AcDbEntity
  8
$DDT_AUDIT_GENERATED_(D1)
  6
Continuous
 62
     7
100
AcDbCircle
 10
264.9753125325
 20
271.5493542525
 30
0.0
 40
4.500000000000003
100
AcDbArc
 50
323.0288401181
 51
0.0
  0
LINE
  5
31A
330
279
100
AcDbEntity
  8
$DDT_AUDIT_GENERATED_(D1)
  6
Continuous
 62
     7
100
AcDbLine
 10
264.5267301338
 20
267.7759242702
 30
0.0
 11
264.9753125325
 21
268.2245066688
 31
0.0
  0
LINE
  5
31B
330
279
100
AcDbEntity
  8
$DDT_AUDIT_GENERATED_(D1)
  6
Continuous
 62
     7
100
AcDbLine
 10
264.9753125325
 20
268.2245066688
 30
0.0
 11
265.4238949312
 21
267.7759242702
 31
0.0
  0
ARC
  5
31C
330
279
100
AcDbEntity
  8
$DDT_AUDIT_GENERATED_(D1)
  6
Continuous
 62
     7
100
AcDbCircle
 10
264.9753125325
 20
271.5493542525
 30
0.0
 40
3.800000000000002
100
AcDbArc
 50
258.7794604489
 51
263.2205395511
  0
LINE
  5
31D
330
279
100
AcDbEntity
  8
$DDT_AUDIT_GENERATED_(D1)
  6
Continuous
 62
     7
100
AcDbLine
 10
263.3826313275
 20
268.0992286636
 30
0.0
 11
263.9478781255
 21
268.3872362924
 31
0.0
  0
LINE
  5
31E
330
279
100
AcDbEntity
  8
$DDT_AUDIT_GENERATED_(D1)
  6
Continuous
 62
     7
100
AcDbLine
 10
263.9478781255
 20
268.3872362924
 30
0.0
 11
264.2358857543
 21
267.8219894944
 31
0.0
  0
ARC
  5
31F
330
279
100
AcDbEntity
  8
$DDT_AUDIT_GENERATED_(D1)
  6
Continuous
 62
     7
100
AcDbCircle
 10
264.9753125325
 20
271.5493542525
 30
0.0
 40
3.800000000000002
100
AcDbArc
 50
240.7794604489
 51
245.2205395511
  0
LINE
  5
320
330
279
100
AcDbEntity
  8
$DDT_AUDIT_GENERATED_(D1)
  6
Continuous
 62
     7
100
AcDbLine
 10
262.3944352544
 20
268.7602553881
 30
0.0
 11
263.0210161567
 21
268.8594960536
 31
0.0
  0
LINE
  5
321
330
279
100
AcDbEntity
  8
$DDT_AUDIT_GENERATED_(D1)
  6
Continuous
 62
     7
100
AcDbLine
 10
263.0210161567
 20
268.8594960536
 30
0.0
 11
263.1202568223
 21
268.2329151513
 31
0.0
  0
ARC
  5
322
330
279
100
AcDbEntity
  8
$DDT_AUDIT_GENERATED_(D1)
  6
Continuous
 62
     7
100
AcDbCircle
 10
264.9753125325
 20
271.5493542525
 30
0.0
 40
3.800000000000006
100
AcDbArc
 50
222.7794604489
 51
227.2205395511
  0
LINE
  5
323
330
279
100
AcDbEntity
  8
$DDT_AUDIT_GENERATED_(D1)
  6
Continuous
 62
     7
100
AcDbLine
 10
261.6588734313
 20
269.6942985422
 30
0.0
 11
262.2854543337
 21
269.5950578767
 31
0.0
  0
LINE
  5
324
330
279
100
AcDbEntity
  8
$DDT_AUDIT_GENERATED_(D1)
  6
Continuous
 62
     7
100
AcDbLine
 10
262.2854543337
 20
269.5950578767
 30
0.0
 11
262.1862136681
 21
268.9684769744
 31
0.0
  0
ARC
  5
325
330
279
100
AcDbEntity
  8
$DDT_AUDIT_GENERATED_(D1)
  6
Continuous
 62
     7
100
AcDbCircle
 10
264.9753125325
 20
271.5493542525
 30
0.0
 40
3.800000000000011
100
AcDbArc
 50
204.7794604489
 51
209.2205395511
  0
LINE
  5
326
330
279
100
AcDbEntity
  8
$DDT_AUDIT_GENERATED_(D1)
  6
Continuous
 62
     7
100
AcDbLine
 10
261.2479477745
 20
270.8099274742
 30
0.0
 11
261.8131945724
 21
270.5219198454
 31
0.0
  0
LINE
  5
327
330
279
100
AcDbEntity
  8
$DDT_AUDIT_GENERATED_(D1)
  6
Continuous
 62
     7
100
AcDbLine
 10
261.8131945724
 20
270.5219198454
 30
0.0
 11
261.5251869436
 21
269.9566730475
 31
0.0
  0
ARC
  5
328
330
279
100
AcDbEntity
  8
$DDT_AUDIT_GENERATED_(D1)
  6
Continuous
 62
     7
100
AcDbCircle
 10
264.9753125325
 20
271.5493542525
 30
0.0
 40
3.800000000000003
100
AcDbArc
 50
186.7794604489
 51
191.2205395511
  0
LINE
  5
329
330
279
100
AcDbEntity
  8
$DDT_AUDIT_GENERATED_(D1)
  6
Continuous
 62
     7
100
AcDbLine
 10
261.2018825502
 20
271.9979366512
 30
0.0
 11
261.6504649489
 21
271.5493542525
 31
0.0
  0
LINE
  5
32A
330
279
100
AcDbEntity
  8
$DDT_AUDIT_GENERATED_(D1)
  6
Continuous
 62
     7
100
AcDbLine
 10
261.6504649489
 20
271.5493542525
 30
0.0
 11
261.2018825502
 21
271.1007718538
 31
0.0
  0
ARC
  5
32B
330
279
100
AcDbEntity
  8
$DDT_AUDIT_GENERATED_(D1)
  6
Continuous
 62
     7
100
AcDbCircle
 10
264.9753125325
 20
271.5493542525
 30
0.0
 40
3.800000000000012
100
AcDbArc
 50
168.7794604489
 51
173.2205395511
  0
LINE
  5
32C
330
279
100
AcDbEntity
  8
$DDT_AUDIT_GENERATED_(D1)
  6
Continuous
 62
     7
100
AcDbLine
 10
261.5251869436
 20
273.1420354575
 30
0.0
 11
261.8131945724
 21
272.5767886595
 31
0.0
  0
LINE
  5
32D
330
279
100
AcDbEntity
  8
$DDT_AUDIT_GENERATED_(D1)
  6
Continuous
 62
     7
100
AcDbLine
 10
261.8131945724
 20
272.5767886595
 30
0.0
 11
261.2479477745
 21
272.2887810307
 31
0.0
  0
ARC
  5
32E
330
279
100
AcDbEntity
  8
$DDT_AUDIT_GENERATED_(D1)
  6
Continuous
 62
     7
100
AcDbCircle
 10
264.9753125325
 20
271.5493542525
 30
0.0
 40
3.800000000000009
100
AcDbArc
 50
150.7794604489
 51
155.2205395511
  0
LINE
  5
32F
330
279
100
AcDbEntity
  8
$DDT_AUDIT_GENERATED_(D1)
  6
Continuous
 62
     7
100
AcDbLine
 10
262.1862136681
 20
274.1302315306
 30
0.0
 11
262.2854543337
 21
273.5036506283
 31
0.0
  0
LINE
  5
330
330
279
100
AcDbEntity
  8
$DDT_AUDIT_GENERATED_(D1)
  6
Continuous
 62
     7
100
AcDbLine
 10
262.2854543337
 20
273.5036506283
 30
0.0
 11
261.6588734313
 21
273.4044099627
 31
0.0
  0
ARC
  5
331
330
279
100
AcDbEntity
  8
$DDT_AUDIT_GENERATED_(D1)
  6
Continuous
 62
     7
100
AcDbCircle
 10
264.9753125325
 20
271.5493542525
 30
0.0
 40
3.800000000000006
100
AcDbArc
 50
132.7794604489
 51
137.2205395511
  0
LINE
  5
332
330
279
100
AcDbEntity
  8
$DDT_AUDIT_GENERATED_(D1)
  6
Continuous
 62
     7
100
AcDbLine
 10
263.1202568223
 20
274.8657933537
 30
0.0
 11
263.0210161567
 21
274.2392124514
 31
0.0
  0
LINE
  5
333
330
279
100
AcDbEntity
  8
$DDT_AUDIT_GENERATED_(D1)
  6
Continuous
 62
     7
100
AcDbLine
 10
263.0210161567
 20
274.2392124514
 30
0.0
 11
262.3944352544
 21
274.3384531169
 31
0.0
  0
ARC
  5
334
330
279
100
AcDbEntity
  8
$DDT_AUDIT_GENERATED_(D1)
  6
Continuous
 62
     7
100
AcDbCircle
 10
264.9753125325
 20
271.5493542525
 30
0.0
 40
3.800000000000003
100
AcDbArc
 50
114.7794604489
 51
119.2205395511
  0
LINE
  5
335
330
279
100
AcDbEntity
  8
$DDT_AUDIT_GENERATED_(D1)
  6
Continuous
 62
     7
100
AcDbLine
 10
264.2358857543
 20
275.2767190105
 30
0.0
 11
263.9478781255
 21
274.7114722126
 31
0.0
  0
LINE
  5
336
330
279
100
AcDbEntity
  8
$DDT_AUDIT_GENERATED_(D1)
  6
Continuous
 62
     7
100
AcDbLine
 10
263.9478781255
 20
274.7114722126
 30
0.0
 11
263.3826313275
 21
274.9994798414
 31
0.0
  0
ARC
  5
337
330
279
100
AcDbEntity
  8
$DDT_AUDIT_GENERATED_(D1)
  6
Continuous
 62
     7
100
AcDbCircle
 10
264.9753125325
 20
271.5493542525
 30
0.0
 40
3.800000000000001
100
AcDbArc
 50
96.7794604489
 51
101.2205395511
  0
LINE
  5
338
330
279
100
AcDbEntity
  8
$DDT_AUDIT_GENERATED_(D1)
  6
Continuous
 62
     7
100
AcDbLine
 10
265.4238949312
 20
275.3227842348
 30
0.0
 11
264.9753125325
 21
274.8742018361
 31
0.0
  0
LINE
  5
339
330
279
100
AcDbEntity
  8
$DDT_AUDIT_GENERATED_(D1)
  6
Continuous
 62
     7
100
AcDbLine
 10
264.9753125325
 20
274.8742018361
 30
0.0
 11
264.5267301338
 21
275.3227842348
 31
0.0
  0
ARC
  5
33A
330
279
100
AcDbEntity
  8
$DDT_AUDIT_GENERATED_(D1)
  6
Continuous
 62
     7
100
AcDbCircle
 10
264.9753125325
 20
271.5493542525
 30
0.0
 40
3.799999999999999
100
AcDbArc
 50
78.7794604489
 51
83.2205395511
  0
LINE
  5
33B
330
279
100
AcDbEntity
  8
$DDT_AUDIT_GENERATED_(D1)
  6
Continuous
 62
     7
100
AcDbLine
 10
266.5679937375
 20
274.9994798414
 30
0.0
 11
266.0027469396
 21
274.7114722126
 31
0.0
  0
LINE
  5
33C
330
279
100
AcDbEntity
  8
$DDT_AUDIT_GENERATED_(D1)
  6
Continuous
 62
     7
100
AcDbLine
 10
266.0027469396
 20
274.7114722126
 30
0.0
 11
265.7147393108
 21
275.2767190105
 31
0.0
  0
ARC
  5
33D
330
279
100
AcDbEntity
  8
$DDT_AUDIT_GENERATED_(D1)
  6
Continuous
 62
     7
100
AcDbCircle
 10
264.9753125325
 20
271.5493542525
 30
0.0
 40
3.799999999999997
100
AcDbArc
 50
60.7794604489
 51
65.2205395511
  0
LINE
  5
33E
330
279
100
AcDbEntity
  8
$DDT_AUDIT_GENERATED_(D1)
  6
Continuous
 62
     7
100
AcDbLine
 10
267.5561898106
 20
274.3384531169
 30
0.0
 11
266.9296089083
 21
274.2392124514
 31
0.0
  0
LINE
  5
33F
330
279
100
AcDbEntity
  8
$DDT_AUDIT_GENERATED_(D1)
  6
Continuous
 62
     7
100
AcDbLine
 10
266.9296089083
 20
274.2392124514
 30
0.0
 11
266.8303682428
 21
274.8657933537
 31
0.0
  0
ARC
  5
340
330
279
100
AcDbEntity
  8
$DDT_AUDIT_GENERATED_(D1)
  6
Continuous
 62
     7
100
AcDbCircle
 10
264.9753125325
 20
271.5493542525
 30
0.0
 40
3.799999999999998
100
AcDbArc
 50
42.7794604489
 51
47.2205395511
  0
LINE
  5
341
330
279
100
AcDbEntity
  8
$DDT_AUDIT_GENERATED_(D1)
  6
Continuous
 62
     7
100
AcDbLine
 10
268.2917516337
 20
273.4044099627
 30
0.0
 11
267.6651707314
 21
273.5036506283
 31
0.0
  0
LINE
  5
342
330
279
100
AcDbEntity
  8
$DDT_AUDIT_GENERATED_(D1)
  6
Continuous
 62
     7
100
AcDbLine
 10
267.6651707314
 20
273.5036506283
 30
0.0
 11
267.7644113969
 21
274.1302315306
 31
0.0
  0
ARC
  5
343
330
279
100
AcDbEntity
  8
$DDT_AUDIT_GENERATED_(D1)
  6
Continuous
 62
     7
100
AcDbCircle
 10
264.9753125325
 20
271.5493542525
 30
0.0
 40
3.799999999999998
100
AcDbArc
 50
24.7794604489
 51
29.2205395511
  0
LINE
  5
344
330
279
100
AcDbEntity
  8
$DDT_AUDIT_GENERATED_(D1)
  6
Continuous
 62
     7
100
AcDbLine
 10
268.7026772906
 20
272.2887810307
 30
0.0
 11
268.1374304926
 21
272.5767886595
 31
0.0
  0
LINE
  5
345
330
279
100
AcDbEntity
  8
$DDT_AUDIT_GENERATED_(D1)
  6
Continuous
 62
     7
100
AcDbLine
 10
268.1374304926
 20
272.5767886595
 30
0.0
 11
268.4254381214
 21
273.1420354575
 31
0.0
  0
ARC
  5
346
330
279
100
AcDbEntity
  8
$DDT_AUDIT_GENERATED_(D1)
  6
Continuous
 62
     7
100
AcDbCircle
 10
264.9753125325
 20
271.5493542525
 30
0.0
 40
3.79999999999999
100
AcDbArc
 50
6.7794604489
 51
11.2205395511
  0
LINE
  5
347
330
279
100
AcDbEntity
  8
$DDT_AUDIT_GENERATED_(D1)
  6
Continuous
 62
     7
100
AcDbLine
 10
268.7487425149
 20
271.1007718538
 30
0.0
 11
268.3001601162
 21
271.5493542525
 31
0.0
  0
LINE
  5
348
330
279
100
AcDbEntity
  8
$DDT_AUDIT_GENERATED_(D1)
  6
Continuous
 62
     7
100
AcDbLine
 10
268.3001601162
 20
271.5493542525
 30
0.0
 11
268.7487425149
 21
271.9979366512
 31
0.0
  0
ARC
  5
349
330
279
100
AcDbEntity
  8
$DDT_AUDIT_GENERATED_(D1)
  6
Continuous
 62
     7
100
AcDbCircle
 10
264.9753125325
 20
271.5493542525
 30
0.0
 40
3.799999999999998
100
AcDbArc
 50
348.7794604489
 51
353.2205395511
  0
LINE
  5
34A
330
279
100
AcDbEntity
  8
$DDT_AUDIT_GENERATED_(D1)
  6
Continuous
 62
     7
100
AcDbLine
 10
268.4254381214
 20
269.9566730475
 30
0.0
 11
268.1374304926
 21
270.5219198454
 31
0.0
  0
LINE
  5
34B
330
279
100
AcDbEntity
  8
$DDT_AUDIT_GENERATED_(D1)
  6
Continuous
 62
     7
100
AcDbLine
 10
268.1374304926
 20
270.5219198454
 30
0.0
 11
268.7026772906
 21
270.8099274742
 31
0.0
  0
ARC
  5
34C
330
279
100
AcDbEntity
  8
$DDT_AUDIT_GENERATED_(D1)
  6
Continuous
 62
     7
100
AcDbCircle
 10
264.9753125325
 20
271.5493542525
 30
0.0
 40
3.799999999999996
100
AcDbArc
 50
330.7794604489
 51
335.2205395511
  0
LINE
  5
34D
330
279
100
AcDbEntity
  8
$DDT_AUDIT_GENERATED_(D1)
  6
Continuous
 62
     7
100
AcDbLine
 10
267.7644113969
 20
268.9684769744
 30
0.0
 11
267.6651707314
 21
269.5950578767
 31
0.0
  0
LINE
  5
34E
330
279
100
AcDbEntity
  8
$DDT_AUDIT_GENERATED_(D1)
  6
Continuous
 62
     7
100
AcDbLine
 10
267.6651707314
 20
269.5950578767
 30
0.0
 11
268.2917516337
 21
269.6942985422
 31
0.0
  0
ARC
  5
34F
330
279
100
AcDbEntity
  8
$DDT_AUDIT_GENERATED_(D1)
  6
Continuous
 62
     7
100
AcDbCircle
 10
264.9753125325
 20
271.5493542525
 30
0.0
 40
3.799999999999996
100
AcDbArc
 50
312.7794604489
 51
317.2205395511
  0
LINE
  5
350
330
279
100
AcDbEntity
  8
$DDT_AUDIT_GENERATED_(D1)
  6
Continuous
 62
     7
100
AcDbLine
 10
266.8303682428
 20
268.2329151513
 30
0.0
 11
266.9296089083
 21
268.8594960536
 31
0.0
  0
LINE
  5
351
330
279
100
AcDbEntity
  8
$DDT_AUDIT_GENERATED_(D1)
  6
Continuous
 62
     7
100
AcDbLine
 10
266.9296089083
 20
268.8594960536
 30
0.0
 11
267.5561898106
 21
268.7602553881
 31
0.0
  0
ARC
  5
352
330
279
100
AcDbEntity
  8
$DDT_AUDIT_GENERATED_(D1)
  6
Continuous
 62
     7
100
AcDbCircle
 10
264.9753125325
 20
271.5493542525
 30
0.0
 40
3.799999999999997
100
AcDbArc
 50
294.7794604489
 51
299.2205395511
  0
LINE
  5
353
330
279
100
AcDbEntity
  8
$DDT_AUDIT_GENERATED_(D1)
  6
Continuous
 62
     7
100
AcDbLine
 10
265.7147393108
 20
267.8219894944
 30
0.0
 11
266.0027469396
 21
268.3872362924
 31
0.0
  0
LINE
  5
354
330
279
100
AcDbEntity
  8
$DDT_AUDIT_GENERATED_(D1)
  6
Continuous
 62
     7
100
AcDbLine
 10
266.0027469396
 20
268.3872362924
 30
0.0
 11
266.5679937375
 21
268.0992286636
 31
0.0
  0
CIRCLE
  5
355
330
279
100
AcDbEntity
  8
$DDT_AUDIT_GENERATED_(D1)
  6
Continuous
 62
     7
100
AcDbCircle
 10
264.9753125325
 20
271.5493542525
 30
0.0
 40
2.1
  0
CIRCLE
  5
356
330
279
100
AcDbEntity
  8
$DDT_AUDIT_GENERATED_(D1)
  6
Continuous
 62
     7
100
AcDbCircle
 10
264.9753125325
 20
271.5493542525
 30
0.0
 40
2.01
  0
CIRCLE
  5
357
330
279
100
AcDbEntity
  8
$DDT_AUDIT_GENERATED_(D1)
  6
Continuous
 62
     7
100
AcDbCircle
 10
264.9753125325
 20
271.5493542525
 30
0.0
 40
1.65
  0
ARC
  5
358
330
279
100
AcDbEntity
  8
$DDT_AUDIT_GENERATED_(D1)
  6
Continuous
 62
     7
100
AcDbCircle
 10
264.9753125325
 20
271.5493542525
 30
0.0
 40
2.0
100
AcDbArc
 50
255.0
 51
195.0
  0
LINE
  5
359
330
279
100
AcDbEntity
  8
$DDT_AUDIT_GENERATED_(2F5)
  6
Continuous
 62
     7
100
AcDbLine
 10
269.2105811191
 20
267.2993542525
 30
0.0
 11
269.7214662656
 21
268.1590032315
 31
0.0
  0
LINE
  5
35A
330
279
100
AcDbEntity
  8
$DDT_AUDIT_GENERATED_(2F5)
  6
Continuous
 62
     7
100
AcDbLine
 10
269.2105811191
 20
267.2993542525
 30
0.0
 11
267.9692462577
 21
268.0370734357
 31
0.0
  0
LINE
  5
35B
330
279
100
AcDbEntity
  8
$DDT_AUDIT_GENERATED_(2F5)
  6
Continuous
 62
     7
100
AcDbLine
 10
269.7214662656
 20
268.1590032315
 30
0.0
 11
268.5272928162
 21
268.8686946202
 31
0.0
  0
ARC
  5
35C
330
279
100
AcDbEntity
  8
$DDT_AUDIT_GENERATED_(2F5)
  6
Continuous
 62
     7
100
AcDbCircle
 10
267.5605381404
 20
267.3493542525
 30
0.0
 40
0.7999999999999995
100
AcDbArc
 50
59.2771930886
 51
72.4591106459
  0
LINE
  5
35D
330
279
100
AcDbEntity
  8
$DDT_AUDIT_GENERATED_(2F5)
  6
Continuous
 62
     7
100
AcDbLine
 10
264.2362734451
 20
267.1611517472
 30
0.0
 11
262.8795221291
 21
266.7426507812
 31
0.0
  0
LINE
  5
35E
330
279
100
AcDbEntity
  8
$DDT_AUDIT_GENERATED_(2F5)
  6
Continuous
 62
     7
100
AcDbLine
 10
262.6903463905
 20
267.7307904217
 30
0.0
 11
262.5847678488
 21
267.6982238628
 31
0.0
  0
ARC
  5
35F
330
279
100
AcDbEntity
  8
$DDT_AUDIT_GENERATED_(2F5)
  6
Continuous
 62
     7
100
AcDbCircle
 10
262.2605381404
 20
268.7493542525
 30
0.0
 40
2.1
100
AcDbArc
 50
152.6763446357
 51
287.1428035347
  0
ARC
  5
360
330
279
100
AcDbEntity
  8
$DDT_AUDIT_GENERATED_(2F5)
  6
Continuous
 62
     7
100
AcDbCircle
 10
262.2605381404
 20
268.7493542525
 30
0.0
 40
1.100000000000001
100
AcDbArc
 50
159.1033892071
 51
287.1428035347
  0
ARC
  5
361
330
279
100
AcDbEntity
  8
$DDT_AUDIT_GENERATED_(2F5)
  6
Continuous
 62
     7
100
AcDbCircle
 10
256.8411285785
 20
271.5493542525
 30
0.0
 40
4.000000000000008
100
AcDbArc
 50
332.6763446357
 51
343.4033033541
  0
ARC
  5
362
330
279
100
AcDbEntity
  8
$DDT_AUDIT_GENERATED_(2F5)
  6
Continuous
 62
     7
100
AcDbCircle
 10
256.8411285785
 20
271.5493542525
 30
0.0
 40
4.000000000000008
100
AcDbArc
 50
16.5966966459
 51
27.3236553643
  0
ARC
  5
363
330
279
100
AcDbEntity
  8
$DDT_AUDIT_GENERATED_(2F5)
  6
Continuous
 62
     7
100
AcDbCircle
 10
262.2605381404
 20
274.3493542525
 30
0.0
 40
1.100000000000003
100
AcDbArc
 50
72.8571964653
 51
200.8966107785
  0
ARC
  5
364
330
279
100
AcDbEntity
  8
$DDT_AUDIT_GENERATED_(2F5)
  6
Continuous
 62
     7
100
AcDbCircle
 10
262.2605381404
 20
274.3493542525
 30
0.0
 40
2.099999999999993
100
AcDbArc
 50
72.8571964653
 51
207.3236553643
  0
LINE
  5
365
330
279
100
AcDbEntity
  8
$DDT_AUDIT_GENERATED_(2F5)
  6
Continuous
 62
     7
100
AcDbLine
 10
262.5847678488
 20
275.4004846422
 30
0.0
 11
262.6903463905
 21
275.3679180833
 31
0.0
  0
LINE
  5
366
330
279
100
AcDbEntity
  8
$DDT_AUDIT_GENERATED_(2F5)
  6
Continuous
 62
     7
100
AcDbLine
 10
262.8795221291
 20
276.3560577238
 30
0.0
 11
264.2362734451
 21
275.9375567578
 31
0.0
  0
ARC
  5
367
330
279
100
AcDbEntity
  8
$DDT_AUDIT_GENERATED_(2F5)
  6
Continuous
 62
     7
100
AcDbCircle
 10
267.5605381404
 20
275.7493542525
 30
0.0
 40
0.7999999999999958
100
AcDbArc
 50
287.5408893709
 51
300.7228069114
  0
LINE
  5
368
330
279
100
AcDbEntity
  8
$DDT_AUDIT_GENERATED_(2F5)
  6
Continuous
 62
     7
100
AcDbLine
 10
268.5272928162
 20
274.2300138848
 30
0.0
 11
269.7214662656
 21
274.9397052735
 31
0.0
  0
LINE
  5
369
330
279
100
AcDbEntity
  8
$DDT_AUDIT_GENERATED_(2F5)
  6
Continuous
 62
     7
100
AcDbLine
 10
269.7214662656
 20
274.9397052735
 30
0.0
 11
269.2105811191
 21
275.7993542525
 31
0.0
  0
LINE
  5
36A
330
279
100
AcDbEntity
  8
$DDT_AUDIT_GENERATED_(2F5)
  6
Continuous
 62
     7
100
AcDbLine
 10
267.9692462577
 20
275.0616350693
 30
0.0
 11
269.2105811191
 21
275.7993542525
 31
0.0
  0
ENDBLK
  5
36C
330
279
100
AcDbEntity
  8
0
100
AcDbBlockEnd
  0
ENDSEC
  0
SECTION
  2
ENTITIES
  0
LINE
  5
5E
330
1F
100
AcDbEntity
  8
Default
  6
Continuous
 62
     7
100
AcDbLine
 10
42.6845049172
 20
510.4984166482
 30
0.0
 11
89.4834518812
 21
510.4984166482
 31
0.0
  0
LINE
  5
5F
330
1F
100
AcDbEntity
  8
Default
  6
Continuous
 62
     7
100
AcDbLine
 10
91.7456374046
 20
508.9367440604
 30
0.0
 11
40.3743287709
 21
508.9148359136
 31
0.0
  0
LINE
  5
60
330
1F
100
AcDbEntity
  8
Default
  6
Continuous
 62
     7
100
AcDbLine
 10
92.5751765294
 20
506.3479653079
 30
0.0
 11
39.5927802689
 21
506.3479653079
 31
0.0
  0
LINE
  5
61
330
1F
100
AcDbEntity
  8
Default
  6
Continuous
 62
     7
100
AcDbLine
 10
134.4855767713
 20
508.9549712165
 30
0.0
 11
131.4811966645
 21
508.9536899488
 31
0.0
  0
LINE
  5
62
330
1F
100
AcDbEntity
  8
Default
  6
Continuous
 62
     7
100
AcDbLine
 10
94.7045756611
 20
504.4549712165
 30
0.0
 11
37.4633811372
 21
504.4549712165
 31
0.0
  0
LINE
  5
63
330
1F
100
AcDbEntity
  8
Default
  6
Continuous
 62
     7
100
AcDbLine
 10
242.6845049172
 20
510.4984166482
 30
0.0
 11
289.4834518812
 21
510.4984166482
 31
0.0
  0
LINE
  5
64
330
1F
100
AcDbEntity
  8
Default
  6
Continuous
 62
     7
100
AcDbLine
 10
291.7456374046
 20
508.9367440604
 30
0.0
 11
240.3743287709
 21
508.9148359136
 31
0.0
  0
LINE
  5
65
330
1F
100
AcDbEntity
  8
Default
  6
Continuous
 62
     7
100
AcDbLine
 10
292.5751765294
 20
506.3479653079
 30
0.0
 11
239.5927802689
 21
506.3479653079
 31
0.0
  0
LINE
  5
66
330
1F
100
AcDbEntity
  8
Default
  6
Continuous
 62
     7
100
AcDbLine
 10
294.7045756611
 20
504.4549712165
 30
0.0
 11
237.4633811372
 21
504.4549712165
 31
0.0
  0
LINE
  5
67
330
1F
100
AcDbEntity
  8
Default
  6
Continuous
 62
     7
100
AcDbLine
 10
377.4916524582
 20
510.4984166482
 30
0.0
 11
424.2905994222
 21
510.4984166482
 31
0.0
  0
LINE
  5
68
330
1F
100
AcDbEntity
  8
Default
  6
Continuous
 62
     7
100
AcDbLine
 10
426.5527849456
 20
508.9367440604
 30
0.0
 11
375.1814763119
 21
508.9148359136
 31
0.0
  0
LINE
  5
69
330
1F
100
AcDbEntity
  8
Default
  6
Continuous
 62
     7
100
AcDbLine
 10
427.3823240704
 20
506.3479653079
 30
0.0
 11
374.39992781
 21
506.3479653079
 31
0.0
  0
LINE
  5
6A
330
1F
100
AcDbEntity
  8
Default
  6
Continuous
 62
     7
100
AcDbLine
 10
429.5117232021
 20
504.4549712165
 30
0.0
 11
372.2705286783
 21
504.4549712165
 31
0.0
  0
INSERT
  5
6C
330
1F
100
AcDbEntity
  8
Default
100
AcDbBlockReference
  2
SE
 10
0.0
 20
0.0
 30
0.0
  0
INSERT
  5
1D0
330
1F
100
AcDbEntity
  8
Default
100
AcDbBlockReference
  2
SE1
 10
0.0
 20
0.0
 30
0.0
  0
INSERT
  5
27A
330
1F
100
AcDbEntity
  8
Default
100
AcDbBlockReference
  2
SE2
 10
0.0
 20
0.0
 30
0.0
  0
TEXT
  5
36E
330
1F
100
AcDbEntity
  8
Default
  6
Continuous
 62
     7
100
AcDbText
 10
5.9362635081
 20
53.4225120485
 30
0.0
 40
10.0
  1
Grohe AG^J
  7
SEACAD_seiso_ttf
 11
5.9362635081
 21
63.4225120485
 31
0.0
100
AcDbText
 73
     3
  0
TEXT
  5
36F
330
1F
100
AcDbEntity
  8
Default
  6
Continuous
 62
     7
100
AcDbText
 10
5.9362635081
 20
37.0588756849
 30
0.0
 40
10.0
  1
 
  7
SEACAD_seiso_ttf
 11
5.9362635081
 21
47.0588756849
 31
0.0
100
AcDbText
 73
     3
  0
TEXT
  5
370
330
1F
100
AcDbEntity
  8
Default
  6
Continuous
 62
     7
100
AcDbText
 10
5.9362635081
 20
20.6952393213
 30
0.0
 40
10.0
  1
ecn: 
  7
SEACAD_seiso_ttf
 11
5.9362635081
 21
30.6952393213
 31
0.0
100
AcDbText
 73
     3
  0
TEXT
  5
371
330
1F
100
AcDbEntity
  8
Default
  6
Continuous
 62
     7
100
AcDbText
 10
5.9362635081
 20
4.3316029576
 30
0.0
 40
10.0
  1
unit: mm
  7
SEACAD_seiso_ttf
 11
5.9362635081
 21
14.3316029576
 31
0.0
100
AcDbText
 73
     3
  0
LINE
  5
372
330
1F
100
AcDbEntity
  8
Default
  6
Continuous
 62
     7
100
AcDbLine
 10
0.0
 20
0.0
 30
0.0
 11
100.0
 21
0.0
 31
0.0
  0
LINE
  5
373
330
1F
100
AcDbEntity
  8
Default
  6
Continuous
 62
     7
100
AcDbLine
 10
0.0
 20
0.0
 30
0.0
 11
0.0
 21
100.0
 31
0.0
  0
TEXT
  5
374
330
1F
100
AcDbEntity
  8
Default
  6
Continuous
 62
     7
100
AcDbText
 10
24.3923665681
 20
-18.2375342018
 30
0.0
 40
10.0
  1
100 mm
  7
SEACAD_seiso_ttf
 11
24.3923665681
 21
-8.2375342018
 31
0.0
100
AcDbText
 73
     3
  0
TEXT
  5
375
330
1F
100
AcDbEntity
  8
Default
  6
Continuous
 62
     7
100
AcDbText
 10
-7.6150308803
 20
24.6231930421
 30
0.0
 40
10.0
  1
100 mm
 50
90.0
  7
SEACAD_seiso_ttf
 11
-17.6150308803
 21
24.6231930421
 31
0.0
100
AcDbText
 73
     3
  0
TEXT
  5
376
330
1F
100
AcDbEntity
  8
Default
  6
Continuous
 62
     7
100
AcDbText
 10
28.4878128572
 20
20.0907663715
 30
0.0
 40
10.0
  1
219393
  7
SEACAD_seiso_ttf
 11
28.4878128572
 21
30.0907663715
 31
0.0
100
AcDbText
 73
     3
  0
TEXT
  5
377
330
1F
100
AcDbEntity
  8
Default
  6
Continuous
 62
     7
100
AcDbText
 10
5.9012241913
 20
36.7242780188
 30
0.0
 40
10.0
  1
20801000
  7
SEACAD_seiso_ttf
 11
5.9012241913
 21
46.7242780188
 31
0.0
100
AcDbText
 73
     3
  0
ENDSEC
  0
SECTION
  2
OBJECTS
  0
DICTIONARY
  5
C
330
0
100
AcDbDictionary
281
     1
  3
ACAD_GROUP
350
D
  3
ACAD_LAYOUT
350
1A
  3
ACAD_MLEADERSTYLE
350
37B
  3
ACAD_MLINESTYLE
350
17
  3
ACAD_PLOTSETTINGS
350
19
  3
ACAD_PLOTSTYLENAME
350
E
  3
ACAD_SCALELIST
350
3B
  3
ACAD_TABLESTYLE
350
37A
  3
ACAD_VISUALSTYLE
350
2A
  3
AcDbVariableDictionary
350
378
  0
DICTIONARY
  5
D
102
{ACAD_REACTORS
330
C
102
}
330
C
100
AcDbDictionary
281
     1
  0
DICTIONARY
  5
1A
102
{ACAD_REACTORS
330
C
102
}
330
C
100
AcDbDictionary
281
     1
  3
Layout1
350
1E
  3
Model
350
22
  0
DICTIONARY
  5
37B
102
{ACAD_REACTORS
330
C
102
}
330
C
100
AcDbDictionary
281
     1
  0
DICTIONARY
  5
17
102
{ACAD_REACTORS
330
C
102
}
330
C
100
AcDbDictionary
281
     1
  3
Standard
350
18
  0
DICTIONARY
  5
19
102
{ACAD_REACTORS
330
C
102
}
330
C
100
AcDbDictionary
281
     1
  0
ACDBDICTIONARYWDFLT
  5
E
102
{ACAD_REACTORS
330
C
102
}
330
C
100
AcDbDictionary
281
     1
  3
Normal
350
F
100
AcDbDictionaryWithDefault
340
F
  0
DICTIONARY
  5
3B
102
{ACAD_REACTORS
330
C
102
}
330
C
100
AcDbDictionary
281
     1
  3
A0
350
3C
  3
A1
350
3D
  3
A2
350
3E
  3
A3
350
3F
  3
A4
350
40
  3
A5
350
41
  3
A6
350
42
  3
A7
350
43
  3
A8
350
44
  3
A9
350
45
  3
B0
350
46
  3
B1
350
47
  3
B2
350
48
  3
B3
350
49
  3
B4
350
4A
  3
B5
350
4B
  3
B6
350
4C
  3
B7
350
4D
  3
B8
350
4E
  3
B9
350
4F
  3
C0
350
50
  3
C1
350
51
  3
C2
350
52
  3
C3
350
53
  3
C4
350
54
  3
C5
350
55
  3
C6
350
56
  3
C7
350
57
  3
C8
350
58
  3
C9
350
59
  3
D0
350
5A
  3
D1
350
5B
  3
D2
350
5C
  0
DICTIONARY
  5
37A
102
{ACAD_REACTORS
330
C
102
}
330
C
100
AcDbDictionary
281
     1
  0
DICTIONARY
  5
2A
102
{ACAD_REACTORS
330
C
102
}
330
C
100
AcDbDictionary
281
     1
  3
2dWireframe
350
2F
  3
3D Hidden
350
31
  3
3dWireframe
350
30
  3
Basic
350
32
  3
Brighten
350
36
  3
ColorChange
350
3A
  3
Conceptual
350
34
  3
Dim
350
35
  3
Facepattern
350
39
  3
Flat
350
2B
  3
FlatWithEdges
350
2C
  3
Gouraud
350
2D
  3
GouraudWithEdges
350
2E
  3
Linepattern
350
38
  3
Realistic
350
33
  3
Thicken
350
37
  0
DICTIONARY
  5
378
102
{ACAD_REACTORS
330
C
102
}
330
C
100
AcDbDictionary
281
     1
  3
CANNOSCALE
350
379
  3
PSOLHEIGHT
350
37D
  3
PSOLWIDTH
350
37C
  0
LAYOUT
  5
1E
102
{ACAD_REACTORS
330
1A
102
}
330
1A
100
AcDbPlotSettings
  1

  2
none_device
  4

  6

 40
0.0
 41
0.0
 42
0.0
 43
0.0
 44
0.0
 45
0.0
 46
0.0
 47
0.0
 48
0.0
 49
0.0
140
0.0
141
0.0
142
1.0
143
1.0
 70
   688
 72
     0
 73
     0
 74
     5
  7

 75
    16
147
1.0
148
0.0
149
0.0
100
AcDbLayout
  1
Layout1
 70
     1
 71
     1
 10
0.0
 20
0.0
 11
1682.0
 21
2378.0
 12
0.0
 22
0.0
 32
0.0
 14
0.0
 24
0.0
 34
0.0
 15
1682.0
 25
2378.0
 35
0.0
146
0.0
 13
0.0
 23
0.0
 33
0.0
 16
1.0
 26
0.0
 36
0.0
 17
0.0
 27
1.0
 37
0.0
 76
     0
330
1B
  0
LAYOUT
  5
22
102
{ACAD_REACTORS
330
1A
102
}
330
1A
100
AcDbPlotSettings
  1

  2
none_device
  4

  6

 40
0.0
 41
0.0
 42
0.0
 43
0.0
 44
0.0
 45
0.0
 46
0.0
 47
0.0
 48
0.0
 49
0.0
140
0.0
141
0.0
142
1.0
143
1.0
 70
  1712
 72
     0
 73
     0
 74
     0
  7

 75
     0
147
1.0
148
0.0
149
0.0
100
AcDbLayout
  1
Model
 70
     1
 71
     0
 10
0.0
 20
0.0
 11
1682.0
 21
2378.0
 12
0.0
 22
0.0
 32
0.0
 14
0.0
 24
0.0
 34
0.0
 15
1682.0
 25
2378.0
 35
0.0
146
0.0
 13
0.0
 23
0.0
 33
0.0
 16
1.0
 26
0.0
 36
0.0
 17
0.0
 27
1.0
 37
0.0
 76
     0
330
1F
331
29
  0
MLINESTYLE
  5
18
102
{ACAD_REACTORS
330
17
102
}
330
17
100
AcDbMlineStyle
  2
Standard
 70
     0
  3

 62
   256
 51
90.0
 52
90.0
 71
     2
 49
0.5
 62
   256
  6
BYLAYER
 49
-0.5
 62
   256
  6
BYLAYER
  0
ACDBPLACEHOLDER
  5
F
102
{ACAD_REACTORS
330
E
102
}
330
E
  0
SCALE
  5
3C
102
{ACAD_REACTORS
330
3B
102
}
330
3B
100
AcDbScale
 70
     0
300
1:1
140
1.0
141
1.0
290
     1
  0
SCALE
  5
3D
102
{ACAD_REACTORS
330
3B
102
}
330
3B
100
AcDbScale
 70
     0
300
1:2
140
1.0
141
2.0
290
     0
  0
SCALE
  5
3E
102
{ACAD_REACTORS
330
3B
102
}
330
3B
100
AcDbScale
 70
     0
300
1:4
140
1.0
141
4.0
290
     0
  0
SCALE
  5
3F
102
{ACAD_REACTORS
330
3B
102
}
330
3B
100
AcDbScale
 70
     0
300
1:5
140
1.0
141
5.0
290
     0
  0
SCALE
  5
40
102
{ACAD_REACTORS
330
3B
102
}
330
3B
100
AcDbScale
 70
     0
300
1:8
140
1.0
141
8.0
290
     0
  0
SCALE
  5
41
102
{ACAD_REACTORS
330
3B
102
}
330
3B
100
AcDbScale
 70
     0
300
1:10
140
1.0
141
10.0
290
     0
  0
SCALE
  5
42
102
{ACAD_REACTORS
330
3B
102
}
330
3B
100
AcDbScale
 70
     0
300
1:16
140
1.0
141
16.0
290
     0
  0
SCALE
  5
43
102
{ACAD_REACTORS
330
3B
102
}
330
3B
100
AcDbScale
 70
     0
300
1:20
140
1.0
141
20.0
290
     0
  0
SCALE
  5
44
102
{ACAD_REACTORS
330
3B
102
}
330
3B
100
AcDbScale
 70
     0
300
1:30
140
1.0
141
30.0
290
     0
  0
SCALE
  5
45
102
{ACAD_REACTORS
330
3B
102
}
330
3B
100
AcDbScale
 70
     0
300
1:40
140
1.0
141
40.0
290
     0
  0
SCALE
  5
46
102
{ACAD_REACTORS
330
3B
102
}
330
3B
100
AcDbScale
 70
     0
300
1:50
140
1.0
141
50.0
290
     0
  0
SCALE
  5
47
102
{ACAD_REACTORS
330
3B
102
}
330
3B
100
AcDbScale
 70
     0
300
1:100
140
1.0
141
100.0
290
     0
  0
SCALE
  5
48
102
{ACAD_REACTORS
330
3B
102
}
330
3B
100
AcDbScale
 70
     0
300
2:1
140
2.0
141
1.0
290
     0
  0
SCALE
  5
49
102
{ACAD_REACTORS
330
3B
102
}
330
3B
100
AcDbScale
 70
     0
300
4:1
140
4.0
141
1.0
290
     0
  0
SCALE
  5
4A
102
{ACAD_REACTORS
330
3B
102
}
330
3B
100
AcDbScale
 70
     0
300
8:1
140
8.0
141
1.0
290
     0
  0
SCALE
  5
4B
102
{ACAD_REACTORS
330
3B
102
}
330
3B
100
AcDbScale
 70
     0
300
10:1
140
10.0
141
1.0
290
     0
  0
SCALE
  5
4C
102
{ACAD_REACTORS
330
3B
102
}
330
3B
100
AcDbScale
 70
     0
300
100:1
140
100.0
141
1.0
290
     0
  0
SCALE
  5
4D
102
{ACAD_REACTORS
330
3B
102
}
330
3B
100
AcDbScale
 70
     0
300
1/128" = 1'-0"
140
0.0078125
141
12.0
290
     0
  0
SCALE
  5
4E
102
{ACAD_REACTORS
330
3B
102
}
330
3B
100
AcDbScale
 70
     0
300
1/64" = 1'-0"
140
0.015625
141
12.0
290
     0
  0
SCALE
  5
4F
102
{ACAD_REACTORS
330
3B
102
}
330
3B
100
AcDbScale
 70
     0
300
1/32" = 1'-0"
140
0.03125
141
12.0
290
     0
  0
SCALE
  5
50
102
{ACAD_REACTORS
330
3B
102
}
330
3B
100
AcDbScale
 70
     0
300
1/16" = 1'-0"
140
0.0625
141
12.0
290
     0
  0
SCALE
  5
51
102
{ACAD_REACTORS
330
3B
102
}
330
3B
100
AcDbScale
 70
     0
300
3/32" = 1'-0"
140
0.09375
141
12.0
290
     0
  0
SCALE
  5
52
102
{ACAD_REACTORS
330
3B
102
}
330
3B
100
AcDbScale
 70
     0
300
1/8" = 1'-0"
140
0.125
141
12.0
290
     0
  0
SCALE
  5
53
102
{ACAD_REACTORS
330
3B
102
}
330
3B
100
AcDbScale
 70
     0
300
3/16" = 1'-0"
140
0.1875
141
12.0
290
     0
  0
SCALE
  5
54
102
{ACAD_REACTORS
330
3B
102
}
330
3B
100
AcDbScale
 70
     0
300
1/4" = 1'-0"
140
0.25
141
12.0
290
     0
  0
SCALE
  5
55
102
{ACAD_REACTORS
330
3B
102
}
330
3B
100
AcDbScale
 70
     0
300
3/8" = 1'-0"
140
0.375
141
12.0
290
     0
  0
SCALE
  5
56
102
{ACAD_REACTORS
330
3B
102
}
330
3B
100
AcDbScale
 70
     0
300
1/2" = 1'-0"
140
0.5
141
12.0
290
     0
  0
SCALE
  5
57
102
{ACAD_REACTORS
330
3B
102
}
330
3B
100
AcDbScale
 70
     0
300
3/4" = 1'-0"
140
0.75
141
12.0
290
     0
  0
SCALE
  5
58
102
{ACAD_REACTORS
330
3B
102
}
330
3B
100
AcDbScale
 70
     0
300
1" = 1'-0"
140
1.0
141
12.0
290
     0
  0
SCALE
  5
59
102
{ACAD_REACTORS
330
3B
102
}
330
3B
100
AcDbScale
 70
     0
300
1-1/2" = 1'-0"
140
1.5
141
12.0
290
     0
  0
SCALE
  5
5A
102
{ACAD_REACTORS
330
3B
102
}
330
3B
100
AcDbScale
 70
     0
300
3" = 1'-0"
140
3.0
141
12.0
290
     0
  0
SCALE
  5
5B
102
{ACAD_REACTORS
330
3B
102
}
330
3B
100
AcDbScale
 70
     0
300
6" = 1'-0"
140
6.0
141
12.0
290
     0
  0
SCALE
  5
5C
102
{ACAD_REACTORS
330
3B
102
}
330
3B
100
AcDbScale
 70
     0
300
1'-0" = 1'-0"
140
12.0
141
12.0
290
     0
  0
VISUALSTYLE
  5
2F
102
{ACAD_REACTORS
330
2A
102
}
330
2A
100
AcDbVisualStyle
  2
2dWireframe
 70
     4
 71
     0
 72
     2
 73
     0
 90
        0
 40
-0.6
 41
-30.0
 62
     5
 63
     7
 74
     1
 91
        4
 64
     7
 65
   257
 75
     1
175
     1
 42
1.0
 92
        0
 66
   257
 43
1.0
 76
     1
 77
     6
 78
     2
 67
     7
 79
     5
170
     0
171
     0
290
     0
174
     0
 93
        1
 44
0.0
173
     0
291
     0
 45
0.0
1001
ACAD
1000
AcDbSavedByObjectVersion
1070
     0
  0
VISUALSTYLE
  5
31
102
{ACAD_REACTORS
330
2A
102
}
330
2A
100
AcDbVisualStyle
  2
3D Hidden
 70
     6
 71
     1
 72
     2
 73
     2
 90
        0
 40
-0.6
 41
-30.0
 62
     5
 63
     7
 74
     2
 91
        2
 64
     7
 65
   257
 75
     2
175
     1
 42
40.0
 92
        0
 66
   257
 43
1.0
 76
     1
 77
     6
 78
     2
 67
     7
 79
     3
170
     0
171
     0
290
     0
174
     0
 93
        1
 44
0.0
173
     0
291
     0
 45
0.0
1001
ACAD
1000
AcDbSavedByObjectVersion
1070
     0
  0
VISUALSTYLE
  5
30
102
{ACAD_REACTORS
330
2A
102
}
330
2A
100
AcDbVisualStyle
  2
3dWireframe
 70
     5
 71
     0
 72
     2
 73
     0
 90
        0
 40
-0.6
 41
-30.0
 62
     5
 63
     7
 74
     1
 91
        4
 64
     7
 65
   257
 75
     1
175
     1
 42
1.0
 92
        0
 66
   257
 43
1.0
 76
     1
 77
     6
 78
     2
 67
     7
 79
     5
170
     0
171
     0
290
     0
174
     0
 93
        1
 44
0.0
173
     0
291
     0
 45
0.0
1001
ACAD
1000
AcDbSavedByObjectVersion
1070
     0
  0
VISUALSTYLE
  5
32
102
{ACAD_REACTORS
330
2A
102
}
330
2A
100
AcDbVisualStyle
  2
Basic
 70
     7
 71
     1
 72
     0
 73
     1
 90
        0
 40
-0.6
 41
-30.0
 62
     5
 63
     7
 74
     0
 91
        4
 64
     7
 65
   257
 75
     1
175
     1
 42
1.0
 92
        8
 66
     7
 43
1.0
 76
     1
 77
     6
 78
     2
 67
     7
 79
     5
170
     0
171
     0
290
     0
174
     0
 93
        1
 44
0.0
173
     0
291
     1
 45
0.0
1001
ACAD
1000
AcDbSavedByObjectVersion
1070
     0
  0
VISUALSTYLE
  5
36
102
{ACAD_REACTORS
330
2A
102
}
330
2A
100
AcDbVisualStyle
  2
Brighten
 70
    12
 71
     2
 72
     2
 73
     0
 90
        0
 40
-0.6
 41
-30.0
 62
     5
 63
     7
 74
     1
 91
        4
 64
     7
 65
   257
 75
     1
175
     1
 42
1.0
 92
        8
 66
     7
 43
1.0
 76
     1
 77
     6
 78
     2
 67
     7
 79
     5
170
     0
171
     0
290
     0
174
     0
 93
        1
 44
50.0
173
     0
291
     1
 45
0.0
1001
ACAD
1000
AcDbSavedByObjectVersion
1070
     0
  0
VISUALSTYLE
  5
3A
102
{ACAD_REACTORS
330
2A
102
}
330
2A
100
AcDbVisualStyle
  2
ColorChange
 70
    16
 71
     2
 72
     2
 73
     3
 90
        0
 40
-0.6
 41
-30.0
 62
     5
 63
     8
 74
     1
 91
        4
 64
     7
 65
   257
 75
     1
175
     1
 42
1.0
 92
        8
 66
     8
 43
1.0
 76
     1
 77
     6
 78
     2
 67
     7
 79
     5
170
     0
171
     0
290
     0
174
     0
 93
        1
 44
0.0
173
     0
291
     1
 45
0.0
1001
ACAD
1000
AcDbSavedByObjectVersion
1070
     0
  0
VISUALSTYLE
  5
34
102
{ACAD_REACTORS
330
2A
102
}
330
2A
100
AcDbVisualStyle
  2
Conceptual
 70
     9
 71
     3
 72
     2
 73
     0
 90
        0
 40
-0.6
 41
-30.0
 62
     5
 63
     7
 74
     2
 91
        2
 64
     7
 65
   257
 75
     1
175
     1
 42
40.0
 92
        8
 66
     7
 43
1.0
 76
     1
 77
     6
 78
     2
 67
     7
 79
     3
170
     0
171
     0
290
     0
174
     0
 93
        1
 44
0.0
173
     0
291
     0
 45
0.0
1001
ACAD
1000
AcDbSavedByObjectVersion
1070
     0
  0
VISUALSTYLE
  5
35
102
{ACAD_REACTORS
330
2A
102
}
330
2A
100
AcDbVisualStyle
  2
Dim
 70
    11
 71
     2
 72
     2
 73
     0
 90
        0
 40
-0.6
 41
-30.0
 62
     5
 63
     7
 74
     1
 91
        4
 64
     7
 65
   257
 75
     1
175
     1
 42
1.0
 92
        8
 66
     7
 43
1.0
 76
     1
 77
     6
 78
     2
 67
     7
 79
     5
170
     0
171
     0
290
     0
174
     0
 93
        1
 44
-50.0
173
     0
291
     1
 45
0.0
1001
ACAD
1000
AcDbSavedByObjectVersion
1070
     0
  0
VISUALSTYLE
  5
39
102
{ACAD_REACTORS
330
2A
102
}
330
2A
100
AcDbVisualStyle
  2
Facepattern
 70
    15
 71
     2
 72
     2
 73
     0
 90
        0
 40
-0.6
 41
-30.0
 62
     5
 63
     7
 74
     1
 91
        4
 64
     7
 65
   257
 75
     1
175
     1
 42
1.0
 92
        8
 66
     7
 43
1.0
 76
     1
 77
     6
 78
     2
 67
     7
 79
     5
170
     0
171
     0
290
     0
174
     0
 93
        1
 44
0.0
173
     0
291
     1
 45
0.0
1001
ACAD
1000
AcDbSavedByObjectVersion
1070
     0
  0
VISUALSTYLE
  5
2B
102
{ACAD_REACTORS
330
2A
102
}
330
2A
100
AcDbVisualStyle
  2
Flat
 70
     0
 71
     2
 72
     1
 73
     1
 90
        2
 40
-0.6
 41
30.0
 62
     5
 63
     7
 74
     0
 91
        4
 64
     7
 65
   257
 75
     1
175
     1
 42
1.0
 92
        8
 66
     7
 43
1.0
 76
     1
 77
     6
 78
     2
 67
     7
 79
     5
170
     0
171
     0
290
     0
174
     0
 93
       13
 44
0.0
173
     0
291
     1
 45
0.0
1001
ACAD
1000
AcDbSavedByObjectVersion
1070
     0
  0
VISUALSTYLE
  5
2C
102
{ACAD_REACTORS
330
2A
102
}
330
2A
100
AcDbVisualStyle
  2
FlatWithEdges
 70
     1
 71
     2
 72
     1
 73
     1
 90
        2
 40
-0.6
 41
30.0
 62
     5
 63
     7
 74
     1
 91
        4
 64
     7
 65
   257
 75
     1
175
     1
 42
1.0
 92
        0
 66
   257
 43
1.0
 76
     1
 77
     6
 78
     2
 67
     7
 79
     5
170
     0
171
     0
290
     0
174
     0
 93
       13
 44
0.0
173
     0
291
     1
 45
0.0
1001
ACAD
1000
AcDbSavedByObjectVersion
1070
     0
  0
VISUALSTYLE
  5
2D
102
{ACAD_REACTORS
330
2A
102
}
330
2A
100
AcDbVisualStyle
  2
Gouraud
 70
     2
 71
     2
 72
     2
 73
     1
 90
        2
 40
-0.6
 41
30.0
 62
     5
 63
     7
 74
     0
 91
        4
 64
     7
 65
   257
 75
     1
175
     1
 42
1.0
 92
        0
 66
     7
 43
1.0
 76
     1
 77
     6
 78
     2
 67
     7
 79
     5
170
     0
171
     0
290
     0
174
     0
 93
       13
 44
0.0
173
     0
291
     1
 45
0.0
1001
ACAD
1000
AcDbSavedByObjectVersion
1070
     0
  0
VISUALSTYLE
  5
2E
102
{ACAD_REACTORS
330
2A
102
}
330
2A
100
AcDbVisualStyle
  2
GouraudWithEdges
 70
     3
 71
     2
 72
     2
 73
     1
 90
        2
 40
-0.6
 41
30.0
 62
     5
 63
     7
 74
     1
 91
        4
 64
     7
 65
   257
 75
     1
175
     1
 42
1.0
 92
        0
 66
   257
 43
1.0
 76
     1
 77
     6
 78
     2
 67
     7
 79
     5
170
     0
171
     0
290
     0
174
     0
 93
       13
 44
0.0
173
     0
291
     1
 45
0.0
1001
ACAD
1000
AcDbSavedByObjectVersion
1070
     0
  0
VISUALSTYLE
  5
38
102
{ACAD_REACTORS
330
2A
102
}
330
2A
100
AcDbVisualStyle
  2
Linepattern
 70
    14
 71
     2
 72
     2
 73
     0
 90
        0
 40
-0.6
 41
-30.0
 62
     5
 63
     7
 74
     1
 91
        4
 64
     7
 65
   257
 75
     7
175
     7
 42
1.0
 92
        8
 66
     7
 43
1.0
 76
     1
 77
     6
 78
     2
 67
     7
 79
     5
170
     0
171
     0
290
     0
174
     0
 93
        1
 44
0.0
173
     0
291
     1
 45
0.0
1001
ACAD
1000
AcDbSavedByObjectVersion
1070
     0
  0
VISUALSTYLE
  5
33
102
{ACAD_REACTORS
330
2A
102
}
330
2A
100
AcDbVisualStyle
  2
Realistic
 70
     8
 71
     2
 72
     2
 73
     0
 90
        0
 40
-0.6
 41
-30.0
 62
     5
 63
     7
 74
     1
 91
        0
 64
     7
 65
   257
 75
     1
175
     1
 42
1.0
 92
        8
 66
     8
 43
1.0
 76
     1
 77
     6
 78
     2
 67
     7
 79
     5
170
     0
171
     0
290
     0
174
     0
 93
       13
 44
0.0
173
     0
291
     0
 45
0.0
1001
ACAD
1000
AcDbSavedByObjectVersion
1070
     0
  0
VISUALSTYLE
  5
37
102
{ACAD_REACTORS
330
2A
102
}
330
2A
100
AcDbVisualStyle
  2
Thicken
 70
    13
 71
     2
 72
     2
 73
     0
 90
        0
 40
-0.6
 41
-30.0
 62
     5
 63
     7
 74
     1
 91
        4
 64
     7
 65
   257
 75
     1
175
     1
 42
1.0
 92
       12
 66
     7
 43
1.0
 76
     1
 77
     6
 78
     2
 67
     7
 79
     5
170
     0
171
     0
290
     0
174
     0
 93
        1
 44
0.0
173
     0
291
     1
 45
0.0
1001
ACAD
1000
AcDbSavedByObjectVersion
1070
     0
  0
DICTIONARYVAR
  5
379
102
{ACAD_REACTORS
330
378
102
}
330
378
100
DictionaryVariables
280
     0
  1
1:1
  0
DICTIONARYVAR
  5
37D
102
{ACAD_REACTORS
330
378
102
}
330
378
100
DictionaryVariables
280
     0
  1
80.000000
  0
DICTIONARYVAR
  5
37C
102
{ACAD_REACTORS
330
378
102
}
330
378
100
DictionaryVariables
280
     0
  1
5.000000
  0
ENDSEC
  0
EOF
