  0
SECTION
  2
HEADER
  9
$ACADVER
  1
AC1009
  9
$DWGCODEPAGE
  3
ansi_1252
  9
$INSBASE
 10
0.0
 20
0.0
 30
0.0
  9
$EXTMIN
 10
1.000000000000000E+20
 20
1.000000000000000E+20
 30
1.000000000000000E+20
  9
$EXTMAX
 10
-1.000000000000000E+20
 20
-1.000000000000000E+20
 30
-1.000000000000000E+20
  9
$LIMMIN
 10
0.0
 20
0.0
  9
$LIMMAX
 10
12.0
 20
9.0
  9
$ORTHOMODE
 70
     0
  9
$REGENMODE
 70
     1
  9
$FILLMODE
 70
     1
  9
$QTEXTMODE
 70
     0
  9
$MIRRTEXT
 70
     1
  9
$DRAGMODE
 70
     2
  9
$LTSCALE
 40
1.0
  9
$OSMODE
 70
    37
  9
$ATTMODE
 70
     1
  9
$TEXTSIZE
 40
0.2
  9
$TRACEWID
 40
0.05
  9
$TEXTSTYLE
  7
STANDARD
  9
$CLAYER
  8
0
  9
$CELTYPE
  6
BYLAYER
  9
$CECOLOR
 62
   256
  9
$DIMSCALE
 40
1.0
  9
$DIMASZ
 40
0.18
  9
$DIMEXO
 40
0.0625
  9
$DIMDLI
 40
0.38
  9
$DIMRND
 40
0.0
  9
$DIMDLE
 40
0.0
  9
$DIMEXE
 40
0.18
  9
$DIMTP
 40
0.0
  9
$DIMTM
 40
0.0
  9
$DIMTXT
 40
0.18
  9
$DIMCEN
 40
0.09
  9
$DIMTSZ
 40
0.0
  9
$DIMTOL
 70
     0
  9
$DIMLIM
 70
     0
  9
$DIMTIH
 70
     1
  9
$DIMTOH
 70
     1
  9
$DIMSE1
 70
     0
  9
$DIMSE2
 70
     0
  9
$DIMTAD
 70
     0
  9
$DIMZIN
 70
     0
  9
$DIMBLK
  1

  9
$DIMASO
 70
     1
  9
$DIMSHO
 70
     1
  9
$DIMPOST
  1

  9
$DIMAPOST
  1

  9
$DIMALT
 70
     0
  9
$DIMALTD
 70
     2
  9
$DIMALTF
 40
25.4
  9
$DIMLFAC
 40
1.0
  9
$DIMTOFL
 70
     0
  9
$DIMTVP
 40
0.0
  9
$DIMTIX
 70
     0
  9
$DIMSOXD
 70
     0
  9
$DIMSAH
 70
     0
  9
$DIMBLK1
  1

  9
$DIMBLK2
  1

  9
$DIMSTYLE
  2
STANDARD
  9
$DIMCLRD
 70
     0
  9
$DIMCLRE
 70
     0
  9
$DIMCLRT
 70
     0
  9
$DIMTFAC
 40
1.0
  9
$DIMGAP
 40
0.09
  9
$LUNITS
 70
     2
  9
$LUPREC
 70
     4
  9
$SKETCHINC
 40
0.1
  9
$FILLETRAD
 40
0.5
  9
$AUNITS
 70
     0
  9
$AUPREC
 70
     0
  9
$MENU
  1
.
  9
$ELEVATION
 40
0.0
  9
$PELEVATION
 40
0.0
  9
$THICKNESS
 40
0.0
  9
$LIMCHECK
 70
     0
  9
$CHAMFERA
 40
0.5
  9
$CHAMFERB
 40
0.5
  9
$SKPOLY
 70
     0
  9
$TDCREATE
 40
2455436.618361539
  9
$TDUPDATE
 40
2455436.618361539
  9
$TDINDWG
 40
0.0000000116
  9
$TDUSRTIMER
 40
0.0000000116
  9
$USRTIMER
 70
     1
  9
$ANGBASE
 50
0.0
  9
$ANGDIR
 70
     0
  9
$PDMODE
 70
     0
  9
$PDSIZE
 40
0.0
  9
$PLINEWID
 40
0.0
  9
$COORDS
 70
     1
  9
$SPLFRAME
 70
     0
  9
$SPLINETYPE
 70
     6
  9
$SPLINESEGS
 70
     8
  9
$ATTDIA
 70
     0
  9
$ATTREQ
 70
     1
  9
$HANDLING
 70
     1
  9
$HANDSEED
  5
B0E
  9
$SURFTAB1
 70
     6
  9
$SURFTAB2
 70
     6
  9
$SURFTYPE
 70
     6
  9
$SURFU
 70
     6
  9
$SURFV
 70
     6
  9
$UCSNAME
  2

  9
$UCSORG
 10
0.0
 20
0.0
 30
0.0
  9
$UCSXDIR
 10
1.0
 20
0.0
 30
0.0
  9
$UCSYDIR
 10
0.0
 20
1.0
 30
0.0
  9
$PUCSNAME
  2

  9
$PUCSORG
 10
0.0
 20
0.0
 30
0.0
  9
$PUCSXDIR
 10
1.0
 20
0.0
 30
0.0
  9
$PUCSYDIR
 10
0.0
 20
1.0
 30
0.0
  9
$USERI1
 70
     0
  9
$USERI2
 70
     0
  9
$USERI3
 70
     0
  9
$USERI4
 70
     0
  9
$USERI5
 70
     0
  9
$USERR1
 40
0.0
  9
$USERR2
 40
0.0
  9
$USERR3
 40
0.0
  9
$USERR4
 40
0.0
  9
$USERR5
 40
0.0
  9
$WORLDVIEW
 70
     1
  9
$SHADEDGE
 70
     3
  9
$SHADEDIF
 70
    70
  9
$TILEMODE
 70
     1
  9
$MAXACTVP
 70
    64
  9
$PLIMCHECK
 70
     0
  9
$PEXTMIN
 10
1.000000000000000E+20
 20
1.000000000000000E+20
 30
1.000000000000000E+20
  9
$PEXTMAX
 10
-1.000000000000000E+20
 20
-1.000000000000000E+20
 30
-1.000000000000000E+20
  9
$PLIMMIN
 10
0.0
 20
0.0
  9
$PLIMMAX
 10
12.0
 20
9.0
  9
$UNITMODE
 70
     0
  9
$VISRETAIN
 70
     1
  9
$PLINEGEN
 70
     0
  9
$PSLTSCALE
 70
     1
  0
ENDSEC
  0
SECTION
  2
TABLES
  0
TABLE
  2
VPORT
 70
     1
  0
VPORT
  2
*ACTIVE
 70
     0
 10
0.0
 20
0.0
 11
1.0
 21
1.0
 12
0.0
 22
0.0
 13
0.0
 23
0.0
 14
0.5
 24
0.5
 15
0.5
 25
0.5
 16
238.2632293701172
 26
136.1387023925781
 36
238.2632446289062
 17
98.86399841308594
 27
0.446990966796875
 37
-8.3489990234375
 40
207.504694285293
 41
1.972972972850329
 42
50.0
 43
0.0
 44
0.0
 50
0.0
 51
0.0
 71
     0
 72
   100
 73
     1
 74
     3
 75
     0
 76
     0
 77
     0
 78
     0
  0
ENDTAB
  0
TABLE
  2
LTYPE
 70
     1
  0
LTYPE
  2
CONTINUOUS
 70
     0
  3
Solid line
 72
    65
 73
     0
 40
0.0
  0
ENDTAB
  0
TABLE
  2
LAYER
 70
     2
  0
LAYER
  2
0
 70
     0
 62
     7
  6
CONTINUOUS
  0
LAYER
  2
LAYER_1
 70
     0
 62
     7
  6
CONTINUOUS
  0
ENDTAB
  0
TABLE
  2
STYLE
 70
     1
  0
STYLE
  2
STANDARD
 70
     0
 40
0.0
 41
1.0
 50
0.0
 71
     0
 42
0.2
  3
txt
  4

  0
ENDTAB
  0
TABLE
  2
VIEW
 70
     0
  0
ENDTAB
  0
TABLE
  2
UCS
 70
     0
  0
ENDTAB
  0
TABLE
  2
APPID
 70
     1
  0
APPID
  2
ACAD
 70
     0
  0
ENDTAB
  0
TABLE
  2
DIMSTYLE
 70
     1
  0
DIMSTYLE
  2
STANDARD
 70
     0
  3

  4

  5

  6

  7

 40
1.0
 41
0.18
 42
0.0625
 43
0.38
 44
0.18
 45
0.0
 46
0.0
 47
0.0
 48
0.0
140
0.18
141
0.09
142
0.0
143
25.4
144
1.0
145
0.0
146
1.0
147
0.09
 71
     0
 72
     0
 73
     1
 74
     1
 75
     0
 76
     0
 77
     0
 78
     0
170
     0
171
     2
172
     0
173
     0
174
     0
175
     0
176
     0
177
     0
178
     0
  0
ENDTAB
  0
ENDSEC
  0
SECTION
  2
BLOCKS
  0
BLOCK
  8
0
  2
$MODEL_SPACE
 70
     0
 10
0.0
 20
0.0
 30
0.0
  3
$MODEL_SPACE
  1

  0
ENDBLK
  5
21
  8
0
  0
BLOCK
 67
     1
  8
0
  2
$PAPER_SPACE
 70
     0
 10
0.0
 20
0.0
 30
0.0
  3
$PAPER_SPACE
  1

  0
ENDBLK
  5
1D
 67
     1
  8
0
  0
BLOCK
  8
0
  2
E3_NODE
 70
     0
 10
0.0
 20
0.0
 30
0.0
  3
E3_NODE
  1

  0
POLYLINE
  5
3C
  8
0
 62
     9
 66
     1
 10
0.0
 20
0.0
 30
0.0
 70
    64
 71
    24
 72
    24
  0
VERTEX
  5
3D
  8
0
 10
63.66699981689453
 20
-26.17000007629395
 30
9.0
 70
   192
  0
VERTEX
  5
3E
  8
0
 10
90.00299835205078
 20
-25.94000053405762
 30
9.0
 70
   192
  0
VERTEX
  5
3F
  8
0
 10
90.00299835205078
 20
-22.46500015258789
 30
21.96999931335449
 70
   192
  0
VERTEX
  5
40
  8
0
 10
63.66699981689453
 20
-22.66399955749512
 30
22.08499908447266
 70
   192
  0
VERTEX
  5
41
  8
0
 10
90.00299835205078
 20
-12.97000026702881
 30
31.46500015258789
 70
   192
  0
VERTEX
  5
42
  8
0
 10
63.66699981689453
 20
-13.08500003814697
 30
31.66399955749512
 70
   192
  0
VERTEX
  5
43
  8
0
 10
90.00299835205078
 20
0.0
 30
34.93999862670898
 70
   192
  0
VERTEX
  5
44
  8
0
 10
63.66699981689453
 20
13.08500003814697
 30
31.66399955749512
 70
   192
  0
VERTEX
  5
45
  8
0
 10
63.66699981689453
 20
0.0
 30
35.16999816894531
 70
   192
  0
VERTEX
  5
46
  8
0
 10
63.66699981689453
 20
22.66399955749512
 30
22.08499908447266
 70
   192
  0
VERTEX
  5
47
  8
0
 10
90.00299835205078
 20
12.97000026702881
 30
31.46500015258789
 70
   192
  0
VERTEX
  5
48
  8
0
 10
63.66699981689453
 20
26.17000007629395
 30
9.0
 70
   192
  0
VERTEX
  5
49
  8
0
 10
90.00299835205078
 20
22.46500015258789
 30
21.96999931335449
 70
   192
  0
VERTEX
  5
4A
  8
0
 10
63.66699981689453
 20
22.66399955749512
 30
-4.085000038146973
 70
   192
  0
VERTEX
  5
4B
  8
0
 10
90.00299835205078
 20
25.94000053405762
 30
9.0
 70
   192
  0
VERTEX
  5
4C
  8
0
 10
63.66699981689453
 20
13.08500003814697
 30
-13.66399955749512
 70
   192
  0
VERTEX
  5
4D
  8
0
 10
90.00299835205078
 20
22.46500015258789
 30
-3.970000028610229
 70
   192
  0
VERTEX
  5
4E
  8
0
 10
63.66699981689453
 20
0.0
 30
-17.17000007629395
 70
   192
  0
VERTEX
  5
4F
  8
0
 10
90.00299835205078
 20
12.97000026702881
 30
-13.46500015258789
 70
   192
  0
VERTEX
  5
50
  8
0
 10
63.66699981689453
 20
-13.08500003814697
 30
-13.66399955749512
 70
   192
  0
VERTEX
  5
51
  8
0
 10
90.00299835205078
 20
0.0
 30
-16.94000053405762
 70
   192
  0
VERTEX
  5
52
  8
0
 10
63.66699981689453
 20
-22.66399955749512
 30
-4.085000038146973
 70
   192
  0
VERTEX
  5
53
  8
0
 10
90.00299835205078
 20
-12.97000026702881
 30
-13.46500015258789
 70
   192
  0
VERTEX
  5
54
  8
0
 10
90.00299835205078
 20
-22.46500015258789
 30
-3.970000028610229
 70
   192
  0
VERTEX
  5
55
  8
0
 62
     9
 10
0.0
 20
0.0
 30
0.0
 70
   128
 71
     3
 72
     2
 73
     1
  0
VERTEX
  5
56
  8
0
 62
     9
 10
0.0
 20
0.0
 30
0.0
 70
   128
 71
     5
 72
     3
 73
     4
  0
VERTEX
  5
57
  8
0
 62
     9
 10
0.0
 20
0.0
 30
0.0
 70
   128
 71
     7
 72
     5
 73
     6
  0
VERTEX
  5
58
  8
0
 62
     9
 10
0.0
 20
0.0
 30
0.0
 70
   128
 71
     7
 72
     9
 73
     8
  0
VERTEX
  5
59
  8
0
 62
     9
 10
0.0
 20
0.0
 30
0.0
 70
   128
 71
    11
 72
     8
 73
    10
  0
VERTEX
  5
5A
  8
0
 62
     9
 10
0.0
 20
0.0
 30
0.0
 70
   128
 71
    13
 72
    10
 73
    12
  0
VERTEX
  5
5B
  8
0
 62
     9
 10
0.0
 20
0.0
 30
0.0
 70
   128
 71
    15
 72
    12
 73
    14
  0
VERTEX
  5
5C
  8
0
 62
     9
 10
0.0
 20
0.0
 30
0.0
 70
   128
 71
    17
 72
    14
 73
    16
  0
VERTEX
  5
5D
  8
0
 62
     9
 10
0.0
 20
0.0
 30
0.0
 70
   128
 71
    19
 72
    16
 73
    18
  0
VERTEX
  5
5E
  8
0
 62
     9
 10
0.0
 20
0.0
 30
0.0
 70
   128
 71
    21
 72
    18
 73
    20
  0
VERTEX
  5
5F
  8
0
 62
     9
 10
0.0
 20
0.0
 30
0.0
 70
   128
 71
    23
 72
    20
 73
    22
  0
VERTEX
  5
60
  8
0
 62
     9
 10
0.0
 20
0.0
 30
0.0
 70
   128
 71
     2
 72
    24
 73
    22
  0
VERTEX
  5
61
  8
0
 62
     9
 10
0.0
 20
0.0
 30
0.0
 70
   128
 71
    22
 72
     1
 73
     2
  0
VERTEX
  5
62
  8
0
 62
     9
 10
0.0
 20
0.0
 30
0.0
 70
   128
 71
    22
 72
    24
 73
    23
  0
VERTEX
  5
63
  8
0
 62
     9
 10
0.0
 20
0.0
 30
0.0
 70
   128
 71
    20
 72
    23
 73
    21
  0
VERTEX
  5
64
  8
0
 62
     9
 10
0.0
 20
0.0
 30
0.0
 70
   128
 71
    18
 72
    21
 73
    19
  0
VERTEX
  5
65
  8
0
 62
     9
 10
0.0
 20
0.0
 30
0.0
 70
   128
 71
    16
 72
    19
 73
    17
  0
VERTEX
  5
66
  8
0
 62
     9
 10
0.0
 20
0.0
 30
0.0
 70
   128
 71
    14
 72
    17
 73
    15
  0
VERTEX
  5
67
  8
0
 62
     9
 10
0.0
 20
0.0
 30
0.0
 70
   128
 71
    12
 72
    15
 73
    13
  0
VERTEX
  5
68
  8
0
 62
     9
 10
0.0
 20
0.0
 30
0.0
 70
   128
 71
    10
 72
    13
 73
    11
  0
VERTEX
  5
69
  8
0
 62
     9
 10
0.0
 20
0.0
 30
0.0
 70
   128
 71
     8
 72
    11
 73
     7
  0
VERTEX
  5
6A
  8
0
 62
     9
 10
0.0
 20
0.0
 30
0.0
 70
   128
 71
     6
 72
     9
 73
     7
  0
VERTEX
  5
6B
  8
0
 62
     9
 10
0.0
 20
0.0
 30
0.0
 70
   128
 71
     4
 72
     6
 73
     5
  0
VERTEX
  5
6C
  8
0
 62
     9
 10
0.0
 20
0.0
 30
0.0
 70
   128
 71
     1
 72
     4
 73
     3
  0
SEQEND
  5
6D
  8
0
 62
     9
  0
ENDBLK
  5
71
  8
0
  0
BLOCK
  8
0
  2
E3_NODE_1_
 70
     0
 10
0.0
 20
0.0
 30
0.0
  3
E3_NODE_1_
  1

  0
POLYLINE
  5
73
  8
0
 62
     9
 66
     1
 10
0.0
 20
0.0
 30
0.0
 70
    64
 71
    28
 72
    28
  0
VERTEX
  5
74
  8
0
 10
90.00299835205078
 20
-25.94000053405762
 30
9.0
 70
   192
  0
VERTEX
  5
75
  8
0
 10
90.00299835205078
 20
-24.26899909973145
 30
9.0
 70
   192
  0
VERTEX
  5
76
  8
0
 10
90.00299835205078
 20
-22.42200088500977
 30
18.28700065612793
 70
   192
  0
VERTEX
  5
77
  8
0
 10
90.00299835205078
 20
-22.46500015258789
 30
-3.970000028610229
 70
   192
  0
VERTEX
  5
78
  8
0
 10
90.00299835205078
 20
-22.42200088500977
 30
-0.2870000004768372
 70
   192
  0
VERTEX
  5
79
  8
0
 10
90.00299835205078
 20
-22.46500015258789
 30
21.96999931335449
 70
   192
  0
VERTEX
  5
7A
  8
0
 10
90.00299835205078
 20
-17.1609992980957
 30
26.1609992980957
 70
   192
  0
VERTEX
  5
7B
  8
0
 10
90.00299835205078
 20
12.97000026702881
 30
-13.46500015258789
 70
   192
  0
VERTEX
  5
7C
  8
0
 10
90.00299835205078
 20
22.46500015258789
 30
-3.970000028610229
 70
   192
  0
VERTEX
  5
7D
  8
0
 10
90.00299835205078
 20
17.1609992980957
 30
-8.16100025177002
 70
   192
  0
VERTEX
  5
7E
  8
0
 10
90.00299835205078
 20
-12.97000026702881
 30
-13.46500015258789
 70
   192
  0
VERTEX
  5
7F
  8
0
 10
90.00299835205078
 20
-17.1609992980957
 30
-8.16100025177002
 70
   192
  0
VERTEX
  5
80
  8
0
 10
90.00299835205078
 20
0.0
 30
-16.94000053405762
 70
   192
  0
VERTEX
  5
81
  8
0
 10
90.00299835205078
 20
9.286999702453613
 30
-13.42199993133545
 70
   192
  0
VERTEX
  5
82
  8
0
 10
90.00299835205078
 20
22.42200088500977
 30
-0.2870000004768372
 70
   192
  0
VERTEX
  5
83
  8
0
 10
90.00299835205078
 20
25.94000053405762
 30
9.0
 70
   192
  0
VERTEX
  5
84
  8
0
 10
90.00299835205078
 20
24.26899909973145
 30
9.0
 70
   192
  0
VERTEX
  5
85
  8
0
 10
90.00299835205078
 20
22.46500015258789
 30
21.96999931335449
 70
   192
  0
VERTEX
  5
86
  8
0
 10
90.00299835205078
 20
22.42200088500977
 30
18.28700065612793
 70
   192
  0
VERTEX
  5
87
  8
0
 10
90.00299835205078
 20
12.97000026702881
 30
31.46500015258789
 70
   192
  0
VERTEX
  5
88
  8
0
 10
90.00299835205078
 20
9.286999702453613
 30
31.42200088500977
 70
   192
  0
VERTEX
  5
89
  8
0
 10
90.00299835205078
 20
17.1609992980957
 30
26.1609992980957
 70
   192
  0
VERTEX
  5
8A
  8
0
 10
90.00299835205078
 20
0.0
 30
34.93999862670898
 70
   192
  0
VERTEX
  5
8B
  8
0
 10
90.00299835205078
 20
0.0
 30
33.26900100708008
 70
   192
  0
VERTEX
  5
8C
  8
0
 10
90.00299835205078
 20
-12.97000026702881
 30
31.46500015258789
 70
   192
  0
VERTEX
  5
8D
  8
0
 10
90.00299835205078
 20
-9.286999702453613
 30
31.42200088500977
 70
   192
  0
VERTEX
  5
8E
  8
0
 10
90.00299835205078
 20
-9.286999702453613
 30
-13.42199993133545
 70
   192
  0
VERTEX
  5
8F
  8
0
 10
90.00299835205078
 20
0.0
 30
-15.26900005340576
 70
   192
  0
VERTEX
  5
90
  8
0
 62
     9
 10
0.0
 20
0.0
 30
0.0
 70
   128
 71
     3
 72
     2
 73
     1
  0
VERTEX
  5
91
  8
0
 62
     9
 10
0.0
 20
0.0
 30
0.0
 70
   128
 71
     5
 72
     4
 73
     1
  0
VERTEX
  5
92
  8
0
 62
     9
 10
0.0
 20
0.0
 30
0.0
 70
   128
 71
     7
 72
     3
 73
     6
  0
VERTEX
  5
93
  8
0
 62
     9
 10
0.0
 20
0.0
 30
0.0
 70
   128
 71
     1
 72
     2
 73
     5
  0
VERTEX
  5
94
  8
0
 62
     9
 10
0.0
 20
0.0
 30
0.0
 70
   128
 71
    10
 72
     9
 73
     8
  0
VERTEX
  5
95
  8
0
 62
     9
 10
0.0
 20
0.0
 30
0.0
 70
   128
 71
     1
 72
     6
 73
     3
  0
VERTEX
  5
96
  8
0
 62
     9
 10
0.0
 20
0.0
 30
0.0
 70
   128
 71
    12
 72
    11
 73
     4
  0
VERTEX
  5
97
  8
0
 62
     9
 10
0.0
 20
0.0
 30
0.0
 70
   128
 71
    14
 72
     8
 73
    13
  0
VERTEX
  5
98
  8
0
 62
     9
 10
0.0
 20
0.0
 30
0.0
 70
   128
 71
    10
 72
    15
 73
     9
  0
VERTEX
  5
99
  8
0
 62
     9
 10
0.0
 20
0.0
 30
0.0
 70
   128
 71
    15
 72
    17
 73
    16
  0
VERTEX
  5
9A
  8
0
 62
     9
 10
0.0
 20
0.0
 30
0.0
 70
   128
 71
    19
 72
    18
 73
    16
  0
VERTEX
  5
9B
  8
0
 62
     9
 10
0.0
 20
0.0
 30
0.0
 70
   128
 71
    22
 72
    21
 73
    20
  0
VERTEX
  5
9C
  8
0
 62
     9
 10
0.0
 20
0.0
 30
0.0
 70
   128
 71
    21
 72
    24
 73
    23
  0
VERTEX
  5
9D
  8
0
 62
     9
 10
0.0
 20
0.0
 30
0.0
 70
   128
 71
     4
 72
     5
 73
    12
  0
VERTEX
  5
9E
  8
0
 62
     9
 10
0.0
 20
0.0
 30
0.0
 70
   128
 71
     8
 72
    14
 73
    10
  0
VERTEX
  5
9F
  8
0
 62
     9
 10
0.0
 20
0.0
 30
0.0
 70
   128
 71
    16
 72
    17
 73
    19
  0
VERTEX
  5
A0
  8
0
 62
     9
 10
0.0
 20
0.0
 30
0.0
 70
   128
 71
    23
 72
    20
 73
    21
  0
VERTEX
  5
A1
  8
0
 62
     9
 10
0.0
 20
0.0
 30
0.0
 70
   128
 71
    26
 72
    25
 73
    23
  0
VERTEX
  5
A2
  8
0
 62
     9
 10
0.0
 20
0.0
 30
0.0
 70
   128
 71
    12
 72
    27
 73
    11
  0
VERTEX
  5
A3
  8
0
 62
     9
 10
0.0
 20
0.0
 30
0.0
 70
   128
 71
    27
 72
    28
 73
    13
  0
VERTEX
  5
A4
  8
0
 62
     9
 10
0.0
 20
0.0
 30
0.0
 70
   128
 71
    16
 72
     9
 73
    15
  0
VERTEX
  5
A5
  8
0
 62
     9
 10
0.0
 20
0.0
 30
0.0
 70
   128
 71
    20
 72
    18
 73
    22
  0
VERTEX
  5
A6
  8
0
 62
     9
 10
0.0
 20
0.0
 30
0.0
 70
   128
 71
    26
 72
     7
 73
    25
  0
VERTEX
  5
A7
  8
0
 62
     9
 10
0.0
 20
0.0
 30
0.0
 70
   128
 71
    13
 72
    11
 73
    27
  0
VERTEX
  5
A8
  8
0
 62
     9
 10
0.0
 20
0.0
 30
0.0
 70
   128
 71
    18
 72
    19
 73
    22
  0
VERTEX
  5
A9
  8
0
 62
     9
 10
0.0
 20
0.0
 30
0.0
 70
   128
 71
     6
 72
    25
 73
     7
  0
VERTEX
  5
AA
  8
0
 62
     9
 10
0.0
 20
0.0
 30
0.0
 70
   128
 71
    23
 72
    24
 73
    26
  0
VERTEX
  5
AB
  8
0
 62
     9
 10
0.0
 20
0.0
 30
0.0
 70
   128
 71
    13
 72
    28
 73
    14
  0
SEQEND
  5
AC
  8
0
 62
     9
  0
ENDBLK
  5
AF
  8
0
  0
BLOCK
  8
0
  2
E3_NODE_2_
 70
     0
 10
0.0
 20
0.0
 30
0.0
  3
E3_NODE_2_
  1

  0
POLYLINE
  5
B1
  8
0
 62
     9
 66
     1
 10
0.0
 20
0.0
 30
0.0
 70
    64
 71
    65
 72
   112
  0
VERTEX
  5
B2
  8
0
 10
107.6370010375977
 20
-8.151000022888184
 30
9.0
 70
   192
  0
VERTEX
  5
B3
  8
0
 10
107.6370010375977
 20
-7.53000020980835
 30
12.11900043487549
 70
   192
  0
VERTEX
  5
B4
  8
0
 10
103.6880035400391
 20
-14.23799991607666
 30
14.89799976348877
 70
   192
  0
VERTEX
  5
B5
  8
0
 10
107.6370010375977
 20
-5.763999938964844
 30
14.76399993896484
 70
   192
  0
VERTEX
  5
B6
  8
0
 10
103.6880035400391
 20
-10.89700031280518
 30
19.89699935913086
 70
   192
  0
VERTEX
  5
B7
  8
0
 10
107.6370010375977
 20
-3.11899995803833
 30
16.53000068664551
 70
   192
  0
VERTEX
  5
B8
  8
0
 10
103.6880035400391
 20
-5.89799976348877
 30
23.23800086975098
 70
   192
  0
VERTEX
  5
B9
  8
0
 10
107.6370010375977
 20
0.0
 30
17.15099906921387
 70
   192
  0
VERTEX
  5
BA
  8
0
 10
103.6880035400391
 20
0.0
 30
24.4109992980957
 70
   192
  0
VERTEX
  5
BB
  8
0
 10
107.6370010375977
 20
3.11899995803833
 30
16.53000068664551
 70
   192
  0
VERTEX
  5
BC
  8
0
 10
103.6880035400391
 20
5.89799976348877
 30
23.23800086975098
 70
   192
  0
VERTEX
  5
BD
  8
0
 10
107.6370010375977
 20
5.763999938964844
 30
14.76399993896484
 70
   192
  0
VERTEX
  5
BE
  8
0
 10
103.6880035400391
 20
10.89700031280518
 30
19.89699935913086
 70
   192
  0
VERTEX
  5
BF
  8
0
 10
107.6370010375977
 20
7.53000020980835
 30
12.11900043487549
 70
   192
  0
VERTEX
  5
C0
  8
0
 10
103.6880035400391
 20
14.23799991607666
 30
14.89799976348877
 70
   192
  0
VERTEX
  5
C1
  8
0
 10
107.6370010375977
 20
8.151000022888184
 30
9.0
 70
   192
  0
VERTEX
  5
C2
  8
0
 10
103.6880035400391
 20
15.41100025177002
 30
9.0
 70
   192
  0
VERTEX
  5
C3
  8
0
 10
107.6370010375977
 20
7.53000020980835
 30
5.88100004196167
 70
   192
  0
VERTEX
  5
C4
  8
0
 10
103.6880035400391
 20
14.23799991607666
 30
3.101999998092651
 70
   192
  0
VERTEX
  5
C5
  8
0
 10
107.6370010375977
 20
5.763999938964844
 30
3.236000061035156
 70
   192
  0
VERTEX
  5
C6
  8
0
 10
103.6880035400391
 20
10.89700031280518
 30
-1.896999955177307
 70
   192
  0
VERTEX
  5
C7
  8
0
 10
107.6370010375977
 20
3.11899995803833
 30
1.470000028610229
 70
   192
  0
VERTEX
  5
C8
  8
0
 10
103.6880035400391
 20
5.89799976348877
 30
-5.23799991607666
 70
   192
  0
VERTEX
  5
C9
  8
0
 10
107.6370010375977
 20
0.0
 30
0.8489999771118164
 70
   192
  0
VERTEX
  5
CA
  8
0
 10
103.6880035400391
 20
0.0
 30
-6.410999774932861
 70
   192
  0
VERTEX
  5
CB
  8
0
 10
107.6370010375977
 20
-3.11899995803833
 30
1.470000028610229
 70
   192
  0
VERTEX
  5
CC
  8
0
 10
103.6880035400391
 20
-5.89799976348877
 30
-5.23799991607666
 70
   192
  0
VERTEX
  5
CD
  8
0
 10
107.6370010375977
 20
-5.763999938964844
 30
3.236000061035156
 70
   192
  0
VERTEX
  5
CE
  8
0
 10
103.6880035400391
 20
-10.89700031280518
 30
-1.896999955177307
 70
   192
  0
VERTEX
  5
CF
  8
0
 10
107.6370010375977
 20
-7.53000020980835
 30
5.88100004196167
 70
   192
  0
VERTEX
  5
D0
  8
0
 10
103.6880035400391
 20
-14.23799991607666
 30
3.101999998092651
 70
   192
  0
VERTEX
  5
D1
  8
0
 10
103.6880035400391
 20
-15.41100025177002
 30
9.0
 70
   192
  0
VERTEX
  5
D2
  8
0
 10
97.58799743652344
 20
-19.38899993896484
 30
17.0310001373291
 70
   192
  0
VERTEX
  5
D3
  8
0
 10
97.58799743652344
 20
-14.84000015258789
 30
23.84000015258789
 70
   192
  0
VERTEX
  5
D4
  8
0
 10
97.58799743652344
 20
-8.031000137329102
 30
28.38899993896484
 70
   192
  0
VERTEX
  5
D5
  8
0
 10
97.58799743652344
 20
0.0
 30
29.98699951171875
 70
   192
  0
VERTEX
  5
D6
  8
0
 10
97.58799743652344
 20
8.031000137329102
 30
28.38899993896484
 70
   192
  0
VERTEX
  5
D7
  8
0
 10
97.58799743652344
 20
14.84000015258789
 30
23.84000015258789
 70
   192
  0
VERTEX
  5
D8
  8
0
 10
97.58799743652344
 20
19.38899993896484
 30
17.0310001373291
 70
   192
  0
VERTEX
  5
D9
  8
0
 10
97.58799743652344
 20
20.98699951171875
 30
9.0
 70
   192
  0
VERTEX
  5
DA
  8
0
 10
97.58799743652344
 20
19.38899993896484
 30
0.968999981880188
 70
   192
  0
VERTEX
  5
DB
  8
0
 10
97.58799743652344
 20
14.84000015258789
 30
-5.840000152587891
 70
   192
  0
VERTEX
  5
DC
  8
0
 10
97.58799743652344
 20
8.031000137329102
 30
-10.38899993896484
 70
   192
  0
VERTEX
  5
DD
  8
0
 10
97.58799743652344
 20
0.0
 30
-11.98700046539307
 70
   192
  0
VERTEX
  5
DE
  8
0
 10
97.58799743652344
 20
-8.031000137329102
 30
-10.38899993896484
 70
   192
  0
VERTEX
  5
DF
  8
0
 10
97.58799743652344
 20
-14.84000015258789
 30
-5.840000152587891
 70
   192
  0
VERTEX
  5
E0
  8
0
 10
97.58799743652344
 20
-19.38899993896484
 30
0.968999981880188
 70
   192
  0
VERTEX
  5
E1
  8
0
 10
97.58799743652344
 20
-20.98699951171875
 30
9.0
 70
   192
  0
VERTEX
  5
E2
  8
0
 10
90.00299835205078
 20
-24.26899909973145
 30
9.0
 70
   192
  0
VERTEX
  5
E3
  8
0
 10
90.00299835205078
 20
-22.42200088500977
 30
18.28700065612793
 70
   192
  0
VERTEX
  5
E4
  8
0
 10
90.00299835205078
 20
-17.1609992980957
 30
26.1609992980957
 70
   192
  0
VERTEX
  5
E5
  8
0
 10
90.00299835205078
 20
-9.286999702453613
 30
31.42200088500977
 70
   192
  0
VERTEX
  5
E6
  8
0
 10
90.00299835205078
 20
0.0
 30
33.26900100708008
 70
   192
  0
VERTEX
  5
E7
  8
0
 10
90.00299835205078
 20
9.286999702453613
 30
31.42200088500977
 70
   192
  0
VERTEX
  5
E8
  8
0
 10
90.00299835205078
 20
17.1609992980957
 30
26.1609992980957
 70
   192
  0
VERTEX
  5
E9
  8
0
 10
90.00299835205078
 20
22.42200088500977
 30
18.28700065612793
 70
   192
  0
VERTEX
  5
EA
  8
0
 10
90.00299835205078
 20
24.26899909973145
 30
9.0
 70
   192
  0
VERTEX
  5
EB
  8
0
 10
90.00299835205078
 20
22.42200088500977
 30
-0.2870000004768372
 70
   192
  0
VERTEX
  5
EC
  8
0
 10
90.00299835205078
 20
17.1609992980957
 30
-8.16100025177002
 70
   192
  0
VERTEX
  5
ED
  8
0
 10
90.00299835205078
 20
9.286999702453613
 30
-13.42199993133545
 70
   192
  0
VERTEX
  5
EE
  8
0
 10
90.00299835205078
 20
0.0
 30
-15.26900005340576
 70
   192
  0
VERTEX
  5
EF
  8
0
 10
90.00299835205078
 20
-17.1609992980957
 30
-8.16100025177002
 70
   192
  0
VERTEX
  5
F0
  8
0
 10
90.00299835205078
 20
-9.286999702453613
 30
-13.42199993133545
 70
   192
  0
VERTEX
  5
F1
  8
0
 10
90.00299835205078
 20
-22.42200088500977
 30
-0.2870000004768372
 70
   192
  0
VERTEX
  5
F2
  8
0
 10
109.0029983520508
 20
0.0
 30
9.0
 70
   192
  0
VERTEX
  5
F3
  8
0
 62
     9
 10
0.0
 20
0.0
 30
0.0
 70
   128
 71
     3
 72
     2
 73
     1
  0
VERTEX
  5
F4
  8
0
 62
     9
 10
0.0
 20
0.0
 30
0.0
 70
   128
 71
     5
 72
     4
 73
     2
  0
VERTEX
  5
F5
  8
0
 62
     9
 10
0.0
 20
0.0
 30
0.0
 70
   128
 71
     7
 72
     6
 73
     4
  0
VERTEX
  5
F6
  8
0
 62
     9
 10
0.0
 20
0.0
 30
0.0
 70
   128
 71
     9
 72
     8
 73
     6
  0
VERTEX
  5
F7
  8
0
 62
     9
 10
0.0
 20
0.0
 30
0.0
 70
   128
 71
    11
 72
    10
 73
     8
  0
VERTEX
  5
F8
  8
0
 62
     9
 10
0.0
 20
0.0
 30
0.0
 70
   128
 71
    13
 72
    12
 73
    10
  0
VERTEX
  5
F9
  8
0
 62
     9
 10
0.0
 20
0.0
 30
0.0
 70
   128
 71
    15
 72
    14
 73
    12
  0
VERTEX
  5
FA
  8
0
 62
     9
 10
0.0
 20
0.0
 30
0.0
 70
   128
 71
    17
 72
    16
 73
    14
  0
VERTEX
  5
FB
  8
0
 62
     9
 10
0.0
 20
0.0
 30
0.0
 70
   128
 71
    19
 72
    18
 73
    16
  0
VERTEX
  5
FC
  8
0
 62
     9
 10
0.0
 20
0.0
 30
0.0
 70
   128
 71
    21
 72
    20
 73
    18
  0
VERTEX
  5
FD
  8
0
 62
     9
 10
0.0
 20
0.0
 30
0.0
 70
   128
 71
    23
 72
    22
 73
    20
  0
VERTEX
  5
FE
  8
0
 62
     9
 10
0.0
 20
0.0
 30
0.0
 70
   128
 71
    25
 72
    24
 73
    22
  0
VERTEX
  5
FF
  8
0
 62
     9
 10
0.0
 20
0.0
 30
0.0
 70
   128
 71
    27
 72
    26
 73
    24
  0
VERTEX
  5
100
  8
0
 62
     9
 10
0.0
 20
0.0
 30
0.0
 70
   128
 71
    29
 72
    28
 73
    26
  0
VERTEX
  5
101
  8
0
 62
     9
 10
0.0
 20
0.0
 30
0.0
 70
   128
 71
    31
 72
    30
 73
    28
  0
VERTEX
  5
102
  8
0
 62
     9
 10
0.0
 20
0.0
 30
0.0
 70
   128
 71
    32
 72
     1
 73
    30
  0
VERTEX
  5
103
  8
0
 62
     9
 10
0.0
 20
0.0
 30
0.0
 70
   128
 71
    33
 72
     3
 73
    32
  0
VERTEX
  5
104
  8
0
 62
     9
 10
0.0
 20
0.0
 30
0.0
 70
   128
 71
    34
 72
     5
 73
     3
  0
VERTEX
  5
105
  8
0
 62
     9
 10
0.0
 20
0.0
 30
0.0
 70
   128
 71
    35
 72
     7
 73
     5
  0
VERTEX
  5
106
  8
0
 62
     9
 10
0.0
 20
0.0
 30
0.0
 70
   128
 71
    36
 72
     9
 73
     7
  0
VERTEX
  5
107
  8
0
 62
     9
 10
0.0
 20
0.0
 30
0.0
 70
   128
 71
    37
 72
    11
 73
     9
  0
VERTEX
  5
108
  8
0
 62
     9
 10
0.0
 20
0.0
 30
0.0
 70
   128
 71
    38
 72
    13
 73
    11
  0
VERTEX
  5
109
  8
0
 62
     9
 10
0.0
 20
0.0
 30
0.0
 70
   128
 71
    39
 72
    15
 73
    13
  0
VERTEX
  5
10A
  8
0
 62
     9
 10
0.0
 20
0.0
 30
0.0
 70
   128
 71
    40
 72
    17
 73
    15
  0
VERTEX
  5
10B
  8
0
 62
     9
 10
0.0
 20
0.0
 30
0.0
 70
   128
 71
    41
 72
    19
 73
    17
  0
VERTEX
  5
10C
  8
0
 62
     9
 10
0.0
 20
0.0
 30
0.0
 70
   128
 71
    42
 72
    21
 73
    19
  0
VERTEX
  5
10D
  8
0
 62
     9
 10
0.0
 20
0.0
 30
0.0
 70
   128
 71
    43
 72
    23
 73
    21
  0
VERTEX
  5
10E
  8
0
 62
     9
 10
0.0
 20
0.0
 30
0.0
 70
   128
 71
    44
 72
    25
 73
    23
  0
VERTEX
  5
10F
  8
0
 62
     9
 10
0.0
 20
0.0
 30
0.0
 70
   128
 71
    45
 72
    27
 73
    25
  0
VERTEX
  5
110
  8
0
 62
     9
 10
0.0
 20
0.0
 30
0.0
 70
   128
 71
    46
 72
    29
 73
    27
  0
VERTEX
  5
111
  8
0
 62
     9
 10
0.0
 20
0.0
 30
0.0
 70
   128
 71
    47
 72
    31
 73
    29
  0
VERTEX
  5
112
  8
0
 62
     9
 10
0.0
 20
0.0
 30
0.0
 70
   128
 71
    48
 72
    32
 73
    31
  0
VERTEX
  5
113
  8
0
 62
     9
 10
0.0
 20
0.0
 30
0.0
 70
   128
 71
    33
 72
    48
 73
    49
  0
VERTEX
  5
114
  8
0
 62
     9
 10
0.0
 20
0.0
 30
0.0
 70
   128
 71
    34
 72
    33
 73
    50
  0
VERTEX
  5
115
  8
0
 62
     9
 10
0.0
 20
0.0
 30
0.0
 70
   128
 71
    35
 72
    34
 73
    51
  0
VERTEX
  5
116
  8
0
 62
     9
 10
0.0
 20
0.0
 30
0.0
 70
   128
 71
    36
 72
    35
 73
    52
  0
VERTEX
  5
117
  8
0
 62
     9
 10
0.0
 20
0.0
 30
0.0
 70
   128
 71
    37
 72
    36
 73
    53
  0
VERTEX
  5
118
  8
0
 62
     9
 10
0.0
 20
0.0
 30
0.0
 70
   128
 71
    38
 72
    37
 73
    54
  0
VERTEX
  5
119
  8
0
 62
     9
 10
0.0
 20
0.0
 30
0.0
 70
   128
 71
    39
 72
    38
 73
    55
  0
VERTEX
  5
11A
  8
0
 62
     9
 10
0.0
 20
0.0
 30
0.0
 70
   128
 71
    40
 72
    39
 73
    56
  0
VERTEX
  5
11B
  8
0
 62
     9
 10
0.0
 20
0.0
 30
0.0
 70
   128
 71
    41
 72
    40
 73
    57
  0
VERTEX
  5
11C
  8
0
 62
     9
 10
0.0
 20
0.0
 30
0.0
 70
   128
 71
    42
 72
    41
 73
    58
  0
VERTEX
  5
11D
  8
0
 62
     9
 10
0.0
 20
0.0
 30
0.0
 70
   128
 71
    43
 72
    42
 73
    59
  0
VERTEX
  5
11E
  8
0
 62
     9
 10
0.0
 20
0.0
 30
0.0
 70
   128
 71
    44
 72
    43
 73
    60
  0
VERTEX
  5
11F
  8
0
 62
     9
 10
0.0
 20
0.0
 30
0.0
 70
   128
 71
    45
 72
    44
 73
    61
  0
VERTEX
  5
120
  8
0
 62
     9
 10
0.0
 20
0.0
 30
0.0
 70
   128
 71
    45
 72
    63
 73
    62
  0
VERTEX
  5
121
  8
0
 62
     9
 10
0.0
 20
0.0
 30
0.0
 70
   128
 71
    46
 72
    62
 73
    64
  0
VERTEX
  5
122
  8
0
 62
     9
 10
0.0
 20
0.0
 30
0.0
 70
   128
 71
    48
 72
    47
 73
    64
  0
VERTEX
  5
123
  8
0
 62
     9
 10
0.0
 20
0.0
 30
0.0
 70
   128
 71
    64
 72
    49
 73
    48
  0
VERTEX
  5
124
  8
0
 62
     9
 10
0.0
 20
0.0
 30
0.0
 70
   128
 71
    64
 72
    47
 73
    46
  0
VERTEX
  5
125
  8
0
 62
     9
 10
0.0
 20
0.0
 30
0.0
 70
   128
 71
    62
 72
    46
 73
    45
  0
VERTEX
  5
126
  8
0
 62
     9
 10
0.0
 20
0.0
 30
0.0
 70
   128
 71
    61
 72
    63
 73
    45
  0
VERTEX
  5
127
  8
0
 62
     9
 10
0.0
 20
0.0
 30
0.0
 70
   128
 71
    60
 72
    61
 73
    44
  0
VERTEX
  5
128
  8
0
 62
     9
 10
0.0
 20
0.0
 30
0.0
 70
   128
 71
    59
 72
    60
 73
    43
  0
VERTEX
  5
129
  8
0
 62
     9
 10
0.0
 20
0.0
 30
0.0
 70
   128
 71
    58
 72
    59
 73
    42
  0
VERTEX
  5
12A
  8
0
 62
     9
 10
0.0
 20
0.0
 30
0.0
 70
   128
 71
    57
 72
    58
 73
    41
  0
VERTEX
  5
12B
  8
0
 62
     9
 10
0.0
 20
0.0
 30
0.0
 70
   128
 71
    56
 72
    57
 73
    40
  0
VERTEX
  5
12C
  8
0
 62
     9
 10
0.0
 20
0.0
 30
0.0
 70
   128
 71
    55
 72
    56
 73
    39
  0
VERTEX
  5
12D
  8
0
 62
     9
 10
0.0
 20
0.0
 30
0.0
 70
   128
 71
    54
 72
    55
 73
    38
  0
VERTEX
  5
12E
  8
0
 62
     9
 10
0.0
 20
0.0
 30
0.0
 70
   128
 71
    53
 72
    54
 73
    37
  0
VERTEX
  5
12F
  8
0
 62
     9
 10
0.0
 20
0.0
 30
0.0
 70
   128
 71
    52
 72
    53
 73
    36
  0
VERTEX
  5
130
  8
0
 62
     9
 10
0.0
 20
0.0
 30
0.0
 70
   128
 71
    51
 72
    52
 73
    35
  0
VERTEX
  5
131
  8
0
 62
     9
 10
0.0
 20
0.0
 30
0.0
 70
   128
 71
    50
 72
    51
 73
    34
  0
VERTEX
  5
132
  8
0
 62
     9
 10
0.0
 20
0.0
 30
0.0
 70
   128
 71
    49
 72
    50
 73
    33
  0
VERTEX
  5
133
  8
0
 62
     9
 10
0.0
 20
0.0
 30
0.0
 70
   128
 71
    31
 72
    47
 73
    48
  0
VERTEX
  5
134
  8
0
 62
     9
 10
0.0
 20
0.0
 30
0.0
 70
   128
 71
    29
 72
    46
 73
    47
  0
VERTEX
  5
135
  8
0
 62
     9
 10
0.0
 20
0.0
 30
0.0
 70
   128
 71
    27
 72
    45
 73
    46
  0
VERTEX
  5
136
  8
0
 62
     9
 10
0.0
 20
0.0
 30
0.0
 70
   128
 71
    25
 72
    44
 73
    45
  0
VERTEX
  5
137
  8
0
 62
     9
 10
0.0
 20
0.0
 30
0.0
 70
   128
 71
    23
 72
    43
 73
    44
  0
VERTEX
  5
138
  8
0
 62
     9
 10
0.0
 20
0.0
 30
0.0
 70
   128
 71
    21
 72
    42
 73
    43
  0
VERTEX
  5
139
  8
0
 62
     9
 10
0.0
 20
0.0
 30
0.0
 70
   128
 71
    19
 72
    41
 73
    42
  0
VERTEX
  5
13A
  8
0
 62
     9
 10
0.0
 20
0.0
 30
0.0
 70
   128
 71
    17
 72
    40
 73
    41
  0
VERTEX
  5
13B
  8
0
 62
     9
 10
0.0
 20
0.0
 30
0.0
 70
   128
 71
    15
 72
    39
 73
    40
  0
VERTEX
  5
13C
  8
0
 62
     9
 10
0.0
 20
0.0
 30
0.0
 70
   128
 71
    13
 72
    38
 73
    39
  0
VERTEX
  5
13D
  8
0
 62
     9
 10
0.0
 20
0.0
 30
0.0
 70
   128
 71
    11
 72
    37
 73
    38
  0
VERTEX
  5
13E
  8
0
 62
     9
 10
0.0
 20
0.0
 30
0.0
 70
   128
 71
     9
 72
    36
 73
    37
  0
VERTEX
  5
13F
  8
0
 62
     9
 10
0.0
 20
0.0
 30
0.0
 70
   128
 71
     7
 72
    35
 73
    36
  0
VERTEX
  5
140
  8
0
 62
     9
 10
0.0
 20
0.0
 30
0.0
 70
   128
 71
     5
 72
    34
 73
    35
  0
VERTEX
  5
141
  8
0
 62
     9
 10
0.0
 20
0.0
 30
0.0
 70
   128
 71
     3
 72
    33
 73
    34
  0
VERTEX
  5
142
  8
0
 62
     9
 10
0.0
 20
0.0
 30
0.0
 70
   128
 71
    32
 72
    48
 73
    33
  0
VERTEX
  5
143
  8
0
 62
     9
 10
0.0
 20
0.0
 30
0.0
 70
   128
 71
    30
 72
    31
 73
    32
  0
VERTEX
  5
144
  8
0
 62
     9
 10
0.0
 20
0.0
 30
0.0
 70
   128
 71
    28
 72
    29
 73
    31
  0
VERTEX
  5
145
  8
0
 62
     9
 10
0.0
 20
0.0
 30
0.0
 70
   128
 71
    26
 72
    27
 73
    29
  0
VERTEX
  5
146
  8
0
 62
     9
 10
0.0
 20
0.0
 30
0.0
 70
   128
 71
    24
 72
    25
 73
    27
  0
VERTEX
  5
147
  8
0
 62
     9
 10
0.0
 20
0.0
 30
0.0
 70
   128
 71
    22
 72
    23
 73
    25
  0
VERTEX
  5
148
  8
0
 62
     9
 10
0.0
 20
0.0
 30
0.0
 70
   128
 71
    20
 72
    21
 73
    23
  0
VERTEX
  5
149
  8
0
 62
     9
 10
0.0
 20
0.0
 30
0.0
 70
   128
 71
    18
 72
    19
 73
    21
  0
VERTEX
  5
14A
  8
0
 62
     9
 10
0.0
 20
0.0
 30
0.0
 70
   128
 71
    16
 72
    17
 73
    19
  0
VERTEX
  5
14B
  8
0
 62
     9
 10
0.0
 20
0.0
 30
0.0
 70
   128
 71
    14
 72
    15
 73
    17
  0
VERTEX
  5
14C
  8
0
 62
     9
 10
0.0
 20
0.0
 30
0.0
 70
   128
 71
    12
 72
    13
 73
    15
  0
VERTEX
  5
14D
  8
0
 62
     9
 10
0.0
 20
0.0
 30
0.0
 70
   128
 71
    10
 72
    11
 73
    13
  0
VERTEX
  5
14E
  8
0
 62
     9
 10
0.0
 20
0.0
 30
0.0
 70
   128
 71
     8
 72
     9
 73
    11
  0
VERTEX
  5
14F
  8
0
 62
     9
 10
0.0
 20
0.0
 30
0.0
 70
   128
 71
     6
 72
     7
 73
     9
  0
VERTEX
  5
150
  8
0
 62
     9
 10
0.0
 20
0.0
 30
0.0
 70
   128
 71
     4
 72
     5
 73
     7
  0
VERTEX
  5
151
  8
0
 62
     9
 10
0.0
 20
0.0
 30
0.0
 70
   128
 71
     2
 72
     3
 73
     5
  0
VERTEX
  5
152
  8
0
 62
     9
 10
0.0
 20
0.0
 30
0.0
 70
   128
 71
     1
 72
    32
 73
     3
  0
VERTEX
  5
153
  8
0
 62
     9
 10
0.0
 20
0.0
 30
0.0
 70
   128
 71
    65
 72
    30
 73
     1
  0
VERTEX
  5
154
  8
0
 62
     9
 10
0.0
 20
0.0
 30
0.0
 70
   128
 71
    65
 72
    28
 73
    30
  0
VERTEX
  5
155
  8
0
 62
     9
 10
0.0
 20
0.0
 30
0.0
 70
   128
 71
    65
 72
    26
 73
    28
  0
VERTEX
  5
156
  8
0
 62
     9
 10
0.0
 20
0.0
 30
0.0
 70
   128
 71
    65
 72
    24
 73
    26
  0
VERTEX
  5
157
  8
0
 62
     9
 10
0.0
 20
0.0
 30
0.0
 70
   128
 71
    65
 72
    22
 73
    24
  0
VERTEX
  5
158
  8
0
 62
     9
 10
0.0
 20
0.0
 30
0.0
 70
   128
 71
    65
 72
    20
 73
    22
  0
VERTEX
  5
159
  8
0
 62
     9
 10
0.0
 20
0.0
 30
0.0
 70
   128
 71
    65
 72
    18
 73
    20
  0
VERTEX
  5
15A
  8
0
 62
     9
 10
0.0
 20
0.0
 30
0.0
 70
   128
 71
    65
 72
    16
 73
    18
  0
VERTEX
  5
15B
  8
0
 62
     9
 10
0.0
 20
0.0
 30
0.0
 70
   128
 71
    65
 72
    14
 73
    16
  0
VERTEX
  5
15C
  8
0
 62
     9
 10
0.0
 20
0.0
 30
0.0
 70
   128
 71
    65
 72
    12
 73
    14
  0
VERTEX
  5
15D
  8
0
 62
     9
 10
0.0
 20
0.0
 30
0.0
 70
   128
 71
    65
 72
    10
 73
    12
  0
VERTEX
  5
15E
  8
0
 62
     9
 10
0.0
 20
0.0
 30
0.0
 70
   128
 71
    65
 72
     8
 73
    10
  0
VERTEX
  5
15F
  8
0
 62
     9
 10
0.0
 20
0.0
 30
0.0
 70
   128
 71
    65
 72
     6
 73
     8
  0
VERTEX
  5
160
  8
0
 62
     9
 10
0.0
 20
0.0
 30
0.0
 70
   128
 71
    65
 72
     4
 73
     6
  0
VERTEX
  5
161
  8
0
 62
     9
 10
0.0
 20
0.0
 30
0.0
 70
   128
 71
    65
 72
     2
 73
     4
  0
VERTEX
  5
162
  8
0
 62
     9
 10
0.0
 20
0.0
 30
0.0
 70
   128
 71
    65
 72
     1
 73
     2
  0
SEQEND
  5
163
  8
0
 62
     9
  0
ENDBLK
  5
166
  8
0
  0
BLOCK
  8
0
  2
E3_NODE_3_
 70
     0
 10
0.0
 20
0.0
 30
0.0
  3
E3_NODE_3_
  1

  0
POLYLINE
  5
168
  8
0
 62
     9
 66
     1
 10
0.0
 20
0.0
 30
0.0
 70
    64
 71
    39
 72
    39
  0
VERTEX
  5
169
  8
0
 10
69.0
 20
-26.56399917602539
 30
-4.941999912261963
 70
   192
  0
VERTEX
  5
16A
  8
0
 10
69.30000305175781
 20
-25.79199981689453
 30
-4.537000179290771
 70
   192
  0
VERTEX
  5
16B
  8
0
 10
69.30000305175781
 20
-29.12800025939941
 30
1.820999979972839
 70
   192
  0
VERTEX
  5
16C
  8
0
 10
69.0
 20
-30.0
 30
9.0
 70
   192
  0
VERTEX
  5
16D
  8
0
 10
69.30000305175781
 20
-30.0
 30
9.0
 70
   192
  0
VERTEX
  5
16E
  8
0
 10
69.0
 20
-17.04199981689453
 30
-15.6899995803833
 70
   192
  0
VERTEX
  5
16F
  8
0
 10
69.30000305175781
 20
-22.45499992370605
 30
-10.89400005340576
 70
   192
  0
VERTEX
  5
170
  8
0
 10
69.30000305175781
 20
-16.54700088500977
 30
-14.97200012207031
 70
   192
  0
VERTEX
  5
171
  8
0
 10
69.0
 20
-3.615999937057495
 30
-20.7810001373291
 70
   192
  0
VERTEX
  5
172
  8
0
 10
69.30000305175781
 20
-3.510999917984009
 30
-19.91600036621094
 70
   192
  0
VERTEX
  5
173
  8
0
 10
69.30000305175781
 20
-10.63799953460693
 30
-19.04999923706055
 70
   192
  0
VERTEX
  5
174
  8
0
 10
69.0
 20
10.63799953460693
 30
-19.04999923706055
 70
   192
  0
VERTEX
  5
175
  8
0
 10
69.30000305175781
 20
3.615999937057495
 30
-20.7810001373291
 70
   192
  0
VERTEX
  5
176
  8
0
 10
69.30000305175781
 20
10.32900047302246
 30
-18.23500061035156
 70
   192
  0
VERTEX
  5
177
  8
0
 10
69.0
 20
22.45499992370605
 30
-10.89400005340576
 70
   192
  0
VERTEX
  5
178
  8
0
 10
69.30000305175781
 20
17.04199981689453
 30
-15.6899995803833
 70
   192
  0
VERTEX
  5
179
  8
0
 10
69.30000305175781
 20
21.80299949645996
 30
-10.31599998474121
 70
   192
  0
VERTEX
  5
17A
  8
0
 10
69.0
 20
29.12800025939941
 30
1.820999979972839
 70
   192
  0
VERTEX
  5
17B
  8
0
 10
69.30000305175781
 20
28.2819995880127
 30
2.029000043869019
 70
   192
  0
VERTEX
  5
17C
  8
0
 10
69.30000305175781
 20
26.56399917602539
 30
-4.941999912261963
 70
   192
  0
VERTEX
  5
17D
  8
0
 10
69.0
 20
29.12800025939941
 30
16.17900085449219
 70
   192
  0
VERTEX
  5
17E
  8
0
 10
69.30000305175781
 20
28.2819995880127
 30
15.9709997177124
 70
   192
  0
VERTEX
  5
17F
  8
0
 10
69.30000305175781
 20
30.0
 30
9.0
 70
   192
  0
VERTEX
  5
180
  8
0
 10
69.0
 20
22.45499992370605
 30
28.89399909973145
 70
   192
  0
VERTEX
  5
181
  8
0
 10
69.30000305175781
 20
26.56399917602539
 30
22.9419994354248
 70
   192
  0
VERTEX
  5
182
  8
0
 10
69.30000305175781
 20
21.80299949645996
 30
28.31599998474121
 70
   192
  0
VERTEX
  5
183
  8
0
 10
69.0
 20
10.63799953460693
 30
37.04999923706055
 70
   192
  0
VERTEX
  5
184
  8
0
 10
69.30000305175781
 20
17.04199981689453
 30
33.68999862670898
 70
   192
  0
VERTEX
  5
185
  8
0
 10
69.30000305175781
 20
10.32900047302246
 30
36.23500061035156
 70
   192
  0
VERTEX
  5
186
  8
0
 10
69.0
 20
-3.615999937057495
 30
38.78099822998047
 70
   192
  0
VERTEX
  5
187
  8
0
 10
69.30000305175781
 20
-3.510999917984009
 30
37.91600036621094
 70
   192
  0
VERTEX
  5
188
  8
0
 10
69.30000305175781
 20
3.615999937057495
 30
38.78099822998047
 70
   192
  0
VERTEX
  5
189
  8
0
 10
69.0
 20
-17.04199981689453
 30
33.68999862670898
 70
   192
  0
VERTEX
  5
18A
  8
0
 10
69.30000305175781
 20
-10.63799953460693
 30
37.04999923706055
 70
   192
  0
VERTEX
  5
18B
  8
0
 10
69.30000305175781
 20
-16.54700088500977
 30
32.97200012207031
 70
   192
  0
VERTEX
  5
18C
  8
0
 10
69.0
 20
-26.56399917602539
 30
22.9419994354248
 70
   192
  0
VERTEX
  5
18D
  8
0
 10
69.30000305175781
 20
-22.45499992370605
 30
28.89399909973145
 70
   192
  0
VERTEX
  5
18E
  8
0
 10
69.30000305175781
 20
-25.79199981689453
 30
22.53700065612793
 70
   192
  0
VERTEX
  5
18F
  8
0
 10
69.30000305175781
 20
-29.12800025939941
 30
16.17900085449219
 70
   192
  0
VERTEX
  5
190
  8
0
 62
     9
 10
0.0
 20
0.0
 30
0.0
 70
   128
 71
     3
 72
     2
 73
     1
  0
VERTEX
  5
191
  8
0
 62
     9
 10
0.0
 20
0.0
 30
0.0
 70
   128
 71
     1
 72
     4
 73
     3
  0
VERTEX
  5
192
  8
0
 62
     9
 10
0.0
 20
0.0
 30
0.0
 70
   128
 71
     4
 72
     5
 73
     3
  0
VERTEX
  5
193
  8
0
 62
     9
 10
0.0
 20
0.0
 30
0.0
 70
   128
 71
     7
 72
     6
 73
     1
  0
VERTEX
  5
194
  8
0
 62
     9
 10
0.0
 20
0.0
 30
0.0
 70
   128
 71
     1
 72
     2
 73
     7
  0
VERTEX
  5
195
  8
0
 62
     9
 10
0.0
 20
0.0
 30
0.0
 70
   128
 71
     7
 72
     8
 73
     6
  0
VERTEX
  5
196
  8
0
 62
     9
 10
0.0
 20
0.0
 30
0.0
 70
   128
 71
    11
 72
    10
 73
     9
  0
VERTEX
  5
197
  8
0
 62
     9
 10
0.0
 20
0.0
 30
0.0
 70
   128
 71
     9
 72
     6
 73
    11
  0
VERTEX
  5
198
  8
0
 62
     9
 10
0.0
 20
0.0
 30
0.0
 70
   128
 71
     6
 72
     8
 73
    11
  0
VERTEX
  5
199
  8
0
 62
     9
 10
0.0
 20
0.0
 30
0.0
 70
   128
 71
    13
 72
    12
 73
     9
  0
VERTEX
  5
19A
  8
0
 62
     9
 10
0.0
 20
0.0
 30
0.0
 70
   128
 71
     9
 72
    10
 73
    13
  0
VERTEX
  5
19B
  8
0
 62
     9
 10
0.0
 20
0.0
 30
0.0
 70
   128
 71
    13
 72
    14
 73
    12
  0
VERTEX
  5
19C
  8
0
 62
     9
 10
0.0
 20
0.0
 30
0.0
 70
   128
 71
    16
 72
    15
 73
    12
  0
VERTEX
  5
19D
  8
0
 62
     9
 10
0.0
 20
0.0
 30
0.0
 70
   128
 71
    12
 72
    14
 73
    16
  0
VERTEX
  5
19E
  8
0
 62
     9
 10
0.0
 20
0.0
 30
0.0
 70
   128
 71
    16
 72
    17
 73
    15
  0
VERTEX
  5
19F
  8
0
 62
     9
 10
0.0
 20
0.0
 30
0.0
 70
   128
 71
    20
 72
    19
 73
    18
  0
VERTEX
  5
1A0
  8
0
 62
     9
 10
0.0
 20
0.0
 30
0.0
 70
   128
 71
    18
 72
    15
 73
    20
  0
VERTEX
  5
1A1
  8
0
 62
     9
 10
0.0
 20
0.0
 30
0.0
 70
   128
 71
    15
 72
    17
 73
    20
  0
VERTEX
  5
1A2
  8
0
 62
     9
 10
0.0
 20
0.0
 30
0.0
 70
   128
 71
    23
 72
    22
 73
    21
  0
VERTEX
  5
1A3
  8
0
 62
     9
 10
0.0
 20
0.0
 30
0.0
 70
   128
 71
    21
 72
    18
 73
    23
  0
VERTEX
  5
1A4
  8
0
 62
     9
 10
0.0
 20
0.0
 30
0.0
 70
   128
 71
    18
 72
    19
 73
    23
  0
VERTEX
  5
1A5
  8
0
 62
     9
 10
0.0
 20
0.0
 30
0.0
 70
   128
 71
    25
 72
    24
 73
    21
  0
VERTEX
  5
1A6
  8
0
 62
     9
 10
0.0
 20
0.0
 30
0.0
 70
   128
 71
    21
 72
    22
 73
    25
  0
VERTEX
  5
1A7
  8
0
 62
     9
 10
0.0
 20
0.0
 30
0.0
 70
   128
 71
    25
 72
    26
 73
    24
  0
VERTEX
  5
1A8
  8
0
 62
     9
 10
0.0
 20
0.0
 30
0.0
 70
   128
 71
    28
 72
    27
 73
    24
  0
VERTEX
  5
1A9
  8
0
 62
     9
 10
0.0
 20
0.0
 30
0.0
 70
   128
 71
    24
 72
    26
 73
    28
  0
VERTEX
  5
1AA
  8
0
 62
     9
 10
0.0
 20
0.0
 30
0.0
 70
   128
 71
    28
 72
    29
 73
    27
  0
VERTEX
  5
1AB
  8
0
 62
     9
 10
0.0
 20
0.0
 30
0.0
 70
   128
 71
    32
 72
    31
 73
    30
  0
VERTEX
  5
1AC
  8
0
 62
     9
 10
0.0
 20
0.0
 30
0.0
 70
   128
 71
    30
 72
    27
 73
    32
  0
VERTEX
  5
1AD
  8
0
 62
     9
 10
0.0
 20
0.0
 30
0.0
 70
   128
 71
    27
 72
    29
 73
    32
  0
VERTEX
  5
1AE
  8
0
 62
     9
 10
0.0
 20
0.0
 30
0.0
 70
   128
 71
    34
 72
    33
 73
    30
  0
VERTEX
  5
1AF
  8
0
 62
     9
 10
0.0
 20
0.0
 30
0.0
 70
   128
 71
    30
 72
    31
 73
    34
  0
VERTEX
  5
1B0
  8
0
 62
     9
 10
0.0
 20
0.0
 30
0.0
 70
   128
 71
    34
 72
    35
 73
    33
  0
VERTEX
  5
1B1
  8
0
 62
     9
 10
0.0
 20
0.0
 30
0.0
 70
   128
 71
    37
 72
    36
 73
    33
  0
VERTEX
  5
1B2
  8
0
 62
     9
 10
0.0
 20
0.0
 30
0.0
 70
   128
 71
    33
 72
    35
 73
    37
  0
VERTEX
  5
1B3
  8
0
 62
     9
 10
0.0
 20
0.0
 30
0.0
 70
   128
 71
    37
 72
    38
 73
    36
  0
VERTEX
  5
1B4
  8
0
 62
     9
 10
0.0
 20
0.0
 30
0.0
 70
   128
 71
    39
 72
     4
 73
    36
  0
VERTEX
  5
1B5
  8
0
 62
     9
 10
0.0
 20
0.0
 30
0.0
 70
   128
 71
    36
 72
    38
 73
    39
  0
VERTEX
  5
1B6
  8
0
 62
     9
 10
0.0
 20
0.0
 30
0.0
 70
   128
 71
    39
 72
     5
 73
     4
  0
SEQEND
  5
1B7
  8
0
 62
     9
  0
ENDBLK
  5
1BA
  8
0
  0
BLOCK
  8
0
  2
E3_NODE_4_
 70
     0
 10
0.0
 20
0.0
 30
0.0
  3
E3_NODE_4_
  1

  0
POLYLINE
  5
1BC
  8
0
 62
     9
 66
     1
 10
0.0
 20
0.0
 30
0.0
 70
    64
 71
    40
 72
    40
  0
VERTEX
  5
1BD
  8
0
 10
71.0
 20
25.45000076293945
 30
9.0
 70
   192
  0
VERTEX
  5
1BE
  8
0
 10
71.0
 20
22.53499984741211
 30
-2.82699990272522
 70
   192
  0
VERTEX
  5
1BF
  8
0
 10
69.30000305175781
 20
28.2819995880127
 30
2.029000043869019
 70
   192
  0
VERTEX
  5
1C0
  8
0
 10
69.30000305175781
 20
26.56399917602539
 30
-4.941999912261963
 70
   192
  0
VERTEX
  5
1C1
  8
0
 10
71.0
 20
14.45699977874756
 30
-11.94499969482422
 70
   192
  0
VERTEX
  5
1C2
  8
0
 10
69.30000305175781
 20
21.80299949645996
 30
-10.31599998474121
 70
   192
  0
VERTEX
  5
1C3
  8
0
 10
69.30000305175781
 20
17.04199981689453
 30
-15.6899995803833
 70
   192
  0
VERTEX
  5
1C4
  8
0
 10
71.0
 20
3.068000078201294
 30
-16.26399993896484
 70
   192
  0
VERTEX
  5
1C5
  8
0
 10
69.30000305175781
 20
10.32900047302246
 30
-18.23500061035156
 70
   192
  0
VERTEX
  5
1C6
  8
0
 10
69.30000305175781
 20
3.615999937057495
 30
-20.7810001373291
 70
   192
  0
VERTEX
  5
1C7
  8
0
 10
71.0
 20
-9.024999618530273
 30
-14.79599952697754
 70
   192
  0
VERTEX
  5
1C8
  8
0
 10
69.30000305175781
 20
-3.510999917984009
 30
-19.91600036621094
 70
   192
  0
VERTEX
  5
1C9
  8
0
 10
69.30000305175781
 20
-10.63799953460693
 30
-19.04999923706055
 70
   192
  0
VERTEX
  5
1CA
  8
0
 10
71.0
 20
-19.04999923706055
 30
-7.875999927520752
 70
   192
  0
VERTEX
  5
1CB
  8
0
 10
69.30000305175781
 20
-16.54700088500977
 30
-14.97200012207031
 70
   192
  0
VERTEX
  5
1CC
  8
0
 10
69.30000305175781
 20
-22.45499992370605
 30
-10.89400005340576
 70
   192
  0
VERTEX
  5
1CD
  8
0
 10
71.0
 20
-24.70999908447266
 30
2.908999919891357
 70
   192
  0
VERTEX
  5
1CE
  8
0
 10
69.30000305175781
 20
-25.79199981689453
 30
-4.537000179290771
 70
   192
  0
VERTEX
  5
1CF
  8
0
 10
69.30000305175781
 20
-29.12800025939941
 30
1.820999979972839
 70
   192
  0
VERTEX
  5
1D0
  8
0
 10
69.30000305175781
 20
-29.12800025939941
 30
16.17900085449219
 70
   192
  0
VERTEX
  5
1D1
  8
0
 10
69.30000305175781
 20
-30.0
 30
9.0
 70
   192
  0
VERTEX
  5
1D2
  8
0
 10
71.0
 20
-25.45000076293945
 30
9.0
 70
   192
  0
VERTEX
  5
1D3
  8
0
 10
71.0
 20
-24.70999908447266
 30
15.09099960327148
 70
   192
  0
VERTEX
  5
1D4
  8
0
 10
71.0
 20
-19.04999923706055
 30
25.87599945068359
 70
   192
  0
VERTEX
  5
1D5
  8
0
 10
69.30000305175781
 20
-25.79199981689453
 30
22.53700065612793
 70
   192
  0
VERTEX
  5
1D6
  8
0
 10
69.30000305175781
 20
-22.45499992370605
 30
28.89399909973145
 70
   192
  0
VERTEX
  5
1D7
  8
0
 10
71.0
 20
-9.024999618530273
 30
32.79600143432617
 70
   192
  0
VERTEX
  5
1D8
  8
0
 10
69.30000305175781
 20
-16.54700088500977
 30
32.97200012207031
 70
   192
  0
VERTEX
  5
1D9
  8
0
 10
69.30000305175781
 20
-10.63799953460693
 30
37.04999923706055
 70
   192
  0
VERTEX
  5
1DA
  8
0
 10
71.0
 20
3.068000078201294
 30
34.26399993896484
 70
   192
  0
VERTEX
  5
1DB
  8
0
 10
69.30000305175781
 20
-3.510999917984009
 30
37.91600036621094
 70
   192
  0
VERTEX
  5
1DC
  8
0
 10
69.30000305175781
 20
3.615999937057495
 30
38.78099822998047
 70
   192
  0
VERTEX
  5
1DD
  8
0
 10
71.0
 20
14.45699977874756
 30
29.94499969482422
 70
   192
  0
VERTEX
  5
1DE
  8
0
 10
69.30000305175781
 20
10.32900047302246
 30
36.23500061035156
 70
   192
  0
VERTEX
  5
1DF
  8
0
 10
69.30000305175781
 20
17.04199981689453
 30
33.68999862670898
 70
   192
  0
VERTEX
  5
1E0
  8
0
 10
71.0
 20
22.53499984741211
 30
20.82699966430664
 70
   192
  0
VERTEX
  5
1E1
  8
0
 10
69.30000305175781
 20
21.80299949645996
 30
28.31599998474121
 70
   192
  0
VERTEX
  5
1E2
  8
0
 10
69.30000305175781
 20
26.56399917602539
 30
22.9419994354248
 70
   192
  0
VERTEX
  5
1E3
  8
0
 10
69.30000305175781
 20
28.2819995880127
 30
15.9709997177124
 70
   192
  0
VERTEX
  5
1E4
  8
0
 10
69.30000305175781
 20
30.0
 30
9.0
 70
   192
  0
VERTEX
  5
1E5
  8
0
 62
     9
 10
0.0
 20
0.0
 30
0.0
 70
   128
 71
     3
 72
     2
 73
     1
  0
VERTEX
  5
1E6
  8
0
 62
     9
 10
0.0
 20
0.0
 30
0.0
 70
   128
 71
     3
 72
     4
 73
     2
  0
VERTEX
  5
1E7
  8
0
 62
     9
 10
0.0
 20
0.0
 30
0.0
 70
   128
 71
     6
 72
     5
 73
     2
  0
VERTEX
  5
1E8
  8
0
 62
     9
 10
0.0
 20
0.0
 30
0.0
 70
   128
 71
     6
 72
     7
 73
     5
  0
VERTEX
  5
1E9
  8
0
 62
     9
 10
0.0
 20
0.0
 30
0.0
 70
   128
 71
     9
 72
     8
 73
     5
  0
VERTEX
  5
1EA
  8
0
 62
     9
 10
0.0
 20
0.0
 30
0.0
 70
   128
 71
     9
 72
    10
 73
     8
  0
VERTEX
  5
1EB
  8
0
 62
     9
 10
0.0
 20
0.0
 30
0.0
 70
   128
 71
    12
 72
    11
 73
     8
  0
VERTEX
  5
1EC
  8
0
 62
     9
 10
0.0
 20
0.0
 30
0.0
 70
   128
 71
    12
 72
    13
 73
    11
  0
VERTEX
  5
1ED
  8
0
 62
     9
 10
0.0
 20
0.0
 30
0.0
 70
   128
 71
    15
 72
    14
 73
    11
  0
VERTEX
  5
1EE
  8
0
 62
     9
 10
0.0
 20
0.0
 30
0.0
 70
   128
 71
    15
 72
    16
 73
    14
  0
VERTEX
  5
1EF
  8
0
 62
     9
 10
0.0
 20
0.0
 30
0.0
 70
   128
 71
    18
 72
    17
 73
    14
  0
VERTEX
  5
1F0
  8
0
 62
     9
 10
0.0
 20
0.0
 30
0.0
 70
   128
 71
    18
 72
    19
 73
    17
  0
VERTEX
  5
1F1
  8
0
 62
     9
 10
0.0
 20
0.0
 30
0.0
 70
   128
 71
    22
 72
    21
 73
    20
  0
VERTEX
  5
1F2
  8
0
 62
     9
 10
0.0
 20
0.0
 30
0.0
 70
   128
 71
    22
 72
    17
 73
    19
  0
VERTEX
  5
1F3
  8
0
 62
     9
 10
0.0
 20
0.0
 30
0.0
 70
   128
 71
    19
 72
    21
 73
    22
  0
VERTEX
  5
1F4
  8
0
 62
     9
 10
0.0
 20
0.0
 30
0.0
 70
   128
 71
    25
 72
    24
 73
    23
  0
VERTEX
  5
1F5
  8
0
 62
     9
 10
0.0
 20
0.0
 30
0.0
 70
   128
 71
    25
 72
    26
 73
    24
  0
VERTEX
  5
1F6
  8
0
 62
     9
 10
0.0
 20
0.0
 30
0.0
 70
   128
 71
    28
 72
    27
 73
    24
  0
VERTEX
  5
1F7
  8
0
 62
     9
 10
0.0
 20
0.0
 30
0.0
 70
   128
 71
    28
 72
    29
 73
    27
  0
VERTEX
  5
1F8
  8
0
 62
     9
 10
0.0
 20
0.0
 30
0.0
 70
   128
 71
    31
 72
    30
 73
    27
  0
VERTEX
  5
1F9
  8
0
 62
     9
 10
0.0
 20
0.0
 30
0.0
 70
   128
 71
    31
 72
    32
 73
    30
  0
VERTEX
  5
1FA
  8
0
 62
     9
 10
0.0
 20
0.0
 30
0.0
 70
   128
 71
    34
 72
    33
 73
    30
  0
VERTEX
  5
1FB
  8
0
 62
     9
 10
0.0
 20
0.0
 30
0.0
 70
   128
 71
    34
 72
    35
 73
    33
  0
VERTEX
  5
1FC
  8
0
 62
     9
 10
0.0
 20
0.0
 30
0.0
 70
   128
 71
    37
 72
    36
 73
    33
  0
VERTEX
  5
1FD
  8
0
 62
     9
 10
0.0
 20
0.0
 30
0.0
 70
   128
 71
    37
 72
    38
 73
    36
  0
VERTEX
  5
1FE
  8
0
 62
     9
 10
0.0
 20
0.0
 30
0.0
 70
   128
 71
    39
 72
     1
 73
    36
  0
VERTEX
  5
1FF
  8
0
 62
     9
 10
0.0
 20
0.0
 30
0.0
 70
   128
 71
    39
 72
    40
 73
     1
  0
VERTEX
  5
200
  8
0
 62
     9
 10
0.0
 20
0.0
 30
0.0
 70
   128
 71
    36
 72
    38
 73
    39
  0
VERTEX
  5
201
  8
0
 62
     9
 10
0.0
 20
0.0
 30
0.0
 70
   128
 71
    33
 72
    35
 73
    37
  0
VERTEX
  5
202
  8
0
 62
     9
 10
0.0
 20
0.0
 30
0.0
 70
   128
 71
    30
 72
    32
 73
    34
  0
VERTEX
  5
203
  8
0
 62
     9
 10
0.0
 20
0.0
 30
0.0
 70
   128
 71
    27
 72
    29
 73
    31
  0
VERTEX
  5
204
  8
0
 62
     9
 10
0.0
 20
0.0
 30
0.0
 70
   128
 71
    24
 72
    26
 73
    28
  0
VERTEX
  5
205
  8
0
 62
     9
 10
0.0
 20
0.0
 30
0.0
 70
   128
 71
    23
 72
    20
 73
    25
  0
VERTEX
  5
206
  8
0
 62
     9
 10
0.0
 20
0.0
 30
0.0
 70
   128
 71
    20
 72
    23
 73
    22
  0
VERTEX
  5
207
  8
0
 62
     9
 10
0.0
 20
0.0
 30
0.0
 70
   128
 71
    14
 72
    16
 73
    18
  0
VERTEX
  5
208
  8
0
 62
     9
 10
0.0
 20
0.0
 30
0.0
 70
   128
 71
    11
 72
    13
 73
    15
  0
VERTEX
  5
209
  8
0
 62
     9
 10
0.0
 20
0.0
 30
0.0
 70
   128
 71
     8
 72
    10
 73
    12
  0
VERTEX
  5
20A
  8
0
 62
     9
 10
0.0
 20
0.0
 30
0.0
 70
   128
 71
     5
 72
     7
 73
     9
  0
VERTEX
  5
20B
  8
0
 62
     9
 10
0.0
 20
0.0
 30
0.0
 70
   128
 71
     2
 72
     4
 73
     6
  0
VERTEX
  5
20C
  8
0
 62
     9
 10
0.0
 20
0.0
 30
0.0
 70
   128
 71
     1
 72
    40
 73
     3
  0
SEQEND
  5
20D
  8
0
 62
     9
  0
ENDBLK
  5
210
  8
0
  0
BLOCK
  8
0
  2
E3_NODE_5_
 70
     0
 10
0.0
 20
0.0
 30
0.0
  3
E3_NODE_5_
  1

  0
POLYLINE
  5
212
  8
0
 62
     9
 66
     1
 10
0.0
 20
0.0
 30
0.0
 70
    64
 71
    17
 72
    15
  0
VERTEX
  5
213
  8
0
 10
59.0
 20
38.79800033569336
 30
-26.36899948120117
 70
   192
  0
VERTEX
  5
214
  8
0
 10
59.0
 20
48.95500183105469
 30
27.96500015258789
 70
   192
  0
VERTEX
  5
215
  8
0
 10
59.0
 20
52.5
 30
9.0
 70
   192
  0
VERTEX
  5
216
  8
0
 10
59.0
 20
23.40099906921387
 30
55.99599838256836
 70
   192
  0
VERTEX
  5
217
  8
0
 10
59.0
 20
38.79800033569336
 30
44.36899948120117
 70
   192
  0
VERTEX
  5
218
  8
0
 10
59.0
 20
4.843999862670898
 30
-43.2760009765625
 70
   192
  0
VERTEX
  5
219
  8
0
 10
59.0
 20
-44.63600158691406
 30
36.63800048828125
 70
   192
  0
VERTEX
  5
21A
  8
0
 10
59.0
 20
-31.63800048828125
 30
50.89599990844727
 70
   192
  0
VERTEX
  5
21B
  8
0
 10
59.0
 20
-51.60599899291992
 30
-0.6470000147819519
 70
   192
  0
VERTEX
  5
21C
  8
0
 10
59.0
 20
-51.60599899291992
 30
18.64699935913086
 70
   192
  0
VERTEX
  5
21D
  8
0
 10
59.0
 20
-31.63800048828125
 30
-32.89599990844727
 70
   192
  0
VERTEX
  5
21E
  8
0
 10
59.0
 20
-44.63600158691406
 30
-18.63800048828125
 70
   192
  0
VERTEX
  5
21F
  8
0
 10
59.0
 20
23.40099906921387
 30
-37.99599838256836
 70
   192
  0
VERTEX
  5
220
  8
0
 10
59.0
 20
-14.36699962615967
 30
-41.49599838256836
 70
   192
  0
VERTEX
  5
221
  8
0
 10
59.0
 20
48.95500183105469
 30
-9.96500015258789
 70
   192
  0
VERTEX
  5
222
  8
0
 10
59.0
 20
-14.36699962615967
 30
59.49599838256836
 70
   192
  0
VERTEX
  5
223
  8
0
 10
59.0
 20
4.843999862670898
 30
61.2760009765625
 70
   192
  0
VERTEX
  5
224
  8
0
 62
     9
 10
0.0
 20
0.0
 30
0.0
 70
   128
 71
     3
 72
     2
 73
     1
  0
VERTEX
  5
225
  8
0
 62
     9
 10
0.0
 20
0.0
 30
0.0
 70
   128
 71
     5
 72
     4
 73
     1
  0
VERTEX
  5
226
  8
0
 62
     9
 10
0.0
 20
0.0
 30
0.0
 70
   128
 71
     8
 72
     7
 73
     6
  0
VERTEX
  5
227
  8
0
 62
     9
 10
0.0
 20
0.0
 30
0.0
 70
   128
 71
    10
 72
     9
 73
     6
  0
VERTEX
  5
228
  8
0
 62
     9
 10
0.0
 20
0.0
 30
0.0
 70
   128
 71
    12
 72
    11
 73
     6
  0
VERTEX
  5
229
  8
0
 62
     9
 10
0.0
 20
0.0
 30
0.0
 70
   128
 71
    13
 72
     1
 73
     4
  0
VERTEX
  5
22A
  8
0
 62
     9
 10
0.0
 20
0.0
 30
0.0
 70
   128
 71
     1
 72
     2
 73
     5
  0
VERTEX
  5
22B
  8
0
 62
     9
 10
0.0
 20
0.0
 30
0.0
 70
   128
 71
     6
 72
     7
 73
    10
  0
VERTEX
  5
22C
  8
0
 62
     9
 10
0.0
 20
0.0
 30
0.0
 70
   128
 71
    11
 72
    14
 73
     6
  0
VERTEX
  5
22D
  8
0
 62
     9
 10
0.0
 20
0.0
 30
0.0
 70
   128
 71
     1
 72
    15
 73
     3
  0
VERTEX
  5
22E
  8
0
 62
     9
 10
0.0
 20
0.0
 30
0.0
 70
   128
 71
    17
 72
    16
 73
     6
  0
VERTEX
  5
22F
  8
0
 62
     9
 10
0.0
 20
0.0
 30
0.0
 70
   128
 71
     6
 72
     9
 73
    12
  0
VERTEX
  5
230
  8
0
 62
     9
 10
0.0
 20
0.0
 30
0.0
 70
   128
 71
     6
 72
     4
 73
    17
  0
VERTEX
  5
231
  8
0
 62
     9
 10
0.0
 20
0.0
 30
0.0
 70
   128
 71
     4
 72
     6
 73
    13
  0
VERTEX
  5
232
  8
0
 62
     9
 10
0.0
 20
0.0
 30
0.0
 70
   128
 71
     6
 72
    16
 73
     8
  0
SEQEND
  5
233
  8
0
 62
     9
  0
ENDBLK
  5
236
  8
0
  0
BLOCK
  8
0
  2
E3_NODE_6_
 70
     0
 10
0.0
 20
0.0
 30
0.0
  3
E3_NODE_6_
  1

  0
POLYLINE
  5
238
  8
0
 62
     9
 66
     1
 10
0.0
 20
0.0
 30
0.0
 70
    64
 71
    34
 72
    34
  0
VERTEX
  5
239
  8
0
 10
59.0
 20
48.95500183105469
 30
27.96500015258789
 70
   192
  0
VERTEX
  5
23A
  8
0
 10
69.0
 20
48.95500183105469
 30
27.96500015258789
 70
   192
  0
VERTEX
  5
23B
  8
0
 10
69.0
 20
52.5
 30
9.0
 70
   192
  0
VERTEX
  5
23C
  8
0
 10
59.0
 20
38.79800033569336
 30
44.36899948120117
 70
   192
  0
VERTEX
  5
23D
  8
0
 10
69.0
 20
38.79800033569336
 30
44.36899948120117
 70
   192
  0
VERTEX
  5
23E
  8
0
 10
59.0
 20
23.40099906921387
 30
55.99599838256836
 70
   192
  0
VERTEX
  5
23F
  8
0
 10
69.0
 20
23.40099906921387
 30
55.99599838256836
 70
   192
  0
VERTEX
  5
240
  8
0
 10
59.0
 20
4.843999862670898
 30
61.2760009765625
 70
   192
  0
VERTEX
  5
241
  8
0
 10
69.0
 20
4.843999862670898
 30
61.2760009765625
 70
   192
  0
VERTEX
  5
242
  8
0
 10
59.0
 20
-14.36699962615967
 30
59.49599838256836
 70
   192
  0
VERTEX
  5
243
  8
0
 10
69.0
 20
-14.36699962615967
 30
59.49599838256836
 70
   192
  0
VERTEX
  5
244
  8
0
 10
59.0
 20
-31.63800048828125
 30
50.89599990844727
 70
   192
  0
VERTEX
  5
245
  8
0
 10
59.0
 20
-44.63600158691406
 30
36.63800048828125
 70
   192
  0
VERTEX
  5
246
  8
0
 10
69.0
 20
-44.63600158691406
 30
36.63800048828125
 70
   192
  0
VERTEX
  5
247
  8
0
 10
69.0
 20
-31.63800048828125
 30
50.89599990844727
 70
   192
  0
VERTEX
  5
248
  8
0
 10
59.0
 20
-51.60599899291992
 30
18.64699935913086
 70
   192
  0
VERTEX
  5
249
  8
0
 10
69.0
 20
-51.60599899291992
 30
18.64699935913086
 70
   192
  0
VERTEX
  5
24A
  8
0
 10
59.0
 20
-51.60599899291992
 30
-0.6470000147819519
 70
   192
  0
VERTEX
  5
24B
  8
0
 10
69.0
 20
-51.60599899291992
 30
-0.6470000147819519
 70
   192
  0
VERTEX
  5
24C
  8
0
 10
59.0
 20
-44.63600158691406
 30
-18.63800048828125
 70
   192
  0
VERTEX
  5
24D
  8
0
 10
69.0
 20
-31.63800048828125
 30
-32.89599990844727
 70
   192
  0
VERTEX
  5
24E
  8
0
 10
69.0
 20
-44.63600158691406
 30
-18.63800048828125
 70
   192
  0
VERTEX
  5
24F
  8
0
 10
59.0
 20
-14.36699962615967
 30
-41.49599838256836
 70
   192
  0
VERTEX
  5
250
  8
0
 10
69.0
 20
-14.36699962615967
 30
-41.49599838256836
 70
   192
  0
VERTEX
  5
251
  8
0
 10
69.0
 20
4.843999862670898
 30
-43.2760009765625
 70
   192
  0
VERTEX
  5
252
  8
0
 10
59.0
 20
4.843999862670898
 30
-43.2760009765625
 70
   192
  0
VERTEX
  5
253
  8
0
 10
59.0
 20
23.40099906921387
 30
-37.99599838256836
 70
   192
  0
VERTEX
  5
254
  8
0
 10
69.0
 20
23.40099906921387
 30
-37.99599838256836
 70
   192
  0
VERTEX
  5
255
  8
0
 10
59.0
 20
38.79800033569336
 30
-26.36899948120117
 70
   192
  0
VERTEX
  5
256
  8
0
 10
69.0
 20
38.79800033569336
 30
-26.36899948120117
 70
   192
  0
VERTEX
  5
257
  8
0
 10
59.0
 20
48.95500183105469
 30
-9.96500015258789
 70
   192
  0
VERTEX
  5
258
  8
0
 10
69.0
 20
48.95500183105469
 30
-9.96500015258789
 70
   192
  0
VERTEX
  5
259
  8
0
 10
59.0
 20
52.5
 30
9.0
 70
   192
  0
VERTEX
  5
25A
  8
0
 10
59.0
 20
-31.63800048828125
 30
-32.89599990844727
 70
   192
  0
VERTEX
  5
25B
  8
0
 62
     9
 10
0.0
 20
0.0
 30
0.0
 70
   128
 71
     3
 72
     2
 73
     1
  0
VERTEX
  5
25C
  8
0
 62
     9
 10
0.0
 20
0.0
 30
0.0
 70
   128
 71
     5
 72
     4
 73
     1
  0
VERTEX
  5
25D
  8
0
 62
     9
 10
0.0
 20
0.0
 30
0.0
 70
   128
 71
     5
 72
     7
 73
     6
  0
VERTEX
  5
25E
  8
0
 62
     9
 10
0.0
 20
0.0
 30
0.0
 70
   128
 71
     7
 72
     9
 73
     8
  0
VERTEX
  5
25F
  8
0
 62
     9
 10
0.0
 20
0.0
 30
0.0
 70
   128
 71
    10
 72
     8
 73
     9
  0
VERTEX
  5
260
  8
0
 62
     9
 10
0.0
 20
0.0
 30
0.0
 70
   128
 71
    12
 72
    10
 73
    11
  0
VERTEX
  5
261
  8
0
 62
     9
 10
0.0
 20
0.0
 30
0.0
 70
   128
 71
    15
 72
    14
 73
    13
  0
VERTEX
  5
262
  8
0
 62
     9
 10
0.0
 20
0.0
 30
0.0
 70
   128
 71
    14
 72
    17
 73
    16
  0
VERTEX
  5
263
  8
0
 62
     9
 10
0.0
 20
0.0
 30
0.0
 70
   128
 71
    17
 72
    19
 73
    18
  0
VERTEX
  5
264
  8
0
 62
     9
 10
0.0
 20
0.0
 30
0.0
 70
   128
 71
    20
 72
    18
 73
    19
  0
VERTEX
  5
265
  8
0
 62
     9
 10
0.0
 20
0.0
 30
0.0
 70
   128
 71
    20
 72
    22
 73
    21
  0
VERTEX
  5
266
  8
0
 62
     9
 10
0.0
 20
0.0
 30
0.0
 70
   128
 71
    21
 72
    24
 73
    23
  0
VERTEX
  5
267
  8
0
 62
     9
 10
0.0
 20
0.0
 30
0.0
 70
   128
 71
    23
 72
    24
 73
    25
  0
VERTEX
  5
268
  8
0
 62
     9
 10
0.0
 20
0.0
 30
0.0
 70
   128
 71
    28
 72
    27
 73
    26
  0
VERTEX
  5
269
  8
0
 62
     9
 10
0.0
 20
0.0
 30
0.0
 70
   128
 71
    30
 72
    29
 73
    27
  0
VERTEX
  5
26A
  8
0
 62
     9
 10
0.0
 20
0.0
 30
0.0
 70
   128
 71
    30
 72
    32
 73
    31
  0
VERTEX
  5
26B
  8
0
 62
     9
 10
0.0
 20
0.0
 30
0.0
 70
   128
 71
    31
 72
    32
 73
     3
  0
VERTEX
  5
26C
  8
0
 62
     9
 10
0.0
 20
0.0
 30
0.0
 70
   128
 71
     3
 72
    33
 73
    31
  0
VERTEX
  5
26D
  8
0
 62
     9
 10
0.0
 20
0.0
 30
0.0
 70
   128
 71
    31
 72
    29
 73
    30
  0
VERTEX
  5
26E
  8
0
 62
     9
 10
0.0
 20
0.0
 30
0.0
 70
   128
 71
    27
 72
    28
 73
    30
  0
VERTEX
  5
26F
  8
0
 62
     9
 10
0.0
 20
0.0
 30
0.0
 70
   128
 71
    26
 72
    25
 73
    28
  0
VERTEX
  5
270
  8
0
 62
     9
 10
0.0
 20
0.0
 30
0.0
 70
   128
 71
    25
 72
    26
 73
    23
  0
VERTEX
  5
271
  8
0
 62
     9
 10
0.0
 20
0.0
 30
0.0
 70
   128
 71
    23
 72
    34
 73
    21
  0
VERTEX
  5
272
  8
0
 62
     9
 10
0.0
 20
0.0
 30
0.0
 70
   128
 71
    21
 72
    34
 73
    20
  0
VERTEX
  5
273
  8
0
 62
     9
 10
0.0
 20
0.0
 30
0.0
 70
   128
 71
    19
 72
    22
 73
    20
  0
VERTEX
  5
274
  8
0
 62
     9
 10
0.0
 20
0.0
 30
0.0
 70
   128
 71
    18
 72
    16
 73
    17
  0
VERTEX
  5
275
  8
0
 62
     9
 10
0.0
 20
0.0
 30
0.0
 70
   128
 71
    16
 72
    13
 73
    14
  0
VERTEX
  5
276
  8
0
 62
     9
 10
0.0
 20
0.0
 30
0.0
 70
   128
 71
    13
 72
    12
 73
    15
  0
VERTEX
  5
277
  8
0
 62
     9
 10
0.0
 20
0.0
 30
0.0
 70
   128
 71
    11
 72
    15
 73
    12
  0
VERTEX
  5
278
  8
0
 62
     9
 10
0.0
 20
0.0
 30
0.0
 70
   128
 71
     9
 72
    11
 73
    10
  0
VERTEX
  5
279
  8
0
 62
     9
 10
0.0
 20
0.0
 30
0.0
 70
   128
 71
     8
 72
     6
 73
     7
  0
VERTEX
  5
27A
  8
0
 62
     9
 10
0.0
 20
0.0
 30
0.0
 70
   128
 71
     6
 72
     4
 73
     5
  0
VERTEX
  5
27B
  8
0
 62
     9
 10
0.0
 20
0.0
 30
0.0
 70
   128
 71
     1
 72
     2
 73
     5
  0
VERTEX
  5
27C
  8
0
 62
     9
 10
0.0
 20
0.0
 30
0.0
 70
   128
 71
     1
 72
    33
 73
     3
  0
SEQEND
  5
27D
  8
0
 62
     9
  0
ENDBLK
  5
280
  8
0
  0
BLOCK
  8
0
  2
E3_NODE_7_
 70
     0
 10
0.0
 20
0.0
 30
0.0
  3
E3_NODE_7_
  1

  0
POLYLINE
  5
282
  8
0
 62
     9
 66
     1
 10
0.0
 20
0.0
 30
0.0
 70
    64
 71
    17
 72
    15
  0
VERTEX
  5
283
  8
0
 10
69.0
 20
38.79800033569336
 30
-26.36899948120117
 70
   192
  0
VERTEX
  5
284
  8
0
 10
69.0
 20
52.5
 30
9.0
 70
   192
  0
VERTEX
  5
285
  8
0
 10
69.0
 20
48.95500183105469
 30
27.96500015258789
 70
   192
  0
VERTEX
  5
286
  8
0
 10
69.0
 20
48.95500183105469
 30
-9.96500015258789
 70
   192
  0
VERTEX
  5
287
  8
0
 10
69.0
 20
4.843999862670898
 30
-43.2760009765625
 70
   192
  0
VERTEX
  5
288
  8
0
 10
69.0
 20
-44.63600158691406
 30
-18.63800048828125
 70
   192
  0
VERTEX
  5
289
  8
0
 10
69.0
 20
-31.63800048828125
 30
-32.89599990844727
 70
   192
  0
VERTEX
  5
28A
  8
0
 10
69.0
 20
38.79800033569336
 30
44.36899948120117
 70
   192
  0
VERTEX
  5
28B
  8
0
 10
69.0
 20
-51.60599899291992
 30
-0.6470000147819519
 70
   192
  0
VERTEX
  5
28C
  8
0
 10
69.0
 20
-44.63600158691406
 30
36.63800048828125
 70
   192
  0
VERTEX
  5
28D
  8
0
 10
69.0
 20
-51.60599899291992
 30
18.64699935913086
 70
   192
  0
VERTEX
  5
28E
  8
0
 10
69.0
 20
4.843999862670898
 30
61.2760009765625
 70
   192
  0
VERTEX
  5
28F
  8
0
 10
69.0
 20
-14.36699962615967
 30
59.49599838256836
 70
   192
  0
VERTEX
  5
290
  8
0
 10
69.0
 20
23.40099906921387
 30
55.99599838256836
 70
   192
  0
VERTEX
  5
291
  8
0
 10
69.0
 20
23.40099906921387
 30
-37.99599838256836
 70
   192
  0
VERTEX
  5
292
  8
0
 10
69.0
 20
-31.63800048828125
 30
50.89599990844727
 70
   192
  0
VERTEX
  5
293
  8
0
 10
69.0
 20
-14.36699962615967
 30
-41.49599838256836
 70
   192
  0
VERTEX
  5
294
  8
0
 62
     9
 10
0.0
 20
0.0
 30
0.0
 70
   128
 71
     3
 72
     2
 73
     1
  0
VERTEX
  5
295
  8
0
 62
     9
 10
0.0
 20
0.0
 30
0.0
 70
   128
 71
     2
 72
     4
 73
     1
  0
VERTEX
  5
296
  8
0
 62
     9
 10
0.0
 20
0.0
 30
0.0
 70
   128
 71
     7
 72
     6
 73
     5
  0
VERTEX
  5
297
  8
0
 62
     9
 10
0.0
 20
0.0
 30
0.0
 70
   128
 71
     1
 72
     8
 73
     3
  0
VERTEX
  5
298
  8
0
 62
     9
 10
0.0
 20
0.0
 30
0.0
 70
   128
 71
     6
 72
     9
 73
     5
  0
VERTEX
  5
299
  8
0
 62
     9
 10
0.0
 20
0.0
 30
0.0
 70
   128
 71
    11
 72
    10
 73
     5
  0
VERTEX
  5
29A
  8
0
 62
     9
 10
0.0
 20
0.0
 30
0.0
 70
   128
 71
    13
 72
    12
 73
     5
  0
VERTEX
  5
29B
  8
0
 62
     9
 10
0.0
 20
0.0
 30
0.0
 70
   128
 71
     1
 72
    14
 73
     8
  0
VERTEX
  5
29C
  8
0
 62
     9
 10
0.0
 20
0.0
 30
0.0
 70
   128
 71
    15
 72
     5
 73
    12
  0
VERTEX
  5
29D
  8
0
 62
     9
 10
0.0
 20
0.0
 30
0.0
 70
   128
 71
     5
 72
     9
 73
    11
  0
VERTEX
  5
29E
  8
0
 62
     9
 10
0.0
 20
0.0
 30
0.0
 70
   128
 71
     5
 72
    16
 73
    13
  0
VERTEX
  5
29F
  8
0
 62
     9
 10
0.0
 20
0.0
 30
0.0
 70
   128
 71
    12
 72
     1
 73
    15
  0
VERTEX
  5
2A0
  8
0
 62
     9
 10
0.0
 20
0.0
 30
0.0
 70
   128
 71
     5
 72
    10
 73
    16
  0
VERTEX
  5
2A1
  8
0
 62
     9
 10
0.0
 20
0.0
 30
0.0
 70
   128
 71
     5
 72
    17
 73
     7
  0
VERTEX
  5
2A2
  8
0
 62
     9
 10
0.0
 20
0.0
 30
0.0
 70
   128
 71
     1
 72
    12
 73
    14
  0
SEQEND
  5
2A3
  8
0
 62
     9
  0
ENDBLK
  5
2A6
  8
0
  0
BLOCK
  8
0
  2
E3_NODE_8_
 70
     0
 10
0.0
 20
0.0
 30
0.0
  3
E3_NODE_8_
  1

  0
POLYLINE
  5
2A8
  8
0
 62
     9
 66
     1
 10
0.0
 20
0.0
 30
0.0
 70
    64
 71
    24
 72
    23
  0
VERTEX
  5
2A9
  8
0
 10
136.5540008544922
 20
-15.35700035095215
 30
-66.17400360107422
 70
   192
  0
VERTEX
  5
2AA
  8
0
 10
136.9750061035156
 20
-14.23700046539307
 30
-68.92500305175781
 70
   192
  0
VERTEX
  5
2AB
  8
0
 10
136.8730010986328
 20
-14.53699970245361
 30
-68.23100280761719
 70
   192
  0
VERTEX
  5
2AC
  8
0
 10
136.6109924316406
 20
-15.3129997253418
 30
-66.43399810791016
 70
   192
  0
VERTEX
  5
2AD
  8
0
 10
136.572998046875
 20
-15.34899997711182
 30
-66.1729965209961
 70
   192
  0
VERTEX
  5
2AE
  8
0
 10
136.0030059814453
 20
-15.88300037384033
 30
-62.26499938964844
 70
   192
  0
VERTEX
  5
2AF
  8
0
 10
135.97900390625
 20
-15.88300037384033
 30
-62.26499938964844
 70
   192
  0
VERTEX
  5
2B0
  8
0
 10
136.5399932861328
 20
-15.36999988555908
 30
-66.1760025024414
 70
   192
  0
VERTEX
  5
2B1
  8
0
 10
137.0850067138672
 20
-13.92399978637695
 30
-69.8219985961914
 70
   192
  0
VERTEX
  5
2B2
  8
0
 10
137.1049957275391
 20
-13.85200023651123
 30
-69.81800079345703
 70
   192
  0
VERTEX
  5
2B3
  8
0
 10
136.5549926757812
 20
-15.35700035095215
 30
-66.2760009765625
 70
   192
  0
VERTEX
  5
2B4
  8
0
 10
136.8329925537109
 20
-14.60700035095215
 30
-68.13099670410156
 70
   192
  0
VERTEX
  5
2B5
  8
0
 10
137.5599975585938
 20
-11.53400039672852
 30
-72.99600219726562
 70
   192
  0
VERTEX
  5
2B6
  8
0
 10
137.572998046875
 20
-11.56099987030029
 30
-73.0270004272461
 70
   192
  0
VERTEX
  5
2B7
  8
0
 10
137.5679931640625
 20
-11.60499954223633
 30
-72.98999786376953
 70
   192
  0
VERTEX
  5
2B8
  8
0
 10
137.1790008544922
 20
-13.63300037384033
 30
-70.3239974975586
 70
   192
  0
VERTEX
  5
2B9
  8
0
 10
137.0879974365234
 20
-13.90999984741211
 30
-69.84200286865234
 70
   192
  0
VERTEX
  5
2BA
  8
0
 10
137.5229949951172
 20
-11.82600021362305
 30
-72.75
 70
   192
  0
VERTEX
  5
2BB
  8
0
 10
137.5980072021484
 20
-11.22700023651123
 30
-73.25399780273438
 70
   192
  0
VERTEX
  5
2BC
  8
0
 10
137.9309997558594
 20
-8.588000297546387
 30
-75.47899627685547
 70
   192
  0
VERTEX
  5
2BD
  8
0
 10
137.8970031738281
 20
-8.942999839782715
 30
-75.24700164794922
 70
   192
  0
VERTEX
  5
2BE
  8
0
 10
137.9329986572266
 20
-8.569999694824219
 30
-75.49099731445312
 70
   192
  0
VERTEX
  5
2BF
  8
0
 10
137.6219940185547
 20
-11.16899967193604
 30
-73.36000061035156
 70
   192
  0
VERTEX
  5
2C0
  8
0
 10
135.9559936523438
 20
-15.88300037384033
 30
-62.26599884033203
 70
   192
  0
VERTEX
  5
2C1
  8
0
 62
     9
 10
0.0
 20
0.0
 30
0.0
 70
   128
 71
     3
 72
     2
 73
     1
  0
VERTEX
  5
2C2
  8
0
 62
     9
 10
0.0
 20
0.0
 30
0.0
 70
   128
 71
     1
 72
     4
 73
     3
  0
VERTEX
  5
2C3
  8
0
 62
     9
 10
0.0
 20
0.0
 30
0.0
 70
   128
 71
     1
 72
     5
 73
     4
  0
VERTEX
  5
2C4
  8
0
 62
     9
 10
0.0
 20
0.0
 30
0.0
 70
   128
 71
     1
 72
     7
 73
     6
  0
VERTEX
  5
2C5
  8
0
 62
     9
 10
0.0
 20
0.0
 30
0.0
 70
   128
 71
     7
 72
     1
 73
     8
  0
VERTEX
  5
2C6
  8
0
 62
     9
 10
0.0
 20
0.0
 30
0.0
 70
   128
 71
     2
 72
    10
 73
     9
  0
VERTEX
  5
2C7
  8
0
 62
     9
 10
0.0
 20
0.0
 30
0.0
 70
   128
 71
    12
 72
    11
 73
     1
  0
VERTEX
  5
2C8
  8
0
 62
     9
 10
0.0
 20
0.0
 30
0.0
 70
   128
 71
     1
 72
     2
 73
    12
  0
VERTEX
  5
2C9
  8
0
 62
     9
 10
0.0
 20
0.0
 30
0.0
 70
   128
 71
     9
 72
    12
 73
     2
  0
VERTEX
  5
2CA
  8
0
 62
     9
 10
0.0
 20
0.0
 30
0.0
 70
   128
 71
    11
 72
     8
 73
     1
  0
VERTEX
  5
2CB
  8
0
 62
     9
 10
0.0
 20
0.0
 30
0.0
 70
   128
 71
    15
 72
    14
 73
    13
  0
VERTEX
  5
2CC
  8
0
 62
     9
 10
0.0
 20
0.0
 30
0.0
 70
   128
 71
    18
 72
    17
 73
    16
  0
VERTEX
  5
2CD
  8
0
 62
     9
 10
0.0
 20
0.0
 30
0.0
 70
   128
 71
    16
 72
    15
 73
    18
  0
VERTEX
  5
2CE
  8
0
 62
     9
 10
0.0
 20
0.0
 30
0.0
 70
   128
 71
    17
 72
    10
 73
    16
  0
VERTEX
  5
2CF
  8
0
 62
     9
 10
0.0
 20
0.0
 30
0.0
 70
   128
 71
    21
 72
    20
 73
    19
  0
VERTEX
  5
2D0
  8
0
 62
     9
 10
0.0
 20
0.0
 30
0.0
 70
   128
 71
    20
 72
    22
 73
    19
  0
VERTEX
  5
2D1
  8
0
 62
     9
 10
0.0
 20
0.0
 30
0.0
 70
   128
 71
    19
 72
    13
 73
    14
  0
VERTEX
  5
2D2
  8
0
 62
     9
 10
0.0
 20
0.0
 30
0.0
 70
   128
 71
    14
 72
    23
 73
    19
  0
VERTEX
  5
2D3
  8
0
 62
     9
 10
0.0
 20
0.0
 30
0.0
 70
   128
 71
    19
 72
    23
 73
    21
  0
VERTEX
  5
2D4
  8
0
 62
     9
 10
0.0
 20
0.0
 30
0.0
 70
   128
 71
    13
 72
    18
 73
    15
  0
VERTEX
  5
2D5
  8
0
 62
     9
 10
0.0
 20
0.0
 30
0.0
 70
   128
 71
    10
 72
    17
 73
     9
  0
VERTEX
  5
2D6
  8
0
 62
     9
 10
0.0
 20
0.0
 30
0.0
 70
   128
 71
     8
 72
    24
 73
     7
  0
VERTEX
  5
2D7
  8
0
 62
     9
 10
0.0
 20
0.0
 30
0.0
 70
   128
 71
     6
 72
     5
 73
     1
  0
SEQEND
  5
2D8
  8
0
 62
     9
  0
ENDBLK
  5
2DB
  8
0
  0
BLOCK
  8
0
  2
E3_NODE_9_
 70
     0
 10
0.0
 20
0.0
 30
0.0
  3
E3_NODE_9_
  1

  0
POLYLINE
  5
2DD
  8
0
 62
     9
 66
     1
 10
0.0
 20
0.0
 30
0.0
 70
    64
 71
    46
 72
    53
  0
VERTEX
  5
2DE
  8
0
 10
132.9149932861328
 20
-7.388000011444092
 30
-68.6259994506836
 70
   192
  0
VERTEX
  5
2DF
  8
0
 10
132.6260070800781
 20
-9.838000297546387
 30
-65.55799865722656
 70
   192
  0
VERTEX
  5
2E0
  8
0
 10
131.4299926757812
 20
-5.400000095367432
 30
-63.60499954223633
 70
   192
  0
VERTEX
  5
2E1
  8
0
 10
131.6739959716797
 20
-2.115999937057495
 30
-66.20999908447266
 70
   192
  0
VERTEX
  5
2E2
  8
0
 10
131.8059997558594
 20
0.0
 30
-66.64800262451172
 70
   192
  0
VERTEX
  5
2E3
  8
0
 10
132.2729949951172
 20
0.0
 30
-68.97599792480469
 70
   192
  0
VERTEX
  5
2E4
  8
0
 10
133.0789947509766
 20
-3.895999908447266
 30
-70.83399963378906
 70
   192
  0
VERTEX
  5
2E5
  8
0
 10
133.2310028076172
 20
0.0
 30
-71.55999755859375
 70
   192
  0
VERTEX
  5
2E6
  8
0
 10
131.572998046875
 20
-4.037000179290771
 30
-65.04900360107422
 70
   192
  0
VERTEX
  5
2E7
  8
0
 10
130.9700012207031
 20
-0.0450000017881393
 30
-62.47900009155273
 70
   192
  0
VERTEX
  5
2E8
  8
0
 10
130.9730072021484
 20
0.0
 30
-62.49599838256836
 70
   192
  0
VERTEX
  5
2E9
  8
0
 10
131.7910003662109
 20
0.0
 30
-66.5739974975586
 70
   192
  0
VERTEX
  5
2EA
  8
0
 10
130.968994140625
 20
-0.0659999996423721
 30
-62.47100067138672
 70
   192
  0
VERTEX
  5
2EB
  8
0
 10
133.2489929199219
 20
0.0
 30
-71.61100006103516
 70
   192
  0
VERTEX
  5
2EC
  8
0
 10
134.1049957275391
 20
0.0
 30
-73.91899871826172
 70
   192
  0
VERTEX
  5
2ED
  8
0
 10
135.2649993896484
 20
-5.247000217437744
 30
-74.8499984741211
 70
   192
  0
VERTEX
  5
2EE
  8
0
 10
135.4320068359375
 20
0.0
 30
-75.8479995727539
 70
   192
  0
VERTEX
  5
2EF
  8
0
 10
134.97900390625
 20
-9.840999603271484
 30
-71.83100128173828
 70
   192
  0
VERTEX
  5
2F0
  8
0
 10
134.4830017089844
 20
-12.99100017547607
 30
-67.37899780273438
 70
   192
  0
VERTEX
  5
2F1
  8
0
 10
132.6380004882812
 20
-11.90900039672852
 30
-62.35300064086914
 70
   192
  0
VERTEX
  5
2F2
  8
0
 10
132.8119964599609
 20
-12.20199966430664
 30
-62.34799957275391
 70
   192
  0
VERTEX
  5
2F3
  8
0
 10
133.9100036621094
 20
-14.04800033569336
 30
-62.31900024414062
 70
   192
  0
VERTEX
  5
2F4
  8
0
 10
131.5070037841797
 20
-7.528999805450439
 30
-62.38199996948242
 70
   192
  0
VERTEX
  5
2F5
  8
0
 10
132.3309936523438
 20
-10.72200012207031
 30
-62.36100006103516
 70
   192
  0
VERTEX
  5
2F6
  8
0
 10
131.1089935302734
 20
-2.145999908447266
 30
-62.39300155639648
 70
   192
  0
VERTEX
  5
2F7
  8
0
 10
131.3869934082031
 20
-5.90500020980835
 30
-62.3849983215332
 70
   192
  0
VERTEX
  5
2F8
  8
0
 10
137.8849945068359
 20
0.0
 30
-77.86599731445312
 70
   192
  0
VERTEX
  5
2F9
  8
0
 10
138.3040008544922
 20
0.0
 30
-77.9739990234375
 70
   192
  0
VERTEX
  5
2FA
  8
0
 10
138.2969970703125
 20
-1.085000038146973
 30
-77.93699645996094
 70
   192
  0
VERTEX
  5
2FB
  8
0
 10
135.9810028076172
 20
0.0
 30
-76.6449966430664
 70
   192
  0
VERTEX
  5
2FC
  8
0
 10
138.1829986572266
 20
-4.988999843597412
 30
-77.17900085449219
 70
   192
  0
VERTEX
  5
2FD
  8
0
 10
135.4450073242188
 20
0.0
 30
-75.86599731445312
 70
   192
  0
VERTEX
  5
2FE
  8
0
 10
138.1109924316406
 20
-6.011000156402588
 30
-76.6969985961914
 70
   192
  0
VERTEX
  5
2FF
  8
0
 10
137.9329986572266
 20
-8.569999694824219
 30
-75.49099731445312
 70
   192
  0
VERTEX
  5
300
  8
0
 10
138.1069946289062
 20
-6.067999839782715
 30
-76.66999816894531
 70
   192
  0
VERTEX
  5
301
  8
0
 10
137.0879974365234
 20
-13.90999984741211
 30
-69.84200286865234
 70
   192
  0
VERTEX
  5
302
  8
0
 10
137.0850067138672
 20
-13.92399978637695
 30
-69.8219985961914
 70
   192
  0
VERTEX
  5
303
  8
0
 10
137.5229949951172
 20
-11.82600021362305
 30
-72.75
 70
   192
  0
VERTEX
  5
304
  8
0
 10
137.5599975585938
 20
-11.53400039672852
 30
-72.99600219726562
 70
   192
  0
VERTEX
  5
305
  8
0
 10
137.5980072021484
 20
-11.22700023651123
 30
-73.25399780273438
 70
   192
  0
VERTEX
  5
306
  8
0
 10
134.2890014648438
 20
-14.6870002746582
 30
-62.31000137329102
 70
   192
  0
VERTEX
  5
307
  8
0
 10
136.5399932861328
 20
-15.36999988555908
 30
-66.1760025024414
 70
   192
  0
VERTEX
  5
308
  8
0
 10
135.9559936523438
 20
-15.88300037384033
 30
-62.26599884033203
 70
   192
  0
VERTEX
  5
309
  8
0
 10
136.8329925537109
 20
-14.60700035095215
 30
-68.13099670410156
 70
   192
  0
VERTEX
  5
30A
  8
0
 10
136.5549926757812
 20
-15.35700035095215
 30
-66.2760009765625
 70
   192
  0
VERTEX
  5
30B
  8
0
 10
130.9579925537109
 20
-0.1000000014901161
 30
-62.39699935913086
 70
   192
  0
VERTEX
  5
30C
  8
0
 62
     9
 10
0.0
 20
0.0
 30
0.0
 70
   128
 71
     3
 72
     2
 73
     1
  0
VERTEX
  5
30D
  8
0
 62
     9
 10
0.0
 20
0.0
 30
0.0
 70
   128
 71
     6
 72
     5
 73
     4
  0
VERTEX
  5
30E
  8
0
 62
     9
 10
0.0
 20
0.0
 30
0.0
 70
   128
 71
     4
 72
     7
 73
     6
  0
VERTEX
  5
30F
  8
0
 62
     9
 10
0.0
 20
0.0
 30
0.0
 70
   128
 71
     7
 72
     8
 73
     6
  0
VERTEX
  5
310
  8
0
 62
     9
 10
0.0
 20
0.0
 30
0.0
 70
   128
 71
     9
 72
     1
 73
     7
  0
VERTEX
  5
311
  8
0
 62
     9
 10
0.0
 20
0.0
 30
0.0
 70
   128
 71
    11
 72
    10
 73
     4
  0
VERTEX
  5
312
  8
0
 62
     9
 10
0.0
 20
0.0
 30
0.0
 70
   128
 71
     4
 72
    12
 73
    11
  0
VERTEX
  5
313
  8
0
 62
     9
 10
0.0
 20
0.0
 30
0.0
 70
   128
 71
    13
 72
     9
 73
     4
  0
VERTEX
  5
314
  8
0
 62
     9
 10
0.0
 20
0.0
 30
0.0
 70
   128
 71
    15
 72
    14
 73
     7
  0
VERTEX
  5
315
  8
0
 62
     9
 10
0.0
 20
0.0
 30
0.0
 70
   128
 71
     7
 72
    16
 73
    15
  0
VERTEX
  5
316
  8
0
 62
     9
 10
0.0
 20
0.0
 30
0.0
 70
   128
 71
    16
 72
    17
 73
    15
  0
VERTEX
  5
317
  8
0
 62
     9
 10
0.0
 20
0.0
 30
0.0
 70
   128
 71
     7
 72
     1
 73
    18
  0
VERTEX
  5
318
  8
0
 62
     9
 10
0.0
 20
0.0
 30
0.0
 70
   128
 71
     1
 72
     2
 73
    19
  0
VERTEX
  5
319
  8
0
 62
     9
 10
0.0
 20
0.0
 30
0.0
 70
   128
 71
    20
 72
    19
 73
     2
  0
VERTEX
  5
31A
  8
0
 62
     9
 10
0.0
 20
0.0
 30
0.0
 70
   128
 71
    20
 72
    21
 73
    19
  0
VERTEX
  5
31B
  8
0
 62
     9
 10
0.0
 20
0.0
 30
0.0
 70
   128
 71
    21
 72
    22
 73
    19
  0
VERTEX
  5
31C
  8
0
 62
     9
 10
0.0
 20
0.0
 30
0.0
 70
   128
 71
    23
 72
     2
 73
     3
  0
VERTEX
  5
31D
  8
0
 62
     9
 10
0.0
 20
0.0
 30
0.0
 70
   128
 71
    23
 72
    24
 73
     2
  0
VERTEX
  5
31E
  8
0
 62
     9
 10
0.0
 20
0.0
 30
0.0
 70
   128
 71
    25
 72
     9
 73
    13
  0
VERTEX
  5
31F
  8
0
 62
     9
 10
0.0
 20
0.0
 30
0.0
 70
   128
 71
     3
 72
     9
 73
    25
  0
VERTEX
  5
320
  8
0
 62
     9
 10
0.0
 20
0.0
 30
0.0
 70
   128
 71
    25
 72
    26
 73
     3
  0
VERTEX
  5
321
  8
0
 62
     9
 10
0.0
 20
0.0
 30
0.0
 70
   128
 71
    29
 72
    28
 73
    27
  0
VERTEX
  5
322
  8
0
 62
     9
 10
0.0
 20
0.0
 30
0.0
 70
   128
 71
    31
 72
    27
 73
    30
  0
VERTEX
  5
323
  8
0
 62
     9
 10
0.0
 20
0.0
 30
0.0
 70
   128
 71
    30
 72
    32
 73
    16
  0
VERTEX
  5
324
  8
0
 62
     9
 10
0.0
 20
0.0
 30
0.0
 70
   128
 71
    16
 72
    33
 73
    30
  0
VERTEX
  5
325
  8
0
 62
     9
 10
0.0
 20
0.0
 30
0.0
 70
   128
 71
    30
 72
    33
 73
    31
  0
VERTEX
  5
326
  8
0
 62
     9
 10
0.0
 20
0.0
 30
0.0
 70
   128
 71
    27
 72
    31
 73
    29
  0
VERTEX
  5
327
  8
0
 62
     9
 10
0.0
 20
0.0
 30
0.0
 70
   128
 71
    34
 72
    16
 73
    18
  0
VERTEX
  5
328
  8
0
 62
     9
 10
0.0
 20
0.0
 30
0.0
 70
   128
 71
    34
 72
    35
 73
    16
  0
VERTEX
  5
329
  8
0
 62
     9
 10
0.0
 20
0.0
 30
0.0
 70
   128
 71
    37
 72
    36
 73
    19
  0
VERTEX
  5
32A
  8
0
 62
     9
 10
0.0
 20
0.0
 30
0.0
 70
   128
 71
    36
 72
    38
 73
    18
  0
VERTEX
  5
32B
  8
0
 62
     9
 10
0.0
 20
0.0
 30
0.0
 70
   128
 71
    38
 72
    39
 73
    18
  0
VERTEX
  5
32C
  8
0
 62
     9
 10
0.0
 20
0.0
 30
0.0
 70
   128
 71
    18
 72
    19
 73
    36
  0
VERTEX
  5
32D
  8
0
 62
     9
 10
0.0
 20
0.0
 30
0.0
 70
   128
 71
    39
 72
    40
 73
    18
  0
VERTEX
  5
32E
  8
0
 62
     9
 10
0.0
 20
0.0
 30
0.0
 70
   128
 71
    42
 72
    19
 73
    41
  0
VERTEX
  5
32F
  8
0
 62
     9
 10
0.0
 20
0.0
 30
0.0
 70
   128
 71
    41
 72
    43
 73
    42
  0
VERTEX
  5
330
  8
0
 62
     9
 10
0.0
 20
0.0
 30
0.0
 70
   128
 71
    45
 72
    44
 73
    19
  0
VERTEX
  5
331
  8
0
 62
     9
 10
0.0
 20
0.0
 30
0.0
 70
   128
 71
    19
 72
    42
 73
    45
  0
VERTEX
  5
332
  8
0
 62
     9
 10
0.0
 20
0.0
 30
0.0
 70
   128
 71
    19
 72
    22
 73
    41
  0
VERTEX
  5
333
  8
0
 62
     9
 10
0.0
 20
0.0
 30
0.0
 70
   128
 71
    19
 72
    44
 73
    37
  0
VERTEX
  5
334
  8
0
 62
     9
 10
0.0
 20
0.0
 30
0.0
 70
   128
 71
    18
 72
    40
 73
    34
  0
VERTEX
  5
335
  8
0
 62
     9
 10
0.0
 20
0.0
 30
0.0
 70
   128
 71
    16
 72
    35
 73
    33
  0
VERTEX
  5
336
  8
0
 62
     9
 10
0.0
 20
0.0
 30
0.0
 70
   128
 71
    13
 72
    46
 73
    25
  0
VERTEX
  5
337
  8
0
 62
     9
 10
0.0
 20
0.0
 30
0.0
 70
   128
 71
     3
 72
    26
 73
    23
  0
VERTEX
  5
338
  8
0
 62
     9
 10
0.0
 20
0.0
 30
0.0
 70
   128
 71
     2
 72
    24
 73
    20
  0
VERTEX
  5
339
  8
0
 62
     9
 10
0.0
 20
0.0
 30
0.0
 70
   128
 71
    19
 72
    18
 73
     1
  0
VERTEX
  5
33A
  8
0
 62
     9
 10
0.0
 20
0.0
 30
0.0
 70
   128
 71
    18
 72
    16
 73
     7
  0
VERTEX
  5
33B
  8
0
 62
     9
 10
0.0
 20
0.0
 30
0.0
 70
   128
 71
    16
 72
    32
 73
    17
  0
VERTEX
  5
33C
  8
0
 62
     9
 10
0.0
 20
0.0
 30
0.0
 70
   128
 71
     4
 72
    10
 73
    13
  0
VERTEX
  5
33D
  8
0
 62
     9
 10
0.0
 20
0.0
 30
0.0
 70
   128
 71
     4
 72
     5
 73
    12
  0
VERTEX
  5
33E
  8
0
 62
     9
 10
0.0
 20
0.0
 30
0.0
 70
   128
 71
     7
 72
     4
 73
     9
  0
VERTEX
  5
33F
  8
0
 62
     9
 10
0.0
 20
0.0
 30
0.0
 70
   128
 71
     7
 72
    14
 73
     8
  0
VERTEX
  5
340
  8
0
 62
     9
 10
0.0
 20
0.0
 30
0.0
 70
   128
 71
     1
 72
     9
 73
     3
  0
SEQEND
  5
341
  8
0
 62
     9
  0
ENDBLK
  5
344
  8
0
  0
BLOCK
  8
0
  2
E3_NODE_10_
 70
     0
 10
0.0
 20
0.0
 30
0.0
  3
E3_NODE_10_
  1

  0
POLYLINE
  5
346
  8
0
 62
     9
 66
     1
 10
0.0
 20
0.0
 30
0.0
 70
    64
 71
     6
 72
     4
  0
VERTEX
  5
347
  8
0
 10
129.2519989013672
 20
-15.88300037384033
 30
-17.0939998626709
 70
   192
  0
VERTEX
  5
348
  8
0
 10
129.22900390625
 20
-15.88300037384033
 30
-17.09499931335449
 70
   192
  0
VERTEX
  5
349
  8
0
 10
135.9559936523438
 20
-15.88300037384033
 30
-62.26599884033203
 70
   192
  0
VERTEX
  5
34A
  8
0
 10
135.97900390625
 20
-15.88300037384033
 30
-62.26499938964844
 70
   192
  0
VERTEX
  5
34B
  8
0
 10
136.0030059814453
 20
-15.88300037384033
 30
-62.26499938964844
 70
   192
  0
VERTEX
  5
34C
  8
0
 10
129.2050018310547
 20
-15.88300037384033
 30
-17.09499931335449
 70
   192
  0
VERTEX
  5
34D
  8
0
 62
     9
 10
0.0
 20
0.0
 30
0.0
 70
   128
 71
     3
 72
     2
 73
     1
  0
VERTEX
  5
34E
  8
0
 62
     9
 10
0.0
 20
0.0
 30
0.0
 70
   128
 71
     1
 72
     4
 73
     3
  0
VERTEX
  5
34F
  8
0
 62
     9
 10
0.0
 20
0.0
 30
0.0
 70
   128
 71
     1
 72
     5
 73
     4
  0
VERTEX
  5
350
  8
0
 62
     9
 10
0.0
 20
0.0
 30
0.0
 70
   128
 71
     3
 72
     6
 73
     2
  0
SEQEND
  5
351
  8
0
 62
     9
  0
ENDBLK
  5
354
  8
0
  0
BLOCK
  8
0
  2
E3_NODE_11_
 70
     0
 10
0.0
 20
0.0
 30
0.0
  3
E3_NODE_11_
  1

  0
POLYLINE
  5
356
  8
0
 62
     9
 66
     1
 10
0.0
 20
0.0
 30
0.0
 70
    64
 71
    35
 72
    36
  0
VERTEX
  5
357
  8
0
 10
137.9550018310547
 20
-11.12100028991699
 30
-73.26699829101562
 70
   192
  0
VERTEX
  5
358
  8
0
 10
138.0829925537109
 20
-10.75899982452393
 30
-73.13800048828125
 70
   192
  0
VERTEX
  5
359
  8
0
 10
137.6629943847656
 20
-13.05900001525879
 30
-70.33000183105469
 70
   192
  0
VERTEX
  5
35A
  8
0
 10
137.2030029296875
 20
-14.55500030517578
 30
-68.19100189208984
 70
   192
  0
VERTEX
  5
35B
  8
0
 10
138.4530029296875
 20
-6.01200008392334
 30
-76.63400268554688
 70
   192
  0
VERTEX
  5
35C
  8
0
 10
138.4490051269531
 20
-7.402999877929688
 30
-75.58799743652344
 70
   192
  0
VERTEX
  5
35D
  8
0
 10
138.5379943847656
 20
-5.836999893188477
 30
-76.18399810791016
 70
   192
  0
VERTEX
  5
35E
  8
0
 10
136.3179931640625
 20
-15.74899959564209
 30
-62.21699905395508
 70
   192
  0
VERTEX
  5
35F
  8
0
 10
136.3170013427734
 20
-15.75100040435791
 30
-62.21699905395508
 70
   192
  0
VERTEX
  5
360
  8
0
 10
137.0890045166016
 20
-14.80900001525879
 30
-66.49099731445312
 70
   192
  0
VERTEX
  5
361
  8
0
 10
136.447998046875
 20
-15.43299961090088
 30
-62.19800186157227
 70
   192
  0
VERTEX
  5
362
  8
0
 10
137.3130035400391
 20
-14.12600040435791
 30
-67.98999786376953
 70
   192
  0
VERTEX
  5
363
  8
0
 10
136.572998046875
 20
-15.34899997711182
 30
-66.1729965209961
 70
   192
  0
VERTEX
  5
364
  8
0
 10
136.6109924316406
 20
-15.3129997253418
 30
-66.43399810791016
 70
   192
  0
VERTEX
  5
365
  8
0
 10
136.0030059814453
 20
-15.88300037384033
 30
-62.26499938964844
 70
   192
  0
VERTEX
  5
366
  8
0
 10
137.1790008544922
 20
-13.63300037384033
 30
-70.3239974975586
 70
   192
  0
VERTEX
  5
367
  8
0
 10
137.1049957275391
 20
-13.85200023651123
 30
-69.81800079345703
 70
   192
  0
VERTEX
  5
368
  8
0
 10
137.5679931640625
 20
-11.60499954223633
 30
-72.98999786376953
 70
   192
  0
VERTEX
  5
369
  8
0
 10
137.572998046875
 20
-11.56099987030029
 30
-73.0270004272461
 70
   192
  0
VERTEX
  5
36A
  8
0
 10
136.9750061035156
 20
-14.23700046539307
 30
-68.92500305175781
 70
   192
  0
VERTEX
  5
36B
  8
0
 10
136.8730010986328
 20
-14.53699970245361
 30
-68.23100280761719
 70
   192
  0
VERTEX
  5
36C
  8
0
 10
137.9309997558594
 20
-8.588000297546387
 30
-75.47899627685547
 70
   192
  0
VERTEX
  5
36D
  8
0
 10
137.9329986572266
 20
-8.569999694824219
 30
-75.49099731445312
 70
   192
  0
VERTEX
  5
36E
  8
0
 10
137.6219940185547
 20
-11.16899967193604
 30
-73.36000061035156
 70
   192
  0
VERTEX
  5
36F
  8
0
 10
137.8970031738281
 20
-8.942999839782715
 30
-75.24700164794922
 70
   192
  0
VERTEX
  5
370
  8
0
 10
138.1069946289062
 20
-6.067999839782715
 30
-76.66999816894531
 70
   192
  0
VERTEX
  5
371
  8
0
 10
138.2969970703125
 20
-1.085000038146973
 30
-77.93699645996094
 70
   192
  0
VERTEX
  5
372
  8
0
 10
138.3040008544922
 20
0.0
 30
-77.9739990234375
 70
   192
  0
VERTEX
  5
373
  8
0
 10
138.3899993896484
 20
0.0
 30
-77.96099853515625
 70
   192
  0
VERTEX
  5
374
  8
0
 10
138.6269989013672
 20
0.0
 30
-77.81199645996094
 70
   192
  0
VERTEX
  5
375
  8
0
 10
138.1829986572266
 20
-4.988999843597412
 30
-77.17900085449219
 70
   192
  0
VERTEX
  5
376
  8
0
 10
138.1109924316406
 20
-6.011000156402588
 30
-76.6969985961914
 70
   192
  0
VERTEX
  5
377
  8
0
 10
138.6649932861328
 20
-3.599999904632568
 30
-77.03700256347656
 70
   192
  0
VERTEX
  5
378
  8
0
 10
138.6309967041016
 20
0.0
 30
-77.80999755859375
 70
   192
  0
VERTEX
  5
379
  8
0
 10
138.7279968261719
 20
0.0
 30
-77.45800018310547
 70
   192
  0
VERTEX
  5
37A
  8
0
 62
     9
 10
0.0
 20
0.0
 30
0.0
 70
   128
 71
     3
 72
     2
 73
     1
  0
VERTEX
  5
37B
  8
0
 62
     9
 10
0.0
 20
0.0
 30
0.0
 70
   128
 71
     1
 72
     4
 73
     3
  0
VERTEX
  5
37C
  8
0
 62
     9
 10
0.0
 20
0.0
 30
0.0
 70
   128
 71
     6
 72
     5
 73
     1
  0
VERTEX
  5
37D
  8
0
 62
     9
 10
0.0
 20
0.0
 30
0.0
 70
   128
 71
     6
 72
     7
 73
     5
  0
VERTEX
  5
37E
  8
0
 62
     9
 10
0.0
 20
0.0
 30
0.0
 70
   128
 71
     9
 72
     8
 73
     4
  0
VERTEX
  5
37F
  8
0
 62
     9
 10
0.0
 20
0.0
 30
0.0
 70
   128
 71
    10
 72
     4
 73
     8
  0
VERTEX
  5
380
  8
0
 62
     9
 10
0.0
 20
0.0
 30
0.0
 70
   128
 71
     8
 72
    11
 73
    10
  0
VERTEX
  5
381
  8
0
 62
     9
 10
0.0
 20
0.0
 30
0.0
 70
   128
 71
    10
 72
    12
 73
     4
  0
VERTEX
  5
382
  8
0
 62
     9
 10
0.0
 20
0.0
 30
0.0
 70
   128
 71
    14
 72
    13
 73
     4
  0
VERTEX
  5
383
  8
0
 62
     9
 10
0.0
 20
0.0
 30
0.0
 70
   128
 71
    13
 72
    15
 73
     9
  0
VERTEX
  5
384
  8
0
 62
     9
 10
0.0
 20
0.0
 30
0.0
 70
   128
 71
     9
 72
     4
 73
    13
  0
VERTEX
  5
385
  8
0
 62
     9
 10
0.0
 20
0.0
 30
0.0
 70
   128
 71
    16
 72
     4
 73
     1
  0
VERTEX
  5
386
  8
0
 62
     9
 10
0.0
 20
0.0
 30
0.0
 70
   128
 71
    16
 72
    17
 73
     4
  0
VERTEX
  5
387
  8
0
 62
     9
 10
0.0
 20
0.0
 30
0.0
 70
   128
 71
     1
 72
    18
 73
    16
  0
VERTEX
  5
388
  8
0
 62
     9
 10
0.0
 20
0.0
 30
0.0
 70
   128
 71
     1
 72
    19
 73
    18
  0
VERTEX
  5
389
  8
0
 62
     9
 10
0.0
 20
0.0
 30
0.0
 70
   128
 71
    17
 72
    20
 73
     4
  0
VERTEX
  5
38A
  8
0
 62
     9
 10
0.0
 20
0.0
 30
0.0
 70
   128
 71
    20
 72
    21
 73
     4
  0
VERTEX
  5
38B
  8
0
 62
     9
 10
0.0
 20
0.0
 30
0.0
 70
   128
 71
    23
 72
    22
 73
     5
  0
VERTEX
  5
38C
  8
0
 62
     9
 10
0.0
 20
0.0
 30
0.0
 70
   128
 71
    25
 72
    24
 73
     1
  0
VERTEX
  5
38D
  8
0
 62
     9
 10
0.0
 20
0.0
 30
0.0
 70
   128
 71
     1
 72
     5
 73
    25
  0
VERTEX
  5
38E
  8
0
 62
     9
 10
0.0
 20
0.0
 30
0.0
 70
   128
 71
     5
 72
    22
 73
    25
  0
VERTEX
  5
38F
  8
0
 62
     9
 10
0.0
 20
0.0
 30
0.0
 70
   128
 71
     5
 72
    26
 73
    23
  0
VERTEX
  5
390
  8
0
 62
     9
 10
0.0
 20
0.0
 30
0.0
 70
   128
 71
    29
 72
    28
 73
    27
  0
VERTEX
  5
391
  8
0
 62
     9
 10
0.0
 20
0.0
 30
0.0
 70
   128
 71
    31
 72
     5
 73
    30
  0
VERTEX
  5
392
  8
0
 62
     9
 10
0.0
 20
0.0
 30
0.0
 70
   128
 71
    31
 72
    32
 73
     5
  0
VERTEX
  5
393
  8
0
 62
     9
 10
0.0
 20
0.0
 30
0.0
 70
   128
 71
    30
 72
    27
 73
    31
  0
VERTEX
  5
394
  8
0
 62
     9
 10
0.0
 20
0.0
 30
0.0
 70
   128
 71
    34
 72
    30
 73
    33
  0
VERTEX
  5
395
  8
0
 62
     9
 10
0.0
 20
0.0
 30
0.0
 70
   128
 71
    33
 72
    35
 73
    34
  0
VERTEX
  5
396
  8
0
 62
     9
 10
0.0
 20
0.0
 30
0.0
 70
   128
 71
    30
 72
     5
 73
    33
  0
VERTEX
  5
397
  8
0
 62
     9
 10
0.0
 20
0.0
 30
0.0
 70
   128
 71
     5
 72
     7
 73
    33
  0
VERTEX
  5
398
  8
0
 62
     9
 10
0.0
 20
0.0
 30
0.0
 70
   128
 71
    27
 72
    30
 73
    29
  0
VERTEX
  5
399
  8
0
 62
     9
 10
0.0
 20
0.0
 30
0.0
 70
   128
 71
     5
 72
    32
 73
    26
  0
VERTEX
  5
39A
  8
0
 62
     9
 10
0.0
 20
0.0
 30
0.0
 70
   128
 71
     1
 72
    24
 73
    19
  0
VERTEX
  5
39B
  8
0
 62
     9
 10
0.0
 20
0.0
 30
0.0
 70
   128
 71
     4
 72
    21
 73
    14
  0
VERTEX
  5
39C
  8
0
 62
     9
 10
0.0
 20
0.0
 30
0.0
 70
   128
 71
     1
 72
     2
 73
     6
  0
VERTEX
  5
39D
  8
0
 62
     9
 10
0.0
 20
0.0
 30
0.0
 70
   128
 71
     4
 72
    12
 73
     3
  0
SEQEND
  5
39E
  8
0
 62
     9
  0
ENDBLK
  5
3A1
  8
0
  0
BLOCK
  8
0
  2
E3_NODE_12_
 70
     0
 10
0.0
 20
0.0
 30
0.0
  3
E3_NODE_12_
  1

  0
POLYLINE
  5
3A3
  8
0
 62
     9
 66
     1
 10
0.0
 20
0.0
 30
0.0
 70
    64
 71
    48
 72
    55
  0
VERTEX
  5
3A4
  8
0
 10
133.0630035400391
 20
3.812000036239624
 30
-70.81500244140625
 70
   192
  0
VERTEX
  5
3A5
  8
0
 10
131.6600036621094
 20
2.049000024795532
 30
-66.15799713134766
 70
   192
  0
VERTEX
  5
3A6
  8
0
 10
131.5599975585938
 20
3.960000038146973
 30
-65.01499938964844
 70
   192
  0
VERTEX
  5
3A7
  8
0
 10
132.8999938964844
 20
7.321000099182129
 30
-68.62100219726562
 70
   192
  0
VERTEX
  5
3A8
  8
0
 10
131.4179992675781
 20
5.317999839782715
 30
-63.58700180053711
 70
   192
  0
VERTEX
  5
3A9
  8
0
 10
134.4759979248047
 20
12.96500015258789
 30
-67.4020004272461
 70
   192
  0
VERTEX
  5
3AA
  8
0
 10
134.9709930419922
 20
9.782999992370605
 30
-71.86399841308594
 70
   192
  0
VERTEX
  5
3AB
  8
0
 10
135.2550048828125
 20
5.150000095367432
 30
-74.87100219726562
 70
   192
  0
VERTEX
  5
3AC
  8
0
 10
130.9660034179688
 20
0.0740000009536743
 30
-62.45199966430664
 70
   192
  0
VERTEX
  5
3AD
  8
0
 10
130.9609985351562
 20
0.0900000035762787
 30
-62.41799926757812
 70
   192
  0
VERTEX
  5
3AE
  8
0
 10
130.9579925537109
 20
0.1000000014901161
 30
-62.39699935913086
 70
   192
  0
VERTEX
  5
3AF
  8
0
 10
130.9620056152344
 20
0.6579999923706055
 30
-62.39699935913086
 70
   192
  0
VERTEX
  5
3B0
  8
0
 10
132.6119995117188
 20
9.788000106811523
 30
-65.55699920654297
 70
   192
  0
VERTEX
  5
3B1
  8
0
 10
131.4770050048828
 20
7.109000205993652
 30
-62.38299942016602
 70
   192
  0
VERTEX
  5
3B2
  8
0
 10
131.5140075683594
 20
7.573999881744385
 30
-62.38199996948242
 70
   192
  0
VERTEX
  5
3B3
  8
0
 10
131.3739929199219
 20
5.821000099182129
 30
-62.38600158691406
 70
   192
  0
VERTEX
  5
3B4
  8
0
 10
132.7250061035156
 20
12.125
 30
-62.34999847412109
 70
   192
  0
VERTEX
  5
3B5
  8
0
 10
132.3390045166016
 20
10.67399978637695
 30
-62.36100006103516
 70
   192
  0
VERTEX
  5
3B6
  8
0
 10
133.7319946289062
 20
13.82100009918213
 30
-62.32400131225586
 70
   192
  0
VERTEX
  5
3B7
  8
0
 10
136.5410003662109
 20
15.37199974060059
 30
-66.177001953125
 70
   192
  0
VERTEX
  5
3B8
  8
0
 10
136.552001953125
 20
15.36200046539307
 30
-66.25499725341797
 70
   192
  0
VERTEX
  5
3B9
  8
0
 10
134.1600036621094
 20
14.54199981689453
 30
-62.3129997253418
 70
   192
  0
VERTEX
  5
3BA
  8
0
 10
135.9559936523438
 20
15.88300037384033
 30
-62.26599884033203
 70
   192
  0
VERTEX
  5
3BB
  8
0
 10
133.8699951171875
 20
14.05399990081787
 30
-62.32099914550781
 70
   192
  0
VERTEX
  5
3BC
  8
0
 10
137.5619964599609
 20
11.53499984741211
 30
-73.00800323486328
 70
   192
  0
VERTEX
  5
3BD
  8
0
 10
137.6020050048828
 20
11.32800006866455
 30
-73.2750015258789
 70
   192
  0
VERTEX
  5
3BE
  8
0
 10
137.1430053710938
 20
13.70300006866455
 30
-70.20800018310547
 70
   192
  0
VERTEX
  5
3BF
  8
0
 10
137.0859985351562
 20
13.86400032043457
 30
-69.8239974975586
 70
   192
  0
VERTEX
  5
3C0
  8
0
 10
136.8359985351562
 20
14.56599998474121
 30
-68.1520004272461
 70
   192
  0
VERTEX
  5
3C1
  8
0
 10
137.9329986572266
 20
8.569999694824219
 30
-75.49099731445312
 70
   192
  0
VERTEX
  5
3C2
  8
0
 10
138.0090026855469
 20
7.697999954223633
 30
-76.00599670410156
 70
   192
  0
VERTEX
  5
3C3
  8
0
 10
137.6139984130859
 20
11.2209997177124
 30
-73.36100006103516
 70
   192
  0
VERTEX
  5
3C4
  8
0
 10
138.1060028076172
 20
6.004000186920166
 30
-76.66100311279297
 70
   192
  0
VERTEX
  5
3C5
  8
0
 10
138.1089935302734
 20
5.958000183105469
 30
-76.6780014038086
 70
   192
  0
VERTEX
  5
3C6
  8
0
 10
135.9810028076172
 20
0.0
 30
-76.6449966430664
 70
   192
  0
VERTEX
  5
3C7
  8
0
 10
138.2350006103516
 20
3.770999908447266
 30
-77.52400207519531
 70
   192
  0
VERTEX
  5
3C8
  8
0
 10
137.8849945068359
 20
0.0
 30
-77.86599731445312
 70
   192
  0
VERTEX
  5
3C9
  8
0
 10
138.3040008544922
 20
0.0
 30
-77.9739990234375
 70
   192
  0
VERTEX
  5
3CA
  8
0
 10
135.4450073242188
 20
0.0
 30
-75.86599731445312
 70
   192
  0
VERTEX
  5
3CB
  8
0
 10
134.1049957275391
 20
0.0
 30
-73.91899871826172
 70
   192
  0
VERTEX
  5
3CC
  8
0
 10
135.4320068359375
 20
0.0
 30
-75.8479995727539
 70
   192
  0
VERTEX
  5
3CD
  8
0
 10
133.2489929199219
 20
0.0
 30
-71.61100006103516
 70
   192
  0
VERTEX
  5
3CE
  8
0
 10
132.2729949951172
 20
0.0
 30
-68.97599792480469
 70
   192
  0
VERTEX
  5
3CF
  8
0
 10
133.2310028076172
 20
0.0
 30
-71.55999755859375
 70
   192
  0
VERTEX
  5
3D0
  8
0
 10
131.8059997558594
 20
0.0
 30
-66.64800262451172
 70
   192
  0
VERTEX
  5
3D1
  8
0
 10
131.7910003662109
 20
0.0
 30
-66.5739974975586
 70
   192
  0
VERTEX
  5
3D2
  8
0
 10
130.9730072021484
 20
0.0
 30
-62.49599838256836
 70
   192
  0
VERTEX
  5
3D3
  8
0
 10
130.968994140625
 20
0.0659999996423721
 30
-62.47100067138672
 70
   192
  0
VERTEX
  5
3D4
  8
0
 62
     9
 10
0.0
 20
0.0
 30
0.0
 70
   128
 71
     3
 72
     2
 73
     1
  0
VERTEX
  5
3D5
  8
0
 62
     9
 10
0.0
 20
0.0
 30
0.0
 70
   128
 71
     5
 72
     3
 73
     4
  0
VERTEX
  5
3D6
  8
0
 62
     9
 10
0.0
 20
0.0
 30
0.0
 70
   128
 71
     4
 72
     7
 73
     6
  0
VERTEX
  5
3D7
  8
0
 62
     9
 10
0.0
 20
0.0
 30
0.0
 70
   128
 71
     1
 72
     8
 73
     7
  0
VERTEX
  5
3D8
  8
0
 62
     9
 10
0.0
 20
0.0
 30
0.0
 70
   128
 71
    10
 72
     9
 73
     3
  0
VERTEX
  5
3D9
  8
0
 62
     9
 10
0.0
 20
0.0
 30
0.0
 70
   128
 71
    12
 72
    11
 73
    10
  0
VERTEX
  5
3DA
  8
0
 62
     9
 10
0.0
 20
0.0
 30
0.0
 70
   128
 71
    10
 72
     5
 73
    12
  0
VERTEX
  5
3DB
  8
0
 62
     9
 10
0.0
 20
0.0
 30
0.0
 70
   128
 71
    15
 72
    14
 73
    13
  0
VERTEX
  5
3DC
  8
0
 62
     9
 10
0.0
 20
0.0
 30
0.0
 70
   128
 71
    14
 72
    16
 73
     5
  0
VERTEX
  5
3DD
  8
0
 62
     9
 10
0.0
 20
0.0
 30
0.0
 70
   128
 71
     5
 72
    13
 73
    14
  0
VERTEX
  5
3DE
  8
0
 62
     9
 10
0.0
 20
0.0
 30
0.0
 70
   128
 71
    13
 72
     6
 73
    17
  0
VERTEX
  5
3DF
  8
0
 62
     9
 10
0.0
 20
0.0
 30
0.0
 70
   128
 71
    17
 72
    18
 73
    13
  0
VERTEX
  5
3E0
  8
0
 62
     9
 10
0.0
 20
0.0
 30
0.0
 70
   128
 71
     6
 72
    19
 73
    17
  0
VERTEX
  5
3E1
  8
0
 62
     9
 10
0.0
 20
0.0
 30
0.0
 70
   128
 71
    21
 72
    20
 73
     6
  0
VERTEX
  5
3E2
  8
0
 62
     9
 10
0.0
 20
0.0
 30
0.0
 70
   128
 71
    20
 72
    23
 73
    22
  0
VERTEX
  5
3E3
  8
0
 62
     9
 10
0.0
 20
0.0
 30
0.0
 70
   128
 71
    22
 72
    24
 73
     6
  0
VERTEX
  5
3E4
  8
0
 62
     9
 10
0.0
 20
0.0
 30
0.0
 70
   128
 71
    22
 72
     6
 73
    20
  0
VERTEX
  5
3E5
  8
0
 62
     9
 10
0.0
 20
0.0
 30
0.0
 70
   128
 71
    26
 72
    25
 73
     7
  0
VERTEX
  5
3E6
  8
0
 62
     9
 10
0.0
 20
0.0
 30
0.0
 70
   128
 71
    27
 72
     6
 73
     7
  0
VERTEX
  5
3E7
  8
0
 62
     9
 10
0.0
 20
0.0
 30
0.0
 70
   128
 71
    27
 72
    28
 73
     6
  0
VERTEX
  5
3E8
  8
0
 62
     9
 10
0.0
 20
0.0
 30
0.0
 70
   128
 71
     7
 72
    25
 73
    27
  0
VERTEX
  5
3E9
  8
0
 62
     9
 10
0.0
 20
0.0
 30
0.0
 70
   128
 71
    28
 72
    29
 73
     6
  0
VERTEX
  5
3EA
  8
0
 62
     9
 10
0.0
 20
0.0
 30
0.0
 70
   128
 71
    31
 72
    30
 73
     8
  0
VERTEX
  5
3EB
  8
0
 62
     9
 10
0.0
 20
0.0
 30
0.0
 70
   128
 71
    30
 72
    32
 73
     7
  0
VERTEX
  5
3EC
  8
0
 62
     9
 10
0.0
 20
0.0
 30
0.0
 70
   128
 71
     7
 72
     8
 73
    30
  0
VERTEX
  5
3ED
  8
0
 62
     9
 10
0.0
 20
0.0
 30
0.0
 70
   128
 71
     8
 72
    33
 73
    31
  0
VERTEX
  5
3EE
  8
0
 62
     9
 10
0.0
 20
0.0
 30
0.0
 70
   128
 71
    35
 72
    34
 73
     8
  0
VERTEX
  5
3EF
  8
0
 62
     9
 10
0.0
 20
0.0
 30
0.0
 70
   128
 71
    36
 72
    34
 73
    35
  0
VERTEX
  5
3F0
  8
0
 62
     9
 10
0.0
 20
0.0
 30
0.0
 70
   128
 71
    35
 72
    37
 73
    36
  0
VERTEX
  5
3F1
  8
0
 62
     9
 10
0.0
 20
0.0
 30
0.0
 70
   128
 71
    37
 72
    38
 73
    36
  0
VERTEX
  5
3F2
  8
0
 62
     9
 10
0.0
 20
0.0
 30
0.0
 70
   128
 71
     8
 72
    39
 73
    35
  0
VERTEX
  5
3F3
  8
0
 62
     9
 10
0.0
 20
0.0
 30
0.0
 70
   128
 71
    40
 72
     8
 73
     1
  0
VERTEX
  5
3F4
  8
0
 62
     9
 10
0.0
 20
0.0
 30
0.0
 70
   128
 71
    40
 72
    41
 73
     8
  0
VERTEX
  5
3F5
  8
0
 62
     9
 10
0.0
 20
0.0
 30
0.0
 70
   128
 71
     1
 72
    42
 73
    40
  0
VERTEX
  5
3F6
  8
0
 62
     9
 10
0.0
 20
0.0
 30
0.0
 70
   128
 71
    43
 72
     1
 73
     2
  0
VERTEX
  5
3F7
  8
0
 62
     9
 10
0.0
 20
0.0
 30
0.0
 70
   128
 71
    43
 72
    44
 73
     1
  0
VERTEX
  5
3F8
  8
0
 62
     9
 10
0.0
 20
0.0
 30
0.0
 70
   128
 71
     2
 72
    45
 73
    43
  0
VERTEX
  5
3F9
  8
0
 62
     9
 10
0.0
 20
0.0
 30
0.0
 70
   128
 71
    47
 72
    46
 73
     2
  0
VERTEX
  5
3FA
  8
0
 62
     9
 10
0.0
 20
0.0
 30
0.0
 70
   128
 71
     2
 72
     3
 73
    48
  0
VERTEX
  5
3FB
  8
0
 62
     9
 10
0.0
 20
0.0
 30
0.0
 70
   128
 71
     2
 72
    48
 73
    47
  0
VERTEX
  5
3FC
  8
0
 62
     9
 10
0.0
 20
0.0
 30
0.0
 70
   128
 71
     3
 72
     9
 73
    48
  0
VERTEX
  5
3FD
  8
0
 62
     9
 10
0.0
 20
0.0
 30
0.0
 70
   128
 71
     2
 72
    46
 73
    45
  0
VERTEX
  5
3FE
  8
0
 62
     9
 10
0.0
 20
0.0
 30
0.0
 70
   128
 71
     1
 72
    44
 73
    42
  0
VERTEX
  5
3FF
  8
0
 62
     9
 10
0.0
 20
0.0
 30
0.0
 70
   128
 71
     8
 72
    41
 73
    39
  0
VERTEX
  5
400
  8
0
 62
     9
 10
0.0
 20
0.0
 30
0.0
 70
   128
 71
     8
 72
    34
 73
    33
  0
VERTEX
  5
401
  8
0
 62
     9
 10
0.0
 20
0.0
 30
0.0
 70
   128
 71
     7
 72
    32
 73
    26
  0
VERTEX
  5
402
  8
0
 62
     9
 10
0.0
 20
0.0
 30
0.0
 70
   128
 71
     6
 72
    29
 73
    21
  0
VERTEX
  5
403
  8
0
 62
     9
 10
0.0
 20
0.0
 30
0.0
 70
   128
 71
     6
 72
    24
 73
    19
  0
VERTEX
  5
404
  8
0
 62
     9
 10
0.0
 20
0.0
 30
0.0
 70
   128
 71
    13
 72
    18
 73
    15
  0
VERTEX
  5
405
  8
0
 62
     9
 10
0.0
 20
0.0
 30
0.0
 70
   128
 71
     5
 72
    16
 73
    12
  0
VERTEX
  5
406
  8
0
 62
     9
 10
0.0
 20
0.0
 30
0.0
 70
   128
 71
     3
 72
     5
 73
    10
  0
VERTEX
  5
407
  8
0
 62
     9
 10
0.0
 20
0.0
 30
0.0
 70
   128
 71
     7
 72
     4
 73
     1
  0
VERTEX
  5
408
  8
0
 62
     9
 10
0.0
 20
0.0
 30
0.0
 70
   128
 71
     6
 72
    13
 73
     4
  0
VERTEX
  5
409
  8
0
 62
     9
 10
0.0
 20
0.0
 30
0.0
 70
   128
 71
     4
 72
    13
 73
     5
  0
VERTEX
  5
40A
  8
0
 62
     9
 10
0.0
 20
0.0
 30
0.0
 70
   128
 71
     1
 72
     4
 73
     3
  0
SEQEND
  5
40B
  8
0
 62
     9
  0
ENDBLK
  5
40E
  8
0
  0
BLOCK
  8
0
  2
E3_NODE_13_
 70
     0
 10
0.0
 20
0.0
 30
0.0
  3
E3_NODE_13_
  1

  0
POLYLINE
  5
410
  8
0
 62
     9
 66
     1
 10
0.0
 20
0.0
 30
0.0
 70
    64
 71
    34
 72
    35
  0
VERTEX
  5
411
  8
0
 10
137.9550018310547
 20
11.12100028991699
 30
-73.26699829101562
 70
   192
  0
VERTEX
  5
412
  8
0
 10
137.2030029296875
 20
14.55500030517578
 30
-68.19100189208984
 70
   192
  0
VERTEX
  5
413
  8
0
 10
137.5659942626953
 20
13.44900035858154
 30
-69.68199920654297
 70
   192
  0
VERTEX
  5
414
  8
0
 10
137.3139953613281
 20
14.1230001449585
 30
-67.99600219726562
 70
   192
  0
VERTEX
  5
415
  8
0
 10
138.6430053710938
 20
4.186999797821045
 30
-76.88500213623047
 70
   192
  0
VERTEX
  5
416
  8
0
 10
138.7279968261719
 20
0.0
 30
-77.45800018310547
 70
   192
  0
VERTEX
  5
417
  8
0
 10
138.6309967041016
 20
0.0
 30
-77.80999755859375
 70
   192
  0
VERTEX
  5
418
  8
0
 10
138.6269989013672
 20
0.0
 30
-77.81199645996094
 70
   192
  0
VERTEX
  5
419
  8
0
 10
138.4530029296875
 20
6.01200008392334
 30
-76.63400268554688
 70
   192
  0
VERTEX
  5
41A
  8
0
 10
138.5370025634766
 20
5.826000213623047
 30
-76.17500305175781
 70
   192
  0
VERTEX
  5
41B
  8
0
 10
138.0639953613281
 20
10.88700008392334
 30
-73.01300048828125
 70
   192
  0
VERTEX
  5
41C
  8
0
 10
138.3899993896484
 20
8.088000297546387
 30
-75.19400024414062
 70
   192
  0
VERTEX
  5
41D
  8
0
 10
138.3899993896484
 20
0.0
 30
-77.96099853515625
 70
   192
  0
VERTEX
  5
41E
  8
0
 10
138.2350006103516
 20
3.770999908447266
 30
-77.52400207519531
 70
   192
  0
VERTEX
  5
41F
  8
0
 10
138.3040008544922
 20
0.0
 30
-77.9739990234375
 70
   192
  0
VERTEX
  5
420
  8
0
 10
138.1089935302734
 20
5.958000183105469
 30
-76.6780014038086
 70
   192
  0
VERTEX
  5
421
  8
0
 10
137.9309997558594
 20
8.592000007629395
 30
-75.47699737548828
 70
   192
  0
VERTEX
  5
422
  8
0
 10
137.9329986572266
 20
8.569999694824219
 30
-75.49099731445312
 70
   192
  0
VERTEX
  5
423
  8
0
 10
138.1060028076172
 20
6.004000186920166
 30
-76.66100311279297
 70
   192
  0
VERTEX
  5
424
  8
0
 10
138.0090026855469
 20
7.697999954223633
 30
-76.00599670410156
 70
   192
  0
VERTEX
  5
425
  8
0
 10
137.1069946289062
 20
13.90200042724609
 30
-69.83599853515625
 70
   192
  0
VERTEX
  5
426
  8
0
 10
137.0950012207031
 20
13.96199989318848
 30
-69.75199890136719
 70
   192
  0
VERTEX
  5
427
  8
0
 10
136.9640045166016
 20
14.31700038909912
 30
-68.85399627685547
 70
   192
  0
VERTEX
  5
428
  8
0
 10
137.5350036621094
 20
11.8100004196167
 30
-72.76799774169922
 70
   192
  0
VERTEX
  5
429
  8
0
 10
137.5690002441406
 20
11.53699970245361
 30
-72.99800109863281
 70
   192
  0
VERTEX
  5
42A
  8
0
 10
137.6170043945312
 20
11.14299964904785
 30
-73.33000183105469
 70
   192
  0
VERTEX
  5
42B
  8
0
 10
136.3170013427734
 20
15.75
 30
-62.21799850463867
 70
   192
  0
VERTEX
  5
42C
  8
0
 10
136.572998046875
 20
15.37600040435791
 30
-66.17500305175781
 70
   192
  0
VERTEX
  5
42D
  8
0
 10
136.5659942626953
 20
15.39599990844727
 30
-66.1240005493164
 70
   192
  0
VERTEX
  5
42E
  8
0
 10
136.875
 20
14.55799961090088
 30
-68.24400329589844
 70
   192
  0
VERTEX
  5
42F
  8
0
 10
136.9889984130859
 20
14.99100017547607
 30
-65.8219985961914
 70
   192
  0
VERTEX
  5
430
  8
0
 10
136.3190002441406
 20
15.74899959564209
 30
-62.21699905395508
 70
   192
  0
VERTEX
  5
431
  8
0
 10
136.447998046875
 20
15.43299961090088
 30
-62.19800186157227
 70
   192
  0
VERTEX
  5
432
  8
0
 10
136.0030059814453
 20
15.88300037384033
 30
-62.26499938964844
 70
   192
  0
VERTEX
  5
433
  8
0
 62
     9
 10
0.0
 20
0.0
 30
0.0
 70
   128
 71
     3
 72
     2
 73
     1
  0
VERTEX
  5
434
  8
0
 62
     9
 10
0.0
 20
0.0
 30
0.0
 70
   128
 71
     3
 72
     4
 73
     2
  0
VERTEX
  5
435
  8
0
 62
     9
 10
0.0
 20
0.0
 30
0.0
 70
   128
 71
     7
 72
     6
 73
     5
  0
VERTEX
  5
436
  8
0
 62
     9
 10
0.0
 20
0.0
 30
0.0
 70
   128
 71
     5
 72
     9
 73
     8
  0
VERTEX
  5
437
  8
0
 62
     9
 10
0.0
 20
0.0
 30
0.0
 70
   128
 71
     5
 72
    10
 73
     9
  0
VERTEX
  5
438
  8
0
 62
     9
 10
0.0
 20
0.0
 30
0.0
 70
   128
 71
    12
 72
    11
 73
     1
  0
VERTEX
  5
439
  8
0
 62
     9
 10
0.0
 20
0.0
 30
0.0
 70
   128
 71
     1
 72
     9
 73
    12
  0
VERTEX
  5
43A
  8
0
 62
     9
 10
0.0
 20
0.0
 30
0.0
 70
   128
 71
    14
 72
    13
 73
     8
  0
VERTEX
  5
43B
  8
0
 62
     9
 10
0.0
 20
0.0
 30
0.0
 70
   128
 71
     8
 72
     9
 73
    14
  0
VERTEX
  5
43C
  8
0
 62
     9
 10
0.0
 20
0.0
 30
0.0
 70
   128
 71
    14
 72
    15
 73
    13
  0
VERTEX
  5
43D
  8
0
 62
     9
 10
0.0
 20
0.0
 30
0.0
 70
   128
 71
     9
 72
    16
 73
    14
  0
VERTEX
  5
43E
  8
0
 62
     9
 10
0.0
 20
0.0
 30
0.0
 70
   128
 71
    17
 72
     9
 73
     1
  0
VERTEX
  5
43F
  8
0
 62
     9
 10
0.0
 20
0.0
 30
0.0
 70
   128
 71
    17
 72
    18
 73
     9
  0
VERTEX
  5
440
  8
0
 62
     9
 10
0.0
 20
0.0
 30
0.0
 70
   128
 71
    20
 72
    19
 73
     9
  0
VERTEX
  5
441
  8
0
 62
     9
 10
0.0
 20
0.0
 30
0.0
 70
   128
 71
     9
 72
    18
 73
    20
  0
VERTEX
  5
442
  8
0
 62
     9
 10
0.0
 20
0.0
 30
0.0
 70
   128
 71
    22
 72
    21
 73
     2
  0
VERTEX
  5
443
  8
0
 62
     9
 10
0.0
 20
0.0
 30
0.0
 70
   128
 71
     2
 72
    23
 73
    22
  0
VERTEX
  5
444
  8
0
 62
     9
 10
0.0
 20
0.0
 30
0.0
 70
   128
 71
    21
 72
    24
 73
     1
  0
VERTEX
  5
445
  8
0
 62
     9
 10
0.0
 20
0.0
 30
0.0
 70
   128
 71
    24
 72
    25
 73
     1
  0
VERTEX
  5
446
  8
0
 62
     9
 10
0.0
 20
0.0
 30
0.0
 70
   128
 71
     1
 72
     2
 73
    21
  0
VERTEX
  5
447
  8
0
 62
     9
 10
0.0
 20
0.0
 30
0.0
 70
   128
 71
    25
 72
    26
 73
     1
  0
VERTEX
  5
448
  8
0
 62
     9
 10
0.0
 20
0.0
 30
0.0
 70
   128
 71
    29
 72
    28
 73
    27
  0
VERTEX
  5
449
  8
0
 62
     9
 10
0.0
 20
0.0
 30
0.0
 70
   128
 71
    28
 72
    30
 73
     2
  0
VERTEX
  5
44A
  8
0
 62
     9
 10
0.0
 20
0.0
 30
0.0
 70
   128
 71
     2
 72
    27
 73
    28
  0
VERTEX
  5
44B
  8
0
 62
     9
 10
0.0
 20
0.0
 30
0.0
 70
   128
 71
    32
 72
    27
 73
    31
  0
VERTEX
  5
44C
  8
0
 62
     9
 10
0.0
 20
0.0
 30
0.0
 70
   128
 71
    31
 72
    33
 73
    32
  0
VERTEX
  5
44D
  8
0
 62
     9
 10
0.0
 20
0.0
 30
0.0
 70
   128
 71
    27
 72
     2
 73
    31
  0
VERTEX
  5
44E
  8
0
 62
     9
 10
0.0
 20
0.0
 30
0.0
 70
   128
 71
     2
 72
     4
 73
    31
  0
VERTEX
  5
44F
  8
0
 62
     9
 10
0.0
 20
0.0
 30
0.0
 70
   128
 71
    27
 72
    34
 73
    29
  0
VERTEX
  5
450
  8
0
 62
     9
 10
0.0
 20
0.0
 30
0.0
 70
   128
 71
     2
 72
    30
 73
    23
  0
VERTEX
  5
451
  8
0
 62
     9
 10
0.0
 20
0.0
 30
0.0
 70
   128
 71
     1
 72
    26
 73
    17
  0
VERTEX
  5
452
  8
0
 62
     9
 10
0.0
 20
0.0
 30
0.0
 70
   128
 71
     9
 72
    19
 73
    16
  0
VERTEX
  5
453
  8
0
 62
     9
 10
0.0
 20
0.0
 30
0.0
 70
   128
 71
     9
 72
    10
 73
    12
  0
VERTEX
  5
454
  8
0
 62
     9
 10
0.0
 20
0.0
 30
0.0
 70
   128
 71
     5
 72
     8
 73
     7
  0
VERTEX
  5
455
  8
0
 62
     9
 10
0.0
 20
0.0
 30
0.0
 70
   128
 71
     1
 72
    11
 73
     3
  0
SEQEND
  5
456
  8
0
 62
     9
  0
ENDBLK
  5
459
  8
0
  0
BLOCK
  8
0
  2
E3_NODE_14_
 70
     0
 10
0.0
 20
0.0
 30
0.0
  3
E3_NODE_14_
  1

  0
POLYLINE
  5
45B
  8
0
 62
     9
 66
     1
 10
0.0
 20
0.0
 30
0.0
 70
    64
 71
     7
 72
     5
  0
VERTEX
  5
45C
  8
0
 10
129.6970062255859
 20
-15.43299961090088
 30
-17.02799987792969
 70
   192
  0
VERTEX
  5
45D
  8
0
 10
129.5679931640625
 20
-15.74899959564209
 30
-17.04700088500977
 70
   192
  0
VERTEX
  5
45E
  8
0
 10
136.3179931640625
 20
-15.74899959564209
 30
-62.21699905395508
 70
   192
  0
VERTEX
  5
45F
  8
0
 10
129.2519989013672
 20
-15.88300037384033
 30
-17.0939998626709
 70
   192
  0
VERTEX
  5
460
  8
0
 10
136.0030059814453
 20
-15.88300037384033
 30
-62.26499938964844
 70
   192
  0
VERTEX
  5
461
  8
0
 10
136.3170013427734
 20
-15.75100040435791
 30
-62.21699905395508
 70
   192
  0
VERTEX
  5
462
  8
0
 10
136.447998046875
 20
-15.43299961090088
 30
-62.19800186157227
 70
   192
  0
VERTEX
  5
463
  8
0
 62
     9
 10
0.0
 20
0.0
 30
0.0
 70
   128
 71
     3
 72
     2
 73
     1
  0
VERTEX
  5
464
  8
0
 62
     9
 10
0.0
 20
0.0
 30
0.0
 70
   128
 71
     6
 72
     5
 73
     4
  0
VERTEX
  5
465
  8
0
 62
     9
 10
0.0
 20
0.0
 30
0.0
 70
   128
 71
     4
 72
     2
 73
     6
  0
VERTEX
  5
466
  8
0
 62
     9
 10
0.0
 20
0.0
 30
0.0
 70
   128
 71
     2
 72
     3
 73
     6
  0
VERTEX
  5
467
  8
0
 62
     9
 10
0.0
 20
0.0
 30
0.0
 70
   128
 71
     1
 72
     7
 73
     3
  0
SEQEND
  5
468
  8
0
 62
     9
  0
ENDBLK
  5
46B
  8
0
  0
BLOCK
  8
0
  2
E3_NODE_15_
 70
     0
 10
0.0
 20
0.0
 30
0.0
  3
E3_NODE_15_
  1

  0
POLYLINE
  5
46D
  8
0
 62
     9
 66
     1
 10
0.0
 20
0.0
 30
0.0
 70
    64
 71
    16
 72
    14
  0
VERTEX
  5
46E
  8
0
 10
128.8309936523438
 20
-16.20999908447266
 30
-11.22900009155273
 70
   192
  0
VERTEX
  5
46F
  8
0
 10
128.3000030517578
 20
-16.82799911499023
 30
-10.88199996948242
 70
   192
  0
VERTEX
  5
470
  8
0
 10
128.3079986572266
 20
-16.80999946594238
 30
-10.93200016021729
 70
   192
  0
VERTEX
  5
471
  8
0
 10
128.5879974365234
 20
-16.87700080871582
 30
-9.607999801635742
 70
   192
  0
VERTEX
  5
472
  8
0
 10
128.1869964599609
 20
-17.09900093078613
 30
-10.16199970245361
 70
   192
  0
VERTEX
  5
473
  8
0
 10
127.6750030517578
 20
-19.86800003051758
 30
-6.781000137329102
 70
   192
  0
VERTEX
  5
474
  8
0
 10
128.1119995117188
 20
-19.52400016784668
 30
-6.425000190734863
 70
   192
  0
VERTEX
  5
475
  8
0
 10
128.0010070800781
 20
-19.77799987792969
 30
-6.656000137329102
 70
   192
  0
VERTEX
  5
476
  8
0
 10
129.5679931640625
 20
-15.74899959564209
 30
-17.04700088500977
 70
   192
  0
VERTEX
  5
477
  8
0
 10
129.6970062255859
 20
-15.43299961090088
 30
-17.02799987792969
 70
   192
  0
VERTEX
  5
478
  8
0
 10
129.6670074462891
 20
-15.43299961090088
 30
-16.82600021362305
 70
   192
  0
VERTEX
  5
479
  8
0
 10
129.0149993896484
 20
-15.70300006866455
 30
-12.46100044250488
 70
   192
  0
VERTEX
  5
47A
  8
0
 10
128.7169952392578
 20
-16.06999969482422
 30
-13.57100009918213
 70
   192
  0
VERTEX
  5
47B
  8
0
 10
128.5989990234375
 20
-16.11100006103516
 30
-12.78899955749512
 70
   192
  0
VERTEX
  5
47C
  8
0
 10
129.2519989013672
 20
-15.88300037384033
 30
-17.0939998626709
 70
   192
  0
VERTEX
  5
47D
  8
0
 10
128.3880004882812
 20
-16.61700057983398
 30
-11.44400024414062
 70
   192
  0
VERTEX
  5
47E
  8
0
 62
     9
 10
0.0
 20
0.0
 30
0.0
 70
   128
 71
     3
 72
     2
 73
     1
  0
VERTEX
  5
47F
  8
0
 62
     9
 10
0.0
 20
0.0
 30
0.0
 70
   128
 71
     2
 72
     5
 73
     4
  0
VERTEX
  5
480
  8
0
 62
     9
 10
0.0
 20
0.0
 30
0.0
 70
   128
 71
     4
 72
     1
 73
     2
  0
VERTEX
  5
481
  8
0
 62
     9
 10
0.0
 20
0.0
 30
0.0
 70
   128
 71
     4
 72
     5
 73
     6
  0
VERTEX
  5
482
  8
0
 62
     9
 10
0.0
 20
0.0
 30
0.0
 70
   128
 71
     8
 72
     7
 73
     4
  0
VERTEX
  5
483
  8
0
 62
     9
 10
0.0
 20
0.0
 30
0.0
 70
   128
 71
     6
 72
     8
 73
     4
  0
VERTEX
  5
484
  8
0
 62
     9
 10
0.0
 20
0.0
 30
0.0
 70
   128
 71
    11
 72
    10
 73
     9
  0
VERTEX
  5
485
  8
0
 62
     9
 10
0.0
 20
0.0
 30
0.0
 70
   128
 71
    13
 72
    12
 73
     9
  0
VERTEX
  5
486
  8
0
 62
     9
 10
0.0
 20
0.0
 30
0.0
 70
   128
 71
    13
 72
    14
 73
    12
  0
VERTEX
  5
487
  8
0
 62
     9
 10
0.0
 20
0.0
 30
0.0
 70
   128
 71
     9
 72
    15
 73
    13
  0
VERTEX
  5
488
  8
0
 62
     9
 10
0.0
 20
0.0
 30
0.0
 70
   128
 71
    12
 72
    14
 73
    16
  0
VERTEX
  5
489
  8
0
 62
     9
 10
0.0
 20
0.0
 30
0.0
 70
   128
 71
    16
 72
     1
 73
    12
  0
VERTEX
  5
48A
  8
0
 62
     9
 10
0.0
 20
0.0
 30
0.0
 70
   128
 71
     9
 72
    12
 73
    11
  0
VERTEX
  5
48B
  8
0
 62
     9
 10
0.0
 20
0.0
 30
0.0
 70
   128
 71
     1
 72
    16
 73
     3
  0
SEQEND
  5
48C
  8
0
 62
     9
  0
ENDBLK
  5
48F
  8
0
  0
BLOCK
  8
0
  2
E3_NODE_16_
 70
     0
 10
0.0
 20
0.0
 30
0.0
  3
E3_NODE_16_
  1

  0
POLYLINE
  5
491
  8
0
 62
     9
 66
     1
 10
0.0
 20
0.0
 30
0.0
 70
    64
 71
    23
 72
    22
  0
VERTEX
  5
492
  8
0
 10
135.97900390625
 20
15.88300037384033
 30
-62.26499938964844
 70
   192
  0
VERTEX
  5
493
  8
0
 10
136.0030059814453
 20
15.88300037384033
 30
-62.26499938964844
 70
   192
  0
VERTEX
  5
494
  8
0
 10
136.5659942626953
 20
15.39599990844727
 30
-66.1240005493164
 70
   192
  0
VERTEX
  5
495
  8
0
 10
136.5639953613281
 20
15.38199996948242
 30
-66.177001953125
 70
   192
  0
VERTEX
  5
496
  8
0
 10
136.572998046875
 20
15.37600040435791
 30
-66.17500305175781
 70
   192
  0
VERTEX
  5
497
  8
0
 10
136.875
 20
14.55799961090088
 30
-68.24400329589844
 70
   192
  0
VERTEX
  5
498
  8
0
 10
137.5690002441406
 20
11.53699970245361
 30
-72.99800109863281
 70
   192
  0
VERTEX
  5
499
  8
0
 10
137.6170043945312
 20
11.14299964904785
 30
-73.33000183105469
 70
   192
  0
VERTEX
  5
49A
  8
0
 10
137.6020050048828
 20
11.32800006866455
 30
-73.2750015258789
 70
   192
  0
VERTEX
  5
49B
  8
0
 10
137.6139984130859
 20
11.2209997177124
 30
-73.36100006103516
 70
   192
  0
VERTEX
  5
49C
  8
0
 10
137.9309997558594
 20
8.592000007629395
 30
-75.47699737548828
 70
   192
  0
VERTEX
  5
49D
  8
0
 10
137.9329986572266
 20
8.569999694824219
 30
-75.49099731445312
 70
   192
  0
VERTEX
  5
49E
  8
0
 10
137.5619964599609
 20
11.53499984741211
 30
-73.00800323486328
 70
   192
  0
VERTEX
  5
49F
  8
0
 10
137.5350036621094
 20
11.8100004196167
 30
-72.76799774169922
 70
   192
  0
VERTEX
  5
4A0
  8
0
 10
137.1430053710938
 20
13.70300006866455
 30
-70.20800018310547
 70
   192
  0
VERTEX
  5
4A1
  8
0
 10
137.1069946289062
 20
13.90200042724609
 30
-69.83599853515625
 70
   192
  0
VERTEX
  5
4A2
  8
0
 10
136.9640045166016
 20
14.31700038909912
 30
-68.85399627685547
 70
   192
  0
VERTEX
  5
4A3
  8
0
 10
136.8359985351562
 20
14.56599998474121
 30
-68.1520004272461
 70
   192
  0
VERTEX
  5
4A4
  8
0
 10
137.0859985351562
 20
13.86400032043457
 30
-69.8239974975586
 70
   192
  0
VERTEX
  5
4A5
  8
0
 10
137.0950012207031
 20
13.96199989318848
 30
-69.75199890136719
 70
   192
  0
VERTEX
  5
4A6
  8
0
 10
136.552001953125
 20
15.36200046539307
 30
-66.25499725341797
 70
   192
  0
VERTEX
  5
4A7
  8
0
 10
136.5410003662109
 20
15.37199974060059
 30
-66.177001953125
 70
   192
  0
VERTEX
  5
4A8
  8
0
 10
135.9559936523438
 20
15.88300037384033
 30
-62.26599884033203
 70
   192
  0
VERTEX
  5
4A9
  8
0
 62
     9
 10
0.0
 20
0.0
 30
0.0
 70
   128
 71
     3
 72
     2
 73
     1
  0
VERTEX
  5
4AA
  8
0
 62
     9
 10
0.0
 20
0.0
 30
0.0
 70
   128
 71
     1
 72
     4
 73
     3
  0
VERTEX
  5
4AB
  8
0
 62
     9
 10
0.0
 20
0.0
 30
0.0
 70
   128
 71
     6
 72
     5
 73
     4
  0
VERTEX
  5
4AC
  8
0
 62
     9
 10
0.0
 20
0.0
 30
0.0
 70
   128
 71
     9
 72
     8
 73
     7
  0
VERTEX
  5
4AD
  8
0
 62
     9
 10
0.0
 20
0.0
 30
0.0
 70
   128
 71
    11
 72
     8
 73
    10
  0
VERTEX
  5
4AE
  8
0
 62
     9
 10
0.0
 20
0.0
 30
0.0
 70
   128
 71
    10
 72
    12
 73
    11
  0
VERTEX
  5
4AF
  8
0
 62
     9
 10
0.0
 20
0.0
 30
0.0
 70
   128
 71
     8
 72
     9
 73
    10
  0
VERTEX
  5
4B0
  8
0
 62
     9
 10
0.0
 20
0.0
 30
0.0
 70
   128
 71
     7
 72
    13
 73
     9
  0
VERTEX
  5
4B1
  8
0
 62
     9
 10
0.0
 20
0.0
 30
0.0
 70
   128
 71
    15
 72
    13
 73
    14
  0
VERTEX
  5
4B2
  8
0
 62
     9
 10
0.0
 20
0.0
 30
0.0
 70
   128
 71
    14
 72
    16
 73
    15
  0
VERTEX
  5
4B3
  8
0
 62
     9
 10
0.0
 20
0.0
 30
0.0
 70
   128
 71
    13
 72
     7
 73
    14
  0
VERTEX
  5
4B4
  8
0
 62
     9
 10
0.0
 20
0.0
 30
0.0
 70
   128
 71
    18
 72
    17
 73
     4
  0
VERTEX
  5
4B5
  8
0
 62
     9
 10
0.0
 20
0.0
 30
0.0
 70
   128
 71
    17
 72
    18
 73
    19
  0
VERTEX
  5
4B6
  8
0
 62
     9
 10
0.0
 20
0.0
 30
0.0
 70
   128
 71
    19
 72
    20
 73
    17
  0
VERTEX
  5
4B7
  8
0
 62
     9
 10
0.0
 20
0.0
 30
0.0
 70
   128
 71
    19
 72
    16
 73
    20
  0
VERTEX
  5
4B8
  8
0
 62
     9
 10
0.0
 20
0.0
 30
0.0
 70
   128
 71
     4
 72
    21
 73
    18
  0
VERTEX
  5
4B9
  8
0
 62
     9
 10
0.0
 20
0.0
 30
0.0
 70
   128
 71
     1
 72
    23
 73
    22
  0
VERTEX
  5
4BA
  8
0
 62
     9
 10
0.0
 20
0.0
 30
0.0
 70
   128
 71
    22
 72
     4
 73
     1
  0
VERTEX
  5
4BB
  8
0
 62
     9
 10
0.0
 20
0.0
 30
0.0
 70
   128
 71
     4
 72
    22
 73
    21
  0
VERTEX
  5
4BC
  8
0
 62
     9
 10
0.0
 20
0.0
 30
0.0
 70
   128
 71
    16
 72
    19
 73
    15
  0
VERTEX
  5
4BD
  8
0
 62
     9
 10
0.0
 20
0.0
 30
0.0
 70
   128
 71
     4
 72
    17
 73
     6
  0
VERTEX
  5
4BE
  8
0
 62
     9
 10
0.0
 20
0.0
 30
0.0
 70
   128
 71
     4
 72
     5
 73
     3
  0
SEQEND
  5
4BF
  8
0
 62
     9
  0
ENDBLK
  5
4C2
  8
0
  0
BLOCK
  8
0
  2
E3_NODE_17_
 70
     0
 10
0.0
 20
0.0
 30
0.0
  3
E3_NODE_17_
  1

  0
POLYLINE
  5
4C4
  8
0
 62
     9
 66
     1
 10
0.0
 20
0.0
 30
0.0
 70
    64
 71
     5
 72
     3
  0
VERTEX
  5
4C5
  8
0
 10
129.2519989013672
 20
15.88300037384033
 30
-17.0939998626709
 70
   192
  0
VERTEX
  5
4C6
  8
0
 10
136.0030059814453
 20
15.88300037384033
 30
-62.26499938964844
 70
   192
  0
VERTEX
  5
4C7
  8
0
 10
135.97900390625
 20
15.88300037384033
 30
-62.26499938964844
 70
   192
  0
VERTEX
  5
4C8
  8
0
 10
129.2050018310547
 20
15.88300037384033
 30
-17.09499931335449
 70
   192
  0
VERTEX
  5
4C9
  8
0
 10
135.9559936523438
 20
15.88300037384033
 30
-62.26599884033203
 70
   192
  0
VERTEX
  5
4CA
  8
0
 62
     9
 10
0.0
 20
0.0
 30
0.0
 70
   128
 71
     3
 72
     2
 73
     1
  0
VERTEX
  5
4CB
  8
0
 62
     9
 10
0.0
 20
0.0
 30
0.0
 70
   128
 71
     1
 72
     4
 73
     3
  0
VERTEX
  5
4CC
  8
0
 62
     9
 10
0.0
 20
0.0
 30
0.0
 70
   128
 71
     4
 72
     5
 73
     3
  0
SEQEND
  5
4CD
  8
0
 62
     9
  0
ENDBLK
  5
4D0
  8
0
  0
BLOCK
  8
0
  2
E3_NODE_18_
 70
     0
 10
0.0
 20
0.0
 30
0.0
  3
E3_NODE_18_
  1

  0
POLYLINE
  5
4D2
  8
0
 62
     9
 66
     1
 10
0.0
 20
0.0
 30
0.0
 70
    64
 71
     8
 72
     6
  0
VERTEX
  5
4D3
  8
0
 10
129.6970062255859
 20
15.43299961090088
 30
-17.02799987792969
 70
   192
  0
VERTEX
  5
4D4
  8
0
 10
136.447998046875
 20
15.43299961090088
 30
-62.19800186157227
 70
   192
  0
VERTEX
  5
4D5
  8
0
 10
136.3190002441406
 20
15.74899959564209
 30
-62.21699905395508
 70
   192
  0
VERTEX
  5
4D6
  8
0
 10
136.3170013427734
 20
15.75
 30
-62.21799850463867
 70
   192
  0
VERTEX
  5
4D7
  8
0
 10
129.5670013427734
 20
15.75100040435791
 30
-17.04700088500977
 70
   192
  0
VERTEX
  5
4D8
  8
0
 10
129.5670013427734
 20
15.74899959564209
 30
-17.04700088500977
 70
   192
  0
VERTEX
  5
4D9
  8
0
 10
129.2519989013672
 20
15.88300037384033
 30
-17.0939998626709
 70
   192
  0
VERTEX
  5
4DA
  8
0
 10
136.0030059814453
 20
15.88300037384033
 30
-62.26499938964844
 70
   192
  0
VERTEX
  5
4DB
  8
0
 62
     9
 10
0.0
 20
0.0
 30
0.0
 70
   128
 71
     3
 72
     2
 73
     1
  0
VERTEX
  5
4DC
  8
0
 62
     9
 10
0.0
 20
0.0
 30
0.0
 70
   128
 71
     6
 72
     5
 73
     4
  0
VERTEX
  5
4DD
  8
0
 62
     9
 10
0.0
 20
0.0
 30
0.0
 70
   128
 71
     4
 72
     5
 73
     7
  0
VERTEX
  5
4DE
  8
0
 62
     9
 10
0.0
 20
0.0
 30
0.0
 70
   128
 71
     7
 72
     8
 73
     4
  0
VERTEX
  5
4DF
  8
0
 62
     9
 10
0.0
 20
0.0
 30
0.0
 70
   128
 71
     4
 72
     3
 73
     6
  0
VERTEX
  5
4E0
  8
0
 62
     9
 10
0.0
 20
0.0
 30
0.0
 70
   128
 71
     1
 72
     6
 73
     3
  0
SEQEND
  5
4E1
  8
0
 62
     9
  0
ENDBLK
  5
4E4
  8
0
  0
BLOCK
  8
0
  2
E3_NODE_19_
 70
     0
 10
0.0
 20
0.0
 30
0.0
  3
E3_NODE_19_
  1

  0
POLYLINE
  5
4E6
  8
0
 62
     9
 66
     1
 10
0.0
 20
0.0
 30
0.0
 70
    64
 71
    13
 72
    11
  0
VERTEX
  5
4E7
  8
0
 10
128.0010070800781
 20
19.77599906921387
 30
-6.657999992370605
 70
   192
  0
VERTEX
  5
4E8
  8
0
 10
128.6450042724609
 20
16.63999938964844
 30
-9.984999656677246
 70
   192
  0
VERTEX
  5
4E9
  8
0
 10
128.1880035400391
 20
17.09499931335449
 30
-10.16800022125244
 70
   192
  0
VERTEX
  5
4EA
  8
0
 10
127.6750030517578
 20
19.86700057983398
 30
-6.782999992370605
 70
   192
  0
VERTEX
  5
4EB
  8
0
 10
128.3880004882812
 20
16.63299942016602
 30
-11.44900035858154
 70
   192
  0
VERTEX
  5
4EC
  8
0
 10
128.8289947509766
 20
16.20700073242188
 30
-11.2209997177124
 70
   192
  0
VERTEX
  5
4ED
  8
0
 10
129.0760040283203
 20
15.63000011444092
 30
-12.87199974060059
 70
   192
  0
VERTEX
  5
4EE
  8
0
 10
128.6300048828125
 20
16.07600021362305
 30
-12.99400043487549
 70
   192
  0
VERTEX
  5
4EF
  8
0
 10
129.5670013427734
 20
15.75100040435791
 30
-17.04700088500977
 70
   192
  0
VERTEX
  5
4F0
  8
0
 10
129.6970062255859
 20
15.43299961090088
 30
-17.02799987792969
 70
   192
  0
VERTEX
  5
4F1
  8
0
 10
129.5670013427734
 20
15.74899959564209
 30
-17.04700088500977
 70
   192
  0
VERTEX
  5
4F2
  8
0
 10
129.2519989013672
 20
15.88300037384033
 30
-17.0939998626709
 70
   192
  0
VERTEX
  5
4F3
  8
0
 10
128.1130065917969
 20
19.52300071716309
 30
-6.426000118255615
 70
   192
  0
VERTEX
  5
4F4
  8
0
 62
     9
 10
0.0
 20
0.0
 30
0.0
 70
   128
 71
     3
 72
     2
 73
     1
  0
VERTEX
  5
4F5
  8
0
 62
     9
 10
0.0
 20
0.0
 30
0.0
 70
   128
 71
     1
 72
     4
 73
     3
  0
VERTEX
  5
4F6
  8
0
 62
     9
 10
0.0
 20
0.0
 30
0.0
 70
   128
 71
     2
 72
     3
 73
     5
  0
VERTEX
  5
4F7
  8
0
 62
     9
 10
0.0
 20
0.0
 30
0.0
 70
   128
 71
     5
 72
     6
 73
     2
  0
VERTEX
  5
4F8
  8
0
 62
     9
 10
0.0
 20
0.0
 30
0.0
 70
   128
 71
     8
 72
     7
 73
     6
  0
VERTEX
  5
4F9
  8
0
 62
     9
 10
0.0
 20
0.0
 30
0.0
 70
   128
 71
     9
 72
     7
 73
     8
  0
VERTEX
  5
4FA
  8
0
 62
     9
 10
0.0
 20
0.0
 30
0.0
 70
   128
 71
    11
 72
    10
 73
     7
  0
VERTEX
  5
4FB
  8
0
 62
     9
 10
0.0
 20
0.0
 30
0.0
 70
   128
 71
     7
 72
     9
 73
    11
  0
VERTEX
  5
4FC
  8
0
 62
     9
 10
0.0
 20
0.0
 30
0.0
 70
   128
 71
     8
 72
    12
 73
     9
  0
VERTEX
  5
4FD
  8
0
 62
     9
 10
0.0
 20
0.0
 30
0.0
 70
   128
 71
     6
 72
     5
 73
     8
  0
VERTEX
  5
4FE
  8
0
 62
     9
 10
0.0
 20
0.0
 30
0.0
 70
   128
 71
     2
 72
    13
 73
     1
  0
SEQEND
  5
4FF
  8
0
 62
     9
  0
ENDBLK
  5
502
  8
0
  0
BLOCK
  8
0
  2
E3_NODE_20_
 70
     0
 10
0.0
 20
0.0
 30
0.0
  3
E3_NODE_20_
  1

  0
POLYLINE
  5
504
  8
0
 62
     9
 66
     1
 10
0.0
 20
0.0
 30
0.0
 70
    64
 71
    67
 72
    65
  0
VERTEX
  5
505
  8
0
 10
138.5379943847656
 20
-5.836999893188477
 30
-76.18399810791016
 70
   192
  0
VERTEX
  5
506
  8
0
 10
138.0639953613281
 20
10.88700008392334
 30
-73.01300048828125
 70
   192
  0
VERTEX
  5
507
  8
0
 10
137.5659942626953
 20
13.44900035858154
 30
-69.68199920654297
 70
   192
  0
VERTEX
  5
508
  8
0
 10
138.5370025634766
 20
5.826000213623047
 30
-76.17500305175781
 70
   192
  0
VERTEX
  5
509
  8
0
 10
138.3899993896484
 20
8.088000297546387
 30
-75.19400024414062
 70
   192
  0
VERTEX
  5
50A
  8
0
 10
138.6649932861328
 20
-3.599999904632568
 30
-77.03700256347656
 70
   192
  0
VERTEX
  5
50B
  8
0
 10
138.7279968261719
 20
0.0
 30
-77.45800018310547
 70
   192
  0
VERTEX
  5
50C
  8
0
 10
137.3139953613281
 20
14.1230001449585
 30
-67.99600219726562
 70
   192
  0
VERTEX
  5
50D
  8
0
 10
138.0829925537109
 20
-10.75899982452393
 30
-73.13800048828125
 70
   192
  0
VERTEX
  5
50E
  8
0
 10
138.4490051269531
 20
-7.402999877929688
 30
-75.58799743652344
 70
   192
  0
VERTEX
  5
50F
  8
0
 10
137.3130035400391
 20
-14.12600040435791
 30
-67.98999786376953
 70
   192
  0
VERTEX
  5
510
  8
0
 10
137.6629943847656
 20
-13.05900001525879
 30
-70.33000183105469
 70
   192
  0
VERTEX
  5
511
  8
0
 10
138.6430053710938
 20
4.186999797821045
 30
-76.88500213623047
 70
   192
  0
VERTEX
  5
512
  8
0
 10
128.6450042724609
 20
16.63999938964844
 30
-9.984999656677246
 70
   192
  0
VERTEX
  5
513
  8
0
 10
121.8560028076172
 20
0.0
 30
35.43899917602539
 70
   192
  0
VERTEX
  5
514
  8
0
 10
121.8690032958984
 20
-2.098000049591064
 30
35.35400009155273
 70
   192
  0
VERTEX
  5
515
  8
0
 10
136.9889984130859
 20
14.99100017547607
 30
-65.8219985961914
 70
   192
  0
VERTEX
  5
516
  8
0
 10
136.447998046875
 20
15.43299961090088
 30
-62.19800186157227
 70
   192
  0
VERTEX
  5
517
  8
0
 10
136.447998046875
 20
-15.43299961090088
 30
-62.19800186157227
 70
   192
  0
VERTEX
  5
518
  8
0
 10
137.0890045166016
 20
-14.80900001525879
 30
-66.49099731445312
 70
   192
  0
VERTEX
  5
519
  8
0
 10
129.6970062255859
 20
15.43299961090088
 30
-17.02799987792969
 70
   192
  0
VERTEX
  5
51A
  8
0
 10
129.6970062255859
 20
-15.43299961090088
 30
-17.02799987792969
 70
   192
  0
VERTEX
  5
51B
  8
0
 10
121.9489974975586
 20
-4.940000057220459
 30
34.81700134277344
 70
   192
  0
VERTEX
  5
51C
  8
0
 10
122.0189971923828
 20
-7.438000202178955
 30
34.34500122070312
 70
   192
  0
VERTEX
  5
51D
  8
0
 10
121.9339981079102
 20
4.979000091552734
 30
34.91500091552734
 70
   192
  0
VERTEX
  5
51E
  8
0
 10
126.943000793457
 20
23.89299964904785
 30
1.398000001907349
 70
   192
  0
VERTEX
  5
51F
  8
0
 10
122.5039978027344
 20
14.1230001449585
 30
31.10499954223633
 70
   192
  0
VERTEX
  5
520
  8
0
 10
122.1920013427734
 20
10.53299999237061
 30
33.19100189208984
 70
   192
  0
VERTEX
  5
521
  8
0
 10
122.9729995727539
 20
17.96699905395508
 30
27.9640007019043
 70
   192
  0
VERTEX
  5
522
  8
0
 10
122.5970001220703
 20
15.20400047302246
 30
30.47699928283691
 70
   192
  0
VERTEX
  5
523
  8
0
 10
124.193000793457
 20
23.4640007019043
 30
19.80400085449219
 70
   192
  0
VERTEX
  5
524
  8
0
 10
123.7979965209961
 20
22.33499908447266
 30
22.44099998474121
 70
   192
  0
VERTEX
  5
525
  8
0
 10
124.8980026245117
 20
24.91500091552734
 30
15.08500003814697
 70
   192
  0
VERTEX
  5
526
  8
0
 10
124.5370025634766
 20
24.45199966430664
 30
17.49699974060059
 70
   192
  0
VERTEX
  5
527
  8
0
 10
126.4589996337891
 20
24.97400093078613
 30
4.642000198364258
 70
   192
  0
VERTEX
  5
528
  8
0
 10
126.9459991455078
 20
-23.88999938964844
 30
1.379999995231628
 70
   192
  0
VERTEX
  5
529
  8
0
 10
127.2379989624023
 20
-23.23900032043457
 30
-0.5770000219345093
 70
   192
  0
VERTEX
  5
52A
  8
0
 10
123.5400009155273
 20
-21.14800071716309
 30
24.17000007629395
 70
   192
  0
VERTEX
  5
52B
  8
0
 10
124.0810012817383
 20
-23.29599952697754
 30
20.54800033569336
 70
   192
  0
VERTEX
  5
52C
  8
0
 10
122.9710006713867
 20
-17.95700073242188
 30
27.97599983215332
 70
   192
  0
VERTEX
  5
52D
  8
0
 10
123.3840026855469
 20
-20.53000068664551
 30
25.21199989318848
 70
   192
  0
VERTEX
  5
52E
  8
0
 10
122.5080032348633
 20
-14.11400032043457
 30
31.07299995422363
 70
   192
  0
VERTEX
  5
52F
  8
0
 10
122.7949981689453
 20
-16.85799980163574
 30
29.1569995880127
 70
   192
  0
VERTEX
  5
530
  8
0
 10
122.1620025634766
 20
-9.710000038146973
 30
33.38899993896484
 70
   192
  0
VERTEX
  5
531
  8
0
 10
122.3339996337891
 20
-12.44200038909912
 30
32.24100112915039
 70
   192
  0
VERTEX
  5
532
  8
0
 10
122.1539993286133
 20
9.755000114440918
 30
33.44499969482422
 70
   192
  0
VERTEX
  5
533
  8
0
 10
121.9400024414062
 20
5.380000114440918
 30
34.87300109863281
 70
   192
  0
VERTEX
  5
534
  8
0
 10
123.5439987182617
 20
21.12199974060059
 30
24.14299964904785
 70
   192
  0
VERTEX
  5
535
  8
0
 10
123.1399993896484
 20
19.19799995422363
 30
26.8439998626709
 70
   192
  0
VERTEX
  5
536
  8
0
 10
125.6320037841797
 20
25.54999923706055
 30
10.17099952697754
 70
   192
  0
VERTEX
  5
537
  8
0
 10
127.9349975585938
 20
20.4689998626709
 30
-5.23799991607666
 70
   192
  0
VERTEX
  5
538
  8
0
 10
127.2429962158203
 20
23.22400093078613
 30
-0.6100000143051147
 70
   192
  0
VERTEX
  5
539
  8
0
 10
127.9339981079102
 20
-20.47400093078613
 30
-5.23199987411499
 70
   192
  0
VERTEX
  5
53A
  8
0
 10
125.6320037841797
 20
-25.54999923706055
 30
10.17099952697754
 70
   192
  0
VERTEX
  5
53B
  8
0
 10
126.4589996337891
 20
-24.97400093078613
 30
4.63700008392334
 70
   192
  0
VERTEX
  5
53C
  8
0
 10
124.1900024414062
 20
-23.53700065612793
 30
19.82099914550781
 70
   192
  0
VERTEX
  5
53D
  8
0
 10
124.8359985351562
 20
-24.97500038146973
 30
15.4980001449585
 70
   192
  0
VERTEX
  5
53E
  8
0
 10
125.3259963989258
 20
25.46599960327148
 30
12.2189998626709
 70
   192
  0
VERTEX
  5
53F
  8
0
 10
128.1130065917969
 20
19.52300071716309
 30
-6.426000118255615
 70
   192
  0
VERTEX
  5
540
  8
0
 10
129.6670074462891
 20
-15.43299961090088
 30
-16.82600021362305
 70
   192
  0
VERTEX
  5
541
  8
0
 10
129.0760040283203
 20
15.63000011444092
 30
-12.87199974060059
 70
   192
  0
VERTEX
  5
542
  8
0
 10
129.0149993896484
 20
-15.70300006866455
 30
-12.46100044250488
 70
   192
  0
VERTEX
  5
543
  8
0
 10
128.1119995117188
 20
-19.52400016784668
 30
-6.425000190734863
 70
   192
  0
VERTEX
  5
544
  8
0
 10
124.8919982910156
 20
-25.01600074768066
 30
15.12199974060059
 70
   192
  0
VERTEX
  5
545
  8
0
 10
128.8289947509766
 20
16.20700073242188
 30
-11.2209997177124
 70
   192
  0
VERTEX
  5
546
  8
0
 10
128.5879974365234
 20
-16.87700080871582
 30
-9.607999801635742
 70
   192
  0
VERTEX
  5
547
  8
0
 10
128.8309936523438
 20
-16.20999908447266
 30
-11.22900009155273
 70
   192
  0
VERTEX
  5
548
  8
0
 62
     9
 10
0.0
 20
0.0
 30
0.0
 70
   128
 71
     3
 72
     2
 73
     1
  0
VERTEX
  5
549
  8
0
 62
     9
 10
0.0
 20
0.0
 30
0.0
 70
   128
 71
     5
 72
     4
 73
     1
  0
VERTEX
  5
54A
  8
0
 62
     9
 10
0.0
 20
0.0
 30
0.0
 70
   128
 71
     7
 72
     6
 73
     4
  0
VERTEX
  5
54B
  8
0
 62
     9
 10
0.0
 20
0.0
 30
0.0
 70
   128
 71
     1
 72
     2
 73
     5
  0
VERTEX
  5
54C
  8
0
 62
     9
 10
0.0
 20
0.0
 30
0.0
 70
   128
 71
     6
 72
     1
 73
     4
  0
VERTEX
  5
54D
  8
0
 62
     9
 10
0.0
 20
0.0
 30
0.0
 70
   128
 71
    10
 72
     9
 73
     8
  0
VERTEX
  5
54E
  8
0
 62
     9
 10
0.0
 20
0.0
 30
0.0
 70
   128
 71
    12
 72
    11
 73
     8
  0
VERTEX
  5
54F
  8
0
 62
     9
 10
0.0
 20
0.0
 30
0.0
 70
   128
 71
     4
 72
    13
 73
     7
  0
VERTEX
  5
550
  8
0
 62
     9
 10
0.0
 20
0.0
 30
0.0
 70
   128
 71
     8
 72
     9
 73
    12
  0
VERTEX
  5
551
  8
0
 62
     9
 10
0.0
 20
0.0
 30
0.0
 70
   128
 71
    16
 72
    15
 73
    14
  0
VERTEX
  5
552
  8
0
 62
     9
 10
0.0
 20
0.0
 30
0.0
 70
   128
 71
    17
 72
     8
 73
    11
  0
VERTEX
  5
553
  8
0
 62
     9
 10
0.0
 20
0.0
 30
0.0
 70
   128
 71
     8
 72
     1
 73
    10
  0
VERTEX
  5
554
  8
0
 62
     9
 10
0.0
 20
0.0
 30
0.0
 70
   128
 71
    20
 72
    19
 73
    18
  0
VERTEX
  5
555
  8
0
 62
     9
 10
0.0
 20
0.0
 30
0.0
 70
   128
 71
    22
 72
    21
 73
    18
  0
VERTEX
  5
556
  8
0
 62
     9
 10
0.0
 20
0.0
 30
0.0
 70
   128
 71
    24
 72
    23
 73
    14
  0
VERTEX
  5
557
  8
0
 62
     9
 10
0.0
 20
0.0
 30
0.0
 70
   128
 71
    15
 72
    25
 73
    14
  0
VERTEX
  5
558
  8
0
 62
     9
 10
0.0
 20
0.0
 30
0.0
 70
   128
 71
    28
 72
    27
 73
    26
  0
VERTEX
  5
559
  8
0
 62
     9
 10
0.0
 20
0.0
 30
0.0
 70
   128
 71
    30
 72
    29
 73
    26
  0
VERTEX
  5
55A
  8
0
 62
     9
 10
0.0
 20
0.0
 30
0.0
 70
   128
 71
    32
 72
    31
 73
    26
  0
VERTEX
  5
55B
  8
0
 62
     9
 10
0.0
 20
0.0
 30
0.0
 70
   128
 71
    34
 72
    33
 73
    26
  0
VERTEX
  5
55C
  8
0
 62
     9
 10
0.0
 20
0.0
 30
0.0
 70
   128
 71
    35
 72
    26
 73
    33
  0
VERTEX
  5
55D
  8
0
 62
     9
 10
0.0
 20
0.0
 30
0.0
 70
   128
 71
     1
 72
     8
 73
     3
  0
VERTEX
  5
55E
  8
0
 62
     9
 10
0.0
 20
0.0
 30
0.0
 70
   128
 71
    18
 72
    19
 73
    22
  0
VERTEX
  5
55F
  8
0
 62
     9
 10
0.0
 20
0.0
 30
0.0
 70
   128
 71
    37
 72
    36
 73
    14
  0
VERTEX
  5
560
  8
0
 62
     9
 10
0.0
 20
0.0
 30
0.0
 70
   128
 71
    39
 72
    38
 73
    14
  0
VERTEX
  5
561
  8
0
 62
     9
 10
0.0
 20
0.0
 30
0.0
 70
   128
 71
    41
 72
    40
 73
    14
  0
VERTEX
  5
562
  8
0
 62
     9
 10
0.0
 20
0.0
 30
0.0
 70
   128
 71
    43
 72
    42
 73
    14
  0
VERTEX
  5
563
  8
0
 62
     9
 10
0.0
 20
0.0
 30
0.0
 70
   128
 71
    45
 72
    44
 73
    14
  0
VERTEX
  5
564
  8
0
 62
     9
 10
0.0
 20
0.0
 30
0.0
 70
   128
 71
    14
 72
    23
 73
    16
  0
VERTEX
  5
565
  8
0
 62
     9
 10
0.0
 20
0.0
 30
0.0
 70
   128
 71
    47
 72
    46
 73
    14
  0
VERTEX
  5
566
  8
0
 62
     9
 10
0.0
 20
0.0
 30
0.0
 70
   128
 71
    26
 72
    27
 73
    30
  0
VERTEX
  5
567
  8
0
 62
     9
 10
0.0
 20
0.0
 30
0.0
 70
   128
 71
    49
 72
    48
 73
    26
  0
VERTEX
  5
568
  8
0
 62
     9
 10
0.0
 20
0.0
 30
0.0
 70
   128
 71
    26
 72
    31
 73
    34
  0
VERTEX
  5
569
  8
0
 62
     9
 10
0.0
 20
0.0
 30
0.0
 70
   128
 71
    33
 72
    50
 73
    35
  0
VERTEX
  5
56A
  8
0
 62
     9
 10
0.0
 20
0.0
 30
0.0
 70
   128
 71
    52
 72
    51
 73
    46
  0
VERTEX
  5
56B
  8
0
 62
     9
 10
0.0
 20
0.0
 30
0.0
 70
   128
 71
    18
 72
    11
 73
    20
  0
VERTEX
  5
56C
  8
0
 62
     9
 10
0.0
 20
0.0
 30
0.0
 70
   128
 71
    14
 72
    53
 73
    37
  0
VERTEX
  5
56D
  8
0
 62
     9
 10
0.0
 20
0.0
 30
0.0
 70
   128
 71
    55
 72
    54
 73
    14
  0
VERTEX
  5
56E
  8
0
 62
     9
 10
0.0
 20
0.0
 30
0.0
 70
   128
 71
    57
 72
    56
 73
    14
  0
VERTEX
  5
56F
  8
0
 62
     9
 10
0.0
 20
0.0
 30
0.0
 70
   128
 71
    14
 72
    38
 73
    41
  0
VERTEX
  5
570
  8
0
 62
     9
 10
0.0
 20
0.0
 30
0.0
 70
   128
 71
    14
 72
    42
 73
    45
  0
VERTEX
  5
571
  8
0
 62
     9
 10
0.0
 20
0.0
 30
0.0
 70
   128
 71
    14
 72
    25
 73
    47
  0
VERTEX
  5
572
  8
0
 62
     9
 10
0.0
 20
0.0
 30
0.0
 70
   128
 71
    26
 72
    29
 73
    49
  0
VERTEX
  5
573
  8
0
 62
     9
 10
0.0
 20
0.0
 30
0.0
 70
   128
 71
    33
 72
    58
 73
    50
  0
VERTEX
  5
574
  8
0
 62
     9
 10
0.0
 20
0.0
 30
0.0
 70
   128
 71
    51
 72
    59
 73
    46
  0
VERTEX
  5
575
  8
0
 62
     9
 10
0.0
 20
0.0
 30
0.0
 70
   128
 71
    22
 72
    60
 73
    21
  0
VERTEX
  5
576
  8
0
 62
     9
 10
0.0
 20
0.0
 30
0.0
 70
   128
 71
    60
 72
    62
 73
    61
  0
VERTEX
  5
577
  8
0
 62
     9
 10
0.0
 20
0.0
 30
0.0
 70
   128
 71
    14
 72
    63
 73
    53
  0
VERTEX
  5
578
  8
0
 62
     9
 10
0.0
 20
0.0
 30
0.0
 70
   128
 71
    54
 72
    64
 73
    14
  0
VERTEX
  5
579
  8
0
 62
     9
 10
0.0
 20
0.0
 30
0.0
 70
   128
 71
    14
 72
    56
 73
    39
  0
VERTEX
  5
57A
  8
0
 62
     9
 10
0.0
 20
0.0
 30
0.0
 70
   128
 71
    14
 72
    44
 73
    24
  0
VERTEX
  5
57B
  8
0
 62
     9
 10
0.0
 20
0.0
 30
0.0
 70
   128
 71
    26
 72
    48
 73
    32
  0
VERTEX
  5
57C
  8
0
 62
     9
 10
0.0
 20
0.0
 30
0.0
 70
   128
 71
    59
 72
    14
 73
    46
  0
VERTEX
  5
57D
  8
0
 62
     9
 10
0.0
 20
0.0
 30
0.0
 70
   128
 71
    65
 72
    61
 73
    62
  0
VERTEX
  5
57E
  8
0
 62
     9
 10
0.0
 20
0.0
 30
0.0
 70
   128
 71
    61
 72
    21
 73
    60
  0
VERTEX
  5
57F
  8
0
 62
     9
 10
0.0
 20
0.0
 30
0.0
 70
   128
 71
    67
 72
    66
 73
    14
  0
VERTEX
  5
580
  8
0
 62
     9
 10
0.0
 20
0.0
 30
0.0
 70
   128
 71
    14
 72
    36
 73
    55
  0
VERTEX
  5
581
  8
0
 62
     9
 10
0.0
 20
0.0
 30
0.0
 70
   128
 71
    14
 72
    40
 73
    43
  0
VERTEX
  5
582
  8
0
 62
     9
 10
0.0
 20
0.0
 30
0.0
 70
   128
 71
    46
 72
    26
 73
    52
  0
VERTEX
  5
583
  8
0
 62
     9
 10
0.0
 20
0.0
 30
0.0
 70
   128
 71
    11
 72
    18
 73
    17
  0
VERTEX
  5
584
  8
0
 62
     9
 10
0.0
 20
0.0
 30
0.0
 70
   128
 71
    14
 72
    66
 73
    63
  0
VERTEX
  5
585
  8
0
 62
     9
 10
0.0
 20
0.0
 30
0.0
 70
   128
 71
    26
 72
    46
 73
    28
  0
VERTEX
  5
586
  8
0
 62
     9
 10
0.0
 20
0.0
 30
0.0
 70
   128
 71
    14
 72
    62
 73
    67
  0
VERTEX
  5
587
  8
0
 62
     9
 10
0.0
 20
0.0
 30
0.0
 70
   128
 71
    62
 72
    14
 73
    65
  0
VERTEX
  5
588
  8
0
 62
     9
 10
0.0
 20
0.0
 30
0.0
 70
   128
 71
    14
 72
    64
 73
    57
  0
SEQEND
  5
589
  8
0
 62
     9
  0
ENDBLK
  5
58C
  8
0
  0
BLOCK
  8
0
  2
E3_NODE_21_
 70
     0
 10
0.0
 20
0.0
 30
0.0
  3
E3_NODE_21_
  1

  0
POLYLINE
  5
58E
  8
0
 62
     9
 66
     1
 10
0.0
 20
0.0
 30
0.0
 70
    64
 71
    17
 72
    15
  0
VERTEX
  5
58F
  8
0
 10
126.4589996337891
 20
-24.97400093078613
 30
4.63700008392334
 70
   192
  0
VERTEX
  5
590
  8
0
 10
125.6320037841797
 20
-25.54999923706055
 30
10.17099952697754
 70
   192
  0
VERTEX
  5
591
  8
0
 10
125.4789962768555
 20
-25.9330005645752
 30
8.125
 70
   192
  0
VERTEX
  5
592
  8
0
 10
125.5019989013672
 20
-25.86800003051758
 30
10.15100002288818
 70
   192
  0
VERTEX
  5
593
  8
0
 10
125.1869964599609
 20
-26.0
 30
10.10400009155273
 70
   192
  0
VERTEX
  5
594
  8
0
 10
125.9329986572266
 20
-25.38599967956543
 30
5.047999858856201
 70
   192
  0
VERTEX
  5
595
  8
0
 10
126.2720031738281
 20
-24.97599983215332
 30
2.74399995803833
 70
   192
  0
VERTEX
  5
596
  8
0
 10
126.9459991455078
 20
-23.88999938964844
 30
1.379999995231628
 70
   192
  0
VERTEX
  5
597
  8
0
 10
126.504997253418
 20
-24.33200073242188
 30
1.162999987602234
 70
   192
  0
VERTEX
  5
598
  8
0
 10
126.6480026245117
 20
-23.93400001525879
 30
0.1870000064373016
 70
   192
  0
VERTEX
  5
599
  8
0
 10
127.2379989624023
 20
-23.23900032043457
 30
-0.5770000219345093
 70
   192
  0
VERTEX
  5
59A
  8
0
 10
127.0120010375977
 20
-22.92600059509277
 30
-2.283999919891357
 70
   192
  0
VERTEX
  5
59B
  8
0
 10
127.3089981079102
 20
-21.5580005645752
 30
-4.296999931335449
 70
   192
  0
VERTEX
  5
59C
  8
0
 10
128.0010070800781
 20
-19.77799987792969
 30
-6.656000137329102
 70
   192
  0
VERTEX
  5
59D
  8
0
 10
128.1119995117188
 20
-19.52400016784668
 30
-6.425000190734863
 70
   192
  0
VERTEX
  5
59E
  8
0
 10
127.9339981079102
 20
-20.47400093078613
 30
-5.23199987411499
 70
   192
  0
VERTEX
  5
59F
  8
0
 10
127.6750030517578
 20
-19.86800003051758
 30
-6.781000137329102
 70
   192
  0
VERTEX
  5
5A0
  8
0
 62
     9
 10
0.0
 20
0.0
 30
0.0
 70
   128
 71
     3
 72
     2
 73
     1
  0
VERTEX
  5
5A1
  8
0
 62
     9
 10
0.0
 20
0.0
 30
0.0
 70
   128
 71
     4
 72
     2
 73
     3
  0
VERTEX
  5
5A2
  8
0
 62
     9
 10
0.0
 20
0.0
 30
0.0
 70
   128
 71
     3
 72
     5
 73
     4
  0
VERTEX
  5
5A3
  8
0
 62
     9
 10
0.0
 20
0.0
 30
0.0
 70
   128
 71
     7
 72
     6
 73
     1
  0
VERTEX
  5
5A4
  8
0
 62
     9
 10
0.0
 20
0.0
 30
0.0
 70
   128
 71
     1
 72
     8
 73
     7
  0
VERTEX
  5
5A5
  8
0
 62
     9
 10
0.0
 20
0.0
 30
0.0
 70
   128
 71
     8
 72
     9
 73
     7
  0
VERTEX
  5
5A6
  8
0
 62
     9
 10
0.0
 20
0.0
 30
0.0
 70
   128
 71
    10
 72
     9
 73
     8
  0
VERTEX
  5
5A7
  8
0
 62
     9
 10
0.0
 20
0.0
 30
0.0
 70
   128
 71
    13
 72
    12
 73
    11
  0
VERTEX
  5
5A8
  8
0
 62
     9
 10
0.0
 20
0.0
 30
0.0
 70
   128
 71
    12
 72
    10
 73
    11
  0
VERTEX
  5
5A9
  8
0
 62
     9
 10
0.0
 20
0.0
 30
0.0
 70
   128
 71
    16
 72
    15
 73
    14
  0
VERTEX
  5
5AA
  8
0
 62
     9
 10
0.0
 20
0.0
 30
0.0
 70
   128
 71
    14
 72
    17
 73
    13
  0
VERTEX
  5
5AB
  8
0
 62
     9
 10
0.0
 20
0.0
 30
0.0
 70
   128
 71
    14
 72
    13
 73
    16
  0
VERTEX
  5
5AC
  8
0
 62
     9
 10
0.0
 20
0.0
 30
0.0
 70
   128
 71
    11
 72
    16
 73
    13
  0
VERTEX
  5
5AD
  8
0
 62
     9
 10
0.0
 20
0.0
 30
0.0
 70
   128
 71
     8
 72
    11
 73
    10
  0
VERTEX
  5
5AE
  8
0
 62
     9
 10
0.0
 20
0.0
 30
0.0
 70
   128
 71
     1
 72
     6
 73
     3
  0
SEQEND
  5
5AF
  8
0
 62
     9
  0
ENDBLK
  5
5B2
  8
0
  0
BLOCK
  8
0
  2
E3_NODE_22_
 70
     0
 10
0.0
 20
0.0
 30
0.0
  3
E3_NODE_22_
  1

  0
POLYLINE
  5
5B4
  8
0
 62
     9
 66
     1
 10
0.0
 20
0.0
 30
0.0
 70
    64
 71
    18
 72
    17
  0
VERTEX
  5
5B5
  8
0
 10
129.22900390625
 20
-15.88300037384033
 30
-17.09499931335449
 70
   192
  0
VERTEX
  5
5B6
  8
0
 10
128.6990051269531
 20
-16.07900047302246
 30
-13.57299995422363
 70
   192
  0
VERTEX
  5
5B7
  8
0
 10
128.6849975585938
 20
-16.07099914550781
 30
-13.60999965667725
 70
   192
  0
VERTEX
  5
5B8
  8
0
 10
128.6790008544922
 20
-16.07399940490723
 30
-13.57199954986572
 70
   192
  0
VERTEX
  5
5B9
  8
0
 10
128.7169952392578
 20
-16.06999969482422
 30
-13.57100009918213
 70
   192
  0
VERTEX
  5
5BA
  8
0
 10
128.5989990234375
 20
-16.11100006103516
 30
-12.78899955749512
 70
   192
  0
VERTEX
  5
5BB
  8
0
 10
128.3880004882812
 20
-16.61700057983398
 30
-11.44400024414062
 70
   192
  0
VERTEX
  5
5BC
  8
0
 10
128.3079986572266
 20
-16.80999946594238
 30
-10.93200016021729
 70
   192
  0
VERTEX
  5
5BD
  8
0
 10
128.2779998779297
 20
-16.84199905395508
 30
-10.88899993896484
 70
   192
  0
VERTEX
  5
5BE
  8
0
 10
128.5570068359375
 20
-16.11800003051758
 30
-12.75500011444092
 70
   192
  0
VERTEX
  5
5BF
  8
0
 10
128.3000030517578
 20
-16.82799911499023
 30
-10.88199996948242
 70
   192
  0
VERTEX
  5
5C0
  8
0
 10
127.6750030517578
 20
-19.86800003051758
 30
-6.781000137329102
 70
   192
  0
VERTEX
  5
5C1
  8
0
 10
127.6640014648438
 20
-19.86800003051758
 30
-6.782000064849854
 70
   192
  0
VERTEX
  5
5C2
  8
0
 10
127.9520034790039
 20
-18.27899932861328
 30
-8.706999778747559
 70
   192
  0
VERTEX
  5
5C3
  8
0
 10
128.1869964599609
 20
-17.09900093078613
 30
-10.16199970245361
 70
   192
  0
VERTEX
  5
5C4
  8
0
 10
128.1529998779297
 20
-17.16600036621094
 30
-10.05500030517578
 70
   192
  0
VERTEX
  5
5C5
  8
0
 10
129.2519989013672
 20
-15.88300037384033
 30
-17.0939998626709
 70
   192
  0
VERTEX
  5
5C6
  8
0
 10
129.2050018310547
 20
-15.88300037384033
 30
-17.09499931335449
 70
   192
  0
VERTEX
  5
5C7
  8
0
 62
     9
 10
0.0
 20
0.0
 30
0.0
 70
   128
 71
     3
 72
     2
 73
     1
  0
VERTEX
  5
5C8
  8
0
 62
     9
 10
0.0
 20
0.0
 30
0.0
 70
   128
 71
     3
 72
     4
 73
     2
  0
VERTEX
  5
5C9
  8
0
 62
     9
 10
0.0
 20
0.0
 30
0.0
 70
   128
 71
     1
 72
     2
 73
     5
  0
VERTEX
  5
5CA
  8
0
 62
     9
 10
0.0
 20
0.0
 30
0.0
 70
   128
 71
     7
 72
     6
 73
     2
  0
VERTEX
  5
5CB
  8
0
 62
     9
 10
0.0
 20
0.0
 30
0.0
 70
   128
 71
     6
 72
     5
 73
     2
  0
VERTEX
  5
5CC
  8
0
 62
     9
 10
0.0
 20
0.0
 30
0.0
 70
   128
 71
    10
 72
     9
 73
     8
  0
VERTEX
  5
5CD
  8
0
 62
     9
 10
0.0
 20
0.0
 30
0.0
 70
   128
 71
     8
 72
     4
 73
    10
  0
VERTEX
  5
5CE
  8
0
 62
     9
 10
0.0
 20
0.0
 30
0.0
 70
   128
 71
     9
 72
    11
 73
     8
  0
VERTEX
  5
5CF
  8
0
 62
     9
 10
0.0
 20
0.0
 30
0.0
 70
   128
 71
     8
 72
     2
 73
     4
  0
VERTEX
  5
5D0
  8
0
 62
     9
 10
0.0
 20
0.0
 30
0.0
 70
   128
 71
    14
 72
    13
 73
    12
  0
VERTEX
  5
5D1
  8
0
 62
     9
 10
0.0
 20
0.0
 30
0.0
 70
   128
 71
    12
 72
    15
 73
    14
  0
VERTEX
  5
5D2
  8
0
 62
     9
 10
0.0
 20
0.0
 30
0.0
 70
   128
 71
    15
 72
    11
 73
     9
  0
VERTEX
  5
5D3
  8
0
 62
     9
 10
0.0
 20
0.0
 30
0.0
 70
   128
 71
     9
 72
    16
 73
    15
  0
VERTEX
  5
5D4
  8
0
 62
     9
 10
0.0
 20
0.0
 30
0.0
 70
   128
 71
    15
 72
    16
 73
    14
  0
VERTEX
  5
5D5
  8
0
 62
     9
 10
0.0
 20
0.0
 30
0.0
 70
   128
 71
     2
 72
     8
 73
     7
  0
VERTEX
  5
5D6
  8
0
 62
     9
 10
0.0
 20
0.0
 30
0.0
 70
   128
 71
     5
 72
    17
 73
     1
  0
VERTEX
  5
5D7
  8
0
 62
     9
 10
0.0
 20
0.0
 30
0.0
 70
   128
 71
     1
 72
    18
 73
     3
  0
SEQEND
  5
5D8
  8
0
 62
     9
  0
ENDBLK
  5
5DB
  8
0
  0
BLOCK
  8
0
  2
E3_NODE_23_
 70
     0
 10
0.0
 20
0.0
 30
0.0
  3
E3_NODE_23_
  1

  0
POLYLINE
  5
5DD
  8
0
 62
     9
 66
     1
 10
0.0
 20
0.0
 30
0.0
 70
    64
 71
    44
 72
    42
  0
VERTEX
  5
5DE
  8
0
 10
133.9100036621094
 20
-14.04800033569336
 30
-62.31900024414062
 70
   192
  0
VERTEX
  5
5DF
  8
0
 10
127.1480026245117
 20
-13.18200016021729
 30
-21.65500068664551
 70
   192
  0
VERTEX
  5
5E0
  8
0
 10
126.8089981079102
 20
-12.20400047302246
 30
-22.07399940490723
 70
   192
  0
VERTEX
  5
5E1
  8
0
 10
132.8119964599609
 20
-12.20199966430664
 30
-62.34799957275391
 70
   192
  0
VERTEX
  5
5E2
  8
0
 10
134.2890014648438
 20
-14.6870002746582
 30
-62.31000137329102
 70
   192
  0
VERTEX
  5
5E3
  8
0
 10
135.9559936523438
 20
-15.88300037384033
 30
-62.26599884033203
 70
   192
  0
VERTEX
  5
5E4
  8
0
 10
128.0659942626953
 20
-14.82199954986572
 30
-19.79899978637695
 70
   192
  0
VERTEX
  5
5E5
  8
0
 10
127.4550018310547
 20
-13.72999954223633
 30
-21.03400039672852
 70
   192
  0
VERTEX
  5
5E6
  8
0
 10
129.2050018310547
 20
-15.88300037384033
 30
-17.09499931335449
 70
   192
  0
VERTEX
  5
5E7
  8
0
 10
128.3130035400391
 20
-15.05099964141846
 30
-19.2140007019043
 70
   192
  0
VERTEX
  5
5E8
  8
0
 10
125.2279968261719
 20
-2.148000001907349
 30
-23.13500022888184
 70
   192
  0
VERTEX
  5
5E9
  8
0
 10
131.1089935302734
 20
-2.145999908447266
 30
-62.39300155639648
 70
   192
  0
VERTEX
  5
5EA
  8
0
 10
131.3869934082031
 20
-5.90500020980835
 30
-62.3849983215332
 70
   192
  0
VERTEX
  5
5EB
  8
0
 10
125.5220031738281
 20
-6.717999935150146
 30
-23.15500068664551
 70
   192
  0
VERTEX
  5
5EC
  8
0
 10
132.3309936523438
 20
-10.72200012207031
 30
-62.36100006103516
 70
   192
  0
VERTEX
  5
5ED
  8
0
 10
126.0780029296875
 20
-9.571999549865723
 30
-22.82799911499023
 70
   192
  0
VERTEX
  5
5EE
  8
0
 10
126.3089981079102
 20
-10.76200008392334
 30
-22.69099998474121
 70
   192
  0
VERTEX
  5
5EF
  8
0
 10
131.5070037841797
 20
-7.528999805450439
 30
-62.38199996948242
 70
   192
  0
VERTEX
  5
5F0
  8
0
 10
132.6380004882812
 20
-11.90900039672852
 30
-62.35300064086914
 70
   192
  0
VERTEX
  5
5F1
  8
0
 10
133.8699951171875
 20
14.05399990081787
 30
-62.32099914550781
 70
   192
  0
VERTEX
  5
5F2
  8
0
 10
133.7319946289062
 20
13.82100009918213
 30
-62.32400131225586
 70
   192
  0
VERTEX
  5
5F3
  8
0
 10
127.4889984130859
 20
13.86200046539307
 30
-21.04400062561035
 70
   192
  0
VERTEX
  5
5F4
  8
0
 10
128.3009948730469
 20
15.09500026702881
 30
-19.20000076293945
 70
   192
  0
VERTEX
  5
5F5
  8
0
 10
134.1600036621094
 20
14.54199981689453
 30
-62.3129997253418
 70
   192
  0
VERTEX
  5
5F6
  8
0
 10
128.3699951171875
 20
15.20100021362305
 30
-19.04199981689453
 70
   192
  0
VERTEX
  5
5F7
  8
0
 10
135.9559936523438
 20
15.88300037384033
 30
-62.26599884033203
 70
   192
  0
VERTEX
  5
5F8
  8
0
 10
126.0979995727539
 20
9.625
 30
-22.80299949645996
 70
   192
  0
VERTEX
  5
5F9
  8
0
 10
132.7250061035156
 20
12.125
 30
-62.34999847412109
 70
   192
  0
VERTEX
  5
5FA
  8
0
 10
132.3390045166016
 20
10.67399978637695
 30
-62.36100006103516
 70
   192
  0
VERTEX
  5
5FB
  8
0
 10
125.7080001831055
 20
7.952000141143799
 30
-23.10300064086914
 70
   192
  0
VERTEX
  5
5FC
  8
0
 10
126.5650024414062
 20
11.6269998550415
 30
-22.44400024414062
 70
   192
  0
VERTEX
  5
5FD
  8
0
 10
131.5140075683594
 20
7.573999881744385
 30
-62.38199996948242
 70
   192
  0
VERTEX
  5
5FE
  8
0
 10
131.4770050048828
 20
7.109000205993652
 30
-62.38299942016602
 70
   192
  0
VERTEX
  5
5FF
  8
0
 10
125.6259994506836
 20
7.105999946594238
 30
-23.10899925231934
 70
   192
  0
VERTEX
  5
600
  8
0
 10
127.4329986572266
 20
13.77700042724609
 30
-21.17099952697754
 70
   192
  0
VERTEX
  5
601
  8
0
 10
130.9579925537109
 20
-0.1000000014901161
 30
-62.39699935913086
 70
   192
  0
VERTEX
  5
602
  8
0
 10
125.088996887207
 20
0.0080000003799796
 30
-23.12599945068359
 70
   192
  0
VERTEX
  5
603
  8
0
 10
130.9579925537109
 20
0.1000000014901161
 30
-62.39699935913086
 70
   192
  0
VERTEX
  5
604
  8
0
 10
130.9579925537109
 20
0.0
 30
-62.39699935913086
 70
   192
  0
VERTEX
  5
605
  8
0
 10
130.9620056152344
 20
0.6579999923706055
 30
-62.39699935913086
 70
   192
  0
VERTEX
  5
606
  8
0
 10
131.3739929199219
 20
5.821000099182129
 30
-62.38600158691406
 70
   192
  0
VERTEX
  5
607
  8
0
 10
125.1269989013672
 20
1.996000051498413
 30
-23.14500045776367
 70
   192
  0
VERTEX
  5
608
  8
0
 10
125.4059982299805
 20
4.855999946594238
 30
-23.12400054931641
 70
   192
  0
VERTEX
  5
609
  8
0
 10
129.2050018310547
 20
15.88300037384033
 30
-17.09499931335449
 70
   192
  0
VERTEX
  5
60A
  8
0
 62
     9
 10
0.0
 20
0.0
 30
0.0
 70
   128
 71
     3
 72
     2
 73
     1
  0
VERTEX
  5
60B
  8
0
 62
     9
 10
0.0
 20
0.0
 30
0.0
 70
   128
 71
     1
 72
     4
 73
     3
  0
VERTEX
  5
60C
  8
0
 62
     9
 10
0.0
 20
0.0
 30
0.0
 70
   128
 71
     2
 72
     5
 73
     1
  0
VERTEX
  5
60D
  8
0
 62
     9
 10
0.0
 20
0.0
 30
0.0
 70
   128
 71
     8
 72
     7
 73
     6
  0
VERTEX
  5
60E
  8
0
 62
     9
 10
0.0
 20
0.0
 30
0.0
 70
   128
 71
    10
 72
     9
 73
     6
  0
VERTEX
  5
60F
  8
0
 62
     9
 10
0.0
 20
0.0
 30
0.0
 70
   128
 71
     6
 72
     7
 73
    10
  0
VERTEX
  5
610
  8
0
 62
     9
 10
0.0
 20
0.0
 30
0.0
 70
   128
 71
     6
 72
     2
 73
     8
  0
VERTEX
  5
611
  8
0
 62
     9
 10
0.0
 20
0.0
 30
0.0
 70
   128
 71
    13
 72
    12
 73
    11
  0
VERTEX
  5
612
  8
0
 62
     9
 10
0.0
 20
0.0
 30
0.0
 70
   128
 71
    11
 72
    14
 73
    13
  0
VERTEX
  5
613
  8
0
 62
     9
 10
0.0
 20
0.0
 30
0.0
 70
   128
 71
    14
 72
    16
 73
    15
  0
VERTEX
  5
614
  8
0
 62
     9
 10
0.0
 20
0.0
 30
0.0
 70
   128
 71
    16
 72
    17
 73
    15
  0
VERTEX
  5
615
  8
0
 62
     9
 10
0.0
 20
0.0
 30
0.0
 70
   128
 71
    15
 72
    18
 73
    14
  0
VERTEX
  5
616
  8
0
 62
     9
 10
0.0
 20
0.0
 30
0.0
 70
   128
 71
    17
 72
    19
 73
    15
  0
VERTEX
  5
617
  8
0
 62
     9
 10
0.0
 20
0.0
 30
0.0
 70
   128
 71
    17
 72
     4
 73
    19
  0
VERTEX
  5
618
  8
0
 62
     9
 10
0.0
 20
0.0
 30
0.0
 70
   128
 71
    17
 72
     3
 73
     4
  0
VERTEX
  5
619
  8
0
 62
     9
 10
0.0
 20
0.0
 30
0.0
 70
   128
 71
    22
 72
    21
 73
    20
  0
VERTEX
  5
61A
  8
0
 62
     9
 10
0.0
 20
0.0
 30
0.0
 70
   128
 71
    20
 72
    24
 73
    23
  0
VERTEX
  5
61B
  8
0
 62
     9
 10
0.0
 20
0.0
 30
0.0
 70
   128
 71
    20
 72
    23
 73
    22
  0
VERTEX
  5
61C
  8
0
 62
     9
 10
0.0
 20
0.0
 30
0.0
 70
   128
 71
    24
 72
    26
 73
    25
  0
VERTEX
  5
61D
  8
0
 62
     9
 10
0.0
 20
0.0
 30
0.0
 70
   128
 71
    24
 72
    25
 73
    23
  0
VERTEX
  5
61E
  8
0
 62
     9
 10
0.0
 20
0.0
 30
0.0
 70
   128
 71
    29
 72
    28
 73
    27
  0
VERTEX
  5
61F
  8
0
 62
     9
 10
0.0
 20
0.0
 30
0.0
 70
   128
 71
    27
 72
    30
 73
    29
  0
VERTEX
  5
620
  8
0
 62
     9
 10
0.0
 20
0.0
 30
0.0
 70
   128
 71
    28
 72
    21
 73
    31
  0
VERTEX
  5
621
  8
0
 62
     9
 10
0.0
 20
0.0
 30
0.0
 70
   128
 71
    33
 72
    32
 73
    30
  0
VERTEX
  5
622
  8
0
 62
     9
 10
0.0
 20
0.0
 30
0.0
 70
   128
 71
    32
 72
    29
 73
    30
  0
VERTEX
  5
623
  8
0
 62
     9
 10
0.0
 20
0.0
 30
0.0
 70
   128
 71
    30
 72
    34
 73
    33
  0
VERTEX
  5
624
  8
0
 62
     9
 10
0.0
 20
0.0
 30
0.0
 70
   128
 71
    28
 72
    31
 73
    27
  0
VERTEX
  5
625
  8
0
 62
     9
 10
0.0
 20
0.0
 30
0.0
 70
   128
 71
    21
 72
    35
 73
    31
  0
VERTEX
  5
626
  8
0
 62
     9
 10
0.0
 20
0.0
 30
0.0
 70
   128
 71
    11
 72
    12
 73
    36
  0
VERTEX
  5
627
  8
0
 62
     9
 10
0.0
 20
0.0
 30
0.0
 70
   128
 71
    39
 72
    38
 73
    37
  0
VERTEX
  5
628
  8
0
 62
     9
 10
0.0
 20
0.0
 30
0.0
 70
   128
 71
    38
 72
    40
 73
    37
  0
VERTEX
  5
629
  8
0
 62
     9
 10
0.0
 20
0.0
 30
0.0
 70
   128
 71
    41
 72
    33
 73
    34
  0
VERTEX
  5
62A
  8
0
 62
     9
 10
0.0
 20
0.0
 30
0.0
 70
   128
 71
    43
 72
    42
 73
    40
  0
VERTEX
  5
62B
  8
0
 62
     9
 10
0.0
 20
0.0
 30
0.0
 70
   128
 71
    40
 72
    41
 73
    43
  0
VERTEX
  5
62C
  8
0
 62
     9
 10
0.0
 20
0.0
 30
0.0
 70
   128
 71
    42
 72
    37
 73
    40
  0
VERTEX
  5
62D
  8
0
 62
     9
 10
0.0
 20
0.0
 30
0.0
 70
   128
 71
    34
 72
    43
 73
    41
  0
VERTEX
  5
62E
  8
0
 62
     9
 10
0.0
 20
0.0
 30
0.0
 70
   128
 71
    37
 72
    36
 73
    39
  0
VERTEX
  5
62F
  8
0
 62
     9
 10
0.0
 20
0.0
 30
0.0
 70
   128
 71
    36
 72
    37
 73
    11
  0
VERTEX
  5
630
  8
0
 62
     9
 10
0.0
 20
0.0
 30
0.0
 70
   128
 71
    21
 72
    22
 73
    35
  0
VERTEX
  5
631
  8
0
 62
     9
 10
0.0
 20
0.0
 30
0.0
 70
   128
 71
    26
 72
    44
 73
    25
  0
VERTEX
  5
632
  8
0
 62
     9
 10
0.0
 20
0.0
 30
0.0
 70
   128
 71
    14
 72
    18
 73
    13
  0
VERTEX
  5
633
  8
0
 62
     9
 10
0.0
 20
0.0
 30
0.0
 70
   128
 71
     2
 72
     6
 73
     5
  0
SEQEND
  5
634
  8
0
 62
     9
  0
ENDBLK
  5
637
  8
0
  0
BLOCK
  8
0
  2
E3_NODE_24_
 70
     0
 10
0.0
 20
0.0
 30
0.0
  3
E3_NODE_24_
  1

  0
POLYLINE
  5
639
  8
0
 62
     9
 66
     1
 10
0.0
 20
0.0
 30
0.0
 70
    64
 71
    55
 72
    67
  0
VERTEX
  5
63A
  8
0
 10
123.1139984130859
 20
-9.862000465393066
 30
-16.00399971008301
 70
   192
  0
VERTEX
  5
63B
  8
0
 10
119.6669998168945
 20
-8.684000015258789
 30
-14.95600032806396
 70
   192
  0
VERTEX
  5
63C
  8
0
 10
119.7750015258789
 20
-5.833000183105469
 30
-15.77499961853027
 70
   192
  0
VERTEX
  5
63D
  8
0
 10
119.9889984130859
 20
-11.46599960327148
 30
-13.77600002288818
 70
   192
  0
VERTEX
  5
63E
  8
0
 10
125.3600006103516
 20
-17.15999984741211
 30
-9.753000259399414
 70
   192
  0
VERTEX
  5
63F
  8
0
 10
126.4089965820312
 20
-15.60499954223633
 30
-12.14700031280518
 70
   192
  0
VERTEX
  5
640
  8
0
 10
128.2779998779297
 20
-16.84199905395508
 30
-10.88899993896484
 70
   192
  0
VERTEX
  5
641
  8
0
 10
128.1529998779297
 20
-17.16600036621094
 30
-10.05500030517578
 70
   192
  0
VERTEX
  5
642
  8
0
 10
125.1589965820312
 20
-9.312999725341797
 30
-19.37599945068359
 70
   192
  0
VERTEX
  5
643
  8
0
 10
122.8219985961914
 20
-4.998000144958496
 30
-17.24699974060059
 70
   192
  0
VERTEX
  5
644
  8
0
 10
128.5570068359375
 20
-16.11800003051758
 30
-12.75500011444092
 70
   192
  0
VERTEX
  5
645
  8
0
 10
127.3850021362305
 20
-14.97500038146973
 30
-15.37899971008301
 70
   192
  0
VERTEX
  5
646
  8
0
 10
128.6849975585938
 20
-16.07099914550781
 30
-13.60999965667725
 70
   192
  0
VERTEX
  5
647
  8
0
 10
128.6790008544922
 20
-16.07399940490723
 30
-13.57199954986572
 70
   192
  0
VERTEX
  5
648
  8
0
 10
124.9240036010742
 20
-14.0959997177124
 30
-13.67399978637695
 70
   192
  0
VERTEX
  5
649
  8
0
 10
126.4619979858398
 20
-13.49499988555908
 30
-17.30599975585938
 70
   192
  0
VERTEX
  5
64A
  8
0
 10
121.1259994506836
 20
-13.9069995880127
 30
-12.375
 70
   192
  0
VERTEX
  5
64B
  8
0
 10
122.9899978637695
 20
-15.8149995803833
 30
-10.97500038146973
 70
   192
  0
VERTEX
  5
64C
  8
0
 10
123.4469985961914
 20
-18.66699981689453
 30
-8.218999862670898
 70
   192
  0
VERTEX
  5
64D
  8
0
 10
127.9520034790039
 20
-18.27899932861328
 30
-8.706999778747559
 70
   192
  0
VERTEX
  5
64E
  8
0
 10
122.8830032348633
 20
-18.42900085449219
 30
-8.463000297546387
 70
   192
  0
VERTEX
  5
64F
  8
0
 10
121.2180023193359
 20
-17.72500038146973
 30
-9.184000015258789
 70
   192
  0
VERTEX
  5
650
  8
0
 10
120.3949966430664
 20
-17.37800025939941
 30
-9.541000366210938
 70
   192
  0
VERTEX
  5
651
  8
0
 10
117.4079971313477
 20
-14.45699977874756
 30
-11.83899974822998
 70
   192
  0
VERTEX
  5
652
  8
0
 10
118.5780029296875
 20
-15.92000007629395
 30
-10.77700042724609
 70
   192
  0
VERTEX
  5
653
  8
0
 10
117.9540023803711
 20
-15.41899967193604
 30
-11.20199966430664
 70
   192
  0
VERTEX
  5
654
  8
0
 10
116.4589996337891
 20
-12.78499984741211
 30
-12.94799995422363
 70
   192
  0
VERTEX
  5
655
  8
0
 10
116.1419982910156
 20
-10.28800010681152
 30
-14.14500045776367
 70
   192
  0
VERTEX
  5
656
  8
0
 10
116.8050003051758
 20
-13.39400005340576
 30
-12.54500007629395
 70
   192
  0
VERTEX
  5
657
  8
0
 10
116.036003112793
 20
-9.451000213623047
 30
-14.54500007629395
 70
   192
  0
VERTEX
  5
658
  8
0
 10
116.3160018920898
 20
-6.901000022888184
 30
-15.26900005340576
 70
   192
  0
VERTEX
  5
659
  8
0
 10
116.1009979248047
 20
-9.961000442504883
 30
-14.30099964141846
 70
   192
  0
VERTEX
  5
65A
  8
0
 10
118.1549987792969
 20
0.0
 30
-16.29100036621094
 70
   192
  0
VERTEX
  5
65B
  8
0
 10
120.0240020751953
 20
0.0
 30
-16.54800033569336
 70
   192
  0
VERTEX
  5
65C
  8
0
 10
116.5510025024414
 20
-4.758999824523926
 30
-15.8769998550415
 70
   192
  0
VERTEX
  5
65D
  8
0
 10
116.9670028686523
 20
0.0
 30
-16.31100082397461
 70
   192
  0
VERTEX
  5
65E
  8
0
 10
116.515998840332
 20
-5.078999996185303
 30
-15.78600025177002
 70
   192
  0
VERTEX
  5
65F
  8
0
 10
121.1729965209961
 20
0.0010000000474975
 30
-16.70599937438965
 70
   192
  0
VERTEX
  5
660
  8
0
 10
124.6110000610352
 20
-4.690000057220459
 30
-20.00399971008301
 70
   192
  0
VERTEX
  5
661
  8
0
 10
123.0749969482422
 20
0.0020000000949949
 30
-17.86899948120117
 70
   192
  0
VERTEX
  5
662
  8
0
 10
124.2890014648438
 20
0.0040000001899898
 30
-19.71299934387207
 70
   192
  0
VERTEX
  5
663
  8
0
 10
122.7570037841797
 20
0.0020000000949949
 30
-17.67499923706055
 70
   192
  0
VERTEX
  5
664
  8
0
 10
124.3870010375977
 20
0.0049999998882413
 30
-20.13100051879883
 70
   192
  0
VERTEX
  5
665
  8
0
 10
125.2279968261719
 20
-2.148000001907349
 30
-23.13500022888184
 70
   192
  0
VERTEX
  5
666
  8
0
 10
125.088996887207
 20
0.0080000003799796
 30
-23.12599945068359
 70
   192
  0
VERTEX
  5
667
  8
0
 10
125.5220031738281
 20
-6.717999935150146
 30
-23.15500068664551
 70
   192
  0
VERTEX
  5
668
  8
0
 10
126.0780029296875
 20
-9.571999549865723
 30
-22.82799911499023
 70
   192
  0
VERTEX
  5
669
  8
0
 10
127.1480026245117
 20
-13.18200016021729
 30
-21.65500068664551
 70
   192
  0
VERTEX
  5
66A
  8
0
 10
127.4550018310547
 20
-13.72999954223633
 30
-21.03400039672852
 70
   192
  0
VERTEX
  5
66B
  8
0
 10
126.8089981079102
 20
-12.20400047302246
 30
-22.07399940490723
 70
   192
  0
VERTEX
  5
66C
  8
0
 10
126.3089981079102
 20
-10.76200008392334
 30
-22.69099998474121
 70
   192
  0
VERTEX
  5
66D
  8
0
 10
128.0659942626953
 20
-14.82199954986572
 30
-19.79899978637695
 70
   192
  0
VERTEX
  5
66E
  8
0
 10
128.3130035400391
 20
-15.05099964141846
 30
-19.2140007019043
 70
   192
  0
VERTEX
  5
66F
  8
0
 10
129.2050018310547
 20
-15.88300037384033
 30
-17.09499931335449
 70
   192
  0
VERTEX
  5
670
  8
0
 10
127.6640014648438
 20
-19.86800003051758
 30
-6.782000064849854
 70
   192
  0
VERTEX
  5
671
  8
0
 62
     9
 10
0.0
 20
0.0
 30
0.0
 70
   128
 71
     3
 72
     2
 73
     1
  0
VERTEX
  5
672
  8
0
 62
     9
 10
0.0
 20
0.0
 30
0.0
 70
   128
 71
     2
 72
     4
 73
     1
  0
VERTEX
  5
673
  8
0
 62
     9
 10
0.0
 20
0.0
 30
0.0
 70
   128
 71
     7
 72
     6
 73
     5
  0
VERTEX
  5
674
  8
0
 62
     9
 10
0.0
 20
0.0
 30
0.0
 70
   128
 71
     5
 72
     8
 73
     7
  0
VERTEX
  5
675
  8
0
 62
     9
 10
0.0
 20
0.0
 30
0.0
 70
   128
 71
    10
 72
     1
 73
     9
  0
VERTEX
  5
676
  8
0
 62
     9
 10
0.0
 20
0.0
 30
0.0
 70
   128
 71
     7
 72
    11
 73
     6
  0
VERTEX
  5
677
  8
0
 62
     9
 10
0.0
 20
0.0
 30
0.0
 70
   128
 71
    13
 72
    12
 73
     6
  0
VERTEX
  5
678
  8
0
 62
     9
 10
0.0
 20
0.0
 30
0.0
 70
   128
 71
     6
 72
    14
 73
    13
  0
VERTEX
  5
679
  8
0
 62
     9
 10
0.0
 20
0.0
 30
0.0
 70
   128
 71
     6
 72
    11
 73
    14
  0
VERTEX
  5
67A
  8
0
 62
     9
 10
0.0
 20
0.0
 30
0.0
 70
   128
 71
    12
 72
    16
 73
    15
  0
VERTEX
  5
67B
  8
0
 62
     9
 10
0.0
 20
0.0
 30
0.0
 70
   128
 71
    16
 72
     9
 73
     1
  0
VERTEX
  5
67C
  8
0
 62
     9
 10
0.0
 20
0.0
 30
0.0
 70
   128
 71
     4
 72
    17
 73
    15
  0
VERTEX
  5
67D
  8
0
 62
     9
 10
0.0
 20
0.0
 30
0.0
 70
   128
 71
    17
 72
    18
 73
    15
  0
VERTEX
  5
67E
  8
0
 62
     9
 10
0.0
 20
0.0
 30
0.0
 70
   128
 71
     6
 72
    15
 73
    18
  0
VERTEX
  5
67F
  8
0
 62
     9
 10
0.0
 20
0.0
 30
0.0
 70
   128
 71
    20
 72
     5
 73
    19
  0
VERTEX
  5
680
  8
0
 62
     9
 10
0.0
 20
0.0
 30
0.0
 70
   128
 71
    21
 72
     5
 73
    18
  0
VERTEX
  5
681
  8
0
 62
     9
 10
0.0
 20
0.0
 30
0.0
 70
   128
 71
    21
 72
    19
 73
     5
  0
VERTEX
  5
682
  8
0
 62
     9
 10
0.0
 20
0.0
 30
0.0
 70
   128
 71
    18
 72
    22
 73
    21
  0
VERTEX
  5
683
  8
0
 62
     9
 10
0.0
 20
0.0
 30
0.0
 70
   128
 71
    23
 72
    18
 73
    17
  0
VERTEX
  5
684
  8
0
 62
     9
 10
0.0
 20
0.0
 30
0.0
 70
   128
 71
    23
 72
    22
 73
    18
  0
VERTEX
  5
685
  8
0
 62
     9
 10
0.0
 20
0.0
 30
0.0
 70
   128
 71
    24
 72
    17
 73
     4
  0
VERTEX
  5
686
  8
0
 62
     9
 10
0.0
 20
0.0
 30
0.0
 70
   128
 71
    26
 72
    25
 73
    17
  0
VERTEX
  5
687
  8
0
 62
     9
 10
0.0
 20
0.0
 30
0.0
 70
   128
 71
    17
 72
    24
 73
    26
  0
VERTEX
  5
688
  8
0
 62
     9
 10
0.0
 20
0.0
 30
0.0
 70
   128
 71
    28
 72
    27
 73
     4
  0
VERTEX
  5
689
  8
0
 62
     9
 10
0.0
 20
0.0
 30
0.0
 70
   128
 71
    27
 72
    29
 73
     4
  0
VERTEX
  5
68A
  8
0
 62
     9
 10
0.0
 20
0.0
 30
0.0
 70
   128
 71
    31
 72
    30
 73
     2
  0
VERTEX
  5
68B
  8
0
 62
     9
 10
0.0
 20
0.0
 30
0.0
 70
   128
 71
    30
 72
    32
 73
     2
  0
VERTEX
  5
68C
  8
0
 62
     9
 10
0.0
 20
0.0
 30
0.0
 70
   128
 71
    32
 72
    28
 73
     2
  0
VERTEX
  5
68D
  8
0
 62
     9
 10
0.0
 20
0.0
 30
0.0
 70
   128
 71
    34
 72
    33
 73
     3
  0
VERTEX
  5
68E
  8
0
 62
     9
 10
0.0
 20
0.0
 30
0.0
 70
   128
 71
    33
 72
    36
 73
    35
  0
VERTEX
  5
68F
  8
0
 62
     9
 10
0.0
 20
0.0
 30
0.0
 70
   128
 71
    35
 72
     3
 73
    33
  0
VERTEX
  5
690
  8
0
 62
     9
 10
0.0
 20
0.0
 30
0.0
 70
   128
 71
    37
 72
    31
 73
     3
  0
VERTEX
  5
691
  8
0
 62
     9
 10
0.0
 20
0.0
 30
0.0
 70
   128
 71
     3
 72
    35
 73
    37
  0
VERTEX
  5
692
  8
0
 62
     9
 10
0.0
 20
0.0
 30
0.0
 70
   128
 71
    38
 72
     3
 73
    10
  0
VERTEX
  5
693
  8
0
 62
     9
 10
0.0
 20
0.0
 30
0.0
 70
   128
 71
    38
 72
    34
 73
     3
  0
VERTEX
  5
694
  8
0
 62
     9
 10
0.0
 20
0.0
 30
0.0
 70
   128
 71
    40
 72
    10
 73
    39
  0
VERTEX
  5
695
  8
0
 62
     9
 10
0.0
 20
0.0
 30
0.0
 70
   128
 71
    39
 72
    41
 73
    40
  0
VERTEX
  5
696
  8
0
 62
     9
 10
0.0
 20
0.0
 30
0.0
 70
   128
 71
    40
 72
    42
 73
    10
  0
VERTEX
  5
697
  8
0
 62
     9
 10
0.0
 20
0.0
 30
0.0
 70
   128
 71
    44
 72
    43
 73
    39
  0
VERTEX
  5
698
  8
0
 62
     9
 10
0.0
 20
0.0
 30
0.0
 70
   128
 71
    44
 72
    45
 73
    43
  0
VERTEX
  5
699
  8
0
 62
     9
 10
0.0
 20
0.0
 30
0.0
 70
   128
 71
    46
 72
    39
 73
     9
  0
VERTEX
  5
69A
  8
0
 62
     9
 10
0.0
 20
0.0
 30
0.0
 70
   128
 71
     9
 72
    47
 73
    46
  0
VERTEX
  5
69B
  8
0
 62
     9
 10
0.0
 20
0.0
 30
0.0
 70
   128
 71
    49
 72
    48
 73
     9
  0
VERTEX
  5
69C
  8
0
 62
     9
 10
0.0
 20
0.0
 30
0.0
 70
   128
 71
    48
 72
    50
 73
     9
  0
VERTEX
  5
69D
  8
0
 62
     9
 10
0.0
 20
0.0
 30
0.0
 70
   128
 71
    51
 72
    47
 73
     9
  0
VERTEX
  5
69E
  8
0
 62
     9
 10
0.0
 20
0.0
 30
0.0
 70
   128
 71
     9
 72
    50
 73
    51
  0
VERTEX
  5
69F
  8
0
 62
     9
 10
0.0
 20
0.0
 30
0.0
 70
   128
 71
    53
 72
    52
 73
    16
  0
VERTEX
  5
6A0
  8
0
 62
     9
 10
0.0
 20
0.0
 30
0.0
 70
   128
 71
    52
 72
    49
 73
    16
  0
VERTEX
  5
6A1
  8
0
 62
     9
 10
0.0
 20
0.0
 30
0.0
 70
   128
 71
    54
 72
    53
 73
    12
  0
VERTEX
  5
6A2
  8
0
 62
     9
 10
0.0
 20
0.0
 30
0.0
 70
   128
 71
    12
 72
    13
 73
    54
  0
VERTEX
  5
6A3
  8
0
 62
     9
 10
0.0
 20
0.0
 30
0.0
 70
   128
 71
    16
 72
    12
 73
    53
  0
VERTEX
  5
6A4
  8
0
 62
     9
 10
0.0
 20
0.0
 30
0.0
 70
   128
 71
     9
 72
    16
 73
    49
  0
VERTEX
  5
6A5
  8
0
 62
     9
 10
0.0
 20
0.0
 30
0.0
 70
   128
 71
    39
 72
    46
 73
    44
  0
VERTEX
  5
6A6
  8
0
 62
     9
 10
0.0
 20
0.0
 30
0.0
 70
   128
 71
    39
 72
    43
 73
    41
  0
VERTEX
  5
6A7
  8
0
 62
     9
 10
0.0
 20
0.0
 30
0.0
 70
   128
 71
    10
 72
    42
 73
    38
  0
VERTEX
  5
6A8
  8
0
 62
     9
 10
0.0
 20
0.0
 30
0.0
 70
   128
 71
     2
 72
     3
 73
    31
  0
VERTEX
  5
6A9
  8
0
 62
     9
 10
0.0
 20
0.0
 30
0.0
 70
   128
 71
     4
 72
     2
 73
    28
  0
VERTEX
  5
6AA
  8
0
 62
     9
 10
0.0
 20
0.0
 30
0.0
 70
   128
 71
     4
 72
    29
 73
    24
  0
VERTEX
  5
6AB
  8
0
 62
     9
 10
0.0
 20
0.0
 30
0.0
 70
   128
 71
    17
 72
    25
 73
    23
  0
VERTEX
  5
6AC
  8
0
 62
     9
 10
0.0
 20
0.0
 30
0.0
 70
   128
 71
    19
 72
    55
 73
    20
  0
VERTEX
  5
6AD
  8
0
 62
     9
 10
0.0
 20
0.0
 30
0.0
 70
   128
 71
    18
 72
     5
 73
     6
  0
VERTEX
  5
6AE
  8
0
 62
     9
 10
0.0
 20
0.0
 30
0.0
 70
   128
 71
    15
 72
     1
 73
     4
  0
VERTEX
  5
6AF
  8
0
 62
     9
 10
0.0
 20
0.0
 30
0.0
 70
   128
 71
     1
 72
    15
 73
    16
  0
VERTEX
  5
6B0
  8
0
 62
     9
 10
0.0
 20
0.0
 30
0.0
 70
   128
 71
    15
 72
     6
 73
    12
  0
VERTEX
  5
6B1
  8
0
 62
     9
 10
0.0
 20
0.0
 30
0.0
 70
   128
 71
     9
 72
    39
 73
    10
  0
VERTEX
  5
6B2
  8
0
 62
     9
 10
0.0
 20
0.0
 30
0.0
 70
   128
 71
     5
 72
    20
 73
     8
  0
VERTEX
  5
6B3
  8
0
 62
     9
 10
0.0
 20
0.0
 30
0.0
 70
   128
 71
     1
 72
    10
 73
     3
  0
SEQEND
  5
6B4
  8
0
 62
     9
  0
ENDBLK
  5
6B7
  8
0
  0
BLOCK
  8
0
  2
E3_NODE_25_
 70
     0
 10
0.0
 20
0.0
 30
0.0
  3
E3_NODE_25_
  1

  0
POLYLINE
  5
6B9
  8
0
 62
     9
 66
     1
 10
0.0
 20
0.0
 30
0.0
 70
    64
 71
    17
 72
    15
  0
VERTEX
  5
6BA
  8
0
 10
126.5029983520508
 20
24.32200050354004
 30
1.175999999046326
 70
   192
  0
VERTEX
  5
6BB
  8
0
 10
126.0090026855469
 20
25.42300033569336
 30
4.526000022888184
 70
   192
  0
VERTEX
  5
6BC
  8
0
 10
126.4589996337891
 20
24.97400093078613
 30
4.642000198364258
 70
   192
  0
VERTEX
  5
6BD
  8
0
 10
125.6320037841797
 20
25.54999923706055
 30
10.17099952697754
 70
   192
  0
VERTEX
  5
6BE
  8
0
 10
125.9349975585938
 20
25.47599983215332
 30
5.032000064849854
 70
   192
  0
VERTEX
  5
6BF
  8
0
 10
125.1869964599609
 20
26.0
 30
10.10400009155273
 70
   192
  0
VERTEX
  5
6C0
  8
0
 10
125.5019989013672
 20
25.86800003051758
 30
10.15100002288818
 70
   192
  0
VERTEX
  5
6C1
  8
0
 10
128.0010070800781
 20
19.77599906921387
 30
-6.657999992370605
 70
   192
  0
VERTEX
  5
6C2
  8
0
 10
127.4769973754883
 20
20.92799949645996
 30
-5.440999984741211
 70
   192
  0
VERTEX
  5
6C3
  8
0
 10
127.9349975585938
 20
20.4689998626709
 30
-5.23799991607666
 70
   192
  0
VERTEX
  5
6C4
  8
0
 10
128.1130065917969
 20
19.52300071716309
 30
-6.426000118255615
 70
   192
  0
VERTEX
  5
6C5
  8
0
 10
127.2429962158203
 20
23.22400093078613
 30
-0.6100000143051147
 70
   192
  0
VERTEX
  5
6C6
  8
0
 10
127.3119964599609
 20
21.58600044250488
 30
-4.320000171661377
 70
   192
  0
VERTEX
  5
6C7
  8
0
 10
126.7819976806641
 20
23.69799995422363
 30
-0.7200000286102295
 70
   192
  0
VERTEX
  5
6C8
  8
0
 10
126.943000793457
 20
23.89299964904785
 30
1.398000001907349
 70
   192
  0
VERTEX
  5
6C9
  8
0
 10
126.6520004272461
 20
23.98900032043457
 30
0.1620000004768372
 70
   192
  0
VERTEX
  5
6CA
  8
0
 10
127.6750030517578
 20
19.86700057983398
 30
-6.782999992370605
 70
   192
  0
VERTEX
  5
6CB
  8
0
 62
     9
 10
0.0
 20
0.0
 30
0.0
 70
   128
 71
     3
 72
     2
 73
     1
  0
VERTEX
  5
6CC
  8
0
 62
     9
 10
0.0
 20
0.0
 30
0.0
 70
   128
 71
     5
 72
     3
 73
     4
  0
VERTEX
  5
6CD
  8
0
 62
     9
 10
0.0
 20
0.0
 30
0.0
 70
   128
 71
     7
 72
     6
 73
     5
  0
VERTEX
  5
6CE
  8
0
 62
     9
 10
0.0
 20
0.0
 30
0.0
 70
   128
 71
     5
 72
     2
 73
     3
  0
VERTEX
  5
6CF
  8
0
 62
     9
 10
0.0
 20
0.0
 30
0.0
 70
   128
 71
     4
 72
     7
 73
     5
  0
VERTEX
  5
6D0
  8
0
 62
     9
 10
0.0
 20
0.0
 30
0.0
 70
   128
 71
    10
 72
     9
 73
     8
  0
VERTEX
  5
6D1
  8
0
 62
     9
 10
0.0
 20
0.0
 30
0.0
 70
   128
 71
     8
 72
    11
 73
    10
  0
VERTEX
  5
6D2
  8
0
 62
     9
 10
0.0
 20
0.0
 30
0.0
 70
   128
 71
    13
 72
    10
 73
    12
  0
VERTEX
  5
6D3
  8
0
 62
     9
 10
0.0
 20
0.0
 30
0.0
 70
   128
 71
    13
 72
     9
 73
    10
  0
VERTEX
  5
6D4
  8
0
 62
     9
 10
0.0
 20
0.0
 30
0.0
 70
   128
 71
    12
 72
    14
 73
    13
  0
VERTEX
  5
6D5
  8
0
 62
     9
 10
0.0
 20
0.0
 30
0.0
 70
   128
 71
    16
 72
    12
 73
    15
  0
VERTEX
  5
6D6
  8
0
 62
     9
 10
0.0
 20
0.0
 30
0.0
 70
   128
 71
    16
 72
    14
 73
    12
  0
VERTEX
  5
6D7
  8
0
 62
     9
 10
0.0
 20
0.0
 30
0.0
 70
   128
 71
    15
 72
     1
 73
    16
  0
VERTEX
  5
6D8
  8
0
 62
     9
 10
0.0
 20
0.0
 30
0.0
 70
   128
 71
     9
 72
    17
 73
     8
  0
VERTEX
  5
6D9
  8
0
 62
     9
 10
0.0
 20
0.0
 30
0.0
 70
   128
 71
     1
 72
    15
 73
     3
  0
SEQEND
  5
6DA
  8
0
 62
     9
  0
ENDBLK
  5
6DD
  8
0
  0
BLOCK
  8
0
  2
E3_NODE_26_
 70
     0
 10
0.0
 20
0.0
 30
0.0
  3
E3_NODE_26_
  1

  0
POLYLINE
  5
6DF
  8
0
 62
     9
 66
     1
 10
0.0
 20
0.0
 30
0.0
 70
    64
 71
    56
 72
    68
  0
VERTEX
  5
6E0
  8
0
 10
124.9390029907227
 20
14.11800003051758
 30
-13.65499973297119
 70
   192
  0
VERTEX
  5
6E1
  8
0
 10
123.1240005493164
 20
9.92199993133545
 30
-15.98299980163574
 70
   192
  0
VERTEX
  5
6E2
  8
0
 10
120.0019989013672
 20
11.52999973297119
 30
-13.74300003051758
 70
   192
  0
VERTEX
  5
6E3
  8
0
 10
121.1529998779297
 20
13.94699954986572
 30
-12.34899997711182
 70
   192
  0
VERTEX
  5
6E4
  8
0
 10
119.7630004882812
 20
5.939000129699707
 30
-15.75100040435791
 70
   192
  0
VERTEX
  5
6E5
  8
0
 10
121.1729965209961
 20
0.0010000000474975
 30
-16.70599937438965
 70
   192
  0
VERTEX
  5
6E6
  8
0
 10
120.0240020751953
 20
0.0
 30
-16.54800033569336
 70
   192
  0
VERTEX
  5
6E7
  8
0
 10
122.8219985961914
 20
5.092000007629395
 30
-17.23299980163574
 70
   192
  0
VERTEX
  5
6E8
  8
0
 10
122.7570037841797
 20
0.0020000000949949
 30
-17.67499923706055
 70
   192
  0
VERTEX
  5
6E9
  8
0
 10
123.0139999389648
 20
15.83399963378906
 30
-10.95800018310547
 70
   192
  0
VERTEX
  5
6EA
  8
0
 10
125.3740005493164
 20
17.16600036621094
 30
-9.746999740600586
 70
   192
  0
VERTEX
  5
6EB
  8
0
 10
126.4179992675781
 20
15.61200046539307
 30
-12.13799953460693
 70
   192
  0
VERTEX
  5
6EC
  8
0
 10
128.1089935302734
 20
17.36199951171875
 30
-9.760000228881836
 70
   192
  0
VERTEX
  5
6ED
  8
0
 10
128.2779998779297
 20
16.83099937438965
 30
-10.89299964904785
 70
   192
  0
VERTEX
  5
6EE
  8
0
 10
127.9499969482422
 20
18.25900077819824
 30
-8.692999839782715
 70
   192
  0
VERTEX
  5
6EF
  8
0
 10
126.4720001220703
 20
13.51799964904785
 30
-17.28400039672852
 70
   192
  0
VERTEX
  5
6F0
  8
0
 10
127.3919982910156
 20
14.98299980163574
 30
-15.36600017547607
 70
   192
  0
VERTEX
  5
6F1
  8
0
 10
128.4600067138672
 20
16.26199913024902
 30
-12.10700035095215
 70
   192
  0
VERTEX
  5
6F2
  8
0
 10
128.6860046386719
 20
16.12100028991699
 30
-13.61699962615967
 70
   192
  0
VERTEX
  5
6F3
  8
0
 10
124.6179962158203
 20
4.782999992370605
 30
-20.00200080871582
 70
   192
  0
VERTEX
  5
6F4
  8
0
 10
124.2890014648438
 20
0.0040000001899898
 30
-19.71299934387207
 70
   192
  0
VERTEX
  5
6F5
  8
0
 10
123.0749969482422
 20
0.0020000000949949
 30
-17.86899948120117
 70
   192
  0
VERTEX
  5
6F6
  8
0
 10
124.3870010375977
 20
0.0049999998882413
 30
-20.13100051879883
 70
   192
  0
VERTEX
  5
6F7
  8
0
 10
125.1709976196289
 20
9.37399959564209
 30
-19.36499977111816
 70
   192
  0
VERTEX
  5
6F8
  8
0
 10
119.6630020141602
 20
8.770000457763672
 30
-14.92500019073486
 70
   192
  0
VERTEX
  5
6F9
  8
0
 10
116.7910003662109
 20
2.852999925613403
 30
-16.15399932861328
 70
   192
  0
VERTEX
  5
6FA
  8
0
 10
116.5019989013672
 20
5.059000015258789
 30
-15.68599987030029
 70
   192
  0
VERTEX
  5
6FB
  8
0
 10
118.1549987792969
 20
0.0
 30
-16.29100036621094
 70
   192
  0
VERTEX
  5
6FC
  8
0
 10
116.9670028686523
 20
0.0
 30
-16.31100082397461
 70
   192
  0
VERTEX
  5
6FD
  8
0
 10
116.2440032958984
 20
7.034999847412109
 30
-15.26599979400635
 70
   192
  0
VERTEX
  5
6FE
  8
0
 10
116.1169967651367
 20
8.005000114440918
 30
-15.0600004196167
 70
   192
  0
VERTEX
  5
6FF
  8
0
 10
116.1360015869141
 20
9.951000213623047
 30
-14.26700019836426
 70
   192
  0
VERTEX
  5
700
  8
0
 10
116.1399993896484
 20
10.39599990844727
 30
-14.08600044250488
 70
   192
  0
VERTEX
  5
701
  8
0
 10
116.1510009765625
 20
11.50500011444092
 30
-13.63399982452393
 70
   192
  0
VERTEX
  5
702
  8
0
 10
117.3199996948242
 20
14.47200012207031
 30
-11.86400032043457
 70
   192
  0
VERTEX
  5
703
  8
0
 10
118.6240005493164
 20
15.9680004119873
 30
-10.73299980163574
 70
   192
  0
VERTEX
  5
704
  8
0
 10
116.8259963989258
 20
13.47900009155273
 30
-12.49100017547607
 70
   192
  0
VERTEX
  5
705
  8
0
 10
117.0670013427734
 20
14.18099975585938
 30
-12.08300018310547
 70
   192
  0
VERTEX
  5
706
  8
0
 10
119.0780029296875
 20
16.48800086975098
 30
-10.33899974822998
 70
   192
  0
VERTEX
  5
707
  8
0
 10
121.2460021972656
 20
17.76199913024902
 30
-9.14900016784668
 70
   192
  0
VERTEX
  5
708
  8
0
 10
121.7210006713867
 20
18.04000091552734
 30
-8.887999534606934
 70
   192
  0
VERTEX
  5
709
  8
0
 10
122.9619979858398
 20
18.42200088500977
 30
-8.449000358581543
 70
   192
  0
VERTEX
  5
70A
  8
0
 10
127.6640014648438
 20
19.86700057983398
 30
-6.782999992370605
 70
   192
  0
VERTEX
  5
70B
  8
0
 10
129.0650024414062
 20
15.88399982452393
 30
-16.15399932861328
 70
   192
  0
VERTEX
  5
70C
  8
0
 10
129.2050018310547
 20
15.88300037384033
 30
-17.09499931335449
 70
   192
  0
VERTEX
  5
70D
  8
0
 10
128.3699951171875
 20
15.20100021362305
 30
-19.04199981689453
 70
   192
  0
VERTEX
  5
70E
  8
0
 10
128.3009948730469
 20
15.09500026702881
 30
-19.20000076293945
 70
   192
  0
VERTEX
  5
70F
  8
0
 10
127.4889984130859
 20
13.86200046539307
 30
-21.04400062561035
 70
   192
  0
VERTEX
  5
710
  8
0
 10
127.4329986572266
 20
13.77700042724609
 30
-21.17099952697754
 70
   192
  0
VERTEX
  5
711
  8
0
 10
126.5650024414062
 20
11.6269998550415
 30
-22.44400024414062
 70
   192
  0
VERTEX
  5
712
  8
0
 10
125.6259994506836
 20
7.105999946594238
 30
-23.10899925231934
 70
   192
  0
VERTEX
  5
713
  8
0
 10
126.0979995727539
 20
9.625
 30
-22.80299949645996
 70
   192
  0
VERTEX
  5
714
  8
0
 10
125.7080001831055
 20
7.952000141143799
 30
-23.10300064086914
 70
   192
  0
VERTEX
  5
715
  8
0
 10
125.4059982299805
 20
4.855999946594238
 30
-23.12400054931641
 70
   192
  0
VERTEX
  5
716
  8
0
 10
125.1269989013672
 20
1.996000051498413
 30
-23.14500045776367
 70
   192
  0
VERTEX
  5
717
  8
0
 10
125.088996887207
 20
0.0080000003799796
 30
-23.12599945068359
 70
   192
  0
VERTEX
  5
718
  8
0
 62
     9
 10
0.0
 20
0.0
 30
0.0
 70
   128
 71
     3
 72
     2
 73
     1
  0
VERTEX
  5
719
  8
0
 62
     9
 10
0.0
 20
0.0
 30
0.0
 70
   128
 71
     1
 72
     4
 73
     3
  0
VERTEX
  5
71A
  8
0
 62
     9
 10
0.0
 20
0.0
 30
0.0
 70
   128
 71
     7
 72
     6
 73
     5
  0
VERTEX
  5
71B
  8
0
 62
     9
 10
0.0
 20
0.0
 30
0.0
 70
   128
 71
     6
 72
     9
 73
     8
  0
VERTEX
  5
71C
  8
0
 62
     9
 10
0.0
 20
0.0
 30
0.0
 70
   128
 71
     8
 72
     5
 73
     6
  0
VERTEX
  5
71D
  8
0
 62
     9
 10
0.0
 20
0.0
 30
0.0
 70
   128
 71
    12
 72
    11
 73
    10
  0
VERTEX
  5
71E
  8
0
 62
     9
 10
0.0
 20
0.0
 30
0.0
 70
   128
 71
    14
 72
    13
 73
    11
  0
VERTEX
  5
71F
  8
0
 62
     9
 10
0.0
 20
0.0
 30
0.0
 70
   128
 71
    13
 72
    15
 73
    11
  0
VERTEX
  5
720
  8
0
 62
     9
 10
0.0
 20
0.0
 30
0.0
 70
   128
 71
    16
 72
     1
 73
     2
  0
VERTEX
  5
721
  8
0
 62
     9
 10
0.0
 20
0.0
 30
0.0
 70
   128
 71
    17
 72
    12
 73
     1
  0
VERTEX
  5
722
  8
0
 62
     9
 10
0.0
 20
0.0
 30
0.0
 70
   128
 71
    19
 72
    18
 73
    12
  0
VERTEX
  5
723
  8
0
 62
     9
 10
0.0
 20
0.0
 30
0.0
 70
   128
 71
    18
 72
    14
 73
    12
  0
VERTEX
  5
724
  8
0
 62
     9
 10
0.0
 20
0.0
 30
0.0
 70
   128
 71
    22
 72
    21
 73
    20
  0
VERTEX
  5
725
  8
0
 62
     9
 10
0.0
 20
0.0
 30
0.0
 70
   128
 71
    20
 72
    21
 73
    23
  0
VERTEX
  5
726
  8
0
 62
     9
 10
0.0
 20
0.0
 30
0.0
 70
   128
 71
    20
 72
     8
 73
    22
  0
VERTEX
  5
727
  8
0
 62
     9
 10
0.0
 20
0.0
 30
0.0
 70
   128
 71
     8
 72
    20
 73
    24
  0
VERTEX
  5
728
  8
0
 62
     9
 10
0.0
 20
0.0
 30
0.0
 70
   128
 71
     5
 72
     8
 73
     2
  0
VERTEX
  5
729
  8
0
 62
     9
 10
0.0
 20
0.0
 30
0.0
 70
   128
 71
     2
 72
    25
 73
     5
  0
VERTEX
  5
72A
  8
0
 62
     9
 10
0.0
 20
0.0
 30
0.0
 70
   128
 71
    27
 72
    26
 73
     5
  0
VERTEX
  5
72B
  8
0
 62
     9
 10
0.0
 20
0.0
 30
0.0
 70
   128
 71
    26
 72
    29
 73
    28
  0
VERTEX
  5
72C
  8
0
 62
     9
 10
0.0
 20
0.0
 30
0.0
 70
   128
 71
    28
 72
     7
 73
     5
  0
VERTEX
  5
72D
  8
0
 62
     9
 10
0.0
 20
0.0
 30
0.0
 70
   128
 71
    28
 72
     5
 73
    26
  0
VERTEX
  5
72E
  8
0
 62
     9
 10
0.0
 20
0.0
 30
0.0
 70
   128
 71
    30
 72
     5
 73
    25
  0
VERTEX
  5
72F
  8
0
 62
     9
 10
0.0
 20
0.0
 30
0.0
 70
   128
 71
    25
 72
    31
 73
    30
  0
VERTEX
  5
730
  8
0
 62
     9
 10
0.0
 20
0.0
 30
0.0
 70
   128
 71
    25
 72
    32
 73
    31
  0
VERTEX
  5
731
  8
0
 62
     9
 10
0.0
 20
0.0
 30
0.0
 70
   128
 71
    33
 72
    25
 73
     3
  0
VERTEX
  5
732
  8
0
 62
     9
 10
0.0
 20
0.0
 30
0.0
 70
   128
 71
     3
 72
    34
 73
    33
  0
VERTEX
  5
733
  8
0
 62
     9
 10
0.0
 20
0.0
 30
0.0
 70
   128
 71
     4
 72
    36
 73
    35
  0
VERTEX
  5
734
  8
0
 62
     9
 10
0.0
 20
0.0
 30
0.0
 70
   128
 71
    38
 72
    37
 73
     3
  0
VERTEX
  5
735
  8
0
 62
     9
 10
0.0
 20
0.0
 30
0.0
 70
   128
 71
     3
 72
    35
 73
    38
  0
VERTEX
  5
736
  8
0
 62
     9
 10
0.0
 20
0.0
 30
0.0
 70
   128
 71
    10
 72
    40
 73
    39
  0
VERTEX
  5
737
  8
0
 62
     9
 10
0.0
 20
0.0
 30
0.0
 70
   128
 71
    39
 72
    36
 73
     4
  0
VERTEX
  5
738
  8
0
 62
     9
 10
0.0
 20
0.0
 30
0.0
 70
   128
 71
    42
 72
    41
 73
    10
  0
VERTEX
  5
739
  8
0
 62
     9
 10
0.0
 20
0.0
 30
0.0
 70
   128
 71
    41
 72
    40
 73
    10
  0
VERTEX
  5
73A
  8
0
 62
     9
 10
0.0
 20
0.0
 30
0.0
 70
   128
 71
    15
 72
    43
 73
    42
  0
VERTEX
  5
73B
  8
0
 62
     9
 10
0.0
 20
0.0
 30
0.0
 70
   128
 71
    42
 72
    11
 73
    15
  0
VERTEX
  5
73C
  8
0
 62
     9
 10
0.0
 20
0.0
 30
0.0
 70
   128
 71
    45
 72
    44
 73
    17
  0
VERTEX
  5
73D
  8
0
 62
     9
 10
0.0
 20
0.0
 30
0.0
 70
   128
 71
    17
 72
    46
 73
    45
  0
VERTEX
  5
73E
  8
0
 62
     9
 10
0.0
 20
0.0
 30
0.0
 70
   128
 71
    44
 72
    19
 73
    17
  0
VERTEX
  5
73F
  8
0
 62
     9
 10
0.0
 20
0.0
 30
0.0
 70
   128
 71
    47
 72
    17
 73
    16
  0
VERTEX
  5
740
  8
0
 62
     9
 10
0.0
 20
0.0
 30
0.0
 70
   128
 71
    16
 72
    48
 73
    47
  0
VERTEX
  5
741
  8
0
 62
     9
 10
0.0
 20
0.0
 30
0.0
 70
   128
 71
    49
 72
    16
 73
    24
  0
VERTEX
  5
742
  8
0
 62
     9
 10
0.0
 20
0.0
 30
0.0
 70
   128
 71
    24
 72
    50
 73
    49
  0
VERTEX
  5
743
  8
0
 62
     9
 10
0.0
 20
0.0
 30
0.0
 70
   128
 71
    51
 72
    24
 73
    20
  0
VERTEX
  5
744
  8
0
 62
     9
 10
0.0
 20
0.0
 30
0.0
 70
   128
 71
    53
 72
    52
 73
    24
  0
VERTEX
  5
745
  8
0
 62
     9
 10
0.0
 20
0.0
 30
0.0
 70
   128
 71
    24
 72
    51
 73
    53
  0
VERTEX
  5
746
  8
0
 62
     9
 10
0.0
 20
0.0
 30
0.0
 70
   128
 71
    55
 72
    54
 73
    20
  0
VERTEX
  5
747
  8
0
 62
     9
 10
0.0
 20
0.0
 30
0.0
 70
   128
 71
    20
 72
    23
 73
    55
  0
VERTEX
  5
748
  8
0
 62
     9
 10
0.0
 20
0.0
 30
0.0
 70
   128
 71
    23
 72
    56
 73
    55
  0
VERTEX
  5
749
  8
0
 62
     9
 10
0.0
 20
0.0
 30
0.0
 70
   128
 71
    20
 72
    54
 73
    51
  0
VERTEX
  5
74A
  8
0
 62
     9
 10
0.0
 20
0.0
 30
0.0
 70
   128
 71
    24
 72
    52
 73
    50
  0
VERTEX
  5
74B
  8
0
 62
     9
 10
0.0
 20
0.0
 30
0.0
 70
   128
 71
    16
 72
    49
 73
    48
  0
VERTEX
  5
74C
  8
0
 62
     9
 10
0.0
 20
0.0
 30
0.0
 70
   128
 71
    17
 72
    47
 73
    46
  0
VERTEX
  5
74D
  8
0
 62
     9
 10
0.0
 20
0.0
 30
0.0
 70
   128
 71
    10
 72
    11
 73
    42
  0
VERTEX
  5
74E
  8
0
 62
     9
 10
0.0
 20
0.0
 30
0.0
 70
   128
 71
    39
 72
     4
 73
    10
  0
VERTEX
  5
74F
  8
0
 62
     9
 10
0.0
 20
0.0
 30
0.0
 70
   128
 71
    35
 72
     3
 73
     4
  0
VERTEX
  5
750
  8
0
 62
     9
 10
0.0
 20
0.0
 30
0.0
 70
   128
 71
     3
 72
    37
 73
    34
  0
VERTEX
  5
751
  8
0
 62
     9
 10
0.0
 20
0.0
 30
0.0
 70
   128
 71
    25
 72
    33
 73
    32
  0
VERTEX
  5
752
  8
0
 62
     9
 10
0.0
 20
0.0
 30
0.0
 70
   128
 71
     5
 72
    30
 73
    27
  0
VERTEX
  5
753
  8
0
 62
     9
 10
0.0
 20
0.0
 30
0.0
 70
   128
 71
     2
 72
     3
 73
    25
  0
VERTEX
  5
754
  8
0
 62
     9
 10
0.0
 20
0.0
 30
0.0
 70
   128
 71
    24
 72
     2
 73
     8
  0
VERTEX
  5
755
  8
0
 62
     9
 10
0.0
 20
0.0
 30
0.0
 70
   128
 71
     8
 72
     9
 73
    22
  0
VERTEX
  5
756
  8
0
 62
     9
 10
0.0
 20
0.0
 30
0.0
 70
   128
 71
    12
 72
    17
 73
    19
  0
VERTEX
  5
757
  8
0
 62
     9
 10
0.0
 20
0.0
 30
0.0
 70
   128
 71
     1
 72
    16
 73
    17
  0
VERTEX
  5
758
  8
0
 62
     9
 10
0.0
 20
0.0
 30
0.0
 70
   128
 71
     2
 72
    24
 73
    16
  0
VERTEX
  5
759
  8
0
 62
     9
 10
0.0
 20
0.0
 30
0.0
 70
   128
 71
    11
 72
    12
 73
    14
  0
VERTEX
  5
75A
  8
0
 62
     9
 10
0.0
 20
0.0
 30
0.0
 70
   128
 71
    10
 72
     1
 73
    12
  0
VERTEX
  5
75B
  8
0
 62
     9
 10
0.0
 20
0.0
 30
0.0
 70
   128
 71
     1
 72
    10
 73
     4
  0
SEQEND
  5
75C
  8
0
 62
     9
  0
ENDBLK
  5
75F
  8
0
  0
BLOCK
  8
0
  2
E3_NODE_27_
 70
     0
 10
0.0
 20
0.0
 30
0.0
  3
E3_NODE_27_
  1

  0
POLYLINE
  5
761
  8
0
 62
     9
 66
     1
 10
0.0
 20
0.0
 30
0.0
 70
    64
 71
    49
 72
    54
  0
VERTEX
  5
762
  8
0
 10
122.3399963378906
 20
-14.35999965667725
 30
31.41300010681152
 70
   192
  0
VERTEX
  5
763
  8
0
 10
122.0530014038086
 20
-14.37600040435791
 30
31.3799991607666
 70
   192
  0
VERTEX
  5
764
  8
0
 10
122.3639984130859
 20
-17.33799934387207
 30
29.26799964904785
 70
   192
  0
VERTEX
  5
765
  8
0
 10
122.8099975585938
 20
-18.26099967956543
 30
28.25300025939941
 70
   192
  0
VERTEX
  5
766
  8
0
 10
122.052001953125
 20
-14.36600017547607
 30
31.38699913024902
 70
   192
  0
VERTEX
  5
767
  8
0
 10
125.5019989013672
 20
-25.86800003051758
 30
10.15100002288818
 70
   192
  0
VERTEX
  5
768
  8
0
 10
124.7559967041016
 20
-25.36199951171875
 30
15.16800022125244
 70
   192
  0
VERTEX
  5
769
  8
0
 10
124.4489974975586
 20
-25.46500015258789
 30
15.11100006103516
 70
   192
  0
VERTEX
  5
76A
  8
0
 10
124.4440002441406
 20
-25.46199989318848
 30
15.14500045776367
 70
   192
  0
VERTEX
  5
76B
  8
0
 10
122.7949981689453
 20
-16.85799980163574
 30
29.1569995880127
 70
   192
  0
VERTEX
  5
76C
  8
0
 10
122.9710006713867
 20
-17.95700073242188
 30
27.97599983215332
 70
   192
  0
VERTEX
  5
76D
  8
0
 10
125.6320037841797
 20
-25.54999923706055
 30
10.17099952697754
 70
   192
  0
VERTEX
  5
76E
  8
0
 10
121.7730026245117
 20
-5.025000095367432
 30
35.22999954223633
 70
   192
  0
VERTEX
  5
76F
  8
0
 10
121.4919967651367
 20
-5.038000106811523
 30
35.1879997253418
 70
   192
  0
VERTEX
  5
770
  8
0
 10
121.5759963989258
 20
-7.85699987411499
 30
34.61999893188477
 70
   192
  0
VERTEX
  5
771
  8
0
 10
121.9889984130859
 20
-9.880999565124512
 30
33.77700042724609
 70
   192
  0
VERTEX
  5
772
  8
0
 10
121.4919967651367
 20
-5.025000095367432
 30
35.19100189208984
 70
   192
  0
VERTEX
  5
773
  8
0
 10
121.7060012817383
 20
-9.890999794006348
 30
33.73899841308594
 70
   192
  0
VERTEX
  5
774
  8
0
 10
121.8960037231445
 20
-12.88500022888184
 30
32.44200134277344
 70
   192
  0
VERTEX
  5
775
  8
0
 10
121.7050018310547
 20
-9.881999969482422
 30
33.74300003051758
 70
   192
  0
VERTEX
  5
776
  8
0
 10
121.6699981689453
 20
0.0
 30
35.66600036621094
 70
   192
  0
VERTEX
  5
777
  8
0
 10
121.4160003662109
 20
-2.466000080108643
 30
35.70600128173828
 70
   192
  0
VERTEX
  5
778
  8
0
 10
121.3990020751953
 20
0.0
 30
35.82300186157227
 70
   192
  0
VERTEX
  5
779
  8
0
 10
123.3870010375977
 20
-21.49200057983398
 30
24.37199974060059
 70
   192
  0
VERTEX
  5
77A
  8
0
 10
123.0899963378906
 20
-21.54800033569336
 30
24.33399963378906
 70
   192
  0
VERTEX
  5
77B
  8
0
 10
123.6419982910156
 20
-23.73999977111816
 30
20.59000015258789
 70
   192
  0
VERTEX
  5
77C
  8
0
 10
124.0459976196289
 20
-23.89100074768066
 30
19.9419994354248
 70
   192
  0
VERTEX
  5
77D
  8
0
 10
123.0859985351562
 20
-21.5319995880127
 30
24.36100006103516
 70
   192
  0
VERTEX
  5
77E
  8
0
 10
123.7409973144531
 20
-23.96299934387207
 30
19.91600036621094
 70
   192
  0
VERTEX
  5
77F
  8
0
 10
124.3960037231445
 20
-25.42600059509277
 30
15.47399997711182
 70
   192
  0
VERTEX
  5
780
  8
0
 10
123.7389984130859
 20
-23.95800018310547
 30
19.92900085449219
 70
   192
  0
VERTEX
  5
781
  8
0
 10
122.5210037231445
 20
-18.3129997253418
 30
28.20199966430664
 70
   192
  0
VERTEX
  5
782
  8
0
 10
122.9550018310547
 20
-21.00900077819824
 30
25.2549991607666
 70
   192
  0
VERTEX
  5
783
  8
0
 10
122.5149993896484
 20
-18.2810001373291
 30
28.23699951171875
 70
   192
  0
VERTEX
  5
784
  8
0
 10
124.0810012817383
 20
-23.29599952697754
 30
20.54800033569336
 70
   192
  0
VERTEX
  5
785
  8
0
 10
124.1900024414062
 20
-23.53700065612793
 30
19.82099914550781
 70
   192
  0
VERTEX
  5
786
  8
0
 10
124.8359985351562
 20
-24.97500038146973
 30
15.4980001449585
 70
   192
  0
VERTEX
  5
787
  8
0
 10
124.8919982910156
 20
-25.01600074768066
 30
15.12199974060059
 70
   192
  0
VERTEX
  5
788
  8
0
 10
123.3840026855469
 20
-20.53000068664551
 30
25.21199989318848
 70
   192
  0
VERTEX
  5
789
  8
0
 10
123.5400009155273
 20
-21.14800071716309
 30
24.17000007629395
 70
   192
  0
VERTEX
  5
78A
  8
0
 10
122.0189971923828
 20
-7.438000202178955
 30
34.34500122070312
 70
   192
  0
VERTEX
  5
78B
  8
0
 10
122.1620025634766
 20
-9.710000038146973
 30
33.38899993896484
 70
   192
  0
VERTEX
  5
78C
  8
0
 10
122.3339996337891
 20
-12.44200038909912
 30
32.24100112915039
 70
   192
  0
VERTEX
  5
78D
  8
0
 10
122.5080032348633
 20
-14.11400032043457
 30
31.07299995422363
 70
   192
  0
VERTEX
  5
78E
  8
0
 10
121.8690032958984
 20
-2.098000049591064
 30
35.35400009155273
 70
   192
  0
VERTEX
  5
78F
  8
0
 10
121.8560028076172
 20
0.0
 30
35.43899917602539
 70
   192
  0
VERTEX
  5
790
  8
0
 10
121.8059997558594
 20
0.0
 30
35.5880012512207
 70
   192
  0
VERTEX
  5
791
  8
0
 10
121.9489974975586
 20
-4.940000057220459
 30
34.81700134277344
 70
   192
  0
VERTEX
  5
792
  8
0
 10
125.1869964599609
 20
-26.0
 30
10.10400009155273
 70
   192
  0
VERTEX
  5
793
  8
0
 62
     9
 10
0.0
 20
0.0
 30
0.0
 70
   128
 71
     3
 72
     2
 73
     1
  0
VERTEX
  5
794
  8
0
 62
     9
 10
0.0
 20
0.0
 30
0.0
 70
   128
 71
     1
 72
     4
 73
     3
  0
VERTEX
  5
795
  8
0
 62
     9
 10
0.0
 20
0.0
 30
0.0
 70
   128
 71
     2
 72
     5
 73
     1
  0
VERTEX
  5
796
  8
0
 62
     9
 10
0.0
 20
0.0
 30
0.0
 70
   128
 71
     8
 72
     7
 73
     6
  0
VERTEX
  5
797
  8
0
 62
     9
 10
0.0
 20
0.0
 30
0.0
 70
   128
 71
     8
 72
     9
 73
     7
  0
VERTEX
  5
798
  8
0
 62
     9
 10
0.0
 20
0.0
 30
0.0
 70
   128
 71
    10
 72
     4
 73
     1
  0
VERTEX
  5
799
  8
0
 62
     9
 10
0.0
 20
0.0
 30
0.0
 70
   128
 71
    10
 72
    11
 73
     4
  0
VERTEX
  5
79A
  8
0
 62
     9
 10
0.0
 20
0.0
 30
0.0
 70
   128
 71
    12
 72
     6
 73
     7
  0
VERTEX
  5
79B
  8
0
 62
     9
 10
0.0
 20
0.0
 30
0.0
 70
   128
 71
    15
 72
    14
 73
    13
  0
VERTEX
  5
79C
  8
0
 62
     9
 10
0.0
 20
0.0
 30
0.0
 70
   128
 71
    13
 72
    16
 73
    15
  0
VERTEX
  5
79D
  8
0
 62
     9
 10
0.0
 20
0.0
 30
0.0
 70
   128
 71
    14
 72
    17
 73
    13
  0
VERTEX
  5
79E
  8
0
 62
     9
 10
0.0
 20
0.0
 30
0.0
 70
   128
 71
    19
 72
    18
 73
    16
  0
VERTEX
  5
79F
  8
0
 62
     9
 10
0.0
 20
0.0
 30
0.0
 70
   128
 71
    16
 72
     1
 73
    19
  0
VERTEX
  5
7A0
  8
0
 62
     9
 10
0.0
 20
0.0
 30
0.0
 70
   128
 71
    18
 72
    20
 73
    16
  0
VERTEX
  5
7A1
  8
0
 62
     9
 10
0.0
 20
0.0
 30
0.0
 70
   128
 71
    22
 72
    21
 73
    13
  0
VERTEX
  5
7A2
  8
0
 62
     9
 10
0.0
 20
0.0
 30
0.0
 70
   128
 71
    22
 72
    23
 73
    21
  0
VERTEX
  5
7A3
  8
0
 62
     9
 10
0.0
 20
0.0
 30
0.0
 70
   128
 71
    26
 72
    25
 73
    24
  0
VERTEX
  5
7A4
  8
0
 62
     9
 10
0.0
 20
0.0
 30
0.0
 70
   128
 71
    24
 72
    27
 73
    26
  0
VERTEX
  5
7A5
  8
0
 62
     9
 10
0.0
 20
0.0
 30
0.0
 70
   128
 71
    25
 72
    28
 73
    24
  0
VERTEX
  5
7A6
  8
0
 62
     9
 10
0.0
 20
0.0
 30
0.0
 70
   128
 71
    30
 72
    29
 73
    27
  0
VERTEX
  5
7A7
  8
0
 62
     9
 10
0.0
 20
0.0
 30
0.0
 70
   128
 71
    27
 72
     7
 73
    30
  0
VERTEX
  5
7A8
  8
0
 62
     9
 10
0.0
 20
0.0
 30
0.0
 70
   128
 71
    29
 72
    31
 73
    27
  0
VERTEX
  5
7A9
  8
0
 62
     9
 10
0.0
 20
0.0
 30
0.0
 70
   128
 71
    33
 72
    32
 73
     4
  0
VERTEX
  5
7AA
  8
0
 62
     9
 10
0.0
 20
0.0
 30
0.0
 70
   128
 71
     4
 72
    24
 73
    33
  0
VERTEX
  5
7AB
  8
0
 62
     9
 10
0.0
 20
0.0
 30
0.0
 70
   128
 71
    32
 72
    34
 73
     4
  0
VERTEX
  5
7AC
  8
0
 62
     9
 10
0.0
 20
0.0
 30
0.0
 70
   128
 71
    35
 72
    27
 73
    24
  0
VERTEX
  5
7AD
  8
0
 62
     9
 10
0.0
 20
0.0
 30
0.0
 70
   128
 71
    35
 72
    36
 73
    27
  0
VERTEX
  5
7AE
  8
0
 62
     9
 10
0.0
 20
0.0
 30
0.0
 70
   128
 71
    37
 72
     7
 73
    27
  0
VERTEX
  5
7AF
  8
0
 62
     9
 10
0.0
 20
0.0
 30
0.0
 70
   128
 71
    37
 72
    38
 73
     7
  0
VERTEX
  5
7B0
  8
0
 62
     9
 10
0.0
 20
0.0
 30
0.0
 70
   128
 71
    39
 72
    24
 73
     4
  0
VERTEX
  5
7B1
  8
0
 62
     9
 10
0.0
 20
0.0
 30
0.0
 70
   128
 71
    39
 72
    40
 73
    24
  0
VERTEX
  5
7B2
  8
0
 62
     9
 10
0.0
 20
0.0
 30
0.0
 70
   128
 71
    41
 72
    16
 73
    13
  0
VERTEX
  5
7B3
  8
0
 62
     9
 10
0.0
 20
0.0
 30
0.0
 70
   128
 71
    41
 72
    42
 73
    16
  0
VERTEX
  5
7B4
  8
0
 62
     9
 10
0.0
 20
0.0
 30
0.0
 70
   128
 71
    43
 72
     1
 73
    16
  0
VERTEX
  5
7B5
  8
0
 62
     9
 10
0.0
 20
0.0
 30
0.0
 70
   128
 71
    43
 72
    44
 73
     1
  0
VERTEX
  5
7B6
  8
0
 62
     9
 10
0.0
 20
0.0
 30
0.0
 70
   128
 71
    47
 72
    46
 73
    45
  0
VERTEX
  5
7B7
  8
0
 62
     9
 10
0.0
 20
0.0
 30
0.0
 70
   128
 71
    45
 72
    13
 73
    21
  0
VERTEX
  5
7B8
  8
0
 62
     9
 10
0.0
 20
0.0
 30
0.0
 70
   128
 71
    45
 72
    48
 73
    13
  0
VERTEX
  5
7B9
  8
0
 62
     9
 10
0.0
 20
0.0
 30
0.0
 70
   128
 71
    45
 72
    21
 73
    47
  0
VERTEX
  5
7BA
  8
0
 62
     9
 10
0.0
 20
0.0
 30
0.0
 70
   128
 71
    16
 72
    42
 73
    43
  0
VERTEX
  5
7BB
  8
0
 62
     9
 10
0.0
 20
0.0
 30
0.0
 70
   128
 71
    13
 72
    48
 73
    41
  0
VERTEX
  5
7BC
  8
0
 62
     9
 10
0.0
 20
0.0
 30
0.0
 70
   128
 71
     4
 72
    11
 73
    39
  0
VERTEX
  5
7BD
  8
0
 62
     9
 10
0.0
 20
0.0
 30
0.0
 70
   128
 71
    27
 72
    36
 73
    37
  0
VERTEX
  5
7BE
  8
0
 62
     9
 10
0.0
 20
0.0
 30
0.0
 70
   128
 71
    24
 72
    40
 73
    35
  0
VERTEX
  5
7BF
  8
0
 62
     9
 10
0.0
 20
0.0
 30
0.0
 70
   128
 71
    24
 72
    28
 73
    33
  0
VERTEX
  5
7C0
  8
0
 62
     9
 10
0.0
 20
0.0
 30
0.0
 70
   128
 71
     7
 72
     9
 73
    30
  0
VERTEX
  5
7C1
  8
0
 62
     9
 10
0.0
 20
0.0
 30
0.0
 70
   128
 71
    27
 72
    31
 73
    26
  0
VERTEX
  5
7C2
  8
0
 62
     9
 10
0.0
 20
0.0
 30
0.0
 70
   128
 71
    13
 72
    17
 73
    22
  0
VERTEX
  5
7C3
  8
0
 62
     9
 10
0.0
 20
0.0
 30
0.0
 70
   128
 71
     1
 72
     5
 73
    19
  0
VERTEX
  5
7C4
  8
0
 62
     9
 10
0.0
 20
0.0
 30
0.0
 70
   128
 71
    16
 72
    20
 73
    15
  0
VERTEX
  5
7C5
  8
0
 62
     9
 10
0.0
 20
0.0
 30
0.0
 70
   128
 71
     7
 72
    38
 73
    12
  0
VERTEX
  5
7C6
  8
0
 62
     9
 10
0.0
 20
0.0
 30
0.0
 70
   128
 71
     1
 72
    44
 73
    10
  0
VERTEX
  5
7C7
  8
0
 62
     9
 10
0.0
 20
0.0
 30
0.0
 70
   128
 71
     6
 72
    49
 73
     8
  0
VERTEX
  5
7C8
  8
0
 62
     9
 10
0.0
 20
0.0
 30
0.0
 70
   128
 71
     4
 72
    34
 73
     3
  0
SEQEND
  5
7C9
  8
0
 62
     9
  0
ENDBLK
  5
7CC
  8
0
  0
BLOCK
  8
0
  2
E3_NODE_28_
 70
     0
 10
0.0
 20
0.0
 30
0.0
  3
E3_NODE_28_
  1

  0
POLYLINE
  5
7CE
  8
0
 62
     9
 66
     1
 10
0.0
 20
0.0
 30
0.0
 70
    64
 71
    67
 72
    72
  0
VERTEX
  5
7CF
  8
0
 10
110.2109985351562
 20
-21.64200019836426
 30
-4.870999813079834
 70
   192
  0
VERTEX
  5
7D0
  8
0
 10
92.86599731445312
 20
-21.59700012207031
 30
-5.366000175476074
 70
   192
  0
VERTEX
  5
7D1
  8
0
 10
92.9540023803711
 20
-18.9370002746582
 30
-8.751999855041504
 70
   192
  0
VERTEX
  5
7D2
  8
0
 10
110.5390014648438
 20
-18.40999984741211
 30
-8.817999839782715
 70
   192
  0
VERTEX
  5
7D3
  8
0
 10
111.552001953125
 20
0.0
 30
-16.45299911499023
 70
   192
  0
VERTEX
  5
7D4
  8
0
 10
93.16600036621094
 20
-2.052999973297119
 30
-16.85400009155273
 70
   192
  0
VERTEX
  5
7D5
  8
0
 10
93.16799926757812
 20
-0.9480000138282776
 30
-16.91699981689453
 70
   192
  0
VERTEX
  5
7D6
  8
0
 10
111.3649978637695
 20
-5.083000183105469
 30
-15.95100021362305
 70
   192
  0
VERTEX
  5
7D7
  8
0
 10
93.15499877929688
 20
-5.067999839782715
 30
-16.40800094604492
 70
   192
  0
VERTEX
  5
7D8
  8
0
 10
93.16600036621094
 20
-2.378999948501587
 30
-16.82500076293945
 70
   192
  0
VERTEX
  5
7D9
  8
0
 10
93.16799926757812
 20
-0.2440000027418137
 30
-16.9330005645752
 70
   192
  0
VERTEX
  5
7DA
  8
0
 10
93.16799926757812
 20
-0.0930000022053719
 30
-16.93400001525879
 70
   192
  0
VERTEX
  5
7DB
  8
0
 10
109.8779983520508
 20
-24.04000091552734
 30
-0.3689999878406525
 70
   192
  0
VERTEX
  5
7DC
  8
0
 10
92.72799682617188
 20
-24.33099937438965
 30
-0.1049999967217445
 70
   192
  0
VERTEX
  5
7DD
  8
0
 10
92.72899627685547
 20
-24.30699920654297
 30
-0.1659999936819077
 70
   192
  0
VERTEX
  5
7DE
  8
0
 10
92.72699737548828
 20
-24.3390007019043
 30
-0.0820000022649765
 70
   192
  0
VERTEX
  5
7DF
  8
0
 10
109.5510025024414
 20
-25.51099967956543
 30
4.514999866485596
 70
   192
  0
VERTEX
  5
7E0
  8
0
 10
92.6780014038086
 20
-24.95999908447266
 30
1.781999945640564
 70
   192
  0
VERTEX
  5
7E1
  8
0
 10
92.62899780273438
 20
-25.43199920654297
 30
3.654000043869019
 70
   192
  0
VERTEX
  5
7E2
  8
0
 10
92.62100219726562
 20
-25.5
 30
3.986000061035156
 70
   192
  0
VERTEX
  5
7E3
  8
0
 10
92.71700286865234
 20
-24.48100090026855
 30
0.3039999902248383
 70
   192
  0
VERTEX
  5
7E4
  8
0
 10
92.7239990234375
 20
-24.38899993896484
 30
0.0480000004172325
 70
   192
  0
VERTEX
  5
7E5
  8
0
 10
92.85900115966797
 20
-21.79400062561035
 30
-5.116000175476074
 70
   192
  0
VERTEX
  5
7E6
  8
0
 10
92.7490005493164
 20
-24.01700019836426
 30
-0.8980000019073486
 70
   192
  0
VERTEX
  5
7E7
  8
0
 10
92.61699676513672
 20
-25.52700042724609
 30
4.118000030517578
 70
   192
  0
VERTEX
  5
7E8
  8
0
 10
92.61699676513672
 20
-25.52599906921387
 30
4.116000175476074
 70
   192
  0
VERTEX
  5
7E9
  8
0
 10
92.61699676513672
 20
-25.52799987792969
 30
4.125
 70
   192
  0
VERTEX
  5
7EA
  8
0
 10
92.61499786376953
 20
-25.54299926757812
 30
4.204999923706055
 70
   192
  0
VERTEX
  5
7EB
  8
0
 10
108.9420013427734
 20
-26.0
 30
9.583999633789062
 70
   192
  0
VERTEX
  5
7EC
  8
0
 10
92.48799896240234
 20
-26.0
 30
9.057000160217285
 70
   192
  0
VERTEX
  5
7ED
  8
0
 10
92.61599731445312
 20
-25.5359992980957
 30
4.168000221252441
 70
   192
  0
VERTEX
  5
7EE
  8
0
 10
109.2440032958984
 20
-26.0
 30
9.593999862670898
 70
   192
  0
VERTEX
  5
7EF
  8
0
 10
110.8479995727539
 20
-14.4689998626709
 30
-12.05799961090088
 70
   192
  0
VERTEX
  5
7F0
  8
0
 10
93.0530014038086
 20
-14.42800045013428
 30
-12.52400016784668
 70
   192
  0
VERTEX
  5
7F1
  8
0
 10
93.10700225830078
 20
-10.76599979400635
 30
-14.60099983215332
 70
   192
  0
VERTEX
  5
7F2
  8
0
 10
111.1269989013672
 20
-9.968999862670898
 30
-14.46599960327148
 70
   192
  0
VERTEX
  5
7F3
  8
0
 10
93.15299987792969
 20
-5.574999809265137
 30
-16.32900047302246
 70
   192
  0
VERTEX
  5
7F4
  8
0
 10
93.11499786376953
 20
-9.925000190734863
 30
-14.88099956512451
 70
   192
  0
VERTEX
  5
7F5
  8
0
 10
93.0479965209961
 20
-14.78899955749512
 30
-12.31900024414062
 70
   192
  0
VERTEX
  5
7F6
  8
0
 10
92.96800231933594
 20
-18.33799934387207
 30
-9.267000198364258
 70
   192
  0
VERTEX
  5
7F7
  8
0
 10
116.9670028686523
 20
0.0
 30
-16.31100082397461
 70
   192
  0
VERTEX
  5
7F8
  8
0
 10
116.5510025024414
 20
-4.758999824523926
 30
-15.8769998550415
 70
   192
  0
VERTEX
  5
7F9
  8
0
 10
116.3160018920898
 20
-6.901000022888184
 30
-15.26900005340576
 70
   192
  0
VERTEX
  5
7FA
  8
0
 10
116.515998840332
 20
-5.078999996185303
 30
-15.78600025177002
 70
   192
  0
VERTEX
  5
7FB
  8
0
 10
116.036003112793
 20
-9.451000213623047
 30
-14.54500007629395
 70
   192
  0
VERTEX
  5
7FC
  8
0
 10
116.4589996337891
 20
-12.78499984741211
 30
-12.94799995422363
 70
   192
  0
VERTEX
  5
7FD
  8
0
 10
116.8050003051758
 20
-13.39400005340576
 30
-12.54500007629395
 70
   192
  0
VERTEX
  5
7FE
  8
0
 10
116.1419982910156
 20
-10.28800010681152
 30
-14.14500045776367
 70
   192
  0
VERTEX
  5
7FF
  8
0
 10
116.1009979248047
 20
-9.961000442504883
 30
-14.30099964141846
 70
   192
  0
VERTEX
  5
800
  8
0
 10
120.3949966430664
 20
-17.37800025939941
 30
-9.541000366210938
 70
   192
  0
VERTEX
  5
801
  8
0
 10
121.2180023193359
 20
-17.72500038146973
 30
-9.184000015258789
 70
   192
  0
VERTEX
  5
802
  8
0
 10
117.9540023803711
 20
-15.41899967193604
 30
-11.20199966430664
 70
   192
  0
VERTEX
  5
803
  8
0
 10
118.5780029296875
 20
-15.92000007629395
 30
-10.77700042724609
 70
   192
  0
VERTEX
  5
804
  8
0
 10
117.4079971313477
 20
-14.45699977874756
 30
-11.83899974822998
 70
   192
  0
VERTEX
  5
805
  8
0
 10
127.3089981079102
 20
-21.5580005645752
 30
-4.296999931335449
 70
   192
  0
VERTEX
  5
806
  8
0
 10
123.4469985961914
 20
-18.66699981689453
 30
-8.218999862670898
 70
   192
  0
VERTEX
  5
807
  8
0
 10
122.8830032348633
 20
-18.42900085449219
 30
-8.463000297546387
 70
   192
  0
VERTEX
  5
808
  8
0
 10
127.6640014648438
 20
-19.86800003051758
 30
-6.782000064849854
 70
   192
  0
VERTEX
  5
809
  8
0
 10
127.0120010375977
 20
-22.92600059509277
 30
-2.283999919891357
 70
   192
  0
VERTEX
  5
80A
  8
0
 10
126.6480026245117
 20
-23.93400001525879
 30
0.1870000064373016
 70
   192
  0
VERTEX
  5
80B
  8
0
 10
126.2720031738281
 20
-24.97599983215332
 30
2.74399995803833
 70
   192
  0
VERTEX
  5
80C
  8
0
 10
125.9329986572266
 20
-25.38599967956543
 30
5.047999858856201
 70
   192
  0
VERTEX
  5
80D
  8
0
 10
126.504997253418
 20
-24.33200073242188
 30
1.162999987602234
 70
   192
  0
VERTEX
  5
80E
  8
0
 10
125.4789962768555
 20
-25.9330005645752
 30
8.125
 70
   192
  0
VERTEX
  5
80F
  8
0
 10
125.1869964599609
 20
-26.0
 30
10.10400009155273
 70
   192
  0
VERTEX
  5
810
  8
0
 10
127.6750030517578
 20
-19.86800003051758
 30
-6.781000137329102
 70
   192
  0
VERTEX
  5
811
  8
0
 10
93.16799926757812
 20
0.0
 30
-16.93400001525879
 70
   192
  0
VERTEX
  5
812
  8
0
 62
     9
 10
0.0
 20
0.0
 30
0.0
 70
   128
 71
     3
 72
     2
 73
     1
  0
VERTEX
  5
813
  8
0
 62
     9
 10
0.0
 20
0.0
 30
0.0
 70
   128
 71
     1
 72
     4
 73
     3
  0
VERTEX
  5
814
  8
0
 62
     9
 10
0.0
 20
0.0
 30
0.0
 70
   128
 71
     7
 72
     6
 73
     5
  0
VERTEX
  5
815
  8
0
 62
     9
 10
0.0
 20
0.0
 30
0.0
 70
   128
 71
    10
 72
     9
 73
     8
  0
VERTEX
  5
816
  8
0
 62
     9
 10
0.0
 20
0.0
 30
0.0
 70
   128
 71
     8
 72
     5
 73
    10
  0
VERTEX
  5
817
  8
0
 62
     9
 10
0.0
 20
0.0
 30
0.0
 70
   128
 71
     5
 72
     6
 73
    10
  0
VERTEX
  5
818
  8
0
 62
     9
 10
0.0
 20
0.0
 30
0.0
 70
   128
 71
     5
 72
    11
 73
     7
  0
VERTEX
  5
819
  8
0
 62
     9
 10
0.0
 20
0.0
 30
0.0
 70
   128
 71
     5
 72
    12
 73
    11
  0
VERTEX
  5
81A
  8
0
 62
     9
 10
0.0
 20
0.0
 30
0.0
 70
   128
 71
    15
 72
    14
 73
    13
  0
VERTEX
  5
81B
  8
0
 62
     9
 10
0.0
 20
0.0
 30
0.0
 70
   128
 71
    14
 72
    16
 73
    13
  0
VERTEX
  5
81C
  8
0
 62
     9
 10
0.0
 20
0.0
 30
0.0
 70
   128
 71
    18
 72
    17
 73
    13
  0
VERTEX
  5
81D
  8
0
 62
     9
 10
0.0
 20
0.0
 30
0.0
 70
   128
 71
    18
 72
    19
 73
    17
  0
VERTEX
  5
81E
  8
0
 62
     9
 10
0.0
 20
0.0
 30
0.0
 70
   128
 71
    19
 72
    20
 73
    17
  0
VERTEX
  5
81F
  8
0
 62
     9
 10
0.0
 20
0.0
 30
0.0
 70
   128
 71
    13
 72
    21
 73
    18
  0
VERTEX
  5
820
  8
0
 62
     9
 10
0.0
 20
0.0
 30
0.0
 70
   128
 71
    13
 72
    22
 73
    21
  0
VERTEX
  5
821
  8
0
 62
     9
 10
0.0
 20
0.0
 30
0.0
 70
   128
 71
    13
 72
    16
 73
    22
  0
VERTEX
  5
822
  8
0
 62
     9
 10
0.0
 20
0.0
 30
0.0
 70
   128
 71
    13
 72
     1
 73
    23
  0
VERTEX
  5
823
  8
0
 62
     9
 10
0.0
 20
0.0
 30
0.0
 70
   128
 71
    23
 72
    24
 73
    13
  0
VERTEX
  5
824
  8
0
 62
     9
 10
0.0
 20
0.0
 30
0.0
 70
   128
 71
    26
 72
    25
 73
    17
  0
VERTEX
  5
825
  8
0
 62
     9
 10
0.0
 20
0.0
 30
0.0
 70
   128
 71
    25
 72
    27
 73
    17
  0
VERTEX
  5
826
  8
0
 62
     9
 10
0.0
 20
0.0
 30
0.0
 70
   128
 71
    29
 72
    17
 73
    28
  0
VERTEX
  5
827
  8
0
 62
     9
 10
0.0
 20
0.0
 30
0.0
 70
   128
 71
    28
 72
    30
 73
    29
  0
VERTEX
  5
828
  8
0
 62
     9
 10
0.0
 20
0.0
 30
0.0
 70
   128
 71
    17
 72
    31
 73
    28
  0
VERTEX
  5
829
  8
0
 62
     9
 10
0.0
 20
0.0
 30
0.0
 70
   128
 71
    29
 72
    32
 73
    17
  0
VERTEX
  5
82A
  8
0
 62
     9
 10
0.0
 20
0.0
 30
0.0
 70
   128
 71
    17
 72
    27
 73
    31
  0
VERTEX
  5
82B
  8
0
 62
     9
 10
0.0
 20
0.0
 30
0.0
 70
   128
 71
    35
 72
    34
 73
    33
  0
VERTEX
  5
82C
  8
0
 62
     9
 10
0.0
 20
0.0
 30
0.0
 70
   128
 71
    33
 72
    36
 73
    35
  0
VERTEX
  5
82D
  8
0
 62
     9
 10
0.0
 20
0.0
 30
0.0
 70
   128
 71
    36
 72
     8
 73
    37
  0
VERTEX
  5
82E
  8
0
 62
     9
 10
0.0
 20
0.0
 30
0.0
 70
   128
 71
    37
 72
    38
 73
    36
  0
VERTEX
  5
82F
  8
0
 62
     9
 10
0.0
 20
0.0
 30
0.0
 70
   128
 71
     4
 72
    33
 73
    39
  0
VERTEX
  5
830
  8
0
 62
     9
 10
0.0
 20
0.0
 30
0.0
 70
   128
 71
    39
 72
    40
 73
     4
  0
VERTEX
  5
831
  8
0
 62
     9
 10
0.0
 20
0.0
 30
0.0
 70
   128
 71
    42
 72
    41
 73
     5
  0
VERTEX
  5
832
  8
0
 62
     9
 10
0.0
 20
0.0
 30
0.0
 70
   128
 71
     5
 72
     8
 73
    42
  0
VERTEX
  5
833
  8
0
 62
     9
 10
0.0
 20
0.0
 30
0.0
 70
   128
 71
    43
 72
     8
 73
    36
  0
VERTEX
  5
834
  8
0
 62
     9
 10
0.0
 20
0.0
 30
0.0
 70
   128
 71
    43
 72
    44
 73
     8
  0
VERTEX
  5
835
  8
0
 62
     9
 10
0.0
 20
0.0
 30
0.0
 70
   128
 71
    36
 72
    45
 73
    43
  0
VERTEX
  5
836
  8
0
 62
     9
 10
0.0
 20
0.0
 30
0.0
 70
   128
 71
    47
 72
    46
 73
    33
  0
VERTEX
  5
837
  8
0
 62
     9
 10
0.0
 20
0.0
 30
0.0
 70
   128
 71
    46
 72
    48
 73
    36
  0
VERTEX
  5
838
  8
0
 62
     9
 10
0.0
 20
0.0
 30
0.0
 70
   128
 71
    48
 72
    49
 73
    36
  0
VERTEX
  5
839
  8
0
 62
     9
 10
0.0
 20
0.0
 30
0.0
 70
   128
 71
    36
 72
    33
 73
    46
  0
VERTEX
  5
83A
  8
0
 62
     9
 10
0.0
 20
0.0
 30
0.0
 70
   128
 71
    51
 72
    50
 73
     4
  0
VERTEX
  5
83B
  8
0
 62
     9
 10
0.0
 20
0.0
 30
0.0
 70
   128
 71
    53
 72
    52
 73
     4
  0
VERTEX
  5
83C
  8
0
 62
     9
 10
0.0
 20
0.0
 30
0.0
 70
   128
 71
     4
 72
    50
 73
    53
  0
VERTEX
  5
83D
  8
0
 62
     9
 10
0.0
 20
0.0
 30
0.0
 70
   128
 71
    54
 72
    33
 73
     4
  0
VERTEX
  5
83E
  8
0
 62
     9
 10
0.0
 20
0.0
 30
0.0
 70
   128
 71
     4
 72
    52
 73
    54
  0
VERTEX
  5
83F
  8
0
 62
     9
 10
0.0
 20
0.0
 30
0.0
 70
   128
 71
    56
 72
     1
 73
    55
  0
VERTEX
  5
840
  8
0
 62
     9
 10
0.0
 20
0.0
 30
0.0
 70
   128
 71
    57
 72
     4
 73
     1
  0
VERTEX
  5
841
  8
0
 62
     9
 10
0.0
 20
0.0
 30
0.0
 70
   128
 71
     1
 72
    56
 73
    57
  0
VERTEX
  5
842
  8
0
 62
     9
 10
0.0
 20
0.0
 30
0.0
 70
   128
 71
    55
 72
    58
 73
    56
  0
VERTEX
  5
843
  8
0
 62
     9
 10
0.0
 20
0.0
 30
0.0
 70
   128
 71
    60
 72
    59
 73
     1
  0
VERTEX
  5
844
  8
0
 62
     9
 10
0.0
 20
0.0
 30
0.0
 70
   128
 71
    59
 72
    55
 73
     1
  0
VERTEX
  5
845
  8
0
 62
     9
 10
0.0
 20
0.0
 30
0.0
 70
   128
 71
    62
 72
    61
 73
    13
  0
VERTEX
  5
846
  8
0
 62
     9
 10
0.0
 20
0.0
 30
0.0
 70
   128
 71
    61
 72
    63
 73
    13
  0
VERTEX
  5
847
  8
0
 62
     9
 10
0.0
 20
0.0
 30
0.0
 70
   128
 71
    63
 72
    60
 73
    13
  0
VERTEX
  5
848
  8
0
 62
     9
 10
0.0
 20
0.0
 30
0.0
 70
   128
 71
    65
 72
    64
 73
    17
  0
VERTEX
  5
849
  8
0
 62
     9
 10
0.0
 20
0.0
 30
0.0
 70
   128
 71
    64
 72
    62
 73
    17
  0
VERTEX
  5
84A
  8
0
 62
     9
 10
0.0
 20
0.0
 30
0.0
 70
   128
 71
    17
 72
    32
 73
    65
  0
VERTEX
  5
84B
  8
0
 62
     9
 10
0.0
 20
0.0
 30
0.0
 70
   128
 71
    13
 72
    17
 73
    62
  0
VERTEX
  5
84C
  8
0
 62
     9
 10
0.0
 20
0.0
 30
0.0
 70
   128
 71
     1
 72
    13
 73
    60
  0
VERTEX
  5
84D
  8
0
 62
     9
 10
0.0
 20
0.0
 30
0.0
 70
   128
 71
    55
 72
    66
 73
    58
  0
VERTEX
  5
84E
  8
0
 62
     9
 10
0.0
 20
0.0
 30
0.0
 70
   128
 71
     4
 72
    57
 73
    51
  0
VERTEX
  5
84F
  8
0
 62
     9
 10
0.0
 20
0.0
 30
0.0
 70
   128
 71
    33
 72
    54
 73
    47
  0
VERTEX
  5
850
  8
0
 62
     9
 10
0.0
 20
0.0
 30
0.0
 70
   128
 71
    36
 72
    49
 73
    45
  0
VERTEX
  5
851
  8
0
 62
     9
 10
0.0
 20
0.0
 30
0.0
 70
   128
 71
     8
 72
    44
 73
    42
  0
VERTEX
  5
852
  8
0
 62
     9
 10
0.0
 20
0.0
 30
0.0
 70
   128
 71
    33
 72
    34
 73
    39
  0
VERTEX
  5
853
  8
0
 62
     9
 10
0.0
 20
0.0
 30
0.0
 70
   128
 71
     8
 72
     9
 73
    37
  0
VERTEX
  5
854
  8
0
 62
     9
 10
0.0
 20
0.0
 30
0.0
 70
   128
 71
    36
 72
    38
 73
    35
  0
VERTEX
  5
855
  8
0
 62
     9
 10
0.0
 20
0.0
 30
0.0
 70
   128
 71
    17
 72
    20
 73
    26
  0
VERTEX
  5
856
  8
0
 62
     9
 10
0.0
 20
0.0
 30
0.0
 70
   128
 71
     1
 72
     2
 73
    23
  0
VERTEX
  5
857
  8
0
 62
     9
 10
0.0
 20
0.0
 30
0.0
 70
   128
 71
    13
 72
    24
 73
    15
  0
VERTEX
  5
858
  8
0
 62
     9
 10
0.0
 20
0.0
 30
0.0
 70
   128
 71
     5
 72
    67
 73
    12
  0
VERTEX
  5
859
  8
0
 62
     9
 10
0.0
 20
0.0
 30
0.0
 70
   128
 71
     4
 72
    40
 73
     3
  0
SEQEND
  5
85A
  8
0
 62
     9
  0
ENDBLK
  5
85D
  8
0
  0
BLOCK
  8
0
  2
E3_NODE_29_
 70
     0
 10
0.0
 20
0.0
 30
0.0
  3
E3_NODE_29_
  1

  0
POLYLINE
  5
85F
  8
0
 62
     9
 66
     1
 10
0.0
 20
0.0
 30
0.0
 70
    64
 71
    68
 72
    73
  0
VERTEX
  5
860
  8
0
 10
110.5390014648438
 20
18.41200065612793
 30
-8.815999984741211
 70
   192
  0
VERTEX
  5
861
  8
0
 10
92.96900177001953
 20
18.37299919128418
 30
-9.309000015258789
 70
   192
  0
VERTEX
  5
862
  8
0
 10
92.87999725341797
 20
21.23999977111816
 30
-5.933000087738037
 70
   192
  0
VERTEX
  5
863
  8
0
 10
110.2109985351562
 20
21.64399909973145
 30
-4.86899995803833
 70
   192
  0
VERTEX
  5
864
  8
0
 10
111.3649978637695
 20
5.083000183105469
 30
-15.94999980926514
 70
   192
  0
VERTEX
  5
865
  8
0
 10
93.15799713134766
 20
4.461999893188477
 30
-16.54800033569336
 70
   192
  0
VERTEX
  5
866
  8
0
 10
93.15799713134766
 20
4.526000022888184
 30
-16.53700065612793
 70
   192
  0
VERTEX
  5
867
  8
0
 10
93.15799713134766
 20
4.438000202178955
 30
-16.55299949645996
 70
   192
  0
VERTEX
  5
868
  8
0
 10
93.16799926757812
 20
0.5619999766349792
 30
-16.92799949645996
 70
   192
  0
VERTEX
  5
869
  8
0
 10
93.16500091552734
 20
2.489000082015991
 30
-16.81399917602539
 70
   192
  0
VERTEX
  5
86A
  8
0
 10
93.16799926757812
 20
0.0900000035762787
 30
-16.93400001525879
 70
   192
  0
VERTEX
  5
86B
  8
0
 10
93.16000366210938
 20
4.031000137329102
 30
-16.61899948120117
 70
   192
  0
VERTEX
  5
86C
  8
0
 10
93.15899658203125
 20
4.301000118255615
 30
-16.57699966430664
 70
   192
  0
VERTEX
  5
86D
  8
0
 10
93.16799926757812
 20
0.0879999995231628
 30
-16.93400001525879
 70
   192
  0
VERTEX
  5
86E
  8
0
 10
93.16799926757812
 20
0.0810000002384186
 30
-16.93400001525879
 70
   192
  0
VERTEX
  5
86F
  8
0
 10
111.552001953125
 20
0.0
 30
-16.45299911499023
 70
   192
  0
VERTEX
  5
870
  8
0
 10
93.16799926757812
 20
0.0
 30
-16.93400001525879
 70
   192
  0
VERTEX
  5
871
  8
0
 10
93.16799926757812
 20
0.0370000004768372
 30
-16.93400001525879
 70
   192
  0
VERTEX
  5
872
  8
0
 10
93.15499877929688
 20
5.072000026702881
 30
-16.43199920654297
 70
   192
  0
VERTEX
  5
873
  8
0
 10
111.1269989013672
 20
9.970000267028809
 30
-14.46500015258789
 70
   192
  0
VERTEX
  5
874
  8
0
 10
93.11599731445312
 20
9.946999549865723
 30
-14.94699954986572
 70
   192
  0
VERTEX
  5
875
  8
0
 10
93.06199645996094
 20
13.96599960327148
 30
-12.86499977111816
 70
   192
  0
VERTEX
  5
876
  8
0
 10
110.8479995727539
 20
14.47000026702881
 30
-12.05700016021729
 70
   192
  0
VERTEX
  5
877
  8
0
 10
93.15399932861328
 20
5.300000190734863
 30
-16.38800048828125
 70
   192
  0
VERTEX
  5
878
  8
0
 10
93.11799621582031
 20
9.859999656677246
 30
-14.99199962615967
 70
   192
  0
VERTEX
  5
879
  8
0
 10
93.0530014038086
 20
14.41199970245361
 30
-12.51000022888184
 70
   192
  0
VERTEX
  5
87A
  8
0
 10
92.9729995727539
 20
18.24699974060059
 30
-9.458000183105469
 70
   192
  0
VERTEX
  5
87B
  8
0
 10
109.5510025024414
 20
25.51199913024902
 30
4.519000053405762
 70
   192
  0
VERTEX
  5
87C
  8
0
 10
92.66699981689453
 20
25.07999992370605
 30
2.203999996185303
 70
   192
  0
VERTEX
  5
87D
  8
0
 10
92.63899993896484
 20
25.34900093078613
 30
3.276999950408936
 70
   192
  0
VERTEX
  5
87E
  8
0
 10
109.8779983520508
 20
24.04100036621094
 30
-0.3659999966621399
 70
   192
  0
VERTEX
  5
87F
  8
0
 10
92.74800109863281
 20
24.00600051879883
 30
-0.8799999952316284
 70
   192
  0
VERTEX
  5
880
  8
0
 10
92.6760025024414
 20
24.99099922180176
 30
1.888000011444092
 70
   192
  0
VERTEX
  5
881
  8
0
 10
92.62100219726562
 20
25.49600028991699
 30
3.964999914169312
 70
   192
  0
VERTEX
  5
882
  8
0
 10
92.86499786376953
 20
21.56500053405762
 30
-5.349999904632568
 70
   192
  0
VERTEX
  5
883
  8
0
 10
92.75499725341797
 20
23.90800094604492
 30
-1.156999945640564
 70
   192
  0
VERTEX
  5
884
  8
0
 10
92.61499786376953
 20
25.54299926757812
 30
4.204999923706055
 70
   192
  0
VERTEX
  5
885
  8
0
 10
92.48799896240234
 20
26.0
 30
9.057000160217285
 70
   192
  0
VERTEX
  5
886
  8
0
 10
108.9420013427734
 20
26.0
 30
9.583999633789062
 70
   192
  0
VERTEX
  5
887
  8
0
 10
92.61699676513672
 20
25.52599906921387
 30
4.113999843597412
 70
   192
  0
VERTEX
  5
888
  8
0
 10
92.62000274658203
 20
25.50099945068359
 30
3.990999937057495
 70
   192
  0
VERTEX
  5
889
  8
0
 10
109.2440032958984
 20
26.0
 30
9.593999862670898
 70
   192
  0
VERTEX
  5
88A
  8
0
 10
125.1869964599609
 20
26.0
 30
10.10400009155273
 70
   192
  0
VERTEX
  5
88B
  8
0
 10
126.0090026855469
 20
25.42300033569336
 30
4.526000022888184
 70
   192
  0
VERTEX
  5
88C
  8
0
 10
125.9349975585938
 20
25.47599983215332
 30
5.032000064849854
 70
   192
  0
VERTEX
  5
88D
  8
0
 10
126.5029983520508
 20
24.32200050354004
 30
1.175999999046326
 70
   192
  0
VERTEX
  5
88E
  8
0
 10
126.6520004272461
 20
23.98900032043457
 30
0.1620000004768372
 70
   192
  0
VERTEX
  5
88F
  8
0
 10
126.7819976806641
 20
23.69799995422363
 30
-0.7200000286102295
 70
   192
  0
VERTEX
  5
890
  8
0
 10
127.3119964599609
 20
21.58600044250488
 30
-4.320000171661377
 70
   192
  0
VERTEX
  5
891
  8
0
 10
122.9619979858398
 20
18.42200088500977
 30
-8.449000358581543
 70
   192
  0
VERTEX
  5
892
  8
0
 10
127.6640014648438
 20
19.86700057983398
 30
-6.782999992370605
 70
   192
  0
VERTEX
  5
893
  8
0
 10
127.4769973754883
 20
20.92799949645996
 30
-5.440999984741211
 70
   192
  0
VERTEX
  5
894
  8
0
 10
127.6750030517578
 20
19.86700057983398
 30
-6.782999992370605
 70
   192
  0
VERTEX
  5
895
  8
0
 10
118.6240005493164
 20
15.9680004119873
 30
-10.73299980163574
 70
   192
  0
VERTEX
  5
896
  8
0
 10
117.3199996948242
 20
14.47200012207031
 30
-11.86400032043457
 70
   192
  0
VERTEX
  5
897
  8
0
 10
119.0780029296875
 20
16.48800086975098
 30
-10.33899974822998
 70
   192
  0
VERTEX
  5
898
  8
0
 10
121.7210006713867
 20
18.04000091552734
 30
-8.887999534606934
 70
   192
  0
VERTEX
  5
899
  8
0
 10
121.2460021972656
 20
17.76199913024902
 30
-9.14900016784668
 70
   192
  0
VERTEX
  5
89A
  8
0
 10
116.1510009765625
 20
11.50500011444092
 30
-13.63399982452393
 70
   192
  0
VERTEX
  5
89B
  8
0
 10
116.1399993896484
 20
10.39599990844727
 30
-14.08600044250488
 70
   192
  0
VERTEX
  5
89C
  8
0
 10
117.0670013427734
 20
14.18099975585938
 30
-12.08300018310547
 70
   192
  0
VERTEX
  5
89D
  8
0
 10
116.8259963989258
 20
13.47900009155273
 30
-12.49100017547607
 70
   192
  0
VERTEX
  5
89E
  8
0
 10
116.1169967651367
 20
8.005000114440918
 30
-15.0600004196167
 70
   192
  0
VERTEX
  5
89F
  8
0
 10
116.2440032958984
 20
7.034999847412109
 30
-15.26599979400635
 70
   192
  0
VERTEX
  5
8A0
  8
0
 10
116.1360015869141
 20
9.951000213623047
 30
-14.26700019836426
 70
   192
  0
VERTEX
  5
8A1
  8
0
 10
116.5019989013672
 20
5.059000015258789
 30
-15.68599987030029
 70
   192
  0
VERTEX
  5
8A2
  8
0
 10
116.7910003662109
 20
2.852999925613403
 30
-16.15399932861328
 70
   192
  0
VERTEX
  5
8A3
  8
0
 10
116.9670028686523
 20
0.0
 30
-16.31100082397461
 70
   192
  0
VERTEX
  5
8A4
  8
0
 62
     9
 10
0.0
 20
0.0
 30
0.0
 70
   128
 71
     3
 72
     2
 73
     1
  0
VERTEX
  5
8A5
  8
0
 62
     9
 10
0.0
 20
0.0
 30
0.0
 70
   128
 71
     1
 72
     4
 73
     3
  0
VERTEX
  5
8A6
  8
0
 62
     9
 10
0.0
 20
0.0
 30
0.0
 70
   128
 71
     7
 72
     6
 73
     5
  0
VERTEX
  5
8A7
  8
0
 62
     9
 10
0.0
 20
0.0
 30
0.0
 70
   128
 71
     6
 72
     8
 73
     5
  0
VERTEX
  5
8A8
  8
0
 62
     9
 10
0.0
 20
0.0
 30
0.0
 70
   128
 71
    10
 72
     9
 73
     5
  0
VERTEX
  5
8A9
  8
0
 62
     9
 10
0.0
 20
0.0
 30
0.0
 70
   128
 71
     9
 72
    11
 73
     5
  0
VERTEX
  5
8AA
  8
0
 62
     9
 10
0.0
 20
0.0
 30
0.0
 70
   128
 71
     5
 72
    12
 73
    10
  0
VERTEX
  5
8AB
  8
0
 62
     9
 10
0.0
 20
0.0
 30
0.0
 70
   128
 71
     5
 72
    13
 73
    12
  0
VERTEX
  5
8AC
  8
0
 62
     9
 10
0.0
 20
0.0
 30
0.0
 70
   128
 71
    11
 72
    14
 73
     5
  0
VERTEX
  5
8AD
  8
0
 62
     9
 10
0.0
 20
0.0
 30
0.0
 70
   128
 71
    14
 72
    15
 73
     5
  0
VERTEX
  5
8AE
  8
0
 62
     9
 10
0.0
 20
0.0
 30
0.0
 70
   128
 71
     5
 72
     8
 73
    13
  0
VERTEX
  5
8AF
  8
0
 62
     9
 10
0.0
 20
0.0
 30
0.0
 70
   128
 71
    18
 72
    17
 73
    16
  0
VERTEX
  5
8B0
  8
0
 62
     9
 10
0.0
 20
0.0
 30
0.0
 70
   128
 71
    16
 72
     5
 73
    18
  0
VERTEX
  5
8B1
  8
0
 62
     9
 10
0.0
 20
0.0
 30
0.0
 70
   128
 71
     5
 72
    15
 73
    18
  0
VERTEX
  5
8B2
  8
0
 62
     9
 10
0.0
 20
0.0
 30
0.0
 70
   128
 71
     5
 72
    19
 73
     7
  0
VERTEX
  5
8B3
  8
0
 62
     9
 10
0.0
 20
0.0
 30
0.0
 70
   128
 71
    22
 72
    21
 73
    20
  0
VERTEX
  5
8B4
  8
0
 62
     9
 10
0.0
 20
0.0
 30
0.0
 70
   128
 71
    20
 72
    23
 73
    22
  0
VERTEX
  5
8B5
  8
0
 62
     9
 10
0.0
 20
0.0
 30
0.0
 70
   128
 71
    20
 72
    25
 73
    24
  0
VERTEX
  5
8B6
  8
0
 62
     9
 10
0.0
 20
0.0
 30
0.0
 70
   128
 71
    24
 72
     5
 73
    20
  0
VERTEX
  5
8B7
  8
0
 62
     9
 10
0.0
 20
0.0
 30
0.0
 70
   128
 71
    24
 72
    19
 73
     5
  0
VERTEX
  5
8B8
  8
0
 62
     9
 10
0.0
 20
0.0
 30
0.0
 70
   128
 71
     1
 72
    27
 73
    26
  0
VERTEX
  5
8B9
  8
0
 62
     9
 10
0.0
 20
0.0
 30
0.0
 70
   128
 71
    26
 72
    23
 73
     1
  0
VERTEX
  5
8BA
  8
0
 62
     9
 10
0.0
 20
0.0
 30
0.0
 70
   128
 71
    30
 72
    29
 73
    28
  0
VERTEX
  5
8BB
  8
0
 62
     9
 10
0.0
 20
0.0
 30
0.0
 70
   128
 71
    33
 72
    32
 73
    31
  0
VERTEX
  5
8BC
  8
0
 62
     9
 10
0.0
 20
0.0
 30
0.0
 70
   128
 71
    31
 72
    28
 73
    33
  0
VERTEX
  5
8BD
  8
0
 62
     9
 10
0.0
 20
0.0
 30
0.0
 70
   128
 71
    28
 72
    29
 73
    33
  0
VERTEX
  5
8BE
  8
0
 62
     9
 10
0.0
 20
0.0
 30
0.0
 70
   128
 71
    28
 72
    34
 73
    30
  0
VERTEX
  5
8BF
  8
0
 62
     9
 10
0.0
 20
0.0
 30
0.0
 70
   128
 71
    36
 72
    35
 73
     4
  0
VERTEX
  5
8C0
  8
0
 62
     9
 10
0.0
 20
0.0
 30
0.0
 70
   128
 71
     4
 72
    31
 73
    36
  0
VERTEX
  5
8C1
  8
0
 62
     9
 10
0.0
 20
0.0
 30
0.0
 70
   128
 71
    39
 72
    38
 73
    37
  0
VERTEX
  5
8C2
  8
0
 62
     9
 10
0.0
 20
0.0
 30
0.0
 70
   128
 71
    37
 72
    40
 73
    28
  0
VERTEX
  5
8C3
  8
0
 62
     9
 10
0.0
 20
0.0
 30
0.0
 70
   128
 71
    40
 72
    41
 73
    28
  0
VERTEX
  5
8C4
  8
0
 62
     9
 10
0.0
 20
0.0
 30
0.0
 70
   128
 71
    37
 72
    28
 73
    39
  0
VERTEX
  5
8C5
  8
0
 62
     9
 10
0.0
 20
0.0
 30
0.0
 70
   128
 71
    43
 72
    42
 73
    28
  0
VERTEX
  5
8C6
  8
0
 62
     9
 10
0.0
 20
0.0
 30
0.0
 70
   128
 71
    44
 72
    28
 73
    31
  0
VERTEX
  5
8C7
  8
0
 62
     9
 10
0.0
 20
0.0
 30
0.0
 70
   128
 71
    44
 72
    45
 73
    28
  0
VERTEX
  5
8C8
  8
0
 62
     9
 10
0.0
 20
0.0
 30
0.0
 70
   128
 71
    31
 72
    46
 73
    44
  0
VERTEX
  5
8C9
  8
0
 62
     9
 10
0.0
 20
0.0
 30
0.0
 70
   128
 71
    48
 72
    47
 73
    31
  0
VERTEX
  5
8CA
  8
0
 62
     9
 10
0.0
 20
0.0
 30
0.0
 70
   128
 71
    31
 72
     4
 73
    48
  0
VERTEX
  5
8CB
  8
0
 62
     9
 10
0.0
 20
0.0
 30
0.0
 70
   128
 71
    50
 72
    49
 73
     4
  0
VERTEX
  5
8CC
  8
0
 62
     9
 10
0.0
 20
0.0
 30
0.0
 70
   128
 71
    50
 72
    51
 73
    49
  0
VERTEX
  5
8CD
  8
0
 62
     9
 10
0.0
 20
0.0
 30
0.0
 70
   128
 71
    52
 72
    49
 73
    51
  0
VERTEX
  5
8CE
  8
0
 62
     9
 10
0.0
 20
0.0
 30
0.0
 70
   128
 71
    51
 72
    53
 73
    52
  0
VERTEX
  5
8CF
  8
0
 62
     9
 10
0.0
 20
0.0
 30
0.0
 70
   128
 71
    55
 72
    54
 73
     1
  0
VERTEX
  5
8D0
  8
0
 62
     9
 10
0.0
 20
0.0
 30
0.0
 70
   128
 71
    54
 72
    56
 73
     1
  0
VERTEX
  5
8D1
  8
0
 62
     9
 10
0.0
 20
0.0
 30
0.0
 70
   128
 71
    58
 72
    57
 73
     1
  0
VERTEX
  5
8D2
  8
0
 62
     9
 10
0.0
 20
0.0
 30
0.0
 70
   128
 71
    57
 72
    50
 73
     1
  0
VERTEX
  5
8D3
  8
0
 62
     9
 10
0.0
 20
0.0
 30
0.0
 70
   128
 71
     1
 72
    56
 73
    58
  0
VERTEX
  5
8D4
  8
0
 62
     9
 10
0.0
 20
0.0
 30
0.0
 70
   128
 71
    59
 72
    23
 73
    20
  0
VERTEX
  5
8D5
  8
0
 62
     9
 10
0.0
 20
0.0
 30
0.0
 70
   128
 71
    20
 72
    60
 73
    59
  0
VERTEX
  5
8D6
  8
0
 62
     9
 10
0.0
 20
0.0
 30
0.0
 70
   128
 71
    62
 72
    61
 73
    23
  0
VERTEX
  5
8D7
  8
0
 62
     9
 10
0.0
 20
0.0
 30
0.0
 70
   128
 71
    23
 72
    59
 73
    62
  0
VERTEX
  5
8D8
  8
0
 62
     9
 10
0.0
 20
0.0
 30
0.0
 70
   128
 71
    61
 72
    55
 73
    23
  0
VERTEX
  5
8D9
  8
0
 62
     9
 10
0.0
 20
0.0
 30
0.0
 70
   128
 71
    63
 72
    20
 73
     5
  0
VERTEX
  5
8DA
  8
0
 62
     9
 10
0.0
 20
0.0
 30
0.0
 70
   128
 71
     5
 72
    64
 73
    63
  0
VERTEX
  5
8DB
  8
0
 62
     9
 10
0.0
 20
0.0
 30
0.0
 70
   128
 71
    63
 72
    65
 73
    20
  0
VERTEX
  5
8DC
  8
0
 62
     9
 10
0.0
 20
0.0
 30
0.0
 70
   128
 71
    67
 72
    66
 73
     5
  0
VERTEX
  5
8DD
  8
0
 62
     9
 10
0.0
 20
0.0
 30
0.0
 70
   128
 71
     5
 72
    16
 73
    67
  0
VERTEX
  5
8DE
  8
0
 62
     9
 10
0.0
 20
0.0
 30
0.0
 70
   128
 71
    16
 72
    68
 73
    67
  0
VERTEX
  5
8DF
  8
0
 62
     9
 10
0.0
 20
0.0
 30
0.0
 70
   128
 71
     5
 72
    66
 73
    64
  0
VERTEX
  5
8E0
  8
0
 62
     9
 10
0.0
 20
0.0
 30
0.0
 70
   128
 71
    20
 72
    65
 73
    60
  0
VERTEX
  5
8E1
  8
0
 62
     9
 10
0.0
 20
0.0
 30
0.0
 70
   128
 71
     1
 72
    23
 73
    55
  0
VERTEX
  5
8E2
  8
0
 62
     9
 10
0.0
 20
0.0
 30
0.0
 70
   128
 71
     4
 72
     1
 73
    50
  0
VERTEX
  5
8E3
  8
0
 62
     9
 10
0.0
 20
0.0
 30
0.0
 70
   128
 71
     4
 72
    49
 73
    48
  0
VERTEX
  5
8E4
  8
0
 62
     9
 10
0.0
 20
0.0
 30
0.0
 70
   128
 71
    31
 72
    47
 73
    46
  0
VERTEX
  5
8E5
  8
0
 62
     9
 10
0.0
 20
0.0
 30
0.0
 70
   128
 71
    28
 72
    45
 73
    43
  0
VERTEX
  5
8E6
  8
0
 62
     9
 10
0.0
 20
0.0
 30
0.0
 70
   128
 71
    28
 72
    42
 73
    39
  0
VERTEX
  5
8E7
  8
0
 62
     9
 10
0.0
 20
0.0
 30
0.0
 70
   128
 71
    31
 72
    32
 73
    36
  0
VERTEX
  5
8E8
  8
0
 62
     9
 10
0.0
 20
0.0
 30
0.0
 70
   128
 71
    28
 72
    41
 73
    34
  0
VERTEX
  5
8E9
  8
0
 62
     9
 10
0.0
 20
0.0
 30
0.0
 70
   128
 71
     1
 72
     2
 73
    27
  0
VERTEX
  5
8EA
  8
0
 62
     9
 10
0.0
 20
0.0
 30
0.0
 70
   128
 71
    20
 72
    21
 73
    25
  0
VERTEX
  5
8EB
  8
0
 62
     9
 10
0.0
 20
0.0
 30
0.0
 70
   128
 71
    23
 72
    26
 73
    22
  0
VERTEX
  5
8EC
  8
0
 62
     9
 10
0.0
 20
0.0
 30
0.0
 70
   128
 71
     4
 72
    35
 73
     3
  0
SEQEND
  5
8ED
  8
0
 62
     9
  0
ENDBLK
  5
8F0
  8
0
  0
BLOCK
  8
0
  2
E3_NODE_30_
 70
     0
 10
0.0
 20
0.0
 30
0.0
  3
E3_NODE_30_
  1

  0
POLYLINE
  5
8F2
  8
0
 62
     9
 66
     1
 10
0.0
 20
0.0
 30
0.0
 70
    64
 71
    49
 72
    54
  0
VERTEX
  5
8F3
  8
0
 10
123.3870010375977
 20
21.49099922180176
 30
24.37299919128418
 70
   192
  0
VERTEX
  5
8F4
  8
0
 10
123.0910034179688
 20
21.50399971008301
 30
24.33200073242188
 70
   192
  0
VERTEX
  5
8F5
  8
0
 10
122.6600036621094
 20
19.37400054931641
 30
27.2549991607666
 70
   192
  0
VERTEX
  5
8F6
  8
0
 10
122.8099975585938
 20
18.26499938964844
 30
28.24900054931641
 70
   192
  0
VERTEX
  5
8F7
  8
0
 10
122.5220031738281
 20
18.32299995422363
 30
28.19599914550781
 70
   192
  0
VERTEX
  5
8F8
  8
0
 10
121.4769973754883
 20
5.063000202178955
 30
35.29399871826172
 70
   192
  0
VERTEX
  5
8F9
  8
0
 10
121.3990020751953
 20
0.0
 30
35.82300186157227
 70
   192
  0
VERTEX
  5
8FA
  8
0
 10
121.6699981689453
 20
0.0
 30
35.66600036621094
 70
   192
  0
VERTEX
  5
8FB
  8
0
 10
121.7730026245117
 20
5.040999889373779
 30
35.22700119018555
 70
   192
  0
VERTEX
  5
8FC
  8
0
 10
121.4769973754883
 20
5.065999984741211
 30
35.29399871826172
 70
   192
  0
VERTEX
  5
8FD
  8
0
 10
123.1399993896484
 20
19.19799995422363
 30
26.8439998626709
 70
   192
  0
VERTEX
  5
8FE
  8
0
 10
122.9729995727539
 20
17.96699905395508
 30
27.9640007019043
 70
   192
  0
VERTEX
  5
8FF
  8
0
 10
124.7580032348633
 20
25.36499977111816
 30
15.15299987792969
 70
   192
  0
VERTEX
  5
900
  8
0
 10
124.4499969482422
 20
25.35499954223633
 30
15.10400009155273
 70
   192
  0
VERTEX
  5
901
  8
0
 10
124.0400009155273
 20
24.77899932861328
 30
17.88999938964844
 70
   192
  0
VERTEX
  5
902
  8
0
 10
124.0429992675781
 20
23.88400077819824
 30
19.95899963378906
 70
   192
  0
VERTEX
  5
903
  8
0
 10
123.7460021972656
 20
23.89699935913086
 30
19.8799991607666
 70
   192
  0
VERTEX
  5
904
  8
0
 10
123.7419967651367
 20
23.88400077819824
 30
19.9109992980957
 70
   192
  0
VERTEX
  5
905
  8
0
 10
123.306999206543
 20
22.57500076293945
 30
22.86300086975098
 70
   192
  0
VERTEX
  5
906
  8
0
 10
123.0940017700195
 20
21.52300071716309
 30
24.30599975585938
 70
   192
  0
VERTEX
  5
907
  8
0
 10
125.5019989013672
 20
25.86800003051758
 30
10.15100002288818
 70
   192
  0
VERTEX
  5
908
  8
0
 10
124.8259963989258
 20
25.88199996948242
 30
12.55300045013428
 70
   192
  0
VERTEX
  5
909
  8
0
 10
125.1869964599609
 20
26.0
 30
10.10400009155273
 70
   192
  0
VERTEX
  5
90A
  8
0
 10
124.4530029296875
 20
25.35899925231934
 30
15.08600044250488
 70
   192
  0
VERTEX
  5
90B
  8
0
 10
122.3379974365234
 20
14.3430004119873
 30
31.42399978637695
 70
   192
  0
VERTEX
  5
90C
  8
0
 10
122.0469970703125
 20
14.3769998550415
 30
31.42200088500977
 70
   192
  0
VERTEX
  5
90D
  8
0
 10
121.7279968261719
 20
10.60799980163574
 30
33.58399963378906
 70
   192
  0
VERTEX
  5
90E
  8
0
 10
121.9889984130859
 20
9.892999649047852
 30
33.77199935913086
 70
   192
  0
VERTEX
  5
90F
  8
0
 10
121.6959991455078
 20
9.927000045776367
 30
33.80400085449219
 70
   192
  0
VERTEX
  5
910
  8
0
 10
121.4820022583008
 20
5.427000045776367
 30
35.25600051879883
 70
   192
  0
VERTEX
  5
911
  8
0
 10
121.6959991455078
 20
9.928999900817871
 30
33.80300140380859
 70
   192
  0
VERTEX
  5
912
  8
0
 10
122.5169982910156
 20
18.29199981689453
 30
28.22400093078613
 70
   192
  0
VERTEX
  5
913
  8
0
 10
122.1269989013672
 20
15.32900047302246
 30
30.87700080871582
 70
   192
  0
VERTEX
  5
914
  8
0
 10
122.0490036010742
 20
14.4060001373291
 30
31.4060001373291
 70
   192
  0
VERTEX
  5
915
  8
0
 10
122.1920013427734
 20
10.53299999237061
 30
33.19100189208984
 70
   192
  0
VERTEX
  5
916
  8
0
 10
122.1539993286133
 20
9.755000114440918
 30
33.44499969482422
 70
   192
  0
VERTEX
  5
917
  8
0
 10
121.9400024414062
 20
5.380000114440918
 30
34.87300109863281
 70
   192
  0
VERTEX
  5
918
  8
0
 10
121.9339981079102
 20
4.979000091552734
 30
34.91500091552734
 70
   192
  0
VERTEX
  5
919
  8
0
 10
122.5970001220703
 20
15.20400047302246
 30
30.47699928283691
 70
   192
  0
VERTEX
  5
91A
  8
0
 10
122.5039978027344
 20
14.1230001449585
 30
31.10499954223633
 70
   192
  0
VERTEX
  5
91B
  8
0
 10
124.193000793457
 20
23.4640007019043
 30
19.80400085449219
 70
   192
  0
VERTEX
  5
91C
  8
0
 10
124.5370025634766
 20
24.45199966430664
 30
17.49699974060059
 70
   192
  0
VERTEX
  5
91D
  8
0
 10
123.7979965209961
 20
22.33499908447266
 30
22.44099998474121
 70
   192
  0
VERTEX
  5
91E
  8
0
 10
123.5439987182617
 20
21.12199974060059
 30
24.14299964904785
 70
   192
  0
VERTEX
  5
91F
  8
0
 10
124.8980026245117
 20
24.91500091552734
 30
15.08500003814697
 70
   192
  0
VERTEX
  5
920
  8
0
 10
125.3259963989258
 20
25.46599960327148
 30
12.2189998626709
 70
   192
  0
VERTEX
  5
921
  8
0
 10
121.8059997558594
 20
0.0
 30
35.5880012512207
 70
   192
  0
VERTEX
  5
922
  8
0
 10
121.8560028076172
 20
0.0
 30
35.43899917602539
 70
   192
  0
VERTEX
  5
923
  8
0
 10
125.6320037841797
 20
25.54999923706055
 30
10.17099952697754
 70
   192
  0
VERTEX
  5
924
  8
0
 62
     9
 10
0.0
 20
0.0
 30
0.0
 70
   128
 71
     3
 72
     2
 73
     1
  0
VERTEX
  5
925
  8
0
 62
     9
 10
0.0
 20
0.0
 30
0.0
 70
   128
 71
     1
 72
     4
 73
     3
  0
VERTEX
  5
926
  8
0
 62
     9
 10
0.0
 20
0.0
 30
0.0
 70
   128
 71
     4
 72
     5
 73
     3
  0
VERTEX
  5
927
  8
0
 62
     9
 10
0.0
 20
0.0
 30
0.0
 70
   128
 71
     8
 72
     7
 73
     6
  0
VERTEX
  5
928
  8
0
 62
     9
 10
0.0
 20
0.0
 30
0.0
 70
   128
 71
     6
 72
    10
 73
     9
  0
VERTEX
  5
929
  8
0
 62
     9
 10
0.0
 20
0.0
 30
0.0
 70
   128
 71
    11
 72
     4
 73
     1
  0
VERTEX
  5
92A
  8
0
 62
     9
 10
0.0
 20
0.0
 30
0.0
 70
   128
 71
    11
 72
    12
 73
     4
  0
VERTEX
  5
92B
  8
0
 62
     9
 10
0.0
 20
0.0
 30
0.0
 70
   128
 71
    15
 72
    14
 73
    13
  0
VERTEX
  5
92C
  8
0
 62
     9
 10
0.0
 20
0.0
 30
0.0
 70
   128
 71
    13
 72
    16
 73
    15
  0
VERTEX
  5
92D
  8
0
 62
     9
 10
0.0
 20
0.0
 30
0.0
 70
   128
 71
    16
 72
    17
 73
    15
  0
VERTEX
  5
92E
  8
0
 62
     9
 10
0.0
 20
0.0
 30
0.0
 70
   128
 71
    19
 72
    18
 73
    16
  0
VERTEX
  5
92F
  8
0
 62
     9
 10
0.0
 20
0.0
 30
0.0
 70
   128
 71
    16
 72
     1
 73
    19
  0
VERTEX
  5
930
  8
0
 62
     9
 10
0.0
 20
0.0
 30
0.0
 70
   128
 71
     1
 72
    20
 73
    19
  0
VERTEX
  5
931
  8
0
 62
     9
 10
0.0
 20
0.0
 30
0.0
 70
   128
 71
    22
 72
    21
 73
    13
  0
VERTEX
  5
932
  8
0
 62
     9
 10
0.0
 20
0.0
 30
0.0
 70
   128
 71
    22
 72
    23
 73
    21
  0
VERTEX
  5
933
  8
0
 62
     9
 10
0.0
 20
0.0
 30
0.0
 70
   128
 71
    13
 72
    24
 73
    22
  0
VERTEX
  5
934
  8
0
 62
     9
 10
0.0
 20
0.0
 30
0.0
 70
   128
 71
    27
 72
    26
 73
    25
  0
VERTEX
  5
935
  8
0
 62
     9
 10
0.0
 20
0.0
 30
0.0
 70
   128
 71
    25
 72
    28
 73
    27
  0
VERTEX
  5
936
  8
0
 62
     9
 10
0.0
 20
0.0
 30
0.0
 70
   128
 71
    30
 72
    29
 73
    28
  0
VERTEX
  5
937
  8
0
 62
     9
 10
0.0
 20
0.0
 30
0.0
 70
   128
 71
    28
 72
     9
 73
    30
  0
VERTEX
  5
938
  8
0
 62
     9
 10
0.0
 20
0.0
 30
0.0
 70
   128
 71
    29
 72
    31
 73
    28
  0
VERTEX
  5
939
  8
0
 62
     9
 10
0.0
 20
0.0
 30
0.0
 70
   128
 71
    33
 72
    32
 73
     4
  0
VERTEX
  5
93A
  8
0
 62
     9
 10
0.0
 20
0.0
 30
0.0
 70
   128
 71
     4
 72
    25
 73
    33
  0
VERTEX
  5
93B
  8
0
 62
     9
 10
0.0
 20
0.0
 30
0.0
 70
   128
 71
    25
 72
    34
 73
    33
  0
VERTEX
  5
93C
  8
0
 62
     9
 10
0.0
 20
0.0
 30
0.0
 70
   128
 71
    35
 72
    28
 73
    25
  0
VERTEX
  5
93D
  8
0
 62
     9
 10
0.0
 20
0.0
 30
0.0
 70
   128
 71
    35
 72
    36
 73
    28
  0
VERTEX
  5
93E
  8
0
 62
     9
 10
0.0
 20
0.0
 30
0.0
 70
   128
 71
    37
 72
     9
 73
    28
  0
VERTEX
  5
93F
  8
0
 62
     9
 10
0.0
 20
0.0
 30
0.0
 70
   128
 71
    37
 72
    38
 73
     9
  0
VERTEX
  5
940
  8
0
 62
     9
 10
0.0
 20
0.0
 30
0.0
 70
   128
 71
    39
 72
    25
 73
     4
  0
VERTEX
  5
941
  8
0
 62
     9
 10
0.0
 20
0.0
 30
0.0
 70
   128
 71
    39
 72
    40
 73
    25
  0
VERTEX
  5
942
  8
0
 62
     9
 10
0.0
 20
0.0
 30
0.0
 70
   128
 71
    42
 72
    41
 73
    16
  0
VERTEX
  5
943
  8
0
 62
     9
 10
0.0
 20
0.0
 30
0.0
 70
   128
 71
    16
 72
    13
 73
    42
  0
VERTEX
  5
944
  8
0
 62
     9
 10
0.0
 20
0.0
 30
0.0
 70
   128
 71
    43
 72
     1
 73
    16
  0
VERTEX
  5
945
  8
0
 62
     9
 10
0.0
 20
0.0
 30
0.0
 70
   128
 71
    43
 72
    44
 73
     1
  0
VERTEX
  5
946
  8
0
 62
     9
 10
0.0
 20
0.0
 30
0.0
 70
   128
 71
    46
 72
    45
 73
    13
  0
VERTEX
  5
947
  8
0
 62
     9
 10
0.0
 20
0.0
 30
0.0
 70
   128
 71
    13
 72
    21
 73
    46
  0
VERTEX
  5
948
  8
0
 62
     9
 10
0.0
 20
0.0
 30
0.0
 70
   128
 71
    48
 72
    47
 73
     9
  0
VERTEX
  5
949
  8
0
 62
     9
 10
0.0
 20
0.0
 30
0.0
 70
   128
 71
    47
 72
     8
 73
     9
  0
VERTEX
  5
94A
  8
0
 62
     9
 10
0.0
 20
0.0
 30
0.0
 70
   128
 71
     9
 72
    38
 73
    48
  0
VERTEX
  5
94B
  8
0
 62
     9
 10
0.0
 20
0.0
 30
0.0
 70
   128
 71
    21
 72
    49
 73
    46
  0
VERTEX
  5
94C
  8
0
 62
     9
 10
0.0
 20
0.0
 30
0.0
 70
   128
 71
    16
 72
    41
 73
    43
  0
VERTEX
  5
94D
  8
0
 62
     9
 10
0.0
 20
0.0
 30
0.0
 70
   128
 71
    13
 72
    45
 73
    42
  0
VERTEX
  5
94E
  8
0
 62
     9
 10
0.0
 20
0.0
 30
0.0
 70
   128
 71
     4
 72
    12
 73
    39
  0
VERTEX
  5
94F
  8
0
 62
     9
 10
0.0
 20
0.0
 30
0.0
 70
   128
 71
    28
 72
    36
 73
    37
  0
VERTEX
  5
950
  8
0
 62
     9
 10
0.0
 20
0.0
 30
0.0
 70
   128
 71
    25
 72
    40
 73
    35
  0
VERTEX
  5
951
  8
0
 62
     9
 10
0.0
 20
0.0
 30
0.0
 70
   128
 71
    25
 72
    26
 73
    34
  0
VERTEX
  5
952
  8
0
 62
     9
 10
0.0
 20
0.0
 30
0.0
 70
   128
 71
     9
 72
    10
 73
    30
  0
VERTEX
  5
953
  8
0
 62
     9
 10
0.0
 20
0.0
 30
0.0
 70
   128
 71
    28
 72
    31
 73
    27
  0
VERTEX
  5
954
  8
0
 62
     9
 10
0.0
 20
0.0
 30
0.0
 70
   128
 71
    13
 72
    14
 73
    24
  0
VERTEX
  5
955
  8
0
 62
     9
 10
0.0
 20
0.0
 30
0.0
 70
   128
 71
     1
 72
     2
 73
    20
  0
VERTEX
  5
956
  8
0
 62
     9
 10
0.0
 20
0.0
 30
0.0
 70
   128
 71
    16
 72
    18
 73
    17
  0
VERTEX
  5
957
  8
0
 62
     9
 10
0.0
 20
0.0
 30
0.0
 70
   128
 71
     1
 72
    44
 73
    11
  0
VERTEX
  5
958
  8
0
 62
     9
 10
0.0
 20
0.0
 30
0.0
 70
   128
 71
     6
 72
     9
 73
     8
  0
VERTEX
  5
959
  8
0
 62
     9
 10
0.0
 20
0.0
 30
0.0
 70
   128
 71
     4
 72
    32
 73
     5
  0
SEQEND
  5
95A
  8
0
 62
     9
  0
ENDBLK
  5
95D
  8
0
  0
BLOCK
  8
0
  2
E3_NODE_31_
 70
     0
 10
0.0
 20
0.0
 30
0.0
  3
E3_NODE_31_
  1

  0
POLYLINE
  5
95F
  8
0
 62
     9
 66
     1
 10
0.0
 20
0.0
 30
0.0
 70
    64
 71
    50
 72
    53
  0
VERTEX
  5
960
  8
0
 10
107.0709991455078
 20
-14.4379997253418
 30
31.07999992370605
 70
   192
  0
VERTEX
  5
961
  8
0
 10
106.8639984130859
 20
-9.960000038146973
 30
33.46200180053711
 70
   192
  0
VERTEX
  5
962
  8
0
 10
106.0070037841797
 20
-12.89000034332275
 30
32.00699996948242
 70
   192
  0
VERTEX
  5
963
  8
0
 10
107.3509979248047
 20
-18.38199996948242
 30
27.85700035095215
 70
   192
  0
VERTEX
  5
964
  8
0
 10
104.3580017089844
 20
-16.82299995422363
 30
29.20899963378906
 70
   192
  0
VERTEX
  5
965
  8
0
 10
104.0279998779297
 20
-17.45299911499023
 30
28.64800071716309
 70
   192
  0
VERTEX
  5
966
  8
0
 10
105.3830032348633
 20
-14.37800025939941
 30
30.94799995422363
 70
   192
  0
VERTEX
  5
967
  8
0
 10
107.6920013427734
 20
-21.61300086975098
 30
23.93899917602539
 70
   192
  0
VERTEX
  5
968
  8
0
 10
103.4619979858398
 20
-18.31599998474121
 30
27.6870002746582
 70
   192
  0
VERTEX
  5
969
  8
0
 10
101.8440017700195
 20
-20.78400039672852
 30
24.94000053405762
 70
   192
  0
VERTEX
  5
96A
  8
0
 10
108.0810012817383
 20
-24.01399993896484
 30
19.47100067138672
 70
   192
  0
VERTEX
  5
96B
  8
0
 10
101.1129989624023
 20
-21.53300094604492
 30
23.70000076293945
 70
   192
  0
VERTEX
  5
96C
  8
0
 10
99.33999633789062
 20
-23.34799957275391
 30
20.69000053405762
 70
   192
  0
VERTEX
  5
96D
  8
0
 10
98.78800201416016
 20
-23.77799987792969
 30
19.75200080871582
 70
   192
  0
VERTEX
  5
96E
  8
0
 10
108.5029983520508
 20
-25.4950008392334
 30
14.6230001449585
 70
   192
  0
VERTEX
  5
96F
  8
0
 10
98.44300079345703
 20
-23.9680004119873
 30
19.16600036621094
 70
   192
  0
VERTEX
  5
970
  8
0
 10
95.88899993896484
 20
-25.37199974060059
 30
14.83100032806396
 70
   192
  0
VERTEX
  5
971
  8
0
 10
108.9420013427734
 20
-26.0
 30
9.583999633789062
 70
   192
  0
VERTEX
  5
972
  8
0
 10
95.5270004272461
 20
-25.44599914550781
 30
14.21599960327148
 70
   192
  0
VERTEX
  5
973
  8
0
 10
92.85199737548828
 20
-25.99300003051758
 30
9.673999786376953
 70
   192
  0
VERTEX
  5
974
  8
0
 10
109.2440032958984
 20
-26.0
 30
9.593999862670898
 70
   192
  0
VERTEX
  5
975
  8
0
 10
125.1869964599609
 20
-26.0
 30
10.10400009155273
 70
   192
  0
VERTEX
  5
976
  8
0
 10
124.4489974975586
 20
-25.46500015258789
 30
15.11100006103516
 70
   192
  0
VERTEX
  5
977
  8
0
 10
124.3960037231445
 20
-25.42600059509277
 30
15.47399997711182
 70
   192
  0
VERTEX
  5
978
  8
0
 10
123.7409973144531
 20
-23.96299934387207
 30
19.91600036621094
 70
   192
  0
VERTEX
  5
979
  8
0
 10
124.4440002441406
 20
-25.46199989318848
 30
15.14500045776367
 70
   192
  0
VERTEX
  5
97A
  8
0
 10
123.6419982910156
 20
-23.73999977111816
 30
20.59000015258789
 70
   192
  0
VERTEX
  5
97B
  8
0
 10
123.0899963378906
 20
-21.54800033569336
 30
24.33399963378906
 70
   192
  0
VERTEX
  5
97C
  8
0
 10
123.7389984130859
 20
-23.95800018310547
 30
19.92900085449219
 70
   192
  0
VERTEX
  5
97D
  8
0
 10
122.9550018310547
 20
-21.00900077819824
 30
25.2549991607666
 70
   192
  0
VERTEX
  5
97E
  8
0
 10
122.5210037231445
 20
-18.3129997253418
 30
28.20199966430664
 70
   192
  0
VERTEX
  5
97F
  8
0
 10
123.0859985351562
 20
-21.5319995880127
 30
24.36100006103516
 70
   192
  0
VERTEX
  5
980
  8
0
 10
122.3639984130859
 20
-17.33799934387207
 30
29.26799964904785
 70
   192
  0
VERTEX
  5
981
  8
0
 10
122.0530014038086
 20
-14.37600040435791
 30
31.3799991607666
 70
   192
  0
VERTEX
  5
982
  8
0
 10
122.5149993896484
 20
-18.2810001373291
 30
28.23699951171875
 70
   192
  0
VERTEX
  5
983
  8
0
 10
121.8960037231445
 20
-12.88500022888184
 30
32.44200134277344
 70
   192
  0
VERTEX
  5
984
  8
0
 10
121.7060012817383
 20
-9.890999794006348
 30
33.73899841308594
 70
   192
  0
VERTEX
  5
985
  8
0
 10
106.870002746582
 20
-9.937000274658203
 30
33.4739990234375
 70
   192
  0
VERTEX
  5
986
  8
0
 10
122.052001953125
 20
-14.36600017547607
 30
31.38699913024902
 70
   192
  0
VERTEX
  5
987
  8
0
 10
121.7050018310547
 20
-9.881999969482422
 30
33.74300003051758
 70
   192
  0
VERTEX
  5
988
  8
0
 10
107.7129974365234
 20
-5.381999969482422
 30
34.90399932861328
 70
   192
  0
VERTEX
  5
989
  8
0
 10
121.5759963989258
 20
-7.85699987411499
 30
34.61999893188477
 70
   192
  0
VERTEX
  5
98A
  8
0
 10
121.4919967651367
 20
-5.038000106811523
 30
35.1879997253418
 70
   192
  0
VERTEX
  5
98B
  8
0
 10
107.7389984130859
 20
-5.059999942779541
 30
34.94900131225586
 70
   192
  0
VERTEX
  5
98C
  8
0
 10
121.4919967651367
 20
-5.025000095367432
 30
35.19100189208984
 70
   192
  0
VERTEX
  5
98D
  8
0
 10
108.0139999389648
 20
-1.723999977111816
 30
35.41500091552734
 70
   192
  0
VERTEX
  5
98E
  8
0
 10
121.4160003662109
 20
-2.466000080108643
 30
35.70600128173828
 70
   192
  0
VERTEX
  5
98F
  8
0
 10
121.3990020751953
 20
0.0
 30
35.82300186157227
 70
   192
  0
VERTEX
  5
990
  8
0
 10
108.0479965209961
 20
0.0
 30
35.47299957275391
 70
   192
  0
VERTEX
  5
991
  8
0
 10
92.48799896240234
 20
-26.0
 30
9.057000160217285
 70
   192
  0
VERTEX
  5
992
  8
0
 62
     9
 10
0.0
 20
0.0
 30
0.0
 70
   128
 71
     3
 72
     2
 73
     1
  0
VERTEX
  5
993
  8
0
 62
     9
 10
0.0
 20
0.0
 30
0.0
 70
   128
 71
     6
 72
     5
 73
     4
  0
VERTEX
  5
994
  8
0
 62
     9
 10
0.0
 20
0.0
 30
0.0
 70
   128
 71
     7
 72
     1
 73
     4
  0
VERTEX
  5
995
  8
0
 62
     9
 10
0.0
 20
0.0
 30
0.0
 70
   128
 71
     4
 72
     5
 73
     7
  0
VERTEX
  5
996
  8
0
 62
     9
 10
0.0
 20
0.0
 30
0.0
 70
   128
 71
     9
 72
     4
 73
     8
  0
VERTEX
  5
997
  8
0
 62
     9
 10
0.0
 20
0.0
 30
0.0
 70
   128
 71
     8
 72
    10
 73
     9
  0
VERTEX
  5
998
  8
0
 62
     9
 10
0.0
 20
0.0
 30
0.0
 70
   128
 71
    12
 72
     8
 73
    11
  0
VERTEX
  5
999
  8
0
 62
     9
 10
0.0
 20
0.0
 30
0.0
 70
   128
 71
    11
 72
    13
 73
    12
  0
VERTEX
  5
99A
  8
0
 62
     9
 10
0.0
 20
0.0
 30
0.0
 70
   128
 71
    11
 72
    14
 73
    13
  0
VERTEX
  5
99B
  8
0
 62
     9
 10
0.0
 20
0.0
 30
0.0
 70
   128
 71
    16
 72
    11
 73
    15
  0
VERTEX
  5
99C
  8
0
 62
     9
 10
0.0
 20
0.0
 30
0.0
 70
   128
 71
    15
 72
    17
 73
    16
  0
VERTEX
  5
99D
  8
0
 62
     9
 10
0.0
 20
0.0
 30
0.0
 70
   128
 71
    19
 72
    15
 73
    18
  0
VERTEX
  5
99E
  8
0
 62
     9
 10
0.0
 20
0.0
 30
0.0
 70
   128
 71
    18
 72
    20
 73
    19
  0
VERTEX
  5
99F
  8
0
 62
     9
 10
0.0
 20
0.0
 30
0.0
 70
   128
 71
    23
 72
    22
 73
    21
  0
VERTEX
  5
9A0
  8
0
 62
     9
 10
0.0
 20
0.0
 30
0.0
 70
   128
 71
    21
 72
    18
 73
    15
  0
VERTEX
  5
9A1
  8
0
 62
     9
 10
0.0
 20
0.0
 30
0.0
 70
   128
 71
    25
 72
    24
 73
    15
  0
VERTEX
  5
9A2
  8
0
 62
     9
 10
0.0
 20
0.0
 30
0.0
 70
   128
 71
    26
 72
    23
 73
    15
  0
VERTEX
  5
9A3
  8
0
 62
     9
 10
0.0
 20
0.0
 30
0.0
 70
   128
 71
    15
 72
    24
 73
    26
  0
VERTEX
  5
9A4
  8
0
 62
     9
 10
0.0
 20
0.0
 30
0.0
 70
   128
 71
    28
 72
    27
 73
    11
  0
VERTEX
  5
9A5
  8
0
 62
     9
 10
0.0
 20
0.0
 30
0.0
 70
   128
 71
    29
 72
    25
 73
    11
  0
VERTEX
  5
9A6
  8
0
 62
     9
 10
0.0
 20
0.0
 30
0.0
 70
   128
 71
    11
 72
    27
 73
    29
  0
VERTEX
  5
9A7
  8
0
 62
     9
 10
0.0
 20
0.0
 30
0.0
 70
   128
 71
    31
 72
    30
 73
     8
  0
VERTEX
  5
9A8
  8
0
 62
     9
 10
0.0
 20
0.0
 30
0.0
 70
   128
 71
    32
 72
    28
 73
     8
  0
VERTEX
  5
9A9
  8
0
 62
     9
 10
0.0
 20
0.0
 30
0.0
 70
   128
 71
     8
 72
    30
 73
    32
  0
VERTEX
  5
9AA
  8
0
 62
     9
 10
0.0
 20
0.0
 30
0.0
 70
   128
 71
    34
 72
    33
 73
     4
  0
VERTEX
  5
9AB
  8
0
 62
     9
 10
0.0
 20
0.0
 30
0.0
 70
   128
 71
    35
 72
    31
 73
     4
  0
VERTEX
  5
9AC
  8
0
 62
     9
 10
0.0
 20
0.0
 30
0.0
 70
   128
 71
     4
 72
    33
 73
    35
  0
VERTEX
  5
9AD
  8
0
 62
     9
 10
0.0
 20
0.0
 30
0.0
 70
   128
 71
    38
 72
    37
 73
    36
  0
VERTEX
  5
9AE
  8
0
 62
     9
 10
0.0
 20
0.0
 30
0.0
 70
   128
 71
    36
 72
     2
 73
    38
  0
VERTEX
  5
9AF
  8
0
 62
     9
 10
0.0
 20
0.0
 30
0.0
 70
   128
 71
    39
 72
    34
 73
     1
  0
VERTEX
  5
9B0
  8
0
 62
     9
 10
0.0
 20
0.0
 30
0.0
 70
   128
 71
     1
 72
    36
 73
    39
  0
VERTEX
  5
9B1
  8
0
 62
     9
 10
0.0
 20
0.0
 30
0.0
 70
   128
 71
    40
 72
    37
 73
    38
  0
VERTEX
  5
9B2
  8
0
 62
     9
 10
0.0
 20
0.0
 30
0.0
 70
   128
 71
    38
 72
    41
 73
    40
  0
VERTEX
  5
9B3
  8
0
 62
     9
 10
0.0
 20
0.0
 30
0.0
 70
   128
 71
    41
 72
    42
 73
    40
  0
VERTEX
  5
9B4
  8
0
 62
     9
 10
0.0
 20
0.0
 30
0.0
 70
   128
 71
    41
 72
    44
 73
    43
  0
VERTEX
  5
9B5
  8
0
 62
     9
 10
0.0
 20
0.0
 30
0.0
 70
   128
 71
    43
 72
    42
 73
    41
  0
VERTEX
  5
9B6
  8
0
 62
     9
 10
0.0
 20
0.0
 30
0.0
 70
   128
 71
    45
 72
    43
 73
    44
  0
VERTEX
  5
9B7
  8
0
 62
     9
 10
0.0
 20
0.0
 30
0.0
 70
   128
 71
    44
 72
    46
 73
    45
  0
VERTEX
  5
9B8
  8
0
 62
     9
 10
0.0
 20
0.0
 30
0.0
 70
   128
 71
    46
 72
    47
 73
    45
  0
VERTEX
  5
9B9
  8
0
 62
     9
 10
0.0
 20
0.0
 30
0.0
 70
   128
 71
    46
 72
    49
 73
    48
  0
VERTEX
  5
9BA
  8
0
 62
     9
 10
0.0
 20
0.0
 30
0.0
 70
   128
 71
    48
 72
    47
 73
    46
  0
VERTEX
  5
9BB
  8
0
 62
     9
 10
0.0
 20
0.0
 30
0.0
 70
   128
 71
    36
 72
     1
 73
     2
  0
VERTEX
  5
9BC
  8
0
 62
     9
 10
0.0
 20
0.0
 30
0.0
 70
   128
 71
     4
 72
     1
 73
    34
  0
VERTEX
  5
9BD
  8
0
 62
     9
 10
0.0
 20
0.0
 30
0.0
 70
   128
 71
     8
 72
     4
 73
    31
  0
VERTEX
  5
9BE
  8
0
 62
     9
 10
0.0
 20
0.0
 30
0.0
 70
   128
 71
    11
 72
     8
 73
    28
  0
VERTEX
  5
9BF
  8
0
 62
     9
 10
0.0
 20
0.0
 30
0.0
 70
   128
 71
    15
 72
    11
 73
    25
  0
VERTEX
  5
9C0
  8
0
 62
     9
 10
0.0
 20
0.0
 30
0.0
 70
   128
 71
    21
 72
    15
 73
    23
  0
VERTEX
  5
9C1
  8
0
 62
     9
 10
0.0
 20
0.0
 30
0.0
 70
   128
 71
    18
 72
    50
 73
    20
  0
VERTEX
  5
9C2
  8
0
 62
     9
 10
0.0
 20
0.0
 30
0.0
 70
   128
 71
    15
 72
    19
 73
    17
  0
VERTEX
  5
9C3
  8
0
 62
     9
 10
0.0
 20
0.0
 30
0.0
 70
   128
 71
    11
 72
    16
 73
    14
  0
VERTEX
  5
9C4
  8
0
 62
     9
 10
0.0
 20
0.0
 30
0.0
 70
   128
 71
     8
 72
    12
 73
    10
  0
VERTEX
  5
9C5
  8
0
 62
     9
 10
0.0
 20
0.0
 30
0.0
 70
   128
 71
     4
 72
     9
 73
     6
  0
VERTEX
  5
9C6
  8
0
 62
     9
 10
0.0
 20
0.0
 30
0.0
 70
   128
 71
     1
 72
     7
 73
     3
  0
SEQEND
  5
9C7
  8
0
 62
     9
  0
ENDBLK
  5
9CA
  8
0
  0
BLOCK
  8
0
  2
E3_NODE_32_
 70
     0
 10
0.0
 20
0.0
 30
0.0
  3
E3_NODE_32_
  1

  0
POLYLINE
  5
9CC
  8
0
 62
     9
 66
     1
 10
0.0
 20
0.0
 30
0.0
 70
    64
 71
    50
 72
    54
  0
VERTEX
  5
9CD
  8
0
 10
108.9420013427734
 20
26.0
 30
9.583999633789062
 70
   192
  0
VERTEX
  5
9CE
  8
0
 10
95.17500305175781
 20
25.61000061035156
 30
13.61900043487549
 70
   192
  0
VERTEX
  5
9CF
  8
0
 10
95.52200317382812
 20
25.44799995422363
 30
14.20800018310547
 70
   192
  0
VERTEX
  5
9D0
  8
0
 10
92.48799896240234
 20
26.0
 30
9.057000160217285
 70
   192
  0
VERTEX
  5
9D1
  8
0
 10
92.85199737548828
 20
25.99300003051758
 30
9.673999786376953
 70
   192
  0
VERTEX
  5
9D2
  8
0
 10
108.5029983520508
 20
25.4950008392334
 30
14.6230001449585
 70
   192
  0
VERTEX
  5
9D3
  8
0
 10
98.15899658203125
 20
24.21500015258789
 30
18.68400001525879
 70
   192
  0
VERTEX
  5
9D4
  8
0
 10
98.44499969482422
 20
23.99300003051758
 30
19.17099952697754
 70
   192
  0
VERTEX
  5
9D5
  8
0
 10
108.0810012817383
 20
24.01399993896484
 30
19.47100067138672
 70
   192
  0
VERTEX
  5
9D6
  8
0
 10
99.9000015258789
 20
22.86599922180176
 30
21.64100074768066
 70
   192
  0
VERTEX
  5
9D7
  8
0
 10
101.1019973754883
 20
21.51099967956543
 30
23.68099975585938
 70
   192
  0
VERTEX
  5
9D8
  8
0
 10
107.6920013427734
 20
21.61300086975098
 30
23.93899917602539
 70
   192
  0
VERTEX
  5
9D9
  8
0
 10
102.4199981689453
 20
20.02499961853027
 30
25.91799926757812
 70
   192
  0
VERTEX
  5
9DA
  8
0
 10
103.495002746582
 20
18.37700080871582
 30
27.74300003051758
 70
   192
  0
VERTEX
  5
9DB
  8
0
 10
107.3509979248047
 20
18.38199996948242
 30
27.85700035095215
 70
   192
  0
VERTEX
  5
9DC
  8
0
 10
103.5709991455078
 20
18.26000022888184
 30
27.87299919128418
 70
   192
  0
VERTEX
  5
9DD
  8
0
 10
105.4449996948242
 20
14.41199970245361
 30
31.05299949645996
 70
   192
  0
VERTEX
  5
9DE
  8
0
 10
106.8629989624023
 20
9.937000274658203
 30
33.47299957275391
 70
   192
  0
VERTEX
  5
9DF
  8
0
 10
107.0709991455078
 20
14.4379997253418
 30
31.07999992370605
 70
   192
  0
VERTEX
  5
9E0
  8
0
 10
106.2529983520508
 20
12.13799953460693
 30
32.42599868774414
 70
   192
  0
VERTEX
  5
9E1
  8
0
 10
121.4769973754883
 20
5.063000202178955
 30
35.29399871826172
 70
   192
  0
VERTEX
  5
9E2
  8
0
 10
107.7829971313477
 20
4.788000106811523
 30
35.02299880981445
 70
   192
  0
VERTEX
  5
9E3
  8
0
 10
108.0479965209961
 20
0.0
 30
35.47299957275391
 70
   192
  0
VERTEX
  5
9E4
  8
0
 10
107.7440032958984
 20
5.059000015258789
 30
34.95600128173828
 70
   192
  0
VERTEX
  5
9E5
  8
0
 10
121.6959991455078
 20
9.927000045776367
 30
33.80400085449219
 70
   192
  0
VERTEX
  5
9E6
  8
0
 10
107.3629989624023
 20
7.646999835968018
 30
34.30899810791016
 70
   192
  0
VERTEX
  5
9E7
  8
0
 10
121.4769973754883
 20
5.065999984741211
 30
35.29399871826172
 70
   192
  0
VERTEX
  5
9E8
  8
0
 10
121.4820022583008
 20
5.427000045776367
 30
35.25600051879883
 70
   192
  0
VERTEX
  5
9E9
  8
0
 10
106.8619995117188
 20
9.675000190734863
 30
33.45899963378906
 70
   192
  0
VERTEX
  5
9EA
  8
0
 10
121.7279968261719
 20
10.60799980163574
 30
33.58399963378906
 70
   192
  0
VERTEX
  5
9EB
  8
0
 10
122.0469970703125
 20
14.3769998550415
 30
31.42200088500977
 70
   192
  0
VERTEX
  5
9EC
  8
0
 10
121.6959991455078
 20
9.928999900817871
 30
33.80300140380859
 70
   192
  0
VERTEX
  5
9ED
  8
0
 10
122.1269989013672
 20
15.32900047302246
 30
30.87700080871582
 70
   192
  0
VERTEX
  5
9EE
  8
0
 10
122.5169982910156
 20
18.29199981689453
 30
28.22400093078613
 70
   192
  0
VERTEX
  5
9EF
  8
0
 10
122.0490036010742
 20
14.4060001373291
 30
31.4060001373291
 70
   192
  0
VERTEX
  5
9F0
  8
0
 10
122.6600036621094
 20
19.37400054931641
 30
27.2549991607666
 70
   192
  0
VERTEX
  5
9F1
  8
0
 10
123.0910034179688
 20
21.50399971008301
 30
24.33200073242188
 70
   192
  0
VERTEX
  5
9F2
  8
0
 10
122.5220031738281
 20
18.32299995422363
 30
28.19599914550781
 70
   192
  0
VERTEX
  5
9F3
  8
0
 10
123.306999206543
 20
22.57500076293945
 30
22.86300086975098
 70
   192
  0
VERTEX
  5
9F4
  8
0
 10
123.7419967651367
 20
23.88400077819824
 30
19.9109992980957
 70
   192
  0
VERTEX
  5
9F5
  8
0
 10
123.0940017700195
 20
21.52300071716309
 30
24.30599975585938
 70
   192
  0
VERTEX
  5
9F6
  8
0
 10
124.0400009155273
 20
24.77899932861328
 30
17.88999938964844
 70
   192
  0
VERTEX
  5
9F7
  8
0
 10
124.4499969482422
 20
25.35499954223633
 30
15.10400009155273
 70
   192
  0
VERTEX
  5
9F8
  8
0
 10
123.7460021972656
 20
23.89699935913086
 30
19.8799991607666
 70
   192
  0
VERTEX
  5
9F9
  8
0
 10
124.8259963989258
 20
25.88199996948242
 30
12.55300045013428
 70
   192
  0
VERTEX
  5
9FA
  8
0
 10
125.1869964599609
 20
26.0
 30
10.10400009155273
 70
   192
  0
VERTEX
  5
9FB
  8
0
 10
109.2440032958984
 20
26.0
 30
9.593999862670898
 70
   192
  0
VERTEX
  5
9FC
  8
0
 10
124.4530029296875
 20
25.35899925231934
 30
15.08600044250488
 70
   192
  0
VERTEX
  5
9FD
  8
0
 10
121.3990020751953
 20
0.0
 30
35.82300186157227
 70
   192
  0
VERTEX
  5
9FE
  8
0
 10
106.806999206543
 20
9.894000053405762
 30
33.36700057983398
 70
   192
  0
VERTEX
  5
9FF
  8
0
 62
     9
 10
0.0
 20
0.0
 30
0.0
 70
   128
 71
     3
 72
     2
 73
     1
  0
VERTEX
  5
A00
  8
0
 62
     9
 10
0.0
 20
0.0
 30
0.0
 70
   128
 71
     5
 72
     4
 73
     1
  0
VERTEX
  5
A01
  8
0
 62
     9
 10
0.0
 20
0.0
 30
0.0
 70
   128
 71
     1
 72
     2
 73
     5
  0
VERTEX
  5
A02
  8
0
 62
     9
 10
0.0
 20
0.0
 30
0.0
 70
   128
 71
     8
 72
     7
 73
     6
  0
VERTEX
  5
A03
  8
0
 62
     9
 10
0.0
 20
0.0
 30
0.0
 70
   128
 71
     7
 72
     3
 73
     6
  0
VERTEX
  5
A04
  8
0
 62
     9
 10
0.0
 20
0.0
 30
0.0
 70
   128
 71
    11
 72
    10
 73
     9
  0
VERTEX
  5
A05
  8
0
 62
     9
 10
0.0
 20
0.0
 30
0.0
 70
   128
 71
    10
 72
     8
 73
     9
  0
VERTEX
  5
A06
  8
0
 62
     9
 10
0.0
 20
0.0
 30
0.0
 70
   128
 71
    14
 72
    13
 73
    12
  0
VERTEX
  5
A07
  8
0
 62
     9
 10
0.0
 20
0.0
 30
0.0
 70
   128
 71
    13
 72
    11
 73
    12
  0
VERTEX
  5
A08
  8
0
 62
     9
 10
0.0
 20
0.0
 30
0.0
 70
   128
 71
    17
 72
    16
 73
    15
  0
VERTEX
  5
A09
  8
0
 62
     9
 10
0.0
 20
0.0
 30
0.0
 70
   128
 71
    16
 72
    14
 73
    15
  0
VERTEX
  5
A0A
  8
0
 62
     9
 10
0.0
 20
0.0
 30
0.0
 70
   128
 71
    20
 72
    19
 73
    18
  0
VERTEX
  5
A0B
  8
0
 62
     9
 10
0.0
 20
0.0
 30
0.0
 70
   128
 71
    20
 72
    17
 73
    19
  0
VERTEX
  5
A0C
  8
0
 62
     9
 10
0.0
 20
0.0
 30
0.0
 70
   128
 71
    23
 72
    22
 73
    21
  0
VERTEX
  5
A0D
  8
0
 62
     9
 10
0.0
 20
0.0
 30
0.0
 70
   128
 71
    22
 72
    24
 73
    21
  0
VERTEX
  5
A0E
  8
0
 62
     9
 10
0.0
 20
0.0
 30
0.0
 70
   128
 71
    24
 72
    26
 73
    25
  0
VERTEX
  5
A0F
  8
0
 62
     9
 10
0.0
 20
0.0
 30
0.0
 70
   128
 71
    27
 72
    21
 73
    24
  0
VERTEX
  5
A10
  8
0
 62
     9
 10
0.0
 20
0.0
 30
0.0
 70
   128
 71
    24
 72
    28
 73
    27
  0
VERTEX
  5
A11
  8
0
 62
     9
 10
0.0
 20
0.0
 30
0.0
 70
   128
 71
    29
 72
    18
 73
    25
  0
VERTEX
  5
A12
  8
0
 62
     9
 10
0.0
 20
0.0
 30
0.0
 70
   128
 71
    25
 72
    26
 73
    29
  0
VERTEX
  5
A13
  8
0
 62
     9
 10
0.0
 20
0.0
 30
0.0
 70
   128
 71
    30
 72
    18
 73
    19
  0
VERTEX
  5
A14
  8
0
 62
     9
 10
0.0
 20
0.0
 30
0.0
 70
   128
 71
    19
 72
    31
 73
    30
  0
VERTEX
  5
A15
  8
0
 62
     9
 10
0.0
 20
0.0
 30
0.0
 70
   128
 71
    32
 72
    25
 73
    18
  0
VERTEX
  5
A16
  8
0
 62
     9
 10
0.0
 20
0.0
 30
0.0
 70
   128
 71
    18
 72
    30
 73
    32
  0
VERTEX
  5
A17
  8
0
 62
     9
 10
0.0
 20
0.0
 30
0.0
 70
   128
 71
    33
 72
    19
 73
    15
  0
VERTEX
  5
A18
  8
0
 62
     9
 10
0.0
 20
0.0
 30
0.0
 70
   128
 71
    15
 72
    34
 73
    33
  0
VERTEX
  5
A19
  8
0
 62
     9
 10
0.0
 20
0.0
 30
0.0
 70
   128
 71
    33
 72
    35
 73
    19
  0
VERTEX
  5
A1A
  8
0
 62
     9
 10
0.0
 20
0.0
 30
0.0
 70
   128
 71
    37
 72
    36
 73
    12
  0
VERTEX
  5
A1B
  8
0
 62
     9
 10
0.0
 20
0.0
 30
0.0
 70
   128
 71
    36
 72
    38
 73
    15
  0
VERTEX
  5
A1C
  8
0
 62
     9
 10
0.0
 20
0.0
 30
0.0
 70
   128
 71
    15
 72
    12
 73
    36
  0
VERTEX
  5
A1D
  8
0
 62
     9
 10
0.0
 20
0.0
 30
0.0
 70
   128
 71
    40
 72
    39
 73
     9
  0
VERTEX
  5
A1E
  8
0
 62
     9
 10
0.0
 20
0.0
 30
0.0
 70
   128
 71
    39
 72
    41
 73
    12
  0
VERTEX
  5
A1F
  8
0
 62
     9
 10
0.0
 20
0.0
 30
0.0
 70
   128
 71
    12
 72
     9
 73
    39
  0
VERTEX
  5
A20
  8
0
 62
     9
 10
0.0
 20
0.0
 30
0.0
 70
   128
 71
    43
 72
    42
 73
     6
  0
VERTEX
  5
A21
  8
0
 62
     9
 10
0.0
 20
0.0
 30
0.0
 70
   128
 71
    44
 72
     9
 73
     6
  0
VERTEX
  5
A22
  8
0
 62
     9
 10
0.0
 20
0.0
 30
0.0
 70
   128
 71
     6
 72
    42
 73
    44
  0
VERTEX
  5
A23
  8
0
 62
     9
 10
0.0
 20
0.0
 30
0.0
 70
   128
 71
    47
 72
    46
 73
    45
  0
VERTEX
  5
A24
  8
0
 62
     9
 10
0.0
 20
0.0
 30
0.0
 70
   128
 71
    48
 72
     6
 73
     1
  0
VERTEX
  5
A25
  8
0
 62
     9
 10
0.0
 20
0.0
 30
0.0
 70
   128
 71
     1
 72
    45
 73
    48
  0
VERTEX
  5
A26
  8
0
 62
     9
 10
0.0
 20
0.0
 30
0.0
 70
   128
 71
    45
 72
     1
 73
    47
  0
VERTEX
  5
A27
  8
0
 62
     9
 10
0.0
 20
0.0
 30
0.0
 70
   128
 71
     6
 72
    48
 73
    43
  0
VERTEX
  5
A28
  8
0
 62
     9
 10
0.0
 20
0.0
 30
0.0
 70
   128
 71
     9
 72
    44
 73
    40
  0
VERTEX
  5
A29
  8
0
 62
     9
 10
0.0
 20
0.0
 30
0.0
 70
   128
 71
    12
 72
    41
 73
    37
  0
VERTEX
  5
A2A
  8
0
 62
     9
 10
0.0
 20
0.0
 30
0.0
 70
   128
 71
    15
 72
    38
 73
    34
  0
VERTEX
  5
A2B
  8
0
 62
     9
 10
0.0
 20
0.0
 30
0.0
 70
   128
 71
    19
 72
    35
 73
    31
  0
VERTEX
  5
A2C
  8
0
 62
     9
 10
0.0
 20
0.0
 30
0.0
 70
   128
 71
    25
 72
    28
 73
    24
  0
VERTEX
  5
A2D
  8
0
 62
     9
 10
0.0
 20
0.0
 30
0.0
 70
   128
 71
    21
 72
    49
 73
    23
  0
VERTEX
  5
A2E
  8
0
 62
     9
 10
0.0
 20
0.0
 30
0.0
 70
   128
 71
    50
 72
    18
 73
    29
  0
VERTEX
  5
A2F
  8
0
 62
     9
 10
0.0
 20
0.0
 30
0.0
 70
   128
 71
    18
 72
    50
 73
    20
  0
VERTEX
  5
A30
  8
0
 62
     9
 10
0.0
 20
0.0
 30
0.0
 70
   128
 71
    15
 72
    19
 73
    17
  0
VERTEX
  5
A31
  8
0
 62
     9
 10
0.0
 20
0.0
 30
0.0
 70
   128
 71
    12
 72
    15
 73
    14
  0
VERTEX
  5
A32
  8
0
 62
     9
 10
0.0
 20
0.0
 30
0.0
 70
   128
 71
     9
 72
    12
 73
    11
  0
VERTEX
  5
A33
  8
0
 62
     9
 10
0.0
 20
0.0
 30
0.0
 70
   128
 71
     6
 72
     9
 73
     8
  0
VERTEX
  5
A34
  8
0
 62
     9
 10
0.0
 20
0.0
 30
0.0
 70
   128
 71
     1
 72
     6
 73
     3
  0
SEQEND
  5
A35
  8
0
 62
     9
  0
ENDBLK
  5
A38
  8
0
  0
BLOCK
  8
0
  2
E3_NODE_33_
 70
     0
 10
0.0
 20
0.0
 30
0.0
  3
E3_NODE_33_
  1

  0
POLYLINE
  5
A3A
  8
0
 62
     9
 66
     1
 10
0.0
 20
0.0
 30
0.0
 70
    64
 71
    62
 72
    60
  0
VERTEX
  5
A3B
  8
0
 10
92.62100219726562
 20
-25.5
 30
3.986000061035156
 70
   192
  0
VERTEX
  5
A3C
  8
0
 10
93.16000366210938
 20
4.031000137329102
 30
-16.61899948120117
 70
   192
  0
VERTEX
  5
A3D
  8
0
 10
93.16500091552734
 20
2.489000082015991
 30
-16.81399917602539
 70
   192
  0
VERTEX
  5
A3E
  8
0
 10
93.16799926757812
 20
0.5619999766349792
 30
-16.92799949645996
 70
   192
  0
VERTEX
  5
A3F
  8
0
 10
92.86599731445312
 20
-21.59700012207031
 30
-5.366000175476074
 70
   192
  0
VERTEX
  5
A40
  8
0
 10
92.71700286865234
 20
-24.48100090026855
 30
0.3039999902248383
 70
   192
  0
VERTEX
  5
A41
  8
0
 10
92.6780014038086
 20
-24.95999908447266
 30
1.781999945640564
 70
   192
  0
VERTEX
  5
A42
  8
0
 10
93.16600036621094
 20
-2.052999973297119
 30
-16.85400009155273
 70
   192
  0
VERTEX
  5
A43
  8
0
 10
93.16600036621094
 20
-2.378999948501587
 30
-16.82500076293945
 70
   192
  0
VERTEX
  5
A44
  8
0
 10
93.16799926757812
 20
-0.2440000027418137
 30
-16.9330005645752
 70
   192
  0
VERTEX
  5
A45
  8
0
 10
93.16799926757812
 20
-0.9480000138282776
 30
-16.91699981689453
 70
   192
  0
VERTEX
  5
A46
  8
0
 10
93.15899658203125
 20
4.301000118255615
 30
-16.57699966430664
 70
   192
  0
VERTEX
  5
A47
  8
0
 10
92.62899780273438
 20
-25.43199920654297
 30
3.654000043869019
 70
   192
  0
VERTEX
  5
A48
  8
0
 10
92.85900115966797
 20
-21.79400062561035
 30
-5.116000175476074
 70
   192
  0
VERTEX
  5
A49
  8
0
 10
92.7490005493164
 20
-24.01700019836426
 30
-0.8980000019073486
 70
   192
  0
VERTEX
  5
A4A
  8
0
 10
93.15799713134766
 20
4.438000202178955
 30
-16.55299949645996
 70
   192
  0
VERTEX
  5
A4B
  8
0
 10
92.7239990234375
 20
-24.38899993896484
 30
0.0480000004172325
 70
   192
  0
VERTEX
  5
A4C
  8
0
 10
92.72899627685547
 20
-24.30699920654297
 30
-0.1659999936819077
 70
   192
  0
VERTEX
  5
A4D
  8
0
 10
93.16799926757812
 20
0.0370000004768372
 30
-16.93400001525879
 70
   192
  0
VERTEX
  5
A4E
  8
0
 10
93.16799926757812
 20
0.0900000035762787
 30
-16.93400001525879
 70
   192
  0
VERTEX
  5
A4F
  8
0
 10
93.15499877929688
 20
5.072000026702881
 30
-16.43199920654297
 70
   192
  0
VERTEX
  5
A50
  8
0
 10
93.15799713134766
 20
4.526000022888184
 30
-16.53700065612793
 70
   192
  0
VERTEX
  5
A51
  8
0
 10
92.72699737548828
 20
-24.3390007019043
 30
-0.0820000022649765
 70
   192
  0
VERTEX
  5
A52
  8
0
 10
92.72799682617188
 20
-24.33099937438965
 30
-0.1049999967217445
 70
   192
  0
VERTEX
  5
A53
  8
0
 10
93.11499786376953
 20
-9.925000190734863
 30
-14.88099956512451
 70
   192
  0
VERTEX
  5
A54
  8
0
 10
93.10700225830078
 20
-10.76599979400635
 30
-14.60099983215332
 70
   192
  0
VERTEX
  5
A55
  8
0
 10
93.15499877929688
 20
-5.067999839782715
 30
-16.40800094604492
 70
   192
  0
VERTEX
  5
A56
  8
0
 10
93.15299987792969
 20
-5.574999809265137
 30
-16.32900047302246
 70
   192
  0
VERTEX
  5
A57
  8
0
 10
93.16799926757812
 20
0.0
 30
-16.93400001525879
 70
   192
  0
VERTEX
  5
A58
  8
0
 10
93.16799926757812
 20
0.0810000002384186
 30
-16.93400001525879
 70
   192
  0
VERTEX
  5
A59
  8
0
 10
93.16799926757812
 20
0.0879999995231628
 30
-16.93400001525879
 70
   192
  0
VERTEX
  5
A5A
  8
0
 10
93.15799713134766
 20
4.461999893188477
 30
-16.54800033569336
 70
   192
  0
VERTEX
  5
A5B
  8
0
 10
92.96800231933594
 20
-18.33799934387207
 30
-9.267000198364258
 70
   192
  0
VERTEX
  5
A5C
  8
0
 10
92.9540023803711
 20
-18.9370002746582
 30
-8.751999855041504
 70
   192
  0
VERTEX
  5
A5D
  8
0
 10
93.0530014038086
 20
-14.42800045013428
 30
-12.52400016784668
 70
   192
  0
VERTEX
  5
A5E
  8
0
 10
93.0479965209961
 20
-14.78899955749512
 30
-12.31900024414062
 70
   192
  0
VERTEX
  5
A5F
  8
0
 10
93.16799926757812
 20
-0.0930000022053719
 30
-16.93400001525879
 70
   192
  0
VERTEX
  5
A60
  8
0
 10
93.11599731445312
 20
9.946999549865723
 30
-14.94699954986572
 70
   192
  0
VERTEX
  5
A61
  8
0
 10
93.11799621582031
 20
9.859999656677246
 30
-14.99199962615967
 70
   192
  0
VERTEX
  5
A62
  8
0
 10
93.0530014038086
 20
14.41199970245361
 30
-12.51000022888184
 70
   192
  0
VERTEX
  5
A63
  8
0
 10
93.06199645996094
 20
13.96599960327148
 30
-12.86499977111816
 70
   192
  0
VERTEX
  5
A64
  8
0
 10
92.96900177001953
 20
18.37299919128418
 30
-9.309000015258789
 70
   192
  0
VERTEX
  5
A65
  8
0
 10
92.9729995727539
 20
18.24699974060059
 30
-9.458000183105469
 70
   192
  0
VERTEX
  5
A66
  8
0
 10
92.86499786376953
 20
21.56500053405762
 30
-5.349999904632568
 70
   192
  0
VERTEX
  5
A67
  8
0
 10
92.87999725341797
 20
21.23999977111816
 30
-5.933000087738037
 70
   192
  0
VERTEX
  5
A68
  8
0
 10
92.74800109863281
 20
24.00600051879883
 30
-0.8799999952316284
 70
   192
  0
VERTEX
  5
A69
  8
0
 10
92.75499725341797
 20
23.90800094604492
 30
-1.156999945640564
 70
   192
  0
VERTEX
  5
A6A
  8
0
 10
92.66699981689453
 20
25.07999992370605
 30
2.203999996185303
 70
   192
  0
VERTEX
  5
A6B
  8
0
 10
92.6760025024414
 20
24.99099922180176
 30
1.888000011444092
 70
   192
  0
VERTEX
  5
A6C
  8
0
 10
92.62100219726562
 20
25.49600028991699
 30
3.964999914169312
 70
   192
  0
VERTEX
  5
A6D
  8
0
 10
92.63899993896484
 20
25.34900093078613
 30
3.276999950408936
 70
   192
  0
VERTEX
  5
A6E
  8
0
 10
93.15399932861328
 20
5.300000190734863
 30
-16.38800048828125
 70
   192
  0
VERTEX
  5
A6F
  8
0
 10
92.62000274658203
 20
25.50099945068359
 30
3.990999937057495
 70
   192
  0
VERTEX
  5
A70
  8
0
 10
92.61699676513672
 20
-25.52599906921387
 30
4.116000175476074
 70
   192
  0
VERTEX
  5
A71
  8
0
 10
92.61699676513672
 20
-25.52799987792969
 30
4.125
 70
   192
  0
VERTEX
  5
A72
  8
0
 10
92.61699676513672
 20
-25.52700042724609
 30
4.118000030517578
 70
   192
  0
VERTEX
  5
A73
  8
0
 10
92.61599731445312
 20
-25.5359992980957
 30
4.168000221252441
 70
   192
  0
VERTEX
  5
A74
  8
0
 10
92.48799896240234
 20
26.0
 30
9.057000160217285
 70
   192
  0
VERTEX
  5
A75
  8
0
 10
92.61499786376953
 20
25.54299926757812
 30
4.204999923706055
 70
   192
  0
VERTEX
  5
A76
  8
0
 10
92.61699676513672
 20
25.52599906921387
 30
4.113999843597412
 70
   192
  0
VERTEX
  5
A77
  8
0
 10
92.61499786376953
 20
-25.54299926757812
 30
4.204999923706055
 70
   192
  0
VERTEX
  5
A78
  8
0
 10
92.48799896240234
 20
-26.0
 30
9.057000160217285
 70
   192
  0
VERTEX
  5
A79
  8
0
 62
     9
 10
0.0
 20
0.0
 30
0.0
 70
   128
 71
     3
 72
     2
 73
     1
  0
VERTEX
  5
A7A
  8
0
 62
     9
 10
0.0
 20
0.0
 30
0.0
 70
   128
 71
     1
 72
     4
 73
     3
  0
VERTEX
  5
A7B
  8
0
 62
     9
 10
0.0
 20
0.0
 30
0.0
 70
   128
 71
     7
 72
     6
 73
     5
  0
VERTEX
  5
A7C
  8
0
 62
     9
 10
0.0
 20
0.0
 30
0.0
 70
   128
 71
     9
 72
     8
 73
     1
  0
VERTEX
  5
A7D
  8
0
 62
     9
 10
0.0
 20
0.0
 30
0.0
 70
   128
 71
    11
 72
    10
 73
     1
  0
VERTEX
  5
A7E
  8
0
 62
     9
 10
0.0
 20
0.0
 30
0.0
 70
   128
 71
     2
 72
    12
 73
     1
  0
VERTEX
  5
A7F
  8
0
 62
     9
 10
0.0
 20
0.0
 30
0.0
 70
   128
 71
     5
 72
    13
 73
     7
  0
VERTEX
  5
A80
  8
0
 62
     9
 10
0.0
 20
0.0
 30
0.0
 70
   128
 71
    15
 72
    14
 73
     5
  0
VERTEX
  5
A81
  8
0
 62
     9
 10
0.0
 20
0.0
 30
0.0
 70
   128
 71
     1
 72
     8
 73
    11
  0
VERTEX
  5
A82
  8
0
 62
     9
 10
0.0
 20
0.0
 30
0.0
 70
   128
 71
    12
 72
    16
 73
     1
  0
VERTEX
  5
A83
  8
0
 62
     9
 10
0.0
 20
0.0
 30
0.0
 70
   128
 71
     6
 72
    17
 73
     5
  0
VERTEX
  5
A84
  8
0
 62
     9
 10
0.0
 20
0.0
 30
0.0
 70
   128
 71
     5
 72
    18
 73
    15
  0
VERTEX
  5
A85
  8
0
 62
     9
 10
0.0
 20
0.0
 30
0.0
 70
   128
 71
    10
 72
    19
 73
     1
  0
VERTEX
  5
A86
  8
0
 62
     9
 10
0.0
 20
0.0
 30
0.0
 70
   128
 71
     1
 72
    20
 73
     4
  0
VERTEX
  5
A87
  8
0
 62
     9
 10
0.0
 20
0.0
 30
0.0
 70
   128
 71
    22
 72
    21
 73
     1
  0
VERTEX
  5
A88
  8
0
 62
     9
 10
0.0
 20
0.0
 30
0.0
 70
   128
 71
    17
 72
    23
 73
     5
  0
VERTEX
  5
A89
  8
0
 62
     9
 10
0.0
 20
0.0
 30
0.0
 70
   128
 71
     5
 72
    24
 73
    18
  0
VERTEX
  5
A8A
  8
0
 62
     9
 10
0.0
 20
0.0
 30
0.0
 70
   128
 71
    26
 72
    25
 73
     1
  0
VERTEX
  5
A8B
  8
0
 62
     9
 10
0.0
 20
0.0
 30
0.0
 70
   128
 71
    28
 72
    27
 73
     1
  0
VERTEX
  5
A8C
  8
0
 62
     9
 10
0.0
 20
0.0
 30
0.0
 70
   128
 71
    29
 72
    19
 73
    10
  0
VERTEX
  5
A8D
  8
0
 62
     9
 10
0.0
 20
0.0
 30
0.0
 70
   128
 71
    19
 72
    30
 73
     1
  0
VERTEX
  5
A8E
  8
0
 62
     9
 10
0.0
 20
0.0
 30
0.0
 70
   128
 71
     1
 72
    31
 73
    20
  0
VERTEX
  5
A8F
  8
0
 62
     9
 10
0.0
 20
0.0
 30
0.0
 70
   128
 71
     1
 72
    32
 73
    22
  0
VERTEX
  5
A90
  8
0
 62
     9
 10
0.0
 20
0.0
 30
0.0
 70
   128
 71
     5
 72
    23
 73
    24
  0
VERTEX
  5
A91
  8
0
 62
     9
 10
0.0
 20
0.0
 30
0.0
 70
   128
 71
    34
 72
    33
 73
     1
  0
VERTEX
  5
A92
  8
0
 62
     9
 10
0.0
 20
0.0
 30
0.0
 70
   128
 71
    36
 72
    35
 73
     1
  0
VERTEX
  5
A93
  8
0
 62
     9
 10
0.0
 20
0.0
 30
0.0
 70
   128
 71
     1
 72
    25
 73
    28
  0
VERTEX
  5
A94
  8
0
 62
     9
 10
0.0
 20
0.0
 30
0.0
 70
   128
 71
     1
 72
    27
 73
     9
  0
VERTEX
  5
A95
  8
0
 62
     9
 10
0.0
 20
0.0
 30
0.0
 70
   128
 71
    10
 72
    37
 73
    29
  0
VERTEX
  5
A96
  8
0
 62
     9
 10
0.0
 20
0.0
 30
0.0
 70
   128
 71
     1
 72
    16
 73
    32
  0
VERTEX
  5
A97
  8
0
 62
     9
 10
0.0
 20
0.0
 30
0.0
 70
   128
 71
    39
 72
    38
 73
     1
  0
VERTEX
  5
A98
  8
0
 62
     9
 10
0.0
 20
0.0
 30
0.0
 70
   128
 71
    41
 72
    40
 73
     1
  0
VERTEX
  5
A99
  8
0
 62
     9
 10
0.0
 20
0.0
 30
0.0
 70
   128
 71
    43
 72
    42
 73
     1
  0
VERTEX
  5
A9A
  8
0
 62
     9
 10
0.0
 20
0.0
 30
0.0
 70
   128
 71
    45
 72
    44
 73
     1
  0
VERTEX
  5
A9B
  8
0
 62
     9
 10
0.0
 20
0.0
 30
0.0
 70
   128
 71
    47
 72
    46
 73
     1
  0
VERTEX
  5
A9C
  8
0
 62
     9
 10
0.0
 20
0.0
 30
0.0
 70
   128
 71
    49
 72
    48
 73
     1
  0
VERTEX
  5
A9D
  8
0
 62
     9
 10
0.0
 20
0.0
 30
0.0
 70
   128
 71
    51
 72
    50
 73
     1
  0
VERTEX
  5
A9E
  8
0
 62
     9
 10
0.0
 20
0.0
 30
0.0
 70
   128
 71
     1
 72
     5
 73
    34
  0
VERTEX
  5
A9F
  8
0
 62
     9
 10
0.0
 20
0.0
 30
0.0
 70
   128
 71
     1
 72
    35
 73
    26
  0
VERTEX
  5
AA0
  8
0
 62
     9
 10
0.0
 20
0.0
 30
0.0
 70
   128
 71
     1
 72
    30
 73
    31
  0
VERTEX
  5
AA1
  8
0
 62
     9
 10
0.0
 20
0.0
 30
0.0
 70
   128
 71
     1
 72
    52
 73
    39
  0
VERTEX
  5
AA2
  8
0
 62
     9
 10
0.0
 20
0.0
 30
0.0
 70
   128
 71
     1
 72
    40
 73
    43
  0
VERTEX
  5
AA3
  8
0
 62
     9
 10
0.0
 20
0.0
 30
0.0
 70
   128
 71
     1
 72
    44
 73
    47
  0
VERTEX
  5
AA4
  8
0
 62
     9
 10
0.0
 20
0.0
 30
0.0
 70
   128
 71
     1
 72
    48
 73
    51
  0
VERTEX
  5
AA5
  8
0
 62
     9
 10
0.0
 20
0.0
 30
0.0
 70
   128
 71
    54
 72
     1
 73
    53
  0
VERTEX
  5
AA6
  8
0
 62
     9
 10
0.0
 20
0.0
 30
0.0
 70
   128
 71
     1
 72
    33
 73
    36
  0
VERTEX
  5
AA7
  8
0
 62
     9
 10
0.0
 20
0.0
 30
0.0
 70
   128
 71
     1
 72
    21
 73
    52
  0
VERTEX
  5
AA8
  8
0
 62
     9
 10
0.0
 20
0.0
 30
0.0
 70
   128
 71
     1
 72
    42
 73
    45
  0
VERTEX
  5
AA9
  8
0
 62
     9
 10
0.0
 20
0.0
 30
0.0
 70
   128
 71
    50
 72
    53
 73
     1
  0
VERTEX
  5
AAA
  8
0
 62
     9
 10
0.0
 20
0.0
 30
0.0
 70
   128
 71
    53
 72
    55
 73
    54
  0
VERTEX
  5
AAB
  8
0
 62
     9
 10
0.0
 20
0.0
 30
0.0
 70
   128
 71
     1
 72
    46
 73
    49
  0
VERTEX
  5
AAC
  8
0
 62
     9
 10
0.0
 20
0.0
 30
0.0
 70
   128
 71
    55
 72
    56
 73
    54
  0
VERTEX
  5
AAD
  8
0
 62
     9
 10
0.0
 20
0.0
 30
0.0
 70
   128
 71
    53
 72
    57
 73
    55
  0
VERTEX
  5
AAE
  8
0
 62
     9
 10
0.0
 20
0.0
 30
0.0
 70
   128
 71
     1
 72
    38
 73
    41
  0
VERTEX
  5
AAF
  8
0
 62
     9
 10
0.0
 20
0.0
 30
0.0
 70
   128
 71
    59
 72
    58
 73
    57
  0
VERTEX
  5
AB0
  8
0
 62
     9
 10
0.0
 20
0.0
 30
0.0
 70
   128
 71
     5
 72
     1
 73
    13
  0
VERTEX
  5
AB1
  8
0
 62
     9
 10
0.0
 20
0.0
 30
0.0
 70
   128
 71
    57
 72
    60
 73
    59
  0
VERTEX
  5
AB2
  8
0
 62
     9
 10
0.0
 20
0.0
 30
0.0
 70
   128
 71
    61
 72
    57
 73
    58
  0
VERTEX
  5
AB3
  8
0
 62
     9
 10
0.0
 20
0.0
 30
0.0
 70
   128
 71
    57
 72
    53
 73
    60
  0
VERTEX
  5
AB4
  8
0
 62
     9
 10
0.0
 20
0.0
 30
0.0
 70
   128
 71
    58
 72
    62
 73
    61
  0
SEQEND
  5
AB5
  8
0
 62
     9
  0
ENDBLK
  5
AB8
  8
0
  0
BLOCK
  8
0
  2
E3_NODE_34_
 70
     0
 10
0.0
 20
0.0
 30
0.0
  3
E3_NODE_34_
  1

  0
POLYLINE
  5
ABA
  8
0
 62
     9
 66
     1
 10
0.0
 20
0.0
 30
0.0
 70
    64
 71
    38
 72
    36
  0
VERTEX
  5
ABB
  8
0
 10
107.7389984130859
 20
-5.059999942779541
 30
34.94900131225586
 70
   192
  0
VERTEX
  5
ABC
  8
0
 10
106.8639984130859
 20
-9.960000038146973
 30
33.46200180053711
 70
   192
  0
VERTEX
  5
ABD
  8
0
 10
106.870002746582
 20
-9.937000274658203
 30
33.4739990234375
 70
   192
  0
VERTEX
  5
ABE
  8
0
 10
98.44300079345703
 20
-23.9680004119873
 30
19.16600036621094
 70
   192
  0
VERTEX
  5
ABF
  8
0
 10
98.78800201416016
 20
-23.77799987792969
 30
19.75200080871582
 70
   192
  0
VERTEX
  5
AC0
  8
0
 10
107.7129974365234
 20
-5.381999969482422
 30
34.90399932861328
 70
   192
  0
VERTEX
  5
AC1
  8
0
 10
105.3830032348633
 20
-14.37800025939941
 30
30.94799995422363
 70
   192
  0
VERTEX
  5
AC2
  8
0
 10
106.0070037841797
 20
-12.89000034332275
 30
32.00699996948242
 70
   192
  0
VERTEX
  5
AC3
  8
0
 10
104.0279998779297
 20
-17.45299911499023
 30
28.64800071716309
 70
   192
  0
VERTEX
  5
AC4
  8
0
 10
104.3580017089844
 20
-16.82299995422363
 30
29.20899963378906
 70
   192
  0
VERTEX
  5
AC5
  8
0
 10
101.1129989624023
 20
-21.53300094604492
 30
23.70000076293945
 70
   192
  0
VERTEX
  5
AC6
  8
0
 10
101.8440017700195
 20
-20.78400039672852
 30
24.94000053405762
 70
   192
  0
VERTEX
  5
AC7
  8
0
 10
99.33999633789062
 20
-23.34799957275391
 30
20.69000053405762
 70
   192
  0
VERTEX
  5
AC8
  8
0
 10
95.5270004272461
 20
-25.44599914550781
 30
14.21599960327148
 70
   192
  0
VERTEX
  5
AC9
  8
0
 10
95.88899993896484
 20
-25.37199974060059
 30
14.83100032806396
 70
   192
  0
VERTEX
  5
ACA
  8
0
 10
92.48799896240234
 20
-26.0
 30
9.057000160217285
 70
   192
  0
VERTEX
  5
ACB
  8
0
 10
92.85199737548828
 20
-25.99300003051758
 30
9.673999786376953
 70
   192
  0
VERTEX
  5
ACC
  8
0
 10
106.806999206543
 20
9.894000053405762
 30
33.36700057983398
 70
   192
  0
VERTEX
  5
ACD
  8
0
 10
106.2529983520508
 20
12.13799953460693
 30
32.42599868774414
 70
   192
  0
VERTEX
  5
ACE
  8
0
 10
108.0479965209961
 20
0.0
 30
35.47299957275391
 70
   192
  0
VERTEX
  5
ACF
  8
0
 10
107.7829971313477
 20
4.788000106811523
 30
35.02299880981445
 70
   192
  0
VERTEX
  5
AD0
  8
0
 10
103.4619979858398
 20
-18.31599998474121
 30
27.6870002746582
 70
   192
  0
VERTEX
  5
AD1
  8
0
 10
95.52200317382812
 20
25.44799995422363
 30
14.20800018310547
 70
   192
  0
VERTEX
  5
AD2
  8
0
 10
95.17500305175781
 20
25.61000061035156
 30
13.61900043487549
 70
   192
  0
VERTEX
  5
AD3
  8
0
 10
105.4449996948242
 20
14.41199970245361
 30
31.05299949645996
 70
   192
  0
VERTEX
  5
AD4
  8
0
 10
107.7440032958984
 20
5.059000015258789
 30
34.95600128173828
 70
   192
  0
VERTEX
  5
AD5
  8
0
 10
107.3629989624023
 20
7.646999835968018
 30
34.30899810791016
 70
   192
  0
VERTEX
  5
AD6
  8
0
 10
108.0139999389648
 20
-1.723999977111816
 30
35.41500091552734
 70
   192
  0
VERTEX
  5
AD7
  8
0
 10
92.85199737548828
 20
25.99300003051758
 30
9.673999786376953
 70
   192
  0
VERTEX
  5
AD8
  8
0
 10
98.44499969482422
 20
23.99300003051758
 30
19.17099952697754
 70
   192
  0
VERTEX
  5
AD9
  8
0
 10
98.15899658203125
 20
24.21500015258789
 30
18.68400001525879
 70
   192
  0
VERTEX
  5
ADA
  8
0
 10
101.1019973754883
 20
21.51099967956543
 30
23.68099975585938
 70
   192
  0
VERTEX
  5
ADB
  8
0
 10
99.9000015258789
 20
22.86599922180176
 30
21.64100074768066
 70
   192
  0
VERTEX
  5
ADC
  8
0
 10
103.495002746582
 20
18.37700080871582
 30
27.74300003051758
 70
   192
  0
VERTEX
  5
ADD
  8
0
 10
102.4199981689453
 20
20.02499961853027
 30
25.91799926757812
 70
   192
  0
VERTEX
  5
ADE
  8
0
 10
103.5709991455078
 20
18.26000022888184
 30
27.87299919128418
 70
   192
  0
VERTEX
  5
ADF
  8
0
 10
106.8619995117188
 20
9.675000190734863
 30
33.45899963378906
 70
   192
  0
VERTEX
  5
AE0
  8
0
 10
92.48799896240234
 20
26.0
 30
9.057000160217285
 70
   192
  0
VERTEX
  5
AE1
  8
0
 62
     9
 10
0.0
 20
0.0
 30
0.0
 70
   128
 71
     3
 72
     2
 73
     1
  0
VERTEX
  5
AE2
  8
0
 62
     9
 10
0.0
 20
0.0
 30
0.0
 70
   128
 71
     5
 72
     4
 73
     1
  0
VERTEX
  5
AE3
  8
0
 62
     9
 10
0.0
 20
0.0
 30
0.0
 70
   128
 71
     1
 72
     6
 73
     3
  0
VERTEX
  5
AE4
  8
0
 62
     9
 10
0.0
 20
0.0
 30
0.0
 70
   128
 71
     8
 72
     7
 73
     1
  0
VERTEX
  5
AE5
  8
0
 62
     9
 10
0.0
 20
0.0
 30
0.0
 70
   128
 71
    10
 72
     9
 73
     1
  0
VERTEX
  5
AE6
  8
0
 62
     9
 10
0.0
 20
0.0
 30
0.0
 70
   128
 71
    12
 72
    11
 73
     1
  0
VERTEX
  5
AE7
  8
0
 62
     9
 10
0.0
 20
0.0
 30
0.0
 70
   128
 71
     1
 72
    13
 73
     5
  0
VERTEX
  5
AE8
  8
0
 62
     9
 10
0.0
 20
0.0
 30
0.0
 70
   128
 71
    15
 72
    14
 73
     1
  0
VERTEX
  5
AE9
  8
0
 62
     9
 10
0.0
 20
0.0
 30
0.0
 70
   128
 71
    17
 72
    16
 73
     1
  0
VERTEX
  5
AEA
  8
0
 62
     9
 10
0.0
 20
0.0
 30
0.0
 70
   128
 71
    19
 72
    18
 73
    16
  0
VERTEX
  5
AEB
  8
0
 62
     9
 10
0.0
 20
0.0
 30
0.0
 70
   128
 71
    21
 72
    20
 73
    16
  0
VERTEX
  5
AEC
  8
0
 62
     9
 10
0.0
 20
0.0
 30
0.0
 70
   128
 71
     1
 72
     2
 73
     8
  0
VERTEX
  5
AED
  8
0
 62
     9
 10
0.0
 20
0.0
 30
0.0
 70
   128
 71
     9
 72
    22
 73
     1
  0
VERTEX
  5
AEE
  8
0
 62
     9
 10
0.0
 20
0.0
 30
0.0
 70
   128
 71
     1
 72
    11
 73
    13
  0
VERTEX
  5
AEF
  8
0
 62
     9
 10
0.0
 20
0.0
 30
0.0
 70
   128
 71
     1
 72
    14
 73
    17
  0
VERTEX
  5
AF0
  8
0
 62
     9
 10
0.0
 20
0.0
 30
0.0
 70
   128
 71
    24
 72
    23
 73
    16
  0
VERTEX
  5
AF1
  8
0
 62
     9
 10
0.0
 20
0.0
 30
0.0
 70
   128
 71
    16
 72
    25
 73
    19
  0
VERTEX
  5
AF2
  8
0
 62
     9
 10
0.0
 20
0.0
 30
0.0
 70
   128
 71
    27
 72
    26
 73
    16
  0
VERTEX
  5
AF3
  8
0
 62
     9
 10
0.0
 20
0.0
 30
0.0
 70
   128
 71
    20
 72
    28
 73
    16
  0
VERTEX
  5
AF4
  8
0
 62
     9
 10
0.0
 20
0.0
 30
0.0
 70
   128
 71
     1
 72
     7
 73
    10
  0
VERTEX
  5
AF5
  8
0
 62
     9
 10
0.0
 20
0.0
 30
0.0
 70
   128
 71
     1
 72
     4
 73
    15
  0
VERTEX
  5
AF6
  8
0
 62
     9
 10
0.0
 20
0.0
 30
0.0
 70
   128
 71
    16
 72
    29
 73
    24
  0
VERTEX
  5
AF7
  8
0
 62
     9
 10
0.0
 20
0.0
 30
0.0
 70
   128
 71
    31
 72
    30
 73
    16
  0
VERTEX
  5
AF8
  8
0
 62
     9
 10
0.0
 20
0.0
 30
0.0
 70
   128
 71
    33
 72
    32
 73
    16
  0
VERTEX
  5
AF9
  8
0
 62
     9
 10
0.0
 20
0.0
 30
0.0
 70
   128
 71
    35
 72
    34
 73
    16
  0
VERTEX
  5
AFA
  8
0
 62
     9
 10
0.0
 20
0.0
 30
0.0
 70
   128
 71
    16
 72
    36
 73
    25
  0
VERTEX
  5
AFB
  8
0
 62
     9
 10
0.0
 20
0.0
 30
0.0
 70
   128
 71
    16
 72
    37
 73
    27
  0
VERTEX
  5
AFC
  8
0
 62
     9
 10
0.0
 20
0.0
 30
0.0
 70
   128
 71
    28
 72
     1
 73
    16
  0
VERTEX
  5
AFD
  8
0
 62
     9
 10
0.0
 20
0.0
 30
0.0
 70
   128
 71
     1
 72
    22
 73
    12
  0
VERTEX
  5
AFE
  8
0
 62
     9
 10
0.0
 20
0.0
 30
0.0
 70
   128
 71
    16
 72
    23
 73
    31
  0
VERTEX
  5
AFF
  8
0
 62
     9
 10
0.0
 20
0.0
 30
0.0
 70
   128
 71
    16
 72
    32
 73
    35
  0
VERTEX
  5
B00
  8
0
 62
     9
 10
0.0
 20
0.0
 30
0.0
 70
   128
 71
    16
 72
    18
 73
    37
  0
VERTEX
  5
B01
  8
0
 62
     9
 10
0.0
 20
0.0
 30
0.0
 70
   128
 71
    16
 72
    30
 73
    33
  0
VERTEX
  5
B02
  8
0
 62
     9
 10
0.0
 20
0.0
 30
0.0
 70
   128
 71
    16
 72
    26
 73
    21
  0
VERTEX
  5
B03
  8
0
 62
     9
 10
0.0
 20
0.0
 30
0.0
 70
   128
 71
    16
 72
    34
 73
    36
  0
VERTEX
  5
B04
  8
0
 62
     9
 10
0.0
 20
0.0
 30
0.0
 70
   128
 71
    16
 72
    38
 73
    29
  0
SEQEND
  5
B05
  8
0
 62
     9
  0
ENDBLK
  5
B08
  8
0
  0
ENDSEC
  0
SECTION
  2
ENTITIES
  0
INSERT
  5
6E
  8
LAYER_1
  2
E3_NODE
 10
0.0
 20
0.0
 30
0.0
  0
INSERT
  5
AD
  8
LAYER_1
  2
E3_NODE_1_
 10
0.0
 20
0.0
 30
0.0
  0
INSERT
  5
164
  8
LAYER_1
  2
E3_NODE_2_
 10
0.0
 20
0.0
 30
0.0
  0
INSERT
  5
1B8
  8
LAYER_1
  2
E3_NODE_3_
 10
0.0
 20
0.0
 30
0.0
  0
INSERT
  5
20E
  8
LAYER_1
  2
E3_NODE_4_
 10
0.0
 20
0.0
 30
0.0
  0
INSERT
  5
234
  8
LAYER_1
  2
E3_NODE_5_
 10
0.0
 20
0.0
 30
0.0
  0
INSERT
  5
27E
  8
LAYER_1
  2
E3_NODE_6_
 10
0.0
 20
0.0
 30
0.0
  0
INSERT
  5
2A4
  8
LAYER_1
  2
E3_NODE_7_
 10
0.0
 20
0.0
 30
0.0
  0
INSERT
  5
2D9
  8
LAYER_1
  2
E3_NODE_8_
 10
0.0
 20
0.0
 30
0.0
  0
INSERT
  5
342
  8
LAYER_1
  2
E3_NODE_9_
 10
0.0
 20
0.0
 30
0.0
  0
INSERT
  5
352
  8
LAYER_1
  2
E3_NODE_10_
 10
0.0
 20
0.0
 30
0.0
  0
INSERT
  5
39F
  8
LAYER_1
  2
E3_NODE_11_
 10
0.0
 20
0.0
 30
0.0
  0
INSERT
  5
40C
  8
LAYER_1
  2
E3_NODE_12_
 10
0.0
 20
0.0
 30
0.0
  0
INSERT
  5
457
  8
LAYER_1
  2
E3_NODE_13_
 10
0.0
 20
0.0
 30
0.0
  0
INSERT
  5
469
  8
LAYER_1
  2
E3_NODE_14_
 10
0.0
 20
0.0
 30
0.0
  0
INSERT
  5
48D
  8
LAYER_1
  2
E3_NODE_15_
 10
0.0
 20
0.0
 30
0.0
  0
INSERT
  5
4C0
  8
LAYER_1
  2
E3_NODE_16_
 10
0.0
 20
0.0
 30
0.0
  0
INSERT
  5
4CE
  8
LAYER_1
  2
E3_NODE_17_
 10
0.0
 20
0.0
 30
0.0
  0
INSERT
  5
4E2
  8
LAYER_1
  2
E3_NODE_18_
 10
0.0
 20
0.0
 30
0.0
  0
INSERT
  5
500
  8
LAYER_1
  2
E3_NODE_19_
 10
0.0
 20
0.0
 30
0.0
  0
INSERT
  5
58A
  8
LAYER_1
  2
E3_NODE_20_
 10
0.0
 20
0.0
 30
0.0
  0
INSERT
  5
5B0
  8
LAYER_1
  2
E3_NODE_21_
 10
0.0
 20
0.0
 30
0.0
  0
INSERT
  5
5D9
  8
LAYER_1
  2
E3_NODE_22_
 10
0.0
 20
0.0
 30
0.0
  0
INSERT
  5
635
  8
LAYER_1
  2
E3_NODE_23_
 10
0.0
 20
0.0
 30
0.0
  0
INSERT
  5
6B5
  8
LAYER_1
  2
E3_NODE_24_
 10
0.0
 20
0.0
 30
0.0
  0
INSERT
  5
6DB
  8
LAYER_1
  2
E3_NODE_25_
 10
0.0
 20
0.0
 30
0.0
  0
INSERT
  5
75D
  8
LAYER_1
  2
E3_NODE_26_
 10
0.0
 20
0.0
 30
0.0
  0
INSERT
  5
7CA
  8
LAYER_1
  2
E3_NODE_27_
 10
0.0
 20
0.0
 30
0.0
  0
INSERT
  5
85B
  8
LAYER_1
  2
E3_NODE_28_
 10
0.0
 20
0.0
 30
0.0
  0
INSERT
  5
8EE
  8
LAYER_1
  2
E3_NODE_29_
 10
0.0
 20
0.0
 30
0.0
  0
INSERT
  5
95B
  8
LAYER_1
  2
E3_NODE_30_
 10
0.0
 20
0.0
 30
0.0
  0
INSERT
  5
9C8
  8
LAYER_1
  2
E3_NODE_31_
 10
0.0
 20
0.0
 30
0.0
  0
INSERT
  5
A36
  8
LAYER_1
  2
E3_NODE_32_
 10
0.0
 20
0.0
 30
0.0
  0
INSERT
  5
AB6
  8
LAYER_1
  2
E3_NODE_33_
 10
0.0
 20
0.0
 30
0.0
  0
INSERT
  5
B06
  8
LAYER_1
  2
E3_NODE_34_
 10
0.0
 20
0.0
 30
0.0
  0
ENDSEC
  0
EOF
