  0
SECTION
  2
HEADER
  9
$ACADVER
  1
AC1009
  9
$DWGCODEPAGE
  3
ansi_1252
  9
$INSBASE
 10
0.0
 20
0.0
 30
0.0
  9
$EXTMIN
 10
1.000000000000000E+20
 20
1.000000000000000E+20
 30
1.000000000000000E+20
  9
$EXTMAX
 10
-1.000000000000000E+20
 20
-1.000000000000000E+20
 30
-1.000000000000000E+20
  9
$LIMMIN
 10
0.0
 20
0.0
  9
$LIMMAX
 10
12.0
 20
9.0
  9
$ORTHOMODE
 70
     0
  9
$REGENMODE
 70
     1
  9
$FILLMODE
 70
     1
  9
$QTEXTMODE
 70
     0
  9
$MIRRTEXT
 70
     1
  9
$DRAGMODE
 70
     2
  9
$LTSCALE
 40
1.0
  9
$OSMODE
 70
    37
  9
$ATTMODE
 70
     1
  9
$TEXTSIZE
 40
0.2
  9
$TRACEWID
 40
0.05
  9
$TEXTSTYLE
  7
STANDARD
  9
$CLAYER
  8
0
  9
$CELTYPE
  6
BYLAYER
  9
$CECOLOR
 62
   256
  9
$DIMSCALE
 40
1.0
  9
$DIMASZ
 40
0.18
  9
$DIMEXO
 40
0.0625
  9
$DIMDLI
 40
0.38
  9
$DIMRND
 40
0.0
  9
$DIMDLE
 40
0.0
  9
$DIMEXE
 40
0.18
  9
$DIMTP
 40
0.0
  9
$DIMTM
 40
0.0
  9
$DIMTXT
 40
0.18
  9
$DIMCEN
 40
0.09
  9
$DIMTSZ
 40
0.0
  9
$DIMTOL
 70
     0
  9
$DIMLIM
 70
     0
  9
$DIMTIH
 70
     1
  9
$DIMTOH
 70
     1
  9
$DIMSE1
 70
     0
  9
$DIMSE2
 70
     0
  9
$DIMTAD
 70
     0
  9
$DIMZIN
 70
     0
  9
$DIMBLK
  1

  9
$DIMASO
 70
     1
  9
$DIMSHO
 70
     1
  9
$DIMPOST
  1

  9
$DIMAPOST
  1

  9
$DIMALT
 70
     0
  9
$DIMALTD
 70
     2
  9
$DIMALTF
 40
25.4
  9
$DIMLFAC
 40
1.0
  9
$DIMTOFL
 70
     0
  9
$DIMTVP
 40
0.0
  9
$DIMTIX
 70
     0
  9
$DIMSOXD
 70
     0
  9
$DIMSAH
 70
     0
  9
$DIMBLK1
  1

  9
$DIMBLK2
  1

  9
$DIMSTYLE
  2
STANDARD
  9
$DIMCLRD
 70
     0
  9
$DIMCLRE
 70
     0
  9
$DIMCLRT
 70
     0
  9
$DIMTFAC
 40
1.0
  9
$DIMGAP
 40
0.09
  9
$LUNITS
 70
     2
  9
$LUPREC
 70
     4
  9
$SKETCHINC
 40
0.1
  9
$FILLETRAD
 40
0.5
  9
$AUNITS
 70
     0
  9
$AUPREC
 70
     0
  9
$MENU
  1
.
  9
$ELEVATION
 40
0.0
  9
$PELEVATION
 40
0.0
  9
$THICKNESS
 40
0.0
  9
$LIMCHECK
 70
     0
  9
$CHAMFERA
 40
0.5
  9
$CHAMFERB
 40
0.5
  9
$SKPOLY
 70
     0
  9
$TDCREATE
 40
2455347.631121597
  9
$TDUPDATE
 40
2455347.631121597
  9
$TDINDWG
 40
0.0000000116
  9
$TDUSRTIMER
 40
0.0000000116
  9
$USRTIMER
 70
     1
  9
$ANGBASE
 50
0.0
  9
$ANGDIR
 70
     0
  9
$PDMODE
 70
     0
  9
$PDSIZE
 40
0.0
  9
$PLINEWID
 40
0.0
  9
$COORDS
 70
     1
  9
$SPLFRAME
 70
     0
  9
$SPLINETYPE
 70
     6
  9
$SPLINESEGS
 70
     8
  9
$ATTDIA
 70
     0
  9
$ATTREQ
 70
     1
  9
$HANDLING
 70
     1
  9
$HANDSEED
  5
817
  9
$SURFTAB1
 70
     6
  9
$SURFTAB2
 70
     6
  9
$SURFTYPE
 70
     6
  9
$SURFU
 70
     6
  9
$SURFV
 70
     6
  9
$UCSNAME
  2

  9
$UCSORG
 10
0.0
 20
0.0
 30
0.0
  9
$UCSXDIR
 10
1.0
 20
0.0
 30
0.0
  9
$UCSYDIR
 10
0.0
 20
1.0
 30
0.0
  9
$PUCSNAME
  2

  9
$PUCSORG
 10
0.0
 20
0.0
 30
0.0
  9
$PUCSXDIR
 10
1.0
 20
0.0
 30
0.0
  9
$PUCSYDIR
 10
0.0
 20
1.0
 30
0.0
  9
$USERI1
 70
     0
  9
$USERI2
 70
     0
  9
$USERI3
 70
     0
  9
$USERI4
 70
     0
  9
$USERI5
 70
     0
  9
$USERR1
 40
0.0
  9
$USERR2
 40
0.0
  9
$USERR3
 40
0.0
  9
$USERR4
 40
0.0
  9
$USERR5
 40
0.0
  9
$WORLDVIEW
 70
     1
  9
$SHADEDGE
 70
     3
  9
$SHADEDIF
 70
    70
  9
$TILEMODE
 70
     1
  9
$MAXACTVP
 70
    64
  9
$PLIMCHECK
 70
     0
  9
$PEXTMIN
 10
1.000000000000000E+20
 20
1.000000000000000E+20
 30
1.000000000000000E+20
  9
$PEXTMAX
 10
-1.000000000000000E+20
 20
-1.000000000000000E+20
 30
-1.000000000000000E+20
  9
$PLIMMIN
 10
0.0
 20
0.0
  9
$PLIMMAX
 10
12.0
 20
9.0
  9
$UNITMODE
 70
     0
  9
$VISRETAIN
 70
     1
  9
$PLINEGEN
 70
     0
  9
$PSLTSCALE
 70
     1
  0
ENDSEC
  0
SECTION
  2
TABLES
  0
TABLE
  2
VPORT
 70
     1
  0
VPORT
  2
*ACTIVE
 70
     0
 10
0.0
 20
0.0
 11
1.0
 21
1.0
 12
0.0
 22
0.0
 13
0.0
 23
0.0
 14
0.5
 24
0.5
 15
0.5
 25
0.5
 16
474.9940185546875
 26
271.4017639160156
 36
474.9940490722656
 17
58.3380126953125
 27
29.760498046875
 37
150.1210021972656
 40
272.7511647015117
 41
1.972972972850329
 42
50.0
 43
0.0
 44
0.0
 50
0.0
 51
0.0
 71
     0
 72
   100
 73
     1
 74
     3
 75
     0
 76
     0
 77
     0
 78
     0
  0
ENDTAB
  0
TABLE
  2
LTYPE
 70
     1
  0
LTYPE
  2
CONTINUOUS
 70
     0
  3
Solid line
 72
    65
 73
     0
 40
0.0
  0
ENDTAB
  0
TABLE
  2
LAYER
 70
     2
  0
LAYER
  2
0
 70
     0
 62
     7
  6
CONTINUOUS
  0
LAYER
  2
LAYER_1
 70
     0
 62
     7
  6
CONTINUOUS
  0
ENDTAB
  0
TABLE
  2
STYLE
 70
     1
  0
STYLE
  2
STANDARD
 70
     0
 40
0.0
 41
1.0
 50
0.0
 71
     0
 42
0.2
  3
txt
  4

  0
ENDTAB
  0
TABLE
  2
VIEW
 70
     0
  0
ENDTAB
  0
TABLE
  2
UCS
 70
     0
  0
ENDTAB
  0
TABLE
  2
APPID
 70
     1
  0
APPID
  2
ACAD
 70
     0
  0
ENDTAB
  0
TABLE
  2
DIMSTYLE
 70
     1
  0
DIMSTYLE
  2
STANDARD
 70
     0
  3

  4

  5

  6

  7

 40
1.0
 41
0.18
 42
0.0625
 43
0.38
 44
0.18
 45
0.0
 46
0.0
 47
0.0
 48
0.0
140
0.18
141
0.09
142
0.0
143
25.4
144
1.0
145
0.0
146
1.0
147
0.09
 71
     0
 72
     0
 73
     1
 74
     1
 75
     0
 76
     0
 77
     0
 78
     0
170
     0
171
     2
172
     0
173
     0
174
     0
175
     0
176
     0
177
     0
178
     0
  0
ENDTAB
  0
ENDSEC
  0
SECTION
  2
BLOCKS
  0
BLOCK
  8
0
  2
$MODEL_SPACE
 70
     0
 10
0.0
 20
0.0
 30
0.0
  3
$MODEL_SPACE
  1

  0
ENDBLK
  5
21
  8
0
  0
BLOCK
 67
     1
  8
0
  2
$PAPER_SPACE
 70
     0
 10
0.0
 20
0.0
 30
0.0
  3
$PAPER_SPACE
  1

  0
ENDBLK
  5
1D
 67
     1
  8
0
  0
BLOCK
  8
0
  2
E3_NODE
 70
     0
 10
0.0
 20
0.0
 30
0.0
  3
E3_NODE
  1

  0
POLYLINE
  5
3C
  8
0
 62
     9
 66
     1
 10
0.0
 20
0.0
 30
0.0
 70
    64
 71
    40
 72
    40
  0
VERTEX
  5
3D
  8
0
 10
-9.65999984741211
 20
44.6609992980957
 30
28.30299949645996
 70
   192
  0
VERTEX
  5
3E
  8
0
 10
-9.256999969482422
 20
49.0
 30
29.20800018310547
 70
   192
  0
VERTEX
  5
3F
  8
0
 10
0.0
 20
49.0
 30
27.23999977111816
 70
   192
  0
VERTEX
  5
40
  8
0
 10
-16.91399955749512
 20
49.0
 30
34.77099990844727
 70
   192
  0
VERTEX
  5
41
  8
0
 10
-12.55799961090088
 20
44.6609992980957
 30
30.40900039672852
 70
   192
  0
VERTEX
  5
42
  8
0
 10
-17.64999961853027
 20
44.6609992980957
 30
34.10800170898438
 70
   192
  0
VERTEX
  5
43
  8
0
 10
-21.24699974060059
 20
44.6609992980957
 30
40.34000015258789
 70
   192
  0
VERTEX
  5
44
  8
0
 10
-21.64599990844727
 20
49.0
 30
42.96699905395508
 70
   192
  0
VERTEX
  5
45
  8
0
 10
-22.58799934387207
 20
44.6609992980957
 30
42.6609992980957
 70
   192
  0
VERTEX
  5
46
  8
0
 10
-23.6200008392334
 20
44.6609992980957
 30
52.48300170898438
 70
   192
  0
VERTEX
  5
47
  8
0
 10
-22.63500022888184
 20
49.0
 30
52.37900161743164
 70
   192
  0
VERTEX
  5
48
  8
0
 10
-19.70999908447266
 20
49.0
 30
61.38000106811523
 70
   192
  0
VERTEX
  5
49
  8
0
 10
-23.34499931335449
 20
44.6609992980957
 30
53.32699966430664
 70
   192
  0
VERTEX
  5
4A
  8
0
 10
-13.37800025939941
 20
49.0
 30
68.41300201416016
 70
   192
  0
VERTEX
  5
4B
  8
0
 10
-17.5669994354248
 20
44.6609992980957
 30
65.20899963378906
 70
   192
  0
VERTEX
  5
4C
  8
0
 10
-20.56800079345703
 20
44.6609992980957
 30
61.875
 70
   192
  0
VERTEX
  5
4D
  8
0
 10
-13.96000003814697
 20
44.6609992980957
 30
69.21399688720703
 70
   192
  0
VERTEX
  5
4E
  8
0
 10
-6.565999984741211
 20
44.6609992980957
 30
72.50599670410156
 70
   192
  0
VERTEX
  5
4F
  8
0
 10
-4.73199987411499
 20
49.0
 30
72.26200103759766
 70
   192
  0
VERTEX
  5
50
  8
0
 10
4.938000202178955
 20
44.6609992980957
 30
73.23100280761719
 70
   192
  0
VERTEX
  5
51
  8
0
 10
4.73199987411499
 20
49.0
 30
72.26200103759766
 70
   192
  0
VERTEX
  5
52
  8
0
 10
13.37800025939941
 20
49.0
 30
68.41300201416016
 70
   192
  0
VERTEX
  5
53
  8
0
 10
6.565999984741211
 20
44.6609992980957
 30
72.50599670410156
 70
   192
  0
VERTEX
  5
54
  8
0
 10
13.96000003814697
 20
44.6609992980957
 30
69.21399688720703
 70
   192
  0
VERTEX
  5
55
  8
0
 10
17.5669994354248
 20
44.6609992980957
 30
65.20899963378906
 70
   192
  0
VERTEX
  5
56
  8
0
 10
19.70999908447266
 20
49.0
 30
61.38000106811523
 70
   192
  0
VERTEX
  5
57
  8
0
 10
20.56800079345703
 20
44.6609992980957
 30
61.875
 70
   192
  0
VERTEX
  5
58
  8
0
 10
23.34499931335449
 20
44.6609992980957
 30
53.32699966430664
 70
   192
  0
VERTEX
  5
59
  8
0
 10
22.63500022888184
 20
49.0
 30
52.37900161743164
 70
   192
  0
VERTEX
  5
5A
  8
0
 10
23.6200008392334
 20
44.6609992980957
 30
52.48300170898438
 70
   192
  0
VERTEX
  5
5B
  8
0
 10
22.58799934387207
 20
44.6609992980957
 30
42.6609992980957
 70
   192
  0
VERTEX
  5
5C
  8
0
 10
21.64599990844727
 20
49.0
 30
42.96699905395508
 70
   192
  0
VERTEX
  5
5D
  8
0
 10
16.91399955749512
 20
49.0
 30
34.77099990844727
 70
   192
  0
VERTEX
  5
5E
  8
0
 10
21.24699974060059
 20
44.6609992980957
 30
40.34000015258789
 70
   192
  0
VERTEX
  5
5F
  8
0
 10
17.64999961853027
 20
44.6609992980957
 30
34.10800170898438
 70
   192
  0
VERTEX
  5
60
  8
0
 10
12.55799961090088
 20
44.6609992980957
 30
30.40900039672852
 70
   192
  0
VERTEX
  5
61
  8
0
 10
9.256999969482422
 20
49.0
 30
29.20800018310547
 70
   192
  0
VERTEX
  5
62
  8
0
 10
9.65999984741211
 20
44.6609992980957
 30
28.30299949645996
 70
   192
  0
VERTEX
  5
63
  8
0
 10
0.0
 20
44.6609992980957
 30
26.25
 70
   192
  0
VERTEX
  5
64
  8
0
 10
-4.938000202178955
 20
44.6609992980957
 30
73.23100280761719
 70
   192
  0
VERTEX
  5
65
  8
0
 62
     9
 10
0.0
 20
0.0
 30
0.0
 70
   128
 71
     3
 72
     2
 73
     1
  0
VERTEX
  5
66
  8
0
 62
     9
 10
0.0
 20
0.0
 30
0.0
 70
   128
 71
     5
 72
     2
 73
     4
  0
VERTEX
  5
67
  8
0
 62
     9
 10
0.0
 20
0.0
 30
0.0
 70
   128
 71
     5
 72
     1
 73
     2
  0
VERTEX
  5
68
  8
0
 62
     9
 10
0.0
 20
0.0
 30
0.0
 70
   128
 71
     7
 72
     6
 73
     4
  0
VERTEX
  5
69
  8
0
 62
     9
 10
0.0
 20
0.0
 30
0.0
 70
   128
 71
     4
 72
     8
 73
     7
  0
VERTEX
  5
6A
  8
0
 62
     9
 10
0.0
 20
0.0
 30
0.0
 70
   128
 71
    11
 72
    10
 73
     9
  0
VERTEX
  5
6B
  8
0
 62
     9
 10
0.0
 20
0.0
 30
0.0
 70
   128
 71
    13
 72
    11
 73
    12
  0
VERTEX
  5
6C
  8
0
 62
     9
 10
0.0
 20
0.0
 30
0.0
 70
   128
 71
    13
 72
    10
 73
    11
  0
VERTEX
  5
6D
  8
0
 62
     9
 10
0.0
 20
0.0
 30
0.0
 70
   128
 71
    15
 72
    12
 73
    14
  0
VERTEX
  5
6E
  8
0
 62
     9
 10
0.0
 20
0.0
 30
0.0
 70
   128
 71
    15
 72
    16
 73
    12
  0
VERTEX
  5
6F
  8
0
 62
     9
 10
0.0
 20
0.0
 30
0.0
 70
   128
 71
    18
 72
    17
 73
    14
  0
VERTEX
  5
70
  8
0
 62
     9
 10
0.0
 20
0.0
 30
0.0
 70
   128
 71
    14
 72
    19
 73
    18
  0
VERTEX
  5
71
  8
0
 62
     9
 10
0.0
 20
0.0
 30
0.0
 70
   128
 71
    19
 72
    21
 73
    20
  0
VERTEX
  5
72
  8
0
 62
     9
 10
0.0
 20
0.0
 30
0.0
 70
   128
 71
    23
 72
    21
 73
    22
  0
VERTEX
  5
73
  8
0
 62
     9
 10
0.0
 20
0.0
 30
0.0
 70
   128
 71
    23
 72
    20
 73
    21
  0
VERTEX
  5
74
  8
0
 62
     9
 10
0.0
 20
0.0
 30
0.0
 70
   128
 71
    25
 72
    24
 73
    22
  0
VERTEX
  5
75
  8
0
 62
     9
 10
0.0
 20
0.0
 30
0.0
 70
   128
 71
    22
 72
    26
 73
    25
  0
VERTEX
  5
76
  8
0
 62
     9
 10
0.0
 20
0.0
 30
0.0
 70
   128
 71
    28
 72
    27
 73
    26
  0
VERTEX
  5
77
  8
0
 62
     9
 10
0.0
 20
0.0
 30
0.0
 70
   128
 71
    26
 72
    29
 73
    28
  0
VERTEX
  5
78
  8
0
 62
     9
 10
0.0
 20
0.0
 30
0.0
 70
   128
 71
    32
 72
    31
 73
    30
  0
VERTEX
  5
79
  8
0
 62
     9
 10
0.0
 20
0.0
 30
0.0
 70
   128
 71
    34
 72
    32
 73
    33
  0
VERTEX
  5
7A
  8
0
 62
     9
 10
0.0
 20
0.0
 30
0.0
 70
   128
 71
    34
 72
    31
 73
    32
  0
VERTEX
  5
7B
  8
0
 62
     9
 10
0.0
 20
0.0
 30
0.0
 70
   128
 71
    36
 72
    35
 73
    33
  0
VERTEX
  5
7C
  8
0
 62
     9
 10
0.0
 20
0.0
 30
0.0
 70
   128
 71
    33
 72
    37
 73
    36
  0
VERTEX
  5
7D
  8
0
 62
     9
 10
0.0
 20
0.0
 30
0.0
 70
   128
 71
     3
 72
    39
 73
    38
  0
VERTEX
  5
7E
  8
0
 62
     9
 10
0.0
 20
0.0
 30
0.0
 70
   128
 71
    38
 72
    37
 73
     3
  0
VERTEX
  5
7F
  8
0
 62
     9
 10
0.0
 20
0.0
 30
0.0
 70
   128
 71
    37
 72
    38
 73
    36
  0
VERTEX
  5
80
  8
0
 62
     9
 10
0.0
 20
0.0
 30
0.0
 70
   128
 71
    33
 72
    35
 73
    34
  0
VERTEX
  5
81
  8
0
 62
     9
 10
0.0
 20
0.0
 30
0.0
 70
   128
 71
    30
 72
    29
 73
    32
  0
VERTEX
  5
82
  8
0
 62
     9
 10
0.0
 20
0.0
 30
0.0
 70
   128
 71
    29
 72
    30
 73
    28
  0
VERTEX
  5
83
  8
0
 62
     9
 10
0.0
 20
0.0
 30
0.0
 70
   128
 71
    26
 72
    27
 73
    25
  0
VERTEX
  5
84
  8
0
 62
     9
 10
0.0
 20
0.0
 30
0.0
 70
   128
 71
    22
 72
    24
 73
    23
  0
VERTEX
  5
85
  8
0
 62
     9
 10
0.0
 20
0.0
 30
0.0
 70
   128
 71
    20
 72
    40
 73
    19
  0
VERTEX
  5
86
  8
0
 62
     9
 10
0.0
 20
0.0
 30
0.0
 70
   128
 71
    19
 72
    40
 73
    18
  0
VERTEX
  5
87
  8
0
 62
     9
 10
0.0
 20
0.0
 30
0.0
 70
   128
 71
    14
 72
    17
 73
    15
  0
VERTEX
  5
88
  8
0
 62
     9
 10
0.0
 20
0.0
 30
0.0
 70
   128
 71
    12
 72
    16
 73
    13
  0
VERTEX
  5
89
  8
0
 62
     9
 10
0.0
 20
0.0
 30
0.0
 70
   128
 71
     9
 72
     8
 73
    11
  0
VERTEX
  5
8A
  8
0
 62
     9
 10
0.0
 20
0.0
 30
0.0
 70
   128
 71
     8
 72
     9
 73
     7
  0
VERTEX
  5
8B
  8
0
 62
     9
 10
0.0
 20
0.0
 30
0.0
 70
   128
 71
     4
 72
     6
 73
     5
  0
VERTEX
  5
8C
  8
0
 62
     9
 10
0.0
 20
0.0
 30
0.0
 70
   128
 71
     1
 72
    39
 73
     3
  0
SEQEND
  5
8D
  8
0
 62
     9
  0
ENDBLK
  5
91
  8
0
  0
BLOCK
  8
0
  2
E3_NODE_1_
 70
     0
 10
0.0
 20
0.0
 30
0.0
  3
E3_NODE_1_
  1

  0
POLYLINE
  5
93
  8
0
 62
     9
 66
     1
 10
0.0
 20
0.0
 30
0.0
 70
    64
 71
    90
 72
    90
  0
VERTEX
  5
94
  8
0
 10
-7.710000038146973
 20
22.72800064086914
 30
27.5359992980957
 70
   192
  0
VERTEX
  5
95
  8
0
 10
-12.55799961090088
 20
44.6609992980957
 30
30.40900039672852
 70
   192
  0
VERTEX
  5
96
  8
0
 10
-9.65999984741211
 20
44.6609992980957
 30
28.30299949645996
 70
   192
  0
VERTEX
  5
97
  8
0
 10
-6.241000175476074
 20
23.17399978637695
 30
27.08499908447266
 70
   192
  0
VERTEX
  5
98
  8
0
 10
0.0
 20
44.6609992980957
 30
26.25
 70
   192
  0
VERTEX
  5
99
  8
0
 10
-1.973999977111816
 20
23.91900062561035
 30
26.33200073242188
 70
   192
  0
VERTEX
  5
9A
  8
0
 10
-11.71100044250488
 20
20.94899940490723
 30
29.33799934387207
 70
   192
  0
VERTEX
  5
9B
  8
0
 10
0.0
 20
24.0
 30
26.25
 70
   192
  0
VERTEX
  5
9C
  8
0
 10
-21.24699974060059
 20
44.6609992980957
 30
40.34000015258789
 70
   192
  0
VERTEX
  5
9D
  8
0
 10
-17.63599967956543
 20
16.27799987792969
 30
34.09299850463867
 70
   192
  0
VERTEX
  5
9E
  8
0
 10
-20.43000030517578
 20
12.5939998626709
 30
37.88999938964844
 70
   192
  0
VERTEX
  5
9F
  8
0
 10
-17.64999961853027
 20
44.6609992980957
 30
34.10800170898438
 70
   192
  0
VERTEX
  5
A0
  8
0
 10
-12.8129997253418
 20
20.23600006103516
 30
30.0620002746582
 70
   192
  0
VERTEX
  5
A1
  8
0
 10
-12.94799995422363
 20
20.14800071716309
 30
30.15099906921387
 70
   192
  0
VERTEX
  5
A2
  8
0
 10
-14.30300045013428
 20
19.27199935913086
 30
31.04000091552734
 70
   192
  0
VERTEX
  5
A3
  8
0
 10
-23.34499931335449
 20
44.6609992980957
 30
53.32699966430664
 70
   192
  0
VERTEX
  5
A4
  8
0
 10
-23.71500015258789
 20
3.688999891281128
 30
48.70800018310547
 70
   192
  0
VERTEX
  5
A5
  8
0
 10
-23.75
 20
3.454999923706055
 30
49.95800018310547
 70
   192
  0
VERTEX
  5
A6
  8
0
 10
-23.4109992980957
 20
5.282999992370605
 30
46.00400161743164
 70
   192
  0
VERTEX
  5
A7
  8
0
 10
-23.7189998626709
 20
3.663000106811523
 30
51.21799850463867
 70
   192
  0
VERTEX
  5
A8
  8
0
 10
-23.54299926757812
 20
4.658999919891357
 30
53.12599945068359
 70
   192
  0
VERTEX
  5
A9
  8
0
 10
-23.27799987792969
 20
5.841000080108643
 30
45.29100036621094
 70
   192
  0
VERTEX
  5
AA
  8
0
 10
-22.4689998626709
 20
8.434000015258789
 30
42.30599975585938
 70
   192
  0
VERTEX
  5
AB
  8
0
 10
-21.73800086975098
 20
9.925000190734863
 30
40.72299957275391
 70
   192
  0
VERTEX
  5
AC
  8
0
 10
-22.58799934387207
 20
44.6609992980957
 30
42.6609992980957
 70
   192
  0
VERTEX
  5
AD
  8
0
 10
-21.49099922180176
 20
10.43099975585938
 30
40.18600082397461
 70
   192
  0
VERTEX
  5
AE
  8
0
 10
-23.6200008392334
 20
44.6609992980957
 30
52.48300170898438
 70
   192
  0
VERTEX
  5
AF
  8
0
 10
-20.56800079345703
 20
44.6609992980957
 30
61.875
 70
   192
  0
VERTEX
  5
B0
  8
0
 10
-19.05100059509277
 20
14.59700012207031
 30
64.18199920654297
 70
   192
  0
VERTEX
  5
B1
  8
0
 10
-17.86199951171875
 20
15.85799980163574
 30
65.4729995727539
 70
   192
  0
VERTEX
  5
B2
  8
0
 10
-17.5669994354248
 20
44.6609992980957
 30
65.20899963378906
 70
   192
  0
VERTEX
  5
B3
  8
0
 10
-23.49399948120117
 20
4.85699987411499
 30
53.37699890136719
 70
   192
  0
VERTEX
  5
B4
  8
0
 10
-22.98399925231934
 20
6.907999992370605
 30
55.98199844360352
 70
   192
  0
VERTEX
  5
B5
  8
0
 10
-21.78300094604492
 20
9.951000213623047
 30
59.30899810791016
 70
   192
  0
VERTEX
  5
B6
  8
0
 10
-21.50600051879883
 20
10.65299987792969
 30
60.07699966430664
 70
   192
  0
VERTEX
  5
B7
  8
0
 10
-13.96000003814697
 20
44.6609992980957
 30
69.21399688720703
 70
   192
  0
VERTEX
  5
B8
  8
0
 10
-8.487000465393066
 20
22.44899940490723
 30
72.18199920654297
 70
   192
  0
VERTEX
  5
B9
  8
0
 10
-6.664000034332275
 20
22.95199966430664
 30
72.69000244140625
 70
   192
  0
VERTEX
  5
BA
  8
0
 10
-10.02799987792969
 20
21.80500030517578
 30
71.52899932861328
 70
   192
  0
VERTEX
  5
BB
  8
0
 10
-14.00500011444092
 20
19.48999977111816
 30
69.18199920654297
 70
   192
  0
VERTEX
  5
BC
  8
0
 10
-12.93099975585938
 20
20.11499977111816
 30
69.81500244140625
 70
   192
  0
VERTEX
  5
BD
  8
0
 10
-15.69200038909912
 20
18.15900039672852
 30
67.8270034790039
 70
   192
  0
VERTEX
  5
BE
  8
0
 10
3.428999900817871
 20
23.75399971008301
 30
73.5009994506836
 70
   192
  0
VERTEX
  5
BF
  8
0
 10
6.565999984741211
 20
44.6609992980957
 30
72.50599670410156
 70
   192
  0
VERTEX
  5
C0
  8
0
 10
4.938000202178955
 20
44.6609992980957
 30
73.23100280761719
 70
   192
  0
VERTEX
  5
C1
  8
0
 10
2.160000085830688
 20
23.90299987792969
 30
73.6520004272461
 70
   192
  0
VERTEX
  5
C2
  8
0
 10
-4.938000202178955
 20
44.6609992980957
 30
73.23100280761719
 70
   192
  0
VERTEX
  5
C3
  8
0
 10
0.0
 20
23.89999961853027
 30
73.64900207519531
 70
   192
  0
VERTEX
  5
C4
  8
0
 10
-2.213000059127808
 20
23.89800071716309
 30
73.64700317382812
 70
   192
  0
VERTEX
  5
C5
  8
0
 10
-4.218999862670898
 20
23.62599945068359
 30
73.37200164794922
 70
   192
  0
VERTEX
  5
C6
  8
0
 10
-6.565999984741211
 20
44.6609992980957
 30
72.50599670410156
 70
   192
  0
VERTEX
  5
C7
  8
0
 10
17.5669994354248
 20
44.6609992980957
 30
65.20899963378906
 70
   192
  0
VERTEX
  5
C8
  8
0
 10
12.66699981689453
 20
20.38500022888184
 30
70.08999633789062
 70
   192
  0
VERTEX
  5
C9
  8
0
 10
12.96199989318848
 20
20.17200088500977
 30
69.87300109863281
 70
   192
  0
VERTEX
  5
CA
  8
0
 10
15.36100006103516
 20
18.44000053405762
 30
68.11399841308594
 70
   192
  0
VERTEX
  5
CB
  8
0
 10
8.71399974822998
 20
22.36199951171875
 30
72.09400177001953
 70
   192
  0
VERTEX
  5
CC
  8
0
 10
13.96000003814697
 20
44.6609992980957
 30
69.21399688720703
 70
   192
  0
VERTEX
  5
CD
  8
0
 10
7.650000095367432
 20
22.74799919128418
 30
72.48400115966797
 70
   192
  0
VERTEX
  5
CE
  8
0
 10
6.675000190734863
 20
22.98100090026855
 30
72.71900177001953
 70
   192
  0
VERTEX
  5
CF
  8
0
 10
23.34499931335449
 20
44.6609992980957
 30
53.32699966430664
 70
   192
  0
VERTEX
  5
D0
  8
0
 10
22.97699928283691
 20
6.931000232696533
 30
56.00899887084961
 70
   192
  0
VERTEX
  5
D1
  8
0
 10
23.49399948120117
 20
4.901000022888184
 30
53.47600173950195
 70
   192
  0
VERTEX
  5
D2
  8
0
 10
21.7450008392334
 20
9.934000015258789
 30
59.2760009765625
 70
   192
  0
VERTEX
  5
D3
  8
0
 10
21.22500038146973
 20
11.20300006866455
 30
60.65599822998047
 70
   192
  0
VERTEX
  5
D4
  8
0
 10
18.53800010681152
 20
15.24300003051758
 30
64.84700012207031
 70
   192
  0
VERTEX
  5
D5
  8
0
 10
20.56800079345703
 20
44.6609992980957
 30
61.875
 70
   192
  0
VERTEX
  5
D6
  8
0
 10
17.89800071716309
 20
15.88700008392334
 30
65.50399780273438
 70
   192
  0
VERTEX
  5
D7
  8
0
 10
23.6200008392334
 20
44.6609992980957
 30
52.48300170898438
 70
   192
  0
VERTEX
  5
D8
  8
0
 10
23.1870002746582
 20
6.196000099182129
 30
44.85699844360352
 70
   192
  0
VERTEX
  5
D9
  8
0
 10
21.96299934387207
 20
9.677000045776367
 30
40.96099853515625
 70
   192
  0
VERTEX
  5
DA
  8
0
 10
23.70299911499023
 20
3.760999917984009
 30
51.48699951171875
 70
   192
  0
VERTEX
  5
DB
  8
0
 10
23.74900054931641
 20
3.461999893188477
 30
50.2239990234375
 70
   192
  0
VERTEX
  5
DC
  8
0
 10
23.72599983215332
 20
3.618000030517578
 30
48.92599868774414
 70
   192
  0
VERTEX
  5
DD
  8
0
 10
23.50399971008301
 20
4.846000194549561
 30
53.38000106811523
 70
   192
  0
VERTEX
  5
DE
  8
0
 10
23.57799911499023
 20
4.480999946594238
 30
47.14699935913086
 70
   192
  0
VERTEX
  5
DF
  8
0
 10
22.58799934387207
 20
44.6609992980957
 30
42.6609992980957
 70
   192
  0
VERTEX
  5
E0
  8
0
 10
21.80400085449219
 20
9.954999923706055
 30
40.66999816894531
 70
   192
  0
VERTEX
  5
E1
  8
0
 10
21.5319995880127
 20
10.43000030517578
 30
40.17200088500977
 70
   192
  0
VERTEX
  5
E2
  8
0
 10
21.24699974060059
 20
44.6609992980957
 30
40.34000015258789
 70
   192
  0
VERTEX
  5
E3
  8
0
 10
17.64999961853027
 20
44.6609992980957
 30
34.10800170898438
 70
   192
  0
VERTEX
  5
E4
  8
0
 10
12.91899967193604
 20
20.09900093078613
 30
30.20100021362305
 70
   192
  0
VERTEX
  5
E5
  8
0
 10
12.7810001373291
 20
20.18400001525879
 30
30.11499977111816
 70
   192
  0
VERTEX
  5
E6
  8
0
 10
14.5
 20
19.125
 30
31.19000053405762
 70
   192
  0
VERTEX
  5
E7
  8
0
 10
12.55799961090088
 20
44.6609992980957
 30
30.40900039672852
 70
   192
  0
VERTEX
  5
E8
  8
0
 10
19.47699928283691
 20
14.02299976348877
 30
36.40999984741211
 70
   192
  0
VERTEX
  5
E9
  8
0
 10
16.20499992370605
 20
17.70299911499023
 30
32.63800048828125
 70
   192
  0
VERTEX
  5
EA
  8
0
 10
9.65999984741211
 20
44.6609992980957
 30
28.30299949645996
 70
   192
  0
VERTEX
  5
EB
  8
0
 10
4.74399995803833
 20
23.52700042724609
 30
26.72900009155273
 70
   192
  0
VERTEX
  5
EC
  8
0
 10
8.994999885559082
 20
22.25
 30
28.01899909973145
 70
   192
  0
VERTEX
  5
ED
  8
0
 10
10.5649995803833
 20
21.54999923706055
 30
28.72900009155273
 70
   192
  0
VERTEX
  5
EE
  8
0
 62
     9
 10
0.0
 20
0.0
 30
0.0
 70
   128
 71
     3
 72
     2
 73
     1
  0
VERTEX
  5
EF
  8
0
 62
     9
 10
0.0
 20
0.0
 30
0.0
 70
   128
 71
     1
 72
     4
 73
     3
  0
VERTEX
  5
F0
  8
0
 62
     9
 10
0.0
 20
0.0
 30
0.0
 70
   128
 71
     6
 72
     5
 73
     3
  0
VERTEX
  5
F1
  8
0
 62
     9
 10
0.0
 20
0.0
 30
0.0
 70
   128
 71
     3
 72
     4
 73
     6
  0
VERTEX
  5
F2
  8
0
 62
     9
 10
0.0
 20
0.0
 30
0.0
 70
   128
 71
     2
 72
     7
 73
     1
  0
VERTEX
  5
F3
  8
0
 62
     9
 10
0.0
 20
0.0
 30
0.0
 70
   128
 71
     6
 72
     8
 73
     5
  0
VERTEX
  5
F4
  8
0
 62
     9
 10
0.0
 20
0.0
 30
0.0
 70
   128
 71
    11
 72
    10
 73
     9
  0
VERTEX
  5
F5
  8
0
 62
     9
 10
0.0
 20
0.0
 30
0.0
 70
   128
 71
    13
 72
     2
 73
    12
  0
VERTEX
  5
F6
  8
0
 62
     9
 10
0.0
 20
0.0
 30
0.0
 70
   128
 71
    12
 72
    14
 73
    13
  0
VERTEX
  5
F7
  8
0
 62
     9
 10
0.0
 20
0.0
 30
0.0
 70
   128
 71
    12
 72
     9
 73
    15
  0
VERTEX
  5
F8
  8
0
 62
     9
 10
0.0
 20
0.0
 30
0.0
 70
   128
 71
    12
 72
    15
 73
    14
  0
VERTEX
  5
F9
  8
0
 62
     9
 10
0.0
 20
0.0
 30
0.0
 70
   128
 71
     9
 72
    10
 73
    15
  0
VERTEX
  5
FA
  8
0
 62
     9
 10
0.0
 20
0.0
 30
0.0
 70
   128
 71
    18
 72
    17
 73
    16
  0
VERTEX
  5
FB
  8
0
 62
     9
 10
0.0
 20
0.0
 30
0.0
 70
   128
 71
    17
 72
    19
 73
    16
  0
VERTEX
  5
FC
  8
0
 62
     9
 10
0.0
 20
0.0
 30
0.0
 70
   128
 71
    16
 72
    20
 73
    18
  0
VERTEX
  5
FD
  8
0
 62
     9
 10
0.0
 20
0.0
 30
0.0
 70
   128
 71
    16
 72
    21
 73
    20
  0
VERTEX
  5
FE
  8
0
 62
     9
 10
0.0
 20
0.0
 30
0.0
 70
   128
 71
    19
 72
    22
 73
    16
  0
VERTEX
  5
FF
  8
0
 62
     9
 10
0.0
 20
0.0
 30
0.0
 70
   128
 71
    22
 72
    23
 73
    16
  0
VERTEX
  5
100
  8
0
 62
     9
 10
0.0
 20
0.0
 30
0.0
 70
   128
 71
    23
 72
    24
 73
    16
  0
VERTEX
  5
101
  8
0
 62
     9
 10
0.0
 20
0.0
 30
0.0
 70
   128
 71
    26
 72
     9
 73
    25
  0
VERTEX
  5
102
  8
0
 62
     9
 10
0.0
 20
0.0
 30
0.0
 70
   128
 71
    25
 72
    27
 73
    24
  0
VERTEX
  5
103
  8
0
 62
     9
 10
0.0
 20
0.0
 30
0.0
 70
   128
 71
    27
 72
    16
 73
    24
  0
VERTEX
  5
104
  8
0
 62
     9
 10
0.0
 20
0.0
 30
0.0
 70
   128
 71
    25
 72
    24
 73
    26
  0
VERTEX
  5
105
  8
0
 62
     9
 10
0.0
 20
0.0
 30
0.0
 70
   128
 71
    30
 72
    29
 73
    28
  0
VERTEX
  5
106
  8
0
 62
     9
 10
0.0
 20
0.0
 30
0.0
 70
   128
 71
    28
 72
    31
 73
    30
  0
VERTEX
  5
107
  8
0
 62
     9
 10
0.0
 20
0.0
 30
0.0
 70
   128
 71
    33
 72
    32
 73
    16
  0
VERTEX
  5
108
  8
0
 62
     9
 10
0.0
 20
0.0
 30
0.0
 70
   128
 71
    16
 72
    34
 73
    33
  0
VERTEX
  5
109
  8
0
 62
     9
 10
0.0
 20
0.0
 30
0.0
 70
   128
 71
    16
 72
    35
 73
    34
  0
VERTEX
  5
10A
  8
0
 62
     9
 10
0.0
 20
0.0
 30
0.0
 70
   128
 71
    16
 72
    29
 73
    35
  0
VERTEX
  5
10B
  8
0
 62
     9
 10
0.0
 20
0.0
 30
0.0
 70
   128
 71
    38
 72
    37
 73
    36
  0
VERTEX
  5
10C
  8
0
 62
     9
 10
0.0
 20
0.0
 30
0.0
 70
   128
 71
    36
 72
    37
 73
    39
  0
VERTEX
  5
10D
  8
0
 62
     9
 10
0.0
 20
0.0
 30
0.0
 70
   128
 71
    41
 72
    40
 73
    31
  0
VERTEX
  5
10E
  8
0
 62
     9
 10
0.0
 20
0.0
 30
0.0
 70
   128
 71
    42
 72
    30
 73
    31
  0
VERTEX
  5
10F
  8
0
 62
     9
 10
0.0
 20
0.0
 30
0.0
 70
   128
 71
    31
 72
    40
 73
    42
  0
VERTEX
  5
110
  8
0
 62
     9
 10
0.0
 20
0.0
 30
0.0
 70
   128
 71
    31
 72
    39
 73
    41
  0
VERTEX
  5
111
  8
0
 62
     9
 10
0.0
 20
0.0
 30
0.0
 70
   128
 71
    39
 72
    31
 73
    36
  0
VERTEX
  5
112
  8
0
 62
     9
 10
0.0
 20
0.0
 30
0.0
 70
   128
 71
    45
 72
    44
 73
    43
  0
VERTEX
  5
113
  8
0
 62
     9
 10
0.0
 20
0.0
 30
0.0
 70
   128
 71
    43
 72
    46
 73
    45
  0
VERTEX
  5
114
  8
0
 62
     9
 10
0.0
 20
0.0
 30
0.0
 70
   128
 71
    48
 72
    47
 73
    45
  0
VERTEX
  5
115
  8
0
 62
     9
 10
0.0
 20
0.0
 30
0.0
 70
   128
 71
    48
 72
    49
 73
    47
  0
VERTEX
  5
116
  8
0
 62
     9
 10
0.0
 20
0.0
 30
0.0
 70
   128
 71
    45
 72
    46
 73
    48
  0
VERTEX
  5
117
  8
0
 62
     9
 10
0.0
 20
0.0
 30
0.0
 70
   128
 71
    47
 72
    49
 73
    50
  0
VERTEX
  5
118
  8
0
 62
     9
 10
0.0
 20
0.0
 30
0.0
 70
   128
 71
    50
 72
    51
 73
    47
  0
VERTEX
  5
119
  8
0
 62
     9
 10
0.0
 20
0.0
 30
0.0
 70
   128
 71
    50
 72
    38
 73
    51
  0
VERTEX
  5
11A
  8
0
 62
     9
 10
0.0
 20
0.0
 30
0.0
 70
   128
 71
    54
 72
    53
 73
    52
  0
VERTEX
  5
11B
  8
0
 62
     9
 10
0.0
 20
0.0
 30
0.0
 70
   128
 71
    52
 72
    55
 73
    54
  0
VERTEX
  5
11C
  8
0
 62
     9
 10
0.0
 20
0.0
 30
0.0
 70
   128
 71
    57
 72
    52
 73
    56
  0
VERTEX
  5
11D
  8
0
 62
     9
 10
0.0
 20
0.0
 30
0.0
 70
   128
 71
    56
 72
    58
 73
    57
  0
VERTEX
  5
11E
  8
0
 62
     9
 10
0.0
 20
0.0
 30
0.0
 70
   128
 71
    59
 72
    44
 73
    57
  0
VERTEX
  5
11F
  8
0
 62
     9
 10
0.0
 20
0.0
 30
0.0
 70
   128
 71
    57
 72
    58
 73
    59
  0
VERTEX
  5
120
  8
0
 62
     9
 10
0.0
 20
0.0
 30
0.0
 70
   128
 71
    52
 72
    53
 73
    56
  0
VERTEX
  5
121
  8
0
 62
     9
 10
0.0
 20
0.0
 30
0.0
 70
   128
 71
    62
 72
    61
 73
    60
  0
VERTEX
  5
122
  8
0
 62
     9
 10
0.0
 20
0.0
 30
0.0
 70
   128
 71
    61
 72
    63
 73
    60
  0
VERTEX
  5
123
  8
0
 62
     9
 10
0.0
 20
0.0
 30
0.0
 70
   128
 71
    63
 72
    64
 73
    60
  0
VERTEX
  5
124
  8
0
 62
     9
 10
0.0
 20
0.0
 30
0.0
 70
   128
 71
    64
 72
    65
 73
    60
  0
VERTEX
  5
125
  8
0
 62
     9
 10
0.0
 20
0.0
 30
0.0
 70
   128
 71
    67
 72
    52
 73
    66
  0
VERTEX
  5
126
  8
0
 62
     9
 10
0.0
 20
0.0
 30
0.0
 70
   128
 71
    66
 72
    60
 73
    65
  0
VERTEX
  5
127
  8
0
 62
     9
 10
0.0
 20
0.0
 30
0.0
 70
   128
 71
    66
 72
    65
 73
    67
  0
VERTEX
  5
128
  8
0
 62
     9
 10
0.0
 20
0.0
 30
0.0
 70
   128
 71
    70
 72
    69
 73
    68
  0
VERTEX
  5
129
  8
0
 62
     9
 10
0.0
 20
0.0
 30
0.0
 70
   128
 71
    72
 72
    71
 73
    68
  0
VERTEX
  5
12A
  8
0
 62
     9
 10
0.0
 20
0.0
 30
0.0
 70
   128
 71
    68
 72
    73
 73
    72
  0
VERTEX
  5
12B
  8
0
 62
     9
 10
0.0
 20
0.0
 30
0.0
 70
   128
 71
    71
 72
    74
 73
    68
  0
VERTEX
  5
12C
  8
0
 62
     9
 10
0.0
 20
0.0
 30
0.0
 70
   128
 71
    68
 72
    75
 73
    73
  0
VERTEX
  5
12D
  8
0
 62
     9
 10
0.0
 20
0.0
 30
0.0
 70
   128
 71
    68
 72
    69
 73
    75
  0
VERTEX
  5
12E
  8
0
 62
     9
 10
0.0
 20
0.0
 30
0.0
 70
   128
 71
    68
 72
    76
 73
    70
  0
VERTEX
  5
12F
  8
0
 62
     9
 10
0.0
 20
0.0
 30
0.0
 70
   128
 71
    78
 72
    77
 73
    76
  0
VERTEX
  5
130
  8
0
 62
     9
 10
0.0
 20
0.0
 30
0.0
 70
   128
 71
    77
 72
    70
 73
    76
  0
VERTEX
  5
131
  8
0
 62
     9
 10
0.0
 20
0.0
 30
0.0
 70
   128
 71
    76
 72
    79
 73
    78
  0
VERTEX
  5
132
  8
0
 62
     9
 10
0.0
 20
0.0
 30
0.0
 70
   128
 71
    82
 72
    81
 73
    80
  0
VERTEX
  5
133
  8
0
 62
     9
 10
0.0
 20
0.0
 30
0.0
 70
   128
 71
    81
 72
    83
 73
    80
  0
VERTEX
  5
134
  8
0
 62
     9
 10
0.0
 20
0.0
 30
0.0
 70
   128
 71
    80
 72
    84
 73
    82
  0
VERTEX
  5
135
  8
0
 62
     9
 10
0.0
 20
0.0
 30
0.0
 70
   128
 71
    86
 72
    85
 73
    79
  0
VERTEX
  5
136
  8
0
 62
     9
 10
0.0
 20
0.0
 30
0.0
 70
   128
 71
    79
 72
    83
 73
    86
  0
VERTEX
  5
137
  8
0
 62
     9
 10
0.0
 20
0.0
 30
0.0
 70
   128
 71
    85
 72
    78
 73
    79
  0
VERTEX
  5
138
  8
0
 62
     9
 10
0.0
 20
0.0
 30
0.0
 70
   128
 71
    88
 72
    87
 73
     5
  0
VERTEX
  5
139
  8
0
 62
     9
 10
0.0
 20
0.0
 30
0.0
 70
   128
 71
    87
 72
    88
 73
    89
  0
VERTEX
  5
13A
  8
0
 62
     9
 10
0.0
 20
0.0
 30
0.0
 70
   128
 71
    90
 72
    82
 73
    84
  0
VERTEX
  5
13B
  8
0
 62
     9
 10
0.0
 20
0.0
 30
0.0
 70
   128
 71
    84
 72
    89
 73
    90
  0
VERTEX
  5
13C
  8
0
 62
     9
 10
0.0
 20
0.0
 30
0.0
 70
   128
 71
    89
 72
    84
 73
    87
  0
VERTEX
  5
13D
  8
0
 62
     9
 10
0.0
 20
0.0
 30
0.0
 70
   128
 71
     5
 72
     8
 73
    88
  0
VERTEX
  5
13E
  8
0
 62
     9
 10
0.0
 20
0.0
 30
0.0
 70
   128
 71
    83
 72
    79
 73
    80
  0
VERTEX
  5
13F
  8
0
 62
     9
 10
0.0
 20
0.0
 30
0.0
 70
   128
 71
    74
 72
    60
 73
    68
  0
VERTEX
  5
140
  8
0
 62
     9
 10
0.0
 20
0.0
 30
0.0
 70
   128
 71
    60
 72
    74
 73
    62
  0
VERTEX
  5
141
  8
0
 62
     9
 10
0.0
 20
0.0
 30
0.0
 70
   128
 71
    52
 72
    67
 73
    55
  0
VERTEX
  5
142
  8
0
 62
     9
 10
0.0
 20
0.0
 30
0.0
 70
   128
 71
    44
 72
    59
 73
    43
  0
VERTEX
  5
143
  8
0
 62
     9
 10
0.0
 20
0.0
 30
0.0
 70
   128
 71
    36
 72
    51
 73
    38
  0
VERTEX
  5
144
  8
0
 62
     9
 10
0.0
 20
0.0
 30
0.0
 70
   128
 71
    29
 72
    16
 73
    28
  0
VERTEX
  5
145
  8
0
 62
     9
 10
0.0
 20
0.0
 30
0.0
 70
   128
 71
    16
 72
    32
 73
    21
  0
VERTEX
  5
146
  8
0
 62
     9
 10
0.0
 20
0.0
 30
0.0
 70
   128
 71
     9
 72
    26
 73
    11
  0
VERTEX
  5
147
  8
0
 62
     9
 10
0.0
 20
0.0
 30
0.0
 70
   128
 71
     2
 72
    13
 73
     7
  0
SEQEND
  5
148
  8
0
 62
     9
  0
ENDBLK
  5
14B
  8
0
  0
BLOCK
  8
0
  2
E3_NODE_2_
 70
     0
 10
0.0
 20
0.0
 30
0.0
  3
E3_NODE_2_
  1

  0
POLYLINE
  5
14D
  8
0
 62
     9
 66
     1
 10
0.0
 20
0.0
 30
0.0
 70
    64
 71
    87
 72
    89
  0
VERTEX
  5
14E
  8
0
 10
-18.13800048828125
 20
-15.71700000762939
 30
0.0
 70
   192
  0
VERTEX
  5
14F
  8
0
 10
-18.13800048828125
 20
-15.71700000762939
 30
100.0
 70
   192
  0
VERTEX
  5
150
  8
0
 10
-23.75600051879883
 20
-3.415999889373779
 30
100.0
 70
   192
  0
VERTEX
  5
151
  8
0
 10
-6.76200008392334
 20
-23.02799987792969
 30
0.0
 70
   192
  0
VERTEX
  5
152
  8
0
 10
-6.76200008392334
 20
-23.02799987792969
 30
100.0
 70
   192
  0
VERTEX
  5
153
  8
0
 10
6.76200008392334
 20
-23.02799987792969
 30
0.0
 70
   192
  0
VERTEX
  5
154
  8
0
 10
6.76200008392334
 20
-23.02799987792969
 30
100.0
 70
   192
  0
VERTEX
  5
155
  8
0
 10
18.13800048828125
 20
-15.71700000762939
 30
0.0
 70
   192
  0
VERTEX
  5
156
  8
0
 10
18.13800048828125
 20
-15.71700000762939
 30
100.0
 70
   192
  0
VERTEX
  5
157
  8
0
 10
23.75600051879883
 20
-3.415999889373779
 30
0.0
 70
   192
  0
VERTEX
  5
158
  8
0
 10
23.75600051879883
 20
-3.415999889373779
 30
100.0
 70
   192
  0
VERTEX
  5
159
  8
0
 10
12.97500038146973
 20
20.19000053405762
 30
0.0
 70
   192
  0
VERTEX
  5
15A
  8
0
 10
10.5649995803833
 20
21.54999923706055
 30
28.72900009155273
 70
   192
  0
VERTEX
  5
15B
  8
0
 10
12.7810001373291
 20
20.18400001525879
 30
30.11499977111816
 70
   192
  0
VERTEX
  5
15C
  8
0
 10
8.994999885559082
 20
22.25
 30
28.01899909973145
 70
   192
  0
VERTEX
  5
15D
  8
0
 10
4.74399995803833
 20
23.52700042724609
 30
26.72900009155273
 70
   192
  0
VERTEX
  5
15E
  8
0
 10
0.0
 20
24.0
 30
0.0
 70
   192
  0
VERTEX
  5
15F
  8
0
 10
0.0
 20
24.0
 30
26.25
 70
   192
  0
VERTEX
  5
160
  8
0
 10
21.83099937438965
 20
9.970000267028809
 30
0.0
 70
   192
  0
VERTEX
  5
161
  8
0
 10
19.47699928283691
 20
14.02299976348877
 30
36.40999984741211
 70
   192
  0
VERTEX
  5
162
  8
0
 10
21.5319995880127
 20
10.43000030517578
 30
40.17200088500977
 70
   192
  0
VERTEX
  5
163
  8
0
 10
14.5
 20
19.125
 30
31.19000053405762
 70
   192
  0
VERTEX
  5
164
  8
0
 10
16.20499992370605
 20
17.70299911499023
 30
32.63800048828125
 70
   192
  0
VERTEX
  5
165
  8
0
 10
12.91899967193604
 20
20.09900093078613
 30
30.20100021362305
 70
   192
  0
VERTEX
  5
166
  8
0
 10
22.97699928283691
 20
6.931000232696533
 30
56.00899887084961
 70
   192
  0
VERTEX
  5
167
  8
0
 10
21.7450008392334
 20
9.934000015258789
 30
59.2760009765625
 70
   192
  0
VERTEX
  5
168
  8
0
 10
23.49399948120117
 20
4.901000022888184
 30
53.47600173950195
 70
   192
  0
VERTEX
  5
169
  8
0
 10
23.70299911499023
 20
3.760999917984009
 30
51.48699951171875
 70
   192
  0
VERTEX
  5
16A
  8
0
 10
23.50399971008301
 20
4.846000194549561
 30
53.38000106811523
 70
   192
  0
VERTEX
  5
16B
  8
0
 10
23.74900054931641
 20
3.461999893188477
 30
50.2239990234375
 70
   192
  0
VERTEX
  5
16C
  8
0
 10
23.72599983215332
 20
3.618000030517578
 30
48.92599868774414
 70
   192
  0
VERTEX
  5
16D
  8
0
 10
21.80400085449219
 20
9.954999923706055
 30
40.66999816894531
 70
   192
  0
VERTEX
  5
16E
  8
0
 10
21.96299934387207
 20
9.677000045776367
 30
40.96099853515625
 70
   192
  0
VERTEX
  5
16F
  8
0
 10
23.1870002746582
 20
6.196000099182129
 30
44.85699844360352
 70
   192
  0
VERTEX
  5
170
  8
0
 10
23.57799911499023
 20
4.480999946594238
 30
47.14699935913086
 70
   192
  0
VERTEX
  5
171
  8
0
 10
21.83099937438965
 20
9.970000267028809
 30
100.0
 70
   192
  0
VERTEX
  5
172
  8
0
 10
15.36100006103516
 20
18.44000053405762
 30
68.11399841308594
 70
   192
  0
VERTEX
  5
173
  8
0
 10
12.96199989318848
 20
20.17200088500977
 30
69.87300109863281
 70
   192
  0
VERTEX
  5
174
  8
0
 10
18.53800010681152
 20
15.24300003051758
 30
64.84700012207031
 70
   192
  0
VERTEX
  5
175
  8
0
 10
17.89800071716309
 20
15.88700008392334
 30
65.50399780273438
 70
   192
  0
VERTEX
  5
176
  8
0
 10
21.22500038146973
 20
11.20300006866455
 30
60.65599822998047
 70
   192
  0
VERTEX
  5
177
  8
0
 10
0.0
 20
24.0
 30
100.0
 70
   192
  0
VERTEX
  5
178
  8
0
 10
12.97500038146973
 20
20.19000053405762
 30
100.0
 70
   192
  0
VERTEX
  5
179
  8
0
 10
3.428999900817871
 20
23.75399971008301
 30
73.5009994506836
 70
   192
  0
VERTEX
  5
17A
  8
0
 10
7.650000095367432
 20
22.74799919128418
 30
72.48400115966797
 70
   192
  0
VERTEX
  5
17B
  8
0
 10
6.675000190734863
 20
22.98100090026855
 30
72.71900177001953
 70
   192
  0
VERTEX
  5
17C
  8
0
 10
12.66699981689453
 20
20.38500022888184
 30
70.08999633789062
 70
   192
  0
VERTEX
  5
17D
  8
0
 10
8.71399974822998
 20
22.36199951171875
 30
72.09400177001953
 70
   192
  0
VERTEX
  5
17E
  8
0
 10
2.160000085830688
 20
23.90299987792969
 30
73.6520004272461
 70
   192
  0
VERTEX
  5
17F
  8
0
 10
-12.97500038146973
 20
20.19000053405762
 30
100.0
 70
   192
  0
VERTEX
  5
180
  8
0
 10
-8.487000465393066
 20
22.44899940490723
 30
72.18199920654297
 70
   192
  0
VERTEX
  5
181
  8
0
 10
-10.02799987792969
 20
21.80500030517578
 30
71.52899932861328
 70
   192
  0
VERTEX
  5
182
  8
0
 10
-4.218999862670898
 20
23.62599945068359
 30
73.37200164794922
 70
   192
  0
VERTEX
  5
183
  8
0
 10
-6.664000034332275
 20
22.95199966430664
 30
72.69000244140625
 70
   192
  0
VERTEX
  5
184
  8
0
 10
-2.213000059127808
 20
23.89800071716309
 30
73.64700317382812
 70
   192
  0
VERTEX
  5
185
  8
0
 10
0.0
 20
23.89999961853027
 30
73.64900207519531
 70
   192
  0
VERTEX
  5
186
  8
0
 10
-21.83099937438965
 20
9.970000267028809
 30
100.0
 70
   192
  0
VERTEX
  5
187
  8
0
 10
-15.69200038909912
 20
18.15900039672852
 30
67.8270034790039
 70
   192
  0
VERTEX
  5
188
  8
0
 10
-17.86199951171875
 20
15.85799980163574
 30
65.4729995727539
 70
   192
  0
VERTEX
  5
189
  8
0
 10
-14.00500011444092
 20
19.48999977111816
 30
69.18199920654297
 70
   192
  0
VERTEX
  5
18A
  8
0
 10
-12.93099975585938
 20
20.11499977111816
 30
69.81500244140625
 70
   192
  0
VERTEX
  5
18B
  8
0
 10
-19.05100059509277
 20
14.59700012207031
 30
64.18199920654297
 70
   192
  0
VERTEX
  5
18C
  8
0
 10
-21.50600051879883
 20
10.65299987792969
 30
60.07699966430664
 70
   192
  0
VERTEX
  5
18D
  8
0
 10
-23.75600051879883
 20
-3.415999889373779
 30
0.0
 70
   192
  0
VERTEX
  5
18E
  8
0
 10
-22.4689998626709
 20
8.434000015258789
 30
42.30599975585938
 70
   192
  0
VERTEX
  5
18F
  8
0
 10
-21.73800086975098
 20
9.925000190734863
 30
40.72299957275391
 70
   192
  0
VERTEX
  5
190
  8
0
 10
-23.27799987792969
 20
5.841000080108643
 30
45.29100036621094
 70
   192
  0
VERTEX
  5
191
  8
0
 10
-23.4109992980957
 20
5.282999992370605
 30
46.00400161743164
 70
   192
  0
VERTEX
  5
192
  8
0
 10
-23.71500015258789
 20
3.688999891281128
 30
48.70800018310547
 70
   192
  0
VERTEX
  5
193
  8
0
 10
-23.7189998626709
 20
3.663000106811523
 30
51.21799850463867
 70
   192
  0
VERTEX
  5
194
  8
0
 10
-23.75
 20
3.454999923706055
 30
49.95800018310547
 70
   192
  0
VERTEX
  5
195
  8
0
 10
-22.98399925231934
 20
6.907999992370605
 30
55.98199844360352
 70
   192
  0
VERTEX
  5
196
  8
0
 10
-23.49399948120117
 20
4.85699987411499
 30
53.37699890136719
 70
   192
  0
VERTEX
  5
197
  8
0
 10
-21.78300094604492
 20
9.951000213623047
 30
59.30899810791016
 70
   192
  0
VERTEX
  5
198
  8
0
 10
-23.54299926757812
 20
4.658999919891357
 30
53.12599945068359
 70
   192
  0
VERTEX
  5
199
  8
0
 10
-21.83099937438965
 20
9.970000267028809
 30
0.0
 70
   192
  0
VERTEX
  5
19A
  8
0
 10
-14.30300045013428
 20
19.27199935913086
 30
31.04000091552734
 70
   192
  0
VERTEX
  5
19B
  8
0
 10
-12.94799995422363
 20
20.14800071716309
 30
30.15099906921387
 70
   192
  0
VERTEX
  5
19C
  8
0
 10
-17.63599967956543
 20
16.27799987792969
 30
34.09299850463867
 70
   192
  0
VERTEX
  5
19D
  8
0
 10
-20.43000030517578
 20
12.5939998626709
 30
37.88999938964844
 70
   192
  0
VERTEX
  5
19E
  8
0
 10
-21.49099922180176
 20
10.43099975585938
 30
40.18600082397461
 70
   192
  0
VERTEX
  5
19F
  8
0
 10
-12.97500038146973
 20
20.19000053405762
 30
0.0
 70
   192
  0
VERTEX
  5
1A0
  8
0
 10
-6.241000175476074
 20
23.17399978637695
 30
27.08499908447266
 70
   192
  0
VERTEX
  5
1A1
  8
0
 10
-1.973999977111816
 20
23.91900062561035
 30
26.33200073242188
 70
   192
  0
VERTEX
  5
1A2
  8
0
 10
-11.71100044250488
 20
20.94899940490723
 30
29.33799934387207
 70
   192
  0
VERTEX
  5
1A3
  8
0
 10
-7.710000038146973
 20
22.72800064086914
 30
27.5359992980957
 70
   192
  0
VERTEX
  5
1A4
  8
0
 10
-12.8129997253418
 20
20.23600006103516
 30
30.0620002746582
 70
   192
  0
VERTEX
  5
1A5
  8
0
 62
     9
 10
0.0
 20
0.0
 30
0.0
 70
   128
 71
     3
 72
     2
 73
     1
  0
VERTEX
  5
1A6
  8
0
 62
     9
 10
0.0
 20
0.0
 30
0.0
 70
   128
 71
     2
 72
     5
 73
     4
  0
VERTEX
  5
1A7
  8
0
 62
     9
 10
0.0
 20
0.0
 30
0.0
 70
   128
 71
     5
 72
     7
 73
     6
  0
VERTEX
  5
1A8
  8
0
 62
     9
 10
0.0
 20
0.0
 30
0.0
 70
   128
 71
     7
 72
     9
 73
     8
  0
VERTEX
  5
1A9
  8
0
 62
     9
 10
0.0
 20
0.0
 30
0.0
 70
   128
 71
     9
 72
    11
 73
    10
  0
VERTEX
  5
1AA
  8
0
 62
     9
 10
0.0
 20
0.0
 30
0.0
 70
   128
 71
    14
 72
    13
 73
    12
  0
VERTEX
  5
1AB
  8
0
 62
     9
 10
0.0
 20
0.0
 30
0.0
 70
   128
 71
    13
 72
    15
 73
    12
  0
VERTEX
  5
1AC
  8
0
 62
     9
 10
0.0
 20
0.0
 30
0.0
 70
   128
 71
    15
 72
    16
 73
    12
  0
VERTEX
  5
1AD
  8
0
 62
     9
 10
0.0
 20
0.0
 30
0.0
 70
   128
 71
    16
 72
    18
 73
    17
  0
VERTEX
  5
1AE
  8
0
 62
     9
 10
0.0
 20
0.0
 30
0.0
 70
   128
 71
    17
 72
    12
 73
    16
  0
VERTEX
  5
1AF
  8
0
 62
     9
 10
0.0
 20
0.0
 30
0.0
 70
   128
 71
    21
 72
    20
 73
    19
  0
VERTEX
  5
1B0
  8
0
 62
     9
 10
0.0
 20
0.0
 30
0.0
 70
   128
 71
    23
 72
    22
 73
    19
  0
VERTEX
  5
1B1
  8
0
 62
     9
 10
0.0
 20
0.0
 30
0.0
 70
   128
 71
    24
 72
    12
 73
    19
  0
VERTEX
  5
1B2
  8
0
 62
     9
 10
0.0
 20
0.0
 30
0.0
 70
   128
 71
    19
 72
    22
 73
    24
  0
VERTEX
  5
1B3
  8
0
 62
     9
 10
0.0
 20
0.0
 30
0.0
 70
   128
 71
    19
 72
    20
 73
    23
  0
VERTEX
  5
1B4
  8
0
 62
     9
 10
0.0
 20
0.0
 30
0.0
 70
   128
 71
    26
 72
    25
 73
    11
  0
VERTEX
  5
1B5
  8
0
 62
     9
 10
0.0
 20
0.0
 30
0.0
 70
   128
 71
    25
 72
    27
 73
    11
  0
VERTEX
  5
1B6
  8
0
 62
     9
 10
0.0
 20
0.0
 30
0.0
 70
   128
 71
    29
 72
    28
 73
    11
  0
VERTEX
  5
1B7
  8
0
 62
     9
 10
0.0
 20
0.0
 30
0.0
 70
   128
 71
    11
 72
    27
 73
    29
  0
VERTEX
  5
1B8
  8
0
 62
     9
 10
0.0
 20
0.0
 30
0.0
 70
   128
 71
    28
 72
    30
 73
    11
  0
VERTEX
  5
1B9
  8
0
 62
     9
 10
0.0
 20
0.0
 30
0.0
 70
   128
 71
    30
 72
    31
 73
    10
  0
VERTEX
  5
1BA
  8
0
 62
     9
 10
0.0
 20
0.0
 30
0.0
 70
   128
 71
    32
 72
    19
 73
    10
  0
VERTEX
  5
1BB
  8
0
 62
     9
 10
0.0
 20
0.0
 30
0.0
 70
   128
 71
    10
 72
    33
 73
    32
  0
VERTEX
  5
1BC
  8
0
 62
     9
 10
0.0
 20
0.0
 30
0.0
 70
   128
 71
    10
 72
    34
 73
    33
  0
VERTEX
  5
1BD
  8
0
 62
     9
 10
0.0
 20
0.0
 30
0.0
 70
   128
 71
    10
 72
    35
 73
    34
  0
VERTEX
  5
1BE
  8
0
 62
     9
 10
0.0
 20
0.0
 30
0.0
 70
   128
 71
    10
 72
    31
 73
    35
  0
VERTEX
  5
1BF
  8
0
 62
     9
 10
0.0
 20
0.0
 30
0.0
 70
   128
 71
    10
 72
    11
 73
    30
  0
VERTEX
  5
1C0
  8
0
 62
     9
 10
0.0
 20
0.0
 30
0.0
 70
   128
 71
    38
 72
    37
 73
    36
  0
VERTEX
  5
1C1
  8
0
 62
     9
 10
0.0
 20
0.0
 30
0.0
 70
   128
 71
    40
 72
    39
 73
    36
  0
VERTEX
  5
1C2
  8
0
 62
     9
 10
0.0
 20
0.0
 30
0.0
 70
   128
 71
    36
 72
    37
 73
    40
  0
VERTEX
  5
1C3
  8
0
 62
     9
 10
0.0
 20
0.0
 30
0.0
 70
   128
 71
    39
 72
    41
 73
    36
  0
VERTEX
  5
1C4
  8
0
 62
     9
 10
0.0
 20
0.0
 30
0.0
 70
   128
 71
    41
 72
    26
 73
    36
  0
VERTEX
  5
1C5
  8
0
 62
     9
 10
0.0
 20
0.0
 30
0.0
 70
   128
 71
    44
 72
    43
 73
    42
  0
VERTEX
  5
1C6
  8
0
 62
     9
 10
0.0
 20
0.0
 30
0.0
 70
   128
 71
    46
 72
    45
 73
    43
  0
VERTEX
  5
1C7
  8
0
 62
     9
 10
0.0
 20
0.0
 30
0.0
 70
   128
 71
    48
 72
    47
 73
    43
  0
VERTEX
  5
1C8
  8
0
 62
     9
 10
0.0
 20
0.0
 30
0.0
 70
   128
 71
    43
 72
    45
 73
    48
  0
VERTEX
  5
1C9
  8
0
 62
     9
 10
0.0
 20
0.0
 30
0.0
 70
   128
 71
    43
 72
    44
 73
    46
  0
VERTEX
  5
1CA
  8
0
 62
     9
 10
0.0
 20
0.0
 30
0.0
 70
   128
 71
    42
 72
    49
 73
    44
  0
VERTEX
  5
1CB
  8
0
 62
     9
 10
0.0
 20
0.0
 30
0.0
 70
   128
 71
    47
 72
    38
 73
    43
  0
VERTEX
  5
1CC
  8
0
 62
     9
 10
0.0
 20
0.0
 30
0.0
 70
   128
 71
    52
 72
    51
 73
    50
  0
VERTEX
  5
1CD
  8
0
 62
     9
 10
0.0
 20
0.0
 30
0.0
 70
   128
 71
    54
 72
    53
 73
    50
  0
VERTEX
  5
1CE
  8
0
 62
     9
 10
0.0
 20
0.0
 30
0.0
 70
   128
 71
    50
 72
    51
 73
    54
  0
VERTEX
  5
1CF
  8
0
 62
     9
 10
0.0
 20
0.0
 30
0.0
 70
   128
 71
    55
 72
    42
 73
    50
  0
VERTEX
  5
1D0
  8
0
 62
     9
 10
0.0
 20
0.0
 30
0.0
 70
   128
 71
    50
 72
    53
 73
    55
  0
VERTEX
  5
1D1
  8
0
 62
     9
 10
0.0
 20
0.0
 30
0.0
 70
   128
 71
    55
 72
    56
 73
    42
  0
VERTEX
  5
1D2
  8
0
 62
     9
 10
0.0
 20
0.0
 30
0.0
 70
   128
 71
    59
 72
    58
 73
    57
  0
VERTEX
  5
1D3
  8
0
 62
     9
 10
0.0
 20
0.0
 30
0.0
 70
   128
 71
    58
 72
    60
 73
    57
  0
VERTEX
  5
1D4
  8
0
 62
     9
 10
0.0
 20
0.0
 30
0.0
 70
   128
 71
    61
 72
    50
 73
    57
  0
VERTEX
  5
1D5
  8
0
 62
     9
 10
0.0
 20
0.0
 30
0.0
 70
   128
 71
    57
 72
    60
 73
    61
  0
VERTEX
  5
1D6
  8
0
 62
     9
 10
0.0
 20
0.0
 30
0.0
 70
   128
 71
    57
 72
    62
 73
    59
  0
VERTEX
  5
1D7
  8
0
 62
     9
 10
0.0
 20
0.0
 30
0.0
 70
   128
 71
    57
 72
    63
 73
    62
  0
VERTEX
  5
1D8
  8
0
 62
     9
 10
0.0
 20
0.0
 30
0.0
 70
   128
 71
    66
 72
    65
 73
    64
  0
VERTEX
  5
1D9
  8
0
 62
     9
 10
0.0
 20
0.0
 30
0.0
 70
   128
 71
    65
 72
    67
 73
    64
  0
VERTEX
  5
1DA
  8
0
 62
     9
 10
0.0
 20
0.0
 30
0.0
 70
   128
 71
    67
 72
    68
 73
    64
  0
VERTEX
  5
1DB
  8
0
 62
     9
 10
0.0
 20
0.0
 30
0.0
 70
   128
 71
    68
 72
    69
 73
    64
  0
VERTEX
  5
1DC
  8
0
 62
     9
 10
0.0
 20
0.0
 30
0.0
 70
   128
 71
    71
 72
    70
 73
     3
  0
VERTEX
  5
1DD
  8
0
 62
     9
 10
0.0
 20
0.0
 30
0.0
 70
   128
 71
    73
 72
    72
 73
     3
  0
VERTEX
  5
1DE
  8
0
 62
     9
 10
0.0
 20
0.0
 30
0.0
 70
   128
 71
    74
 72
    57
 73
     3
  0
VERTEX
  5
1DF
  8
0
 62
     9
 10
0.0
 20
0.0
 30
0.0
 70
   128
 71
     3
 72
    72
 73
    74
  0
VERTEX
  5
1E0
  8
0
 62
     9
 10
0.0
 20
0.0
 30
0.0
 70
   128
 71
     3
 72
    75
 73
    73
  0
VERTEX
  5
1E1
  8
0
 62
     9
 10
0.0
 20
0.0
 30
0.0
 70
   128
 71
     3
 72
    70
 73
    75
  0
VERTEX
  5
1E2
  8
0
 62
     9
 10
0.0
 20
0.0
 30
0.0
 70
   128
 71
     3
 72
    64
 73
    71
  0
VERTEX
  5
1E3
  8
0
 62
     9
 10
0.0
 20
0.0
 30
0.0
 70
   128
 71
    64
 72
    69
 73
    71
  0
VERTEX
  5
1E4
  8
0
 62
     9
 10
0.0
 20
0.0
 30
0.0
 70
   128
 71
    78
 72
    77
 73
    76
  0
VERTEX
  5
1E5
  8
0
 62
     9
 10
0.0
 20
0.0
 30
0.0
 70
   128
 71
    77
 72
    79
 73
    76
  0
VERTEX
  5
1E6
  8
0
 62
     9
 10
0.0
 20
0.0
 30
0.0
 70
   128
 71
    79
 72
    80
 73
    76
  0
VERTEX
  5
1E7
  8
0
 62
     9
 10
0.0
 20
0.0
 30
0.0
 70
   128
 71
    81
 72
    66
 73
    76
  0
VERTEX
  5
1E8
  8
0
 62
     9
 10
0.0
 20
0.0
 30
0.0
 70
   128
 71
    76
 72
    80
 73
    81
  0
VERTEX
  5
1E9
  8
0
 62
     9
 10
0.0
 20
0.0
 30
0.0
 70
   128
 71
    84
 72
    83
 73
    82
  0
VERTEX
  5
1EA
  8
0
 62
     9
 10
0.0
 20
0.0
 30
0.0
 70
   128
 71
    86
 72
    85
 73
    82
  0
VERTEX
  5
1EB
  8
0
 62
     9
 10
0.0
 20
0.0
 30
0.0
 70
   128
 71
    82
 72
    83
 73
    86
  0
VERTEX
  5
1EC
  8
0
 62
     9
 10
0.0
 20
0.0
 30
0.0
 70
   128
 71
    87
 72
    78
 73
    82
  0
VERTEX
  5
1ED
  8
0
 62
     9
 10
0.0
 20
0.0
 30
0.0
 70
   128
 71
    82
 72
    85
 73
    87
  0
VERTEX
  5
1EE
  8
0
 62
     9
 10
0.0
 20
0.0
 30
0.0
 70
   128
 71
    82
 72
    17
 73
    84
  0
VERTEX
  5
1EF
  8
0
 62
     9
 10
0.0
 20
0.0
 30
0.0
 70
   128
 71
    17
 72
    18
 73
    84
  0
VERTEX
  5
1F0
  8
0
 62
     9
 10
0.0
 20
0.0
 30
0.0
 70
   128
 71
    76
 72
    82
 73
    78
  0
VERTEX
  5
1F1
  8
0
 62
     9
 10
0.0
 20
0.0
 30
0.0
 70
   128
 71
    64
 72
    76
 73
    66
  0
VERTEX
  5
1F2
  8
0
 62
     9
 10
0.0
 20
0.0
 30
0.0
 70
   128
 71
    57
 72
    74
 73
    63
  0
VERTEX
  5
1F3
  8
0
 62
     9
 10
0.0
 20
0.0
 30
0.0
 70
   128
 71
    50
 72
    61
 73
    52
  0
VERTEX
  5
1F4
  8
0
 62
     9
 10
0.0
 20
0.0
 30
0.0
 70
   128
 71
    42
 72
    56
 73
    49
  0
VERTEX
  5
1F5
  8
0
 62
     9
 10
0.0
 20
0.0
 30
0.0
 70
   128
 71
    36
 72
    43
 73
    38
  0
VERTEX
  5
1F6
  8
0
 62
     9
 10
0.0
 20
0.0
 30
0.0
 70
   128
 71
    11
 72
    36
 73
    26
  0
VERTEX
  5
1F7
  8
0
 62
     9
 10
0.0
 20
0.0
 30
0.0
 70
   128
 71
    19
 72
    32
 73
    21
  0
VERTEX
  5
1F8
  8
0
 62
     9
 10
0.0
 20
0.0
 30
0.0
 70
   128
 71
    12
 72
    24
 73
    14
  0
VERTEX
  5
1F9
  8
0
 62
     9
 10
0.0
 20
0.0
 30
0.0
 70
   128
 71
    10
 72
     8
 73
     9
  0
VERTEX
  5
1FA
  8
0
 62
     9
 10
0.0
 20
0.0
 30
0.0
 70
   128
 71
     8
 72
     6
 73
     7
  0
VERTEX
  5
1FB
  8
0
 62
     9
 10
0.0
 20
0.0
 30
0.0
 70
   128
 71
     6
 72
     4
 73
     5
  0
VERTEX
  5
1FC
  8
0
 62
     9
 10
0.0
 20
0.0
 30
0.0
 70
   128
 71
     4
 72
     1
 73
     2
  0
VERTEX
  5
1FD
  8
0
 62
     9
 10
0.0
 20
0.0
 30
0.0
 70
   128
 71
     1
 72
    64
 73
     3
  0
SEQEND
  5
1FE
  8
0
 62
     9
  0
ENDBLK
  5
201
  8
0
  0
BLOCK
  8
0
  2
E3_NODE_3_
 70
     0
 10
0.0
 20
0.0
 30
0.0
  3
E3_NODE_3_
  1

  0
POLYLINE
  5
203
  8
0
 62
     9
 66
     1
 10
0.0
 20
0.0
 30
0.0
 70
    64
 71
    11
 72
     9
  0
VERTEX
  5
204
  8
0
 10
0.0
 20
24.0
 30
100.0
 70
   192
  0
VERTEX
  5
205
  8
0
 10
23.75600051879883
 20
-3.415999889373779
 30
100.0
 70
   192
  0
VERTEX
  5
206
  8
0
 10
21.83099937438965
 20
9.970000267028809
 30
100.0
 70
   192
  0
VERTEX
  5
207
  8
0
 10
18.13800048828125
 20
-15.71700000762939
 30
100.0
 70
   192
  0
VERTEX
  5
208
  8
0
 10
-6.76200008392334
 20
-23.02799987792969
 30
100.0
 70
   192
  0
VERTEX
  5
209
  8
0
 10
6.76200008392334
 20
-23.02799987792969
 30
100.0
 70
   192
  0
VERTEX
  5
20A
  8
0
 10
-21.83099937438965
 20
9.970000267028809
 30
100.0
 70
   192
  0
VERTEX
  5
20B
  8
0
 10
-23.75600051879883
 20
-3.415999889373779
 30
100.0
 70
   192
  0
VERTEX
  5
20C
  8
0
 10
-12.97500038146973
 20
20.19000053405762
 30
100.0
 70
   192
  0
VERTEX
  5
20D
  8
0
 10
-18.13800048828125
 20
-15.71700000762939
 30
100.0
 70
   192
  0
VERTEX
  5
20E
  8
0
 10
12.97500038146973
 20
20.19000053405762
 30
100.0
 70
   192
  0
VERTEX
  5
20F
  8
0
 62
     9
 10
0.0
 20
0.0
 30
0.0
 70
   128
 71
     3
 72
     2
 73
     1
  0
VERTEX
  5
210
  8
0
 62
     9
 10
0.0
 20
0.0
 30
0.0
 70
   128
 71
     2
 72
     4
 73
     1
  0
VERTEX
  5
211
  8
0
 62
     9
 10
0.0
 20
0.0
 30
0.0
 70
   128
 71
     6
 72
     5
 73
     1
  0
VERTEX
  5
212
  8
0
 62
     9
 10
0.0
 20
0.0
 30
0.0
 70
   128
 71
     8
 72
     7
 73
     5
  0
VERTEX
  5
213
  8
0
 62
     9
 10
0.0
 20
0.0
 30
0.0
 70
   128
 71
     9
 72
     1
 73
     5
  0
VERTEX
  5
214
  8
0
 62
     9
 10
0.0
 20
0.0
 30
0.0
 70
   128
 71
     1
 72
     4
 73
     6
  0
VERTEX
  5
215
  8
0
 62
     9
 10
0.0
 20
0.0
 30
0.0
 70
   128
 71
     5
 72
     7
 73
     9
  0
VERTEX
  5
216
  8
0
 62
     9
 10
0.0
 20
0.0
 30
0.0
 70
   128
 71
     5
 72
    10
 73
     8
  0
VERTEX
  5
217
  8
0
 62
     9
 10
0.0
 20
0.0
 30
0.0
 70
   128
 71
     1
 72
    11
 73
     3
  0
SEQEND
  5
218
  8
0
 62
     9
  0
ENDBLK
  5
21B
  8
0
  0
BLOCK
  8
0
  2
E3_NODE_4_
 70
     0
 10
0.0
 20
0.0
 30
0.0
  3
E3_NODE_4_
  1

  0
POLYLINE
  5
21D
  8
0
 62
     9
 66
     1
 10
0.0
 20
0.0
 30
0.0
 70
    64
 71
    11
 72
     9
  0
VERTEX
  5
21E
  8
0
 10
-6.76200008392334
 20
-23.02799987792969
 30
0.0
 70
   192
  0
VERTEX
  5
21F
  8
0
 10
23.75600051879883
 20
-3.415999889373779
 30
0.0
 70
   192
  0
VERTEX
  5
220
  8
0
 10
18.13800048828125
 20
-15.71700000762939
 30
0.0
 70
   192
  0
VERTEX
  5
221
  8
0
 10
-21.83099937438965
 20
9.970000267028809
 30
0.0
 70
   192
  0
VERTEX
  5
222
  8
0
 10
-12.97500038146973
 20
20.19000053405762
 30
0.0
 70
   192
  0
VERTEX
  5
223
  8
0
 10
-18.13800048828125
 20
-15.71700000762939
 30
0.0
 70
   192
  0
VERTEX
  5
224
  8
0
 10
21.83099937438965
 20
9.970000267028809
 30
0.0
 70
   192
  0
VERTEX
  5
225
  8
0
 10
0.0
 20
24.0
 30
0.0
 70
   192
  0
VERTEX
  5
226
  8
0
 10
12.97500038146973
 20
20.19000053405762
 30
0.0
 70
   192
  0
VERTEX
  5
227
  8
0
 10
-23.75600051879883
 20
-3.415999889373779
 30
0.0
 70
   192
  0
VERTEX
  5
228
  8
0
 10
6.76200008392334
 20
-23.02799987792969
 30
0.0
 70
   192
  0
VERTEX
  5
229
  8
0
 62
     9
 10
0.0
 20
0.0
 30
0.0
 70
   128
 71
     3
 72
     2
 73
     1
  0
VERTEX
  5
22A
  8
0
 62
     9
 10
0.0
 20
0.0
 30
0.0
 70
   128
 71
     5
 72
     4
 73
     1
  0
VERTEX
  5
22B
  8
0
 62
     9
 10
0.0
 20
0.0
 30
0.0
 70
   128
 71
     6
 72
     1
 73
     4
  0
VERTEX
  5
22C
  8
0
 62
     9
 10
0.0
 20
0.0
 30
0.0
 70
   128
 71
     2
 72
     7
 73
     1
  0
VERTEX
  5
22D
  8
0
 62
     9
 10
0.0
 20
0.0
 30
0.0
 70
   128
 71
     9
 72
     8
 73
     1
  0
VERTEX
  5
22E
  8
0
 62
     9
 10
0.0
 20
0.0
 30
0.0
 70
   128
 71
     4
 72
    10
 73
     6
  0
VERTEX
  5
22F
  8
0
 62
     9
 10
0.0
 20
0.0
 30
0.0
 70
   128
 71
     1
 72
     7
 73
     9
  0
VERTEX
  5
230
  8
0
 62
     9
 10
0.0
 20
0.0
 30
0.0
 70
   128
 71
     1
 72
    11
 73
     3
  0
VERTEX
  5
231
  8
0
 62
     9
 10
0.0
 20
0.0
 30
0.0
 70
   128
 71
     1
 72
     8
 73
     5
  0
SEQEND
  5
232
  8
0
 62
     9
  0
ENDBLK
  5
235
  8
0
  0
BLOCK
  8
0
  2
E3_NODE_5_
 70
     0
 10
0.0
 20
0.0
 30
0.0
  3
E3_NODE_5_
  1

  0
POLYLINE
  5
237
  8
0
 62
     9
 66
     1
 10
0.0
 20
0.0
 30
0.0
 70
    64
 71
    12
 72
    10
  0
VERTEX
  5
238
  8
0
 10
20.94400024414062
 20
48.47800064086914
 30
36.32699966430664
 70
   192
  0
VERTEX
  5
239
  8
0
 10
-17.04299926757812
 20
48.47800064086914
 30
31.67300033569336
 70
   192
  0
VERTEX
  5
23A
  8
0
 10
-4.347000122070312
 20
48.47800064086914
 30
25.34900093078613
 70
   192
  0
VERTEX
  5
23B
  8
0
 10
-13.88300037384033
 20
48.47800064086914
 30
70.76300048828125
 70
   192
  0
VERTEX
  5
23C
  8
0
 10
22.9419994354248
 20
48.47800064086914
 30
59.88800048828125
 70
   192
  0
VERTEX
  5
23D
  8
0
 10
13.6899995803833
 20
48.47800064086914
 30
70.88400268554688
 70
   192
  0
VERTEX
  5
23E
  8
0
 10
-24.29899978637695
 20
48.47800064086914
 30
44.06900024414062
 70
   192
  0
VERTEX
  5
23F
  8
0
 10
24.61499977111816
 20
48.47800064086914
 30
45.62799835205078
 70
   192
  0
VERTEX
  5
240
  8
0
 10
-23.79800033569336
 20
48.47800064086914
 30
57.64599990844727
 70
   192
  0
VERTEX
  5
241
  8
0
 10
-15.68599987030029
 20
48.47800064086914
 30
69.43900299072266
 70
   192
  0
VERTEX
  5
242
  8
0
 10
-0.0879999995231628
 20
48.47800064086914
 30
74.96900177001953
 70
   192
  0
VERTEX
  5
243
  8
0
 10
9.972999572753906
 20
48.47800064086914
 30
27.04700088500977
 70
   192
  0
VERTEX
  5
244
  8
0
 62
     9
 10
0.0
 20
0.0
 30
0.0
 70
   128
 71
     3
 72
     2
 73
     1
  0
VERTEX
  5
245
  8
0
 62
     9
 10
0.0
 20
0.0
 30
0.0
 70
   128
 71
     6
 72
     5
 73
     4
  0
VERTEX
  5
246
  8
0
 62
     9
 10
0.0
 20
0.0
 30
0.0
 70
   128
 71
     2
 72
     7
 73
     1
  0
VERTEX
  5
247
  8
0
 62
     9
 10
0.0
 20
0.0
 30
0.0
 70
   128
 71
     5
 72
     8
 73
     4
  0
VERTEX
  5
248
  8
0
 62
     9
 10
0.0
 20
0.0
 30
0.0
 70
   128
 71
     7
 72
     9
 73
     1
  0
VERTEX
  5
249
  8
0
 62
     9
 10
0.0
 20
0.0
 30
0.0
 70
   128
 71
     8
 72
     1
 73
     4
  0
VERTEX
  5
24A
  8
0
 62
     9
 10
0.0
 20
0.0
 30
0.0
 70
   128
 71
     9
 72
    10
 73
     1
  0
VERTEX
  5
24B
  8
0
 62
     9
 10
0.0
 20
0.0
 30
0.0
 70
   128
 71
     4
 72
    11
 73
     6
  0
VERTEX
  5
24C
  8
0
 62
     9
 10
0.0
 20
0.0
 30
0.0
 70
   128
 71
     1
 72
    10
 73
     4
  0
VERTEX
  5
24D
  8
0
 62
     9
 10
0.0
 20
0.0
 30
0.0
 70
   128
 71
     1
 72
    12
 73
     3
  0
SEQEND
  5
24E
  8
0
 62
     9
  0
ENDBLK
  5
251
  8
0
  0
BLOCK
  8
0
  2
E3_NODE_6_
 70
     0
 10
0.0
 20
0.0
 30
0.0
  3
E3_NODE_6_
  1

  0
POLYLINE
  5
253
  8
0
 62
     9
 66
     1
 10
0.0
 20
0.0
 30
0.0
 70
    64
 71
    81
 72
    83
  0
VERTEX
  5
254
  8
0
 10
-13.88300037384033
 20
48.47800064086914
 30
70.76300048828125
 70
   192
  0
VERTEX
  5
255
  8
0
 10
-10.27400016784668
 20
78.7300033569336
 30
72.76300048828125
 70
   192
  0
VERTEX
  5
256
  8
0
 10
-11.99699974060059
 20
78.7300033569336
 30
71.90499877929688
 70
   192
  0
VERTEX
  5
257
  8
0
 10
-0.0879999995231628
 20
48.47800064086914
 30
74.96900177001953
 70
   192
  0
VERTEX
  5
258
  8
0
 10
-5.375999927520752
 20
78.7300033569336
 30
74.24099731445312
 70
   192
  0
VERTEX
  5
259
  8
0
 10
-2.150000095367432
 20
78.7300033569336
 30
74.87699890136719
 70
   192
  0
VERTEX
  5
25A
  8
0
 10
-4.059000015258789
 20
78.7300033569336
 30
74.63800048828125
 70
   192
  0
VERTEX
  5
25B
  8
0
 10
-0.096000000834465
 20
78.7300033569336
 30
74.78500366210938
 70
   192
  0
VERTEX
  5
25C
  8
0
 10
-15.68599987030029
 20
48.47800064086914
 30
69.43900299072266
 70
   192
  0
VERTEX
  5
25D
  8
0
 10
-14.22299957275391
 20
78.7300033569336
 30
70.28099822998047
 70
   192
  0
VERTEX
  5
25E
  8
0
 10
-13.77099990844727
 20
78.7300033569336
 30
70.61000061035156
 70
   192
  0
VERTEX
  5
25F
  8
0
 10
-23.79800033569336
 20
48.47800064086914
 30
57.64599990844727
 70
   192
  0
VERTEX
  5
260
  8
0
 10
-20.92900085449219
 20
78.7300033569336
 30
63.29000091552734
 70
   192
  0
VERTEX
  5
261
  8
0
 10
-22.26300048828125
 20
78.7300033569336
 30
61.35300064086914
 70
   192
  0
VERTEX
  5
262
  8
0
 10
-18.58099937438965
 20
78.7300033569336
 30
66.70099639892578
 70
   192
  0
VERTEX
  5
263
  8
0
 10
-15.57800006866455
 20
78.7300033569336
 30
69.29100036621094
 70
   192
  0
VERTEX
  5
264
  8
0
 10
-17.23999977111816
 20
78.7300033569336
 30
68.0780029296875
 70
   192
  0
VERTEX
  5
265
  8
0
 10
-23.07200050354004
 20
78.7300033569336
 30
59.61000061035156
 70
   192
  0
VERTEX
  5
266
  8
0
 10
-24.29899978637695
 20
48.47800064086914
 30
44.06900024414062
 70
   192
  0
VERTEX
  5
267
  8
0
 10
-24.96299934387207
 20
78.7300033569336
 30
51.42900085449219
 70
   192
  0
VERTEX
  5
268
  8
0
 10
-24.49699974060059
 20
78.7300033569336
 30
44.95399856567383
 70
   192
  0
VERTEX
  5
269
  8
0
 10
-24.52199935913086
 20
78.7300033569336
 30
54.28200149536133
 70
   192
  0
VERTEX
  5
26A
  8
0
 10
-24.77599906921387
 20
78.7300033569336
 30
53.34700012207031
 70
   192
  0
VERTEX
  5
26B
  8
0
 10
-23.61899948120117
 20
78.7300033569336
 30
57.59700012207031
 70
   192
  0
VERTEX
  5
26C
  8
0
 10
-17.04299926757812
 20
48.47800064086914
 30
31.67300033569336
 70
   192
  0
VERTEX
  5
26D
  8
0
 10
-20.47999954223633
 20
78.7300033569336
 30
35.63199996948242
 70
   192
  0
VERTEX
  5
26E
  8
0
 10
-20.40800094604492
 20
78.7300033569336
 30
35.52000045776367
 70
   192
  0
VERTEX
  5
26F
  8
0
 10
-21.45700073242188
 20
78.7300033569336
 30
37.13000106811523
 70
   192
  0
VERTEX
  5
270
  8
0
 10
-24.03899955749512
 20
78.7300033569336
 30
43.08599853515625
 70
   192
  0
VERTEX
  5
271
  8
0
 10
-24.2810001373291
 20
78.7300033569336
 30
44.07400131225586
 70
   192
  0
VERTEX
  5
272
  8
0
 10
-4.347000122070312
 20
48.47800064086914
 30
25.34900093078613
 70
   192
  0
VERTEX
  5
273
  8
0
 10
-8.737000465393066
 20
78.7300033569336
 30
26.54299926757812
 70
   192
  0
VERTEX
  5
274
  8
0
 10
-6.907999992370605
 20
78.7300033569336
 30
25.94099998474121
 70
   192
  0
VERTEX
  5
275
  8
0
 10
-13.3769998550415
 20
78.7300033569336
 30
29.0
 70
   192
  0
VERTEX
  5
276
  8
0
 10
-15.99899959564209
 20
78.7300033569336
 30
30.75399971008301
 70
   192
  0
VERTEX
  5
277
  8
0
 10
-14.47399997711182
 20
78.7300033569336
 30
29.58099937438965
 70
   192
  0
VERTEX
  5
278
  8
0
 10
-16.9379997253418
 20
78.7300033569336
 30
31.77000045776367
 70
   192
  0
VERTEX
  5
279
  8
0
 10
9.972999572753906
 20
48.47800064086914
 30
27.04700088500977
 70
   192
  0
VERTEX
  5
27A
  8
0
 10
2.138999938964844
 20
78.7300033569336
 30
25.06100082397461
 70
   192
  0
VERTEX
  5
27B
  8
0
 10
4.047999858856201
 20
78.7300033569336
 30
25.29999923706055
 70
   192
  0
VERTEX
  5
27C
  8
0
 10
5.364999771118164
 20
78.7300033569336
 30
25.69700050354004
 70
   192
  0
VERTEX
  5
27D
  8
0
 10
-4.347000122070312
 20
78.7300033569336
 30
25.34900093078613
 70
   192
  0
VERTEX
  5
27E
  8
0
 10
14.21199989318848
 20
78.7300033569336
 30
29.6569995880127
 70
   192
  0
VERTEX
  5
27F
  8
0
 10
17.22900009155273
 20
78.7300033569336
 30
31.85899925231934
 70
   192
  0
VERTEX
  5
280
  8
0
 10
20.94400024414062
 20
48.47800064086914
 30
36.32699966430664
 70
   192
  0
VERTEX
  5
281
  8
0
 10
10.26299953460693
 20
78.7300033569336
 30
27.17499923706055
 70
   192
  0
VERTEX
  5
282
  8
0
 10
11.98600006103516
 20
78.7300033569336
 30
28.0319995880127
 70
   192
  0
VERTEX
  5
283
  8
0
 10
18.56999969482422
 20
78.7300033569336
 30
33.23699951171875
 70
   192
  0
VERTEX
  5
284
  8
0
 10
9.961999893188477
 20
78.7300033569336
 30
27.08399963378906
 70
   192
  0
VERTEX
  5
285
  8
0
 10
24.61499977111816
 20
48.47800064086914
 30
45.62799835205078
 70
   192
  0
VERTEX
  5
286
  8
0
 10
23.06100082397461
 20
78.7300033569336
 30
40.32799911499023
 70
   192
  0
VERTEX
  5
287
  8
0
 10
20.91799926757812
 20
78.7300033569336
 30
36.64699935913086
 70
   192
  0
VERTEX
  5
288
  8
0
 10
22.25200080871582
 20
78.7300033569336
 30
38.58499908447266
 70
   192
  0
VERTEX
  5
289
  8
0
 10
20.77700042724609
 20
78.7300033569336
 30
36.44200134277344
 70
   192
  0
VERTEX
  5
28A
  8
0
 10
24.95199966430664
 20
78.7300033569336
 30
48.50899887084961
 70
   192
  0
VERTEX
  5
28B
  8
0
 10
24.48600006103516
 20
78.7300033569336
 30
54.98400115966797
 70
   192
  0
VERTEX
  5
28C
  8
0
 10
22.9419994354248
 20
48.47800064086914
 30
59.88800048828125
 70
   192
  0
VERTEX
  5
28D
  8
0
 10
24.38999938964844
 20
78.7300033569336
 30
55.37699890136719
 70
   192
  0
VERTEX
  5
28E
  8
0
 10
24.02799987792969
 20
78.7300033569336
 30
56.85200119018555
 70
   192
  0
VERTEX
  5
28F
  8
0
 10
24.51099967956543
 20
78.7300033569336
 30
45.65599822998047
 70
   192
  0
VERTEX
  5
290
  8
0
 10
24.76499938964844
 20
78.7300033569336
 30
46.59099960327148
 70
   192
  0
VERTEX
  5
291
  8
0
 10
13.6899995803833
 20
48.47800064086914
 30
70.88400268554688
 70
   192
  0
VERTEX
  5
292
  8
0
 10
15.98799991607666
 20
78.7300033569336
 30
69.18399810791016
 70
   192
  0
VERTEX
  5
293
  8
0
 10
14.46300029754639
 20
78.7300033569336
 30
70.35600280761719
 70
   192
  0
VERTEX
  5
294
  8
0
 10
20.39699935913086
 20
78.7300033569336
 30
64.41699981689453
 70
   192
  0
VERTEX
  5
295
  8
0
 10
20.4689998626709
 20
78.7300033569336
 30
64.30599975585938
 70
   192
  0
VERTEX
  5
296
  8
0
 10
21.44599914550781
 20
78.7300033569336
 30
62.80799865722656
 70
   192
  0
VERTEX
  5
297
  8
0
 10
22.74799919128418
 20
78.7300033569336
 30
59.80400085449219
 70
   192
  0
VERTEX
  5
298
  8
0
 10
13.64099979400635
 20
78.7300033569336
 30
70.79199981689453
 70
   192
  0
VERTEX
  5
299
  8
0
 10
6.199999809265137
 20
63.68199920654297
 30
74.18599700927734
 70
   192
  0
VERTEX
  5
29A
  8
0
 10
13.36600017547607
 20
78.7300033569336
 30
70.93800354003906
 70
   192
  0
VERTEX
  5
29B
  8
0
 10
6.193999767303467
 20
72.68199920654297
 30
74.18800354003906
 70
   192
  0
VERTEX
  5
29C
  8
0
 10
6.896999835968018
 20
78.7300033569336
 30
73.99700164794922
 70
   192
  0
VERTEX
  5
29D
  8
0
 10
4.335999965667725
 20
78.7300033569336
 30
74.58899688720703
 70
   192
  0
VERTEX
  5
29E
  8
0
 10
2.45199990272522
 20
72.68199920654297
 30
74.8479995727539
 70
   192
  0
VERTEX
  5
29F
  8
0
 10
8.72599983215332
 20
78.7300033569336
 30
73.39399719238281
 70
   192
  0
VERTEX
  5
2A0
  8
0
 10
2.45199990272522
 20
54.68199920654297
 30
74.8479995727539
 70
   192
  0
VERTEX
  5
2A1
  8
0
 10
2.447000026702881
 20
63.68199920654297
 30
74.8479995727539
 70
   192
  0
VERTEX
  5
2A2
  8
0
 10
2.441999912261963
 20
72.19200134277344
 30
74.8489990234375
 70
   192
  0
VERTEX
  5
2A3
  8
0
 10
6.193999767303467
 20
54.68199920654297
 30
74.18800354003906
 70
   192
  0
VERTEX
  5
2A4
  8
0
 10
6.204999923706055
 20
55.17100143432617
 30
74.18499755859375
 70
   192
  0
VERTEX
  5
2A5
  8
0
 62
     9
 10
0.0
 20
0.0
 30
0.0
 70
   128
 71
     3
 72
     2
 73
     1
  0
VERTEX
  5
2A6
  8
0
 62
     9
 10
0.0
 20
0.0
 30
0.0
 70
   128
 71
     5
 72
     4
 73
     1
  0
VERTEX
  5
2A7
  8
0
 62
     9
 10
0.0
 20
0.0
 30
0.0
 70
   128
 71
     7
 72
     6
 73
     4
  0
VERTEX
  5
2A8
  8
0
 62
     9
 10
0.0
 20
0.0
 30
0.0
 70
   128
 71
     4
 72
     5
 73
     7
  0
VERTEX
  5
2A9
  8
0
 62
     9
 10
0.0
 20
0.0
 30
0.0
 70
   128
 71
     1
 72
     2
 73
     5
  0
VERTEX
  5
2AA
  8
0
 62
     9
 10
0.0
 20
0.0
 30
0.0
 70
   128
 71
     6
 72
     8
 73
     4
  0
VERTEX
  5
2AB
  8
0
 62
     9
 10
0.0
 20
0.0
 30
0.0
 70
   128
 71
    10
 72
     1
 73
     9
  0
VERTEX
  5
2AC
  8
0
 62
     9
 10
0.0
 20
0.0
 30
0.0
 70
   128
 71
    10
 72
    11
 73
     1
  0
VERTEX
  5
2AD
  8
0
 62
     9
 10
0.0
 20
0.0
 30
0.0
 70
   128
 71
    14
 72
    13
 73
    12
  0
VERTEX
  5
2AE
  8
0
 62
     9
 10
0.0
 20
0.0
 30
0.0
 70
   128
 71
    13
 72
    15
 73
     9
  0
VERTEX
  5
2AF
  8
0
 62
     9
 10
0.0
 20
0.0
 30
0.0
 70
   128
 71
     9
 72
    12
 73
    13
  0
VERTEX
  5
2B0
  8
0
 62
     9
 10
0.0
 20
0.0
 30
0.0
 70
   128
 71
    17
 72
    16
 73
     9
  0
VERTEX
  5
2B1
  8
0
 62
     9
 10
0.0
 20
0.0
 30
0.0
 70
   128
 71
     9
 72
    15
 73
    17
  0
VERTEX
  5
2B2
  8
0
 62
     9
 10
0.0
 20
0.0
 30
0.0
 70
   128
 71
    12
 72
    18
 73
    14
  0
VERTEX
  5
2B3
  8
0
 62
     9
 10
0.0
 20
0.0
 30
0.0
 70
   128
 71
    20
 72
    12
 73
    19
  0
VERTEX
  5
2B4
  8
0
 62
     9
 10
0.0
 20
0.0
 30
0.0
 70
   128
 71
    19
 72
    21
 73
    20
  0
VERTEX
  5
2B5
  8
0
 62
     9
 10
0.0
 20
0.0
 30
0.0
 70
   128
 71
    23
 72
    22
 73
    12
  0
VERTEX
  5
2B6
  8
0
 62
     9
 10
0.0
 20
0.0
 30
0.0
 70
   128
 71
    22
 72
    24
 73
    12
  0
VERTEX
  5
2B7
  8
0
 62
     9
 10
0.0
 20
0.0
 30
0.0
 70
   128
 71
    12
 72
    20
 73
    23
  0
VERTEX
  5
2B8
  8
0
 62
     9
 10
0.0
 20
0.0
 30
0.0
 70
   128
 71
    27
 72
    26
 73
    25
  0
VERTEX
  5
2B9
  8
0
 62
     9
 10
0.0
 20
0.0
 30
0.0
 70
   128
 71
    26
 72
    28
 73
    25
  0
VERTEX
  5
2BA
  8
0
 62
     9
 10
0.0
 20
0.0
 30
0.0
 70
   128
 71
    28
 72
    29
 73
    19
  0
VERTEX
  5
2BB
  8
0
 62
     9
 10
0.0
 20
0.0
 30
0.0
 70
   128
 71
    29
 72
    30
 73
    19
  0
VERTEX
  5
2BC
  8
0
 62
     9
 10
0.0
 20
0.0
 30
0.0
 70
   128
 71
    19
 72
    25
 73
    28
  0
VERTEX
  5
2BD
  8
0
 62
     9
 10
0.0
 20
0.0
 30
0.0
 70
   128
 71
    33
 72
    32
 73
    31
  0
VERTEX
  5
2BE
  8
0
 62
     9
 10
0.0
 20
0.0
 30
0.0
 70
   128
 71
    34
 72
    25
 73
    31
  0
VERTEX
  5
2BF
  8
0
 62
     9
 10
0.0
 20
0.0
 30
0.0
 70
   128
 71
    36
 72
    35
 73
    25
  0
VERTEX
  5
2C0
  8
0
 62
     9
 10
0.0
 20
0.0
 30
0.0
 70
   128
 71
    25
 72
    34
 73
    36
  0
VERTEX
  5
2C1
  8
0
 62
     9
 10
0.0
 20
0.0
 30
0.0
 70
   128
 71
    31
 72
    32
 73
    34
  0
VERTEX
  5
2C2
  8
0
 62
     9
 10
0.0
 20
0.0
 30
0.0
 70
   128
 71
    35
 72
    37
 73
    25
  0
VERTEX
  5
2C3
  8
0
 62
     9
 10
0.0
 20
0.0
 30
0.0
 70
   128
 71
    39
 72
    31
 73
    38
  0
VERTEX
  5
2C4
  8
0
 62
     9
 10
0.0
 20
0.0
 30
0.0
 70
   128
 71
    38
 72
    40
 73
    39
  0
VERTEX
  5
2C5
  8
0
 62
     9
 10
0.0
 20
0.0
 30
0.0
 70
   128
 71
    38
 72
    41
 73
    40
  0
VERTEX
  5
2C6
  8
0
 62
     9
 10
0.0
 20
0.0
 30
0.0
 70
   128
 71
    39
 72
    42
 73
    31
  0
VERTEX
  5
2C7
  8
0
 62
     9
 10
0.0
 20
0.0
 30
0.0
 70
   128
 71
    44
 72
    43
 73
    38
  0
VERTEX
  5
2C8
  8
0
 62
     9
 10
0.0
 20
0.0
 30
0.0
 70
   128
 71
    38
 72
    45
 73
    44
  0
VERTEX
  5
2C9
  8
0
 62
     9
 10
0.0
 20
0.0
 30
0.0
 70
   128
 71
    47
 72
    46
 73
    38
  0
VERTEX
  5
2CA
  8
0
 62
     9
 10
0.0
 20
0.0
 30
0.0
 70
   128
 71
    38
 72
    43
 73
    47
  0
VERTEX
  5
2CB
  8
0
 62
     9
 10
0.0
 20
0.0
 30
0.0
 70
   128
 71
    45
 72
    48
 73
    44
  0
VERTEX
  5
2CC
  8
0
 62
     9
 10
0.0
 20
0.0
 30
0.0
 70
   128
 71
    46
 72
    49
 73
    38
  0
VERTEX
  5
2CD
  8
0
 62
     9
 10
0.0
 20
0.0
 30
0.0
 70
   128
 71
    51
 72
    45
 73
    50
  0
VERTEX
  5
2CE
  8
0
 62
     9
 10
0.0
 20
0.0
 30
0.0
 70
   128
 71
    53
 72
    52
 73
    45
  0
VERTEX
  5
2CF
  8
0
 62
     9
 10
0.0
 20
0.0
 30
0.0
 70
   128
 71
    52
 72
    54
 73
    45
  0
VERTEX
  5
2D0
  8
0
 62
     9
 10
0.0
 20
0.0
 30
0.0
 70
   128
 71
    45
 72
    51
 73
    53
  0
VERTEX
  5
2D1
  8
0
 62
     9
 10
0.0
 20
0.0
 30
0.0
 70
   128
 71
    56
 72
    55
 73
    50
  0
VERTEX
  5
2D2
  8
0
 62
     9
 10
0.0
 20
0.0
 30
0.0
 70
   128
 71
    50
 72
    57
 73
    56
  0
VERTEX
  5
2D3
  8
0
 62
     9
 10
0.0
 20
0.0
 30
0.0
 70
   128
 71
    57
 72
    58
 73
    56
  0
VERTEX
  5
2D4
  8
0
 62
     9
 10
0.0
 20
0.0
 30
0.0
 70
   128
 71
    57
 72
    59
 73
    58
  0
VERTEX
  5
2D5
  8
0
 62
     9
 10
0.0
 20
0.0
 30
0.0
 70
   128
 71
    61
 72
    60
 73
    50
  0
VERTEX
  5
2D6
  8
0
 62
     9
 10
0.0
 20
0.0
 30
0.0
 70
   128
 71
    50
 72
    55
 73
    61
  0
VERTEX
  5
2D7
  8
0
 62
     9
 10
0.0
 20
0.0
 30
0.0
 70
   128
 71
    64
 72
    63
 73
    62
  0
VERTEX
  5
2D8
  8
0
 62
     9
 10
0.0
 20
0.0
 30
0.0
 70
   128
 71
    65
 72
    57
 73
    62
  0
VERTEX
  5
2D9
  8
0
 62
     9
 10
0.0
 20
0.0
 30
0.0
 70
   128
 71
    65
 72
    66
 73
    57
  0
VERTEX
  5
2DA
  8
0
 62
     9
 10
0.0
 20
0.0
 30
0.0
 70
   128
 71
    66
 72
    67
 73
    57
  0
VERTEX
  5
2DB
  8
0
 62
     9
 10
0.0
 20
0.0
 30
0.0
 70
   128
 71
    67
 72
    68
 73
    57
  0
VERTEX
  5
2DC
  8
0
 62
     9
 10
0.0
 20
0.0
 30
0.0
 70
   128
 71
    62
 72
    63
 73
    65
  0
VERTEX
  5
2DD
  8
0
 62
     9
 10
0.0
 20
0.0
 30
0.0
 70
   128
 71
    70
 72
    69
 73
    62
  0
VERTEX
  5
2DE
  8
0
 62
     9
 10
0.0
 20
0.0
 30
0.0
 70
   128
 71
    71
 72
    69
 73
    70
  0
VERTEX
  5
2DF
  8
0
 62
     9
 10
0.0
 20
0.0
 30
0.0
 70
   128
 71
    70
 72
    72
 73
    71
  0
VERTEX
  5
2E0
  8
0
 62
     9
 10
0.0
 20
0.0
 30
0.0
 70
   128
 71
    74
 72
    73
 73
    72
  0
VERTEX
  5
2E1
  8
0
 62
     9
 10
0.0
 20
0.0
 30
0.0
 70
   128
 71
    72
 72
    75
 73
    74
  0
VERTEX
  5
2E2
  8
0
 62
     9
 10
0.0
 20
0.0
 30
0.0
 70
   128
 71
    73
 72
    76
 73
    72
  0
VERTEX
  5
2E3
  8
0
 62
     9
 10
0.0
 20
0.0
 30
0.0
 70
   128
 71
    76
 72
    71
 73
    72
  0
VERTEX
  5
2E4
  8
0
 62
     9
 10
0.0
 20
0.0
 30
0.0
 70
   128
 71
    78
 72
    77
 73
     4
  0
VERTEX
  5
2E5
  8
0
 62
     9
 10
0.0
 20
0.0
 30
0.0
 70
   128
 71
     4
 72
     8
 73
    78
  0
VERTEX
  5
2E6
  8
0
 62
     9
 10
0.0
 20
0.0
 30
0.0
 70
   128
 71
     8
 72
    79
 73
    78
  0
VERTEX
  5
2E7
  8
0
 62
     9
 10
0.0
 20
0.0
 30
0.0
 70
   128
 71
     8
 72
    75
 73
    79
  0
VERTEX
  5
2E8
  8
0
 62
     9
 10
0.0
 20
0.0
 30
0.0
 70
   128
 71
    75
 72
     8
 73
    74
  0
VERTEX
  5
2E9
  8
0
 62
     9
 10
0.0
 20
0.0
 30
0.0
 70
   128
 71
    80
 72
    62
 73
     4
  0
VERTEX
  5
2EA
  8
0
 62
     9
 10
0.0
 20
0.0
 30
0.0
 70
   128
 71
    80
 72
    81
 73
    62
  0
VERTEX
  5
2EB
  8
0
 62
     9
 10
0.0
 20
0.0
 30
0.0
 70
   128
 71
     4
 72
    77
 73
    80
  0
VERTEX
  5
2EC
  8
0
 62
     9
 10
0.0
 20
0.0
 30
0.0
 70
   128
 71
    62
 72
    81
 73
    70
  0
VERTEX
  5
2ED
  8
0
 62
     9
 10
0.0
 20
0.0
 30
0.0
 70
   128
 71
    62
 72
    69
 73
    64
  0
VERTEX
  5
2EE
  8
0
 62
     9
 10
0.0
 20
0.0
 30
0.0
 70
   128
 71
    57
 72
    68
 73
    59
  0
VERTEX
  5
2EF
  8
0
 62
     9
 10
0.0
 20
0.0
 30
0.0
 70
   128
 71
    50
 72
    60
 73
    51
  0
VERTEX
  5
2F0
  8
0
 62
     9
 10
0.0
 20
0.0
 30
0.0
 70
   128
 71
    45
 72
    54
 73
    48
  0
VERTEX
  5
2F1
  8
0
 62
     9
 10
0.0
 20
0.0
 30
0.0
 70
   128
 71
    38
 72
    49
 73
    41
  0
VERTEX
  5
2F2
  8
0
 62
     9
 10
0.0
 20
0.0
 30
0.0
 70
   128
 71
    31
 72
    42
 73
    33
  0
VERTEX
  5
2F3
  8
0
 62
     9
 10
0.0
 20
0.0
 30
0.0
 70
   128
 71
    25
 72
    37
 73
    27
  0
VERTEX
  5
2F4
  8
0
 62
     9
 10
0.0
 20
0.0
 30
0.0
 70
   128
 71
    19
 72
    30
 73
    21
  0
VERTEX
  5
2F5
  8
0
 62
     9
 10
0.0
 20
0.0
 30
0.0
 70
   128
 71
    12
 72
    24
 73
    18
  0
VERTEX
  5
2F6
  8
0
 62
     9
 10
0.0
 20
0.0
 30
0.0
 70
   128
 71
     9
 72
    16
 73
    10
  0
VERTEX
  5
2F7
  8
0
 62
     9
 10
0.0
 20
0.0
 30
0.0
 70
   128
 71
     1
 72
    11
 73
     3
  0
SEQEND
  5
2F8
  8
0
 62
     9
  0
ENDBLK
  5
2FB
  8
0
  0
BLOCK
  8
0
  2
E3_NODE_7_
 70
     0
 10
0.0
 20
0.0
 30
0.0
  3
E3_NODE_7_
  1

  0
POLYLINE
  5
2FD
  8
0
 62
     9
 66
     1
 10
0.0
 20
0.0
 30
0.0
 70
    64
 71
    46
 72
    51
  0
VERTEX
  5
2FE
  8
0
 10
-6.841000080108643
 20
81.5770034790039
 30
39.2400016784668
 70
   192
  0
VERTEX
  5
2FF
  8
0
 10
-0.0060000000521541
 20
82.54900360107422
 30
49.96900177001953
 70
   192
  0
VERTEX
  5
300
  8
0
 10
-0.0599999986588955
 20
82.5479965209961
 30
49.65900039672852
 70
   192
  0
VERTEX
  5
301
  8
0
 10
-2.759000062942505
 20
81.5770034790039
 30
62.38899993896484
 70
   192
  0
VERTEX
  5
302
  8
0
 10
2.203000068664551
 20
81.55999755859375
 30
62.49300003051758
 70
   192
  0
VERTEX
  5
303
  8
0
 10
2.163000106811523
 20
81.61199951171875
 30
62.26900100708008
 70
   192
  0
VERTEX
  5
304
  8
0
 10
-8.737000465393066
 20
78.7300033569336
 30
26.54299926757812
 70
   192
  0
VERTEX
  5
305
  8
0
 10
-13.3769998550415
 20
78.7300033569336
 30
29.0
 70
   192
  0
VERTEX
  5
306
  8
0
 10
-2.227999925613403
 20
81.56500244140625
 30
37.36299896240234
 70
   192
  0
VERTEX
  5
307
  8
0
 10
-6.907999992370605
 20
78.7300033569336
 30
25.94099998474121
 70
   192
  0
VERTEX
  5
308
  8
0
 10
-4.347000122070312
 20
78.7300033569336
 30
25.34900093078613
 70
   192
  0
VERTEX
  5
309
  8
0
 10
-2.21399998664856
 20
81.57099914550781
 30
37.44100189208984
 70
   192
  0
VERTEX
  5
30A
  8
0
 10
-16.9379997253418
 20
78.7300033569336
 30
31.77000045776367
 70
   192
  0
VERTEX
  5
30B
  8
0
 10
-20.40800094604492
 20
78.7300033569336
 30
35.52000045776367
 70
   192
  0
VERTEX
  5
30C
  8
0
 10
-10.42599964141846
 20
81.5770034790039
 30
42.67200088500977
 70
   192
  0
VERTEX
  5
30D
  8
0
 10
-14.47399997711182
 20
78.7300033569336
 30
29.58099937438965
 70
   192
  0
VERTEX
  5
30E
  8
0
 10
-15.99899959564209
 20
78.7300033569336
 30
30.75399971008301
 70
   192
  0
VERTEX
  5
30F
  8
0
 10
-21.45700073242188
 20
78.7300033569336
 30
37.13000106811523
 70
   192
  0
VERTEX
  5
310
  8
0
 10
-24.03899955749512
 20
78.7300033569336
 30
43.08599853515625
 70
   192
  0
VERTEX
  5
311
  8
0
 10
-12.42500019073486
 20
81.5770034790039
 30
47.21500015258789
 70
   192
  0
VERTEX
  5
312
  8
0
 10
-20.47999954223633
 20
78.7300033569336
 30
35.63199996948242
 70
   192
  0
VERTEX
  5
313
  8
0
 10
-24.2810001373291
 20
78.7300033569336
 30
44.07400131225586
 70
   192
  0
VERTEX
  5
314
  8
0
 10
-12.53400039672852
 20
81.5770034790039
 30
52.17800140380859
 70
   192
  0
VERTEX
  5
315
  8
0
 10
-24.96299934387207
 20
78.7300033569336
 30
51.42900085449219
 70
   192
  0
VERTEX
  5
316
  8
0
 10
-24.77599906921387
 20
78.7300033569336
 30
53.34700012207031
 70
   192
  0
VERTEX
  5
317
  8
0
 10
-24.49699974060059
 20
78.7300033569336
 30
44.95399856567383
 70
   192
  0
VERTEX
  5
318
  8
0
 10
-10.73499965667725
 20
81.5770034790039
 30
56.80400085449219
 70
   192
  0
VERTEX
  5
319
  8
0
 10
-23.61899948120117
 20
78.7300033569336
 30
57.59700012207031
 70
   192
  0
VERTEX
  5
31A
  8
0
 10
-23.07200050354004
 20
78.7300033569336
 30
59.61000061035156
 70
   192
  0
VERTEX
  5
31B
  8
0
 10
-22.26300048828125
 20
78.7300033569336
 30
61.35300064086914
 70
   192
  0
VERTEX
  5
31C
  8
0
 10
-24.52199935913086
 20
78.7300033569336
 30
54.28200149536133
 70
   192
  0
VERTEX
  5
31D
  8
0
 10
-17.23999977111816
 20
78.7300033569336
 30
68.0780029296875
 70
   192
  0
VERTEX
  5
31E
  8
0
 10
-15.57800006866455
 20
78.7300033569336
 30
69.29100036621094
 70
   192
  0
VERTEX
  5
31F
  8
0
 10
-20.92900085449219
 20
78.7300033569336
 30
63.29000091552734
 70
   192
  0
VERTEX
  5
320
  8
0
 10
-18.58099937438965
 20
78.7300033569336
 30
66.70099639892578
 70
   192
  0
VERTEX
  5
321
  8
0
 10
-7.302000045776367
 20
81.5770034790039
 30
60.38999938964844
 70
   192
  0
VERTEX
  5
322
  8
0
 10
-10.27400016784668
 20
78.7300033569336
 30
72.76300048828125
 70
   192
  0
VERTEX
  5
323
  8
0
 10
-5.375999927520752
 20
78.7300033569336
 30
74.24099731445312
 70
   192
  0
VERTEX
  5
324
  8
0
 10
-11.99699974060059
 20
78.7300033569336
 30
71.90499877929688
 70
   192
  0
VERTEX
  5
325
  8
0
 10
-13.77099990844727
 20
78.7300033569336
 30
70.61000061035156
 70
   192
  0
VERTEX
  5
326
  8
0
 10
-14.22299957275391
 20
78.7300033569336
 30
70.28099822998047
 70
   192
  0
VERTEX
  5
327
  8
0
 10
-0.096000000834465
 20
78.7300033569336
 30
74.78500366210938
 70
   192
  0
VERTEX
  5
328
  8
0
 10
4.283999919891357
 20
78.8239974975586
 30
74.29299926757812
 70
   192
  0
VERTEX
  5
329
  8
0
 10
4.335999965667725
 20
78.7300033569336
 30
74.58899688720703
 70
   192
  0
VERTEX
  5
32A
  8
0
 10
-4.059000015258789
 20
78.7300033569336
 30
74.63800048828125
 70
   192
  0
VERTEX
  5
32B
  8
0
 10
-2.150000095367432
 20
78.7300033569336
 30
74.87699890136719
 70
   192
  0
VERTEX
  5
32C
  8
0
 62
     9
 10
0.0
 20
0.0
 30
0.0
 70
   128
 71
     3
 72
     2
 73
     1
  0
VERTEX
  5
32D
  8
0
 62
     9
 10
0.0
 20
0.0
 30
0.0
 70
   128
 71
     6
 72
     5
 73
     4
  0
VERTEX
  5
32E
  8
0
 62
     9
 10
0.0
 20
0.0
 30
0.0
 70
   128
 71
     1
 72
     8
 73
     7
  0
VERTEX
  5
32F
  8
0
 62
     9
 10
0.0
 20
0.0
 30
0.0
 70
   128
 71
     7
 72
    10
 73
     9
  0
VERTEX
  5
330
  8
0
 62
     9
 10
0.0
 20
0.0
 30
0.0
 70
   128
 71
    10
 72
    11
 73
     9
  0
VERTEX
  5
331
  8
0
 62
     9
 10
0.0
 20
0.0
 30
0.0
 70
   128
 71
     9
 72
    12
 73
     1
  0
VERTEX
  5
332
  8
0
 62
     9
 10
0.0
 20
0.0
 30
0.0
 70
   128
 71
    15
 72
    14
 73
    13
  0
VERTEX
  5
333
  8
0
 62
     9
 10
0.0
 20
0.0
 30
0.0
 70
   128
 71
    13
 72
     1
 73
    15
  0
VERTEX
  5
334
  8
0
 62
     9
 10
0.0
 20
0.0
 30
0.0
 70
   128
 71
    17
 72
    16
 73
     1
  0
VERTEX
  5
335
  8
0
 62
     9
 10
0.0
 20
0.0
 30
0.0
 70
   128
 71
    16
 72
     8
 73
     1
  0
VERTEX
  5
336
  8
0
 62
     9
 10
0.0
 20
0.0
 30
0.0
 70
   128
 71
     1
 72
    13
 73
    17
  0
VERTEX
  5
337
  8
0
 62
     9
 10
0.0
 20
0.0
 30
0.0
 70
   128
 71
    20
 72
    19
 73
    18
  0
VERTEX
  5
338
  8
0
 62
     9
 10
0.0
 20
0.0
 30
0.0
 70
   128
 71
    18
 72
    15
 73
    20
  0
VERTEX
  5
339
  8
0
 62
     9
 10
0.0
 20
0.0
 30
0.0
 70
   128
 71
    18
 72
    21
 73
    15
  0
VERTEX
  5
33A
  8
0
 62
     9
 10
0.0
 20
0.0
 30
0.0
 70
   128
 71
    20
 72
    22
 73
    19
  0
VERTEX
  5
33B
  8
0
 62
     9
 10
0.0
 20
0.0
 30
0.0
 70
   128
 71
    25
 72
    24
 73
    23
  0
VERTEX
  5
33C
  8
0
 62
     9
 10
0.0
 20
0.0
 30
0.0
 70
   128
 71
    20
 72
    23
 73
    24
  0
VERTEX
  5
33D
  8
0
 62
     9
 10
0.0
 20
0.0
 30
0.0
 70
   128
 71
    24
 72
    26
 73
    20
  0
VERTEX
  5
33E
  8
0
 62
     9
 10
0.0
 20
0.0
 30
0.0
 70
   128
 71
    28
 72
    23
 73
    27
  0
VERTEX
  5
33F
  8
0
 62
     9
 10
0.0
 20
0.0
 30
0.0
 70
   128
 71
    27
 72
    29
 73
    28
  0
VERTEX
  5
340
  8
0
 62
     9
 10
0.0
 20
0.0
 30
0.0
 70
   128
 71
    27
 72
    30
 73
    29
  0
VERTEX
  5
341
  8
0
 62
     9
 10
0.0
 20
0.0
 30
0.0
 70
   128
 71
    28
 72
    31
 73
    23
  0
VERTEX
  5
342
  8
0
 62
     9
 10
0.0
 20
0.0
 30
0.0
 70
   128
 71
    33
 72
    32
 73
    27
  0
VERTEX
  5
343
  8
0
 62
     9
 10
0.0
 20
0.0
 30
0.0
 70
   128
 71
    35
 72
    34
 73
    27
  0
VERTEX
  5
344
  8
0
 62
     9
 10
0.0
 20
0.0
 30
0.0
 70
   128
 71
    27
 72
    32
 73
    35
  0
VERTEX
  5
345
  8
0
 62
     9
 10
0.0
 20
0.0
 30
0.0
 70
   128
 71
    27
 72
    36
 73
    33
  0
VERTEX
  5
346
  8
0
 62
     9
 10
0.0
 20
0.0
 30
0.0
 70
   128
 71
     4
 72
    38
 73
    37
  0
VERTEX
  5
347
  8
0
 62
     9
 10
0.0
 20
0.0
 30
0.0
 70
   128
 71
    37
 72
    39
 73
    36
  0
VERTEX
  5
348
  8
0
 62
     9
 10
0.0
 20
0.0
 30
0.0
 70
   128
 71
    39
 72
    40
 73
    36
  0
VERTEX
  5
349
  8
0
 62
     9
 10
0.0
 20
0.0
 30
0.0
 70
   128
 71
    40
 72
    41
 73
    36
  0
VERTEX
  5
34A
  8
0
 62
     9
 10
0.0
 20
0.0
 30
0.0
 70
   128
 71
     5
 72
    43
 73
    42
  0
VERTEX
  5
34B
  8
0
 62
     9
 10
0.0
 20
0.0
 30
0.0
 70
   128
 71
    43
 72
    44
 73
    42
  0
VERTEX
  5
34C
  8
0
 62
     9
 10
0.0
 20
0.0
 30
0.0
 70
   128
 71
    46
 72
    45
 73
     4
  0
VERTEX
  5
34D
  8
0
 62
     9
 10
0.0
 20
0.0
 30
0.0
 70
   128
 71
    45
 72
    38
 73
     4
  0
VERTEX
  5
34E
  8
0
 62
     9
 10
0.0
 20
0.0
 30
0.0
 70
   128
 71
     4
 72
    42
 73
    46
  0
VERTEX
  5
34F
  8
0
 62
     9
 10
0.0
 20
0.0
 30
0.0
 70
   128
 71
    42
 72
     4
 73
     5
  0
VERTEX
  5
350
  8
0
 62
     9
 10
0.0
 20
0.0
 30
0.0
 70
   128
 71
    37
 72
    36
 73
     4
  0
VERTEX
  5
351
  8
0
 62
     9
 10
0.0
 20
0.0
 30
0.0
 70
   128
 71
    36
 72
    41
 73
    33
  0
VERTEX
  5
352
  8
0
 62
     9
 10
0.0
 20
0.0
 30
0.0
 70
   128
 71
    27
 72
    34
 73
    30
  0
VERTEX
  5
353
  8
0
 62
     9
 10
0.0
 20
0.0
 30
0.0
 70
   128
 71
    23
 72
    31
 73
    25
  0
VERTEX
  5
354
  8
0
 62
     9
 10
0.0
 20
0.0
 30
0.0
 70
   128
 71
    20
 72
    26
 73
    22
  0
VERTEX
  5
355
  8
0
 62
     9
 10
0.0
 20
0.0
 30
0.0
 70
   128
 71
    15
 72
    21
 73
    14
  0
VERTEX
  5
356
  8
0
 62
     9
 10
0.0
 20
0.0
 30
0.0
 70
   128
 71
     7
 72
     9
 73
     1
  0
VERTEX
  5
357
  8
0
 62
     9
 10
0.0
 20
0.0
 30
0.0
 70
   128
 71
     2
 72
    23
 73
    20
  0
VERTEX
  5
358
  8
0
 62
     9
 10
0.0
 20
0.0
 30
0.0
 70
   128
 71
     2
 72
    15
 73
     1
  0
VERTEX
  5
359
  8
0
 62
     9
 10
0.0
 20
0.0
 30
0.0
 70
   128
 71
    20
 72
    15
 73
     2
  0
VERTEX
  5
35A
  8
0
 62
     9
 10
0.0
 20
0.0
 30
0.0
 70
   128
 71
     4
 72
     2
 73
     6
  0
VERTEX
  5
35B
  8
0
 62
     9
 10
0.0
 20
0.0
 30
0.0
 70
   128
 71
     2
 72
    36
 73
    27
  0
VERTEX
  5
35C
  8
0
 62
     9
 10
0.0
 20
0.0
 30
0.0
 70
   128
 71
     4
 72
    36
 73
     2
  0
VERTEX
  5
35D
  8
0
 62
     9
 10
0.0
 20
0.0
 30
0.0
 70
   128
 71
     1
 72
    12
 73
     3
  0
VERTEX
  5
35E
  8
0
 62
     9
 10
0.0
 20
0.0
 30
0.0
 70
   128
 71
    27
 72
    23
 73
     2
  0
SEQEND
  5
35F
  8
0
 62
     9
  0
ENDBLK
  5
362
  8
0
  0
BLOCK
  8
0
  2
E3_NODE_8_
 70
     0
 10
0.0
 20
0.0
 30
0.0
  3
E3_NODE_8_
  1

  0
POLYLINE
  5
364
  8
0
 62
     9
 66
     1
 10
0.0
 20
0.0
 30
0.0
 70
    64
 71
    45
 72
    50
  0
VERTEX
  5
365
  8
0
 10
2.747999906539917
 20
81.5770034790039
 30
37.54899978637695
 70
   192
  0
VERTEX
  5
366
  8
0
 10
-2.21399998664856
 20
81.57099914550781
 30
37.44100189208984
 70
   192
  0
VERTEX
  5
367
  8
0
 10
-0.0599999986588955
 20
82.5479965209961
 30
49.65900039672852
 70
   192
  0
VERTEX
  5
368
  8
0
 10
6.829999923706055
 20
81.5770034790039
 30
60.69800186157227
 70
   192
  0
VERTEX
  5
369
  8
0
 10
-0.0060000000521541
 20
82.54900360107422
 30
49.96900177001953
 70
   192
  0
VERTEX
  5
36A
  8
0
 10
2.163000106811523
 20
81.61199951171875
 30
62.26900100708008
 70
   192
  0
VERTEX
  5
36B
  8
0
 10
4.283999919891357
 20
78.8239974975586
 30
74.29299926757812
 70
   192
  0
VERTEX
  5
36C
  8
0
 10
4.335999965667725
 20
78.7300033569336
 30
74.58899688720703
 70
   192
  0
VERTEX
  5
36D
  8
0
 10
6.896999835968018
 20
78.7300033569336
 30
73.99700164794922
 70
   192
  0
VERTEX
  5
36E
  8
0
 10
8.72599983215332
 20
78.7300033569336
 30
73.39399719238281
 70
   192
  0
VERTEX
  5
36F
  8
0
 10
2.203000068664551
 20
81.55999755859375
 30
62.49300003051758
 70
   192
  0
VERTEX
  5
370
  8
0
 10
13.36600017547607
 20
78.7300033569336
 30
70.93800354003906
 70
   192
  0
VERTEX
  5
371
  8
0
 10
15.98799991607666
 20
78.7300033569336
 30
69.18399810791016
 70
   192
  0
VERTEX
  5
372
  8
0
 10
20.39699935913086
 20
78.7300033569336
 30
64.41699981689453
 70
   192
  0
VERTEX
  5
373
  8
0
 10
10.41499996185303
 20
81.5770034790039
 30
57.26599884033203
 70
   192
  0
VERTEX
  5
374
  8
0
 10
13.64099979400635
 20
78.7300033569336
 30
70.79199981689453
 70
   192
  0
VERTEX
  5
375
  8
0
 10
14.46300029754639
 20
78.7300033569336
 30
70.35600280761719
 70
   192
  0
VERTEX
  5
376
  8
0
 10
12.41399955749512
 20
81.5770034790039
 30
52.72200012207031
 70
   192
  0
VERTEX
  5
377
  8
0
 10
22.74799919128418
 20
78.7300033569336
 30
59.80400085449219
 70
   192
  0
VERTEX
  5
378
  8
0
 10
24.02799987792969
 20
78.7300033569336
 30
56.85200119018555
 70
   192
  0
VERTEX
  5
379
  8
0
 10
21.44599914550781
 20
78.7300033569336
 30
62.80799865722656
 70
   192
  0
VERTEX
  5
37A
  8
0
 10
20.4689998626709
 20
78.7300033569336
 30
64.30599975585938
 70
   192
  0
VERTEX
  5
37B
  8
0
 10
12.52299976348877
 20
81.5770034790039
 30
47.7599983215332
 70
   192
  0
VERTEX
  5
37C
  8
0
 10
24.95199966430664
 20
78.7300033569336
 30
48.50899887084961
 70
   192
  0
VERTEX
  5
37D
  8
0
 10
24.76499938964844
 20
78.7300033569336
 30
46.59099960327148
 70
   192
  0
VERTEX
  5
37E
  8
0
 10
24.38999938964844
 20
78.7300033569336
 30
55.37699890136719
 70
   192
  0
VERTEX
  5
37F
  8
0
 10
24.48600006103516
 20
78.7300033569336
 30
54.98400115966797
 70
   192
  0
VERTEX
  5
380
  8
0
 10
23.06100082397461
 20
78.7300033569336
 30
40.32799911499023
 70
   192
  0
VERTEX
  5
381
  8
0
 10
10.72399997711182
 20
81.5770034790039
 30
43.13399887084961
 70
   192
  0
VERTEX
  5
382
  8
0
 10
24.51099967956543
 20
78.7300033569336
 30
45.65599822998047
 70
   192
  0
VERTEX
  5
383
  8
0
 10
22.25200080871582
 20
78.7300033569336
 30
38.58499908447266
 70
   192
  0
VERTEX
  5
384
  8
0
 10
17.22900009155273
 20
78.7300033569336
 30
31.85899925231934
 70
   192
  0
VERTEX
  5
385
  8
0
 10
14.21199989318848
 20
78.7300033569336
 30
29.6569995880127
 70
   192
  0
VERTEX
  5
386
  8
0
 10
7.290999889373779
 20
81.5770034790039
 30
39.54800033569336
 70
   192
  0
VERTEX
  5
387
  8
0
 10
20.77700042724609
 20
78.7300033569336
 30
36.44200134277344
 70
   192
  0
VERTEX
  5
388
  8
0
 10
18.56999969482422
 20
78.7300033569336
 30
33.23699951171875
 70
   192
  0
VERTEX
  5
389
  8
0
 10
20.91799926757812
 20
78.7300033569336
 30
36.64699935913086
 70
   192
  0
VERTEX
  5
38A
  8
0
 10
9.961999893188477
 20
78.7300033569336
 30
27.08399963378906
 70
   192
  0
VERTEX
  5
38B
  8
0
 10
5.364999771118164
 20
78.7300033569336
 30
25.69700050354004
 70
   192
  0
VERTEX
  5
38C
  8
0
 10
11.98600006103516
 20
78.7300033569336
 30
28.0319995880127
 70
   192
  0
VERTEX
  5
38D
  8
0
 10
10.26299953460693
 20
78.7300033569336
 30
27.17499923706055
 70
   192
  0
VERTEX
  5
38E
  8
0
 10
2.138999938964844
 20
78.7300033569336
 30
25.06100082397461
 70
   192
  0
VERTEX
  5
38F
  8
0
 10
-4.347000122070312
 20
78.7300033569336
 30
25.34900093078613
 70
   192
  0
VERTEX
  5
390
  8
0
 10
-2.227999925613403
 20
81.56500244140625
 30
37.36299896240234
 70
   192
  0
VERTEX
  5
391
  8
0
 10
4.047999858856201
 20
78.7300033569336
 30
25.29999923706055
 70
   192
  0
VERTEX
  5
392
  8
0
 62
     9
 10
0.0
 20
0.0
 30
0.0
 70
   128
 71
     3
 72
     2
 73
     1
  0
VERTEX
  5
393
  8
0
 62
     9
 10
0.0
 20
0.0
 30
0.0
 70
   128
 71
     6
 72
     5
 73
     4
  0
VERTEX
  5
394
  8
0
 62
     9
 10
0.0
 20
0.0
 30
0.0
 70
   128
 71
     9
 72
     8
 73
     7
  0
VERTEX
  5
395
  8
0
 62
     9
 10
0.0
 20
0.0
 30
0.0
 70
   128
 71
    11
 72
     4
 73
    10
  0
VERTEX
  5
396
  8
0
 62
     9
 10
0.0
 20
0.0
 30
0.0
 70
   128
 71
    10
 72
     7
 73
    11
  0
VERTEX
  5
397
  8
0
 62
     9
 10
0.0
 20
0.0
 30
0.0
 70
   128
 71
     4
 72
    12
 73
    10
  0
VERTEX
  5
398
  8
0
 62
     9
 10
0.0
 20
0.0
 30
0.0
 70
   128
 71
    15
 72
    14
 73
    13
  0
VERTEX
  5
399
  8
0
 62
     9
 10
0.0
 20
0.0
 30
0.0
 70
   128
 71
    13
 72
     4
 73
    15
  0
VERTEX
  5
39A
  8
0
 62
     9
 10
0.0
 20
0.0
 30
0.0
 70
   128
 71
    17
 72
    16
 73
     4
  0
VERTEX
  5
39B
  8
0
 62
     9
 10
0.0
 20
0.0
 30
0.0
 70
   128
 71
     4
 72
    13
 73
    17
  0
VERTEX
  5
39C
  8
0
 62
     9
 10
0.0
 20
0.0
 30
0.0
 70
   128
 71
    16
 72
    12
 73
     4
  0
VERTEX
  5
39D
  8
0
 62
     9
 10
0.0
 20
0.0
 30
0.0
 70
   128
 71
    20
 72
    19
 73
    18
  0
VERTEX
  5
39E
  8
0
 62
     9
 10
0.0
 20
0.0
 30
0.0
 70
   128
 71
    19
 72
    21
 73
    15
  0
VERTEX
  5
39F
  8
0
 62
     9
 10
0.0
 20
0.0
 30
0.0
 70
   128
 71
    21
 72
    22
 73
    15
  0
VERTEX
  5
3A0
  8
0
 62
     9
 10
0.0
 20
0.0
 30
0.0
 70
   128
 71
    15
 72
    18
 73
    19
  0
VERTEX
  5
3A1
  8
0
 62
     9
 10
0.0
 20
0.0
 30
0.0
 70
   128
 71
    25
 72
    24
 73
    23
  0
VERTEX
  5
3A2
  8
0
 62
     9
 10
0.0
 20
0.0
 30
0.0
 70
   128
 71
    18
 72
    23
 73
    24
  0
VERTEX
  5
3A3
  8
0
 62
     9
 10
0.0
 20
0.0
 30
0.0
 70
   128
 71
    27
 72
    26
 73
    18
  0
VERTEX
  5
3A4
  8
0
 62
     9
 10
0.0
 20
0.0
 30
0.0
 70
   128
 71
    24
 72
    27
 73
    18
  0
VERTEX
  5
3A5
  8
0
 62
     9
 10
0.0
 20
0.0
 30
0.0
 70
   128
 71
    23
 72
    29
 73
    28
  0
VERTEX
  5
3A6
  8
0
 62
     9
 10
0.0
 20
0.0
 30
0.0
 70
   128
 71
    28
 72
    30
 73
    23
  0
VERTEX
  5
3A7
  8
0
 62
     9
 10
0.0
 20
0.0
 30
0.0
 70
   128
 71
    29
 72
    31
 73
    28
  0
VERTEX
  5
3A8
  8
0
 62
     9
 10
0.0
 20
0.0
 30
0.0
 70
   128
 71
    34
 72
    33
 73
    32
  0
VERTEX
  5
3A9
  8
0
 62
     9
 10
0.0
 20
0.0
 30
0.0
 70
   128
 71
    36
 72
    35
 73
    29
  0
VERTEX
  5
3AA
  8
0
 62
     9
 10
0.0
 20
0.0
 30
0.0
 70
   128
 71
    29
 72
    32
 73
    36
  0
VERTEX
  5
3AB
  8
0
 62
     9
 10
0.0
 20
0.0
 30
0.0
 70
   128
 71
    35
 72
    37
 73
    29
  0
VERTEX
  5
3AC
  8
0
 62
     9
 10
0.0
 20
0.0
 30
0.0
 70
   128
 71
     1
 72
    39
 73
    38
  0
VERTEX
  5
3AD
  8
0
 62
     9
 10
0.0
 20
0.0
 30
0.0
 70
   128
 71
    41
 72
    40
 73
    34
  0
VERTEX
  5
3AE
  8
0
 62
     9
 10
0.0
 20
0.0
 30
0.0
 70
   128
 71
    40
 72
    33
 73
    34
  0
VERTEX
  5
3AF
  8
0
 62
     9
 10
0.0
 20
0.0
 30
0.0
 70
   128
 71
    34
 72
    38
 73
    41
  0
VERTEX
  5
3B0
  8
0
 62
     9
 10
0.0
 20
0.0
 30
0.0
 70
   128
 71
    44
 72
    43
 73
    42
  0
VERTEX
  5
3B1
  8
0
 62
     9
 10
0.0
 20
0.0
 30
0.0
 70
   128
 71
    45
 72
    39
 73
     1
  0
VERTEX
  5
3B2
  8
0
 62
     9
 10
0.0
 20
0.0
 30
0.0
 70
   128
 71
     1
 72
    42
 73
    45
  0
VERTEX
  5
3B3
  8
0
 62
     9
 10
0.0
 20
0.0
 30
0.0
 70
   128
 71
    42
 72
     1
 73
    44
  0
VERTEX
  5
3B4
  8
0
 62
     9
 10
0.0
 20
0.0
 30
0.0
 70
   128
 71
     1
 72
     2
 73
    44
  0
VERTEX
  5
3B5
  8
0
 62
     9
 10
0.0
 20
0.0
 30
0.0
 70
   128
 71
    38
 72
    34
 73
     1
  0
VERTEX
  5
3B6
  8
0
 62
     9
 10
0.0
 20
0.0
 30
0.0
 70
   128
 71
    32
 72
    29
 73
    34
  0
VERTEX
  5
3B7
  8
0
 62
     9
 10
0.0
 20
0.0
 30
0.0
 70
   128
 71
    29
 72
    37
 73
    31
  0
VERTEX
  5
3B8
  8
0
 62
     9
 10
0.0
 20
0.0
 30
0.0
 70
   128
 71
    23
 72
    30
 73
    25
  0
VERTEX
  5
3B9
  8
0
 62
     9
 10
0.0
 20
0.0
 30
0.0
 70
   128
 71
    18
 72
    26
 73
    20
  0
VERTEX
  5
3BA
  8
0
 62
     9
 10
0.0
 20
0.0
 30
0.0
 70
   128
 71
    15
 72
    22
 73
    14
  0
VERTEX
  5
3BB
  8
0
 62
     9
 10
0.0
 20
0.0
 30
0.0
 70
   128
 71
     7
 72
    10
 73
     9
  0
VERTEX
  5
3BC
  8
0
 62
     9
 10
0.0
 20
0.0
 30
0.0
 70
   128
 71
     4
 72
    11
 73
     6
  0
VERTEX
  5
3BD
  8
0
 62
     9
 10
0.0
 20
0.0
 30
0.0
 70
   128
 71
    18
 72
    15
 73
     5
  0
VERTEX
  5
3BE
  8
0
 62
     9
 10
0.0
 20
0.0
 30
0.0
 70
   128
 71
     5
 72
    15
 73
     4
  0
VERTEX
  5
3BF
  8
0
 62
     9
 10
0.0
 20
0.0
 30
0.0
 70
   128
 71
    29
 72
    23
 73
     5
  0
VERTEX
  5
3C0
  8
0
 62
     9
 10
0.0
 20
0.0
 30
0.0
 70
   128
 71
     1
 72
    34
 73
     5
  0
VERTEX
  5
3C1
  8
0
 62
     9
 10
0.0
 20
0.0
 30
0.0
 70
   128
 71
     5
 72
    34
 73
    29
  0
VERTEX
  5
3C2
  8
0
 62
     9
 10
0.0
 20
0.0
 30
0.0
 70
   128
 71
     1
 72
     5
 73
     3
  0
VERTEX
  5
3C3
  8
0
 62
     9
 10
0.0
 20
0.0
 30
0.0
 70
   128
 71
     5
 72
    23
 73
    18
  0
SEQEND
  5
3C4
  8
0
 62
     9
  0
ENDBLK
  5
3C7
  8
0
  0
BLOCK
  8
0
  2
E3_NODE_9_
 70
     0
 10
0.0
 20
0.0
 30
0.0
  3
E3_NODE_9_
  1

  0
POLYLINE
  5
3C9
  8
0
 62
     9
 66
     1
 10
0.0
 20
0.0
 30
0.0
 70
    64
 71
     7
 72
     5
  0
VERTEX
  5
3CA
  8
0
 10
11.39599990844727
 20
63.68199920654297
 30
126.1460037231445
 70
   192
  0
VERTEX
  5
3CB
  8
0
 10
11.49400043487549
 20
72.68199920654297
 30
126.1289978027344
 70
   192
  0
VERTEX
  5
3CC
  8
0
 10
2.441999912261963
 20
72.19200134277344
 30
74.8489990234375
 70
   192
  0
VERTEX
  5
3CD
  8
0
 10
2.45199990272522
 20
72.68199920654297
 30
74.8479995727539
 70
   192
  0
VERTEX
  5
3CE
  8
0
 10
2.447000026702881
 20
63.68199920654297
 30
74.8479995727539
 70
   192
  0
VERTEX
  5
3CF
  8
0
 10
2.45199990272522
 20
54.68199920654297
 30
74.8479995727539
 70
   192
  0
VERTEX
  5
3D0
  8
0
 10
11.49400043487549
 20
54.68199920654297
 30
126.1289978027344
 70
   192
  0
VERTEX
  5
3D1
  8
0
 62
     9
 10
0.0
 20
0.0
 30
0.0
 70
   128
 71
     3
 72
     2
 73
     1
  0
VERTEX
  5
3D2
  8
0
 62
     9
 10
0.0
 20
0.0
 30
0.0
 70
   128
 71
     3
 72
     4
 73
     2
  0
VERTEX
  5
3D3
  8
0
 62
     9
 10
0.0
 20
0.0
 30
0.0
 70
   128
 71
     6
 72
     5
 73
     1
  0
VERTEX
  5
3D4
  8
0
 62
     9
 10
0.0
 20
0.0
 30
0.0
 70
   128
 71
     1
 72
     7
 73
     6
  0
VERTEX
  5
3D5
  8
0
 62
     9
 10
0.0
 20
0.0
 30
0.0
 70
   128
 71
     1
 72
     5
 73
     3
  0
SEQEND
  5
3D6
  8
0
 62
     9
  0
ENDBLK
  5
3D9
  8
0
  0
BLOCK
  8
0
  2
E3_NODE_10_
 70
     0
 10
0.0
 20
0.0
 30
0.0
  3
E3_NODE_10_
  1

  0
POLYLINE
  5
3DB
  8
0
 62
     9
 66
     1
 10
0.0
 20
0.0
 30
0.0
 70
    64
 71
     5
 72
     3
  0
VERTEX
  5
3DC
  8
0
 10
6.193999767303467
 20
72.68199920654297
 30
74.18800354003906
 70
   192
  0
VERTEX
  5
3DD
  8
0
 10
2.45199990272522
 20
72.68199920654297
 30
74.8479995727539
 70
   192
  0
VERTEX
  5
3DE
  8
0
 10
13.36499977111816
 20
72.68199920654297
 30
125.7990036010742
 70
   192
  0
VERTEX
  5
3DF
  8
0
 10
11.49400043487549
 20
72.68199920654297
 30
126.1289978027344
 70
   192
  0
VERTEX
  5
3E0
  8
0
 10
15.23700046539307
 20
72.68199920654297
 30
125.4690017700195
 70
   192
  0
VERTEX
  5
3E1
  8
0
 62
     9
 10
0.0
 20
0.0
 30
0.0
 70
   128
 71
     3
 72
     2
 73
     1
  0
VERTEX
  5
3E2
  8
0
 62
     9
 10
0.0
 20
0.0
 30
0.0
 70
   128
 71
     3
 72
     4
 73
     2
  0
VERTEX
  5
3E3
  8
0
 62
     9
 10
0.0
 20
0.0
 30
0.0
 70
   128
 71
     1
 72
     5
 73
     3
  0
SEQEND
  5
3E4
  8
0
 62
     9
  0
ENDBLK
  5
3E7
  8
0
  0
BLOCK
  8
0
  2
E3_NODE_11_
 70
     0
 10
0.0
 20
0.0
 30
0.0
  3
E3_NODE_11_
  1

  0
POLYLINE
  5
3E9
  8
0
 62
     9
 66
     1
 10
0.0
 20
0.0
 30
0.0
 70
    64
 71
     5
 72
     3
  0
VERTEX
  5
3EA
  8
0
 10
2.45199990272522
 20
54.68199920654297
 30
74.8479995727539
 70
   192
  0
VERTEX
  5
3EB
  8
0
 10
6.193999767303467
 20
54.68199920654297
 30
74.18800354003906
 70
   192
  0
VERTEX
  5
3EC
  8
0
 10
13.36499977111816
 20
54.68199920654297
 30
125.7990036010742
 70
   192
  0
VERTEX
  5
3ED
  8
0
 10
15.23700046539307
 20
54.68199920654297
 30
125.4690017700195
 70
   192
  0
VERTEX
  5
3EE
  8
0
 10
11.49400043487549
 20
54.68199920654297
 30
126.1289978027344
 70
   192
  0
VERTEX
  5
3EF
  8
0
 62
     9
 10
0.0
 20
0.0
 30
0.0
 70
   128
 71
     3
 72
     2
 73
     1
  0
VERTEX
  5
3F0
  8
0
 62
     9
 10
0.0
 20
0.0
 30
0.0
 70
   128
 71
     3
 72
     4
 73
     2
  0
VERTEX
  5
3F1
  8
0
 62
     9
 10
0.0
 20
0.0
 30
0.0
 70
   128
 71
     1
 72
     5
 73
     3
  0
SEQEND
  5
3F2
  8
0
 62
     9
  0
ENDBLK
  5
3F5
  8
0
  0
BLOCK
  8
0
  2
E3_NODE_12_
 70
     0
 10
0.0
 20
0.0
 30
0.0
  3
E3_NODE_12_
  1

  0
POLYLINE
  5
3F7
  8
0
 62
     9
 66
     1
 10
0.0
 20
0.0
 30
0.0
 70
    64
 71
    11
 72
     9
  0
VERTEX
  5
3F8
  8
0
 10
11.39599990844727
 20
63.68199920654297
 30
126.1460037231445
 70
   192
  0
VERTEX
  5
3F9
  8
0
 10
12.53800010681152
 20
69.68499755859375
 30
132.0469970703125
 70
   192
  0
VERTEX
  5
3FA
  8
0
 10
12.16300010681152
 20
71.81500244140625
 30
129.9239959716797
 70
   192
  0
VERTEX
  5
3FB
  8
0
 10
12.97999954223633
 20
63.63000106811523
 30
134.5540008544922
 70
   192
  0
VERTEX
  5
3FC
  8
0
 10
12.89799976348877
 20
67.63500213623047
 30
134.0910034179688
 70
   192
  0
VERTEX
  5
3FD
  8
0
 10
12.55900001525879
 20
57.46500015258789
 30
132.1660003662109
 70
   192
  0
VERTEX
  5
3FE
  8
0
 10
13.01900005340576
 20
61.70399856567383
 30
134.7760009765625
 70
   192
  0
VERTEX
  5
3FF
  8
0
 10
12.01299953460693
 20
55.19100189208984
 30
129.0690002441406
 70
   192
  0
VERTEX
  5
400
  8
0
 10
12.4709997177124
 20
56.65499877929688
 30
131.6679992675781
 70
   192
  0
VERTEX
  5
401
  8
0
 10
11.49400043487549
 20
54.68199920654297
 30
126.1289978027344
 70
   192
  0
VERTEX
  5
402
  8
0
 10
11.49400043487549
 20
72.68199920654297
 30
126.1289978027344
 70
   192
  0
VERTEX
  5
403
  8
0
 62
     9
 10
0.0
 20
0.0
 30
0.0
 70
   128
 71
     3
 72
     2
 73
     1
  0
VERTEX
  5
404
  8
0
 62
     9
 10
0.0
 20
0.0
 30
0.0
 70
   128
 71
     5
 72
     4
 73
     1
  0
VERTEX
  5
405
  8
0
 62
     9
 10
0.0
 20
0.0
 30
0.0
 70
   128
 71
     7
 72
     6
 73
     1
  0
VERTEX
  5
406
  8
0
 62
     9
 10
0.0
 20
0.0
 30
0.0
 70
   128
 71
     9
 72
     8
 73
     1
  0
VERTEX
  5
407
  8
0
 62
     9
 10
0.0
 20
0.0
 30
0.0
 70
   128
 71
     8
 72
    10
 73
     1
  0
VERTEX
  5
408
  8
0
 62
     9
 10
0.0
 20
0.0
 30
0.0
 70
   128
 71
     1
 72
     6
 73
     9
  0
VERTEX
  5
409
  8
0
 62
     9
 10
0.0
 20
0.0
 30
0.0
 70
   128
 71
     1
 72
     4
 73
     7
  0
VERTEX
  5
40A
  8
0
 62
     9
 10
0.0
 20
0.0
 30
0.0
 70
   128
 71
     1
 72
     2
 73
     5
  0
VERTEX
  5
40B
  8
0
 62
     9
 10
0.0
 20
0.0
 30
0.0
 70
   128
 71
     1
 72
    11
 73
     3
  0
SEQEND
  5
40C
  8
0
 62
     9
  0
ENDBLK
  5
40F
  8
0
  0
BLOCK
  8
0
  2
E3_NODE_13_
 70
     0
 10
0.0
 20
0.0
 30
0.0
  3
E3_NODE_13_
  1

  0
POLYLINE
  5
411
  8
0
 62
     9
 66
     1
 10
0.0
 20
0.0
 30
0.0
 70
    64
 71
    25
 72
    26
  0
VERTEX
  5
412
  8
0
 10
13.36499977111816
 20
54.68199920654297
 30
125.7990036010742
 70
   192
  0
VERTEX
  5
413
  8
0
 10
15.23700046539307
 20
54.68199920654297
 30
125.4690017700195
 70
   192
  0
VERTEX
  5
414
  8
0
 10
15.9060001373291
 20
55.54800033569336
 30
129.2630004882812
 70
   192
  0
VERTEX
  5
415
  8
0
 10
14.4709997177124
 20
57.31800079345703
 30
132.0679931640625
 70
   192
  0
VERTEX
  5
416
  8
0
 10
14.92800045013428
 20
63.68199920654297
 30
134.6620025634766
 70
   192
  0
VERTEX
  5
417
  8
0
 10
16.63999938964844
 20
59.72800064086914
 30
133.4309997558594
 70
   192
  0
VERTEX
  5
418
  8
0
 10
16.28000068664551
 20
57.67800140380859
 30
131.3869934082031
 70
   192
  0
VERTEX
  5
419
  8
0
 10
14.4709997177124
 20
70.0459976196289
 30
132.0679931640625
 70
   192
  0
VERTEX
  5
41A
  8
0
 10
16.76099967956543
 20
65.65799713134766
 30
134.1170043945312
 70
   192
  0
VERTEX
  5
41B
  8
0
 10
16.72200012207031
 20
63.73400115966797
 30
133.8939971923828
 70
   192
  0
VERTEX
  5
41C
  8
0
 10
16.21299934387207
 20
70.70800018310547
 30
131.0090026855469
 70
   192
  0
VERTEX
  5
41D
  8
0
 10
15.75500011444092
 20
72.1719970703125
 30
128.4100036621094
 70
   192
  0
VERTEX
  5
41E
  8
0
 10
16.30100059509277
 20
69.89900207519531
 30
131.5059967041016
 70
   192
  0
VERTEX
  5
41F
  8
0
 10
13.36499977111816
 20
72.68199920654297
 30
125.7990036010742
 70
   192
  0
VERTEX
  5
420
  8
0
 10
11.49400043487549
 20
72.68199920654297
 30
126.1289978027344
 70
   192
  0
VERTEX
  5
421
  8
0
 10
12.16300010681152
 20
71.81500244140625
 30
129.9239959716797
 70
   192
  0
VERTEX
  5
422
  8
0
 10
12.89799976348877
 20
67.63500213623047
 30
134.0910034179688
 70
   192
  0
VERTEX
  5
423
  8
0
 10
12.53800010681152
 20
69.68499755859375
 30
132.0469970703125
 70
   192
  0
VERTEX
  5
424
  8
0
 10
13.01900005340576
 20
61.70399856567383
 30
134.7760009765625
 70
   192
  0
VERTEX
  5
425
  8
0
 10
12.97999954223633
 20
63.63000106811523
 30
134.5540008544922
 70
   192
  0
VERTEX
  5
426
  8
0
 10
12.4709997177124
 20
56.65499877929688
 30
131.6679992675781
 70
   192
  0
VERTEX
  5
427
  8
0
 10
12.01299953460693
 20
55.19100189208984
 30
129.0690002441406
 70
   192
  0
VERTEX
  5
428
  8
0
 10
12.55900001525879
 20
57.46500015258789
 30
132.1660003662109
 70
   192
  0
VERTEX
  5
429
  8
0
 10
11.49400043487549
 20
54.68199920654297
 30
126.1289978027344
 70
   192
  0
VERTEX
  5
42A
  8
0
 10
15.23700046539307
 20
72.68199920654297
 30
125.4690017700195
 70
   192
  0
VERTEX
  5
42B
  8
0
 62
     9
 10
0.0
 20
0.0
 30
0.0
 70
   128
 71
     3
 72
     2
 73
     1
  0
VERTEX
  5
42C
  8
0
 62
     9
 10
0.0
 20
0.0
 30
0.0
 70
   128
 71
     1
 72
     4
 73
     3
  0
VERTEX
  5
42D
  8
0
 62
     9
 10
0.0
 20
0.0
 30
0.0
 70
   128
 71
     6
 72
     4
 73
     5
  0
VERTEX
  5
42E
  8
0
 62
     9
 10
0.0
 20
0.0
 30
0.0
 70
   128
 71
     6
 72
     7
 73
     4
  0
VERTEX
  5
42F
  8
0
 62
     9
 10
0.0
 20
0.0
 30
0.0
 70
   128
 71
     9
 72
     5
 73
     8
  0
VERTEX
  5
430
  8
0
 62
     9
 10
0.0
 20
0.0
 30
0.0
 70
   128
 71
     9
 72
    10
 73
     5
  0
VERTEX
  5
431
  8
0
 62
     9
 10
0.0
 20
0.0
 30
0.0
 70
   128
 71
    12
 72
    11
 73
     8
  0
VERTEX
  5
432
  8
0
 62
     9
 10
0.0
 20
0.0
 30
0.0
 70
   128
 71
    11
 72
    13
 73
     8
  0
VERTEX
  5
433
  8
0
 62
     9
 10
0.0
 20
0.0
 30
0.0
 70
   128
 71
     8
 72
    14
 73
    12
  0
VERTEX
  5
434
  8
0
 62
     9
 10
0.0
 20
0.0
 30
0.0
 70
   128
 71
    16
 72
    15
 73
    14
  0
VERTEX
  5
435
  8
0
 62
     9
 10
0.0
 20
0.0
 30
0.0
 70
   128
 71
    14
 72
     8
 73
    16
  0
VERTEX
  5
436
  8
0
 62
     9
 10
0.0
 20
0.0
 30
0.0
 70
   128
 71
    17
 72
     8
 73
     5
  0
VERTEX
  5
437
  8
0
 62
     9
 10
0.0
 20
0.0
 30
0.0
 70
   128
 71
    17
 72
    18
 73
     8
  0
VERTEX
  5
438
  8
0
 62
     9
 10
0.0
 20
0.0
 30
0.0
 70
   128
 71
    19
 72
     5
 73
     4
  0
VERTEX
  5
439
  8
0
 62
     9
 10
0.0
 20
0.0
 30
0.0
 70
   128
 71
    19
 72
    20
 73
     5
  0
VERTEX
  5
43A
  8
0
 62
     9
 10
0.0
 20
0.0
 30
0.0
 70
   128
 71
    22
 72
    21
 73
     4
  0
VERTEX
  5
43B
  8
0
 62
     9
 10
0.0
 20
0.0
 30
0.0
 70
   128
 71
    21
 72
    23
 73
     4
  0
VERTEX
  5
43C
  8
0
 62
     9
 10
0.0
 20
0.0
 30
0.0
 70
   128
 71
     4
 72
     1
 73
    22
  0
VERTEX
  5
43D
  8
0
 62
     9
 10
0.0
 20
0.0
 30
0.0
 70
   128
 71
     1
 72
    24
 73
    22
  0
VERTEX
  5
43E
  8
0
 62
     9
 10
0.0
 20
0.0
 30
0.0
 70
   128
 71
     4
 72
    23
 73
    19
  0
VERTEX
  5
43F
  8
0
 62
     9
 10
0.0
 20
0.0
 30
0.0
 70
   128
 71
     5
 72
    20
 73
    17
  0
VERTEX
  5
440
  8
0
 62
     9
 10
0.0
 20
0.0
 30
0.0
 70
   128
 71
     8
 72
    18
 73
    16
  0
VERTEX
  5
441
  8
0
 62
     9
 10
0.0
 20
0.0
 30
0.0
 70
   128
 71
    14
 72
    25
 73
    12
  0
VERTEX
  5
442
  8
0
 62
     9
 10
0.0
 20
0.0
 30
0.0
 70
   128
 71
     8
 72
    13
 73
     9
  0
VERTEX
  5
443
  8
0
 62
     9
 10
0.0
 20
0.0
 30
0.0
 70
   128
 71
     5
 72
    10
 73
     6
  0
VERTEX
  5
444
  8
0
 62
     9
 10
0.0
 20
0.0
 30
0.0
 70
   128
 71
     4
 72
     7
 73
     3
  0
SEQEND
  5
445
  8
0
 62
     9
  0
ENDBLK
  5
448
  8
0
  0
BLOCK
  8
0
  2
E3_NODE_14_
 70
     0
 10
0.0
 20
0.0
 30
0.0
  3
E3_NODE_14_
  1

  0
POLYLINE
  5
44A
  8
0
 62
     9
 66
     1
 10
0.0
 20
0.0
 30
0.0
 70
    64
 71
     7
 72
     5
  0
VERTEX
  5
44B
  8
0
 10
15.33500003814697
 20
63.68199920654297
 30
125.4520034790039
 70
   192
  0
VERTEX
  5
44C
  8
0
 10
15.23700046539307
 20
54.68199920654297
 30
125.4690017700195
 70
   192
  0
VERTEX
  5
44D
  8
0
 10
6.204999923706055
 20
55.17100143432617
 30
74.18499755859375
 70
   192
  0
VERTEX
  5
44E
  8
0
 10
6.193999767303467
 20
54.68199920654297
 30
74.18800354003906
 70
   192
  0
VERTEX
  5
44F
  8
0
 10
6.199999809265137
 20
63.68199920654297
 30
74.18599700927734
 70
   192
  0
VERTEX
  5
450
  8
0
 10
6.193999767303467
 20
72.68199920654297
 30
74.18800354003906
 70
   192
  0
VERTEX
  5
451
  8
0
 10
15.23700046539307
 20
72.68199920654297
 30
125.4690017700195
 70
   192
  0
VERTEX
  5
452
  8
0
 62
     9
 10
0.0
 20
0.0
 30
0.0
 70
   128
 71
     3
 72
     2
 73
     1
  0
VERTEX
  5
453
  8
0
 62
     9
 10
0.0
 20
0.0
 30
0.0
 70
   128
 71
     3
 72
     4
 73
     2
  0
VERTEX
  5
454
  8
0
 62
     9
 10
0.0
 20
0.0
 30
0.0
 70
   128
 71
     6
 72
     5
 73
     1
  0
VERTEX
  5
455
  8
0
 62
     9
 10
0.0
 20
0.0
 30
0.0
 70
   128
 71
     1
 72
     7
 73
     6
  0
VERTEX
  5
456
  8
0
 62
     9
 10
0.0
 20
0.0
 30
0.0
 70
   128
 71
     1
 72
     5
 73
     3
  0
SEQEND
  5
457
  8
0
 62
     9
  0
ENDBLK
  5
45A
  8
0
  0
BLOCK
  8
0
  2
E3_NODE_15_
 70
     0
 10
0.0
 20
0.0
 30
0.0
  3
E3_NODE_15_
  1

  0
POLYLINE
  5
45C
  8
0
 62
     9
 66
     1
 10
0.0
 20
0.0
 30
0.0
 70
    64
 71
    11
 72
     9
  0
VERTEX
  5
45D
  8
0
 10
15.33500003814697
 20
63.68199920654297
 30
125.4520034790039
 70
   192
  0
VERTEX
  5
45E
  8
0
 10
16.28000068664551
 20
57.67800140380859
 30
131.3869934082031
 70
   192
  0
VERTEX
  5
45F
  8
0
 10
15.9060001373291
 20
55.54800033569336
 30
129.2630004882812
 70
   192
  0
VERTEX
  5
460
  8
0
 10
16.72200012207031
 20
63.73400115966797
 30
133.8939971923828
 70
   192
  0
VERTEX
  5
461
  8
0
 10
16.63999938964844
 20
59.72800064086914
 30
133.4309997558594
 70
   192
  0
VERTEX
  5
462
  8
0
 10
16.30100059509277
 20
69.89900207519531
 30
131.5059967041016
 70
   192
  0
VERTEX
  5
463
  8
0
 10
16.76099967956543
 20
65.65799713134766
 30
134.1170043945312
 70
   192
  0
VERTEX
  5
464
  8
0
 10
15.75500011444092
 20
72.1719970703125
 30
128.4100036621094
 70
   192
  0
VERTEX
  5
465
  8
0
 10
16.21299934387207
 20
70.70800018310547
 30
131.0090026855469
 70
   192
  0
VERTEX
  5
466
  8
0
 10
15.23700046539307
 20
72.68199920654297
 30
125.4690017700195
 70
   192
  0
VERTEX
  5
467
  8
0
 10
15.23700046539307
 20
54.68199920654297
 30
125.4690017700195
 70
   192
  0
VERTEX
  5
468
  8
0
 62
     9
 10
0.0
 20
0.0
 30
0.0
 70
   128
 71
     3
 72
     2
 73
     1
  0
VERTEX
  5
469
  8
0
 62
     9
 10
0.0
 20
0.0
 30
0.0
 70
   128
 71
     5
 72
     4
 73
     1
  0
VERTEX
  5
46A
  8
0
 62
     9
 10
0.0
 20
0.0
 30
0.0
 70
   128
 71
     1
 72
     2
 73
     5
  0
VERTEX
  5
46B
  8
0
 62
     9
 10
0.0
 20
0.0
 30
0.0
 70
   128
 71
     7
 72
     6
 73
     1
  0
VERTEX
  5
46C
  8
0
 62
     9
 10
0.0
 20
0.0
 30
0.0
 70
   128
 71
     9
 72
     8
 73
     1
  0
VERTEX
  5
46D
  8
0
 62
     9
 10
0.0
 20
0.0
 30
0.0
 70
   128
 71
     8
 72
    10
 73
     1
  0
VERTEX
  5
46E
  8
0
 62
     9
 10
0.0
 20
0.0
 30
0.0
 70
   128
 71
     1
 72
     6
 73
     9
  0
VERTEX
  5
46F
  8
0
 62
     9
 10
0.0
 20
0.0
 30
0.0
 70
   128
 71
     1
 72
     4
 73
     7
  0
VERTEX
  5
470
  8
0
 62
     9
 10
0.0
 20
0.0
 30
0.0
 70
   128
 71
     1
 72
    11
 73
     3
  0
SEQEND
  5
471
  8
0
 62
     9
  0
ENDBLK
  5
474
  8
0
  0
BLOCK
  8
0
  2
E3_NODE_16_
 70
     0
 10
0.0
 20
0.0
 30
0.0
  3
E3_NODE_16_
  1

  0
POLYLINE
  5
476
  8
0
 62
     9
 66
     1
 10
0.0
 20
0.0
 30
0.0
 70
    64
 71
    12
 72
    12
  0
VERTEX
  5
477
  8
0
 10
144.3119964599609
 20
-9.526000022888184
 30
221.6450042724609
 70
   192
  0
VERTEX
  5
478
  8
0
 10
138.89599609375
 20
0.0
 30
220.6889953613281
 70
   192
  0
VERTEX
  5
479
  8
0
 10
139.677001953125
 20
0.0
 30
216.2579956054688
 70
   192
  0
VERTEX
  5
47A
  8
0
 10
155.1450042724609
 20
-9.526000022888184
 30
223.5549926757812
 70
   192
  0
VERTEX
  5
47B
  8
0
 10
145.093994140625
 20
-9.526000022888184
 30
217.2129974365234
 70
   192
  0
VERTEX
  5
47C
  8
0
 10
160.5619964599609
 20
0.0
 30
224.5099945068359
 70
   192
  0
VERTEX
  5
47D
  8
0
 10
155.927001953125
 20
-9.526000022888184
 30
219.1230010986328
 70
   192
  0
VERTEX
  5
47E
  8
0
 10
155.927001953125
 20
9.526000022888184
 30
219.1230010986328
 70
   192
  0
VERTEX
  5
47F
  8
0
 10
155.1450042724609
 20
9.526000022888184
 30
223.5549926757812
 70
   192
  0
VERTEX
  5
480
  8
0
 10
145.093994140625
 20
9.526000022888184
 30
217.2129974365234
 70
   192
  0
VERTEX
  5
481
  8
0
 10
144.3119964599609
 20
9.526000022888184
 30
221.6450042724609
 70
   192
  0
VERTEX
  5
482
  8
0
 10
161.3430023193359
 20
0.0
 30
220.0780029296875
 70
   192
  0
VERTEX
  5
483
  8
0
 62
     9
 10
0.0
 20
0.0
 30
0.0
 70
   128
 71
     3
 72
     2
 73
     1
  0
VERTEX
  5
484
  8
0
 62
     9
 10
0.0
 20
0.0
 30
0.0
 70
   128
 71
     5
 72
     1
 73
     4
  0
VERTEX
  5
485
  8
0
 62
     9
 10
0.0
 20
0.0
 30
0.0
 70
   128
 71
     7
 72
     4
 73
     6
  0
VERTEX
  5
486
  8
0
 62
     9
 10
0.0
 20
0.0
 30
0.0
 70
   128
 71
     6
 72
     9
 73
     8
  0
VERTEX
  5
487
  8
0
 62
     9
 10
0.0
 20
0.0
 30
0.0
 70
   128
 71
     9
 72
    11
 73
    10
  0
VERTEX
  5
488
  8
0
 62
     9
 10
0.0
 20
0.0
 30
0.0
 70
   128
 71
    11
 72
     2
 73
     3
  0
VERTEX
  5
489
  8
0
 62
     9
 10
0.0
 20
0.0
 30
0.0
 70
   128
 71
     3
 72
    10
 73
    11
  0
VERTEX
  5
48A
  8
0
 62
     9
 10
0.0
 20
0.0
 30
0.0
 70
   128
 71
    10
 72
     8
 73
     9
  0
VERTEX
  5
48B
  8
0
 62
     9
 10
0.0
 20
0.0
 30
0.0
 70
   128
 71
     8
 72
    12
 73
     6
  0
VERTEX
  5
48C
  8
0
 62
     9
 10
0.0
 20
0.0
 30
0.0
 70
   128
 71
     6
 72
    12
 73
     7
  0
VERTEX
  5
48D
  8
0
 62
     9
 10
0.0
 20
0.0
 30
0.0
 70
   128
 71
     4
 72
     7
 73
     5
  0
VERTEX
  5
48E
  8
0
 62
     9
 10
0.0
 20
0.0
 30
0.0
 70
   128
 71
     1
 72
     5
 73
     3
  0
SEQEND
  5
48F
  8
0
 62
     9
  0
ENDBLK
  5
492
  8
0
  0
BLOCK
  8
0
  2
E3_NODE_17_
 70
     0
 10
0.0
 20
0.0
 30
0.0
  3
E3_NODE_17_
  1

  0
POLYLINE
  5
494
  8
0
 62
     9
 66
     1
 10
0.0
 20
0.0
 30
0.0
 70
    64
 71
    33
 72
    33
  0
VERTEX
  5
495
  8
0
 10
155.1450042724609
 20
9.526000022888184
 30
223.5549926757812
 70
   192
  0
VERTEX
  5
496
  8
0
 10
149.6649932861328
 20
11.5
 30
222.5879974365234
 70
   192
  0
VERTEX
  5
497
  8
0
 10
153.4250030517578
 20
10.81400012969971
 30
223.2510070800781
 70
   192
  0
VERTEX
  5
498
  8
0
 10
138.89599609375
 20
0.0
 30
220.6889953613281
 70
   192
  0
VERTEX
  5
499
  8
0
 10
144.3119964599609
 20
-9.526000022888184
 30
221.6450042724609
 70
   192
  0
VERTEX
  5
49A
  8
0
 10
139.3009948730469
 20
-4.919000148773193
 30
220.7610015869141
 70
   192
  0
VERTEX
  5
49B
  8
0
 10
147.6190032958984
 20
11.16499996185303
 30
222.2279968261719
 70
   192
  0
VERTEX
  5
49C
  8
0
 10
144.3119964599609
 20
9.526000022888184
 30
221.6450042724609
 70
   192
  0
VERTEX
  5
49D
  8
0
 10
145.8970031738281
 20
10.88300037384033
 30
221.9239959716797
 70
   192
  0
VERTEX
  5
49E
  8
0
 10
155.1450042724609
 20
-9.526000022888184
 30
223.5549926757812
 70
   192
  0
VERTEX
  5
49F
  8
0
 10
152.0760040283203
 20
-11.21500015258789
 30
223.0140075683594
 70
   192
  0
VERTEX
  5
4A0
  8
0
 10
148.2680053710938
 20
-11.42500019073486
 30
222.3419952392578
 70
   192
  0
VERTEX
  5
4A1
  8
0
 10
140.9640045166016
 20
-7.322999954223633
 30
221.0540008544922
 70
   192
  0
VERTEX
  5
4A2
  8
0
 10
140.97900390625
 20
7.289000034332275
 30
221.0570068359375
 70
   192
  0
VERTEX
  5
4A3
  8
0
 10
138.5140075683594
 20
2.644999980926514
 30
220.6219940185547
 70
   192
  0
VERTEX
  5
4A4
  8
0
 10
139.9949951171875
 20
6.189000129699707
 30
220.8829956054688
 70
   192
  0
VERTEX
  5
4A5
  8
0
 10
160.5619964599609
 20
0.0
 30
224.5099945068359
 70
   192
  0
VERTEX
  5
4A6
  8
0
 10
160.6620025634766
 20
2.400000095367432
 30
224.5269927978516
 70
   192
  0
VERTEX
  5
4A7
  8
0
 10
155.1589965820312
 20
9.817000389099121
 30
223.5570068359375
 70
   192
  0
VERTEX
  5
4A8
  8
0
 10
156.7469940185547
 20
8.904000282287598
 30
223.8370056152344
 70
   192
  0
VERTEX
  5
4A9
  8
0
 10
158.4329986572266
 20
-7.175000190734863
 30
224.1340026855469
 70
   192
  0
VERTEX
  5
4AA
  8
0
 10
147.6199951171875
 20
-11.23299980163574
 30
222.2279968261719
 70
   192
  0
VERTEX
  5
4AB
  8
0
 10
155.5959930419922
 20
-9.741999626159668
 30
223.6340026855469
 70
   192
  0
VERTEX
  5
4AC
  8
0
 10
138.27099609375
 20
-1.200000047683716
 30
220.5789947509766
 70
   192
  0
VERTEX
  5
4AD
  8
0
 10
144.6009979248047
 20
-10.3430004119873
 30
221.6950073242188
 70
   192
  0
VERTEX
  5
4AE
  8
0
 10
141.4929962158203
 20
-8.088000297546387
 30
221.1470031738281
 70
   192
  0
VERTEX
  5
4AF
  8
0
 10
160.0829925537109
 20
3.875
 30
224.4250030517578
 70
   192
  0
VERTEX
  5
4B0
  8
0
 10
159.2530059814453
 20
5.98799991607666
 30
224.2790069580078
 70
   192
  0
VERTEX
  5
4B1
  8
0
 10
160.2079925537109
 20
-3.921999931335449
 30
224.4470062255859
 70
   192
  0
VERTEX
  5
4B2
  8
0
 10
160.9120025634766
 20
0.0
 30
224.5709991455078
 70
   192
  0
VERTEX
  5
4B3
  8
0
 10
160.2740020751953
 20
-3.802000045776367
 30
224.4589996337891
 70
   192
  0
VERTEX
  5
4B4
  8
0
 10
142.5489959716797
 20
9.041999816894531
 30
221.3339996337891
 70
   192
  0
VERTEX
  5
4B5
  8
0
 10
138.3470001220703
 20
-0.0089999996125698
 30
220.5930023193359
 70
   192
  0
VERTEX
  5
4B6
  8
0
 62
     9
 10
0.0
 20
0.0
 30
0.0
 70
   128
 71
     3
 72
     2
 73
     1
  0
VERTEX
  5
4B7
  8
0
 62
     9
 10
0.0
 20
0.0
 30
0.0
 70
   128
 71
     6
 72
     5
 73
     4
  0
VERTEX
  5
4B8
  8
0
 62
     9
 10
0.0
 20
0.0
 30
0.0
 70
   128
 71
     2
 72
     7
 73
     1
  0
VERTEX
  5
4B9
  8
0
 62
     9
 10
0.0
 20
0.0
 30
0.0
 70
   128
 71
     7
 72
     9
 73
     8
  0
VERTEX
  5
4BA
  8
0
 62
     9
 10
0.0
 20
0.0
 30
0.0
 70
   128
 71
    12
 72
    11
 73
    10
  0
VERTEX
  5
4BB
  8
0
 62
     9
 10
0.0
 20
0.0
 30
0.0
 70
   128
 71
     6
 72
    13
 73
     5
  0
VERTEX
  5
4BC
  8
0
 62
     9
 10
0.0
 20
0.0
 30
0.0
 70
   128
 71
    14
 72
     4
 73
     8
  0
VERTEX
  5
4BD
  8
0
 62
     9
 10
0.0
 20
0.0
 30
0.0
 70
   128
 71
    16
 72
    15
 73
     4
  0
VERTEX
  5
4BE
  8
0
 62
     9
 10
0.0
 20
0.0
 30
0.0
 70
   128
 71
     8
 72
     1
 73
     7
  0
VERTEX
  5
4BF
  8
0
 62
     9
 10
0.0
 20
0.0
 30
0.0
 70
   128
 71
    18
 72
     1
 73
    17
  0
VERTEX
  5
4C0
  8
0
 62
     9
 10
0.0
 20
0.0
 30
0.0
 70
   128
 71
    20
 72
    19
 73
     1
  0
VERTEX
  5
4C1
  8
0
 62
     9
 10
0.0
 20
0.0
 30
0.0
 70
   128
 71
    21
 72
    17
 73
    10
  0
VERTEX
  5
4C2
  8
0
 62
     9
 10
0.0
 20
0.0
 30
0.0
 70
   128
 71
    22
 72
    10
 73
     5
  0
VERTEX
  5
4C3
  8
0
 62
     9
 10
0.0
 20
0.0
 30
0.0
 70
   128
 71
    11
 72
    23
 73
    10
  0
VERTEX
  5
4C4
  8
0
 62
     9
 10
0.0
 20
0.0
 30
0.0
 70
   128
 71
     4
 72
    24
 73
     6
  0
VERTEX
  5
4C5
  8
0
 62
     9
 10
0.0
 20
0.0
 30
0.0
 70
   128
 71
    26
 72
    25
 73
     5
  0
VERTEX
  5
4C6
  8
0
 62
     9
 10
0.0
 20
0.0
 30
0.0
 70
   128
 71
     4
 72
    14
 73
    16
  0
VERTEX
  5
4C7
  8
0
 62
     9
 10
0.0
 20
0.0
 30
0.0
 70
   128
 71
     1
 72
    19
 73
     3
  0
VERTEX
  5
4C8
  8
0
 62
     9
 10
0.0
 20
0.0
 30
0.0
 70
   128
 71
    18
 72
    27
 73
     1
  0
VERTEX
  5
4C9
  8
0
 62
     9
 10
0.0
 20
0.0
 30
0.0
 70
   128
 71
     1
 72
    28
 73
    20
  0
VERTEX
  5
4CA
  8
0
 62
     9
 10
0.0
 20
0.0
 30
0.0
 70
   128
 71
    21
 72
    29
 73
    17
  0
VERTEX
  5
4CB
  8
0
 62
     9
 10
0.0
 20
0.0
 30
0.0
 70
   128
 71
    31
 72
    30
 73
    17
  0
VERTEX
  5
4CC
  8
0
 62
     9
 10
0.0
 20
0.0
 30
0.0
 70
   128
 71
    10
 72
    22
 73
    12
  0
VERTEX
  5
4CD
  8
0
 62
     9
 10
0.0
 20
0.0
 30
0.0
 70
   128
 71
     5
 72
    13
 73
    26
  0
VERTEX
  5
4CE
  8
0
 62
     9
 10
0.0
 20
0.0
 30
0.0
 70
   128
 71
     9
 72
    32
 73
     8
  0
VERTEX
  5
4CF
  8
0
 62
     9
 10
0.0
 20
0.0
 30
0.0
 70
   128
 71
     1
 72
    27
 73
    28
  0
VERTEX
  5
4D0
  8
0
 62
     9
 10
0.0
 20
0.0
 30
0.0
 70
   128
 71
    17
 72
    29
 73
    31
  0
VERTEX
  5
4D1
  8
0
 62
     9
 10
0.0
 20
0.0
 30
0.0
 70
   128
 71
     4
 72
    33
 73
    24
  0
VERTEX
  5
4D2
  8
0
 62
     9
 10
0.0
 20
0.0
 30
0.0
 70
   128
 71
    17
 72
    30
 73
    18
  0
VERTEX
  5
4D3
  8
0
 62
     9
 10
0.0
 20
0.0
 30
0.0
 70
   128
 71
     5
 72
    25
 73
    22
  0
VERTEX
  5
4D4
  8
0
 62
     9
 10
0.0
 20
0.0
 30
0.0
 70
   128
 71
    10
 72
    23
 73
    21
  0
VERTEX
  5
4D5
  8
0
 62
     9
 10
0.0
 20
0.0
 30
0.0
 70
   128
 71
     8
 72
    32
 73
    14
  0
VERTEX
  5
4D6
  8
0
 62
     9
 10
0.0
 20
0.0
 30
0.0
 70
   128
 71
    15
 72
    33
 73
     4
  0
SEQEND
  5
4D7
  8
0
 62
     9
  0
ENDBLK
  5
4DA
  8
0
  0
BLOCK
  8
0
  2
E3_NODE_18_
 70
     0
 10
0.0
 20
0.0
 30
0.0
  3
E3_NODE_18_
  1

  0
POLYLINE
  5
4DC
  8
0
 62
     9
 66
     1
 10
0.0
 20
0.0
 30
0.0
 70
    64
 71
   141
 72
   240
  0
VERTEX
  5
4DD
  8
0
 10
13.55900001525879
 20
0.0
 30
230.5390014648438
 70
   192
  0
VERTEX
  5
4DE
  8
0
 10
10.95600032806396
 20
-7.392000198364258
 30
231.218994140625
 70
   192
  0
VERTEX
  5
4DF
  8
0
 10
9.472000122070312
 20
-5.572999954223633
 30
214.5
 70
   192
  0
VERTEX
  5
4E0
  8
0
 10
8.8100004196167
 20
-7.392000198364258
 30
214.5
 70
   192
  0
VERTEX
  5
4E1
  8
0
 10
19.60300064086914
 20
0.0
 30
245.5379943847656
 70
   192
  0
VERTEX
  5
4E2
  8
0
 10
17.2549991607666
 20
-7.392000198364258
 30
246.85400390625
 70
   192
  0
VERTEX
  5
4E3
  8
0
 10
29.23900032043457
 20
0.0
 30
258.5249938964844
 70
   192
  0
VERTEX
  5
4E4
  8
0
 10
27.29999923706055
 20
-7.392000198364258
 30
260.3900146484375
 70
   192
  0
VERTEX
  5
4E5
  8
0
 10
41.84299850463867
 20
0.0
 30
268.656005859375
 70
   192
  0
VERTEX
  5
4E6
  8
0
 10
40.4379997253418
 20
-7.392000198364258
 30
270.9500122070312
 70
   192
  0
VERTEX
  5
4E7
  8
0
 10
56.59700012207031
 20
0.0
 30
275.2749938964844
 70
   192
  0
VERTEX
  5
4E8
  8
0
 10
55.81700134277344
 20
-7.392000198364258
 30
277.8500061035156
 70
   192
  0
VERTEX
  5
4E9
  8
0
 10
72.54499816894531
 20
0.0
 30
277.9530029296875
 70
   192
  0
VERTEX
  5
4EA
  8
0
 10
72.44100189208984
 20
-7.392000198364258
 30
280.6409912109375
 70
   192
  0
VERTEX
  5
4EB
  8
0
 10
88.6520004272461
 20
0.0
 30
276.5150146484375
 70
   192
  0
VERTEX
  5
4EC
  8
0
 10
89.2300033569336
 20
-7.392000198364258
 30
279.1430053710938
 70
   192
  0
VERTEX
  5
4ED
  8
0
 10
103.8730010986328
 20
0.0
 30
271.0559997558594
 70
   192
  0
VERTEX
  5
4EE
  8
0
 10
105.0970001220703
 20
-7.392000198364258
 30
273.4519958496094
 70
   192
  0
VERTEX
  5
4EF
  8
0
 10
117.2220001220703
 20
0.0
 30
261.9289855957031
 70
   192
  0
VERTEX
  5
4F0
  8
0
 10
119.0110015869141
 20
-7.392000198364258
 30
263.9389953613281
 70
   192
  0
VERTEX
  5
4F1
  8
0
 10
127.8330001831055
 20
0.0
 30
249.7259979248047
 70
   192
  0
VERTEX
  5
4F2
  8
0
 10
130.0720062255859
 20
-7.392000198364258
 30
251.218994140625
 70
   192
  0
VERTEX
  5
4F3
  8
0
 10
135.0180053710938
 20
0.0
 30
235.2389984130859
 70
   192
  0
VERTEX
  5
4F4
  8
0
 10
137.5610046386719
 20
-7.392000198364258
 30
236.1179962158203
 70
   192
  0
VERTEX
  5
4F5
  8
0
 10
1.996999979019165
 20
-11.32499980926514
 30
214.5
 70
   192
  0
VERTEX
  5
4F6
  8
0
 10
11.3120002746582
 20
-11.32499980926514
 30
250.1840057373047
 70
   192
  0
VERTEX
  5
4F7
  8
0
 10
22.39100074768066
 20
-11.32499980926514
 30
265.1130065917969
 70
   192
  0
VERTEX
  5
4F8
  8
0
 10
36.88100051879883
 20
-11.32499980926514
 30
276.760009765625
 70
   192
  0
VERTEX
  5
4F9
  8
0
 10
53.84299850463867
 20
-11.32499980926514
 30
284.3699951171875
 70
   192
  0
VERTEX
  5
4FA
  8
0
 10
72.177001953125
 20
-11.32499980926514
 30
287.447998046875
 70
   192
  0
VERTEX
  5
4FB
  8
0
 10
90.69499969482422
 20
-11.32499980926514
 30
285.7959899902344
 70
   192
  0
VERTEX
  5
4FC
  8
0
 10
108.1940002441406
 20
-11.32499980926514
 30
279.5199890136719
 70
   192
  0
VERTEX
  5
4FD
  8
0
 10
123.5410003662109
 20
-11.32499980926514
 30
269.0270080566406
 70
   192
  0
VERTEX
  5
4FE
  8
0
 10
135.7400054931641
 20
-11.32499980926514
 30
254.9980010986328
 70
   192
  0
VERTEX
  5
4FF
  8
0
 10
144.0
 20
-11.32499980926514
 30
238.3430023193359
 70
   192
  0
VERTEX
  5
500
  8
0
 10
4.363999843597412
 20
-11.32499980926514
 30
232.9400024414062
 70
   192
  0
VERTEX
  5
501
  8
0
 10
-3.131999969482422
 20
-9.958999633789062
 30
234.89599609375
 70
   192
  0
VERTEX
  5
502
  8
0
 10
0.0
 20
-11.5
 30
214.5
 70
   192
  0
VERTEX
  5
503
  8
0
 10
-5.75
 20
-9.958999633789062
 30
214.5
 70
   192
  0
VERTEX
  5
504
  8
0
 10
4.553999900817871
 20
-9.958999633789062
 30
253.9700012207031
 70
   192
  0
VERTEX
  5
505
  8
0
 10
16.8080005645752
 20
-9.958999633789062
 30
270.4840087890625
 70
   192
  0
VERTEX
  5
506
  8
0
 10
32.83599853515625
 20
-9.958999633789062
 30
283.3670043945312
 70
   192
  0
VERTEX
  5
507
  8
0
 10
51.59799957275391
 20
-9.958999633789062
 30
291.7850036621094
 70
   192
  0
VERTEX
  5
508
  8
0
 10
71.87799835205078
 20
-9.958999633789062
 30
295.1900024414062
 70
   192
  0
VERTEX
  5
509
  8
0
 10
92.36000061035156
 20
-9.958999633789062
 30
293.3619995117188
 70
   192
  0
VERTEX
  5
50A
  8
0
 10
111.7170028686523
 20
-9.958999633789062
 30
286.4200134277344
 70
   192
  0
VERTEX
  5
50B
  8
0
 10
128.6920013427734
 20
-9.958999633789062
 30
274.81298828125
 70
   192
  0
VERTEX
  5
50C
  8
0
 10
142.1860046386719
 20
-9.958999633789062
 30
259.2959899902344
 70
   192
  0
VERTEX
  5
50D
  8
0
 10
151.3220062255859
 20
-9.958999633789062
 30
240.8730010986328
 70
   192
  0
VERTEX
  5
50E
  8
0
 10
-9.562000274658203
 20
-5.416999816894531
 30
214.5
 70
   192
  0
VERTEX
  5
50F
  8
0
 10
-8.02400016784668
 20
-3.933000087738037
 30
236.1739959716797
 70
   192
  0
VERTEX
  5
510
  8
0
 10
-10.80599975585938
 20
-3.933000087738037
 30
214.5
 70
   192
  0
VERTEX
  5
511
  8
0
 10
0.1430000066757202
 20
-3.933000087738037
 30
256.4419860839844
 70
   192
  0
VERTEX
  5
512
  8
0
 10
13.16399955749512
 20
-3.933000087738037
 30
273.989990234375
 70
   192
  0
VERTEX
  5
513
  8
0
 10
30.19499969482422
 20
-3.933000087738037
 30
287.6799926757812
 70
   192
  0
VERTEX
  5
514
  8
0
 10
50.13299942016602
 20
-3.933000087738037
 30
296.6239929199219
 70
   192
  0
VERTEX
  5
515
  8
0
 10
71.68199920654297
 20
-3.933000087738037
 30
300.2420043945312
 70
   192
  0
VERTEX
  5
516
  8
0
 10
93.4469985961914
 20
-3.933000087738037
 30
298.2999877929688
 70
   192
  0
VERTEX
  5
517
  8
0
 10
114.015998840332
 20
-3.933000087738037
 30
290.9230041503906
 70
   192
  0
VERTEX
  5
518
  8
0
 10
132.0549926757812
 20
-3.933000087738037
 30
278.5899963378906
 70
   192
  0
VERTEX
  5
519
  8
0
 10
146.3930053710938
 20
-3.933000087738037
 30
262.1010131835938
 70
   192
  0
VERTEX
  5
51A
  8
0
 10
156.1009979248047
 20
-3.933000087738037
 30
242.5240020751953
 70
   192
  0
VERTEX
  5
51B
  8
0
 10
-8.02400016784668
 20
3.933000087738037
 30
236.1739959716797
 70
   192
  0
VERTEX
  5
51C
  8
0
 10
0.1430000066757202
 20
3.933000087738037
 30
256.4419860839844
 70
   192
  0
VERTEX
  5
51D
  8
0
 10
13.16399955749512
 20
3.933000087738037
 30
273.989990234375
 70
   192
  0
VERTEX
  5
51E
  8
0
 10
30.19499969482422
 20
3.933000087738037
 30
287.6799926757812
 70
   192
  0
VERTEX
  5
51F
  8
0
 10
50.13299942016602
 20
3.933000087738037
 30
296.6239929199219
 70
   192
  0
VERTEX
  5
520
  8
0
 10
71.68199920654297
 20
3.933000087738037
 30
300.2420043945312
 70
   192
  0
VERTEX
  5
521
  8
0
 10
93.4469985961914
 20
3.933000087738037
 30
298.2999877929688
 70
   192
  0
VERTEX
  5
522
  8
0
 10
114.015998840332
 20
3.933000087738037
 30
290.9230041503906
 70
   192
  0
VERTEX
  5
523
  8
0
 10
132.0549926757812
 20
3.933000087738037
 30
278.5899963378906
 70
   192
  0
VERTEX
  5
524
  8
0
 10
146.3930053710938
 20
3.933000087738037
 30
262.1010131835938
 70
   192
  0
VERTEX
  5
525
  8
0
 10
156.1009979248047
 20
3.933000087738037
 30
242.5240020751953
 70
   192
  0
VERTEX
  5
526
  8
0
 10
-9.562000274658203
 20
5.416999816894531
 30
214.5
 70
   192
  0
VERTEX
  5
527
  8
0
 10
-3.131999969482422
 20
9.958999633789062
 30
234.89599609375
 70
   192
  0
VERTEX
  5
528
  8
0
 10
-5.75
 20
9.958999633789062
 30
214.5
 70
   192
  0
VERTEX
  5
529
  8
0
 10
4.553999900817871
 20
9.958999633789062
 30
253.9700012207031
 70
   192
  0
VERTEX
  5
52A
  8
0
 10
16.8080005645752
 20
9.958999633789062
 30
270.4840087890625
 70
   192
  0
VERTEX
  5
52B
  8
0
 10
32.83599853515625
 20
9.958999633789062
 30
283.3670043945312
 70
   192
  0
VERTEX
  5
52C
  8
0
 10
51.59799957275391
 20
9.958999633789062
 30
291.7850036621094
 70
   192
  0
VERTEX
  5
52D
  8
0
 10
71.87799835205078
 20
9.958999633789062
 30
295.1900024414062
 70
   192
  0
VERTEX
  5
52E
  8
0
 10
92.36000061035156
 20
9.958999633789062
 30
293.3619995117188
 70
   192
  0
VERTEX
  5
52F
  8
0
 10
111.7170028686523
 20
9.958999633789062
 30
286.4200134277344
 70
   192
  0
VERTEX
  5
530
  8
0
 10
128.6920013427734
 20
9.958999633789062
 30
274.81298828125
 70
   192
  0
VERTEX
  5
531
  8
0
 10
142.1860046386719
 20
9.958999633789062
 30
259.2959899902344
 70
   192
  0
VERTEX
  5
532
  8
0
 10
151.3220062255859
 20
9.958999633789062
 30
240.8730010986328
 70
   192
  0
VERTEX
  5
533
  8
0
 10
4.363999843597412
 20
11.32499980926514
 30
232.9400024414062
 70
   192
  0
VERTEX
  5
534
  8
0
 10
1.996999979019165
 20
11.32499980926514
 30
214.5
 70
   192
  0
VERTEX
  5
535
  8
0
 10
0.0900000035762787
 20
10.98900032043457
 30
214.5
 70
   192
  0
VERTEX
  5
536
  8
0
 10
11.3120002746582
 20
11.32499980926514
 30
250.1840057373047
 70
   192
  0
VERTEX
  5
537
  8
0
 10
22.39100074768066
 20
11.32499980926514
 30
265.1130065917969
 70
   192
  0
VERTEX
  5
538
  8
0
 10
36.88100051879883
 20
11.32499980926514
 30
276.760009765625
 70
   192
  0
VERTEX
  5
539
  8
0
 10
53.84299850463867
 20
11.32499980926514
 30
284.3699951171875
 70
   192
  0
VERTEX
  5
53A
  8
0
 10
72.177001953125
 20
11.32499980926514
 30
287.447998046875
 70
   192
  0
VERTEX
  5
53B
  8
0
 10
90.69499969482422
 20
11.32499980926514
 30
285.7959899902344
 70
   192
  0
VERTEX
  5
53C
  8
0
 10
108.1940002441406
 20
11.32499980926514
 30
279.5199890136719
 70
   192
  0
VERTEX
  5
53D
  8
0
 10
123.5410003662109
 20
11.32499980926514
 30
269.0270080566406
 70
   192
  0
VERTEX
  5
53E
  8
0
 10
135.7400054931641
 20
11.32499980926514
 30
254.9980010986328
 70
   192
  0
VERTEX
  5
53F
  8
0
 10
144.0
 20
11.32499980926514
 30
238.3430023193359
 70
   192
  0
VERTEX
  5
540
  8
0
 10
10.95600032806396
 20
7.392000198364258
 30
231.218994140625
 70
   192
  0
VERTEX
  5
541
  8
0
 10
17.2549991607666
 20
7.392000198364258
 30
246.85400390625
 70
   192
  0
VERTEX
  5
542
  8
0
 10
27.29999923706055
 20
7.392000198364258
 30
260.3900146484375
 70
   192
  0
VERTEX
  5
543
  8
0
 10
40.4379997253418
 20
7.392000198364258
 30
270.9500122070312
 70
   192
  0
VERTEX
  5
544
  8
0
 10
55.81700134277344
 20
7.392000198364258
 30
277.8500061035156
 70
   192
  0
VERTEX
  5
545
  8
0
 10
72.44100189208984
 20
7.392000198364258
 30
280.6409912109375
 70
   192
  0
VERTEX
  5
546
  8
0
 10
89.2300033569336
 20
7.392000198364258
 30
279.1430053710938
 70
   192
  0
VERTEX
  5
547
  8
0
 10
105.0970001220703
 20
7.392000198364258
 30
273.4519958496094
 70
   192
  0
VERTEX
  5
548
  8
0
 10
119.0110015869141
 20
7.392000198364258
 30
263.9389953613281
 70
   192
  0
VERTEX
  5
549
  8
0
 10
130.0720062255859
 20
7.392000198364258
 30
251.218994140625
 70
   192
  0
VERTEX
  5
54A
  8
0
 10
137.5610046386719
 20
7.392000198364258
 30
236.1179962158203
 70
   192
  0
VERTEX
  5
54B
  8
0
 10
11.5
 20
0.0
 30
214.5
 70
   192
  0
VERTEX
  5
54C
  8
0
 10
9.472000122070312
 20
5.572999954223633
 30
214.5
 70
   192
  0
VERTEX
  5
54D
  8
0
 10
159.2530059814453
 20
5.98799991607666
 30
224.2790069580078
 70
   192
  0
VERTEX
  5
54E
  8
0
 10
156.7469940185547
 20
8.904000282287598
 30
223.8370056152344
 70
   192
  0
VERTEX
  5
54F
  8
0
 10
160.0829925537109
 20
3.875
 30
224.4250030517578
 70
   192
  0
VERTEX
  5
550
  8
0
 10
153.4250030517578
 20
10.81400012969971
 30
223.2510070800781
 70
   192
  0
VERTEX
  5
551
  8
0
 10
149.6649932861328
 20
11.5
 30
222.5879974365234
 70
   192
  0
VERTEX
  5
552
  8
0
 10
155.1589965820312
 20
9.817000389099121
 30
223.5570068359375
 70
   192
  0
VERTEX
  5
553
  8
0
 10
145.8970031738281
 20
10.88300037384033
 30
221.9239959716797
 70
   192
  0
VERTEX
  5
554
  8
0
 10
142.5489959716797
 20
9.041999816894531
 30
221.3339996337891
 70
   192
  0
VERTEX
  5
555
  8
0
 10
147.6190032958984
 20
11.16499996185303
 30
222.2279968261719
 70
   192
  0
VERTEX
  5
556
  8
0
 10
139.9949951171875
 20
6.189000129699707
 30
220.8829956054688
 70
   192
  0
VERTEX
  5
557
  8
0
 10
138.5140075683594
 20
2.644999980926514
 30
220.6219940185547
 70
   192
  0
VERTEX
  5
558
  8
0
 10
140.97900390625
 20
7.289000034332275
 30
221.0570068359375
 70
   192
  0
VERTEX
  5
559
  8
0
 10
138.27099609375
 20
-1.200000047683716
 30
220.5789947509766
 70
   192
  0
VERTEX
  5
55A
  8
0
 10
139.3009948730469
 20
-4.919000148773193
 30
220.7610015869141
 70
   192
  0
VERTEX
  5
55B
  8
0
 10
138.3470001220703
 20
-0.0089999996125698
 30
220.5930023193359
 70
   192
  0
VERTEX
  5
55C
  8
0
 10
141.4929962158203
 20
-8.088000297546387
 30
221.1470031738281
 70
   192
  0
VERTEX
  5
55D
  8
0
 10
144.6009979248047
 20
-10.3430004119873
 30
221.6950073242188
 70
   192
  0
VERTEX
  5
55E
  8
0
 10
140.9640045166016
 20
-7.322999954223633
 30
221.0540008544922
 70
   192
  0
VERTEX
  5
55F
  8
0
 10
148.2680053710938
 20
-11.42500019073486
 30
222.3419952392578
 70
   192
  0
VERTEX
  5
560
  8
0
 10
152.0760040283203
 20
-11.21500015258789
 30
223.0140075683594
 70
   192
  0
VERTEX
  5
561
  8
0
 10
147.6199951171875
 20
-11.23299980163574
 30
222.2279968261719
 70
   192
  0
VERTEX
  5
562
  8
0
 10
155.5959930419922
 20
-9.741999626159668
 30
223.6340026855469
 70
   192
  0
VERTEX
  5
563
  8
0
 10
158.4329986572266
 20
-7.175000190734863
 30
224.1340026855469
 70
   192
  0
VERTEX
  5
564
  8
0
 10
160.9120025634766
 20
0.0
 30
224.5709991455078
 70
   192
  0
VERTEX
  5
565
  8
0
 10
160.6620025634766
 20
2.400000095367432
 30
224.5269927978516
 70
   192
  0
VERTEX
  5
566
  8
0
 10
160.2740020751953
 20
-3.802000045776367
 30
224.4589996337891
 70
   192
  0
VERTEX
  5
567
  8
0
 10
160.2079925537109
 20
-3.921999931335449
 30
224.4470062255859
 70
   192
  0
VERTEX
  5
568
  8
0
 10
8.8100004196167
 20
7.392000198364258
 30
214.5
 70
   192
  0
VERTEX
  5
569
  8
0
 10
-10.80599975585938
 20
3.933000087738037
 30
214.5
 70
   192
  0
VERTEX
  5
56A
  8
0
 62
     9
 10
0.0
 20
0.0
 30
0.0
 70
   128
 71
     3
 72
     2
 73
     1
  0
VERTEX
  5
56B
  8
0
 62
     9
 10
0.0
 20
0.0
 30
0.0
 70
   128
 71
     3
 72
     4
 73
     2
  0
VERTEX
  5
56C
  8
0
 62
     9
 10
0.0
 20
0.0
 30
0.0
 70
   128
 71
     6
 72
     5
 73
     1
  0
VERTEX
  5
56D
  8
0
 62
     9
 10
0.0
 20
0.0
 30
0.0
 70
   128
 71
     8
 72
     7
 73
     5
  0
VERTEX
  5
56E
  8
0
 62
     9
 10
0.0
 20
0.0
 30
0.0
 70
   128
 71
    10
 72
     9
 73
     7
  0
VERTEX
  5
56F
  8
0
 62
     9
 10
0.0
 20
0.0
 30
0.0
 70
   128
 71
    12
 72
    11
 73
     9
  0
VERTEX
  5
570
  8
0
 62
     9
 10
0.0
 20
0.0
 30
0.0
 70
   128
 71
    14
 72
    13
 73
    11
  0
VERTEX
  5
571
  8
0
 62
     9
 10
0.0
 20
0.0
 30
0.0
 70
   128
 71
    16
 72
    15
 73
    13
  0
VERTEX
  5
572
  8
0
 62
     9
 10
0.0
 20
0.0
 30
0.0
 70
   128
 71
    18
 72
    17
 73
    15
  0
VERTEX
  5
573
  8
0
 62
     9
 10
0.0
 20
0.0
 30
0.0
 70
   128
 71
    20
 72
    19
 73
    17
  0
VERTEX
  5
574
  8
0
 62
     9
 10
0.0
 20
0.0
 30
0.0
 70
   128
 71
    22
 72
    21
 73
    19
  0
VERTEX
  5
575
  8
0
 62
     9
 10
0.0
 20
0.0
 30
0.0
 70
   128
 71
    24
 72
    23
 73
    21
  0
VERTEX
  5
576
  8
0
 62
     9
 10
0.0
 20
0.0
 30
0.0
 70
   128
 71
     2
 72
     4
 73
    25
  0
VERTEX
  5
577
  8
0
 62
     9
 10
0.0
 20
0.0
 30
0.0
 70
   128
 71
    26
 72
     6
 73
     2
  0
VERTEX
  5
578
  8
0
 62
     9
 10
0.0
 20
0.0
 30
0.0
 70
   128
 71
    27
 72
     8
 73
     6
  0
VERTEX
  5
579
  8
0
 62
     9
 10
0.0
 20
0.0
 30
0.0
 70
   128
 71
    28
 72
    10
 73
     8
  0
VERTEX
  5
57A
  8
0
 62
     9
 10
0.0
 20
0.0
 30
0.0
 70
   128
 71
    29
 72
    12
 73
    10
  0
VERTEX
  5
57B
  8
0
 62
     9
 10
0.0
 20
0.0
 30
0.0
 70
   128
 71
    30
 72
    14
 73
    12
  0
VERTEX
  5
57C
  8
0
 62
     9
 10
0.0
 20
0.0
 30
0.0
 70
   128
 71
    31
 72
    16
 73
    14
  0
VERTEX
  5
57D
  8
0
 62
     9
 10
0.0
 20
0.0
 30
0.0
 70
   128
 71
    32
 72
    18
 73
    16
  0
VERTEX
  5
57E
  8
0
 62
     9
 10
0.0
 20
0.0
 30
0.0
 70
   128
 71
    33
 72
    20
 73
    18
  0
VERTEX
  5
57F
  8
0
 62
     9
 10
0.0
 20
0.0
 30
0.0
 70
   128
 71
    34
 72
    22
 73
    20
  0
VERTEX
  5
580
  8
0
 62
     9
 10
0.0
 20
0.0
 30
0.0
 70
   128
 71
    35
 72
    24
 73
    22
  0
VERTEX
  5
581
  8
0
 62
     9
 10
0.0
 20
0.0
 30
0.0
 70
   128
 71
    38
 72
    37
 73
    36
  0
VERTEX
  5
582
  8
0
 62
     9
 10
0.0
 20
0.0
 30
0.0
 70
   128
 71
    38
 72
    39
 73
    37
  0
VERTEX
  5
583
  8
0
 62
     9
 10
0.0
 20
0.0
 30
0.0
 70
   128
 71
    40
 72
    26
 73
    36
  0
VERTEX
  5
584
  8
0
 62
     9
 10
0.0
 20
0.0
 30
0.0
 70
   128
 71
    41
 72
    27
 73
    26
  0
VERTEX
  5
585
  8
0
 62
     9
 10
0.0
 20
0.0
 30
0.0
 70
   128
 71
    42
 72
    28
 73
    27
  0
VERTEX
  5
586
  8
0
 62
     9
 10
0.0
 20
0.0
 30
0.0
 70
   128
 71
    43
 72
    29
 73
    28
  0
VERTEX
  5
587
  8
0
 62
     9
 10
0.0
 20
0.0
 30
0.0
 70
   128
 71
    44
 72
    30
 73
    29
  0
VERTEX
  5
588
  8
0
 62
     9
 10
0.0
 20
0.0
 30
0.0
 70
   128
 71
    45
 72
    31
 73
    30
  0
VERTEX
  5
589
  8
0
 62
     9
 10
0.0
 20
0.0
 30
0.0
 70
   128
 71
    46
 72
    32
 73
    31
  0
VERTEX
  5
58A
  8
0
 62
     9
 10
0.0
 20
0.0
 30
0.0
 70
   128
 71
    47
 72
    33
 73
    32
  0
VERTEX
  5
58B
  8
0
 62
     9
 10
0.0
 20
0.0
 30
0.0
 70
   128
 71
    48
 72
    34
 73
    33
  0
VERTEX
  5
58C
  8
0
 62
     9
 10
0.0
 20
0.0
 30
0.0
 70
   128
 71
    49
 72
    35
 73
    34
  0
VERTEX
  5
58D
  8
0
 62
     9
 10
0.0
 20
0.0
 30
0.0
 70
   128
 71
    37
 72
    39
 73
    50
  0
VERTEX
  5
58E
  8
0
 62
     9
 10
0.0
 20
0.0
 30
0.0
 70
   128
 71
    50
 72
    52
 73
    51
  0
VERTEX
  5
58F
  8
0
 62
     9
 10
0.0
 20
0.0
 30
0.0
 70
   128
 71
    53
 72
    40
 73
    37
  0
VERTEX
  5
590
  8
0
 62
     9
 10
0.0
 20
0.0
 30
0.0
 70
   128
 71
    54
 72
    41
 73
    40
  0
VERTEX
  5
591
  8
0
 62
     9
 10
0.0
 20
0.0
 30
0.0
 70
   128
 71
    55
 72
    42
 73
    41
  0
VERTEX
  5
592
  8
0
 62
     9
 10
0.0
 20
0.0
 30
0.0
 70
   128
 71
    56
 72
    43
 73
    42
  0
VERTEX
  5
593
  8
0
 62
     9
 10
0.0
 20
0.0
 30
0.0
 70
   128
 71
    57
 72
    44
 73
    43
  0
VERTEX
  5
594
  8
0
 62
     9
 10
0.0
 20
0.0
 30
0.0
 70
   128
 71
    58
 72
    45
 73
    44
  0
VERTEX
  5
595
  8
0
 62
     9
 10
0.0
 20
0.0
 30
0.0
 70
   128
 71
    59
 72
    46
 73
    45
  0
VERTEX
  5
596
  8
0
 62
     9
 10
0.0
 20
0.0
 30
0.0
 70
   128
 71
    60
 72
    47
 73
    46
  0
VERTEX
  5
597
  8
0
 62
     9
 10
0.0
 20
0.0
 30
0.0
 70
   128
 71
    61
 72
    48
 73
    47
  0
VERTEX
  5
598
  8
0
 62
     9
 10
0.0
 20
0.0
 30
0.0
 70
   128
 71
    62
 72
    49
 73
    48
  0
VERTEX
  5
599
  8
0
 62
     9
 10
0.0
 20
0.0
 30
0.0
 70
   128
 71
    63
 72
    51
 73
    52
  0
VERTEX
  5
59A
  8
0
 62
     9
 10
0.0
 20
0.0
 30
0.0
 70
   128
 71
    64
 72
    53
 73
    51
  0
VERTEX
  5
59B
  8
0
 62
     9
 10
0.0
 20
0.0
 30
0.0
 70
   128
 71
    65
 72
    54
 73
    53
  0
VERTEX
  5
59C
  8
0
 62
     9
 10
0.0
 20
0.0
 30
0.0
 70
   128
 71
    66
 72
    55
 73
    54
  0
VERTEX
  5
59D
  8
0
 62
     9
 10
0.0
 20
0.0
 30
0.0
 70
   128
 71
    67
 72
    56
 73
    55
  0
VERTEX
  5
59E
  8
0
 62
     9
 10
0.0
 20
0.0
 30
0.0
 70
   128
 71
    68
 72
    57
 73
    56
  0
VERTEX
  5
59F
  8
0
 62
     9
 10
0.0
 20
0.0
 30
0.0
 70
   128
 71
    69
 72
    58
 73
    57
  0
VERTEX
  5
5A0
  8
0
 62
     9
 10
0.0
 20
0.0
 30
0.0
 70
   128
 71
    70
 72
    59
 73
    58
  0
VERTEX
  5
5A1
  8
0
 62
     9
 10
0.0
 20
0.0
 30
0.0
 70
   128
 71
    71
 72
    60
 73
    59
  0
VERTEX
  5
5A2
  8
0
 62
     9
 10
0.0
 20
0.0
 30
0.0
 70
   128
 71
    72
 72
    61
 73
    60
  0
VERTEX
  5
5A3
  8
0
 62
     9
 10
0.0
 20
0.0
 30
0.0
 70
   128
 71
    73
 72
    62
 73
    61
  0
VERTEX
  5
5A4
  8
0
 62
     9
 10
0.0
 20
0.0
 30
0.0
 70
   128
 71
    75
 72
    63
 73
    74
  0
VERTEX
  5
5A5
  8
0
 62
     9
 10
0.0
 20
0.0
 30
0.0
 70
   128
 71
    74
 72
    76
 73
    75
  0
VERTEX
  5
5A6
  8
0
 62
     9
 10
0.0
 20
0.0
 30
0.0
 70
   128
 71
    77
 72
    64
 73
    63
  0
VERTEX
  5
5A7
  8
0
 62
     9
 10
0.0
 20
0.0
 30
0.0
 70
   128
 71
    78
 72
    65
 73
    64
  0
VERTEX
  5
5A8
  8
0
 62
     9
 10
0.0
 20
0.0
 30
0.0
 70
   128
 71
    79
 72
    66
 73
    65
  0
VERTEX
  5
5A9
  8
0
 62
     9
 10
0.0
 20
0.0
 30
0.0
 70
   128
 71
    80
 72
    67
 73
    66
  0
VERTEX
  5
5AA
  8
0
 62
     9
 10
0.0
 20
0.0
 30
0.0
 70
   128
 71
    81
 72
    68
 73
    67
  0
VERTEX
  5
5AB
  8
0
 62
     9
 10
0.0
 20
0.0
 30
0.0
 70
   128
 71
    82
 72
    69
 73
    68
  0
VERTEX
  5
5AC
  8
0
 62
     9
 10
0.0
 20
0.0
 30
0.0
 70
   128
 71
    83
 72
    70
 73
    69
  0
VERTEX
  5
5AD
  8
0
 62
     9
 10
0.0
 20
0.0
 30
0.0
 70
   128
 71
    84
 72
    71
 73
    70
  0
VERTEX
  5
5AE
  8
0
 62
     9
 10
0.0
 20
0.0
 30
0.0
 70
   128
 71
    85
 72
    72
 73
    71
  0
VERTEX
  5
5AF
  8
0
 62
     9
 10
0.0
 20
0.0
 30
0.0
 70
   128
 71
    86
 72
    73
 73
    72
  0
VERTEX
  5
5B0
  8
0
 62
     9
 10
0.0
 20
0.0
 30
0.0
 70
   128
 71
    89
 72
    88
 73
    87
  0
VERTEX
  5
5B1
  8
0
 62
     9
 10
0.0
 20
0.0
 30
0.0
 70
   128
 71
    87
 72
    75
 73
    89
  0
VERTEX
  5
5B2
  8
0
 62
     9
 10
0.0
 20
0.0
 30
0.0
 70
   128
 71
    90
 72
    77
 73
    75
  0
VERTEX
  5
5B3
  8
0
 62
     9
 10
0.0
 20
0.0
 30
0.0
 70
   128
 71
    91
 72
    78
 73
    77
  0
VERTEX
  5
5B4
  8
0
 62
     9
 10
0.0
 20
0.0
 30
0.0
 70
   128
 71
    92
 72
    79
 73
    78
  0
VERTEX
  5
5B5
  8
0
 62
     9
 10
0.0
 20
0.0
 30
0.0
 70
   128
 71
    93
 72
    80
 73
    79
  0
VERTEX
  5
5B6
  8
0
 62
     9
 10
0.0
 20
0.0
 30
0.0
 70
   128
 71
    94
 72
    81
 73
    80
  0
VERTEX
  5
5B7
  8
0
 62
     9
 10
0.0
 20
0.0
 30
0.0
 70
   128
 71
    95
 72
    82
 73
    81
  0
VERTEX
  5
5B8
  8
0
 62
     9
 10
0.0
 20
0.0
 30
0.0
 70
   128
 71
    96
 72
    83
 73
    82
  0
VERTEX
  5
5B9
  8
0
 62
     9
 10
0.0
 20
0.0
 30
0.0
 70
   128
 71
    97
 72
    84
 73
    83
  0
VERTEX
  5
5BA
  8
0
 62
     9
 10
0.0
 20
0.0
 30
0.0
 70
   128
 71
    98
 72
    85
 73
    84
  0
VERTEX
  5
5BB
  8
0
 62
     9
 10
0.0
 20
0.0
 30
0.0
 70
   128
 71
    99
 72
    86
 73
    85
  0
VERTEX
  5
5BC
  8
0
 62
     9
 10
0.0
 20
0.0
 30
0.0
 70
   128
 71
   100
 72
    87
 73
    88
  0
VERTEX
  5
5BD
  8
0
 62
     9
 10
0.0
 20
0.0
 30
0.0
 70
   128
 71
   101
 72
    90
 73
    87
  0
VERTEX
  5
5BE
  8
0
 62
     9
 10
0.0
 20
0.0
 30
0.0
 70
   128
 71
   102
 72
    91
 73
    90
  0
VERTEX
  5
5BF
  8
0
 62
     9
 10
0.0
 20
0.0
 30
0.0
 70
   128
 71
   103
 72
    92
 73
    91
  0
VERTEX
  5
5C0
  8
0
 62
     9
 10
0.0
 20
0.0
 30
0.0
 70
   128
 71
   104
 72
    93
 73
    92
  0
VERTEX
  5
5C1
  8
0
 62
     9
 10
0.0
 20
0.0
 30
0.0
 70
   128
 71
   105
 72
    94
 73
    93
  0
VERTEX
  5
5C2
  8
0
 62
     9
 10
0.0
 20
0.0
 30
0.0
 70
   128
 71
   106
 72
    95
 73
    94
  0
VERTEX
  5
5C3
  8
0
 62
     9
 10
0.0
 20
0.0
 30
0.0
 70
   128
 71
   107
 72
    96
 73
    95
  0
VERTEX
  5
5C4
  8
0
 62
     9
 10
0.0
 20
0.0
 30
0.0
 70
   128
 71
   108
 72
    97
 73
    96
  0
VERTEX
  5
5C5
  8
0
 62
     9
 10
0.0
 20
0.0
 30
0.0
 70
   128
 71
   109
 72
    98
 73
    97
  0
VERTEX
  5
5C6
  8
0
 62
     9
 10
0.0
 20
0.0
 30
0.0
 70
   128
 71
   110
 72
    99
 73
    98
  0
VERTEX
  5
5C7
  8
0
 62
     9
 10
0.0
 20
0.0
 30
0.0
 70
   128
 71
   112
 72
   111
 73
     1
  0
VERTEX
  5
5C8
  8
0
 62
     9
 10
0.0
 20
0.0
 30
0.0
 70
   128
 71
     1
 72
   100
 73
   112
  0
VERTEX
  5
5C9
  8
0
 62
     9
 10
0.0
 20
0.0
 30
0.0
 70
   128
 71
     5
 72
   101
 73
   100
  0
VERTEX
  5
5CA
  8
0
 62
     9
 10
0.0
 20
0.0
 30
0.0
 70
   128
 71
     7
 72
   102
 73
   101
  0
VERTEX
  5
5CB
  8
0
 62
     9
 10
0.0
 20
0.0
 30
0.0
 70
   128
 71
     9
 72
   103
 73
   102
  0
VERTEX
  5
5CC
  8
0
 62
     9
 10
0.0
 20
0.0
 30
0.0
 70
   128
 71
    11
 72
   104
 73
   103
  0
VERTEX
  5
5CD
  8
0
 62
     9
 10
0.0
 20
0.0
 30
0.0
 70
   128
 71
    13
 72
   105
 73
   104
  0
VERTEX
  5
5CE
  8
0
 62
     9
 10
0.0
 20
0.0
 30
0.0
 70
   128
 71
    15
 72
   106
 73
   105
  0
VERTEX
  5
5CF
  8
0
 62
     9
 10
0.0
 20
0.0
 30
0.0
 70
   128
 71
    17
 72
   107
 73
   106
  0
VERTEX
  5
5D0
  8
0
 62
     9
 10
0.0
 20
0.0
 30
0.0
 70
   128
 71
    19
 72
   108
 73
   107
  0
VERTEX
  5
5D1
  8
0
 62
     9
 10
0.0
 20
0.0
 30
0.0
 70
   128
 71
    21
 72
   109
 73
   108
  0
VERTEX
  5
5D2
  8
0
 62
     9
 10
0.0
 20
0.0
 30
0.0
 70
   128
 71
    23
 72
   110
 73
   109
  0
VERTEX
  5
5D3
  8
0
 62
     9
 10
0.0
 20
0.0
 30
0.0
 70
   128
 71
   114
 72
   113
 73
    73
  0
VERTEX
  5
5D4
  8
0
 62
     9
 10
0.0
 20
0.0
 30
0.0
 70
   128
 71
    73
 72
    86
 73
   114
  0
VERTEX
  5
5D5
  8
0
 62
     9
 10
0.0
 20
0.0
 30
0.0
 70
   128
 71
   113
 72
   115
 73
    73
  0
VERTEX
  5
5D6
  8
0
 62
     9
 10
0.0
 20
0.0
 30
0.0
 70
   128
 71
   117
 72
   116
 73
    86
  0
VERTEX
  5
5D7
  8
0
 62
     9
 10
0.0
 20
0.0
 30
0.0
 70
   128
 71
   116
 72
   118
 73
    86
  0
VERTEX
  5
5D8
  8
0
 62
     9
 10
0.0
 20
0.0
 30
0.0
 70
   128
 71
    86
 72
    99
 73
   117
  0
VERTEX
  5
5D9
  8
0
 62
     9
 10
0.0
 20
0.0
 30
0.0
 70
   128
 71
   120
 72
   119
 73
    99
  0
VERTEX
  5
5DA
  8
0
 62
     9
 10
0.0
 20
0.0
 30
0.0
 70
   128
 71
    99
 72
   110
 73
   120
  0
VERTEX
  5
5DB
  8
0
 62
     9
 10
0.0
 20
0.0
 30
0.0
 70
   128
 71
   119
 72
   121
 73
    99
  0
VERTEX
  5
5DC
  8
0
 62
     9
 10
0.0
 20
0.0
 30
0.0
 70
   128
 71
   123
 72
   122
 73
   110
  0
VERTEX
  5
5DD
  8
0
 62
     9
 10
0.0
 20
0.0
 30
0.0
 70
   128
 71
   110
 72
    23
 73
   123
  0
VERTEX
  5
5DE
  8
0
 62
     9
 10
0.0
 20
0.0
 30
0.0
 70
   128
 71
   122
 72
   124
 73
   110
  0
VERTEX
  5
5DF
  8
0
 62
     9
 10
0.0
 20
0.0
 30
0.0
 70
   128
 71
   126
 72
   125
 73
    23
  0
VERTEX
  5
5E0
  8
0
 62
     9
 10
0.0
 20
0.0
 30
0.0
 70
   128
 71
   125
 72
   127
 73
    23
  0
VERTEX
  5
5E1
  8
0
 62
     9
 10
0.0
 20
0.0
 30
0.0
 70
   128
 71
    23
 72
    24
 73
   126
  0
VERTEX
  5
5E2
  8
0
 62
     9
 10
0.0
 20
0.0
 30
0.0
 70
   128
 71
   129
 72
   128
 73
    24
  0
VERTEX
  5
5E3
  8
0
 62
     9
 10
0.0
 20
0.0
 30
0.0
 70
   128
 71
   128
 72
   130
 73
    24
  0
VERTEX
  5
5E4
  8
0
 62
     9
 10
0.0
 20
0.0
 30
0.0
 70
   128
 71
    24
 72
    35
 73
   129
  0
VERTEX
  5
5E5
  8
0
 62
     9
 10
0.0
 20
0.0
 30
0.0
 70
   128
 71
   132
 72
   131
 73
    35
  0
VERTEX
  5
5E6
  8
0
 62
     9
 10
0.0
 20
0.0
 30
0.0
 70
   128
 71
   131
 72
   133
 73
    35
  0
VERTEX
  5
5E7
  8
0
 62
     9
 10
0.0
 20
0.0
 30
0.0
 70
   128
 71
    35
 72
    49
 73
   132
  0
VERTEX
  5
5E8
  8
0
 62
     9
 10
0.0
 20
0.0
 30
0.0
 70
   128
 71
   135
 72
   134
 73
    49
  0
VERTEX
  5
5E9
  8
0
 62
     9
 10
0.0
 20
0.0
 30
0.0
 70
   128
 71
    49
 72
    62
 73
   135
  0
VERTEX
  5
5EA
  8
0
 62
     9
 10
0.0
 20
0.0
 30
0.0
 70
   128
 71
   137
 72
   136
 73
    73
  0
VERTEX
  5
5EB
  8
0
 62
     9
 10
0.0
 20
0.0
 30
0.0
 70
   128
 71
   136
 72
   138
 73
    62
  0
VERTEX
  5
5EC
  8
0
 62
     9
 10
0.0
 20
0.0
 30
0.0
 70
   128
 71
   138
 72
   139
 73
    62
  0
VERTEX
  5
5ED
  8
0
 62
     9
 10
0.0
 20
0.0
 30
0.0
 70
   128
 71
    62
 72
    73
 73
   136
  0
VERTEX
  5
5EE
  8
0
 62
     9
 10
0.0
 20
0.0
 30
0.0
 70
   128
 71
    73
 72
   115
 73
   137
  0
VERTEX
  5
5EF
  8
0
 62
     9
 10
0.0
 20
0.0
 30
0.0
 70
   128
 71
    62
 72
   139
 73
   135
  0
VERTEX
  5
5F0
  8
0
 62
     9
 10
0.0
 20
0.0
 30
0.0
 70
   128
 71
    49
 72
   134
 73
   132
  0
VERTEX
  5
5F1
  8
0
 62
     9
 10
0.0
 20
0.0
 30
0.0
 70
   128
 71
    35
 72
   133
 73
   129
  0
VERTEX
  5
5F2
  8
0
 62
     9
 10
0.0
 20
0.0
 30
0.0
 70
   128
 71
    24
 72
   130
 73
   126
  0
VERTEX
  5
5F3
  8
0
 62
     9
 10
0.0
 20
0.0
 30
0.0
 70
   128
 71
    23
 72
   127
 73
   123
  0
VERTEX
  5
5F4
  8
0
 62
     9
 10
0.0
 20
0.0
 30
0.0
 70
   128
 71
   110
 72
   124
 73
   120
  0
VERTEX
  5
5F5
  8
0
 62
     9
 10
0.0
 20
0.0
 30
0.0
 70
   128
 71
    99
 72
   121
 73
   117
  0
VERTEX
  5
5F6
  8
0
 62
     9
 10
0.0
 20
0.0
 30
0.0
 70
   128
 71
    86
 72
   118
 73
   114
  0
VERTEX
  5
5F7
  8
0
 62
     9
 10
0.0
 20
0.0
 30
0.0
 70
   128
 71
   109
 72
    21
 73
    23
  0
VERTEX
  5
5F8
  8
0
 62
     9
 10
0.0
 20
0.0
 30
0.0
 70
   128
 71
   108
 72
    19
 73
    21
  0
VERTEX
  5
5F9
  8
0
 62
     9
 10
0.0
 20
0.0
 30
0.0
 70
   128
 71
   107
 72
    17
 73
    19
  0
VERTEX
  5
5FA
  8
0
 62
     9
 10
0.0
 20
0.0
 30
0.0
 70
   128
 71
   106
 72
    15
 73
    17
  0
VERTEX
  5
5FB
  8
0
 62
     9
 10
0.0
 20
0.0
 30
0.0
 70
   128
 71
   105
 72
    13
 73
    15
  0
VERTEX
  5
5FC
  8
0
 62
     9
 10
0.0
 20
0.0
 30
0.0
 70
   128
 71
   104
 72
    11
 73
    13
  0
VERTEX
  5
5FD
  8
0
 62
     9
 10
0.0
 20
0.0
 30
0.0
 70
   128
 71
   103
 72
     9
 73
    11
  0
VERTEX
  5
5FE
  8
0
 62
     9
 10
0.0
 20
0.0
 30
0.0
 70
   128
 71
   102
 72
     7
 73
     9
  0
VERTEX
  5
5FF
  8
0
 62
     9
 10
0.0
 20
0.0
 30
0.0
 70
   128
 71
   101
 72
     5
 73
     7
  0
VERTEX
  5
600
  8
0
 62
     9
 10
0.0
 20
0.0
 30
0.0
 70
   128
 71
   100
 72
     1
 73
     5
  0
VERTEX
  5
601
  8
0
 62
     9
 10
0.0
 20
0.0
 30
0.0
 70
   128
 71
   100
 72
   140
 73
   112
  0
VERTEX
  5
602
  8
0
 62
     9
 10
0.0
 20
0.0
 30
0.0
 70
   128
 71
    98
 72
   109
 73
   110
  0
VERTEX
  5
603
  8
0
 62
     9
 10
0.0
 20
0.0
 30
0.0
 70
   128
 71
    97
 72
   108
 73
   109
  0
VERTEX
  5
604
  8
0
 62
     9
 10
0.0
 20
0.0
 30
0.0
 70
   128
 71
    96
 72
   107
 73
   108
  0
VERTEX
  5
605
  8
0
 62
     9
 10
0.0
 20
0.0
 30
0.0
 70
   128
 71
    95
 72
   106
 73
   107
  0
VERTEX
  5
606
  8
0
 62
     9
 10
0.0
 20
0.0
 30
0.0
 70
   128
 71
    94
 72
   105
 73
   106
  0
VERTEX
  5
607
  8
0
 62
     9
 10
0.0
 20
0.0
 30
0.0
 70
   128
 71
    93
 72
   104
 73
   105
  0
VERTEX
  5
608
  8
0
 62
     9
 10
0.0
 20
0.0
 30
0.0
 70
   128
 71
    92
 72
   103
 73
   104
  0
VERTEX
  5
609
  8
0
 62
     9
 10
0.0
 20
0.0
 30
0.0
 70
   128
 71
    91
 72
   102
 73
   103
  0
VERTEX
  5
60A
  8
0
 62
     9
 10
0.0
 20
0.0
 30
0.0
 70
   128
 71
    90
 72
   101
 73
   102
  0
VERTEX
  5
60B
  8
0
 62
     9
 10
0.0
 20
0.0
 30
0.0
 70
   128
 71
    87
 72
   100
 73
   101
  0
VERTEX
  5
60C
  8
0
 62
     9
 10
0.0
 20
0.0
 30
0.0
 70
   128
 71
    88
 72
   140
 73
   100
  0
VERTEX
  5
60D
  8
0
 62
     9
 10
0.0
 20
0.0
 30
0.0
 70
   128
 71
    85
 72
    98
 73
    99
  0
VERTEX
  5
60E
  8
0
 62
     9
 10
0.0
 20
0.0
 30
0.0
 70
   128
 71
    84
 72
    97
 73
    98
  0
VERTEX
  5
60F
  8
0
 62
     9
 10
0.0
 20
0.0
 30
0.0
 70
   128
 71
    83
 72
    96
 73
    97
  0
VERTEX
  5
610
  8
0
 62
     9
 10
0.0
 20
0.0
 30
0.0
 70
   128
 71
    82
 72
    95
 73
    96
  0
VERTEX
  5
611
  8
0
 62
     9
 10
0.0
 20
0.0
 30
0.0
 70
   128
 71
    81
 72
    94
 73
    95
  0
VERTEX
  5
612
  8
0
 62
     9
 10
0.0
 20
0.0
 30
0.0
 70
   128
 71
    80
 72
    93
 73
    94
  0
VERTEX
  5
613
  8
0
 62
     9
 10
0.0
 20
0.0
 30
0.0
 70
   128
 71
    79
 72
    92
 73
    93
  0
VERTEX
  5
614
  8
0
 62
     9
 10
0.0
 20
0.0
 30
0.0
 70
   128
 71
    78
 72
    91
 73
    92
  0
VERTEX
  5
615
  8
0
 62
     9
 10
0.0
 20
0.0
 30
0.0
 70
   128
 71
    77
 72
    90
 73
    91
  0
VERTEX
  5
616
  8
0
 62
     9
 10
0.0
 20
0.0
 30
0.0
 70
   128
 71
    75
 72
    87
 73
    90
  0
VERTEX
  5
617
  8
0
 62
     9
 10
0.0
 20
0.0
 30
0.0
 70
   128
 71
    75
 72
    76
 73
    89
  0
VERTEX
  5
618
  8
0
 62
     9
 10
0.0
 20
0.0
 30
0.0
 70
   128
 71
    72
 72
    85
 73
    86
  0
VERTEX
  5
619
  8
0
 62
     9
 10
0.0
 20
0.0
 30
0.0
 70
   128
 71
    71
 72
    84
 73
    85
  0
VERTEX
  5
61A
  8
0
 62
     9
 10
0.0
 20
0.0
 30
0.0
 70
   128
 71
    70
 72
    83
 73
    84
  0
VERTEX
  5
61B
  8
0
 62
     9
 10
0.0
 20
0.0
 30
0.0
 70
   128
 71
    69
 72
    82
 73
    83
  0
VERTEX
  5
61C
  8
0
 62
     9
 10
0.0
 20
0.0
 30
0.0
 70
   128
 71
    68
 72
    81
 73
    82
  0
VERTEX
  5
61D
  8
0
 62
     9
 10
0.0
 20
0.0
 30
0.0
 70
   128
 71
    67
 72
    80
 73
    81
  0
VERTEX
  5
61E
  8
0
 62
     9
 10
0.0
 20
0.0
 30
0.0
 70
   128
 71
    66
 72
    79
 73
    80
  0
VERTEX
  5
61F
  8
0
 62
     9
 10
0.0
 20
0.0
 30
0.0
 70
   128
 71
    65
 72
    78
 73
    79
  0
VERTEX
  5
620
  8
0
 62
     9
 10
0.0
 20
0.0
 30
0.0
 70
   128
 71
    64
 72
    77
 73
    78
  0
VERTEX
  5
621
  8
0
 62
     9
 10
0.0
 20
0.0
 30
0.0
 70
   128
 71
    63
 72
    75
 73
    77
  0
VERTEX
  5
622
  8
0
 62
     9
 10
0.0
 20
0.0
 30
0.0
 70
   128
 71
    63
 72
   141
 73
    74
  0
VERTEX
  5
623
  8
0
 62
     9
 10
0.0
 20
0.0
 30
0.0
 70
   128
 71
    61
 72
    72
 73
    73
  0
VERTEX
  5
624
  8
0
 62
     9
 10
0.0
 20
0.0
 30
0.0
 70
   128
 71
    60
 72
    71
 73
    72
  0
VERTEX
  5
625
  8
0
 62
     9
 10
0.0
 20
0.0
 30
0.0
 70
   128
 71
    59
 72
    70
 73
    71
  0
VERTEX
  5
626
  8
0
 62
     9
 10
0.0
 20
0.0
 30
0.0
 70
   128
 71
    58
 72
    69
 73
    70
  0
VERTEX
  5
627
  8
0
 62
     9
 10
0.0
 20
0.0
 30
0.0
 70
   128
 71
    57
 72
    68
 73
    69
  0
VERTEX
  5
628
  8
0
 62
     9
 10
0.0
 20
0.0
 30
0.0
 70
   128
 71
    56
 72
    67
 73
    68
  0
VERTEX
  5
629
  8
0
 62
     9
 10
0.0
 20
0.0
 30
0.0
 70
   128
 71
    55
 72
    66
 73
    67
  0
VERTEX
  5
62A
  8
0
 62
     9
 10
0.0
 20
0.0
 30
0.0
 70
   128
 71
    54
 72
    65
 73
    66
  0
VERTEX
  5
62B
  8
0
 62
     9
 10
0.0
 20
0.0
 30
0.0
 70
   128
 71
    53
 72
    64
 73
    65
  0
VERTEX
  5
62C
  8
0
 62
     9
 10
0.0
 20
0.0
 30
0.0
 70
   128
 71
    51
 72
    63
 73
    64
  0
VERTEX
  5
62D
  8
0
 62
     9
 10
0.0
 20
0.0
 30
0.0
 70
   128
 71
    52
 72
   141
 73
    63
  0
VERTEX
  5
62E
  8
0
 62
     9
 10
0.0
 20
0.0
 30
0.0
 70
   128
 71
    48
 72
    61
 73
    62
  0
VERTEX
  5
62F
  8
0
 62
     9
 10
0.0
 20
0.0
 30
0.0
 70
   128
 71
    47
 72
    60
 73
    61
  0
VERTEX
  5
630
  8
0
 62
     9
 10
0.0
 20
0.0
 30
0.0
 70
   128
 71
    46
 72
    59
 73
    60
  0
VERTEX
  5
631
  8
0
 62
     9
 10
0.0
 20
0.0
 30
0.0
 70
   128
 71
    45
 72
    58
 73
    59
  0
VERTEX
  5
632
  8
0
 62
     9
 10
0.0
 20
0.0
 30
0.0
 70
   128
 71
    44
 72
    57
 73
    58
  0
VERTEX
  5
633
  8
0
 62
     9
 10
0.0
 20
0.0
 30
0.0
 70
   128
 71
    43
 72
    56
 73
    57
  0
VERTEX
  5
634
  8
0
 62
     9
 10
0.0
 20
0.0
 30
0.0
 70
   128
 71
    42
 72
    55
 73
    56
  0
VERTEX
  5
635
  8
0
 62
     9
 10
0.0
 20
0.0
 30
0.0
 70
   128
 71
    41
 72
    54
 73
    55
  0
VERTEX
  5
636
  8
0
 62
     9
 10
0.0
 20
0.0
 30
0.0
 70
   128
 71
    40
 72
    53
 73
    54
  0
VERTEX
  5
637
  8
0
 62
     9
 10
0.0
 20
0.0
 30
0.0
 70
   128
 71
    37
 72
    51
 73
    53
  0
VERTEX
  5
638
  8
0
 62
     9
 10
0.0
 20
0.0
 30
0.0
 70
   128
 71
    50
 72
    51
 73
    37
  0
VERTEX
  5
639
  8
0
 62
     9
 10
0.0
 20
0.0
 30
0.0
 70
   128
 71
    34
 72
    48
 73
    49
  0
VERTEX
  5
63A
  8
0
 62
     9
 10
0.0
 20
0.0
 30
0.0
 70
   128
 71
    33
 72
    47
 73
    48
  0
VERTEX
  5
63B
  8
0
 62
     9
 10
0.0
 20
0.0
 30
0.0
 70
   128
 71
    32
 72
    46
 73
    47
  0
VERTEX
  5
63C
  8
0
 62
     9
 10
0.0
 20
0.0
 30
0.0
 70
   128
 71
    31
 72
    45
 73
    46
  0
VERTEX
  5
63D
  8
0
 62
     9
 10
0.0
 20
0.0
 30
0.0
 70
   128
 71
    30
 72
    44
 73
    45
  0
VERTEX
  5
63E
  8
0
 62
     9
 10
0.0
 20
0.0
 30
0.0
 70
   128
 71
    29
 72
    43
 73
    44
  0
VERTEX
  5
63F
  8
0
 62
     9
 10
0.0
 20
0.0
 30
0.0
 70
   128
 71
    28
 72
    42
 73
    43
  0
VERTEX
  5
640
  8
0
 62
     9
 10
0.0
 20
0.0
 30
0.0
 70
   128
 71
    27
 72
    41
 73
    42
  0
VERTEX
  5
641
  8
0
 62
     9
 10
0.0
 20
0.0
 30
0.0
 70
   128
 71
    26
 72
    40
 73
    41
  0
VERTEX
  5
642
  8
0
 62
     9
 10
0.0
 20
0.0
 30
0.0
 70
   128
 71
    36
 72
    37
 73
    40
  0
VERTEX
  5
643
  8
0
 62
     9
 10
0.0
 20
0.0
 30
0.0
 70
   128
 71
    36
 72
    25
 73
    38
  0
VERTEX
  5
644
  8
0
 62
     9
 10
0.0
 20
0.0
 30
0.0
 70
   128
 71
    22
 72
    34
 73
    35
  0
VERTEX
  5
645
  8
0
 62
     9
 10
0.0
 20
0.0
 30
0.0
 70
   128
 71
    20
 72
    33
 73
    34
  0
VERTEX
  5
646
  8
0
 62
     9
 10
0.0
 20
0.0
 30
0.0
 70
   128
 71
    18
 72
    32
 73
    33
  0
VERTEX
  5
647
  8
0
 62
     9
 10
0.0
 20
0.0
 30
0.0
 70
   128
 71
    16
 72
    31
 73
    32
  0
VERTEX
  5
648
  8
0
 62
     9
 10
0.0
 20
0.0
 30
0.0
 70
   128
 71
    14
 72
    30
 73
    31
  0
VERTEX
  5
649
  8
0
 62
     9
 10
0.0
 20
0.0
 30
0.0
 70
   128
 71
    12
 72
    29
 73
    30
  0
VERTEX
  5
64A
  8
0
 62
     9
 10
0.0
 20
0.0
 30
0.0
 70
   128
 71
    10
 72
    28
 73
    29
  0
VERTEX
  5
64B
  8
0
 62
     9
 10
0.0
 20
0.0
 30
0.0
 70
   128
 71
     8
 72
    27
 73
    28
  0
VERTEX
  5
64C
  8
0
 62
     9
 10
0.0
 20
0.0
 30
0.0
 70
   128
 71
     6
 72
    26
 73
    27
  0
VERTEX
  5
64D
  8
0
 62
     9
 10
0.0
 20
0.0
 30
0.0
 70
   128
 71
     2
 72
    36
 73
    26
  0
VERTEX
  5
64E
  8
0
 62
     9
 10
0.0
 20
0.0
 30
0.0
 70
   128
 71
    25
 72
    36
 73
     2
  0
VERTEX
  5
64F
  8
0
 62
     9
 10
0.0
 20
0.0
 30
0.0
 70
   128
 71
    21
 72
    22
 73
    24
  0
VERTEX
  5
650
  8
0
 62
     9
 10
0.0
 20
0.0
 30
0.0
 70
   128
 71
    19
 72
    20
 73
    22
  0
VERTEX
  5
651
  8
0
 62
     9
 10
0.0
 20
0.0
 30
0.0
 70
   128
 71
    17
 72
    18
 73
    20
  0
VERTEX
  5
652
  8
0
 62
     9
 10
0.0
 20
0.0
 30
0.0
 70
   128
 71
    15
 72
    16
 73
    18
  0
VERTEX
  5
653
  8
0
 62
     9
 10
0.0
 20
0.0
 30
0.0
 70
   128
 71
    13
 72
    14
 73
    16
  0
VERTEX
  5
654
  8
0
 62
     9
 10
0.0
 20
0.0
 30
0.0
 70
   128
 71
    11
 72
    12
 73
    14
  0
VERTEX
  5
655
  8
0
 62
     9
 10
0.0
 20
0.0
 30
0.0
 70
   128
 71
     9
 72
    10
 73
    12
  0
VERTEX
  5
656
  8
0
 62
     9
 10
0.0
 20
0.0
 30
0.0
 70
   128
 71
     7
 72
     8
 73
    10
  0
VERTEX
  5
657
  8
0
 62
     9
 10
0.0
 20
0.0
 30
0.0
 70
   128
 71
     5
 72
     6
 73
     8
  0
VERTEX
  5
658
  8
0
 62
     9
 10
0.0
 20
0.0
 30
0.0
 70
   128
 71
     1
 72
     2
 73
     6
  0
VERTEX
  5
659
  8
0
 62
     9
 10
0.0
 20
0.0
 30
0.0
 70
   128
 71
     1
 72
   111
 73
     3
  0
SEQEND
  5
65A
  8
0
 62
     9
  0
ENDBLK
  5
65D
  8
0
  0
BLOCK
  8
0
  2
E3_NODE_19_
 70
     0
 10
0.0
 20
0.0
 30
0.0
  3
E3_NODE_19_
  1

  0
POLYLINE
  5
65F
  8
0
 62
     9
 66
     1
 10
0.0
 20
0.0
 30
0.0
 70
    64
 71
    21
 72
    21
  0
VERTEX
  5
660
  8
0
 10
0.0
 20
-11.5
 30
118.5
 70
   192
  0
VERTEX
  5
661
  8
0
 10
9.958999633789062
 20
-5.75
 30
118.5
 70
   192
  0
VERTEX
  5
662
  8
0
 10
8.8100004196167
 20
-7.392000198364258
 30
214.5
 70
   192
  0
VERTEX
  5
663
  8
0
 10
1.996999979019165
 20
-11.32499980926514
 30
214.5
 70
   192
  0
VERTEX
  5
664
  8
0
 10
9.472000122070312
 20
-5.572999954223633
 30
214.5
 70
   192
  0
VERTEX
  5
665
  8
0
 10
9.958999633789062
 20
5.75
 30
118.5
 70
   192
  0
VERTEX
  5
666
  8
0
 10
9.472000122070312
 20
5.572999954223633
 30
214.5
 70
   192
  0
VERTEX
  5
667
  8
0
 10
11.5
 20
0.0
 30
214.5
 70
   192
  0
VERTEX
  5
668
  8
0
 10
0.0
 20
11.5
 30
118.5
 70
   192
  0
VERTEX
  5
669
  8
0
 10
1.996999979019165
 20
11.32499980926514
 30
214.5
 70
   192
  0
VERTEX
  5
66A
  8
0
 10
8.8100004196167
 20
7.392000198364258
 30
214.5
 70
   192
  0
VERTEX
  5
66B
  8
0
 10
0.0900000035762787
 20
10.98900032043457
 30
214.5
 70
   192
  0
VERTEX
  5
66C
  8
0
 10
-9.958999633789062
 20
5.75
 30
118.5
 70
   192
  0
VERTEX
  5
66D
  8
0
 10
-5.75
 20
9.958999633789062
 30
214.5
 70
   192
  0
VERTEX
  5
66E
  8
0
 10
-9.562000274658203
 20
5.416999816894531
 30
214.5
 70
   192
  0
VERTEX
  5
66F
  8
0
 10
-9.958999633789062
 20
-5.75
 30
118.5
 70
   192
  0
VERTEX
  5
670
  8
0
 10
-10.80599975585938
 20
-3.933000087738037
 30
214.5
 70
   192
  0
VERTEX
  5
671
  8
0
 10
-10.80599975585938
 20
3.933000087738037
 30
214.5
 70
   192
  0
VERTEX
  5
672
  8
0
 10
-9.562000274658203
 20
-5.416999816894531
 30
214.5
 70
   192
  0
VERTEX
  5
673
  8
0
 10
-5.75
 20
-9.958999633789062
 30
214.5
 70
   192
  0
VERTEX
  5
674
  8
0
 10
0.0
 20
-11.5
 30
214.5
 70
   192
  0
VERTEX
  5
675
  8
0
 62
     9
 10
0.0
 20
0.0
 30
0.0
 70
   128
 71
     3
 72
     2
 73
     1
  0
VERTEX
  5
676
  8
0
 62
     9
 10
0.0
 20
0.0
 30
0.0
 70
   128
 71
     1
 72
     4
 73
     3
  0
VERTEX
  5
677
  8
0
 62
     9
 10
0.0
 20
0.0
 30
0.0
 70
   128
 71
     3
 72
     5
 73
     2
  0
VERTEX
  5
678
  8
0
 62
     9
 10
0.0
 20
0.0
 30
0.0
 70
   128
 71
     8
 72
     7
 73
     6
  0
VERTEX
  5
679
  8
0
 62
     9
 10
0.0
 20
0.0
 30
0.0
 70
   128
 71
     6
 72
     2
 73
     8
  0
VERTEX
  5
67A
  8
0
 62
     9
 10
0.0
 20
0.0
 30
0.0
 70
   128
 71
    11
 72
    10
 73
     9
  0
VERTEX
  5
67B
  8
0
 62
     9
 10
0.0
 20
0.0
 30
0.0
 70
   128
 71
     9
 72
     6
 73
    11
  0
VERTEX
  5
67C
  8
0
 62
     9
 10
0.0
 20
0.0
 30
0.0
 70
   128
 71
    10
 72
    12
 73
     9
  0
VERTEX
  5
67D
  8
0
 62
     9
 10
0.0
 20
0.0
 30
0.0
 70
   128
 71
    14
 72
    13
 73
     9
  0
VERTEX
  5
67E
  8
0
 62
     9
 10
0.0
 20
0.0
 30
0.0
 70
   128
 71
    14
 72
    15
 73
    13
  0
VERTEX
  5
67F
  8
0
 62
     9
 10
0.0
 20
0.0
 30
0.0
 70
   128
 71
    18
 72
    17
 73
    16
  0
VERTEX
  5
680
  8
0
 62
     9
 10
0.0
 20
0.0
 30
0.0
 70
   128
 71
    16
 72
    13
 73
    18
  0
VERTEX
  5
681
  8
0
 62
     9
 10
0.0
 20
0.0
 30
0.0
 70
   128
 71
    17
 72
    19
 73
    16
  0
VERTEX
  5
682
  8
0
 62
     9
 10
0.0
 20
0.0
 30
0.0
 70
   128
 71
    20
 72
     1
 73
    16
  0
VERTEX
  5
683
  8
0
 62
     9
 10
0.0
 20
0.0
 30
0.0
 70
   128
 71
    20
 72
    21
 73
     1
  0
VERTEX
  5
684
  8
0
 62
     9
 10
0.0
 20
0.0
 30
0.0
 70
   128
 71
    16
 72
    19
 73
    20
  0
VERTEX
  5
685
  8
0
 62
     9
 10
0.0
 20
0.0
 30
0.0
 70
   128
 71
    13
 72
    15
 73
    18
  0
VERTEX
  5
686
  8
0
 62
     9
 10
0.0
 20
0.0
 30
0.0
 70
   128
 71
     9
 72
    12
 73
    14
  0
VERTEX
  5
687
  8
0
 62
     9
 10
0.0
 20
0.0
 30
0.0
 70
   128
 71
     6
 72
     7
 73
    11
  0
VERTEX
  5
688
  8
0
 62
     9
 10
0.0
 20
0.0
 30
0.0
 70
   128
 71
     2
 72
     5
 73
     8
  0
VERTEX
  5
689
  8
0
 62
     9
 10
0.0
 20
0.0
 30
0.0
 70
   128
 71
     1
 72
    21
 73
     4
  0
SEQEND
  5
68A
  8
0
 62
     9
  0
ENDBLK
  5
68D
  8
0
  0
BLOCK
  8
0
  2
E3_NODE_20_
 70
     0
 10
0.0
 20
0.0
 30
0.0
  3
E3_NODE_20_
  1

  0
POLYLINE
  5
68F
  8
0
 62
     9
 66
     1
 10
0.0
 20
0.0
 30
0.0
 70
    64
 71
     7
 72
     5
  0
VERTEX
  5
690
  8
0
 10
144.1589965820312
 20
-10.02400016784668
 30
220.8560028076172
 70
   192
  0
VERTEX
  5
691
  8
0
 10
155.5590057373047
 20
-10.02400016784668
 30
222.8659973144531
 70
   192
  0
VERTEX
  5
692
  8
0
 10
161.2579956054688
 20
0.0
 30
223.8710021972656
 70
   192
  0
VERTEX
  5
693
  8
0
 10
149.8589935302734
 20
11.57499980926514
 30
221.8609924316406
 70
   192
  0
VERTEX
  5
694
  8
0
 10
144.1589965820312
 20
10.02400016784668
 30
220.8560028076172
 70
   192
  0
VERTEX
  5
695
  8
0
 10
155.5590057373047
 20
10.02400016784668
 30
222.8659973144531
 70
   192
  0
VERTEX
  5
696
  8
0
 10
138.4600067138672
 20
0.0
 30
219.8509979248047
 70
   192
  0
VERTEX
  5
697
  8
0
 62
     9
 10
0.0
 20
0.0
 30
0.0
 70
   128
 71
     3
 72
     2
 73
     1
  0
VERTEX
  5
698
  8
0
 62
     9
 10
0.0
 20
0.0
 30
0.0
 70
   128
 71
     5
 72
     4
 73
     1
  0
VERTEX
  5
699
  8
0
 62
     9
 10
0.0
 20
0.0
 30
0.0
 70
   128
 71
     1
 72
     6
 73
     3
  0
VERTEX
  5
69A
  8
0
 62
     9
 10
0.0
 20
0.0
 30
0.0
 70
   128
 71
     1
 72
     4
 73
     6
  0
VERTEX
  5
69B
  8
0
 62
     9
 10
0.0
 20
0.0
 30
0.0
 70
   128
 71
     1
 72
     7
 73
     5
  0
SEQEND
  5
69C
  8
0
 62
     9
  0
ENDBLK
  5
69F
  8
0
  0
BLOCK
  8
0
  2
E3_NODE_21_
 70
     0
 10
0.0
 20
0.0
 30
0.0
  3
E3_NODE_21_
  1

  0
POLYLINE
  5
6A1
  8
0
 62
     9
 66
     1
 10
0.0
 20
0.0
 30
0.0
 70
    64
 71
    19
 72
    19
  0
VERTEX
  5
6A2
  8
0
 10
138.4600067138672
 20
0.0
 30
219.8509979248047
 70
   192
  0
VERTEX
  5
6A3
  8
0
 10
144.1589965820312
 20
10.02400016784668
 30
220.8560028076172
 70
   192
  0
VERTEX
  5
6A4
  8
0
 10
143.9049987792969
 20
7.440000057220459
 30
204.5639953613281
 70
   192
  0
VERTEX
  5
6A5
  8
0
 10
147.2819976806641
 20
9.420000076293945
 30
205.1600036621094
 70
   192
  0
VERTEX
  5
6A6
  8
0
 10
158.3370056152344
 20
10.02400016784668
 30
207.1089935302734
 70
   192
  0
VERTEX
  5
6A7
  8
0
 10
150.6580047607422
 20
11.39900016784668
 30
205.7550048828125
 70
   192
  0
VERTEX
  5
6A8
  8
0
 10
149.8589935302734
 20
11.57499980926514
 30
221.8609924316406
 70
   192
  0
VERTEX
  5
6A9
  8
0
 10
155.5590057373047
 20
10.02400016784668
 30
222.8659973144531
 70
   192
  0
VERTEX
  5
6AA
  8
0
 10
161.2579956054688
 20
0.0
 30
223.8710021972656
 70
   192
  0
VERTEX
  5
6AB
  8
0
 10
163.3489990234375
 20
3.959000110626221
 30
207.9929962158203
 70
   192
  0
VERTEX
  5
6AC
  8
0
 10
163.3489990234375
 20
0.0
 30
207.9929962158203
 70
   192
  0
VERTEX
  5
6AD
  8
0
 10
155.5590057373047
 20
-10.02400016784668
 30
222.8659973144531
 70
   192
  0
VERTEX
  5
6AE
  8
0
 10
158.3370056152344
 20
-10.02400016784668
 30
207.1089935302734
 70
   192
  0
VERTEX
  5
6AF
  8
0
 10
163.3489990234375
 20
-3.959000110626221
 30
207.9929962158203
 70
   192
  0
VERTEX
  5
6B0
  8
0
 10
144.1589965820312
 20
-10.02400016784668
 30
220.8560028076172
 70
   192
  0
VERTEX
  5
6B1
  8
0
 10
150.6580047607422
 20
-11.39900016784668
 30
205.7550048828125
 70
   192
  0
VERTEX
  5
6B2
  8
0
 10
147.2819976806641
 20
-9.420000076293945
 30
205.1600036621094
 70
   192
  0
VERTEX
  5
6B3
  8
0
 10
141.2380065917969
 20
0.0
 30
204.093994140625
 70
   192
  0
VERTEX
  5
6B4
  8
0
 10
143.9049987792969
 20
-7.440000057220459
 30
204.5639953613281
 70
   192
  0
VERTEX
  5
6B5
  8
0
 62
     9
 10
0.0
 20
0.0
 30
0.0
 70
   128
 71
     3
 72
     2
 73
     1
  0
VERTEX
  5
6B6
  8
0
 62
     9
 10
0.0
 20
0.0
 30
0.0
 70
   128
 71
     3
 72
     4
 73
     2
  0
VERTEX
  5
6B7
  8
0
 62
     9
 10
0.0
 20
0.0
 30
0.0
 70
   128
 71
     7
 72
     6
 73
     5
  0
VERTEX
  5
6B8
  8
0
 62
     9
 10
0.0
 20
0.0
 30
0.0
 70
   128
 71
     6
 72
     7
 73
     2
  0
VERTEX
  5
6B9
  8
0
 62
     9
 10
0.0
 20
0.0
 30
0.0
 70
   128
 71
     2
 72
     4
 73
     6
  0
VERTEX
  5
6BA
  8
0
 62
     9
 10
0.0
 20
0.0
 30
0.0
 70
   128
 71
    10
 72
     9
 73
     8
  0
VERTEX
  5
6BB
  8
0
 62
     9
 10
0.0
 20
0.0
 30
0.0
 70
   128
 71
    10
 72
    11
 73
     9
  0
VERTEX
  5
6BC
  8
0
 62
     9
 10
0.0
 20
0.0
 30
0.0
 70
   128
 71
    14
 72
    13
 73
    12
  0
VERTEX
  5
6BD
  8
0
 62
     9
 10
0.0
 20
0.0
 30
0.0
 70
   128
 71
    12
 72
     9
 73
    14
  0
VERTEX
  5
6BE
  8
0
 62
     9
 10
0.0
 20
0.0
 30
0.0
 70
   128
 71
    16
 72
    15
 73
    12
  0
VERTEX
  5
6BF
  8
0
 62
     9
 10
0.0
 20
0.0
 30
0.0
 70
   128
 71
    16
 72
    17
 73
    15
  0
VERTEX
  5
6C0
  8
0
 62
     9
 10
0.0
 20
0.0
 30
0.0
 70
   128
 71
    19
 72
    18
 73
     1
  0
VERTEX
  5
6C1
  8
0
 62
     9
 10
0.0
 20
0.0
 30
0.0
 70
   128
 71
     1
 72
    15
 73
    19
  0
VERTEX
  5
6C2
  8
0
 62
     9
 10
0.0
 20
0.0
 30
0.0
 70
   128
 71
    15
 72
    17
 73
    19
  0
VERTEX
  5
6C3
  8
0
 62
     9
 10
0.0
 20
0.0
 30
0.0
 70
   128
 71
    12
 72
    13
 73
    16
  0
VERTEX
  5
6C4
  8
0
 62
     9
 10
0.0
 20
0.0
 30
0.0
 70
   128
 71
     9
 72
    11
 73
    14
  0
VERTEX
  5
6C5
  8
0
 62
     9
 10
0.0
 20
0.0
 30
0.0
 70
   128
 71
     8
 72
     5
 73
    10
  0
VERTEX
  5
6C6
  8
0
 62
     9
 10
0.0
 20
0.0
 30
0.0
 70
   128
 71
     5
 72
     8
 73
     7
  0
VERTEX
  5
6C7
  8
0
 62
     9
 10
0.0
 20
0.0
 30
0.0
 70
   128
 71
     1
 72
    18
 73
     3
  0
SEQEND
  5
6C8
  8
0
 62
     9
  0
ENDBLK
  5
6CB
  8
0
  0
BLOCK
  8
0
  2
E3_NODE_22_
 70
     0
 10
0.0
 20
0.0
 30
0.0
  3
E3_NODE_22_
  1

  0
POLYLINE
  5
6CD
  8
0
 62
     9
 66
     1
 10
0.0
 20
0.0
 30
0.0
 70
    64
 71
    21
 72
    21
  0
VERTEX
  5
6CE
  8
0
 10
143.9049987792969
 20
7.440000057220459
 30
204.5639953613281
 70
   192
  0
VERTEX
  5
6CF
  8
0
 10
144.8329925537109
 20
6.796999931335449
 30
203.7129974365234
 70
   192
  0
VERTEX
  5
6D0
  8
0
 10
142.3970031738281
 20
0.0
 30
203.2830047607422
 70
   192
  0
VERTEX
  5
6D1
  8
0
 10
147.2819976806641
 20
9.420000076293945
 30
205.1600036621094
 70
   192
  0
VERTEX
  5
6D2
  8
0
 10
151.0030059814453
 20
10.41399955749512
 30
204.8000030517578
 70
   192
  0
VERTEX
  5
6D3
  8
0
 10
158.3370056152344
 20
10.02400016784668
 30
207.1089935302734
 70
   192
  0
VERTEX
  5
6D4
  8
0
 10
158.0180053710938
 20
9.157999992370605
 30
206.0370025634766
 70
   192
  0
VERTEX
  5
6D5
  8
0
 10
163.3489990234375
 20
3.959000110626221
 30
207.9929962158203
 70
   192
  0
VERTEX
  5
6D6
  8
0
 10
162.5970001220703
 20
3.617000102996826
 30
206.8450012207031
 70
   192
  0
VERTEX
  5
6D7
  8
0
 10
162.5970001220703
 20
-3.617000102996826
 30
206.8450012207031
 70
   192
  0
VERTEX
  5
6D8
  8
0
 10
163.3489990234375
 20
0.0
 30
207.9929962158203
 70
   192
  0
VERTEX
  5
6D9
  8
0
 10
158.3370056152344
 20
-10.02400016784668
 30
207.1089935302734
 70
   192
  0
VERTEX
  5
6DA
  8
0
 10
158.0180053710938
 20
-9.157999992370605
 30
206.0370025634766
 70
   192
  0
VERTEX
  5
6DB
  8
0
 10
150.6580047607422
 20
-11.39900016784668
 30
205.7550048828125
 70
   192
  0
VERTEX
  5
6DC
  8
0
 10
151.0030059814453
 20
-10.41399955749512
 30
204.8000030517578
 70
   192
  0
VERTEX
  5
6DD
  8
0
 10
144.8329925537109
 20
-6.796999931335449
 30
203.7129974365234
 70
   192
  0
VERTEX
  5
6DE
  8
0
 10
147.2819976806641
 20
-9.420000076293945
 30
205.1600036621094
 70
   192
  0
VERTEX
  5
6DF
  8
0
 10
143.9049987792969
 20
-7.440000057220459
 30
204.5639953613281
 70
   192
  0
VERTEX
  5
6E0
  8
0
 10
141.2380065917969
 20
0.0
 30
204.093994140625
 70
   192
  0
VERTEX
  5
6E1
  8
0
 10
163.3489990234375
 20
-3.959000110626221
 30
207.9929962158203
 70
   192
  0
VERTEX
  5
6E2
  8
0
 10
150.6580047607422
 20
11.39900016784668
 30
205.7550048828125
 70
   192
  0
VERTEX
  5
6E3
  8
0
 62
     9
 10
0.0
 20
0.0
 30
0.0
 70
   128
 71
     3
 72
     2
 73
     1
  0
VERTEX
  5
6E4
  8
0
 62
     9
 10
0.0
 20
0.0
 30
0.0
 70
   128
 71
     4
 72
     1
 73
     2
  0
VERTEX
  5
6E5
  8
0
 62
     9
 10
0.0
 20
0.0
 30
0.0
 70
   128
 71
     2
 72
     5
 73
     4
  0
VERTEX
  5
6E6
  8
0
 62
     9
 10
0.0
 20
0.0
 30
0.0
 70
   128
 71
     5
 72
     7
 73
     6
  0
VERTEX
  5
6E7
  8
0
 62
     9
 10
0.0
 20
0.0
 30
0.0
 70
   128
 71
     7
 72
     9
 73
     8
  0
VERTEX
  5
6E8
  8
0
 62
     9
 10
0.0
 20
0.0
 30
0.0
 70
   128
 71
    11
 72
     9
 73
    10
  0
VERTEX
  5
6E9
  8
0
 62
     9
 10
0.0
 20
0.0
 30
0.0
 70
   128
 71
    11
 72
     8
 73
     9
  0
VERTEX
  5
6EA
  8
0
 62
     9
 10
0.0
 20
0.0
 30
0.0
 70
   128
 71
    10
 72
    13
 73
    12
  0
VERTEX
  5
6EB
  8
0
 62
     9
 10
0.0
 20
0.0
 30
0.0
 70
   128
 71
    13
 72
    15
 73
    14
  0
VERTEX
  5
6EC
  8
0
 62
     9
 10
0.0
 20
0.0
 30
0.0
 70
   128
 71
    17
 72
    15
 73
    16
  0
VERTEX
  5
6ED
  8
0
 62
     9
 10
0.0
 20
0.0
 30
0.0
 70
   128
 71
    17
 72
    14
 73
    15
  0
VERTEX
  5
6EE
  8
0
 62
     9
 10
0.0
 20
0.0
 30
0.0
 70
   128
 71
     3
 72
    19
 73
    18
  0
VERTEX
  5
6EF
  8
0
 62
     9
 10
0.0
 20
0.0
 30
0.0
 70
   128
 71
    18
 72
    16
 73
     3
  0
VERTEX
  5
6F0
  8
0
 62
     9
 10
0.0
 20
0.0
 30
0.0
 70
   128
 71
    16
 72
    18
 73
    17
  0
VERTEX
  5
6F1
  8
0
 62
     9
 10
0.0
 20
0.0
 30
0.0
 70
   128
 71
    14
 72
    12
 73
    13
  0
VERTEX
  5
6F2
  8
0
 62
     9
 10
0.0
 20
0.0
 30
0.0
 70
   128
 71
    12
 72
    20
 73
    10
  0
VERTEX
  5
6F3
  8
0
 62
     9
 10
0.0
 20
0.0
 30
0.0
 70
   128
 71
    10
 72
    20
 73
    11
  0
VERTEX
  5
6F4
  8
0
 62
     9
 10
0.0
 20
0.0
 30
0.0
 70
   128
 71
     8
 72
     6
 73
     7
  0
VERTEX
  5
6F5
  8
0
 62
     9
 10
0.0
 20
0.0
 30
0.0
 70
   128
 71
     6
 72
    21
 73
     5
  0
VERTEX
  5
6F6
  8
0
 62
     9
 10
0.0
 20
0.0
 30
0.0
 70
   128
 71
     5
 72
    21
 73
     4
  0
VERTEX
  5
6F7
  8
0
 62
     9
 10
0.0
 20
0.0
 30
0.0
 70
   128
 71
     1
 72
    19
 73
     3
  0
SEQEND
  5
6F8
  8
0
 62
     9
  0
ENDBLK
  5
6FB
  8
0
  0
BLOCK
  8
0
  2
E3_NODE_23_
 70
     0
 10
0.0
 20
0.0
 30
0.0
  3
E3_NODE_23_
  1

  0
POLYLINE
  5
6FD
  8
0
 62
     9
 66
     1
 10
0.0
 20
0.0
 30
0.0
 70
    64
 71
     9
 72
     7
  0
VERTEX
  5
6FE
  8
0
 10
158.0180053710938
 20
-9.157999992370605
 30
206.0370025634766
 70
   192
  0
VERTEX
  5
6FF
  8
0
 10
144.8329925537109
 20
-6.796999931335449
 30
203.7129974365234
 70
   192
  0
VERTEX
  5
700
  8
0
 10
142.3970031738281
 20
0.0
 30
203.2830047607422
 70
   192
  0
VERTEX
  5
701
  8
0
 10
162.5970001220703
 20
3.617000102996826
 30
206.8450012207031
 70
   192
  0
VERTEX
  5
702
  8
0
 10
144.8329925537109
 20
6.796999931335449
 30
203.7129974365234
 70
   192
  0
VERTEX
  5
703
  8
0
 10
151.0030059814453
 20
10.41399955749512
 30
204.8000030517578
 70
   192
  0
VERTEX
  5
704
  8
0
 10
151.0030059814453
 20
-10.41399955749512
 30
204.8000030517578
 70
   192
  0
VERTEX
  5
705
  8
0
 10
158.0180053710938
 20
9.157999992370605
 30
206.0370025634766
 70
   192
  0
VERTEX
  5
706
  8
0
 10
162.5970001220703
 20
-3.617000102996826
 30
206.8450012207031
 70
   192
  0
VERTEX
  5
707
  8
0
 62
     9
 10
0.0
 20
0.0
 30
0.0
 70
   128
 71
     3
 72
     2
 73
     1
  0
VERTEX
  5
708
  8
0
 62
     9
 10
0.0
 20
0.0
 30
0.0
 70
   128
 71
     6
 72
     5
 73
     4
  0
VERTEX
  5
709
  8
0
 62
     9
 10
0.0
 20
0.0
 30
0.0
 70
   128
 71
     2
 72
     7
 73
     1
  0
VERTEX
  5
70A
  8
0
 62
     9
 10
0.0
 20
0.0
 30
0.0
 70
   128
 71
     4
 72
     8
 73
     6
  0
VERTEX
  5
70B
  8
0
 62
     9
 10
0.0
 20
0.0
 30
0.0
 70
   128
 71
     1
 72
     9
 73
     5
  0
VERTEX
  5
70C
  8
0
 62
     9
 10
0.0
 20
0.0
 30
0.0
 70
   128
 71
     1
 72
     5
 73
     3
  0
VERTEX
  5
70D
  8
0
 62
     9
 10
0.0
 20
0.0
 30
0.0
 70
   128
 71
     5
 72
     9
 73
     4
  0
SEQEND
  5
70E
  8
0
 62
     9
  0
ENDBLK
  5
711
  8
0
  0
BLOCK
  8
0
  2
E3_NODE_24_
 70
     0
 10
0.0
 20
0.0
 30
0.0
  3
E3_NODE_24_
  1

  0
POLYLINE
  5
713
  8
0
 62
     9
 66
     1
 10
0.0
 20
0.0
 30
0.0
 70
    64
 71
    12
 72
    12
  0
VERTEX
  5
714
  8
0
 10
0.0
 20
11.5
 30
117.8499984741211
 70
   192
  0
VERTEX
  5
715
  8
0
 10
0.0
 20
10.85000038146973
 30
118.5
 70
   192
  0
VERTEX
  5
716
  8
0
 10
9.395999908447266
 20
5.425000190734863
 30
118.5
 70
   192
  0
VERTEX
  5
717
  8
0
 10
9.958999633789062
 20
5.75
 30
117.8499984741211
 70
   192
  0
VERTEX
  5
718
  8
0
 10
9.395999908447266
 20
-5.425000190734863
 30
118.5
 70
   192
  0
VERTEX
  5
719
  8
0
 10
0.0
 20
-11.5
 30
117.8499984741211
 70
   192
  0
VERTEX
  5
71A
  8
0
 10
9.958999633789062
 20
-5.75
 30
117.8499984741211
 70
   192
  0
VERTEX
  5
71B
  8
0
 10
-9.958999633789062
 20
-5.75
 30
117.8499984741211
 70
   192
  0
VERTEX
  5
71C
  8
0
 10
0.0
 20
-10.85000038146973
 30
118.5
 70
   192
  0
VERTEX
  5
71D
  8
0
 10
-9.395999908447266
 20
-5.425000190734863
 30
118.5
 70
   192
  0
VERTEX
  5
71E
  8
0
 10
-9.395999908447266
 20
5.425000190734863
 30
118.5
 70
   192
  0
VERTEX
  5
71F
  8
0
 10
-9.958999633789062
 20
5.75
 30
117.8499984741211
 70
   192
  0
VERTEX
  5
720
  8
0
 62
     9
 10
0.0
 20
0.0
 30
0.0
 70
   128
 71
     3
 72
     2
 73
     1
  0
VERTEX
  5
721
  8
0
 62
     9
 10
0.0
 20
0.0
 30
0.0
 70
   128
 71
     5
 72
     3
 73
     4
  0
VERTEX
  5
722
  8
0
 62
     9
 10
0.0
 20
0.0
 30
0.0
 70
   128
 71
     5
 72
     7
 73
     6
  0
VERTEX
  5
723
  8
0
 62
     9
 10
0.0
 20
0.0
 30
0.0
 70
   128
 71
     9
 72
     6
 73
     8
  0
VERTEX
  5
724
  8
0
 62
     9
 10
0.0
 20
0.0
 30
0.0
 70
   128
 71
    11
 72
    10
 73
     8
  0
VERTEX
  5
725
  8
0
 62
     9
 10
0.0
 20
0.0
 30
0.0
 70
   128
 71
     2
 72
    11
 73
    12
  0
VERTEX
  5
726
  8
0
 62
     9
 10
0.0
 20
0.0
 30
0.0
 70
   128
 71
    12
 72
     1
 73
     2
  0
VERTEX
  5
727
  8
0
 62
     9
 10
0.0
 20
0.0
 30
0.0
 70
   128
 71
     8
 72
    12
 73
    11
  0
VERTEX
  5
728
  8
0
 62
     9
 10
0.0
 20
0.0
 30
0.0
 70
   128
 71
     8
 72
    10
 73
     9
  0
VERTEX
  5
729
  8
0
 62
     9
 10
0.0
 20
0.0
 30
0.0
 70
   128
 71
     6
 72
     9
 73
     5
  0
VERTEX
  5
72A
  8
0
 62
     9
 10
0.0
 20
0.0
 30
0.0
 70
   128
 71
     4
 72
     7
 73
     5
  0
VERTEX
  5
72B
  8
0
 62
     9
 10
0.0
 20
0.0
 30
0.0
 70
   128
 71
     1
 72
     4
 73
     3
  0
SEQEND
  5
72C
  8
0
 62
     9
  0
ENDBLK
  5
72F
  8
0
  0
BLOCK
  8
0
  2
E3_NODE_25_
 70
     0
 10
0.0
 20
0.0
 30
0.0
  3
E3_NODE_25_
  1

  0
POLYLINE
  5
731
  8
0
 62
     9
 66
     1
 10
0.0
 20
0.0
 30
0.0
 70
    64
 71
    12
 72
    12
  0
VERTEX
  5
732
  8
0
 10
9.958999633789062
 20
5.75
 30
117.8499984741211
 70
   192
  0
VERTEX
  5
733
  8
0
 10
9.958999633789062
 20
5.75
 30
117.5
 70
   192
  0
VERTEX
  5
734
  8
0
 10
0.0
 20
11.5
 30
117.5
 70
   192
  0
VERTEX
  5
735
  8
0
 10
9.958999633789062
 20
-5.75
 30
117.8499984741211
 70
   192
  0
VERTEX
  5
736
  8
0
 10
9.958999633789062
 20
-5.75
 30
117.5
 70
   192
  0
VERTEX
  5
737
  8
0
 10
0.0
 20
-11.5
 30
117.8499984741211
 70
   192
  0
VERTEX
  5
738
  8
0
 10
0.0
 20
-11.5
 30
117.5
 70
   192
  0
VERTEX
  5
739
  8
0
 10
-9.958999633789062
 20
-5.75
 30
117.8499984741211
 70
   192
  0
VERTEX
  5
73A
  8
0
 10
-9.958999633789062
 20
-5.75
 30
117.5
 70
   192
  0
VERTEX
  5
73B
  8
0
 10
-9.958999633789062
 20
5.75
 30
117.8499984741211
 70
   192
  0
VERTEX
  5
73C
  8
0
 10
-9.958999633789062
 20
5.75
 30
117.5
 70
   192
  0
VERTEX
  5
73D
  8
0
 10
0.0
 20
11.5
 30
117.8499984741211
 70
   192
  0
VERTEX
  5
73E
  8
0
 62
     9
 10
0.0
 20
0.0
 30
0.0
 70
   128
 71
     3
 72
     2
 73
     1
  0
VERTEX
  5
73F
  8
0
 62
     9
 10
0.0
 20
0.0
 30
0.0
 70
   128
 71
     2
 72
     5
 73
     4
  0
VERTEX
  5
740
  8
0
 62
     9
 10
0.0
 20
0.0
 30
0.0
 70
   128
 71
     5
 72
     7
 73
     6
  0
VERTEX
  5
741
  8
0
 62
     9
 10
0.0
 20
0.0
 30
0.0
 70
   128
 71
     7
 72
     9
 73
     8
  0
VERTEX
  5
742
  8
0
 62
     9
 10
0.0
 20
0.0
 30
0.0
 70
   128
 71
     9
 72
    11
 73
    10
  0
VERTEX
  5
743
  8
0
 62
     9
 10
0.0
 20
0.0
 30
0.0
 70
   128
 71
    11
 72
     3
 73
    12
  0
VERTEX
  5
744
  8
0
 62
     9
 10
0.0
 20
0.0
 30
0.0
 70
   128
 71
    12
 72
    10
 73
    11
  0
VERTEX
  5
745
  8
0
 62
     9
 10
0.0
 20
0.0
 30
0.0
 70
   128
 71
    10
 72
     8
 73
     9
  0
VERTEX
  5
746
  8
0
 62
     9
 10
0.0
 20
0.0
 30
0.0
 70
   128
 71
     8
 72
     6
 73
     7
  0
VERTEX
  5
747
  8
0
 62
     9
 10
0.0
 20
0.0
 30
0.0
 70
   128
 71
     6
 72
     4
 73
     5
  0
VERTEX
  5
748
  8
0
 62
     9
 10
0.0
 20
0.0
 30
0.0
 70
   128
 71
     4
 72
     1
 73
     2
  0
VERTEX
  5
749
  8
0
 62
     9
 10
0.0
 20
0.0
 30
0.0
 70
   128
 71
     1
 72
    12
 73
     3
  0
SEQEND
  5
74A
  8
0
 62
     9
  0
ENDBLK
  5
74D
  8
0
  0
BLOCK
  8
0
  2
E3_NODE_26_
 70
     0
 10
0.0
 20
0.0
 30
0.0
  3
E3_NODE_26_
  1

  0
POLYLINE
  5
74F
  8
0
 62
     9
 66
     1
 10
0.0
 20
0.0
 30
0.0
 70
    64
 71
    14
 72
    14
  0
VERTEX
  5
750
  8
0
 10
0.0
 20
-11.5
 30
117.5
 70
   192
  0
VERTEX
  5
751
  8
0
 10
0.0
 20
-15.0
 30
117.5
 70
   192
  0
VERTEX
  5
752
  8
0
 10
6.507999897003174
 20
-13.51500034332275
 30
117.5
 70
   192
  0
VERTEX
  5
753
  8
0
 10
14.62399959564209
 20
-3.338000059127808
 30
117.5
 70
   192
  0
VERTEX
  5
754
  8
0
 10
9.958999633789062
 20
-5.75
 30
117.5
 70
   192
  0
VERTEX
  5
755
  8
0
 10
11.72700023651123
 20
9.35200023651123
 30
117.5
 70
   192
  0
VERTEX
  5
756
  8
0
 10
9.958999633789062
 20
5.75
 30
117.5
 70
   192
  0
VERTEX
  5
757
  8
0
 10
0.0
 20
15.0
 30
117.5
 70
   192
  0
VERTEX
  5
758
  8
0
 10
0.0
 20
11.5
 30
117.5
 70
   192
  0
VERTEX
  5
759
  8
0
 10
-9.958999633789062
 20
-5.75
 30
117.5
 70
   192
  0
VERTEX
  5
75A
  8
0
 10
-6.507999897003174
 20
-13.51500034332275
 30
117.5
 70
   192
  0
VERTEX
  5
75B
  8
0
 10
-11.72700023651123
 20
9.35200023651123
 30
117.5
 70
   192
  0
VERTEX
  5
75C
  8
0
 10
-9.958999633789062
 20
5.75
 30
117.5
 70
   192
  0
VERTEX
  5
75D
  8
0
 10
-14.62399959564209
 20
-3.338000059127808
 30
117.5
 70
   192
  0
VERTEX
  5
75E
  8
0
 62
     9
 10
0.0
 20
0.0
 30
0.0
 70
   128
 71
     3
 72
     2
 73
     1
  0
VERTEX
  5
75F
  8
0
 62
     9
 10
0.0
 20
0.0
 30
0.0
 70
   128
 71
     5
 72
     4
 73
     3
  0
VERTEX
  5
760
  8
0
 62
     9
 10
0.0
 20
0.0
 30
0.0
 70
   128
 71
     7
 72
     6
 73
     4
  0
VERTEX
  5
761
  8
0
 62
     9
 10
0.0
 20
0.0
 30
0.0
 70
   128
 71
     4
 72
     5
 73
     7
  0
VERTEX
  5
762
  8
0
 62
     9
 10
0.0
 20
0.0
 30
0.0
 70
   128
 71
     9
 72
     8
 73
     6
  0
VERTEX
  5
763
  8
0
 62
     9
 10
0.0
 20
0.0
 30
0.0
 70
   128
 71
    11
 72
    10
 73
     1
  0
VERTEX
  5
764
  8
0
 62
     9
 10
0.0
 20
0.0
 30
0.0
 70
   128
 71
     6
 72
     7
 73
     9
  0
VERTEX
  5
765
  8
0
 62
     9
 10
0.0
 20
0.0
 30
0.0
 70
   128
 71
     9
 72
    13
 73
    12
  0
VERTEX
  5
766
  8
0
 62
     9
 10
0.0
 20
0.0
 30
0.0
 70
   128
 71
    13
 72
    10
 73
    14
  0
VERTEX
  5
767
  8
0
 62
     9
 10
0.0
 20
0.0
 30
0.0
 70
   128
 71
     1
 72
     2
 73
    11
  0
VERTEX
  5
768
  8
0
 62
     9
 10
0.0
 20
0.0
 30
0.0
 70
   128
 71
    12
 72
     8
 73
     9
  0
VERTEX
  5
769
  8
0
 62
     9
 10
0.0
 20
0.0
 30
0.0
 70
   128
 71
    11
 72
    14
 73
    10
  0
VERTEX
  5
76A
  8
0
 62
     9
 10
0.0
 20
0.0
 30
0.0
 70
   128
 71
    14
 72
    12
 73
    13
  0
VERTEX
  5
76B
  8
0
 62
     9
 10
0.0
 20
0.0
 30
0.0
 70
   128
 71
     1
 72
     5
 73
     3
  0
SEQEND
  5
76C
  8
0
 62
     9
  0
ENDBLK
  5
76F
  8
0
  0
BLOCK
  8
0
  2
E3_NODE_27_
 70
     0
 10
0.0
 20
0.0
 30
0.0
  3
E3_NODE_27_
  1

  0
POLYLINE
  5
771
  8
0
 62
     9
 66
     1
 10
0.0
 20
0.0
 30
0.0
 70
    64
 71
    16
 72
    16
  0
VERTEX
  5
772
  8
0
 10
11.72700023651123
 20
9.35200023651123
 30
100.5
 70
   192
  0
VERTEX
  5
773
  8
0
 10
0.0
 20
15.0
 30
100.5
 70
   192
  0
VERTEX
  5
774
  8
0
 10
0.0
 20
15.0
 30
117.5
 70
   192
  0
VERTEX
  5
775
  8
0
 10
14.62399959564209
 20
-3.338000059127808
 30
100.5
 70
   192
  0
VERTEX
  5
776
  8
0
 10
11.72700023651123
 20
9.35200023651123
 30
117.5
 70
   192
  0
VERTEX
  5
777
  8
0
 10
6.507999897003174
 20
-13.51500034332275
 30
100.5
 70
   192
  0
VERTEX
  5
778
  8
0
 10
14.62399959564209
 20
-3.338000059127808
 30
117.5
 70
   192
  0
VERTEX
  5
779
  8
0
 10
-6.507999897003174
 20
-13.51500034332275
 30
117.5
 70
   192
  0
VERTEX
  5
77A
  8
0
 10
-6.507999897003174
 20
-13.51500034332275
 30
100.5
 70
   192
  0
VERTEX
  5
77B
  8
0
 10
0.0
 20
-15.0
 30
100.5
 70
   192
  0
VERTEX
  5
77C
  8
0
 10
6.507999897003174
 20
-13.51500034332275
 30
117.5
 70
   192
  0
VERTEX
  5
77D
  8
0
 10
0.0
 20
-15.0
 30
117.5
 70
   192
  0
VERTEX
  5
77E
  8
0
 10
-14.62399959564209
 20
-3.338000059127808
 30
117.5
 70
   192
  0
VERTEX
  5
77F
  8
0
 10
-14.62399959564209
 20
-3.338000059127808
 30
100.5
 70
   192
  0
VERTEX
  5
780
  8
0
 10
-11.72700023651123
 20
9.35200023651123
 30
117.5
 70
   192
  0
VERTEX
  5
781
  8
0
 10
-11.72700023651123
 20
9.35200023651123
 30
100.5
 70
   192
  0
VERTEX
  5
782
  8
0
 62
     9
 10
0.0
 20
0.0
 30
0.0
 70
   128
 71
     3
 72
     2
 73
     1
  0
VERTEX
  5
783
  8
0
 62
     9
 10
0.0
 20
0.0
 30
0.0
 70
   128
 71
     5
 72
     1
 73
     4
  0
VERTEX
  5
784
  8
0
 62
     9
 10
0.0
 20
0.0
 30
0.0
 70
   128
 71
     7
 72
     4
 73
     6
  0
VERTEX
  5
785
  8
0
 62
     9
 10
0.0
 20
0.0
 30
0.0
 70
   128
 71
    10
 72
     9
 73
     8
  0
VERTEX
  5
786
  8
0
 62
     9
 10
0.0
 20
0.0
 30
0.0
 70
   128
 71
    12
 72
    11
 73
     6
  0
VERTEX
  5
787
  8
0
 62
     9
 10
0.0
 20
0.0
 30
0.0
 70
   128
 71
     6
 72
    10
 73
    12
  0
VERTEX
  5
788
  8
0
 62
     9
 10
0.0
 20
0.0
 30
0.0
 70
   128
 71
     9
 72
    14
 73
    13
  0
VERTEX
  5
789
  8
0
 62
     9
 10
0.0
 20
0.0
 30
0.0
 70
   128
 71
    14
 72
    16
 73
    15
  0
VERTEX
  5
78A
  8
0
 62
     9
 10
0.0
 20
0.0
 30
0.0
 70
   128
 71
    16
 72
     2
 73
     3
  0
VERTEX
  5
78B
  8
0
 62
     9
 10
0.0
 20
0.0
 30
0.0
 70
   128
 71
     3
 72
    15
 73
    16
  0
VERTEX
  5
78C
  8
0
 62
     9
 10
0.0
 20
0.0
 30
0.0
 70
   128
 71
    15
 72
    13
 73
    14
  0
VERTEX
  5
78D
  8
0
 62
     9
 10
0.0
 20
0.0
 30
0.0
 70
   128
 71
    13
 72
     8
 73
     9
  0
VERTEX
  5
78E
  8
0
 62
     9
 10
0.0
 20
0.0
 30
0.0
 70
   128
 71
     8
 72
    12
 73
    10
  0
VERTEX
  5
78F
  8
0
 62
     9
 10
0.0
 20
0.0
 30
0.0
 70
   128
 71
     6
 72
    11
 73
     7
  0
VERTEX
  5
790
  8
0
 62
     9
 10
0.0
 20
0.0
 30
0.0
 70
   128
 71
     4
 72
     7
 73
     5
  0
VERTEX
  5
791
  8
0
 62
     9
 10
0.0
 20
0.0
 30
0.0
 70
   128
 71
     1
 72
     5
 73
     3
  0
SEQEND
  5
792
  8
0
 62
     9
  0
ENDBLK
  5
795
  8
0
  0
BLOCK
  8
0
  2
E3_NODE_28_
 70
     0
 10
0.0
 20
0.0
 30
0.0
  3
E3_NODE_28_
  1

  0
POLYLINE
  5
797
  8
0
 62
     9
 66
     1
 10
0.0
 20
0.0
 30
0.0
 70
    64
 71
     4
 72
     2
  0
VERTEX
  5
798
  8
0
 10
-46.67100143432617
 20
0.0
 30
54.75199890136719
 70
   192
  0
VERTEX
  5
799
  8
0
 10
-46.67200088500977
 20
-2.0
 30
56.75199890136719
 70
   192
  0
VERTEX
  5
79A
  8
0
 10
-46.67300033569336
 20
0.0
 30
58.75199890136719
 70
   192
  0
VERTEX
  5
79B
  8
0
 10
-46.67200088500977
 20
2.0
 30
56.75199890136719
 70
   192
  0
VERTEX
  5
79C
  8
0
 62
     9
 10
0.0
 20
0.0
 30
0.0
 70
   128
 71
     3
 72
     2
 73
     1
  0
VERTEX
  5
79D
  8
0
 62
     9
 10
0.0
 20
0.0
 30
0.0
 70
   128
 71
     1
 72
     4
 73
     3
  0
SEQEND
  5
79E
  8
0
 62
     9
  0
ENDBLK
  5
7A1
  8
0
  0
BLOCK
  8
0
  2
E3_NODE_29_
 70
     0
 10
0.0
 20
0.0
 30
0.0
  3
E3_NODE_29_
  1

  0
POLYLINE
  5
7A3
  8
0
 62
     9
 66
     1
 10
0.0
 20
0.0
 30
0.0
 70
    64
 71
     8
 72
     8
  0
VERTEX
  5
7A4
  8
0
 10
-46.67200088500977
 20
2.0
 30
56.75199890136719
 70
   192
  0
VERTEX
  5
7A5
  8
0
 10
-33.30099868774414
 20
2.0
 30
56.75699996948242
 70
   192
  0
VERTEX
  5
7A6
  8
0
 10
-33.30099868774414
 20
0.0
 30
54.75699996948242
 70
   192
  0
VERTEX
  5
7A7
  8
0
 10
-46.67300033569336
 20
0.0
 30
58.75199890136719
 70
   192
  0
VERTEX
  5
7A8
  8
0
 10
-33.30199813842773
 20
0.0
 30
58.75699996948242
 70
   192
  0
VERTEX
  5
7A9
  8
0
 10
-33.30099868774414
 20
-2.0
 30
56.75699996948242
 70
   192
  0
VERTEX
  5
7AA
  8
0
 10
-46.67200088500977
 20
-2.0
 30
56.75199890136719
 70
   192
  0
VERTEX
  5
7AB
  8
0
 10
-46.67100143432617
 20
0.0
 30
54.75199890136719
 70
   192
  0
VERTEX
  5
7AC
  8
0
 62
     9
 10
0.0
 20
0.0
 30
0.0
 70
   128
 71
     3
 72
     2
 73
     1
  0
VERTEX
  5
7AD
  8
0
 62
     9
 10
0.0
 20
0.0
 30
0.0
 70
   128
 71
     2
 72
     5
 73
     4
  0
VERTEX
  5
7AE
  8
0
 62
     9
 10
0.0
 20
0.0
 30
0.0
 70
   128
 71
     4
 72
     5
 73
     6
  0
VERTEX
  5
7AF
  8
0
 62
     9
 10
0.0
 20
0.0
 30
0.0
 70
   128
 71
     7
 72
     6
 73
     3
  0
VERTEX
  5
7B0
  8
0
 62
     9
 10
0.0
 20
0.0
 30
0.0
 70
   128
 71
     3
 72
     8
 73
     7
  0
VERTEX
  5
7B1
  8
0
 62
     9
 10
0.0
 20
0.0
 30
0.0
 70
   128
 71
     6
 72
     7
 73
     4
  0
VERTEX
  5
7B2
  8
0
 62
     9
 10
0.0
 20
0.0
 30
0.0
 70
   128
 71
     4
 72
     1
 73
     2
  0
VERTEX
  5
7B3
  8
0
 62
     9
 10
0.0
 20
0.0
 30
0.0
 70
   128
 71
     1
 72
     8
 73
     3
  0
SEQEND
  5
7B4
  8
0
 62
     9
  0
ENDBLK
  5
7B7
  8
0
  0
BLOCK
  8
0
  2
E3_NODE_30_
 70
     0
 10
0.0
 20
0.0
 30
0.0
  3
E3_NODE_30_
  1

  0
POLYLINE
  5
7B9
  8
0
 62
     9
 66
     1
 10
0.0
 20
0.0
 30
0.0
 70
    64
 71
    12
 72
    16
  0
VERTEX
  5
7BA
  8
0
 10
-31.53800010681152
 20
-2.0
 30
56.18500137329102
 70
   192
  0
VERTEX
  5
7BB
  8
0
 10
-33.30099868774414
 20
-2.0
 30
56.75699996948242
 70
   192
  0
VERTEX
  5
7BC
  8
0
 10
-33.30099868774414
 20
0.0
 30
54.75699996948242
 70
   192
  0
VERTEX
  5
7BD
  8
0
 10
-32.7130012512207
 20
0.0
 30
54.56600189208984
 70
   192
  0
VERTEX
  5
7BE
  8
0
 10
-32.3489990234375
 20
0.0
 30
54.06600189208984
 70
   192
  0
VERTEX
  5
7BF
  8
0
 10
-30.36300086975098
 20
0.0
 30
57.80300140380859
 70
   192
  0
VERTEX
  5
7C0
  8
0
 10
-33.30199813842773
 20
0.0
 30
58.75699996948242
 70
   192
  0
VERTEX
  5
7C1
  8
0
 10
-28.54500007629395
 20
0.0
 30
55.30400085449219
 70
   192
  0
VERTEX
  5
7C2
  8
0
 10
-31.53800010681152
 20
2.0
 30
56.18500137329102
 70
   192
  0
VERTEX
  5
7C3
  8
0
 10
-33.30099868774414
 20
2.0
 30
56.75699996948242
 70
   192
  0
VERTEX
  5
7C4
  8
0
 10
-30.44700050354004
 20
2.0
 30
54.68500137329102
 70
   192
  0
VERTEX
  5
7C5
  8
0
 10
-30.44700050354004
 20
-2.0
 30
54.68500137329102
 70
   192
  0
VERTEX
  5
7C6
  8
0
 62
     9
 10
0.0
 20
0.0
 30
0.0
 70
   128
 71
     3
 72
     2
 73
     1
  0
VERTEX
  5
7C7
  8
0
 62
     9
 10
0.0
 20
0.0
 30
0.0
 70
   128
 71
     5
 72
     4
 73
     1
  0
VERTEX
  5
7C8
  8
0
 62
     9
 10
0.0
 20
0.0
 30
0.0
 70
   128
 71
     2
 72
     7
 73
     6
  0
VERTEX
  5
7C9
  8
0
 62
     9
 10
0.0
 20
0.0
 30
0.0
 70
   128
 71
     1
 72
     6
 73
     8
  0
VERTEX
  5
7CA
  8
0
 62
     9
 10
0.0
 20
0.0
 30
0.0
 70
   128
 71
    10
 72
     9
 73
     6
  0
VERTEX
  5
7CB
  8
0
 62
     9
 10
0.0
 20
0.0
 30
0.0
 70
   128
 71
     9
 72
    11
 73
     8
  0
VERTEX
  5
7CC
  8
0
 62
     9
 10
0.0
 20
0.0
 30
0.0
 70
   128
 71
     3
 72
     4
 73
     9
  0
VERTEX
  5
7CD
  8
0
 62
     9
 10
0.0
 20
0.0
 30
0.0
 70
   128
 71
     5
 72
    11
 73
     9
  0
VERTEX
  5
7CE
  8
0
 62
     9
 10
0.0
 20
0.0
 30
0.0
 70
   128
 71
     9
 72
     4
 73
     5
  0
VERTEX
  5
7CF
  8
0
 62
     9
 10
0.0
 20
0.0
 30
0.0
 70
   128
 71
     9
 72
    10
 73
     3
  0
VERTEX
  5
7D0
  8
0
 62
     9
 10
0.0
 20
0.0
 30
0.0
 70
   128
 71
     8
 72
     6
 73
     9
  0
VERTEX
  5
7D1
  8
0
 62
     9
 10
0.0
 20
0.0
 30
0.0
 70
   128
 71
     6
 72
     7
 73
    10
  0
VERTEX
  5
7D2
  8
0
 62
     9
 10
0.0
 20
0.0
 30
0.0
 70
   128
 71
     8
 72
    12
 73
     1
  0
VERTEX
  5
7D3
  8
0
 62
     9
 10
0.0
 20
0.0
 30
0.0
 70
   128
 71
     6
 72
     1
 73
     2
  0
VERTEX
  5
7D4
  8
0
 62
     9
 10
0.0
 20
0.0
 30
0.0
 70
   128
 71
     1
 72
    12
 73
     5
  0
VERTEX
  5
7D5
  8
0
 62
     9
 10
0.0
 20
0.0
 30
0.0
 70
   128
 71
     1
 72
     4
 73
     3
  0
SEQEND
  5
7D6
  8
0
 62
     9
  0
ENDBLK
  5
7D9
  8
0
  0
BLOCK
  8
0
  2
E3_NODE_31_
 70
     0
 10
0.0
 20
0.0
 30
0.0
  3
E3_NODE_31_
  1

  0
POLYLINE
  5
7DB
  8
0
 62
     9
 66
     1
 10
0.0
 20
0.0
 30
0.0
 70
    64
 71
     8
 72
     8
  0
VERTEX
  5
7DC
  8
0
 10
-28.54500007629395
 20
0.0
 30
55.30400085449219
 70
   192
  0
VERTEX
  5
7DD
  8
0
 10
-13.96300029754639
 20
0.0
 30
10.48400020599365
 70
   192
  0
VERTEX
  5
7DE
  8
0
 10
-16.06599998474121
 20
2.0
 30
10.48400020599365
 70
   192
  0
VERTEX
  5
7DF
  8
0
 10
-30.44700050354004
 20
2.0
 30
54.68500137329102
 70
   192
  0
VERTEX
  5
7E0
  8
0
 10
-18.16900062561035
 20
0.0
 30
10.48400020599365
 70
   192
  0
VERTEX
  5
7E1
  8
0
 10
-30.44700050354004
 20
-2.0
 30
54.68500137329102
 70
   192
  0
VERTEX
  5
7E2
  8
0
 10
-32.3489990234375
 20
0.0
 30
54.06600189208984
 70
   192
  0
VERTEX
  5
7E3
  8
0
 10
-16.06599998474121
 20
-2.0
 30
10.48400020599365
 70
   192
  0
VERTEX
  5
7E4
  8
0
 62
     9
 10
0.0
 20
0.0
 30
0.0
 70
   128
 71
     3
 72
     2
 73
     1
  0
VERTEX
  5
7E5
  8
0
 62
     9
 10
0.0
 20
0.0
 30
0.0
 70
   128
 71
     5
 72
     3
 73
     4
  0
VERTEX
  5
7E6
  8
0
 62
     9
 10
0.0
 20
0.0
 30
0.0
 70
   128
 71
     5
 72
     7
 73
     6
  0
VERTEX
  5
7E7
  8
0
 62
     9
 10
0.0
 20
0.0
 30
0.0
 70
   128
 71
     8
 72
     6
 73
     1
  0
VERTEX
  5
7E8
  8
0
 62
     9
 10
0.0
 20
0.0
 30
0.0
 70
   128
 71
     1
 72
     2
 73
     8
  0
VERTEX
  5
7E9
  8
0
 62
     9
 10
0.0
 20
0.0
 30
0.0
 70
   128
 71
     6
 72
     8
 73
     5
  0
VERTEX
  5
7EA
  8
0
 62
     9
 10
0.0
 20
0.0
 30
0.0
 70
   128
 71
     4
 72
     7
 73
     5
  0
VERTEX
  5
7EB
  8
0
 62
     9
 10
0.0
 20
0.0
 30
0.0
 70
   128
 71
     1
 72
     4
 73
     3
  0
SEQEND
  5
7EC
  8
0
 62
     9
  0
ENDBLK
  5
7EF
  8
0
  0
BLOCK
  8
0
  2
E3_NODE_32_
 70
     0
 10
0.0
 20
0.0
 30
0.0
  3
E3_NODE_32_
  1

  0
POLYLINE
  5
7F1
  8
0
 62
     9
 66
     1
 10
0.0
 20
0.0
 30
0.0
 70
    64
 71
    14
 72
    14
  0
VERTEX
  5
7F2
  8
0
 10
-14.5
 20
0.0
 30
100.5
 70
   192
  0
VERTEX
  5
7F3
  8
0
 10
-9.041000366210938
 20
11.33699989318848
 30
100.5
 70
   192
  0
VERTEX
  5
7F4
  8
0
 10
-9.041000366210938
 20
11.33699989318848
 30
100.0
 70
   192
  0
VERTEX
  5
7F5
  8
0
 10
-14.5
 20
0.0
 30
100.0
 70
   192
  0
VERTEX
  5
7F6
  8
0
 10
3.226999998092651
 20
14.13599967956543
 30
100.5
 70
   192
  0
VERTEX
  5
7F7
  8
0
 10
3.226999998092651
 20
14.13599967956543
 30
100.0
 70
   192
  0
VERTEX
  5
7F8
  8
0
 10
13.06400012969971
 20
6.290999889373779
 30
100.5
 70
   192
  0
VERTEX
  5
7F9
  8
0
 10
13.06400012969971
 20
6.290999889373779
 30
100.0
 70
   192
  0
VERTEX
  5
7FA
  8
0
 10
13.06400012969971
 20
-6.290999889373779
 30
100.5
 70
   192
  0
VERTEX
  5
7FB
  8
0
 10
13.06400012969971
 20
-6.290999889373779
 30
100.0
 70
   192
  0
VERTEX
  5
7FC
  8
0
 10
3.226999998092651
 20
-14.13599967956543
 30
100.5
 70
   192
  0
VERTEX
  5
7FD
  8
0
 10
3.226999998092651
 20
-14.13599967956543
 30
100.0
 70
   192
  0
VERTEX
  5
7FE
  8
0
 10
-9.041000366210938
 20
-11.33699989318848
 30
100.5
 70
   192
  0
VERTEX
  5
7FF
  8
0
 10
-9.041000366210938
 20
-11.33699989318848
 30
100.0
 70
   192
  0
VERTEX
  5
800
  8
0
 62
     9
 10
0.0
 20
0.0
 30
0.0
 70
   128
 71
     3
 72
     2
 73
     1
  0
VERTEX
  5
801
  8
0
 62
     9
 10
0.0
 20
0.0
 30
0.0
 70
   128
 71
     4
 72
     3
 73
     1
  0
VERTEX
  5
802
  8
0
 62
     9
 10
0.0
 20
0.0
 30
0.0
 70
   128
 71
     6
 72
     5
 73
     2
  0
VERTEX
  5
803
  8
0
 62
     9
 10
0.0
 20
0.0
 30
0.0
 70
   128
 71
     3
 72
     6
 73
     2
  0
VERTEX
  5
804
  8
0
 62
     9
 10
0.0
 20
0.0
 30
0.0
 70
   128
 71
     8
 72
     7
 73
     5
  0
VERTEX
  5
805
  8
0
 62
     9
 10
0.0
 20
0.0
 30
0.0
 70
   128
 71
     6
 72
     8
 73
     5
  0
VERTEX
  5
806
  8
0
 62
     9
 10
0.0
 20
0.0
 30
0.0
 70
   128
 71
    10
 72
     9
 73
     7
  0
VERTEX
  5
807
  8
0
 62
     9
 10
0.0
 20
0.0
 30
0.0
 70
   128
 71
     8
 72
    10
 73
     7
  0
VERTEX
  5
808
  8
0
 62
     9
 10
0.0
 20
0.0
 30
0.0
 70
   128
 71
    12
 72
    11
 73
     9
  0
VERTEX
  5
809
  8
0
 62
     9
 10
0.0
 20
0.0
 30
0.0
 70
   128
 71
    10
 72
    12
 73
     9
  0
VERTEX
  5
80A
  8
0
 62
     9
 10
0.0
 20
0.0
 30
0.0
 70
   128
 71
    14
 72
    13
 73
    11
  0
VERTEX
  5
80B
  8
0
 62
     9
 10
0.0
 20
0.0
 30
0.0
 70
   128
 71
    12
 72
    14
 73
    11
  0
VERTEX
  5
80C
  8
0
 62
     9
 10
0.0
 20
0.0
 30
0.0
 70
   128
 71
     4
 72
     1
 73
    13
  0
VERTEX
  5
80D
  8
0
 62
     9
 10
0.0
 20
0.0
 30
0.0
 70
   128
 71
    14
 72
     4
 73
    13
  0
SEQEND
  5
80E
  8
0
 62
     9
  0
ENDBLK
  5
811
  8
0
  0
ENDSEC
  0
SECTION
  2
ENTITIES
  0
INSERT
  5
8E
  8
LAYER_1
  2
E3_NODE
 10
0.0
 20
0.0
 30
0.0
  0
INSERT
  5
149
  8
LAYER_1
  2
E3_NODE_1_
 10
0.0
 20
0.0
 30
0.0
  0
INSERT
  5
1FF
  8
LAYER_1
  2
E3_NODE_2_
 10
0.0
 20
0.0
 30
0.0
  0
INSERT
  5
219
  8
LAYER_1
  2
E3_NODE_3_
 10
0.0
 20
0.0
 30
0.0
  0
INSERT
  5
233
  8
LAYER_1
  2
E3_NODE_4_
 10
0.0
 20
0.0
 30
0.0
  0
INSERT
  5
24F
  8
LAYER_1
  2
E3_NODE_5_
 10
0.0
 20
0.0
 30
0.0
  0
INSERT
  5
2F9
  8
LAYER_1
  2
E3_NODE_6_
 10
0.0
 20
0.0
 30
0.0
  0
INSERT
  5
360
  8
LAYER_1
  2
E3_NODE_7_
 10
0.0
 20
0.0
 30
0.0
  0
INSERT
  5
3C5
  8
LAYER_1
  2
E3_NODE_8_
 10
0.0
 20
0.0
 30
0.0
  0
INSERT
  5
3D7
  8
LAYER_1
  2
E3_NODE_9_
 10
0.0
 20
0.0
 30
0.0
  0
INSERT
  5
3E5
  8
LAYER_1
  2
E3_NODE_10_
 10
0.0
 20
0.0
 30
0.0
  0
INSERT
  5
3F3
  8
LAYER_1
  2
E3_NODE_11_
 10
0.0
 20
0.0
 30
0.0
  0
INSERT
  5
40D
  8
LAYER_1
  2
E3_NODE_12_
 10
0.0
 20
0.0
 30
0.0
  0
INSERT
  5
446
  8
LAYER_1
  2
E3_NODE_13_
 10
0.0
 20
0.0
 30
0.0
  0
INSERT
  5
458
  8
LAYER_1
  2
E3_NODE_14_
 10
0.0
 20
0.0
 30
0.0
  0
INSERT
  5
472
  8
LAYER_1
  2
E3_NODE_15_
 10
0.0
 20
0.0
 30
0.0
  0
INSERT
  5
490
  8
LAYER_1
  2
E3_NODE_16_
 10
0.0
 20
0.0
 30
0.0
  0
INSERT
  5
4D8
  8
LAYER_1
  2
E3_NODE_17_
 10
0.0
 20
0.0
 30
0.0
  0
INSERT
  5
65B
  8
LAYER_1
  2
E3_NODE_18_
 10
0.0
 20
0.0
 30
0.0
  0
INSERT
  5
68B
  8
LAYER_1
  2
E3_NODE_19_
 10
0.0
 20
0.0
 30
0.0
  0
INSERT
  5
69D
  8
LAYER_1
  2
E3_NODE_20_
 10
0.0
 20
0.0
 30
0.0
  0
INSERT
  5
6C9
  8
LAYER_1
  2
E3_NODE_21_
 10
0.0
 20
0.0
 30
0.0
  0
INSERT
  5
6F9
  8
LAYER_1
  2
E3_NODE_22_
 10
0.0
 20
0.0
 30
0.0
  0
INSERT
  5
70F
  8
LAYER_1
  2
E3_NODE_23_
 10
0.0
 20
0.0
 30
0.0
  0
INSERT
  5
72D
  8
LAYER_1
  2
E3_NODE_24_
 10
0.0
 20
0.0
 30
0.0
  0
INSERT
  5
74B
  8
LAYER_1
  2
E3_NODE_25_
 10
0.0
 20
0.0
 30
0.0
  0
INSERT
  5
76D
  8
LAYER_1
  2
E3_NODE_26_
 10
0.0
 20
0.0
 30
0.0
  0
INSERT
  5
793
  8
LAYER_1
  2
E3_NODE_27_
 10
0.0
 20
0.0
 30
0.0
  0
INSERT
  5
79F
  8
LAYER_1
  2
E3_NODE_28_
 10
0.0
 20
0.0
 30
0.0
  0
INSERT
  5
7B5
  8
LAYER_1
  2
E3_NODE_29_
 10
0.0
 20
0.0
 30
0.0
  0
INSERT
  5
7D7
  8
LAYER_1
  2
E3_NODE_30_
 10
0.0
 20
0.0
 30
0.0
  0
INSERT
  5
7ED
  8
LAYER_1
  2
E3_NODE_31_
 10
0.0
 20
0.0
 30
0.0
  0
INSERT
  5
80F
  8
LAYER_1
  2
E3_NODE_32_
 10
0.0
 20
0.0
 30
0.0
  0
ENDSEC
  0
EOF
