  0
SECTION
  2
HEADER
  9
$ACADVER
  1
AC1015
  9
$ACADMAINTVER
 70
     6
  9
$DWGCODEPAGE
  3
ANSI_1252
  9
$INSBASE
 10
0.0
 20
0.0
 30
0.0
  9
$EXTMIN
 10
0.0
 20
0.0
 30
0.0
  9
$EXTMAX
 10
1682.0
 20
2378.0
 30
0.0
  9
$LIMMIN
 10
0.0
 20
0.0
  9
$LIMMAX
 10
1682.0
 20
2378.0
  9
$ORTHOMODE
 70
     0
  9
$REGENMODE
 70
     1
  9
$FILLMODE
 70
     1
  9
$QTEXTMODE
 70
     0
  9
$MIRRTEXT
 70
     1
  9
$LTSCALE
 40
1.0
  9
$ATTMODE
 70
     1
  9
$TEXTSIZE
 40
2.5
  9
$TRACEWID
 40
1.0
  9
$TEXTSTYLE
  7
Standard
  9
$CLAYER
  8
0
  9
$CELTYPE
  6
ByLayer
  9
$CECOLOR
 62
   256
  9
$CELTSCALE
 40
1.0
  9
$DISPSILH
 70
     0
  9
$DIMSCALE
 40
1.0
  9
$DIMASZ
 40
2.5
  9
$DIMEXO
 40
0.625
  9
$DIMDLI
 40
3.75
  9
$DIMRND
 40
0.0
  9
$DIMDLE
 40
0.0
  9
$DIMEXE
 40
1.25
  9
$DIMTP
 40
0.0
  9
$DIMTM
 40
0.0
  9
$DIMTXT
 40
2.5
  9
$DIMCEN
 40
2.5
  9
$DIMTSZ
 40
0.0
  9
$DIMTOL
 70
     0
  9
$DIMLIM
 70
     0
  9
$DIMTIH
 70
     0
  9
$DIMTOH
 70
     0
  9
$DIMSE1
 70
     0
  9
$DIMSE2
 70
     0
  9
$DIMTAD
 70
     1
  9
$DIMZIN
 70
     8
  9
$DIMBLK
  1

  9
$DIMASO
 70
     1
  9
$DIMSHO
 70
     1
  9
$DIMPOST
  1

  9
$DIMAPOST
  1

  9
$DIMALT
 70
     0
  9
$DIMALTD
 70
     3
  9
$DIMALTF
 40
0.0393700787
  9
$DIMLFAC
 40
1.0
  9
$DIMTOFL
 70
     1
  9
$DIMTVP
 40
0.0
  9
$DIMTIX
 70
     0
  9
$DIMSOXD
 70
     0
  9
$DIMSAH
 70
     0
  9
$DIMBLK1
  1

  9
$DIMBLK2
  1

  9
$DIMSTYLE
  2
ISO-25
  9
$DIMCLRD
 70
     0
  9
$DIMCLRE
 70
     0
  9
$DIMCLRT
 70
     0
  9
$DIMTFAC
 40
1.0
  9
$DIMGAP
 40
0.625
  9
$DIMJUST
 70
     0
  9
$DIMSD1
 70
     0
  9
$DIMSD2
 70
     0
  9
$DIMTOLJ
 70
     0
  9
$DIMTZIN
 70
     8
  9
$DIMALTZ
 70
     0
  9
$DIMALTTZ
 70
     0
  9
$DIMUPT
 70
     0
  9
$DIMDEC
 70
     2
  9
$DIMTDEC
 70
     2
  9
$DIMALTU
 70
     2
  9
$DIMALTTD
 70
     3
  9
$DIMTXSTY
  7
Standard
  9
$DIMAUNIT
 70
     0
  9
$DIMADEC
 70
     0
  9
$DIMALTRND
 40
0.0
  9
$DIMAZIN
 70
     0
  9
$DIMDSEP
 70
    44
  9
$DIMATFIT
 70
     3
  9
$DIMFRAC
 70
     0
  9
$DIMLDRBLK
  1

  9
$DIMLUNIT
 70
     2
  9
$DIMLWD
 70
    -2
  9
$DIMLWE
 70
    -2
  9
$DIMTMOVE
 70
     0
  9
$LUNITS
 70
     2
  9
$LUPREC
 70
     4
  9
$SKETCHINC
 40
1.0
  9
$FILLETRAD
 40
10.0
  9
$AUNITS
 70
     0
  9
$AUPREC
 70
     0
  9
$MENU
  1
.
  9
$ELEVATION
 40
0.0
  9
$PELEVATION
 40
0.0
  9
$THICKNESS
 40
0.0
  9
$LIMCHECK
 70
     0
  9
$CHAMFERA
 40
10.0
  9
$CHAMFERB
 40
10.0
  9
$CHAMFERC
 40
20.0
  9
$CHAMFERD
 40
0.0
  9
$SKPOLY
 70
     0
  9
$TDCREATE
 40
2455440.491202975
  9
$TDUCREATE
 40
2455440.407869641
  9
$TDUPDATE
 40
2455440.491202986
  9
$TDUUPDATE
 40
2455440.407869653
  9
$TDINDWG
 40
0.0000000116
  9
$TDUSRTIMER
 40
0.0000000116
  9
$USRTIMER
 70
     1
  9
$ANGBASE
 50
0.0
  9
$ANGDIR
 70
     0
  9
$PDMODE
 70
     0
  9
$PDSIZE
 40
0.0
  9
$PLINEWID
 40
0.0
  9
$SPLFRAME
 70
     0
  9
$SPLINETYPE
 70
     6
  9
$SPLINESEGS
 70
     8
  9
$HANDSEED
  5
111
  9
$SURFTAB1
 70
     6
  9
$SURFTAB2
 70
     6
  9
$SURFTYPE
 70
     6
  9
$SURFU
 70
     6
  9
$SURFV
 70
     6
  9
$UCSBASE
  2

  9
$UCSNAME
  2

  9
$UCSORG
 10
0.0
 20
0.0
 30
0.0
  9
$UCSXDIR
 10
1.0
 20
0.0
 30
0.0
  9
$UCSYDIR
 10
0.0
 20
1.0
 30
0.0
  9
$UCSORTHOREF
  2

  9
$UCSORTHOVIEW
 70
     0
  9
$UCSORGTOP
 10
0.0
 20
0.0
 30
0.0
  9
$UCSORGBOTTOM
 10
0.0
 20
0.0
 30
0.0
  9
$UCSORGLEFT
 10
0.0
 20
0.0
 30
0.0
  9
$UCSORGRIGHT
 10
0.0
 20
0.0
 30
0.0
  9
$UCSORGFRONT
 10
0.0
 20
0.0
 30
0.0
  9
$UCSORGBACK
 10
0.0
 20
0.0
 30
0.0
  9
$PUCSBASE
  2

  9
$PUCSNAME
  2

  9
$PUCSORG
 10
0.0
 20
0.0
 30
0.0
  9
$PUCSXDIR
 10
1.0
 20
0.0
 30
0.0
  9
$PUCSYDIR
 10
0.0
 20
1.0
 30
0.0
  9
$PUCSORTHOREF
  2

  9
$PUCSORTHOVIEW
 70
     0
  9
$PUCSORGTOP
 10
0.0
 20
0.0
 30
0.0
  9
$PUCSORGBOTTOM
 10
0.0
 20
0.0
 30
0.0
  9
$PUCSORGLEFT
 10
0.0
 20
0.0
 30
0.0
  9
$PUCSORGRIGHT
 10
0.0
 20
0.0
 30
0.0
  9
$PUCSORGFRONT
 10
0.0
 20
0.0
 30
0.0
  9
$PUCSORGBACK
 10
0.0
 20
0.0
 30
0.0
  9
$USERI1
 70
     0
  9
$USERI2
 70
     0
  9
$USERI3
 70
     0
  9
$USERI4
 70
     0
  9
$USERI5
 70
     0
  9
$USERR1
 40
0.0
  9
$USERR2
 40
0.0
  9
$USERR3
 40
0.0
  9
$USERR4
 40
0.0
  9
$USERR5
 40
0.0
  9
$WORLDVIEW
 70
     1
  9
$SHADEDGE
 70
     3
  9
$SHADEDIF
 70
    70
  9
$TILEMODE
 70
     1
  9
$MAXACTVP
 70
    64
  9
$PINSBASE
 10
0.0
 20
0.0
 30
0.0
  9
$PLIMCHECK
 70
     0
  9
$PEXTMIN
 10
0.0
 20
0.0
 30
0.0
  9
$PEXTMAX
 10
1682.0
 20
2378.0
 30
0.0
  9
$PLIMMIN
 10
0.0
 20
0.0
  9
$PLIMMAX
 10
1682.0
 20
2378.0
  9
$UNITMODE
 70
     0
  9
$VISRETAIN
 70
     1
  9
$PLINEGEN
 70
     0
  9
$PSLTSCALE
 70
     1
  9
$TREEDEPTH
 70
  3020
  9
$CMLSTYLE
  2
Standard
  9
$CMLJUST
 70
     0
  9
$CMLSCALE
 40
20.0
  9
$PROXYGRAPHICS
 70
     1
  9
$MEASUREMENT
 70
     1
  9
$CELWEIGHT
370
    -1
  9
$ENDCAPS
280
     0
  9
$JOINSTYLE
280
     0
  9
$LWDISPLAY
290
     0
  9
$INSUNITS
 70
     4
  9
$HYPERLINKBASE
  1

  9
$STYLESHEET
  1

  9
$XEDIT
290
     1
  9
$CEPSNTYPE
380
     0
  9
$PSTYLEMODE
290
     1
  9
$FINGERPRINTGUID
  2
{B810B5C1-A856-4BD5-ADC7-3C78D1D6EF1F}
  9
$VERSIONGUID
  2
{FAEB1C32-E019-11D5-929B-00C0DF256EC4}
  9
$EXTNAMES
290
     1
  9
$PSVPSCALE
 40
0.0
  9
$OLESTARTUP
290
     0
  0
ENDSEC
  0
SECTION
  2
CLASSES
  0
CLASS
  1
ACDBDICTIONARYWDFLT
  2
AcDbDictionaryWithDefault
  3
ObjectDBX Classes
 90
        0
280
     0
281
     0
  0
CLASS
  1
VISUALSTYLE
  2
AcDbVisualStyle
  3
ObjectDBX Classes
 90
     4095
280
     0
281
     0
  0
CLASS
  1
SCALE
  2
AcDbScale
  3
ObjectDBX Classes
 90
     1153
280
     0
281
     0
  0
CLASS
  1
DICTIONARYVAR
  2
AcDbDictionaryVar
  3
ObjectDBX Classes
 90
        0
280
     0
281
     0
  0
CLASS
  1
ACDBPLACEHOLDER
  2
AcDbPlaceHolder
  3
ObjectDBX Classes
 90
        0
280
     0
281
     0
  0
CLASS
  1
LAYOUT
  2
AcDbLayout
  3
ObjectDBX Classes
 90
        0
280
     0
281
     0
  0
ENDSEC
  0
SECTION
  2
TABLES
  0
TABLE
  2
VPORT
  5
8
330
0
100
AcDbSymbolTable
 70
     1
  0
VPORT
  5
29
330
8
100
AcDbSymbolTableRecord
100
AcDbViewportTableRecord
  2
*Active
 70
     0
 10
0.0
 20
0.0
 11
1.0
 21
1.0
 12
344.1869158879
 22
148.5
 13
0.0
 23
0.0
 14
10.0
 24
10.0
 15
10.0
 25
10.0
 16
0.0
 26
0.0
 36
1.0
 17
0.0
 27
0.0
 37
0.0
 40
297.0
 41
1.9729729729
 42
50.0
 43
0.0
 44
0.0
 50
0.0
 51
0.0
 71
     0
 72
   100
 73
     1
 74
     3
 75
     0
 76
     0
 77
     0
 78
     0
281
     0
 65
     1
110
0.0
120
0.0
130
0.0
111
1.0
121
0.0
131
0.0
112
0.0
122
1.0
132
0.0
 79
     0
146
0.0
  0
ENDTAB
  0
TABLE
  2
LTYPE
  5
5
330
0
100
AcDbSymbolTable
 70
     2
  0
LTYPE
  5
14
330
5
100
AcDbSymbolTableRecord
100
AcDbLinetypeTableRecord
  2
ByBlock
 70
     0
  3

 72
    65
 73
     0
 40
0.0
  0
LTYPE
  5
15
330
5
100
AcDbSymbolTableRecord
100
AcDbLinetypeTableRecord
  2
ByLayer
 70
     0
  3

 72
    65
 73
     0
 40
0.0
  0
LTYPE
  5
16
330
5
100
AcDbSymbolTableRecord
100
AcDbLinetypeTableRecord
  2
Continuous
 70
     0
  3
Solid line
 72
    65
 73
     0
 40
0.0
  0
LTYPE
  5
60
330
5
100
AcDbSymbolTableRecord
100
AcDbLinetypeTableRecord
  2
CENTER2
 70
     0
  3
Center (.5x) ___ _ ___ _ ___ _ ___ _ ___ _ ___
 72
    65
 73
     4
 40
28.575
 49
19.05
 74
     4
 75
     0
340
0
 46
0.0
 50
0.0
 44
0.0
 45
0.0
 49
-3.175
 74
     4
 75
     0
340
0
 46
0.0
 50
0.0
 44
0.0
 45
0.0
 49
3.175
 74
     4
 75
     0
340
0
 46
0.0
 50
0.0
 44
0.0
 45
0.0
 49
-3.175
 74
     4
 75
     0
340
0
 46
0.0
 50
0.0
 44
0.0
 45
0.0
  0
ENDTAB
  0
TABLE
  2
LAYER
  5
2
330
0
100
AcDbSymbolTable
 70
     6
  0
LAYER
  5
10
330
2
100
AcDbSymbolTableRecord
100
AcDbLayerTableRecord
  2
0
 70
     0
 62
     7
  6
Continuous
370
    -3
390
F
  0
LAYER
  5
5D
330
2
100
AcDbSymbolTableRecord
100
AcDbLayerTableRecord
  2
Default
 70
     0
 62
     7
  6
Continuous
370
    -3
390
F
  0
LAYER
  5
77
330
2
100
AcDbSymbolTableRecord
100
AcDbLayerTableRecord
  2
$DDT_AUDIT_GENERATED_(77)
 70
     0
 62
     7
  6
Continuous
370
    -3
390
F
  0
LAYER
  5
A2
330
2
100
AcDbSymbolTableRecord
100
AcDbLayerTableRecord
  2
$DDT_AUDIT_GENERATED_(A2)
 70
     0
 62
     7
  6
Continuous
370
    -3
390
F
  0
LAYER
  5
A5
330
2
100
AcDbSymbolTableRecord
100
AcDbLayerTableRecord
  2
$DDT_AUDIT_GENERATED_(A5)
 70
     0
 62
     7
  6
Continuous
370
    -3
390
F
  0
LAYER
  5
E9
330
2
100
AcDbSymbolTableRecord
100
AcDbLayerTableRecord
  2
$DDT_AUDIT_GENERATED_(E9)
 70
     0
 62
     7
  6
Continuous
370
    -3
390
F
  0
ENDTAB
  0
TABLE
  2
STYLE
  5
3
330
0
100
AcDbSymbolTable
 70
     2
  0
STYLE
  5
11
330
3
100
AcDbSymbolTableRecord
100
AcDbTextStyleTableRecord
  2
Standard
 70
     0
 40
0.0
 41
1.0
 50
0.0
 71
     0
 42
2.5
  3
txt
  4

  0
STYLE
  5
100
330
3
100
AcDbSymbolTableRecord
100
AcDbTextStyleTableRecord
  2
SEACAD_seiso_ttf
 70
     0
 40
0.0
 41
1.0
 50
0.0
 71
     0
 42
0.2
  3
seiso.ttf
  4

  0
ENDTAB
  0
TABLE
  2
VIEW
  5
6
330
0
100
AcDbSymbolTable
 70
     0
  0
ENDTAB
  0
TABLE
  2
UCS
  5
7
330
0
100
AcDbSymbolTable
 70
     0
  0
ENDTAB
  0
TABLE
  2
APPID
  5
9
330
0
100
AcDbSymbolTable
 70
     1
  0
APPID
  5
12
330
9
100
AcDbSymbolTableRecord
100
AcDbRegAppTableRecord
  2
ACAD
 70
     0
  0
ENDTAB
  0
TABLE
  2
DIMSTYLE
  5
A
330
0
100
AcDbSymbolTable
 70
     1
100
AcDbDimStyleTable
  0
DIMSTYLE
105
27
330
A
100
AcDbSymbolTableRecord
100
AcDbDimStyleTableRecord
  2
ISO-25
 70
     0
 41
2.5
 42
0.625
 43
3.75
 44
1.25
 73
     0
 74
     0
 77
     1
 78
     8
140
2.5
141
2.5
143
0.0393700787
147
0.625
171
     3
172
     1
271
     2
272
     2
274
     3
278
    44
283
     0
284
     8
340
11
  0
ENDTAB
  0
TABLE
  2
BLOCK_RECORD
  5
1
330
0
100
AcDbSymbolTable
 70
     7
  0
BLOCK_RECORD
  5
1F
330
1
100
AcDbSymbolTableRecord
100
AcDbBlockTableRecord
  2
*Model_Space
340
22
  0
BLOCK_RECORD
  5
1B
330
1
100
AcDbSymbolTableRecord
100
AcDbBlockTableRecord
  2
*Paper_Space
340
1E
  0
BLOCK_RECORD
  5
5E
330
1
100
AcDbSymbolTableRecord
100
AcDbBlockTableRecord
  2
SEANNOT_GROUP
340
0
102
{BLKREFS
331
5F
102
}
  0
BLOCK_RECORD
  5
65
330
1
100
AcDbSymbolTableRecord
100
AcDbBlockTableRecord
  2
SEANNOT_GROUP1
340
0
102
{BLKREFS
331
66
102
}
  0
BLOCK_RECORD
  5
6B
330
1
100
AcDbSymbolTableRecord
100
AcDbBlockTableRecord
  2
SEANNOT_GROUP2
340
0
102
{BLKREFS
331
6C
102
}
  0
BLOCK_RECORD
  5
75
330
1
100
AcDbSymbolTableRecord
100
AcDbBlockTableRecord
  2
SE
340
0
102
{BLKREFS
331
76
102
}
  0
BLOCK_RECORD
  5
B6
330
1
100
AcDbSymbolTableRecord
100
AcDbBlockTableRecord
  2
SE1
340
0
102
{BLKREFS
331
B7
102
}
  0
BLOCK_RECORD
  5
EF
330
1
100
AcDbSymbolTableRecord
100
AcDbBlockTableRecord
  2
SE2
340
0
102
{BLKREFS
331
F0
102
}
  0
ENDTAB
  0
ENDSEC
  0
SECTION
  2
BLOCKS
  0
BLOCK
  5
20
330
1F
100
AcDbEntity
  8
0
100
AcDbBlockBegin
  2
*Model_Space
 70
     0
 10
0.0
 20
0.0
 30
0.0
  3
*Model_Space
  1

  0
ENDBLK
  5
21
330
1F
100
AcDbEntity
  8
0
100
AcDbBlockEnd
  0
BLOCK
  5
1C
330
1B
100
AcDbEntity
 67
     1
  8
0
100
AcDbBlockBegin
  2
*Paper_Space
 70
     0
 10
0.0
 20
0.0
 30
0.0
  3
*Paper_Space
  1

  0
ENDBLK
  5
1D
330
1B
100
AcDbEntity
 67
     1
  8
0
100
AcDbBlockEnd
  0
BLOCK
  5
63
330
5E
100
AcDbEntity
  8
0
100
AcDbBlockBegin
  2
SEANNOT_GROUP
 70
     0
 10
0.0
 20
0.0
 30
0.0
  3
SEANNOT_GROUP
  1

  0
LINE
  5
61
330
5E
100
AcDbEntity
  8
Default
  6
CENTER2
 62
     7
100
AcDbLine
 10
370.6950970745
 20
460.3837752446
 30
0.0
 11
330.6950979686
 21
460.3837752446
 31
0.0
  0
LINE
  5
62
330
5E
100
AcDbEntity
  8
Default
  6
CENTER2
 62
     7
100
AcDbLine
 10
350.6950975216
 20
480.3837747975
 30
0.0
 11
350.6950975216
 21
440.3837756916
 31
0.0
  0
ENDBLK
  5
64
330
5E
100
AcDbEntity
  8
0
100
AcDbBlockEnd
  0
BLOCK
  5
69
330
65
100
AcDbEntity
  8
0
100
AcDbBlockBegin
  2
SEANNOT_GROUP1
 70
     0
 10
0.0
 20
0.0
 30
0.0
  3
SEANNOT_GROUP1
  1

  0
LINE
  5
67
330
65
100
AcDbEntity
  8
Default
  6
CENTER2
 62
     7
100
AcDbLine
 10
168.325753445
 20
302.3697007565
 30
0.0
 11
128.3257543391
 21
302.3697007565
 31
0.0
  0
LINE
  5
68
330
65
100
AcDbEntity
  8
Default
  6
CENTER2
 62
     7
100
AcDbLine
 10
148.3257538921
 20
322.3697003094
 30
0.0
 11
148.3257538921
 21
282.3697012035
 31
0.0
  0
ENDBLK
  5
6A
330
65
100
AcDbEntity
  8
0
100
AcDbBlockEnd
  0
BLOCK
  5
73
330
6B
100
AcDbEntity
  8
0
100
AcDbBlockBegin
  2
SEANNOT_GROUP2
 70
     0
 10
0.0
 20
0.0
 30
0.0
  3
SEANNOT_GROUP2
  1

  0
LINE
  5
6D
330
6B
100
AcDbEntity
  8
Default
  6
CENTER2
 62
     7
100
AcDbLine
 10
168.325753445
 20
463.438076321
 30
0.0
 11
128.3257543391
 21
463.438076321
 31
0.0
  0
LINE
  5
6E
330
6B
100
AcDbEntity
  8
Default
  6
CENTER2
 62
     7
100
AcDbLine
 10
148.3257538921
 20
483.438075874
 30
0.0
 11
148.3257538921
 21
443.438076768
 31
0.0
  0
LINE
  5
6F
330
6B
100
AcDbEntity
  8
Default
  6
CENTER2
 62
     7
100
AcDbLine
 10
173.3257533333
 20
463.438076321
 30
0.0
 11
151.8257538921
 21
463.438076321
 31
0.0
  0
LINE
  5
70
330
6B
100
AcDbEntity
  8
Default
  6
CENTER2
 62
     7
100
AcDbLine
 10
148.3257538921
 20
488.4380757622
 30
0.0
 11
148.3257538921
 21
466.938076321
 31
0.0
  0
LINE
  5
71
330
6B
100
AcDbEntity
  8
Default
  6
CENTER2
 62
     7
100
AcDbLine
 10
123.3257544508
 20
463.438076321
 30
0.0
 11
144.8257538921
 21
463.438076321
 31
0.0
  0
LINE
  5
72
330
6B
100
AcDbEntity
  8
Default
  6
CENTER2
 62
     7
100
AcDbLine
 10
148.3257538921
 20
438.4380768798
 30
0.0
 11
148.3257538921
 21
459.938076321
 31
0.0
  0
ENDBLK
  5
74
330
6B
100
AcDbEntity
  8
0
100
AcDbBlockEnd
  0
BLOCK
  5
B4
330
75
100
AcDbEntity
  8
0
100
AcDbBlockBegin
  2
SE
 70
     0
 10
0.0
 20
0.0
 30
0.0
  3
SE
  1

  0
SPLINE
  5
78
330
75
100
AcDbEntity
  8
$DDT_AUDIT_GENERATED_(77)
  6
Continuous
 62
     7
100
AcDbSpline
210
0.0
220
0.0
230
1.0
 70
     8
 71
     3
 72
     8
 73
     4
 74
     0
 42
0.0000000271694105
 43
0.0000000001
 40
0.0
 40
0.0
 40
0.0
 40
0.0
 40
0.0387317743591032
 40
0.0387317743591032
 40
0.0387317743591032
 40
0.0387317743591032
 10
127.2080467965926
 20
466.1119031947642
 30
0.0
 10
127.2086251872981
 20
466.1169051858942
 30
0.0
 10
127.209306318699
 20
466.1216774194241
 30
0.0
 10
127.2101096002549
 20
466.1260032064033
 30
0.0
  0
SPLINE
  5
79
330
75
100
AcDbEntity
  8
$DDT_AUDIT_GENERATED_(77)
  6
Continuous
 62
     7
100
AcDbSpline
210
0.0
220
0.0
230
1.0
 70
     8
 71
     3
 72
    20
 73
    16
 74
     0
 42
0.0000000005723926
 43
0.0000000001
 40
0.4138795080509953
 40
0.4138795080509953
 40
0.4138795080509953
 40
0.4138795080509953
 40
0.5000000000000007
 40
0.5000000000000007
 40
0.6250000000000009
 40
0.6250000000000009
 40
0.6875000000000009
 40
0.6875000000000009
 40
0.750000000000001
 40
0.750000000000001
 40
0.8125000000000011
 40
0.8125000000000011
 40
0.828125000000001
 40
0.828125000000001
 40
0.8342809935470208
 40
0.8342809935470208
 40
0.8342809935470208
 40
0.8342809935470208
 10
127.2857154065194
 20
465.8875992067038
 30
0.0
 10
127.2969503191077
 20
465.8091972054544
 30
0.0
 10
127.3098189668835
 20
465.6994798160995
 30
0.0
 10
127.3462226866119
 20
465.2752822042735
 30
0.0
 10
127.3718506589056
 20
464.8662611067713
 30
0.0
 10
127.4196741931047
 20
463.7090930673885
 30
0.0
 10
127.4371800672018
 20
463.2490404940144
 30
0.0
 10
127.4769153407023
 20
462.2410982755623
 30
0.0
 10
127.4989663564399
 20
461.6942964400337
 30
0.0
 10
127.5524765347292
 20
460.4382335459253
 30
0.0
 10
127.580459897885
 20
459.6811653206208
 30
0.0
 10
127.6448467429809
 20
458.9998935473766
 30
0.0
 10
127.6593848955426
 20
458.8715956312652
 30
0.0
 10
127.6863016320911
 20
458.6784646373113
 30
0.0
 10
127.6942570973712
 20
458.6180244132134
 30
0.0
 10
127.7037764209622
 20
458.5580785128719
 30
0.0
  0
SPLINE
  5
7A
330
75
100
AcDbEntity
  8
$DDT_AUDIT_GENERATED_(77)
  6
Continuous
 62
     7
100
AcDbSpline
210
0.0
220
0.0
230
1.0
 70
     8
 71
     3
 72
     8
 73
     4
 74
     0
 42
0.0000000740917849
 43
0.0000000001
 40
0.0
 40
0.0
 40
0.0
 40
0.0
 40
0.0248100621071888
 40
0.0248100621071888
 40
0.0248100621071888
 40
0.0248100621071888
 10
127.7080410372022
 20
474.7694065475724
 30
0.0
 10
127.7084088612775
 20
474.7684297851218
 30
0.0
 10
127.7088183237961
 20
474.7674208133297
 30
0.0
 10
127.7092744328794
 20
474.766293656872
 30
0.0
  0
SPLINE
  5
7B
330
75
100
AcDbEntity
  8
$DDT_AUDIT_GENERATED_(77)
  6
Continuous
 62
     7
100
AcDbSpline
210
0.0
220
0.0
230
1.0
 70
     8
 71
     3
 72
    30
 73
    26
 74
     0
 42
0.0000000004629125
 43
0.0000000001
 40
0.0248100621071888
 40
0.0248100621071888
 40
0.0248100621071888
 40
0.0248100621071888
 40
0.2500000000000003
 40
0.2500000000000003
 40
0.5000000000000007
 40
0.5000000000000007
 40
0.6250000000000007
 40
0.6250000000000007
 40
0.7500000000000008
 40
0.7500000000000008
 40
0.8125000000000009
 40
0.8125000000000009
 40
0.8437500000000009
 40
0.8437500000000009
 40
0.8593750000000009
 40
0.8593750000000009
 40
0.8750000000000009
 40
0.8750000000000009
 40
0.906250000000001
 40
0.906250000000001
 40
0.9218750000000008
 40
0.9218750000000008
 40
0.9375000000000006
 40
0.9375000000000006
 40
0.9561724590501157
 40
0.9561724590501157
 40
0.9561724590501157
 40
0.9561724590501157
 10
127.7092744328794
 20
474.766293656872
 30
0.0
 10
127.7134143328799
 20
474.7560629572634
 30
0.0
 10
127.7213971580249
 20
474.7360957459642
 30
0.0
 10
127.7542539025337
 20
474.5377545831615
 30
0.0
 10
127.7806482479936
 20
474.3632228208037
 30
0.0
 10
127.8441898215981
 20
473.3612563855293
 30
0.0
 10
127.8693212524279
 20
472.8869913314261
 30
0.0
 10
127.9318091663321
 20
471.5389243632736
 30
0.0
 10
127.9678528360617
 20
470.6773382886549
 30
0.0
 10
128.0456461810921
 20
469.1295053994924
 30
0.0
 10
128.0735704309054
 20
468.5686454644571
 30
0.0
 10
128.1435849516206
 20
467.6547033176728
 30
0.0
 10
128.1659596223278
 20
467.337682210674
 30
0.0
 10
128.257031204255
 20
466.8443804190345
 30
0.0
 10
128.2761734100083
 20
466.6765703695983
 30
0.0
 10
128.5889131235158
 20
466.3399861766048
 30
0.0
 10
128.8795876115572
 20
466.1704717204661
 30
0.0
 10
129.9439020297304
 20
465.6614742365659
 30
0.0
 10
130.9027936875266
 20
465.3347806171039
 30
0.0
 10
132.7447136753875
 20
464.87376440672
 30
0.0
 10
133.4351612312711
 20
464.7237043601024
 30
0.0
 10
134.9180389984797
 20
464.4449041245484
 30
0.0
 10
135.7097220723732
 20
464.3157273468073
 30
0.0
 10
137.5560402042165
 20
464.0559813769195
 30
0.0
 10
138.6419523994409
 20
463.9296455251206
 30
0.0
 10
139.7766427534199
 20
463.8231656311444
 30
0.0
  0
SPLINE
  5
7C
330
75
100
AcDbEntity
  8
$DDT_AUDIT_GENERATED_(77)
  6
Continuous
 62
     7
100
AcDbSpline
210
0.0
220
0.0
230
1.0
 70
     8
 71
     3
 72
    10
 73
     6
 74
     0
 42
0.0000000000520865
 43
0.0000000001
 40
0.9561724590501157
 40
0.9561724590501157
 40
0.9561724590501157
 40
0.9561724590501157
 40
0.9687500000000003
 40
0.9687500000000003
 40
0.9836368594402491
 40
0.9836368594402491
 40
0.9836368594402491
 40
0.9836368594402491
 10
139.7766427534199
 20
463.8231656311444
 30
0.0
 10
140.5409563531609
 20
463.751442071691
 30
0.0
 10
141.3274016058554
 20
463.6887275683154
 30
0.0
 10
143.0716942130575
 20
463.5746453731428
 30
0.0
 10
144.0483537837895
 20
463.5266071318335
 30
0.0
 10
145.0381605516793
 20
463.4932974020247
 30
0.0
  0
SPLINE
  5
7D
330
75
100
AcDbEntity
  8
$DDT_AUDIT_GENERATED_(77)
  6
Continuous
 62
     7
100
AcDbSpline
210
0.0
220
0.0
230
1.0
 70
     8
 71
     3
 72
     8
 73
     4
 74
     0
 42
0.0000000000497606
 43
0.0000000001
 40
0.9836368594402491
 40
0.9836368594402491
 40
0.9836368594402491
 40
0.9836368594402491
 40
1.0
 40
1.0
 40
1.0
 40
1.0
 10
145.0381605516793
 20
463.4932974020247
 30
0.0
 10
146.1261232166714
 20
463.4566844553482
 30
0.0
 10
147.229969897891
 20
463.4378660174837
 30
0.0
 10
148.3257538920514
 20
463.4380763210007
 30
0.0
  0
SPLINE
  5
7E
330
75
100
AcDbEntity
  8
$DDT_AUDIT_GENERATED_(77)
  6
Continuous
 62
     7
100
AcDbSpline
210
0.0
220
0.0
230
1.0
 70
     8
 71
     3
 72
    20
 73
    16
 74
     0
 42
0.0000000000747693
 43
0.0000000001
 40
0.0
 40
0.0
 40
0.0
 40
0.0
 40
0.0312500000000003
 40
0.0312500000000003
 40
0.0625000000000005
 40
0.0625000000000005
 40
0.0937500000000008
 40
0.0937500000000008
 40
0.1250000000000011
 40
0.1250000000000011
 40
0.1406250000000012
 40
0.1406250000000012
 40
0.1562500000000013
 40
0.1562500000000013
 40
0.1595645135119977
 40
0.1595645135119977
 40
0.1595645135119977
 40
0.1595645135119977
 10
148.3257538920701
 20
462.9481431608185
 30
0.0
 10
146.2560063290404
 20
462.9477654914575
 30
0.0
 10
144.1551421303974
 20
463.0118739403779
 30
0.0
 10
140.2082720215993
 20
463.2545160335726
 30
0.0
 10
138.3052607859337
 20
463.4362867081311
 30
0.0
 10
134.9152985644743
 20
463.8823814645172
 30
0.0
 10
133.3805673942162
 20
464.1525274961758
 30
0.0
 10
130.8411252552786
 20
464.7377767276982
 30
0.0
 10
129.8120996479839
 20
465.0575320559076
 30
0.0
 10
128.6565088870886
 20
465.5482984281555
 30
0.0
 10
128.3290267710857
 20
465.7139880510708
 30
0.0
 10
127.8733196895874
 20
466.0422549452438
 30
0.0
 10
127.7985610098449
 20
466.205261869185
 30
0.0
 10
127.7489004812596
 20
466.4062837636197
 30
0.0
 10
127.7409100643235
 20
466.4413612319157
 30
0.0
 10
127.7335389800034
 20
466.4763313460923
 30
0.0
  0
SPLINE
  5
7F
330
75
100
AcDbEntity
  8
$DDT_AUDIT_GENERATED_(77)
  6
Continuous
 62
     7
100
AcDbSpline
210
0.0
220
0.0
230
1.0
 70
     8
 71
     3
 72
    18
 73
    14
 74
     0
 42
0.0000000009092688
 43
0.0000000001
 40
0.1595645135119977
 40
0.1595645135119977
 40
0.1595645135119977
 40
0.1595645135119977
 40
0.1875000000000012
 40
0.1875000000000012
 40
0.2500000000000008
 40
0.2500000000000008
 40
0.3750000000000007
 40
0.3750000000000007
 40
0.5000000000000004
 40
0.5000000000000004
 40
0.7500000000000002
 40
0.7500000000000002
 40
0.8673660531169541
 40
0.8673660531169541
 40
0.8673660531169541
 40
0.8673660531169541
 10
127.7335389800034
 20
466.4763313460923
 30
0.0
 10
127.671413776506
 20
466.7710675565578
 30
0.0
 10
127.6532829165755
 20
467.0581778582779
 30
0.0
 10
127.5798219670198
 20
467.9533700069246
 30
0.0
 10
127.5515834118966
 20
468.5234545122132
 30
0.0
 10
127.4714538767586
 20
470.0959391182406
 30
0.0
 10
127.4349555640248
 20
470.9704067905502
 30
0.0
 10
127.3714088750854
 20
472.3459012994122
 30
0.0
 10
127.3458898067
 20
472.8319603078318
 30
0.0
 10
127.2813899366936
 20
473.8575393715463
 30
0.0
 10
127.2547068589357
 20
474.0345093629678
 30
0.0
 10
127.2290316246488
 20
474.1902589424107
 30
0.0
 10
127.2229176245707
 20
474.2195279400527
 30
0.0
 10
127.2183535851531
 20
474.237602489335
 30
0.0
  0
SPLINE
  5
80
330
75
100
AcDbEntity
  8
$DDT_AUDIT_GENERATED_(77)
  6
Continuous
 62
     7
100
AcDbSpline
210
0.0
220
0.0
230
1.0
 70
     8
 71
     3
 72
    24
 73
    20
 74
     0
 42
0.0000000000739709
 43
0.0000000001
 40
0.0
 40
0.0
 40
0.0
 40
0.0
 40
0.0156250000000006
 40
0.0156250000000006
 40
0.0312500000000011
 40
0.0312500000000011
 40
0.0625000000000022
 40
0.0625000000000022
 40
0.0937500000000032
 40
0.0937500000000032
 40
0.1093750000000035
 40
0.1093750000000035
 40
0.1250000000000039
 40
0.1250000000000039
 40
0.1406250000000042
 40
0.1406250000000042
 40
0.1484375000000044
 40
0.1484375000000044
 40
0.1555913641905118
 40
0.1555913641905118
 40
0.1555913641905118
 40
0.1555913641905118
 10
148.3257538920537
 20
455.237298576158
 30
0.0
 10
147.295515282647
 20
455.237417121569
 30
0.0
 10
146.2516504618881
 20
455.2284477139116
 30
0.0
 10
144.2163848065842
 20
455.2567507232732
 30
0.0
 10
143.2174713592626
 20
455.2928994127006
 30
0.0
 10
140.2769294564069
 20
455.4645730537633
 30
0.0
 10
138.3905732245227
 20
455.6529372932885
 30
0.0
 10
135.0124954787924
 20
456.0062806874089
 30
0.0
 10
133.4797080095966
 20
456.202955498328
 30
0.0
 10
131.5768056502193
 20
456.5897337026227
 30
0.0
 10
131.001991956466
 20
456.7342129496795
 30
0.0
 10
129.9665153942736
 20
457.0176032180327
 30
0.0
 10
129.5112483444635
 20
457.1381424692772
 30
0.0
 10
128.7356950537466
 20
457.4021550719764
 30
0.0
 10
128.4082976189303
 20
457.5597980011268
 30
0.0
 10
128.0496288180459
 20
457.8537459693109
 30
0.0
 10
127.9546603535125
 20
457.9582524991138
 30
0.0
 10
127.8374628609202
 20
458.0868641591945
 30
0.0
 10
127.8079169828122
 20
458.1208551467537
 30
0.0
 10
127.785032878018
 20
458.1721728510718
 30
0.0
  0
SPLINE
  5
81
330
75
100
AcDbEntity
  8
$DDT_AUDIT_GENERATED_(77)
  6
Continuous
 62
     7
100
AcDbSpline
210
0.0
220
0.0
230
1.0
 70
     8
 71
     3
 72
    14
 73
    10
 74
     0
 42
0.0000000003598986
 43
0.0000000001
 40
0.1555913641905118
 40
0.1555913641905118
 40
0.1555913641905118
 40
0.1555913641905118
 40
0.1562500000000046
 40
0.1562500000000046
 40
0.1718750000000045
 40
0.1718750000000045
 40
0.1875000000000044
 40
0.1875000000000044
 40
0.189726073539447
 40
0.189726073539447
 40
0.189726073539447
 40
0.189726073539447
 10
127.785032878018
 20
458.1721728510718
 30
0.0
 10
127.7829260039588
 20
458.1768975252933
 30
0.0
 10
127.7808755974759
 20
458.1817690669707
 30
0.0
 10
127.7311966363704
 20
458.3067051785297
 30
0.0
 10
127.7077324786216
 20
458.4938961591838
 30
0.0
 10
127.6668872780751
 20
458.7823674781677
 30
0.0
 10
127.6520653573464
 20
458.9121195420332
 30
0.0
 10
127.6376055945325
 20
459.0653633893761
 30
0.0
 10
127.6358445446144
 20
459.0846919610082
 30
0.0
 10
127.6341239911226
 20
459.104226915552
 30
0.0
  0
SPLINE
  5
82
330
75
100
AcDbEntity
  8
$DDT_AUDIT_GENERATED_(77)
  6
Continuous
 62
     7
100
AcDbSpline
210
0.0
220
0.0
230
1.0
 70
     8
 71
     3
 72
    24
 73
    20
 74
     0
 42
0.0000000000739709
 43
0.0000000001
 40
0.0
 40
0.0
 40
0.0
 40
0.0
 40
0.0156250000000006
 40
0.0156250000000006
 40
0.0312500000000011
 40
0.0312500000000011
 40
0.0625000000000022
 40
0.0625000000000022
 40
0.0937500000000032
 40
0.0937500000000032
 40
0.1093750000000035
 40
0.1093750000000035
 40
0.1250000000000039
 40
0.1250000000000039
 40
0.1406250000000042
 40
0.1406250000000042
 40
0.1484375000000044
 40
0.1484375000000044
 40
0.1555913641905118
 40
0.1555913641905118
 40
0.1555913641905118
 40
0.1555913641905118
 10
148.3257538920537
 20
455.237298576158
 30
0.0
 10
149.3559925014933
 20
455.237417121569
 30
0.0
 10
150.3998573222523
 20
455.2284477139116
 30
0.0
 10
152.4351229775561
 20
455.2567507232732
 30
0.0
 10
153.4340364248777
 20
455.2928994127006
 30
0.0
 10
156.3745783277334
 20
455.4645730537633
 30
0.0
 10
158.2609345596177
 20
455.6529372932885
 30
0.0
 10
161.6390123053479
 20
456.0062806874089
 30
0.0
 10
163.1717997745437
 20
456.202955498328
 30
0.0
 10
165.0747021339211
 20
456.5897337026227
 30
0.0
 10
165.6495158276744
 20
456.7342129496795
 30
0.0
 10
166.6849923898667
 20
457.0176032180327
 30
0.0
 10
167.1402594396768
 20
457.1381424692772
 30
0.0
 10
167.9158127303938
 20
457.4021550719764
 30
0.0
 10
168.2432101652101
 20
457.5597980011268
 30
0.0
 10
168.6018789660945
 20
457.8537459693109
 30
0.0
 10
168.6968474306279
 20
457.9582524991138
 30
0.0
 10
168.8140449232202
 20
458.0868641591945
 30
0.0
 10
168.8435908013282
 20
458.1208551467537
 30
0.0
 10
168.8664749061224
 20
458.1721728510718
 30
0.0
  0
SPLINE
  5
83
330
75
100
AcDbEntity
  8
$DDT_AUDIT_GENERATED_(77)
  6
Continuous
 62
     7
100
AcDbSpline
210
0.0
220
0.0
230
1.0
 70
     8
 71
     3
 72
    10
 73
     6
 74
     0
 42
0.0000000003392337
 43
0.0000000001
 40
0.1555913641905118
 40
0.1555913641905118
 40
0.1555913641905118
 40
0.1555913641905118
 40
0.1562500000000046
 40
0.1562500000000046
 40
0.1702333142593941
 40
0.1702333142593941
 40
0.1702333142593941
 40
0.1702333142593941
 10
168.8664749061224
 20
458.1721728510718
 30
0.0
 10
168.8685817801816
 20
458.1768975252933
 30
0.0
 10
168.8706321866645
 20
458.1817690669707
 30
0.0
 10
168.9153026077234
 20
458.2941093531726
 30
0.0
 10
168.9385774367893
 20
458.4553036707538
 30
0.0
 10
168.9576353504059
 20
458.5913735171929
 30
0.0
  0
SPLINE
  5
84
330
75
100
AcDbEntity
  8
$DDT_AUDIT_GENERATED_(77)
  6
Continuous
 62
     7
100
AcDbSpline
210
0.0
220
0.0
230
1.0
 70
     8
 71
     3
 72
     8
 73
     4
 74
     0
 42
0.000000026947692
 43
0.0000000001
 40
0.0
 40
0.0
 40
0.0
 40
0.0
 40
0.0342972696460869
 40
0.0342972696460869
 40
0.0342972696460869
 40
0.0342972696460869
 10
169.4434609875477
 20
466.1119031947642
 30
0.0
 10
169.4429488183452
 20
466.1163324945159
 30
0.0
 10
169.4423560877787
 20
466.1205816360006
 30
0.0
 10
169.4416693189513
 20
466.1245001619296
 30
0.0
  0
SPLINE
  5
85
330
75
100
AcDbEntity
  8
$DDT_AUDIT_GENERATED_(77)
  6
Continuous
 62
     7
100
AcDbSpline
210
0.0
220
0.0
230
1.0
 70
     8
 71
     3
 72
    22
 73
    18
 74
     0
 42
0.0000000006573403
 43
0.0000000001
 40
0.3409762033618322
 40
0.3409762033618322
 40
0.3409762033618322
 40
0.3409762033618322
 40
0.3750000000000005
 40
0.3750000000000005
 40
0.5000000000000007
 40
0.5000000000000007
 40
0.6250000000000009
 40
0.6250000000000009
 40
0.6875000000000009
 40
0.6875000000000009
 40
0.750000000000001
 40
0.750000000000001
 40
0.8125000000000011
 40
0.8125000000000011
 40
0.828125000000001
 40
0.828125000000001
 40
0.8349444205683104
 40
0.8349444205683104
 40
0.8349444205683104
 40
0.8349444205683104
 10
169.3910113799101
 20
466.0357304754689
 30
0.0
 10
169.3875768837474
 20
466.0191709119792
 30
0.0
 10
169.3839253919187
 20
465.9999626861501
 30
0.0
 10
169.3657728999205
 20
465.8953563912642
 30
0.0
 10
169.3483928501113
 20
465.7775991607067
 30
0.0
 10
169.3052850975285
 20
465.2752822042735
 30
0.0
 10
169.2796571252348
 20
464.8662611067713
 30
0.0
 10
169.2318335910357
 20
463.7090930673885
 30
0.0
 10
169.2143277169385
 20
463.2490404940144
 30
0.0
 10
169.1745924434381
 20
462.2410982755623
 30
0.0
 10
169.1525414277004
 20
461.6942964400337
 30
0.0
 10
169.0990312494111
 20
460.4382335459253
 30
0.0
 10
169.0710478862554
 20
459.6811653206208
 30
0.0
 10
169.0066610411594
 20
458.9998935473766
 30
0.0
 10
168.9921228885978
 20
458.8715956312652
 30
0.0
 10
168.9643862954935
 20
458.6725820626822
 30
0.0
 10
168.9555319360042
 20
458.6049292086523
 30
0.0
 10
168.9445976802176
 20
458.5387227036067
 30
0.0
  0
SPLINE
  5
86
330
75
100
AcDbEntity
  8
$DDT_AUDIT_GENERATED_(77)
  6
Continuous
 62
     7
100
AcDbSpline
210
0.0
220
0.0
230
1.0
 70
     8
 71
     3
 72
    20
 73
    16
 74
     0
 42
0.0000000000747208
 43
0.0000000001
 40
0.0
 40
0.0
 40
0.0
 40
0.0
 40
0.0312500000000001
 40
0.0312500000000001
 40
0.0625000000000001
 40
0.0625000000000001
 40
0.0937500000000001
 40
0.0937500000000001
 40
0.1250000000000002
 40
0.1250000000000002
 40
0.1406250000000002
 40
0.1406250000000002
 40
0.1562500000000002
 40
0.1562500000000002
 40
0.1594278568695636
 40
0.1594278568695636
 40
0.1594278568695636
 40
0.1594278568695636
 10
148.3257538920701
 20
462.9481431608185
 30
0.0
 10
150.3955014550996
 20
462.9477654914575
 30
0.0
 10
152.4963656537425
 20
463.0118739403779
 30
0.0
 10
156.4432357625402
 20
463.2545160335725
 30
0.0
 10
158.3462469982055
 20
463.436286708131
 30
0.0
 10
161.7362092196647
 20
463.8823814645169
 30
0.0
 10
163.2709403899228
 20
464.1525274961755
 30
0.0
 10
165.8103825288605
 20
464.7377767276978
 30
0.0
 10
166.8394081361552
 20
465.0575320559072
 30
0.0
 10
167.9949988970508
 20
465.548298428155
 30
0.0
 10
168.3224810130538
 20
465.7139880510703
 30
0.0
 10
168.7781880945524
 20
466.0422549452433
 30
0.0
 10
168.8529467742952
 20
466.2052618691844
 30
0.0
 10
168.9022489810528
 20
466.404833305183
 30
0.0
 10
168.9099376429866
 20
466.4384685856602
 30
0.0
 10
168.9170539156349
 20
466.472005369272
 30
0.0
  0
SPLINE
  5
87
330
75
100
AcDbEntity
  8
$DDT_AUDIT_GENERATED_(77)
  6
Continuous
 62
     7
100
AcDbSpline
210
0.0
220
0.0
230
1.0
 70
     8
 71
     3
 72
    16
 73
    12
 74
     0
 42
0.0000000006685163
 43
0.0000000001
 40
0.1594278568695636
 40
0.1594278568695636
 40
0.1594278568695636
 40
0.1594278568695636
 40
0.1875000000000003
 40
0.1875000000000003
 40
0.25
 40
0.25
 40
0.3749999999999998
 40
0.3749999999999998
 40
0.4999999999999998
 40
0.4999999999999998
 40
0.6630241760455503
 40
0.6630241760455503
 40
0.6630241760455503
 40
0.6630241760455503
 10
168.9170539156349
 20
466.472005369272
 30
0.0
 10
168.9799167293291
 20
466.768258293279
 30
0.0
 10
168.9981138610661
 20
467.0568251375908
 30
0.0
 10
169.0716858171205
 20
467.9533700069239
 30
0.0
 10
169.0999243722437
 20
468.5234545122125
 30
0.0
 10
169.1800539073817
 20
470.0959391182398
 30
0.0
 10
169.2165522201155
 20
470.9704067905494
 30
0.0
 10
169.2800989090549
 20
472.3459012994115
 30
0.0
 10
169.3056179774404
 20
472.8319603078312
 30
0.0
 10
169.3551580358767
 20
473.6196711472872
 30
0.0
 10
169.3762597278296
 20
473.8500372015591
 30
0.0
 10
169.3923935163337
 20
473.9857533579861
 30
0.0
  0
SPLINE
  5
88
330
75
100
AcDbEntity
  8
$DDT_AUDIT_GENERATED_(77)
  6
Continuous
 62
     7
100
AcDbSpline
210
0.0
220
0.0
230
1.0
 70
     8
 71
     3
 72
     8
 73
     4
 74
     0
 42
0.0000000741388692
 43
0.0000000001
 40
0.0
 40
0.0
 40
0.0
 40
0.0
 40
0.0246336176202889
 40
0.0246336176202889
 40
0.0246336176202889
 40
0.0246336176202889
 10
168.9434667469382
 20
474.7694065475724
 30
0.0
 10
168.9431015387583
 20
474.7684367316724
 30
0.0
 10
168.9426952822788
 20
474.7674351629351
 30
0.0
 10
168.9422430754705
 20
474.7663176873434
 30
0.0
  0
SPLINE
  5
89
330
75
100
AcDbEntity
  8
$DDT_AUDIT_GENERATED_(77)
  6
Continuous
 62
     7
100
AcDbSpline
210
0.0
220
0.0
230
1.0
 70
     8
 71
     3
 72
    30
 73
    26
 74
     0
 42
0.000000000462539
 43
0.0000000001
 40
0.0246336176202889
 40
0.0246336176202889
 40
0.0246336176202889
 40
0.0246336176202889
 40
0.2500000000000003
 40
0.2500000000000003
 40
0.5000000000000007
 40
0.5000000000000007
 40
0.6250000000000007
 40
0.6250000000000007
 40
0.7500000000000008
 40
0.7500000000000008
 40
0.8125000000000009
 40
0.8125000000000009
 40
0.8437500000000009
 40
0.8437500000000009
 40
0.8593750000000009
 40
0.8593750000000009
 40
0.8750000000000009
 40
0.8750000000000009
 40
0.906250000000001
 40
0.906250000000001
 40
0.9218750000000008
 40
0.9218750000000008
 40
0.9375000000000006
 40
0.9375000000000006
 40
0.9562964350847645
 40
0.9562964350847645
 40
0.9562964350847645
 40
0.9562964350847645
 10
168.9422430754705
 20
474.7663176873434
 30
0.0
 10
168.9381059562683
 20
474.756094201886
 30
0.0
 10
168.9301228262715
 20
474.7361693927356
 30
0.0
 10
168.8972538816066
 20
474.5377545831615
 30
0.0
 10
168.8708595361468
 20
474.3632228208037
 30
0.0
 10
168.8073179625423
 20
473.3612563855293
 30
0.0
 10
168.7821865317124
 20
472.8869913314261
 30
0.0
 10
168.7196986178083
 20
471.5389243632736
 30
0.0
 10
168.6836549480786
 20
470.6773382886549
 30
0.0
 10
168.6058616030483
 20
469.1295053994924
 30
0.0
 10
168.5779373532349
 20
468.5686454644571
 30
0.0
 10
168.5079228325197
 20
467.6547033176728
 30
0.0
 10
168.4855481618125
 20
467.337682210674
 30
0.0
 10
168.3944765798853
 20
466.8443804190345
 30
0.0
 10
168.3753343741321
 20
466.6765703695983
 30
0.0
 10
168.0625946606246
 20
466.3399861766048
 30
0.0
 10
167.7719201725831
 20
466.1704717204661
 30
0.0
 10
166.70760575441
 20
465.6614742365659
 30
0.0
 10
165.7487140966138
 20
465.3347806171039
 30
0.0
 10
163.9067941087529
 20
464.87376440672
 30
0.0
 10
163.2163465528693
 20
464.7237043601024
 30
0.0
 10
161.7334687856607
 20
464.4449041245484
 30
0.0
 10
160.9417857117671
 20
464.3157273468073
 30
0.0
 10
159.088793639433
 20
464.0550424655175
 30
0.0
 10
157.9951319697233
 20
463.9279685726935
 30
0.0
 10
156.8522572151128
 20
463.8210473345601
 30
0.0
  0
SPLINE
  5
8A
330
75
100
AcDbEntity
  8
$DDT_AUDIT_GENERATED_(77)
  6
Continuous
 62
     7
100
AcDbSpline
210
0.0
220
0.0
230
1.0
 70
     8
 71
     3
 72
    10
 73
     6
 74
     0
 42
0.0000000000520658
 43
0.0000000001
 40
0.9562964350847645
 40
0.9562964350847645
 40
0.9562964350847645
 40
0.9562964350847645
 40
0.9687500000000003
 40
0.9687500000000003
 40
0.9837688346083165
 40
0.9837688346083165
 40
0.9837688346083165
 40
0.9837688346083165
 10
156.8522572151128
 20
463.8210473345601
 30
0.0
 10
156.0950463460123
 20
463.750206743038
 30
0.0
 10
155.3162323315002
 20
463.6882125940949
 30
0.0
 10
153.5714316910227
 20
463.5740971719562
 30
0.0
 10
152.5858349611781
 20
463.5257564779257
 30
0.0
 10
151.5870196040971
 20
463.4924149818311
 30
0.0
  0
SPLINE
  5
8B
330
75
100
AcDbEntity
  8
$DDT_AUDIT_GENERATED_(77)
  6
Continuous
 62
     7
100
AcDbSpline
210
0.0
220
0.0
230
1.0
 70
     8
 71
     3
 72
     8
 73
     4
 74
     0
 42
0.000000000049758
 43
0.0000000001
 40
0.9837688346083165
 40
0.9837688346083165
 40
0.9837688346083165
 40
0.9837688346083165
 40
1.0
 40
1.0
 40
1.0
 40
1.0
 10
151.5870196040971
 20
463.4924149818311
 30
0.0
 10
150.5075791761721
 20
463.4563821369645
 30
0.0
 10
149.4126999570902
 20
463.4378677136642
 30
0.0
 10
148.3257538920514
 20
463.4380763210007
 30
0.0
  0
LINE
  5
8C
330
75
100
AcDbEntity
  8
$DDT_AUDIT_GENERATED_(77)
  6
Continuous
 62
     7
100
AcDbLine
 10
148.325993106
 20
446.0420047674
 30
0.0
 11
131.0718030206
 21
446.0420047674
 31
0.0
  0
LINE
  5
8D
330
75
100
AcDbEntity
  8
$DDT_AUDIT_GENERATED_(77)
  6
Continuous
 62
     7
100
AcDbLine
 10
165.5797991301
 20
446.0420047674
 30
0.0
 11
148.325993106
 21
446.0420047674
 31
0.0
  0
SPLINE
  5
8E
330
75
100
AcDbEntity
  8
$DDT_AUDIT_GENERATED_(77)
  6
Continuous
 62
     7
100
AcDbSpline
210
0.0
220
0.0
230
1.0
 70
     8
 71
     3
 72
     8
 73
     4
 74
     0
 42
0.0000000007230968
 43
0.0000000001
 40
0.6113269295602812
 40
0.6113269295602812
 40
0.6113269295602812
 40
0.6113269295602812
 40
0.6534223099057666
 40
0.6534223099057666
 40
0.6534223099057666
 40
0.6534223099057666
 10
137.3131443108919
 20
444.9730067965693
 30
0.0
 10
137.1258478169625
 20
445.0443671364148
 30
0.0
 10
136.9448524457437
 20
445.114523419357
 30
0.0
 10
136.7701344562609
 20
445.1828618892031
 30
0.0
  0
SPLINE
  5
8F
330
75
100
AcDbEntity
  8
$DDT_AUDIT_GENERATED_(77)
  6
Continuous
 62
     7
100
AcDbSpline
210
0.0
220
0.0
230
1.0
 70
     8
 71
     3
 72
     8
 73
     4
 74
     0
 42
0.000000012480995
 43
0.0000000001
 40
0.0
 40
0.0
 40
0.0
 40
0.0
 40
0.4484678600823572
 40
0.4484678600823572
 40
0.4484678600823572
 40
0.4484678600823572
 10
169.4434666933672
 20
474.2694061764337
 30
0.0
 10
169.4434667761619
 20
474.3878504071697
 30
0.0
 10
169.399907531272
 20
474.5039433600798
 30
0.0
 10
169.3244169947157
 20
474.5931746553525
 30
0.0
  0
LINE
  5
90
330
75
100
AcDbEntity
  8
$DDT_AUDIT_GENERATED_(77)
  6
Continuous
 62
     7
100
AcDbLine
 10
127.2080467966
 20
466.1119031948
 30
0.0
 11
127.2080410908
 21
474.2694061764
 31
0.0
  0
LINE
  5
91
330
75
100
AcDbEntity
  8
$DDT_AUDIT_GENERATED_(77)
  6
Continuous
 62
     7
100
AcDbLine
 10
127.7080410372
 20
474.7694065476
 30
0.0
 11
168.9434667469
 21
474.7694065476
 31
0.0
  0
LINE
  5
92
330
75
100
AcDbEntity
  8
$DDT_AUDIT_GENERATED_(77)
  6
Continuous
 62
     7
100
AcDbLine
 10
169.4434666934
 20
474.2694061764
 30
0.0
 11
169.4434609875
 21
466.1119031948
 31
0.0
  0
SPLINE
  5
93
330
75
100
AcDbEntity
  8
$DDT_AUDIT_GENERATED_(77)
  6
Continuous
 62
     7
100
AcDbSpline
210
0.0
220
0.0
230
1.0
 70
     8
 71
     3
 72
     8
 73
     4
 74
     0
 42
0.0000000003043892
 43
0.0000000001
 40
0.0
 40
0.0
 40
0.0
 40
0.0
 40
0.0045116240926539
 40
0.0045116240926539
 40
0.0045116240926539
 40
0.0045116240926539
 10
169.4095330017918
 20
465.9308593688681
 30
0.0
 10
169.391642983132
 20
465.8848039472853
 30
0.0
 10
169.3737351543751
 20
465.838757303442
 30
0.0
 10
169.3558090815343
 20
465.7927196512297
 30
0.0
  0
SPLINE
  5
94
330
75
100
AcDbEntity
  8
$DDT_AUDIT_GENERATED_(77)
  6
Continuous
 62
     7
100
AcDbSpline
210
0.0
220
0.0
230
1.0
 70
     8
 71
     3
 72
     8
 73
     4
 74
     0
 42
0.0000000003043246
 43
0.0000000001
 40
0.9950794964726479
 40
0.9950794964726479
 40
0.9950794964726479
 40
0.9950794964726479
 40
1.0
 40
1.0
 40
1.0
 40
1.0
 10
127.3005855734861
 20
465.7801705023189
 30
0.0
 10
127.2810270364585
 20
465.8303896207138
 30
0.0
 10
127.2614902947349
 20
465.8806193346093
 30
0.0
 10
127.2419747823486
 20
465.9308593688681
 30
0.0
  0
LINE
  5
95
330
75
100
AcDbEntity
  8
$DDT_AUDIT_GENERATED_(77)
  6
Continuous
 62
     7
100
AcDbLine
 10
127.2080467966
 20
466.1119031948
 30
0.0
 11
127.2419747823
 21
465.9308593689
 31
0.0
  0
LINE
  5
96
330
75
100
AcDbEntity
  8
$DDT_AUDIT_GENERATED_(77)
  6
Continuous
 62
     7
100
AcDbLine
 10
169.4095330018
 20
465.9308593689
 30
0.0
 11
169.4434609875
 21
466.1119031948
 31
0.0
  0
SPLINE
  5
97
330
75
100
AcDbEntity
  8
$DDT_AUDIT_GENERATED_(77)
  6
Continuous
 62
     7
100
AcDbSpline
210
0.0
220
0.0
230
1.0
 70
     8
 71
     3
 72
     8
 73
     4
 74
     0
 42
0.0000000124724659
 43
0.0000000001
 40
0.5550146830821341
 40
0.5550146830821341
 40
0.5550146830821341
 40
0.5550146830821341
 40
1.0
 40
1.0
 40
1.0
 40
1.0
 10
127.3255649701259
 20
474.591352571596
 30
0.0
 10
127.2510743721108
 20
474.5023926388677
 30
0.0
 10
127.2080410086214
 20
474.3869306372247
 30
0.0
 10
127.2080410907731
 20
474.2694061764337
 30
0.0
  0
ARC
  5
98
330
75
100
AcDbEntity
  8
$DDT_AUDIT_GENERATED_(77)
  6
Continuous
 62
     7
100
AcDbCircle
 10
127.7038038686
 20
474.2952965095
 30
0.0
 40
0.4904045553294444
100
AcDbArc
 50
88.918638493
 51
141.8500891668
  0
ARC
  5
99
330
75
100
AcDbEntity
  8
$DDT_AUDIT_GENERATED_(77)
  6
Continuous
 62
     7
100
AcDbCircle
 10
183.9581614613
 20
466.1924975137
 30
0.0
 40
56.7753230225292
100
AcDbArc
 50
187.8814182974
 51
200.5849960275
  0
ARC
  5
9A
330
75
100
AcDbEntity
  8
$DDT_AUDIT_GENERATED_(77)
  6
Continuous
 62
     7
100
AcDbCircle
 10
125.5043056809
 20
465.5670691789
 30
0.0
 40
1.804146513656614
100
AcDbArc
 50
7.8332497008
 51
13.111868684
  0
ARC
  5
9B
330
75
100
AcDbEntity
  8
$DDT_AUDIT_GENERATED_(77)
  6
Continuous
 62
     7
100
AcDbCircle
 10
169.0230546491
 20
466.0367549814
 30
0.0
 40
0.3715994724070819
100
AcDbArc
 50
344.5548401904
 51
350.5301078638
  0
ARC
  5
9C
330
75
100
AcDbEntity
  8
$DDT_AUDIT_GENERATED_(77)
  6
Continuous
 62
     7
100
AcDbCircle
 10
111.9888092818
 20
466.3491817705
 30
0.0
 40
57.49433600396467
100
AcDbArc
 50
339.5172703059
 51
352.0588408992
  0
ARC
  5
9D
330
75
100
AcDbEntity
  8
$DDT_AUDIT_GENERATED_(77)
  6
Continuous
 62
     7
100
AcDbCircle
 10
168.9775794532
 20
474.341643952
 30
0.0
 40
0.4374076646077445
100
AcDbArc
 50
36.2499299772
 51
94.6455846301
  0
SPLINE
  5
9E
330
75
100
AcDbEntity
  8
$DDT_AUDIT_GENERATED_(77)
  6
Continuous
 62
     7
100
AcDbSpline
210
0.0
220
0.0
230
1.0
 70
     8
 71
     3
 72
    15
 73
    11
 74
     0
 42
0.0000000033134378
 43
0.0000000001
 40
0.0
 40
0.0
 40
0.0
 40
0.0
 40
0.0104144444109497
 40
0.166692158610506
 40
0.3060013358299771
 40
0.4386366333438903
 40
0.5780272595681372
 40
0.7260896972367719
 40
0.8764070243314924
 40
1.0
 40
1.0
 40
1.0
 40
1.0
 10
133.9673896354502
 20
446.0317910623711
 30
0.0
 10
133.9731029722047
 20
446.0322945622092
 30
0.0
 10
134.0519431188204
 20
446.0391512309786
 30
0.0
 10
134.2520771793642
 20
446.0181543325642
 30
0.0
 10
134.5486639547016
 20
445.9623095189794
 30
0.0
 10
134.8932581551176
 20
445.8632011087132
 30
0.0
 10
135.2981832152237
 20
445.7265838571586
 30
0.0
 10
135.7737598326709
 20
445.5507566371581
 30
0.0
 10
136.2975288489756
 20
445.3489134035153
 30
0.0
 10
136.6474192258131
 20
445.2147775125538
 30
0.0
 10
136.8351585660513
 20
445.142642838515
 30
0.0
  0
ARC
  5
9F
330
75
100
AcDbEntity
  8
$DDT_AUDIT_GENERATED_(77)
  6
Continuous
 62
     7
100
AcDbCircle
 10
131.0718017255
 20
446.3420045921
 30
0.0
 40
0.2999998247384192
100
AcDbArc
 50
202.8314964131
 51
270.0057084133
  0
SPLINE
  5
A0
330
75
100
AcDbEntity
  8
$DDT_AUDIT_GENERATED_(77)
  6
Continuous
 62
     7
100
AcDbSpline
210
0.0
220
0.0
230
1.0
 70
     8
 71
     3
 72
    15
 73
    11
 74
     0
 42
0.0000000031026732
 43
0.0000000001
 40
0.0
 40
0.0
 40
0.0
 40
0.0
 40
0.0700821592421916
 40
0.2133594559147136
 40
0.3579681719906448
 40
0.5027615335073018
 40
0.6460190492566761
 40
0.7860169189815759
 40
0.9235092634866515
 40
1.0
 40
1.0
 40
1.0
 40
1.0
 10
159.6051403438357
 20
445.0625578779139
 30
0.0
 10
159.7218329327828
 20
445.1066957452199
 30
0.0
 10
160.0230817792052
 20
445.2205429807244
 30
0.0
 10
160.5170845861452
 20
445.4122912709275
 30
0.0
 10
161.0456026997585
 20
445.6136612866906
 30
0.0
 10
161.5168581972332
 20
445.7839751585421
 30
0.0
 10
161.9245072784306
 20
445.9144196963629
 30
0.0
 10
162.2552644187614
 20
445.9956358196468
 30
0.0
 10
162.5054582298914
 20
446.0315218467288
 30
0.0
 10
162.6171384384412
 20
446.0292232087528
 30
0.0
 10
162.6637098961536
 20
446.0278547355775
 30
0.0
  0
ARC
  5
A1
330
75
100
AcDbEntity
  8
$DDT_AUDIT_GENERATED_(77)
  6
Continuous
 62
     7
100
AcDbCircle
 10
165.5796983175
 20
446.3420045031
 30
0.0
 40
0.2999996061196473
100
AcDbArc
 50
269.9913309843
 51
337.3237516404
  0
SPLINE
  5
A3
330
75
100
AcDbEntity
  8
$DDT_AUDIT_GENERATED_(A2)
  6
Continuous
 62
     7
100
AcDbSpline
210
0.0
220
0.0
230
1.0
 70
    11
 71
     6
 72
    14
 73
     7
 74
     0
 42
0.0000000000205832
 43
0.0000000001
 40
0.0
 40
0.0
 40
0.0
 40
0.0
 40
0.0
 40
0.0
 40
0.0
 40
1.0
 40
1.0
 40
1.0
 40
1.0
 40
1.0
 40
1.0
 40
1.0
 10
148.3257538920702
 20
500.3869861278399
 30
0.0
 10
197.7603311101072
 20
500.3869861278399
 30
0.0
 10
233.5115080867452
 20
426.937589007914
 30
0.0
 10
148.3257538920688
 20
354.540532154712
 30
0.0
 10
63.13999969739717
 20
426.937589007914
 30
0.0
 10
98.89117667403318
 20
500.38698612784
 30
0.0
 10
148.3257538920702
 20
500.3869861278399
 30
0.0
  0
SPLINE
  5
A4
330
75
100
AcDbEntity
  8
$DDT_AUDIT_GENERATED_(A2)
  6
Continuous
 62
     7
100
AcDbSpline
210
0.0
220
0.0
230
1.0
 70
    11
 71
     3
 72
    67
 73
    63
 74
     0
 42
0.0000000000407578
 43
0.0000000001
 40
0.0
 40
0.0
 40
0.0
 40
0.0
 40
0.0312499999999962
 40
0.0468749999999943
 40
0.0624999999999925
 40
0.0781249999999905
 40
0.0937499999999887
 40
0.1249999999999849
 40
0.140624999999983
 40
0.1562499999999811
 40
0.1718749999999792
 40
0.1874999999999773
 40
0.2031250000000157
 40
0.2187500000000138
 40
0.234375000000012
 40
0.25000000000001
 40
0.2656250000000082
 40
0.2812500000000063
 40
0.2968750000000044
 40
0.3125000000000025
 40
0.3281250000000007
 40
0.3437499999999987
 40
0.3593749999999968
 40
0.3749999999999949
 40
0.3906249999999931
 40
0.4062499999999912
 40
0.4218749999999892
 40
0.4374999999999874
 40
0.4531249999999855
 40
0.4687499999999836
 40
0.4843749999999817
 40
0.4999999999999798
 40
0.515624999999978
 40
0.5312499999999761
 40
0.5468749999999741
 40
0.5624999999999722
 40
0.5781249999999704
 40
0.5937500000000089
 40
0.609375000000007
 40
0.625000000000005
 40
0.6406250000000031
 40
0.6562500000000013
 40
0.6718749999999993
 40
0.6874999999999976
 40
0.7031249999999957
 40
0.7187499999999937
 40
0.7343749999999919
 40
0.7499999999999899
 40
0.7656249999999881
 40
0.7812499999999861
 40
0.7968749999999841
 40
0.8124999999999823
 40
0.8281249999999805
 40
0.8437499999999787
 40
0.8593749999999767
 40
0.8749999999999748
 40
0.906249999999971
 40
0.9218749999999692
 40
0.9374999999999672
 40
0.9531249999999654
 40
0.9687499999999635
 40
1.0
 40
1.0
 40
1.0
 40
1.0
 10
148.3257538920702
 20
499.38698612784
 30
0.0
 10
150.9119840438302
 20
499.386986125695
 30
0.0
 10
154.7501652359932
 20
499.000788664584
 30
0.0
 10
159.6865964418912
 20
497.756176899673
 30
0.0
 10
163.2702975595732
 20
496.470389557214
 30
0.0
 10
166.7152621882962
 20
494.838304081657
 30
0.0
 10
171.0768075349342
 20
492.227406213526
 30
0.0
 10
175.0673773965522
 20
488.95994215
 30
0.0
 10
178.5378926804902
 20
485.1245326106659
 30
0.0
 10
180.8119543170672
 20
482.04791988585
 30
0.0
 10
182.7748036877882
 20
478.769302114621
 30
0.0
 10
184.4004609422242
 20
475.327442898986
 30
0.0
 10
185.6862000505062
 20
471.742682855707
 30
0.0
 10
186.6170622162482
 20
468.0393050737659
 30
0.0
 10
187.1849338809342
 20
464.251023790849
 30
0.0
 10
187.3778486788842
 20
460.3832923514289
 30
0.0
 10
187.1852885512772
 20
456.515218802212
 30
0.0
 10
186.6178845865052
 20
452.726517648789
 30
0.0
 10
185.6870425779012
 20
449.022023509779
 30
0.0
 10
184.4020146046192
 20
445.436817000907
 30
0.0
 10
182.7755222803982
 20
441.993017365992
 30
0.0
 10
180.8144380961172
 20
438.715281663221
 30
0.0
 10
178.5370236497732
 20
435.634784265936
 30
0.0
 10
175.9390640628602
 20
432.763127581498
 30
0.0
 10
173.0688689714782
 20
430.163771151759
 30
0.0
 10
169.9897331189462
 20
427.884981507323
 30
0.0
 10
166.7132387570732
 20
425.922610984942
 30
0.0
 10
163.2705065365082
 20
424.294944929245
 30
0.0
 10
159.6861561071692
 20
423.008908443873
 30
0.0
 10
155.9822677195692
 20
422.077221674656
 30
0.0
 10
152.1938673717152
 20
421.509223001132
 30
0.0
 10
148.3257538920702
 20
421.3162607920669
 30
0.0
 10
144.4576404124252
 20
421.509223001132
 30
0.0
 10
140.6692400645702
 20
422.077221674656
 30
0.0
 10
136.9653516769712
 20
423.008908443872
 30
0.0
 10
133.3810012476312
 20
424.294944929245
 30
0.0
 10
129.9382690270662
 20
425.922610984943
 30
0.0
 10
126.6617746651932
 20
427.884981507323
 30
0.0
 10
123.5826388126622
 20
430.163771151759
 30
0.0
 10
120.7124437212802
 20
432.763127581498
 30
0.0
 10
118.1144841343672
 20
435.634784265936
 30
0.0
 10
115.8370696880222
 20
438.715281663221
 30
0.0
 10
113.8759855037422
 20
441.993017365993
 30
0.0
 10
112.2494931795212
 20
445.436817000907
 30
0.0
 10
110.9644652062392
 20
449.02202350978
 30
0.0
 10
110.0336231976352
 20
452.726517648789
 30
0.0
 10
109.4662192328632
 20
456.515218802212
 30
0.0
 10
109.2736591052562
 20
460.3832923514292
 30
0.0
 10
109.4665739032062
 20
464.251023790849
 30
0.0
 10
110.0344455678922
 20
468.039305073766
 30
0.0
 10
110.9653077336342
 20
471.742682855707
 30
0.0
 10
112.2510468419162
 20
475.327442898986
 30
0.0
 10
113.8767040963522
 20
478.769302114621
 30
0.0
 10
115.8395534670722
 20
482.04791988585
 30
0.0
 10
118.1136151036502
 20
485.124532610666
 30
0.0
 10
121.5841303875882
 20
488.95994215
 30
0.0
 10
125.5747002492062
 20
492.227406213526
 30
0.0
 10
129.9362455958442
 20
494.838304081658
 30
0.0
 10
133.3812102245672
 20
496.470389557214
 30
0.0
 10
136.9649113422492
 20
497.756176899674
 30
0.0
 10
141.9013425481462
 20
499.000788664584
 30
0.0
 10
145.7395237403102
 20
499.386986125695
 30
0.0
 10
148.3257538920702
 20
499.38698612784
 30
0.0
  0
LINE
  5
A6
330
75
100
AcDbEntity
  8
$DDT_AUDIT_GENERATED_(A5)
  6
Continuous
 62
     7
100
AcDbLine
 10
159.0757538921
 20
442.8869861278
 30
0.0
 11
137.5757538921
 21
442.8869861278
 31
0.0
  0
LINE
  5
A7
330
75
100
AcDbEntity
  8
$DDT_AUDIT_GENERATED_(A5)
  6
Continuous
 62
     7
100
AcDbLine
 10
137.3257538921
 20
443.2045287759
 30
0.0
 11
159.3257538921
 21
443.2045287759
 31
0.0
  0
LINE
  5
A8
330
75
100
AcDbEntity
  8
$DDT_AUDIT_GENERATED_(A5)
  6
Continuous
 62
     7
100
AcDbLine
 10
137.3257538921
 20
443.0313236964
 30
0.0
 11
137.3257538921
 21
443.2045287759
 31
0.0
  0
LINE
  5
A9
330
75
100
AcDbEntity
  8
$DDT_AUDIT_GENERATED_(A5)
  6
Continuous
 62
     7
100
AcDbLine
 10
137.3257538921
 20
445.8869861278
 30
0.0
 11
136.5257538921
 21
445.8869861278
 31
0.0
  0
LINE
  5
AA
330
75
100
AcDbEntity
  8
$DDT_AUDIT_GENERATED_(A5)
  6
Continuous
 62
     7
100
AcDbLine
 10
137.3257538921
 20
445.8869861278
 30
0.0
 11
137.3257538921
 21
444.0705541797
 31
0.0
  0
LINE
  5
AB
330
75
100
AcDbEntity
  8
$DDT_AUDIT_GENERATED_(A5)
  6
Continuous
 62
     7
100
AcDbLine
 10
137.3257538921
 20
444.0705541797
 30
0.0
 11
137.3257538921
 21
443.2045287759
 31
0.0
  0
LINE
  5
AC
330
75
100
AcDbEntity
  8
$DDT_AUDIT_GENERATED_(A5)
  6
Continuous
 62
     7
100
AcDbLine
 10
159.3257538921
 20
443.2045287759
 30
0.0
 11
159.3257538921
 21
443.0313236964
 31
0.0
  0
LINE
  5
AD
330
75
100
AcDbEntity
  8
$DDT_AUDIT_GENERATED_(A5)
  6
Continuous
 62
     7
100
AcDbLine
 10
160.1257538921
 20
445.8869861278
 30
0.0
 11
159.3257538921
 21
445.8869861278
 31
0.0
  0
LINE
  5
AE
330
75
100
AcDbEntity
  8
$DDT_AUDIT_GENERATED_(A5)
  6
Continuous
 62
     7
100
AcDbLine
 10
159.3257538921
 20
443.2045287759
 30
0.0
 11
159.3257538921
 21
444.0705541797
 31
0.0
  0
LINE
  5
AF
330
75
100
AcDbEntity
  8
$DDT_AUDIT_GENERATED_(A5)
  6
Continuous
 62
     7
100
AcDbLine
 10
159.3257538921
 20
444.0705541797
 30
0.0
 11
159.3257538921
 21
445.8869861278
 31
0.0
  0
LINE
  5
B0
330
75
100
AcDbEntity
  8
$DDT_AUDIT_GENERATED_(A5)
  6
Continuous
 62
     7
100
AcDbLine
 10
137.3257538921
 20
443.0313236951
 30
0.0
 11
137.5757538921
 21
442.8869861278
 31
0.0
  0
LINE
  5
B1
330
75
100
AcDbEntity
  8
$DDT_AUDIT_GENERATED_(A5)
  6
Continuous
 62
     7
100
AcDbLine
 10
159.0757538921
 20
442.8869861278
 30
0.0
 11
159.3257538921
 21
443.0313236951
 31
0.0
  0
LINE
  5
B2
330
75
100
AcDbEntity
  8
$DDT_AUDIT_GENERATED_(A5)
  6
Continuous
 62
     7
100
AcDbLine
 10
136.5257538921
 20
446.0420047674
 30
0.0
 11
136.5257538921
 21
445.8869861278
 31
0.0
  0
LINE
  5
B3
330
75
100
AcDbEntity
  8
$DDT_AUDIT_GENERATED_(A5)
  6
Continuous
 62
     7
100
AcDbLine
 10
160.1257538921
 20
445.8869861278
 30
0.0
 11
160.1257538921
 21
446.0420047674
 31
0.0
  0
ENDBLK
  5
B5
330
75
100
AcDbEntity
  8
0
100
AcDbBlockEnd
  0
BLOCK
  5
ED
330
B6
100
AcDbEntity
  8
0
100
AcDbBlockBegin
  2
SE1
 70
     0
 10
0.0
 20
0.0
 30
0.0
  3
SE1
  1

  0
SPLINE
  5
B8
330
B6
100
AcDbEntity
  8
$DDT_AUDIT_GENERATED_(77)
  6
Continuous
 62
     7
100
AcDbSpline
210
0.0
220
0.0
230
1.0
 70
     8
 71
     3
 72
    32
 73
    28
 74
     0
 42
0.0000000000530812
 43
0.0000000001
 40
0.0
 40
0.0
 40
0.0
 40
0.0
 40
0.2500000000000003
 40
0.2500000000000003
 40
0.5000000000000007
 40
0.5000000000000007
 40
0.6250000000000007
 40
0.6250000000000007
 40
0.7500000000000008
 40
0.7500000000000008
 40
0.8125000000000009
 40
0.8125000000000009
 40
0.8437500000000009
 40
0.8437500000000009
 40
0.8593750000000009
 40
0.8593750000000009
 40
0.8750000000000009
 40
0.8750000000000009
 40
0.906250000000001
 40
0.906250000000001
 40
0.9218750000000008
 40
0.9218750000000008
 40
0.9375000000000006
 40
0.9375000000000006
 40
0.9687500000000003
 40
0.9687500000000003
 40
0.9996635099933364
 40
0.9996635099933364
 40
0.9996635099933364
 40
0.9996635099933364
 10
358.695097640995
 20
474.7694065475724
 30
0.0
 10
375.3197396663984
 20
474.7595641452603
 30
0.0
 10
391.9443665857568
 20
474.7464513031323
 30
0.0
 10
425.1929258333873
 20
474.5377545831615
 30
0.0
 10
441.8204170574645
 20
474.3632228208037
 30
0.0
 10
466.7204379911562
 20
473.3612563855293
 30
0.0
 10
475.0132450026751
 20
472.8869913314261
 30
0.0
 10
491.578349193797
 20
471.5389243632736
 30
0.0
 10
499.8560307058495
 20
470.6773382886549
 30
0.0
 10
512.236900432981
 20
469.1295053994924
 30
0.0
 10
516.3579177149121
 20
468.5686454644571
 30
0.0
 10
522.5296348012563
 20
467.6547033176728
 30
0.0
 10
524.5867935991275
 20
467.337682210674
 30
0.0
 10
527.6628851374709
 20
466.8443804190345
 30
0.0
 10
528.6890346177529
 20
466.6765703695983
 30
0.0
 10
530.7084049313311
 20
466.3399861766048
 30
0.0
 10
531.7062204336526
 20
466.1704717204661
 30
0.0
 10
534.648670547082
 20
465.6614742365659
 30
0.0
 10
536.4659683255752
 20
465.3347806171039
 30
0.0
 10
538.9598463750492
 20
464.87376440672
 30
0.0
 10
539.7587910032476
 20
464.7237043601024
 30
0.0
 10
541.2247496636046
 20
464.4449041245484
 30
0.0
 10
541.8944015333628
 20
464.3157273468073
 30
0.0
 10
543.7168319712252
 20
463.9607275107933
 30
0.0
 10
544.6889359834528
 20
463.7662896154545
 30
0.0
 10
545.9708719636367
 20
463.5080735401376
 30
0.0
 10
546.3073990079122
 20
463.439167701809
 30
0.0
 10
546.3126641915063
 20
463.4380874765675
 30
0.0
  0
SPLINE
  5
B9
330
B6
100
AcDbEntity
  8
$DDT_AUDIT_GENERATED_(77)
  6
Continuous
 62
     7
100
AcDbSpline
210
0.0
220
0.0
230
1.0
 70
     8
 71
     3
 72
    10
 73
     6
 74
     0
 42
0.0000000143197015
 43
0.0000000001
 40
0.0
 40
0.0
 40
0.0
 40
0.0
 40
0.5
 40
0.5
 40
1.0
 40
1.0
 40
1.0
 40
1.0
 10
546.7128905063436
 20
462.9481431608185
 30
0.0
 10
546.7128905195009
 20
463.0634234076103
 30
0.0
 10
546.6728638140125
 20
463.1754498305257
 30
0.0
 10
546.527210426761
 20
463.3536635255522
 30
0.0
 10
546.4256775373464
 20
463.4150599167435
 30
0.0
 10
546.3127183407621
 20
463.4380763210007
 30
0.0
  0
SPLINE
  5
BA
330
B6
100
AcDbEntity
  8
$DDT_AUDIT_GENERATED_(77)
  6
Continuous
 62
     7
100
AcDbSpline
210
0.0
220
0.0
230
1.0
 70
     8
 71
     3
 72
    42
 73
    38
 74
     0
 42
0.0000000000530183
 43
0.0000000001
 40
0.0
 40
0.0
 40
0.0
 40
0.0
 40
0.0156250000000006
 40
0.0156250000000006
 40
0.0312500000000011
 40
0.0312500000000011
 40
0.0625000000000022
 40
0.0625000000000022
 40
0.0937500000000032
 40
0.0937500000000032
 40
0.1093750000000035
 40
0.1093750000000035
 40
0.1250000000000039
 40
0.1250000000000039
 40
0.1406250000000042
 40
0.1406250000000042
 40
0.1484375000000044
 40
0.1484375000000044
 40
0.1562500000000046
 40
0.1562500000000046
 40
0.1718750000000045
 40
0.1718750000000045
 40
0.1875000000000044
 40
0.1875000000000044
 40
0.2500000000000041
 40
0.2500000000000041
 40
0.3125000000000038
 40
0.3125000000000038
 40
0.3750000000000034
 40
0.3750000000000034
 40
0.5000000000000028
 40
0.5000000000000028
 40
0.6250000000000021
 40
0.6250000000000021
 40
0.7500000000000014
 40
0.7500000000000014
 40
1.0
 40
1.0
 40
1.0
 40
1.0
 10
546.6305633972428
 20
455.237298576158
 30
0.0
 10
546.6314987932437
 20
455.237417121569
 30
0.0
 10
546.5542938154233
 20
455.2284477139116
 30
0.0
 10
546.2500185244344
 20
455.2567507232732
 30
0.0
 10
546.0236703993479
 20
455.2928994127006
 30
0.0
 10
545.1213755301034
 20
455.4645730537633
 30
0.0
 10
544.2120626537023
 20
455.6529372932885
 30
0.0
 10
541.9037189752834
 20
456.0062806874089
 30
0.0
 10
540.4746979845189
 20
456.202955498328
 30
0.0
 10
538.0875149144
 20
456.5897337026227
 30
0.0
 10
537.2470602746589
 20
456.7342129496795
 30
0.0
 10
535.4746833019044
 20
457.0176032180327
 30
0.0
 10
534.5499590499813
 20
457.1381424692772
 30
0.0
 10
532.667557025091
 20
457.4021550719764
 30
0.0
 10
531.7090349782222
 20
457.5597980011268
 30
0.0
 10
530.2334653508208
 20
457.8537459693109
 30
0.0
 10
529.732210885111
 20
457.9582524991138
 30
0.0
 10
528.7009957970861
 20
458.0925240672236
 30
0.0
 10
528.1792147581447
 20
458.1268810809559
 30
0.0
 10
526.6216370882963
 20
458.3067051785297
 30
0.0
 10
525.5920684740173
 20
458.4938961591838
 30
0.0
 10
523.5207381675682
 20
458.7823674781677
 30
0.0
 10
522.4828812422036
 20
458.9121195420332
 30
0.0
 10
517.296728827898
 20
459.5827893226046
 30
0.0
 10
513.1725137827614
 20
460.2917067387986
 30
0.0
 10
504.8952570898233
 20
461.5099674847746
 30
0.0
 10
500.746375840361
 20
462.0502676699633
 30
0.0
 10
492.4395456021268
 20
463.0498462531655
 30
0.0
 10
488.2803416988899
 20
463.5098010060249
 30
0.0
 10
475.7860284294538
 20
464.668367095418
 30
0.0
 10
467.4275554568267
 20
465.0784535315027
 30
0.0
 10
450.7057616548723
 20
465.5823892143852
 30
0.0
 10
442.3422125469528
 20
465.700944960827
 30
0.0
 10
425.6137010581275
 20
465.867392585086
 30
0.0
 10
417.2486815217065
 20
465.9079482403291
 30
0.0
 10
392.1543499746977
 20
465.9794795014271
 30
0.0
 10
375.4247294679476
 20
465.9597971333218
 30
0.0
 10
358.695097640995
 20
465.9308593688681
 30
0.0
  0
LINE
  5
BB
330
B6
100
AcDbEntity
  8
$DDT_AUDIT_GENERATED_(77)
  6
Continuous
 62
     7
100
AcDbLine
 10
546.7128905063
 20
462.9481431608
 30
0.0
 11
546.7128896576
 21
455.5121596207
 31
0.0
  0
SPLINE
  5
BC
330
B6
100
AcDbEntity
  8
$DDT_AUDIT_GENERATED_(77)
  6
Continuous
 62
     7
100
AcDbSpline
210
0.0
220
0.0
230
1.0
 70
     8
 71
     3
 72
     8
 73
     4
 74
     0
 42
0.0000000007930667
 43
0.0000000001
 40
0.0
 40
0.0
 40
0.0
 40
0.0
 40
0.0895453786967077
 40
0.0895453786967077
 40
0.0895453786967077
 40
0.0895453786967077
 10
546.6305633972428
 20
455.237298576158
 30
0.0
 10
546.4232365612718
 20
454.9222486953224
 30
0.0
 10
546.2109256084897
 20
454.6115428571323
 30
0.0
 10
545.9939231514885
 20
454.3049260271197
 30
0.0
  0
SPLINE
  5
BD
330
B6
100
AcDbEntity
  8
$DDT_AUDIT_GENERATED_(77)
  6
Continuous
 62
     7
100
AcDbSpline
210
0.0
220
0.0
230
1.0
 70
     8
 71
     3
 72
     8
 73
     4
 74
     0
 42
0.0000000007901552
 43
0.0000000001
 40
0.8131605555014726
 40
0.8131605555014726
 40
0.8131605555014726
 40
0.8131605555014726
 40
1.0
 40
1.0
 40
1.0
 40
1.0
 10
539.8880934999654
 20
447.6080748349637
 30
0.0
 10
539.2930702126242
 20
447.0923720268785
 30
0.0
 10
538.6823356686206
 20
446.5915368539646
 30
0.0
 10
538.0626049550925
 20
446.1058746274495
 30
0.0
  0
SPLINE
  5
BE
330
B6
100
AcDbEntity
  8
$DDT_AUDIT_GENERATED_(77)
  6
Continuous
 62
     7
100
AcDbSpline
210
0.0
220
0.0
230
1.0
 70
     8
 71
     3
 72
     8
 73
     4
 74
     0
 42
0.0000000338815836
 43
0.0000000001
 40
0.0
 40
0.0
 40
0.0
 40
0.0
 40
1.0
 40
1.0
 40
1.0
 40
1.0
 10
546.6305633972428
 20
455.237298576158
 30
0.0
 10
546.6842983940933
 20
455.3189532460666
 30
0.0
 10
546.712889646485
 20
455.4144102724356
 30
0.0
 10
546.7128896576435
 20
455.5121596207226
 30
0.0
  0
SPLINE
  5
BF
330
B6
100
AcDbEntity
  8
$DDT_AUDIT_GENERATED_(77)
  6
Continuous
 62
     7
100
AcDbSpline
210
0.0
220
0.0
230
1.0
 70
     8
 71
     3
 72
    24
 73
    20
 74
     0
 42
0.0000000000772419
 43
0.0000000001
 40
0.0
 40
0.0
 40
0.0
 40
0.0
 40
0.03125
 40
0.03125
 40
0.0625000000000001
 40
0.0625000000000001
 40
0.0937500000000001
 40
0.0937500000000001
 40
0.1250000000000002
 40
0.1250000000000002
 40
0.2500000000000001
 40
0.2500000000000001
 40
0.3749999999999999
 40
0.3749999999999999
 40
0.4999999999999998
 40
0.4999999999999998
 40
0.7499999999999999
 40
0.7499999999999999
 40
1.0
 40
1.0
 40
1.0
 40
1.0
 10
494.7207980008842
 20
442.9001475566313
 30
0.0
 10
493.372163406899
 20
442.8834251986071
 30
0.0
 10
492.0235206959597
 20
442.8656360767553
 30
0.0
 10
489.3265939305592
 20
442.8771939575328
 30
0.0
 10
487.9782585774795
 20
442.8997990825903
 30
0.0
 10
485.2816673398772
 20
442.9554534206649
 30
0.0
 10
483.9334148249071
 20
442.9887427289892
 30
0.0
 10
481.2368629394287
 20
443.0500413720352
 30
0.0
 10
479.8885592609624
 20
443.0783588292563
 30
0.0
 10
473.1468996104894
 20
443.2080699235489
 30
0.0
 10
467.7531094270009
 20
443.272957495833
 30
0.0
 10
456.9650817521172
 20
443.3651255016998
 30
0.0
 10
451.5708297825508
 20
443.3933187740676
 30
0.0
 10
440.7823016455237
 20
443.4359633476813
 30
0.0
 10
435.3880184921745
 20
443.4499434216443
 30
0.0
 10
419.2051437685615
 20
443.4821643838493
 30
0.0
 10
408.4165290529037
 20
443.4909900604385
 30
0.0
 10
386.8393149879746
 20
443.5029138163881
 30
0.0
 10
376.0507065089782
 20
443.5052809166894
 30
0.0
 10
365.2620976409949
 20
443.5066813451924
 30
0.0
  0
LINE
  5
C0
330
B6
100
AcDbEntity
  8
$DDT_AUDIT_GENERATED_(77)
  6
Continuous
 62
     7
100
AcDbLine
 10
537.8775785977
 20
446.0420047674
 30
0.0
 11
506.0384771261
 21
446.0420047674
 31
0.0
  0
ARC
  5
C1
330
B6
100
AcDbEntity
  8
$DDT_AUDIT_GENERATED_(77)
  6
Continuous
 62
     7
100
AcDbCircle
 10
519.1967122635
 20
-990.9259624351
 30
0.0
 40
1437.155671522667
100
AcDbArc
 50
89.2478418923
 51
89.2484873522
  0
ARC
  5
C2
330
B6
100
AcDbEntity
  8
$DDT_AUDIT_GENERATED_(77)
  6
Continuous
 62
     7
100
AcDbCircle
 10
506.0820723711
 20
423.9381856429
 30
0.0
 40
22.10386211581415
100
AcDbArc
 50
90.113004015
 51
106.5628607676
  0
LINE
  5
C3
330
B6
100
AcDbEntity
  8
$DDT_AUDIT_GENERATED_(77)
  6
Continuous
 62
     7
100
AcDbLine
 10
361.128097641
 20
443.507162951
 30
0.0
 11
358.695097641
 21
443.5073991614
 31
0.0
  0
ARC
  5
C4
330
B6
100
AcDbEntity
  8
$DDT_AUDIT_GENERATED_(77)
  6
Continuous
 62
     7
100
AcDbCircle
 10
363.193201711
 20
427.2326683802
 30
0.0
 40
16.40499400646657
100
AcDbArc
 50
97.0267386157
 51
97.2317303791
  0
ARC
  5
C5
330
B6
100
AcDbEntity
  8
$DDT_AUDIT_GENERATED_(77)
  6
Continuous
 62
     7
100
AcDbCircle
 10
363.193201711
 20
427.2326683802
 30
0.0
 40
16.40499400646657
100
AcDbArc
 50
82.7549198494
 51
82.892284767
  0
ARC
  5
C6
330
B6
100
AcDbEntity
  8
$DDT_AUDIT_GENERATED_(77)
  6
Continuous
 62
     7
100
AcDbCircle
 10
491.5664701837
 20
639.3444477292
 30
0.0
 40
196.4684542522519
100
AcDbArc
 50
270.5882154263
 51
270.9234668658
  0
ARC
  5
C7
330
B6
100
AcDbEntity
  8
$DDT_AUDIT_GENERATED_(77)
  6
Continuous
 62
     7
100
AcDbCircle
 10
457.3511144231
 20
-729.9220430225
 30
0.0
 40
1173.218333207444
100
AcDbArc
 50
88.546476973
 51
89.0260996428
  0
LINE
  5
C8
330
B6
100
AcDbEntity
  8
$DDT_AUDIT_GENERATED_(77)
  6
Continuous
 62
     7
100
AcDbLine
 10
546.5294384471
 20
455.1394783955
 30
0.0
 11
546.6058807907
 21
455.2522697227
 31
0.0
  0
ARC
  5
C9
330
B6
100
AcDbEntity
  8
$DDT_AUDIT_GENERATED_(77)
  6
Continuous
 62
     7
100
AcDbCircle
 10
515.9968734555
 20
475.3500460019
 30
0.0
 40
36.61563283539637
100
AcDbArc
 50
307.007395523
 51
326.4980378977
  0
ARC
  5
CA
330
B6
100
AcDbEntity
  8
$DDT_AUDIT_GENERATED_(77)
  6
Continuous
 62
     7
100
AcDbCircle
 10
515.9951182578
 20
475.3515577358
 30
0.0
 40
36.6179308629705
100
AcDbArc
 50
323.734576114
 51
324.9474782107
  0
ARC
  5
CB
330
B6
100
AcDbEntity
  8
$DDT_AUDIT_GENERATED_(77)
  6
Continuous
 62
     7
100
AcDbCircle
 10
491.5795728921
 20
638.2180127434
 30
0.0
 40
195.3419441194765
100
AcDbArc
 50
270.5877643677
 51
270.6279108829
  0
ARC
  5
CC
330
B6
100
AcDbEntity
  8
$DDT_AUDIT_GENERATED_(77)
  6
Continuous
 62
     7
100
AcDbCircle
 10
491.5795728921
 20
638.2180127434
 30
0.0
 40
195.3419441194765
100
AcDbArc
 50
270.7756656075
 51
270.8918390139
  0
ARC
  5
CD
330
B6
100
AcDbEntity
  8
$DDT_AUDIT_GENERATED_(77)
  6
Continuous
 62
     7
100
AcDbCircle
 10
457.351114373
 20
-729.9220460735
 30
0.0
 40
1173.218336259007
100
AcDbArc
 50
88.9977346819
 51
89.0260996455
  0
ARC
  5
CE
330
B6
100
AcDbEntity
  8
$DDT_AUDIT_GENERATED_(77)
  6
Continuous
 62
     7
100
AcDbCircle
 10
457.351114373
 20
-729.9220460735
 30
0.0
 40
1173.218336259007
100
AcDbArc
 50
88.5464769727
 51
88.5531492552
  0
ARC
  5
CF
330
B6
100
AcDbEntity
  8
$DDT_AUDIT_GENERATED_(77)
  6
Continuous
 62
     7
100
AcDbCircle
 10
506.1020254038
 20
423.6516670465
 30
0.0
 40
22.35831123763695
100
AcDbArc
 50
106.5402548963
 51
120.5939276904
  0
ARC
  5
D0
330
B6
100
AcDbEntity
  8
$DDT_AUDIT_GENERATED_(77)
  6
Continuous
 62
     7
100
AcDbCircle
 10
537.8775782704
 20
446.3420047596
 30
0.0
 40
0.2999999919700886
100
AcDbArc
 50
269.9998282263
 51
308.0564863592
  0
ARC
  5
D1
330
B6
100
AcDbEntity
  8
$DDT_AUDIT_GENERATED_(77)
  6
Continuous
 62
     7
100
AcDbCircle
 10
506.3316559495
 20
423.1995218434
 30
0.0
 40
22.86398463763716
100
AcDbArc
 50
120.1533327418
 51
120.5151278478
  0
ARC
  5
D2
330
B6
100
AcDbEntity
  8
$DDT_AUDIT_GENERATED_(77)
  6
Continuous
 62
     7
100
AcDbCircle
 10
506.3316559495
 20
423.1995218434
 30
0.0
 40
22.86398463763716
100
AcDbArc
 50
105.3505329947
 51
106.8540380456
  0
ARC
  5
D3
330
B6
100
AcDbEntity
  8
$DDT_AUDIT_GENERATED_(77)
  6
Continuous
 62
     7
100
AcDbCircle
 10
537.8775786517
 20
446.3420047667
 30
0.0
 40
0.299999999331484
100
AcDbArc
 50
298.7317046664
 51
308.0544507912
  0
LINE
  5
D4
330
B6
100
AcDbEntity
  8
$DDT_AUDIT_GENERATED_(A2)
  6
Continuous
 62
     7
100
AcDbLine
 10
350.6950975216
 20
500.3869861278
 30
0.0
 11
350.6950975216
 21
420.3805643613
 31
0.0
  0
LINE
  5
D5
330
B6
100
AcDbEntity
  8
$DDT_AUDIT_GENERATED_(A2)
  6
Continuous
 62
     7
100
AcDbLine
 10
358.695097641
 20
499.3869861278
 30
0.0
 11
358.695097641
 21
421.3805815284
 31
0.0
  0
LINE
  5
D6
330
B6
100
AcDbEntity
  8
$DDT_AUDIT_GENERATED_(A2)
  6
Continuous
 62
     7
100
AcDbLine
 10
357.695097641
 20
500.3869861278
 30
0.0
 11
350.6950975216
 21
500.3869861278
 31
0.0
  0
LINE
  5
D7
330
B6
100
AcDbEntity
  8
$DDT_AUDIT_GENERATED_(A2)
  6
Continuous
 62
     7
100
AcDbLine
 10
350.6950975216
 20
420.3805643613
 30
0.0
 11
357.695097641
 21
420.3805643613
 31
0.0
  0
SPLINE
  5
D8
330
B6
100
AcDbEntity
  8
$DDT_AUDIT_GENERATED_(A2)
  6
Continuous
 62
     7
100
AcDbSpline
210
0.0
220
0.0
230
1.0
 70
     8
 71
     3
 72
    13
 73
     9
 74
     0
 42
0.0000000063014691
 43
0.0000000001
 40
0.0
 40
0.0
 40
0.0
 40
0.0
 40
0.1294353894207182
 40
0.2550301634045701
 40
0.500000070076544
 40
0.7449699367923122
 40
0.8705646657481415
 40
1.0
 40
1.0
 40
1.0
 40
1.0
 10
357.695097640995
 20
420.3805819634003
 30
0.0
 10
357.7692770185868
 20
420.3842629710789
 30
0.0
 10
357.8931884800311
 20
420.3923362956234
 30
0.0
 10
358.1481339767531
 20
420.4724073532501
 30
0.0
 10
358.4197236803049
 20
420.6559557573153
 30
0.0
 10
358.6032722004918
 20
420.9275453608433
 30
0.0
 10
358.6833433028321
 20
421.1824907689052
 30
0.0
 10
358.6914166313219
 20
421.3064021826241
 30
0.0
 10
358.695097640995
 20
421.380581528422
 30
0.0
  0
SPLINE
  5
D9
330
B6
100
AcDbEntity
  8
$DDT_AUDIT_GENERATED_(A2)
  6
Continuous
 62
     7
100
AcDbSpline
210
0.0
220
0.0
230
1.0
 70
     8
 71
     3
 72
    13
 73
     9
 74
     0
 42
0.0000000063014677
 43
0.0000000001
 40
0.0
 40
0.0
 40
0.0
 40
0.0
 40
0.1294353618363176
 40
0.2550301133061736
 40
0.5000000000000018
 40
0.7449698866938299
 40
0.8705646381636826
 40
1.0
 40
1.0
 40
1.0
 40
1.0
 10
358.695097640995
 20
499.38698612784
 30
0.0
 10
358.6914166315186
 20
499.4611655056681
 30
0.0
 10
358.6833433032456
 20
499.5850769701992
 30
0.0
 10
358.6032722058475
 20
499.8400224780389
 30
0.0
 10
358.4197237038017
 20
500.1116121906467
 30
0.0
 10
358.1481339911939
 20
500.2951606926925
 30
0.0
 10
357.8931884833541
 20
500.3752317900907
 30
0.0
 10
357.769277018823
 20
500.3833051183636
 30
0.0
 10
357.695097640995
 20
500.3869861278399
 30
0.0
  0
LINE
  5
DA
330
B6
100
AcDbEntity
  8
$DDT_AUDIT_GENERATED_(A5)
  6
Continuous
 62
     7
100
AcDbLine
 10
509.945097641
 20
442.8869861278
 30
0.0
 11
531.445097641
 21
442.8869861278
 31
0.0
  0
SPLINE
  5
DB
330
B6
100
AcDbEntity
  8
$DDT_AUDIT_GENERATED_(A5)
  6
Continuous
 62
     7
100
AcDbSpline
210
0.0
220
0.0
230
1.0
 70
     8
 71
     3
 72
    10
 73
     6
 74
     0
 42
0.0000000019260148
 43
0.0000000001
 40
0.0
 40
0.0
 40
0.0
 40
0.0
 40
0.5
 40
0.5
 40
1.0
 40
1.0
 40
1.0
 40
1.0
 10
523.2816010722705
 20
443.2045287758943
 30
0.0
 10
522.4195802504316
 20
443.0906109352284
 30
0.0
 10
521.5574889254879
 20
443.0313338097036
 30
0.0
 10
519.8331533307357
 20
443.0313135831926
 30
0.0
 10
518.9709090588674
 20
443.0905720789092
 30
0.0
 10
518.1085942097193
 20
443.2045287758943
 30
0.0
  0
LINE
  5
DC
330
B6
100
AcDbEntity
  8
$DDT_AUDIT_GENERATED_(A5)
  6
Continuous
 62
     7
100
AcDbLine
 10
524.9659289418
 20
444.0705541797
 30
0.0
 11
532.495097641
 21
444.0705541797
 31
0.0
  0
LINE
  5
DD
330
B6
100
AcDbEntity
  8
$DDT_AUDIT_GENERATED_(A5)
  6
Continuous
 62
     7
100
AcDbLine
 10
524.9659289418
 20
445.8869861278
 30
0.0
 11
516.4242663402
 21
445.8869861278
 31
0.0
  0
LINE
  5
DE
330
B6
100
AcDbEntity
  8
$DDT_AUDIT_GENERATED_(A5)
  6
Continuous
 62
     7
100
AcDbLine
 10
524.9659289418
 20
445.8869861278
 30
0.0
 11
524.9659289418
 21
444.0705541797
 31
0.0
  0
SPLINE
  5
DF
330
B6
100
AcDbEntity
  8
$DDT_AUDIT_GENERATED_(A5)
  6
Continuous
 62
     7
100
AcDbSpline
210
0.0
220
0.0
230
1.0
 70
     8
 71
     3
 72
    14
 73
    10
 74
     0
 42
0.0000000049321089
 43
0.0000000001
 40
0.0
 40
0.0
 40
0.0
 40
0.0
 40
0.1250000000000004
 40
0.1250000000000004
 40
0.2500000000000009
 40
0.2500000000000009
 40
0.5000000000000008
 40
0.5000000000000008
 40
1.0
 40
1.0
 40
1.0
 40
1.0
 10
524.9659289418075
 20
444.0705541796787
 30
0.0
 10
524.9659289418075
 20
443.9863128807532
 30
0.0
 10
524.9337974505275
 20
443.902175626454
 30
0.0
 10
524.8379998512966
 20
443.7629777252019
 30
0.0
 10
524.7748729870036
 20
443.7039623222591
 30
0.0
 10
524.572563036223
 20
443.5528414135051
 30
0.0
 10
524.4165734259711
 20
443.4814366925811
 30
0.0
 10
523.9458073415367
 20
443.3100645769336
 30
0.0
 10
523.6133940634991
 20
443.2483759082967
 30
0.0
 10
523.2816010722705
 20
443.2045287758943
 30
0.0
  0
SPLINE
  5
E0
330
B6
100
AcDbEntity
  8
$DDT_AUDIT_GENERATED_(A5)
  6
Continuous
 62
     7
100
AcDbSpline
210
0.0
220
0.0
230
1.0
 70
     8
 71
     3
 72
    18
 73
    14
 74
     0
 42
0.0000000049401632
 43
0.0000000001
 40
0.0
 40
0.0
 40
0.0
 40
0.0
 40
0.2499999999999998
 40
0.2499999999999998
 40
0.4999999999999997
 40
0.4999999999999997
 40
0.6249999999999992
 40
0.6249999999999992
 40
0.7499999999999989
 40
0.7499999999999989
 40
0.8749999999999994
 40
0.8749999999999994
 40
1.0
 40
1.0
 40
1.0
 40
1.0
 10
518.1085942097193
 20
443.2045287758943
 30
0.0
 10
517.9422014295558
 20
443.2265179271284
 30
0.0
 10
517.776648873339
 20
443.2535921847307
 30
0.0
 10
517.4482811267944
 20
443.324307469745
 30
0.0
 10
517.2855111291361
 20
443.3677602953828
 30
0.0
 10
517.0500391713671
 20
443.4536899494772
 30
0.0
 10
516.9728702294211
 20
443.4858585944629
 30
0.0
 10
516.8225443399988
 20
443.5608971627452
 30
0.0
 10
516.74897374705
 20
443.6040331409637
 30
0.0
 10
516.6149555642479
 20
443.7043319906176
 30
0.0
 10
516.5525771803732
 20
443.7624411570991
 30
0.0
 10
516.4560935073955
 20
443.9025997064668
 30
0.0
 10
516.4242663401824
 20
443.9848031964537
 30
0.0
 10
516.4242663401824
 20
444.0705541796787
 30
0.0
  0
LINE
  5
E1
330
B6
100
AcDbEntity
  8
$DDT_AUDIT_GENERATED_(A5)
  6
Continuous
 62
     7
100
AcDbLine
 10
516.4242663402
 20
444.0705541797
 30
0.0
 11
516.4242663402
 21
445.8869861278
 31
0.0
  0
LINE
  5
E2
330
B6
100
AcDbEntity
  8
$DDT_AUDIT_GENERATED_(A5)
  6
Continuous
 62
     7
100
AcDbLine
 10
516.4242663402
 20
444.0705541797
 30
0.0
 11
508.895097641
 21
444.0705541797
 31
0.0
  0
LINE
  5
E3
330
B6
100
AcDbEntity
  8
$DDT_AUDIT_GENERATED_(A5)
  6
Continuous
 62
     7
100
AcDbLine
 10
509.395097641
 20
443.2045287759
 30
0.0
 11
509.945097641
 21
442.8869861278
 31
0.0
  0
LINE
  5
E4
330
B6
100
AcDbEntity
  8
$DDT_AUDIT_GENERATED_(A5)
  6
Continuous
 62
     7
100
AcDbLine
 10
531.445097641
 20
442.8869861278
 30
0.0
 11
531.995097641
 21
443.2045287759
 31
0.0
  0
ARC
  5
E5
330
B6
100
AcDbEntity
  8
$DDT_AUDIT_GENERATED_(A5)
  6
Continuous
 62
     7
100
AcDbCircle
 10
509.895097641
 20
444.0705541797
 30
0.0
 40
1.000000000000001
100
AcDbArc
 50
180.0
 51
240.0
  0
ARC
  5
E6
330
B6
100
AcDbEntity
  8
$DDT_AUDIT_GENERATED_(A5)
  6
Continuous
 62
     7
100
AcDbCircle
 10
531.495097641
 20
444.0705541797
 30
0.0
 40
1.000000000000001
100
AcDbArc
 50
300.0
 51
0.0
  0
LINE
  5
E7
330
B6
100
AcDbEntity
  8
$DDT_AUDIT_GENERATED_(A5)
  6
Continuous
 62
     7
100
AcDbLine
 10
508.895097641
 20
446.0420047674
 30
0.0
 11
508.895097641
 21
444.0705541797
 31
0.0
  0
LINE
  5
E8
330
B6
100
AcDbEntity
  8
$DDT_AUDIT_GENERATED_(A5)
  6
Continuous
 62
     7
100
AcDbLine
 10
532.495097641
 20
444.0705541797
 30
0.0
 11
532.495097641
 21
446.0420047674
 31
0.0
  0
LINE
  5
EA
330
B6
100
AcDbEntity
  8
$DDT_AUDIT_GENERATED_(E9)
  6
Continuous
 62
     7
100
AcDbLine
 10
365.204597641
 20
443.4869861278
 30
0.0
 11
361.185597641
 21
443.4869861278
 31
0.0
  0
LINE
  5
EB
330
B6
100
AcDbEntity
  8
$DDT_AUDIT_GENERATED_(E9)
  6
Continuous
 62
     7
100
AcDbLine
 10
361.1469150131
 20
443.5093195535
 30
0.0
 11
361.185597641
 21
443.4869861278
 31
0.0
  0
LINE
  5
EC
330
B6
100
AcDbEntity
  8
$DDT_AUDIT_GENERATED_(E9)
  6
Continuous
 62
     7
100
AcDbLine
 10
365.204597641
 20
443.4869861278
 30
0.0
 11
365.262097641
 21
443.5201837683
 31
0.0
  0
ENDBLK
  5
EE
330
B6
100
AcDbEntity
  8
0
100
AcDbBlockEnd
  0
BLOCK
  5
FE
330
EF
100
AcDbEntity
  8
0
100
AcDbBlockBegin
  2
SE2
 70
     0
 10
0.0
 20
0.0
 30
0.0
  3
SE2
  1

  0
SPLINE
  5
F1
330
EF
100
AcDbEntity
  8
$DDT_AUDIT_GENERATED_(77)
  6
Continuous
 62
     7
100
AcDbSpline
210
0.0
220
0.0
230
1.0
 70
     8
 71
     3
 72
    16
 73
    12
 74
     0
 42
0.0000000000506158
 43
0.0000000001
 40
0.852282102912606
 40
0.852282102912606
 40
0.852282102912606
 40
0.852282102912606
 40
0.8593750000000009
 40
0.8593750000000009
 40
0.8750000000000008
 40
0.8750000000000008
 40
0.8906250000000008
 40
0.8906250000000008
 40
0.9062500000000007
 40
0.9062500000000007
 40
0.9333613811316601
 40
0.9333613811316601
 40
0.9333613811316601
 40
0.9333613811316601
 10
127.8855191780038
 20
123.7547778349473
 30
0.0
 10
127.9427626801019
 20
123.2884800185074
 30
0.0
 10
128.0272280851871
 20
122.8303857122462
 30
0.0
 10
128.3713080123453
 20
121.374348010835
 30
0.0
 10
128.6990024365394
 20
120.405715330695
 30
0.0
 10
129.4722569908062
 20
118.5097737686941
 30
0.0
 10
129.922562671746
 20
117.5864553418386
 30
0.0
 10
130.9565340602857
 20
115.8028012208687
 30
0.0
 10
131.5374637434968
 20
114.9495524841546
 30
0.0
 10
133.2788072922725
 20
112.760274680795
 30
0.0
 10
134.5804748072033
 20
111.5002248482775
 30
0.0
 10
136.0131539842099
 20
110.433002288609
 30
0.0
  0
SPLINE
  5
F2
330
EF
100
AcDbEntity
  8
$DDT_AUDIT_GENERATED_(77)
  6
Continuous
 62
     7
100
AcDbSpline
210
0.0
220
0.0
230
1.0
 70
     8
 71
     3
 72
    30
 73
    26
 74
     0
 42
0.0000000000500219
 43
0.0000000001
 40
0.0
 40
0.0
 40
0.0
 40
0.0
 40
0.0312500000000003
 40
0.0312500000000003
 40
0.0625000000000005
 40
0.0625000000000005
 40
0.0937500000000008
 40
0.0937500000000008
 40
0.1250000000000011
 40
0.1250000000000011
 40
0.1406250000000012
 40
0.1406250000000012
 40
0.1562500000000013
 40
0.1562500000000013
 40
0.1875000000000012
 40
0.1875000000000012
 40
0.2500000000000008
 40
0.2500000000000008
 40
0.3750000000000007
 40
0.3750000000000007
 40
0.5000000000000004
 40
0.5000000000000004
 40
0.7500000000000002
 40
0.7500000000000002
 40
1.0
 40
1.0
 40
1.0
 40
1.0
 10
148.3257538920701
 20
106.3519077716848
 30
0.0
 10
146.2560063290404
 20
106.3500079924957
 30
0.0
 10
144.1551421303974
 20
106.6709285414398
 30
0.0
 10
140.2082720215992
 20
107.9045763093179
 30
0.0
 10
138.3052607859337
 20
108.8346547554407
 30
0.0
 10
134.9152985644743
 20
111.1746265117705
 30
0.0
 10
133.3805673942162
 20
112.6165085459324
 30
0.0
 10
130.8411252552786
 20
115.8416498154523
 30
0.0
 10
129.8120996479838
 20
117.6490987169923
 30
0.0
 10
128.6565088870885
 20
120.5248113525775
 30
0.0
 10
128.3290267710857
 20
121.5106473164255
 30
0.0
 10
127.8733196895874
 20
123.5308442664271
 30
0.0
 10
127.7985610098449
 20
124.5631585721838
 30
0.0
 10
127.6756519775743
 20
127.6545121767889
 30
0.0
 10
127.6559753033736
 20
129.7200832853412
 30
0.0
 10
127.5798219670198
 20
135.9189725613186
 30
0.0
 10
127.5515834118966
 20
140.0599494128915
 30
0.0
 10
127.4714538767586
 20
152.4948302833125
 30
0.0
 10
127.4349555640248
 20
160.7993264620101
 30
0.0
 10
127.3714088750854
 20
177.4395162575014
 30
0.0
 10
127.3458898066999
 20
185.776465038152
 30
0.0
 10
127.2813899366936
 20
210.8234554131198
 30
0.0
 10
127.2547068589357
 20
227.5352666546858
 30
0.0
 10
127.219761830579
 20
260.9515886646754
 30
0.0
 10
127.2117664117236
 20
277.6606277977239
 30
0.0
 10
127.2080410907731
 20
294.3697006370333
 30
0.0
  0
SPLINE
  5
F3
330
EF
100
AcDbEntity
  8
$DDT_AUDIT_GENERATED_(77)
  6
Continuous
 62
     7
100
AcDbSpline
210
0.0
220
0.0
230
1.0
 70
     8
 71
     3
 72
     8
 73
     4
 74
     0
 42
0.0000000000514827
 43
0.0000000001
 40
0.1352224350588915
 40
0.1352224350588915
 40
0.1352224350588915
 40
0.1352224350588915
 40
0.1363616155816377
 40
0.1363616155816377
 40
0.1363616155816377
 40
0.1363616155816377
 10
168.2037824735826
 20
121.3277878686433
 30
0.0
 10
168.2254234650191
 20
121.3983065077046
 30
0.0
 10
168.246646465302
 20
121.4689445856304
 30
0.0
 10
168.2674406598344
 20
121.539705152369
 30
0.0
  0
SPLINE
  5
F4
330
EF
100
AcDbEntity
  8
$DDT_AUDIT_GENERATED_(77)
  6
Continuous
 62
     7
100
AcDbSpline
210
0.0
220
0.0
230
1.0
 70
     8
 71
     3
 72
    10
 73
     6
 74
     0
 42
0.0000000000501803
 43
0.0000000001
 40
0.1479724348033047
 40
0.1479724348033047
 40
0.1479724348033047
 40
0.1479724348033047
 40
0.1484375000000044
 40
0.1484375000000044
 40
0.1488431300986299
 40
0.1488431300986299
 40
0.1488431300986299
 40
0.1488431300986299
 10
168.7467422955758
 20
123.756266685824
 30
0.0
 10
168.7506216368214
 20
123.7868592711285
 30
0.0
 10
168.7543831771172
 20
123.8175016730736
 30
0.0
 10
168.7612013531368
 20
123.8749656171128
 30
0.0
 10
168.7642926174314
 20
123.9017529395205
 30
0.0
 10
168.7673023796155
 20
123.92855567778
 30
0.0
  0
SPLINE
  5
F5
330
EF
100
AcDbEntity
  8
$DDT_AUDIT_GENERATED_(77)
  6
Continuous
 62
     7
100
AcDbSpline
210
0.0
220
0.0
230
1.0
 70
     8
 71
     3
 72
    10
 73
     6
 74
     0
 42
0.0000000000506309
 43
0.0000000001
 40
0.8522821029126082
 40
0.8522821029126082
 40
0.8522821029126082
 40
0.8522821029126082
 40
0.8593750000000009
 40
0.8593750000000009
 40
0.863856346066296
 40
0.863856346066296
 40
0.863856346066296
 40
0.863856346066296
 10
168.7659886061364
 20
123.7547778349469
 30
0.0
 10
168.7087451040384
 20
123.2884800185071
 30
0.0
 10
168.6242796989531
 20
122.830385712246
 30
0.0
 10
168.4489789338378
 20
122.0885681781565
 30
0.0
 10
168.3736166209842
 20
121.8040478819778
 30
0.0
 10
168.2915229254941
 20
121.5219396512622
 30
0.0
  0
SPLINE
  5
F6
330
EF
100
AcDbEntity
  8
$DDT_AUDIT_GENERATED_(77)
  6
Continuous
 62
     7
100
AcDbSpline
210
0.0
220
0.0
230
1.0
 70
     8
 71
     3
 72
    14
 73
    10
 74
     0
 42
0.0000000000506182
 43
0.0000000001
 40
0.8649856936475506
 40
0.8649856936475506
 40
0.8649856936475506
 40
0.8649856936475506
 40
0.8750000000000008
 40
0.8750000000000008
 40
0.8906250000000008
 40
0.8906250000000008
 40
0.9062500000000007
 40
0.9062500000000007
 40
0.9333613811316626
 40
0.9333613811316626
 40
0.9333613811316626
 40
0.9333613811316626
 10
168.2281870383634
 20
121.309111674574
 30
0.0
 10
168.0372609682564
 20
120.6813704323678
 30
0.0
 10
167.8136735263028
 20
120.0653138177976
 30
0.0
 10
167.179250793334
 20
118.5097737686941
 30
0.0
 10
166.7289451123943
 20
117.5864553418386
 30
0.0
 10
165.6949737238546
 20
115.8028012208687
 30
0.0
 10
165.1140440406435
 20
114.9495524841546
 30
0.0
 10
163.3727004918677
 20
112.7602746807949
 30
0.0
 10
162.0710329769367
 20
111.5002248482772
 30
0.0
 10
160.63835379993
 20
110.4330022886087
 30
0.0
  0
SPLINE
  5
F7
330
EF
100
AcDbEntity
  8
$DDT_AUDIT_GENERATED_(77)
  6
Continuous
 62
     7
100
AcDbSpline
210
0.0
220
0.0
230
1.0
 70
     8
 71
     3
 72
    30
 73
    26
 74
     0
 42
0.0000000000500219
 43
0.0000000001
 40
0.0
 40
0.0
 40
0.0
 40
0.0
 40
0.0312500000000001
 40
0.0312500000000001
 40
0.0625000000000001
 40
0.0625000000000001
 40
0.0937500000000001
 40
0.0937500000000001
 40
0.1250000000000002
 40
0.1250000000000002
 40
0.1406250000000002
 40
0.1406250000000002
 40
0.1562500000000002
 40
0.1562500000000002
 40
0.1875000000000003
 40
0.1875000000000003
 40
0.25
 40
0.25
 40
0.3749999999999998
 40
0.3749999999999998
 40
0.4999999999999998
 40
0.4999999999999998
 40
0.7499999999999999
 40
0.7499999999999999
 40
1.0
 40
1.0
 40
1.0
 40
1.0
 10
148.3257538920701
 20
106.3519077716848
 30
0.0
 10
150.3955014550996
 20
106.3500079924957
 30
0.0
 10
152.4963656537425
 20
106.6709285414397
 30
0.0
 10
156.4432357625402
 20
107.9045763093176
 30
0.0
 10
158.3462469982055
 20
108.8346547554401
 30
0.0
 10
161.7362092196647
 20
111.1746265117694
 30
0.0
 10
163.2709403899228
 20
112.616508545931
 30
0.0
 10
165.8103825288604
 20
115.8416498154503
 30
0.0
 10
166.8394081361552
 20
117.64909871699
 30
0.0
 10
167.9949988970508
 20
120.5248113525746
 30
0.0
 10
168.3224810130538
 20
121.5106473164226
 30
0.0
 10
168.7781880945524
 20
123.530844266424
 30
0.0
 10
168.8529467742952
 20
124.5631585721804
 30
0.0
 10
168.9758558065659
 20
127.6545121767852
 30
0.0
 10
168.9955324807666
 20
129.7200832853372
 30
0.0
 10
169.0716858171205
 20
135.918972561314
 30
0.0
 10
169.0999243722437
 20
140.0599494128863
 30
0.0
 10
169.1800539073817
 20
152.4948302833058
 30
0.0
 10
169.2165522201154
 20
160.7993264620025
 30
0.0
 10
169.2800989090549
 20
177.4395162574919
 30
0.0
 10
169.3056179774403
 20
185.7764650381414
 30
0.0
 10
169.3701178474467
 20
210.8234554131063
 30
0.0
 10
169.3968009252046
 20
227.5352666546705
 30
0.0
 10
169.4317459535613
 20
260.9515886646561
 30
0.0
 10
169.4397413724167
 20
277.6606277977029
 30
0.0
 10
169.4434666933672
 20
294.3697006370333
 30
0.0
  0
LINE
  5
F8
330
EF
100
AcDbEntity
  8
$DDT_AUDIT_GENERATED_(A2)
  6
Continuous
 62
     7
100
AcDbLine
 10
108.3378804437
 20
302.3697007565
 30
0.0
 11
188.3136273404
 21
302.3697007565
 31
0.0
  0
LINE
  5
F9
330
EF
100
AcDbEntity
  8
$DDT_AUDIT_GENERATED_(A2)
  6
Continuous
 62
     7
100
AcDbLine
 10
187.313602858
 20
294.369700637
 30
0.0
 11
109.3379049262
 21
294.369700637
 31
0.0
  0
LINE
  5
FA
330
EF
100
AcDbEntity
  8
$DDT_AUDIT_GENERATED_(A2)
  6
Continuous
 62
     7
100
AcDbLine
 10
188.3136273404
 20
295.369700637
 30
0.0
 11
188.3136273404
 21
302.3697007565
 31
0.0
  0
LINE
  5
FB
330
EF
100
AcDbEntity
  8
$DDT_AUDIT_GENERATED_(A2)
  6
Continuous
 62
     7
100
AcDbLine
 10
108.3378804437
 20
302.3697007565
 30
0.0
 11
108.3378804437
 21
295.369700637
 31
0.0
  0
ARC
  5
FC
330
EF
100
AcDbEntity
  8
$DDT_AUDIT_GENERATED_(A2)
  6
Continuous
 62
     7
100
AcDbCircle
 10
109.3375737067
 20
295.3693688364
 30
0.0
 40
0.9996682542517091
100
AcDbArc
 50
179.9809829157
 51
270.0189837752
  0
ARC
  5
FD
330
EF
100
AcDbEntity
  8
$DDT_AUDIT_GENERATED_(A2)
  6
Continuous
 62
     7
100
AcDbCircle
 10
187.3139340774
 20
295.3693688364
 30
0.0
 40
0.9996682542517235
100
AcDbArc
 50
269.9810162248
 51
0.0190170843
  0
ENDBLK
  5
FF
330
EF
100
AcDbEntity
  8
0
100
AcDbBlockEnd
  0
ENDSEC
  0
SECTION
  2
ENTITIES
  0
INSERT
  5
5F
330
1F
100
AcDbEntity
  8
Default
100
AcDbBlockReference
  2
SEANNOT_GROUP
 10
0.0
 20
0.0
 30
0.0
  0
INSERT
  5
66
330
1F
100
AcDbEntity
  8
Default
100
AcDbBlockReference
  2
SEANNOT_GROUP1
 10
0.0
 20
0.0
 30
0.0
  0
INSERT
  5
6C
330
1F
100
AcDbEntity
  8
Default
100
AcDbBlockReference
  2
SEANNOT_GROUP2
 10
0.0
 20
0.0
 30
0.0
  0
INSERT
  5
76
330
1F
100
AcDbEntity
  8
Default
100
AcDbBlockReference
  2
SE
 10
0.0
 20
0.0
 30
0.0
  0
INSERT
  5
B7
330
1F
100
AcDbEntity
  8
Default
100
AcDbBlockReference
  2
SE1
 10
0.0
 20
0.0
 30
0.0
  0
INSERT
  5
F0
330
1F
100
AcDbEntity
  8
Default
100
AcDbBlockReference
  2
SE2
 10
0.0
 20
0.0
 30
0.0
  0
TEXT
  5
101
330
1F
100
AcDbEntity
  8
Default
  6
Continuous
 62
     7
100
AcDbText
 10
5.9362635081
 20
53.4225120485
 30
0.0
 40
10.0
  1
Grohe AG^J
  7
SEACAD_seiso_ttf
 11
5.9362635081
 21
63.4225120485
 31
0.0
100
AcDbText
 73
     3
  0
TEXT
  5
102
330
1F
100
AcDbEntity
  8
Default
  6
Continuous
 62
     7
100
AcDbText
 10
5.9362635081
 20
37.0588756849
 30
0.0
 40
10.0
  1
 
  7
SEACAD_seiso_ttf
 11
5.9362635081
 21
47.0588756849
 31
0.0
100
AcDbText
 73
     3
  0
TEXT
  5
103
330
1F
100
AcDbEntity
  8
Default
  6
Continuous
 62
     7
100
AcDbText
 10
5.9362635081
 20
20.6952393213
 30
0.0
 40
10.0
  1
ecn: 
  7
SEACAD_seiso_ttf
 11
5.9362635081
 21
30.6952393213
 31
0.0
100
AcDbText
 73
     3
  0
TEXT
  5
104
330
1F
100
AcDbEntity
  8
Default
  6
Continuous
 62
     7
100
AcDbText
 10
5.9362635081
 20
4.3316029576
 30
0.0
 40
10.0
  1
unit: mm
  7
SEACAD_seiso_ttf
 11
5.9362635081
 21
14.3316029576
 31
0.0
100
AcDbText
 73
     3
  0
LINE
  5
105
330
1F
100
AcDbEntity
  8
Default
  6
Continuous
 62
     7
100
AcDbLine
 10
0.0
 20
0.0
 30
0.0
 11
100.0
 21
0.0
 31
0.0
  0
LINE
  5
106
330
1F
100
AcDbEntity
  8
Default
  6
Continuous
 62
     7
100
AcDbLine
 10
0.0
 20
0.0
 30
0.0
 11
0.0
 21
100.0
 31
0.0
  0
TEXT
  5
107
330
1F
100
AcDbEntity
  8
Default
  6
Continuous
 62
     7
100
AcDbText
 10
24.3923665681
 20
-18.2375342018
 30
0.0
 40
10.0
  1
100 mm
  7
SEACAD_seiso_ttf
 11
24.3923665681
 21
-8.2375342018
 31
0.0
100
AcDbText
 73
     3
  0
TEXT
  5
108
330
1F
100
AcDbEntity
  8
Default
  6
Continuous
 62
     7
100
AcDbText
 10
-7.6150308803
 20
24.6231930421
 30
0.0
 40
10.0
  1
100 mm
 50
90.0
  7
SEACAD_seiso_ttf
 11
-17.6150308803
 21
24.6231930421
 31
0.0
100
AcDbText
 73
     3
  0
TEXT
  5
109
330
1F
100
AcDbEntity
  8
Default
  6
Continuous
 62
     7
100
AcDbText
 10
28.4878128572
 20
20.0907663715
 30
0.0
 40
10.0
  1
218892
  7
SEACAD_seiso_ttf
 11
28.4878128572
 21
30.0907663715
 31
0.0
100
AcDbText
 73
     3
  0
TEXT
  5
10A
330
1F
100
AcDbEntity
  8
Default
  6
Continuous
 62
     7
100
AcDbText
 10
5.9012241913
 20
36.7242780188
 30
0.0
 40
10.0
  1
13276002
  7
SEACAD_seiso_ttf
 11
5.9012241913
 21
46.7242780188
 31
0.0
100
AcDbText
 73
     3
  0
ENDSEC
  0
SECTION
  2
OBJECTS
  0
DICTIONARY
  5
C
330
0
100
AcDbDictionary
281
     1
  3
ACAD_GROUP
350
D
  3
ACAD_LAYOUT
350
1A
  3
ACAD_MLEADERSTYLE
350
10E
  3
ACAD_MLINESTYLE
350
17
  3
ACAD_PLOTSETTINGS
350
19
  3
ACAD_PLOTSTYLENAME
350
E
  3
ACAD_SCALELIST
350
3B
  3
ACAD_TABLESTYLE
350
10D
  3
ACAD_VISUALSTYLE
350
2A
  3
AcDbVariableDictionary
350
10B
  0
DICTIONARY
  5
D
102
{ACAD_REACTORS
330
C
102
}
330
C
100
AcDbDictionary
281
     1
  0
DICTIONARY
  5
1A
102
{ACAD_REACTORS
330
C
102
}
330
C
100
AcDbDictionary
281
     1
  3
Layout1
350
1E
  3
Model
350
22
  0
DICTIONARY
  5
10E
102
{ACAD_REACTORS
330
C
102
}
330
C
100
AcDbDictionary
281
     1
  0
DICTIONARY
  5
17
102
{ACAD_REACTORS
330
C
102
}
330
C
100
AcDbDictionary
281
     1
  3
Standard
350
18
  0
DICTIONARY
  5
19
102
{ACAD_REACTORS
330
C
102
}
330
C
100
AcDbDictionary
281
     1
  0
ACDBDICTIONARYWDFLT
  5
E
102
{ACAD_REACTORS
330
C
102
}
330
C
100
AcDbDictionary
281
     1
  3
Normal
350
F
100
AcDbDictionaryWithDefault
340
F
  0
DICTIONARY
  5
3B
102
{ACAD_REACTORS
330
C
102
}
330
C
100
AcDbDictionary
281
     1
  3
A0
350
3C
  3
A1
350
3D
  3
A2
350
3E
  3
A3
350
3F
  3
A4
350
40
  3
A5
350
41
  3
A6
350
42
  3
A7
350
43
  3
A8
350
44
  3
A9
350
45
  3
B0
350
46
  3
B1
350
47
  3
B2
350
48
  3
B3
350
49
  3
B4
350
4A
  3
B5
350
4B
  3
B6
350
4C
  3
B7
350
4D
  3
B8
350
4E
  3
B9
350
4F
  3
C0
350
50
  3
C1
350
51
  3
C2
350
52
  3
C3
350
53
  3
C4
350
54
  3
C5
350
55
  3
C6
350
56
  3
C7
350
57
  3
C8
350
58
  3
C9
350
59
  3
D0
350
5A
  3
D1
350
5B
  3
D2
350
5C
  0
DICTIONARY
  5
10D
102
{ACAD_REACTORS
330
C
102
}
330
C
100
AcDbDictionary
281
     1
  0
DICTIONARY
  5
2A
102
{ACAD_REACTORS
330
C
102
}
330
C
100
AcDbDictionary
281
     1
  3
2dWireframe
350
2F
  3
3D Hidden
350
31
  3
3dWireframe
350
30
  3
Basic
350
32
  3
Brighten
350
36
  3
ColorChange
350
3A
  3
Conceptual
350
34
  3
Dim
350
35
  3
Facepattern
350
39
  3
Flat
350
2B
  3
FlatWithEdges
350
2C
  3
Gouraud
350
2D
  3
GouraudWithEdges
350
2E
  3
Linepattern
350
38
  3
Realistic
350
33
  3
Thicken
350
37
  0
DICTIONARY
  5
10B
102
{ACAD_REACTORS
330
C
102
}
330
C
100
AcDbDictionary
281
     1
  3
CANNOSCALE
350
10C
  3
PSOLHEIGHT
350
110
  3
PSOLWIDTH
350
10F
  0
LAYOUT
  5
1E
102
{ACAD_REACTORS
330
1A
102
}
330
1A
100
AcDbPlotSettings
  1

  2
none_device
  4

  6

 40
0.0
 41
0.0
 42
0.0
 43
0.0
 44
0.0
 45
0.0
 46
0.0
 47
0.0
 48
0.0
 49
0.0
140
0.0
141
0.0
142
1.0
143
1.0
 70
   688
 72
     0
 73
     0
 74
     5
  7

 75
    16
147
1.0
148
0.0
149
0.0
100
AcDbLayout
  1
Layout1
 70
     1
 71
     1
 10
0.0
 20
0.0
 11
1682.0
 21
2378.0
 12
0.0
 22
0.0
 32
0.0
 14
0.0
 24
0.0
 34
0.0
 15
1682.0
 25
2378.0
 35
0.0
146
0.0
 13
0.0
 23
0.0
 33
0.0
 16
1.0
 26
0.0
 36
0.0
 17
0.0
 27
1.0
 37
0.0
 76
     0
330
1B
  0
LAYOUT
  5
22
102
{ACAD_REACTORS
330
1A
102
}
330
1A
100
AcDbPlotSettings
  1

  2
none_device
  4

  6

 40
0.0
 41
0.0
 42
0.0
 43
0.0
 44
0.0
 45
0.0
 46
0.0
 47
0.0
 48
0.0
 49
0.0
140
0.0
141
0.0
142
1.0
143
1.0
 70
  1712
 72
     0
 73
     0
 74
     0
  7

 75
     0
147
1.0
148
0.0
149
0.0
100
AcDbLayout
  1
Model
 70
     1
 71
     0
 10
0.0
 20
0.0
 11
1682.0
 21
2378.0
 12
0.0
 22
0.0
 32
0.0
 14
0.0
 24
0.0
 34
0.0
 15
1682.0
 25
2378.0
 35
0.0
146
0.0
 13
0.0
 23
0.0
 33
0.0
 16
1.0
 26
0.0
 36
0.0
 17
0.0
 27
1.0
 37
0.0
 76
     0
330
1F
331
29
  0
MLINESTYLE
  5
18
102
{ACAD_REACTORS
330
17
102
}
330
17
100
AcDbMlineStyle
  2
Standard
 70
     0
  3

 62
   256
 51
90.0
 52
90.0
 71
     2
 49
0.5
 62
   256
  6
BYLAYER
 49
-0.5
 62
   256
  6
BYLAYER
  0
ACDBPLACEHOLDER
  5
F
102
{ACAD_REACTORS
330
E
102
}
330
E
  0
SCALE
  5
3C
102
{ACAD_REACTORS
330
3B
102
}
330
3B
100
AcDbScale
 70
     0
300
1:1
140
1.0
141
1.0
290
     1
  0
SCALE
  5
3D
102
{ACAD_REACTORS
330
3B
102
}
330
3B
100
AcDbScale
 70
     0
300
1:2
140
1.0
141
2.0
290
     0
  0
SCALE
  5
3E
102
{ACAD_REACTORS
330
3B
102
}
330
3B
100
AcDbScale
 70
     0
300
1:4
140
1.0
141
4.0
290
     0
  0
SCALE
  5
3F
102
{ACAD_REACTORS
330
3B
102
}
330
3B
100
AcDbScale
 70
     0
300
1:5
140
1.0
141
5.0
290
     0
  0
SCALE
  5
40
102
{ACAD_REACTORS
330
3B
102
}
330
3B
100
AcDbScale
 70
     0
300
1:8
140
1.0
141
8.0
290
     0
  0
SCALE
  5
41
102
{ACAD_REACTORS
330
3B
102
}
330
3B
100
AcDbScale
 70
     0
300
1:10
140
1.0
141
10.0
290
     0
  0
SCALE
  5
42
102
{ACAD_REACTORS
330
3B
102
}
330
3B
100
AcDbScale
 70
     0
300
1:16
140
1.0
141
16.0
290
     0
  0
SCALE
  5
43
102
{ACAD_REACTORS
330
3B
102
}
330
3B
100
AcDbScale
 70
     0
300
1:20
140
1.0
141
20.0
290
     0
  0
SCALE
  5
44
102
{ACAD_REACTORS
330
3B
102
}
330
3B
100
AcDbScale
 70
     0
300
1:30
140
1.0
141
30.0
290
     0
  0
SCALE
  5
45
102
{ACAD_REACTORS
330
3B
102
}
330
3B
100
AcDbScale
 70
     0
300
1:40
140
1.0
141
40.0
290
     0
  0
SCALE
  5
46
102
{ACAD_REACTORS
330
3B
102
}
330
3B
100
AcDbScale
 70
     0
300
1:50
140
1.0
141
50.0
290
     0
  0
SCALE
  5
47
102
{ACAD_REACTORS
330
3B
102
}
330
3B
100
AcDbScale
 70
     0
300
1:100
140
1.0
141
100.0
290
     0
  0
SCALE
  5
48
102
{ACAD_REACTORS
330
3B
102
}
330
3B
100
AcDbScale
 70
     0
300
2:1
140
2.0
141
1.0
290
     0
  0
SCALE
  5
49
102
{ACAD_REACTORS
330
3B
102
}
330
3B
100
AcDbScale
 70
     0
300
4:1
140
4.0
141
1.0
290
     0
  0
SCALE
  5
4A
102
{ACAD_REACTORS
330
3B
102
}
330
3B
100
AcDbScale
 70
     0
300
8:1
140
8.0
141
1.0
290
     0
  0
SCALE
  5
4B
102
{ACAD_REACTORS
330
3B
102
}
330
3B
100
AcDbScale
 70
     0
300
10:1
140
10.0
141
1.0
290
     0
  0
SCALE
  5
4C
102
{ACAD_REACTORS
330
3B
102
}
330
3B
100
AcDbScale
 70
     0
300
100:1
140
100.0
141
1.0
290
     0
  0
SCALE
  5
4D
102
{ACAD_REACTORS
330
3B
102
}
330
3B
100
AcDbScale
 70
     0
300
1/128" = 1'-0"
140
0.0078125
141
12.0
290
     0
  0
SCALE
  5
4E
102
{ACAD_REACTORS
330
3B
102
}
330
3B
100
AcDbScale
 70
     0
300
1/64" = 1'-0"
140
0.015625
141
12.0
290
     0
  0
SCALE
  5
4F
102
{ACAD_REACTORS
330
3B
102
}
330
3B
100
AcDbScale
 70
     0
300
1/32" = 1'-0"
140
0.03125
141
12.0
290
     0
  0
SCALE
  5
50
102
{ACAD_REACTORS
330
3B
102
}
330
3B
100
AcDbScale
 70
     0
300
1/16" = 1'-0"
140
0.0625
141
12.0
290
     0
  0
SCALE
  5
51
102
{ACAD_REACTORS
330
3B
102
}
330
3B
100
AcDbScale
 70
     0
300
3/32" = 1'-0"
140
0.09375
141
12.0
290
     0
  0
SCALE
  5
52
102
{ACAD_REACTORS
330
3B
102
}
330
3B
100
AcDbScale
 70
     0
300
1/8" = 1'-0"
140
0.125
141
12.0
290
     0
  0
SCALE
  5
53
102
{ACAD_REACTORS
330
3B
102
}
330
3B
100
AcDbScale
 70
     0
300
3/16" = 1'-0"
140
0.1875
141
12.0
290
     0
  0
SCALE
  5
54
102
{ACAD_REACTORS
330
3B
102
}
330
3B
100
AcDbScale
 70
     0
300
1/4" = 1'-0"
140
0.25
141
12.0
290
     0
  0
SCALE
  5
55
102
{ACAD_REACTORS
330
3B
102
}
330
3B
100
AcDbScale
 70
     0
300
3/8" = 1'-0"
140
0.375
141
12.0
290
     0
  0
SCALE
  5
56
102
{ACAD_REACTORS
330
3B
102
}
330
3B
100
AcDbScale
 70
     0
300
1/2" = 1'-0"
140
0.5
141
12.0
290
     0
  0
SCALE
  5
57
102
{ACAD_REACTORS
330
3B
102
}
330
3B
100
AcDbScale
 70
     0
300
3/4" = 1'-0"
140
0.75
141
12.0
290
     0
  0
SCALE
  5
58
102
{ACAD_REACTORS
330
3B
102
}
330
3B
100
AcDbScale
 70
     0
300
1" = 1'-0"
140
1.0
141
12.0
290
     0
  0
SCALE
  5
59
102
{ACAD_REACTORS
330
3B
102
}
330
3B
100
AcDbScale
 70
     0
300
1-1/2" = 1'-0"
140
1.5
141
12.0
290
     0
  0
SCALE
  5
5A
102
{ACAD_REACTORS
330
3B
102
}
330
3B
100
AcDbScale
 70
     0
300
3" = 1'-0"
140
3.0
141
12.0
290
     0
  0
SCALE
  5
5B
102
{ACAD_REACTORS
330
3B
102
}
330
3B
100
AcDbScale
 70
     0
300
6" = 1'-0"
140
6.0
141
12.0
290
     0
  0
SCALE
  5
5C
102
{ACAD_REACTORS
330
3B
102
}
330
3B
100
AcDbScale
 70
     0
300
1'-0" = 1'-0"
140
12.0
141
12.0
290
     0
  0
VISUALSTYLE
  5
2F
102
{ACAD_REACTORS
330
2A
102
}
330
2A
100
AcDbVisualStyle
  2
2dWireframe
 70
     4
 71
     0
 72
     2
 73
     0
 90
        0
 40
-0.6
 41
-30.0
 62
     5
 63
     7
 74
     1
 91
        4
 64
     7
 65
   257
 75
     1
175
     1
 42
1.0
 92
        0
 66
   257
 43
1.0
 76
     1
 77
     6
 78
     2
 67
     7
 79
     5
170
     0
171
     0
290
     0
174
     0
 93
        1
 44
0.0
173
     0
291
     0
 45
0.0
1001
ACAD
1000
AcDbSavedByObjectVersion
1070
     0
  0
VISUALSTYLE
  5
31
102
{ACAD_REACTORS
330
2A
102
}
330
2A
100
AcDbVisualStyle
  2
3D Hidden
 70
     6
 71
     1
 72
     2
 73
     2
 90
        0
 40
-0.6
 41
-30.0
 62
     5
 63
     7
 74
     2
 91
        2
 64
     7
 65
   257
 75
     2
175
     1
 42
40.0
 92
        0
 66
   257
 43
1.0
 76
     1
 77
     6
 78
     2
 67
     7
 79
     3
170
     0
171
     0
290
     0
174
     0
 93
        1
 44
0.0
173
     0
291
     0
 45
0.0
1001
ACAD
1000
AcDbSavedByObjectVersion
1070
     0
  0
VISUALSTYLE
  5
30
102
{ACAD_REACTORS
330
2A
102
}
330
2A
100
AcDbVisualStyle
  2
3dWireframe
 70
     5
 71
     0
 72
     2
 73
     0
 90
        0
 40
-0.6
 41
-30.0
 62
     5
 63
     7
 74
     1
 91
        4
 64
     7
 65
   257
 75
     1
175
     1
 42
1.0
 92
        0
 66
   257
 43
1.0
 76
     1
 77
     6
 78
     2
 67
     7
 79
     5
170
     0
171
     0
290
     0
174
     0
 93
        1
 44
0.0
173
     0
291
     0
 45
0.0
1001
ACAD
1000
AcDbSavedByObjectVersion
1070
     0
  0
VISUALSTYLE
  5
32
102
{ACAD_REACTORS
330
2A
102
}
330
2A
100
AcDbVisualStyle
  2
Basic
 70
     7
 71
     1
 72
     0
 73
     1
 90
        0
 40
-0.6
 41
-30.0
 62
     5
 63
     7
 74
     0
 91
        4
 64
     7
 65
   257
 75
     1
175
     1
 42
1.0
 92
        8
 66
     7
 43
1.0
 76
     1
 77
     6
 78
     2
 67
     7
 79
     5
170
     0
171
     0
290
     0
174
     0
 93
        1
 44
0.0
173
     0
291
     1
 45
0.0
1001
ACAD
1000
AcDbSavedByObjectVersion
1070
     0
  0
VISUALSTYLE
  5
36
102
{ACAD_REACTORS
330
2A
102
}
330
2A
100
AcDbVisualStyle
  2
Brighten
 70
    12
 71
     2
 72
     2
 73
     0
 90
        0
 40
-0.6
 41
-30.0
 62
     5
 63
     7
 74
     1
 91
        4
 64
     7
 65
   257
 75
     1
175
     1
 42
1.0
 92
        8
 66
     7
 43
1.0
 76
     1
 77
     6
 78
     2
 67
     7
 79
     5
170
     0
171
     0
290
     0
174
     0
 93
        1
 44
50.0
173
     0
291
     1
 45
0.0
1001
ACAD
1000
AcDbSavedByObjectVersion
1070
     0
  0
VISUALSTYLE
  5
3A
102
{ACAD_REACTORS
330
2A
102
}
330
2A
100
AcDbVisualStyle
  2
ColorChange
 70
    16
 71
     2
 72
     2
 73
     3
 90
        0
 40
-0.6
 41
-30.0
 62
     5
 63
     8
 74
     1
 91
        4
 64
     7
 65
   257
 75
     1
175
     1
 42
1.0
 92
        8
 66
     8
 43
1.0
 76
     1
 77
     6
 78
     2
 67
     7
 79
     5
170
     0
171
     0
290
     0
174
     0
 93
        1
 44
0.0
173
     0
291
     1
 45
0.0
1001
ACAD
1000
AcDbSavedByObjectVersion
1070
     0
  0
VISUALSTYLE
  5
34
102
{ACAD_REACTORS
330
2A
102
}
330
2A
100
AcDbVisualStyle
  2
Conceptual
 70
     9
 71
     3
 72
     2
 73
     0
 90
        0
 40
-0.6
 41
-30.0
 62
     5
 63
     7
 74
     2
 91
        2
 64
     7
 65
   257
 75
     1
175
     1
 42
40.0
 92
        8
 66
     7
 43
1.0
 76
     1
 77
     6
 78
     2
 67
     7
 79
     3
170
     0
171
     0
290
     0
174
     0
 93
        1
 44
0.0
173
     0
291
     0
 45
0.0
1001
ACAD
1000
AcDbSavedByObjectVersion
1070
     0
  0
VISUALSTYLE
  5
35
102
{ACAD_REACTORS
330
2A
102
}
330
2A
100
AcDbVisualStyle
  2
Dim
 70
    11
 71
     2
 72
     2
 73
     0
 90
        0
 40
-0.6
 41
-30.0
 62
     5
 63
     7
 74
     1
 91
        4
 64
     7
 65
   257
 75
     1
175
     1
 42
1.0
 92
        8
 66
     7
 43
1.0
 76
     1
 77
     6
 78
     2
 67
     7
 79
     5
170
     0
171
     0
290
     0
174
     0
 93
        1
 44
-50.0
173
     0
291
     1
 45
0.0
1001
ACAD
1000
AcDbSavedByObjectVersion
1070
     0
  0
VISUALSTYLE
  5
39
102
{ACAD_REACTORS
330
2A
102
}
330
2A
100
AcDbVisualStyle
  2
Facepattern
 70
    15
 71
     2
 72
     2
 73
     0
 90
        0
 40
-0.6
 41
-30.0
 62
     5
 63
     7
 74
     1
 91
        4
 64
     7
 65
   257
 75
     1
175
     1
 42
1.0
 92
        8
 66
     7
 43
1.0
 76
     1
 77
     6
 78
     2
 67
     7
 79
     5
170
     0
171
     0
290
     0
174
     0
 93
        1
 44
0.0
173
     0
291
     1
 45
0.0
1001
ACAD
1000
AcDbSavedByObjectVersion
1070
     0
  0
VISUALSTYLE
  5
2B
102
{ACAD_REACTORS
330
2A
102
}
330
2A
100
AcDbVisualStyle
  2
Flat
 70
     0
 71
     2
 72
     1
 73
     1
 90
        2
 40
-0.6
 41
30.0
 62
     5
 63
     7
 74
     0
 91
        4
 64
     7
 65
   257
 75
     1
175
     1
 42
1.0
 92
        8
 66
     7
 43
1.0
 76
     1
 77
     6
 78
     2
 67
     7
 79
     5
170
     0
171
     0
290
     0
174
     0
 93
       13
 44
0.0
173
     0
291
     1
 45
0.0
1001
ACAD
1000
AcDbSavedByObjectVersion
1070
     0
  0
VISUALSTYLE
  5
2C
102
{ACAD_REACTORS
330
2A
102
}
330
2A
100
AcDbVisualStyle
  2
FlatWithEdges
 70
     1
 71
     2
 72
     1
 73
     1
 90
        2
 40
-0.6
 41
30.0
 62
     5
 63
     7
 74
     1
 91
        4
 64
     7
 65
   257
 75
     1
175
     1
 42
1.0
 92
        0
 66
   257
 43
1.0
 76
     1
 77
     6
 78
     2
 67
     7
 79
     5
170
     0
171
     0
290
     0
174
     0
 93
       13
 44
0.0
173
     0
291
     1
 45
0.0
1001
ACAD
1000
AcDbSavedByObjectVersion
1070
     0
  0
VISUALSTYLE
  5
2D
102
{ACAD_REACTORS
330
2A
102
}
330
2A
100
AcDbVisualStyle
  2
Gouraud
 70
     2
 71
     2
 72
     2
 73
     1
 90
        2
 40
-0.6
 41
30.0
 62
     5
 63
     7
 74
     0
 91
        4
 64
     7
 65
   257
 75
     1
175
     1
 42
1.0
 92
        0
 66
     7
 43
1.0
 76
     1
 77
     6
 78
     2
 67
     7
 79
     5
170
     0
171
     0
290
     0
174
     0
 93
       13
 44
0.0
173
     0
291
     1
 45
0.0
1001
ACAD
1000
AcDbSavedByObjectVersion
1070
     0
  0
VISUALSTYLE
  5
2E
102
{ACAD_REACTORS
330
2A
102
}
330
2A
100
AcDbVisualStyle
  2
GouraudWithEdges
 70
     3
 71
     2
 72
     2
 73
     1
 90
        2
 40
-0.6
 41
30.0
 62
     5
 63
     7
 74
     1
 91
        4
 64
     7
 65
   257
 75
     1
175
     1
 42
1.0
 92
        0
 66
   257
 43
1.0
 76
     1
 77
     6
 78
     2
 67
     7
 79
     5
170
     0
171
     0
290
     0
174
     0
 93
       13
 44
0.0
173
     0
291
     1
 45
0.0
1001
ACAD
1000
AcDbSavedByObjectVersion
1070
     0
  0
VISUALSTYLE
  5
38
102
{ACAD_REACTORS
330
2A
102
}
330
2A
100
AcDbVisualStyle
  2
Linepattern
 70
    14
 71
     2
 72
     2
 73
     0
 90
        0
 40
-0.6
 41
-30.0
 62
     5
 63
     7
 74
     1
 91
        4
 64
     7
 65
   257
 75
     7
175
     7
 42
1.0
 92
        8
 66
     7
 43
1.0
 76
     1
 77
     6
 78
     2
 67
     7
 79
     5
170
     0
171
     0
290
     0
174
     0
 93
        1
 44
0.0
173
     0
291
     1
 45
0.0
1001
ACAD
1000
AcDbSavedByObjectVersion
1070
     0
  0
VISUALSTYLE
  5
33
102
{ACAD_REACTORS
330
2A
102
}
330
2A
100
AcDbVisualStyle
  2
Realistic
 70
     8
 71
     2
 72
     2
 73
     0
 90
        0
 40
-0.6
 41
-30.0
 62
     5
 63
     7
 74
     1
 91
        0
 64
     7
 65
   257
 75
     1
175
     1
 42
1.0
 92
        8
 66
     8
 43
1.0
 76
     1
 77
     6
 78
     2
 67
     7
 79
     5
170
     0
171
     0
290
     0
174
     0
 93
       13
 44
0.0
173
     0
291
     0
 45
0.0
1001
ACAD
1000
AcDbSavedByObjectVersion
1070
     0
  0
VISUALSTYLE
  5
37
102
{ACAD_REACTORS
330
2A
102
}
330
2A
100
AcDbVisualStyle
  2
Thicken
 70
    13
 71
     2
 72
     2
 73
     0
 90
        0
 40
-0.6
 41
-30.0
 62
     5
 63
     7
 74
     1
 91
        4
 64
     7
 65
   257
 75
     1
175
     1
 42
1.0
 92
       12
 66
     7
 43
1.0
 76
     1
 77
     6
 78
     2
 67
     7
 79
     5
170
     0
171
     0
290
     0
174
     0
 93
        1
 44
0.0
173
     0
291
     1
 45
0.0
1001
ACAD
1000
AcDbSavedByObjectVersion
1070
     0
  0
DICTIONARYVAR
  5
10C
102
{ACAD_REACTORS
330
10B
102
}
330
10B
100
DictionaryVariables
280
     0
  1
1:1
  0
DICTIONARYVAR
  5
110
102
{ACAD_REACTORS
330
10B
102
}
330
10B
100
DictionaryVariables
280
     0
  1
80.000000
  0
DICTIONARYVAR
  5
10F
102
{ACAD_REACTORS
330
10B
102
}
330
10B
100
DictionaryVariables
280
     0
  1
5.000000
  0
ENDSEC
  0
EOF
