  0
SECTION
  2
HEADER
  9
$ACADVER
  1
AC1015
  9
$ACADMAINTVER
 70
     6
  9
$DWGCODEPAGE
  3
ANSI_1252
  9
$INSBASE
 10
0.0
 20
0.0
 30
0.0
  9
$EXTMIN
 10
0.0
 20
0.0
 30
0.0
  9
$EXTMAX
 10
1682.0
 20
2378.0
 30
0.0
  9
$LIMMIN
 10
0.0
 20
0.0
  9
$LIMMAX
 10
1682.0
 20
2378.0
  9
$ORTHOMODE
 70
     0
  9
$REGENMODE
 70
     1
  9
$FILLMODE
 70
     1
  9
$QTEXTMODE
 70
     0
  9
$MIRRTEXT
 70
     1
  9
$LTSCALE
 40
1.0
  9
$ATTMODE
 70
     1
  9
$TEXTSIZE
 40
2.5
  9
$TRACEWID
 40
1.0
  9
$TEXTSTYLE
  7
Standard
  9
$CLAYER
  8
0
  9
$CELTYPE
  6
ByLayer
  9
$CECOLOR
 62
   256
  9
$CELTSCALE
 40
1.0
  9
$DISPSILH
 70
     0
  9
$DIMSCALE
 40
1.0
  9
$DIMASZ
 40
2.5
  9
$DIMEXO
 40
0.625
  9
$DIMDLI
 40
3.75
  9
$DIMRND
 40
0.0
  9
$DIMDLE
 40
0.0
  9
$DIMEXE
 40
1.25
  9
$DIMTP
 40
0.0
  9
$DIMTM
 40
0.0
  9
$DIMTXT
 40
2.5
  9
$DIMCEN
 40
2.5
  9
$DIMTSZ
 40
0.0
  9
$DIMTOL
 70
     0
  9
$DIMLIM
 70
     0
  9
$DIMTIH
 70
     0
  9
$DIMTOH
 70
     0
  9
$DIMSE1
 70
     0
  9
$DIMSE2
 70
     0
  9
$DIMTAD
 70
     1
  9
$DIMZIN
 70
     8
  9
$DIMBLK
  1

  9
$DIMASO
 70
     1
  9
$DIMSHO
 70
     1
  9
$DIMPOST
  1

  9
$DIMAPOST
  1

  9
$DIMALT
 70
     0
  9
$DIMALTD
 70
     3
  9
$DIMALTF
 40
0.0393700787
  9
$DIMLFAC
 40
1.0
  9
$DIMTOFL
 70
     1
  9
$DIMTVP
 40
0.0
  9
$DIMTIX
 70
     0
  9
$DIMSOXD
 70
     0
  9
$DIMSAH
 70
     0
  9
$DIMBLK1
  1

  9
$DIMBLK2
  1

  9
$DIMSTYLE
  2
ISO-25
  9
$DIMCLRD
 70
     0
  9
$DIMCLRE
 70
     0
  9
$DIMCLRT
 70
     0
  9
$DIMTFAC
 40
1.0
  9
$DIMGAP
 40
0.625
  9
$DIMJUST
 70
     0
  9
$DIMSD1
 70
     0
  9
$DIMSD2
 70
     0
  9
$DIMTOLJ
 70
     0
  9
$DIMTZIN
 70
     8
  9
$DIMALTZ
 70
     0
  9
$DIMALTTZ
 70
     0
  9
$DIMUPT
 70
     0
  9
$DIMDEC
 70
     2
  9
$DIMTDEC
 70
     2
  9
$DIMALTU
 70
     2
  9
$DIMALTTD
 70
     3
  9
$DIMTXSTY
  7
Standard
  9
$DIMAUNIT
 70
     0
  9
$DIMADEC
 70
     0
  9
$DIMALTRND
 40
0.0
  9
$DIMAZIN
 70
     0
  9
$DIMDSEP
 70
    44
  9
$DIMATFIT
 70
     3
  9
$DIMFRAC
 70
     0
  9
$DIMLDRBLK
  1

  9
$DIMLUNIT
 70
     2
  9
$DIMLWD
 70
    -2
  9
$DIMLWE
 70
    -2
  9
$DIMTMOVE
 70
     0
  9
$LUNITS
 70
     2
  9
$LUPREC
 70
     4
  9
$SKETCHINC
 40
1.0
  9
$FILLETRAD
 40
10.0
  9
$AUNITS
 70
     0
  9
$AUPREC
 70
     0
  9
$MENU
  1
.
  9
$ELEVATION
 40
0.0
  9
$PELEVATION
 40
0.0
  9
$THICKNESS
 40
0.0
  9
$LIMCHECK
 70
     0
  9
$CHAMFERA
 40
10.0
  9
$CHAMFERB
 40
10.0
  9
$CHAMFERC
 40
20.0
  9
$CHAMFERD
 40
0.0
  9
$SKPOLY
 70
     0
  9
$TDCREATE
 40
2455440.383386169
  9
$TDUCREATE
 40
2455440.300052836
  9
$TDUPDATE
 40
2455440.383386181
  9
$TDUUPDATE
 40
2455440.300052847
  9
$TDINDWG
 40
0.0000000116
  9
$TDUSRTIMER
 40
0.0000000116
  9
$USRTIMER
 70
     1
  9
$ANGBASE
 50
0.0
  9
$ANGDIR
 70
     0
  9
$PDMODE
 70
     0
  9
$PDSIZE
 40
0.0
  9
$PLINEWID
 40
0.0
  9
$SPLFRAME
 70
     0
  9
$SPLINETYPE
 70
     6
  9
$SPLINESEGS
 70
     8
  9
$HANDSEED
  5
288
  9
$SURFTAB1
 70
     6
  9
$SURFTAB2
 70
     6
  9
$SURFTYPE
 70
     6
  9
$SURFU
 70
     6
  9
$SURFV
 70
     6
  9
$UCSBASE
  2

  9
$UCSNAME
  2

  9
$UCSORG
 10
0.0
 20
0.0
 30
0.0
  9
$UCSXDIR
 10
1.0
 20
0.0
 30
0.0
  9
$UCSYDIR
 10
0.0
 20
1.0
 30
0.0
  9
$UCSORTHOREF
  2

  9
$UCSORTHOVIEW
 70
     0
  9
$UCSORGTOP
 10
0.0
 20
0.0
 30
0.0
  9
$UCSORGBOTTOM
 10
0.0
 20
0.0
 30
0.0
  9
$UCSORGLEFT
 10
0.0
 20
0.0
 30
0.0
  9
$UCSORGRIGHT
 10
0.0
 20
0.0
 30
0.0
  9
$UCSORGFRONT
 10
0.0
 20
0.0
 30
0.0
  9
$UCSORGBACK
 10
0.0
 20
0.0
 30
0.0
  9
$PUCSBASE
  2

  9
$PUCSNAME
  2

  9
$PUCSORG
 10
0.0
 20
0.0
 30
0.0
  9
$PUCSXDIR
 10
1.0
 20
0.0
 30
0.0
  9
$PUCSYDIR
 10
0.0
 20
1.0
 30
0.0
  9
$PUCSORTHOREF
  2

  9
$PUCSORTHOVIEW
 70
     0
  9
$PUCSORGTOP
 10
0.0
 20
0.0
 30
0.0
  9
$PUCSORGBOTTOM
 10
0.0
 20
0.0
 30
0.0
  9
$PUCSORGLEFT
 10
0.0
 20
0.0
 30
0.0
  9
$PUCSORGRIGHT
 10
0.0
 20
0.0
 30
0.0
  9
$PUCSORGFRONT
 10
0.0
 20
0.0
 30
0.0
  9
$PUCSORGBACK
 10
0.0
 20
0.0
 30
0.0
  9
$USERI1
 70
     0
  9
$USERI2
 70
     0
  9
$USERI3
 70
     0
  9
$USERI4
 70
     0
  9
$USERI5
 70
     0
  9
$USERR1
 40
0.0
  9
$USERR2
 40
0.0
  9
$USERR3
 40
0.0
  9
$USERR4
 40
0.0
  9
$USERR5
 40
0.0
  9
$WORLDVIEW
 70
     1
  9
$SHADEDGE
 70
     3
  9
$SHADEDIF
 70
    70
  9
$TILEMODE
 70
     1
  9
$MAXACTVP
 70
    64
  9
$PINSBASE
 10
0.0
 20
0.0
 30
0.0
  9
$PLIMCHECK
 70
     0
  9
$PEXTMIN
 10
0.0
 20
0.0
 30
0.0
  9
$PEXTMAX
 10
1682.0
 20
2378.0
 30
0.0
  9
$PLIMMIN
 10
0.0
 20
0.0
  9
$PLIMMAX
 10
1682.0
 20
2378.0
  9
$UNITMODE
 70
     0
  9
$VISRETAIN
 70
     1
  9
$PLINEGEN
 70
     0
  9
$PSLTSCALE
 70
     1
  9
$TREEDEPTH
 70
  3020
  9
$CMLSTYLE
  2
Standard
  9
$CMLJUST
 70
     0
  9
$CMLSCALE
 40
20.0
  9
$PROXYGRAPHICS
 70
     1
  9
$MEASUREMENT
 70
     1
  9
$CELWEIGHT
370
    -1
  9
$ENDCAPS
280
     0
  9
$JOINSTYLE
280
     0
  9
$LWDISPLAY
290
     0
  9
$INSUNITS
 70
     4
  9
$HYPERLINKBASE
  1

  9
$STYLESHEET
  1

  9
$XEDIT
290
     1
  9
$CEPSNTYPE
380
     0
  9
$PSTYLEMODE
290
     1
  9
$FINGERPRINTGUID
  2
{81558022-EDA6-47A1-957A-6172A7133528}
  9
$VERSIONGUID
  2
{FAEB1C32-E019-11D5-929B-00C0DF256EC4}
  9
$EXTNAMES
290
     1
  9
$PSVPSCALE
 40
0.0
  9
$OLESTARTUP
290
     0
  0
ENDSEC
  0
SECTION
  2
CLASSES
  0
CLASS
  1
ACDBDICTIONARYWDFLT
  2
AcDbDictionaryWithDefault
  3
ObjectDBX Classes
 90
        0
280
     0
281
     0
  0
CLASS
  1
VISUALSTYLE
  2
AcDbVisualStyle
  3
ObjectDBX Classes
 90
     4095
280
     0
281
     0
  0
CLASS
  1
SCALE
  2
AcDbScale
  3
ObjectDBX Classes
 90
     1153
280
     0
281
     0
  0
CLASS
  1
DICTIONARYVAR
  2
AcDbDictionaryVar
  3
ObjectDBX Classes
 90
        0
280
     0
281
     0
  0
CLASS
  1
ACDBPLACEHOLDER
  2
AcDbPlaceHolder
  3
ObjectDBX Classes
 90
        0
280
     0
281
     0
  0
CLASS
  1
LAYOUT
  2
AcDbLayout
  3
ObjectDBX Classes
 90
        0
280
     0
281
     0
  0
ENDSEC
  0
SECTION
  2
TABLES
  0
TABLE
  2
VPORT
  5
8
330
0
100
AcDbSymbolTable
 70
     1
  0
VPORT
  5
29
330
8
100
AcDbSymbolTableRecord
100
AcDbViewportTableRecord
  2
*Active
 70
     0
 10
0.0
 20
0.0
 11
1.0
 21
1.0
 12
344.1869158879
 22
148.5
 13
0.0
 23
0.0
 14
10.0
 24
10.0
 15
10.0
 25
10.0
 16
0.0
 26
0.0
 36
1.0
 17
0.0
 27
0.0
 37
0.0
 40
297.0
 41
1.9729729729
 42
50.0
 43
0.0
 44
0.0
 50
0.0
 51
0.0
 71
     0
 72
   100
 73
     1
 74
     3
 75
     0
 76
     0
 77
     0
 78
     0
281
     0
 65
     1
110
0.0
120
0.0
130
0.0
111
1.0
121
0.0
131
0.0
112
0.0
122
1.0
132
0.0
 79
     0
146
0.0
  0
ENDTAB
  0
TABLE
  2
LTYPE
  5
5
330
0
100
AcDbSymbolTable
 70
     2
  0
LTYPE
  5
14
330
5
100
AcDbSymbolTableRecord
100
AcDbLinetypeTableRecord
  2
ByBlock
 70
     0
  3

 72
    65
 73
     0
 40
0.0
  0
LTYPE
  5
15
330
5
100
AcDbSymbolTableRecord
100
AcDbLinetypeTableRecord
  2
ByLayer
 70
     0
  3

 72
    65
 73
     0
 40
0.0
  0
LTYPE
  5
16
330
5
100
AcDbSymbolTableRecord
100
AcDbLinetypeTableRecord
  2
Continuous
 70
     0
  3
Solid line
 72
    65
 73
     0
 40
0.0
  0
LTYPE
  5
60
330
5
100
AcDbSymbolTableRecord
100
AcDbLinetypeTableRecord
  2
CENTER2
 70
     0
  3
Center (.5x) ___ _ ___ _ ___ _ ___ _ ___ _ ___
 72
    65
 73
     4
 40
28.575
 49
19.05
 74
     4
 75
     0
340
0
 46
0.0
 50
0.0
 44
0.0
 45
0.0
 49
-3.175
 74
     4
 75
     0
340
0
 46
0.0
 50
0.0
 44
0.0
 45
0.0
 49
3.175
 74
     4
 75
     0
340
0
 46
0.0
 50
0.0
 44
0.0
 45
0.0
 49
-3.175
 74
     4
 75
     0
340
0
 46
0.0
 50
0.0
 44
0.0
 45
0.0
  0
ENDTAB
  0
TABLE
  2
LAYER
  5
2
330
0
100
AcDbSymbolTable
 70
    14
  0
LAYER
  5
10
330
2
100
AcDbSymbolTableRecord
100
AcDbLayerTableRecord
  2
0
 70
     0
 62
     7
  6
Continuous
370
    -3
390
F
  0
LAYER
  5
5D
330
2
100
AcDbSymbolTableRecord
100
AcDbLayerTableRecord
  2
Default
 70
     0
 62
     7
  6
Continuous
370
    -3
390
F
  0
LAYER
  5
93
330
2
100
AcDbSymbolTableRecord
100
AcDbLayerTableRecord
  2
$DDT_AUDIT_GENERATED_(93)
 70
     0
 62
     7
  6
Continuous
370
    -3
390
F
  0
LAYER
  5
D1
330
2
100
AcDbSymbolTableRecord
100
AcDbLayerTableRecord
  2
$DDT_AUDIT_GENERATED_(D1)
 70
     0
 62
     7
  6
Continuous
370
    -3
390
F
  0
LAYER
  5
D8
330
2
100
AcDbSymbolTableRecord
100
AcDbLayerTableRecord
  2
A4225108_211188_
 70
     0
 62
     7
  6
Continuous
370
    -3
390
F
  0
LAYER
  5
DF
330
2
100
AcDbSymbolTableRecord
100
AcDbLayerTableRecord
  2
A4225112_211188_
 70
     0
 62
     7
  6
Continuous
370
    -3
390
F
  0
LAYER
  5
E2
330
2
100
AcDbSymbolTableRecord
100
AcDbLayerTableRecord
  2
$DDT_AUDIT_GENERATED_(E2)
 70
     0
 62
     7
  6
Continuous
370
    -3
390
F
  0
LAYER
  5
F1
330
2
100
AcDbSymbolTableRecord
100
AcDbLayerTableRecord
  2
$DDT_AUDIT_GENERATED_(F1)
 70
     0
 62
     7
  6
Continuous
370
    -3
390
F
  0
LAYER
  5
FB
330
2
100
AcDbSymbolTableRecord
100
AcDbLayerTableRecord
  2
$DDT_AUDIT_GENERATED_(FB)
 70
     0
 62
     7
  6
Continuous
370
    -3
390
F
  0
LAYER
  5
FD
330
2
100
AcDbSymbolTableRecord
100
AcDbLayerTableRecord
  2
$DDT_AUDIT_GENERATED_(FD)
 70
     0
 62
     7
  6
Continuous
370
    -3
390
F
  0
LAYER
  5
126
330
2
100
AcDbSymbolTableRecord
100
AcDbLayerTableRecord
  2
$DDT_AUDIT_GENERATED_(126)
 70
     0
 62
     7
  6
Continuous
370
    -3
390
F
  0
LAYER
  5
12D
330
2
100
AcDbSymbolTableRecord
100
AcDbLayerTableRecord
  2
$DDT_AUDIT_GENERATED_(12D)
 70
     0
 62
     7
  6
Continuous
370
    -3
390
F
  0
LAYER
  5
1AD
330
2
100
AcDbSymbolTableRecord
100
AcDbLayerTableRecord
  2
$DDT_AUDIT_GENERATED_(1AD)
 70
     0
 62
     7
  6
Continuous
370
    -3
390
F
  0
LAYER
  5
25E
330
2
100
AcDbSymbolTableRecord
100
AcDbLayerTableRecord
  2
$DDT_AUDIT_GENERATED_(25E)
 70
     0
 62
     7
  6
Continuous
370
    -3
390
F
  0
ENDTAB
  0
TABLE
  2
STYLE
  5
3
330
0
100
AcDbSymbolTable
 70
     2
  0
STYLE
  5
11
330
3
100
AcDbSymbolTableRecord
100
AcDbTextStyleTableRecord
  2
Standard
 70
     0
 40
0.0
 41
1.0
 50
0.0
 71
     0
 42
2.5
  3
txt
  4

  0
STYLE
  5
277
330
3
100
AcDbSymbolTableRecord
100
AcDbTextStyleTableRecord
  2
SEACAD_seiso_ttf
 70
     0
 40
0.0
 41
1.0
 50
0.0
 71
     0
 42
0.2
  3
seiso.ttf
  4

  0
ENDTAB
  0
TABLE
  2
VIEW
  5
6
330
0
100
AcDbSymbolTable
 70
     0
  0
ENDTAB
  0
TABLE
  2
UCS
  5
7
330
0
100
AcDbSymbolTable
 70
     0
  0
ENDTAB
  0
TABLE
  2
APPID
  5
9
330
0
100
AcDbSymbolTable
 70
     1
  0
APPID
  5
12
330
9
100
AcDbSymbolTableRecord
100
AcDbRegAppTableRecord
  2
ACAD
 70
     0
  0
ENDTAB
  0
TABLE
  2
DIMSTYLE
  5
A
330
0
100
AcDbSymbolTable
 70
     1
100
AcDbDimStyleTable
  0
DIMSTYLE
105
27
330
A
100
AcDbSymbolTableRecord
100
AcDbDimStyleTableRecord
  2
ISO-25
 70
     0
 41
2.5
 42
0.625
 43
3.75
 44
1.25
 73
     0
 74
     0
 77
     1
 78
     8
140
2.5
141
2.5
143
0.0393700787
147
0.625
171
     3
172
     1
271
     2
272
     2
274
     3
278
    44
283
     0
284
     8
340
11
  0
ENDTAB
  0
TABLE
  2
BLOCK_RECORD
  5
1
330
0
100
AcDbSymbolTable
 70
    11
  0
BLOCK_RECORD
  5
1F
330
1
100
AcDbSymbolTableRecord
100
AcDbBlockTableRecord
  2
*Model_Space
340
22
  0
BLOCK_RECORD
  5
1B
330
1
100
AcDbSymbolTableRecord
100
AcDbBlockTableRecord
  2
*Paper_Space
340
1E
  0
BLOCK_RECORD
  5
5E
330
1
100
AcDbSymbolTableRecord
100
AcDbBlockTableRecord
  2
SEANNOT_GROUP
340
0
102
{BLKREFS
331
5F
102
}
  0
BLOCK_RECORD
  5
65
330
1
100
AcDbSymbolTableRecord
100
AcDbBlockTableRecord
  2
SEANNOT_GROUP1
340
0
102
{BLKREFS
331
66
102
}
  0
BLOCK_RECORD
  5
6B
330
1
100
AcDbSymbolTableRecord
100
AcDbBlockTableRecord
  2
SEANNOT_GROUP2
340
0
102
{BLKREFS
331
6C
102
}
  0
BLOCK_RECORD
  5
71
330
1
100
AcDbSymbolTableRecord
100
AcDbBlockTableRecord
  2
SEANNOT_GROUP3
340
0
102
{BLKREFS
331
72
102
}
  0
BLOCK_RECORD
  5
7B
330
1
100
AcDbSymbolTableRecord
100
AcDbBlockTableRecord
  2
SEANNOT_GROUP4
340
0
102
{BLKREFS
331
7C
102
}
  0
BLOCK_RECORD
  5
85
330
1
100
AcDbSymbolTableRecord
100
AcDbBlockTableRecord
  2
SEANNOT_GROUP5
340
0
102
{BLKREFS
331
86
102
}
  0
BLOCK_RECORD
  5
8B
330
1
100
AcDbSymbolTableRecord
100
AcDbBlockTableRecord
  2
SEANNOT_GROUP6
340
0
102
{BLKREFS
331
8C
102
}
  0
BLOCK_RECORD
  5
91
330
1
100
AcDbSymbolTableRecord
100
AcDbBlockTableRecord
  2
SE
340
0
102
{BLKREFS
331
92
102
}
  0
BLOCK_RECORD
  5
144
330
1
100
AcDbSymbolTableRecord
100
AcDbBlockTableRecord
  2
SE1
340
0
102
{BLKREFS
331
145
102
}
  0
BLOCK_RECORD
  5
1F8
330
1
100
AcDbSymbolTableRecord
100
AcDbBlockTableRecord
  2
SE2
340
0
102
{BLKREFS
331
1F9
102
}
  0
ENDTAB
  0
ENDSEC
  0
SECTION
  2
BLOCKS
  0
BLOCK
  5
20
330
1F
100
AcDbEntity
  8
0
100
AcDbBlockBegin
  2
*Model_Space
 70
     0
 10
0.0
 20
0.0
 30
0.0
  3
*Model_Space
  1

  0
ENDBLK
  5
21
330
1F
100
AcDbEntity
  8
0
100
AcDbBlockEnd
  0
BLOCK
  5
1C
330
1B
100
AcDbEntity
 67
     1
  8
0
100
AcDbBlockBegin
  2
*Paper_Space
 70
     0
 10
0.0
 20
0.0
 30
0.0
  3
*Paper_Space
  1

  0
ENDBLK
  5
1D
330
1B
100
AcDbEntity
 67
     1
  8
0
100
AcDbBlockEnd
  0
BLOCK
  5
63
330
5E
100
AcDbEntity
  8
0
100
AcDbBlockBegin
  2
SEANNOT_GROUP
 70
     0
 10
0.0
 20
0.0
 30
0.0
  3
SEANNOT_GROUP
  1

  0
LINE
  5
61
330
5E
100
AcDbEntity
  8
Default
  6
CENTER2
 62
     7
100
AcDbLine
 10
122.8099855319
 20
443.1653152237
 30
0.0
 11
82.809986426
 21
443.1653152237
 31
0.0
  0
LINE
  5
62
330
5E
100
AcDbEntity
  8
Default
  6
CENTER2
 62
     7
100
AcDbLine
 10
102.8099859789
 20
463.1653147766
 30
0.0
 11
102.8099859789
 21
423.1653156707
 31
0.0
  0
ENDBLK
  5
64
330
5E
100
AcDbEntity
  8
0
100
AcDbBlockEnd
  0
BLOCK
  5
69
330
65
100
AcDbEntity
  8
0
100
AcDbBlockBegin
  2
SEANNOT_GROUP1
 70
     0
 10
0.0
 20
0.0
 30
0.0
  3
SEANNOT_GROUP1
  1

  0
LINE
  5
67
330
65
100
AcDbEntity
  8
Default
  6
CENTER2
 62
     7
100
AcDbLine
 10
272.8099855319
 20
443.1653152237
 30
0.0
 11
232.809986426
 21
443.1653152237
 31
0.0
  0
LINE
  5
68
330
65
100
AcDbEntity
  8
Default
  6
CENTER2
 62
     7
100
AcDbLine
 10
252.8099859789
 20
463.1653147766
 30
0.0
 11
252.8099859789
 21
423.1653156707
 31
0.0
  0
ENDBLK
  5
6A
330
65
100
AcDbEntity
  8
0
100
AcDbBlockEnd
  0
BLOCK
  5
6F
330
6B
100
AcDbEntity
  8
0
100
AcDbBlockBegin
  2
SEANNOT_GROUP2
 70
     0
 10
0.0
 20
0.0
 30
0.0
  3
SEANNOT_GROUP2
  1

  0
LINE
  5
6D
330
6B
100
AcDbEntity
  8
Default
  6
CENTER2
 62
     7
100
AcDbLine
 10
396.9368984415
 20
443.1653152237
 30
0.0
 11
356.9368993355
 21
443.1653152237
 31
0.0
  0
LINE
  5
6E
330
6B
100
AcDbEntity
  8
Default
  6
CENTER2
 62
     7
100
AcDbLine
 10
376.9368988885
 20
463.1653147766
 30
0.0
 11
376.9368988885
 21
423.1653156707
 31
0.0
  0
ENDBLK
  5
70
330
6B
100
AcDbEntity
  8
0
100
AcDbBlockEnd
  0
BLOCK
  5
79
330
71
100
AcDbEntity
  8
0
100
AcDbBlockBegin
  2
SEANNOT_GROUP3
 70
     0
 10
0.0
 20
0.0
 30
0.0
  3
SEANNOT_GROUP3
  1

  0
LINE
  5
73
330
71
100
AcDbEntity
  8
Default
  6
CENTER2
 62
     7
100
AcDbLine
 10
122.8099855319
 20
313.9755810892
 30
0.0
 11
82.809986426
 21
313.9755810892
 31
0.0
  0
LINE
  5
74
330
71
100
AcDbEntity
  8
Default
  6
CENTER2
 62
     7
100
AcDbLine
 10
102.8099859789
 20
333.9755806422
 30
0.0
 11
102.8099859789
 21
293.9755815363
 31
0.0
  0
LINE
  5
75
330
71
100
AcDbEntity
  8
Default
  6
CENTER2
 62
     7
100
AcDbLine
 10
127.8099854201
 20
313.9755810892
 30
0.0
 11
130.3099859789
 21
313.9755810892
 31
0.0
  0
LINE
  5
76
330
71
100
AcDbEntity
  8
Default
  6
CENTER2
 62
     7
100
AcDbLine
 10
102.8099859789
 20
338.9755805304
 30
0.0
 11
102.8099859789
 21
341.4755810892
 31
0.0
  0
LINE
  5
77
330
71
100
AcDbEntity
  8
Default
  6
CENTER2
 62
     7
100
AcDbLine
 10
77.8099865377
 20
313.9755810892
 30
0.0
 11
75.3099859789
 21
313.9755810892
 31
0.0
  0
LINE
  5
78
330
71
100
AcDbEntity
  8
Default
  6
CENTER2
 62
     7
100
AcDbLine
 10
102.8099859789
 20
288.975581648
 30
0.0
 11
102.8099859789
 21
286.4755810892
 31
0.0
  0
ENDBLK
  5
7A
330
71
100
AcDbEntity
  8
0
100
AcDbBlockEnd
  0
BLOCK
  5
83
330
7B
100
AcDbEntity
  8
0
100
AcDbBlockBegin
  2
SEANNOT_GROUP4
 70
     0
 10
0.0
 20
0.0
 30
0.0
  3
SEANNOT_GROUP4
  1

  0
LINE
  5
7D
330
7B
100
AcDbEntity
  8
Default
  6
CENTER2
 62
     7
100
AcDbLine
 10
272.8099855319
 20
313.9755810892
 30
0.0
 11
232.809986426
 21
313.9755810892
 31
0.0
  0
LINE
  5
7E
330
7B
100
AcDbEntity
  8
Default
  6
CENTER2
 62
     7
100
AcDbLine
 10
252.8099859789
 20
333.9755806422
 30
0.0
 11
252.8099859789
 21
293.9755815363
 31
0.0
  0
LINE
  5
7F
330
7B
100
AcDbEntity
  8
Default
  6
CENTER2
 62
     7
100
AcDbLine
 10
277.8099854201
 20
313.9755810892
 30
0.0
 11
278.8099859789
 21
313.9755810892
 31
0.0
  0
LINE
  5
80
330
7B
100
AcDbEntity
  8
Default
  6
CENTER2
 62
     7
100
AcDbLine
 10
252.8099859789
 20
338.9755805304
 30
0.0
 11
252.8099859789
 21
339.9755810892
 31
0.0
  0
LINE
  5
81
330
7B
100
AcDbEntity
  8
Default
  6
CENTER2
 62
     7
100
AcDbLine
 10
227.8099865377
 20
313.9755810892
 30
0.0
 11
226.8099859789
 21
313.9755810892
 31
0.0
  0
LINE
  5
82
330
7B
100
AcDbEntity
  8
Default
  6
CENTER2
 62
     7
100
AcDbLine
 10
252.8099859789
 20
288.975581648
 30
0.0
 11
252.8099859789
 21
287.9755810892
 31
0.0
  0
ENDBLK
  5
84
330
7B
100
AcDbEntity
  8
0
100
AcDbBlockEnd
  0
BLOCK
  5
89
330
85
100
AcDbEntity
  8
0
100
AcDbBlockBegin
  2
SEANNOT_GROUP5
 70
     0
 10
0.0
 20
0.0
 30
0.0
  3
SEANNOT_GROUP5
  1

  0
LINE
  5
87
330
85
100
AcDbEntity
  8
Default
  6
CENTER2
 62
     7
100
AcDbLine
 10
197.8099855319
 20
484.9453152237
 30
0.0
 11
157.809986426
 21
484.9453152237
 31
0.0
  0
LINE
  5
88
330
85
100
AcDbEntity
  8
Default
  6
CENTER2
 62
     7
100
AcDbLine
 10
177.8099859789
 20
504.9453147766
 30
0.0
 11
177.8099859789
 21
464.9453156707
 31
0.0
  0
ENDBLK
  5
8A
330
85
100
AcDbEntity
  8
0
100
AcDbBlockEnd
  0
BLOCK
  5
8F
330
8B
100
AcDbEntity
  8
0
100
AcDbBlockBegin
  2
SEANNOT_GROUP6
 70
     0
 10
0.0
 20
0.0
 30
0.0
  3
SEANNOT_GROUP6
  1

  0
LINE
  5
8D
330
8B
100
AcDbEntity
  8
Default
  6
CENTER2
 62
     7
100
AcDbLine
 10
538.0019360371
 20
484.9453152237
 30
0.0
 11
498.0019369312
 21
484.9453152237
 31
0.0
  0
LINE
  5
8E
330
8B
100
AcDbEntity
  8
Default
  6
CENTER2
 62
     7
100
AcDbLine
 10
518.0019364842
 20
504.9453147766
 30
0.0
 11
518.0019364842
 21
464.9453156707
 31
0.0
  0
ENDBLK
  5
90
330
8B
100
AcDbEntity
  8
0
100
AcDbBlockEnd
  0
BLOCK
  5
142
330
91
100
AcDbEntity
  8
0
100
AcDbBlockBegin
  2
SE
 70
     0
 10
0.0
 20
0.0
 30
0.0
  3
SE
  1

  0
ARC
  5
94
330
91
100
AcDbEntity
  8
$DDT_AUDIT_GENERATED_(93)
  6
Continuous
 62
     7
100
AcDbCircle
 10
184.4882319622
 20
532.1230643112
 30
0.0
 40
33.46046896534061
100
AcDbArc
 50
304.4359704156
 51
352.4245449524
  0
ARC
  5
95
330
91
100
AcDbEntity
  8
$DDT_AUDIT_GENERATED_(93)
  6
Continuous
 62
     7
100
AcDbCircle
 10
193.9811607994
 20
530.8075938077
 30
0.0
 40
23.8770303799459
100
AcDbArc
 50
352.550572538
 51
359.993445506
  0
SPLINE
  5
96
330
91
100
AcDbEntity
  8
$DDT_AUDIT_GENERATED_(93)
  6
Continuous
 62
     7
100
AcDbSpline
210
0.0
220
0.0
230
1.0
 70
     8
 71
     3
 72
    19
 73
    15
 74
     0
 42
0.0000000006768487
 43
0.0000000001
 40
0.0233745196286916
 40
0.0233745196286916
 40
0.0233745196286916
 40
0.0233745196286916
 40
0.041067960885057
 40
0.0770970253548168
 40
0.1092536501898075
 40
0.145012232006105
 40
0.1773792297606178
 40
0.1925072203172339
 40
0.2114518552472432
 40
0.2456663818284318
 40
0.2818376914114712
 40
0.3137323872998017
 40
0.3317722760208127
 40
0.3359265178069472
 40
0.3359265178069472
 40
0.3359265178069472
 40
0.3359265178069472
 10
157.7445699993176
 20
530.8059098640348
 30
0.0
 10
157.7445699995967
 20
530.8051134907431
 30
0.0
 10
157.7445700006457
 20
530.7828531955516
 30
0.0
 10
157.7445699859614
 20
530.6970801855614
 30
0.0
 10
157.7445700439623
 20
530.4698809828012
 30
0.0
 10
157.7445698181859
 20
530.1605221200365
 30
0.0
 10
157.744570467424
 20
529.7836433068745
 30
0.0
 10
157.7445691702006
 20
529.3698264579568
 30
0.0
 10
157.7445755072848
 20
528.8734895964895
 30
0.0
 10
157.7445296669056
 20
528.3003201956216
 30
0.0
 10
157.7447190392046
 20
527.6348834651822
 30
0.0
 10
157.7441753617226
 20
526.9848145300147
 30
0.0
 10
157.7451138859856
 20
526.4743910457381
 30
0.0
 10
157.7443110854601
 20
526.2345166638376
 30
0.0
 10
157.7442204016249
 20
526.188159441218
 30
0.0
  0
SPLINE
  5
97
330
91
100
AcDbEntity
  8
$DDT_AUDIT_GENERATED_(93)
  6
Continuous
 62
     7
100
AcDbSpline
210
0.0
220
0.0
230
1.0
 70
     8
 71
     3
 72
    18
 73
    14
 74
     0
 42
0.0000000006759899
 43
0.0000000001
 40
0.6644930714223728
 40
0.6644930714223728
 40
0.6644930714223728
 40
0.6644930714223728
 40
0.6867737008705601
 40
0.7182435028855199
 40
0.754742316027221
 40
0.7889047273765644
 40
0.8076852248561566
 40
0.8229359463191513
 40
0.8552605021967516
 40
0.8909964519390542
 40
0.923051699419086
 40
0.9591102724543327
 40
0.9771856160552663
 40
0.9771856160552663
 40
0.9771856160552663
 40
0.9771856160552663
 10
197.874918509734
 20
526.1960067058005
 30
0.0
 10
197.8739394324099
 20
526.4493758760449
 30
0.0
 10
197.8763699031374
 20
526.9602818376875
 30
0.0
 10
197.8750525674517
 20
527.6449132449569
 30
0.0
 10
197.8754962714791
 20
528.3098573833589
 30
0.0
 10
197.8753892519555
 20
528.8863740512619
 30
0.0
 10
197.8754039010567
 20
529.3775438501352
 30
0.0
 10
197.8754008647085
 20
529.7870491257868
 30
0.0
 10
197.8754023808362
 20
530.1631237511658
 30
0.0
 10
197.875401854467
 20
530.4723837318753
 30
0.0
 10
197.8754019895053
 20
530.702466998976
 30
0.0
 10
197.8754019550585
 20
530.7932025735706
 30
0.0
 10
197.8754019577262
 20
530.8195335849118
 30
0.0
 10
197.8754019583799
 20
530.8216962930005
 30
0.0
  0
SPLINE
  5
98
330
91
100
AcDbEntity
  8
$DDT_AUDIT_GENERATED_(93)
  6
Continuous
 62
     7
100
AcDbSpline
210
0.0
220
0.0
230
1.0
 70
     8
 71
     3
 72
     8
 73
     4
 74
     0
 42
0.0000000073152884
 43
0.0000000001
 40
0.0272806936319338
 40
0.0272806936319338
 40
0.0272806936319338
 40
0.0272806936319338
 40
0.0378148506507302
 40
0.0378148506507302
 40
0.0378148506507302
 40
0.0378148506507302
 10
197.8383213125731
 20
530.321030663471
 30
0.0
 10
197.83776041721
 20
530.3181912665455
 30
0.0
 10
197.8371953830818
 20
530.3132952628068
 30
0.0
 10
197.8366097909708
 20
530.3067439557121
 30
0.0
  0
SPLINE
  5
99
330
91
100
AcDbEntity
  8
$DDT_AUDIT_GENERATED_(93)
  6
Continuous
 62
     7
100
AcDbSpline
210
0.0
220
0.0
230
1.0
 70
     8
 71
     3
 72
    10
 73
     6
 74
     0
 42
0.0000000003508193
 43
0.0000000001
 40
0.3460591073810358
 40
0.3460591073810358
 40
0.3460591073810358
 40
0.3460591073810358
 40
0.3474060784032686
 40
0.3524805962796125
 40
0.3568340307426547
 40
0.3568340307426547
 40
0.3568340307426547
 40
0.3568340307426547
 10
197.7647745397957
 20
525.3531330266658
 30
0.0
 10
197.7648045269964
 20
525.3380239217247
 30
0.0
 10
197.7654781450974
 20
525.2687709011118
 30
0.0
 10
197.7721268525225
 20
525.1817341219461
 30
0.0
 10
197.7473433634772
 20
525.0950520468068
 30
0.0
 10
197.7281753896901
 20
525.0539798920338
 30
0.0
  0
SPLINE
  5
9A
330
91
100
AcDbEntity
  8
$DDT_AUDIT_GENERATED_(93)
  6
Continuous
 62
     7
100
AcDbSpline
210
0.0
220
0.0
230
1.0
 70
     8
 71
     3
 72
    33
 73
    29
 74
     0
 42
0.0000000000703191
 43
0.0000000001
 40
0.3568340307426547
 40
0.3568340307426547
 40
0.3568340307426547
 40
0.3568340307426547
 40
0.3589630610887016
 40
0.372135313486315
 40
0.3845804636340219
 40
0.3913465992822679
 40
0.3969297717396717
 40
0.4107205717208777
 40
0.4226319184726442
 40
0.4358654126415257
 40
0.4480904393360272
 40
0.4612242017020136
 40
0.4741339355947514
 40
0.4843960145186188
 40
0.4996471987813708
 40
0.5148855875403984
 40
0.5251276037692874
 40
0.5380651462183884
 40
0.5512782455166259
 40
0.5635197848396777
 40
0.5766196049515891
 40
0.5885806760998832
 40
0.6023610050335029
 40
0.6078906085084773
 40
0.6146901501057161
 40
0.6271558698017625
 40
0.640147880159321
 40
0.6431382323116391
 40
0.6431382323116391
 40
0.6431382323116391
 40
0.6431382323116391
 10
197.7281753896901
 20
525.0539798920338
 30
0.0
 10
197.7188013659828
 20
525.0338937130339
 30
0.0
 10
197.638153892179
 20
524.8877369559414
 30
0.0
 10
197.305748255027
 20
524.6124012698644
 30
0.0
 10
196.625382785841
 20
524.2759299375736
 30
0.0
 10
195.9660977410803
 20
524.0784591674757
 30
0.0
 10
195.184695457445
 20
523.9078227023356
 30
0.0
 10
194.0384657607042
 20
523.6378174572939
 30
0.0
 10
192.3008643247147
 20
523.2767929308366
 30
0.0
 10
190.3488180148449
 20
523.0132954298505
 30
0.0
 10
188.1177236587544
 20
522.7420961108658
 30
0.0
 10
185.7626336331168
 20
522.599047502327
 30
0.0
 10
183.376329086404
 20
522.5083926744271
 30
0.0
 10
180.7357023374212
 20
522.3339144639535
 30
0.0
 10
177.8824465998345
 20
522.3270382651157
 30
0.0
 10
175.0296207988875
 20
522.3311863526159
 30
0.0
 10
172.3851224087998
 20
522.5003608144707
 30
0.0
 10
169.9850027140865
 20
522.5930431052249
 30
0.0
 10
167.6144134498661
 20
522.7328975864164
 30
0.0
 10
165.3782658109191
 20
523.0001630071164
 30
0.0
 10
163.4169798649615
 20
523.2661324992523
 30
0.0
 10
161.6656212397412
 20
523.6205295635245
 30
0.0
 10
160.5059669436862
 20
523.8943076761378
 30
0.0
 10
159.7144534208186
 20
524.0631401838707
 30
0.0
 10
159.0453883086412
 20
524.2554025482691
 30
0.0
 10
158.3525957245193
 20
524.5905833994359
 30
0.0
 10
157.9968024940407
 20
524.8679138819399
 30
0.0
 10
157.9047429106615
 20
525.026553335846
 30
0.0
 10
157.8912554426136
 20
525.0554127842672
 30
0.0
  0
SPLINE
  5
9B
330
91
100
AcDbEntity
  8
$DDT_AUDIT_GENERATED_(93)
  6
Continuous
 62
     7
100
AcDbSpline
210
0.0
220
0.0
230
1.0
 70
     8
 71
     3
 72
    10
 73
     6
 74
     0
 42
0.0000000003538263
 43
0.0000000001
 40
0.6431382323116391
 40
0.6431382323116391
 40
0.6431382323116391
 40
0.6431382323116391
 40
0.6466527420556129
 40
0.6519701733215226
 40
0.6535924043895742
 40
0.6535924043895742
 40
0.6535924043895742
 40
0.6535924043895742
 10
157.8912554426136
 20
525.0554127842672
 30
0.0
 10
157.8754038520781
 20
525.089330800446
 30
0.0
 10
157.8485413028536
 20
525.1717114858121
 30
0.0
 10
157.8548755478419
 20
525.2495462779539
 30
0.0
 10
157.8552092142313
 20
525.3244820319376
 30
0.0
 10
157.8551617103676
 20
525.3428248827106
 30
0.0
  0
SPLINE
  5
9C
330
91
100
AcDbEntity
  8
$DDT_AUDIT_GENERATED_(93)
  6
Continuous
 62
     7
100
AcDbSpline
210
0.0
220
0.0
230
1.0
 70
     8
 71
     3
 72
    10
 73
     6
 74
     0
 42
0.000000002981469
 43
0.0000000001
 40
0.9116779885702408
 40
0.9116779885702408
 40
0.9116779885702408
 40
0.9116779885702408
 40
0.9251832453975435
 40
0.9589416804360509
 40
0.9703208428049316
 40
0.9703208428049316
 40
0.9703208428049316
 40
0.9703208428049316
 10
157.7917929519391
 20
530.1085098357788
 30
0.0
 10
157.7910456490121
 20
530.1343536125868
 30
0.0
 10
157.7883957860851
 20
530.2158049908616
 30
0.0
 10
157.7850360207445
 20
530.2801909118349
 30
0.0
 10
157.7825773590401
 20
530.3017820309558
 30
0.0
 10
157.7819600263383
 20
530.3048586193077
 30
0.0
  0
LINE
  5
9D
330
91
100
AcDbEntity
  8
$DDT_AUDIT_GENERATED_(93)
  6
Continuous
 62
     7
100
AcDbLine
 10
137.763013373
 20
530.7846217625
 30
0.0
 11
137.763013373
 21
536.8930452432
 31
0.0
  0
ARC
  5
9E
330
91
100
AcDbEntity
  8
$DDT_AUDIT_GENERATED_(93)
  6
Continuous
 62
     7
100
AcDbCircle
 10
161.6898357017
 20
530.7864140113
 30
0.0
 40
23.92682239577158
100
AcDbArc
 50
180.0042917647
 51
187.4247980651
  0
ARC
  5
9F
330
91
100
AcDbEntity
  8
$DDT_AUDIT_GENERATED_(93)
  6
Continuous
 62
     7
100
AcDbCircle
 10
178.2518995046
 20
-606.2663832378
 30
0.0
 40
1144.378869732906
100
AcDbArc
 50
86.9162410551
 51
88.6740456348
  0
ARC
  5
A0
330
91
100
AcDbEntity
  8
$DDT_AUDIT_GENERATED_(93)
  6
Continuous
 62
     7
100
AcDbCircle
 10
178.2518995046
 20
-606.2663832378
 30
0.0
 40
1144.378869732906
100
AcDbArc
 50
91.369264588
 51
95.3752903409
  0
ARC
  5
A1
330
91
100
AcDbEntity
  8
$DDT_AUDIT_GENERATED_(93)
  6
Continuous
 62
     7
100
AcDbCircle
 10
184.634450334
 20
-494.5903082643
 30
0.0
 40
1032.518219915916
100
AcDbArc
 50
84.4456179689
 51
88.155135122
  0
ARC
  5
A2
330
91
100
AcDbEntity
  8
$DDT_AUDIT_GENERATED_(93)
  6
Continuous
 62
     7
100
AcDbCircle
 10
153.2612516669
 20
213.6364088629
 30
0.0
 40
324.1278744887554
100
AcDbArc
 50
89.1255394351
 51
92.7435745204
  0
ARC
  5
A3
330
91
100
AcDbEntity
  8
$DDT_AUDIT_GENERATED_(93)
  6
Continuous
 62
     7
100
AcDbCircle
 10
202.9467398268
 20
249.7694214568
 30
0.0
 40
288.0104221337115
100
AcDbArc
 50
87.0289478177
 51
91.095516631
  0
LINE
  5
A4
330
91
100
AcDbEntity
  8
$DDT_AUDIT_GENERATED_(93)
  6
Continuous
 62
     7
100
AcDbLine
 10
217.8581912145
 20
536.8930041655
 30
0.0
 11
217.8581912145
 21
530.8048623351
 31
0.0
  0
ARC
  5
A5
330
91
100
AcDbEntity
  8
$DDT_AUDIT_GENERATED_(93)
  6
Continuous
 62
     7
100
AcDbCircle
 10
144.3175467298
 20
508.3169411338
 30
0.0
 40
19.99368601463243
100
AcDbArc
 50
0.0222403126
 51
28.0690964983
  0
ARC
  5
A6
330
91
100
AcDbEntity
  8
$DDT_AUDIT_GENERATED_(93)
  6
Continuous
 62
     7
100
AcDbCircle
 10
211.3098898193
 20
508.3341440427
 30
0.0
 40
20.0050850859163
100
AcDbArc
 50
151.9328330014
 51
180.0045283737
  0
LINE
  5
A7
330
91
100
AcDbEntity
  8
$DDT_AUDIT_GENERATED_(93)
  6
Continuous
 62
     7
100
AcDbLine
 10
188.9705118342
 20
504.1653152237
 30
0.0
 11
166.7523696298
 21
504.1653152237
 31
0.0
  0
LINE
  5
A8
330
91
100
AcDbEntity
  8
$DDT_AUDIT_GENERATED_(93)
  6
Continuous
 62
     7
100
AcDbLine
 10
189.2516995981
 20
504.1653152237
 30
0.0
 11
188.970511834
 21
504.1653152237
 31
0.0
  0
LINE
  5
A9
330
91
100
AcDbEntity
  8
$DDT_AUDIT_GENERATED_(93)
  6
Continuous
 62
     7
100
AcDbLine
 10
191.0099859789
 20
504.1653152237
 30
0.0
 11
189.2516955226
 21
504.1653152237
 31
0.0
  0
LINE
  5
AA
330
91
100
AcDbEntity
  8
$DDT_AUDIT_GENERATED_(93)
  6
Continuous
 62
     7
100
AcDbLine
 10
166.7523696221
 20
504.1653152237
 30
0.0
 11
166.4535873159
 21
504.1653152237
 31
0.0
  0
LINE
  5
AB
330
91
100
AcDbEntity
  8
$DDT_AUDIT_GENERATED_(93)
  6
Continuous
 62
     7
100
AcDbLine
 10
166.4535922791
 20
504.1653152237
 30
0.0
 11
164.6099859789
 21
504.1653152237
 31
0.0
  0
ARC
  5
AC
330
91
100
AcDbEntity
  8
$DDT_AUDIT_GENERATED_(93)
  6
Continuous
 62
     7
100
AcDbCircle
 10
182.4661939976
 20
571.037530094
 30
0.0
 40
69.73074739483667
100
AcDbArc
 50
274.6035403721
 51
287.4781442369
  0
SPLINE
  5
AD
330
91
100
AcDbEntity
  8
$DDT_AUDIT_GENERATED_(93)
  6
Continuous
 62
     7
100
AcDbSpline
210
0.0
220
0.0
230
1.0
 70
     8
 71
     3
 72
    32
 73
    28
 74
     0
 42
0.0000000000929606
 43
0.0000000001
 40
0.0000031732430138
 40
0.0000031732430138
 40
0.0000031732430138
 40
0.0000031732430138
 40
0.2500000000000003
 40
0.2500000000000003
 40
0.3750000000000006
 40
0.3750000000000006
 40
0.5000000000000009
 40
0.5000000000000009
 40
0.5312500000000011
 40
0.5312500000000011
 40
0.5468750000000011
 40
0.5468750000000011
 40
0.562500000000001
 40
0.562500000000001
 40
0.5937500000000009
 40
0.5937500000000009
 40
0.6250000000000009
 40
0.6250000000000009
 40
0.6562500000000008
 40
0.6562500000000008
 40
0.6875000000000007
 40
0.6875000000000007
 40
0.7187500000000007
 40
0.7187500000000007
 40
0.7500000000000006
 40
0.7500000000000006
 40
0.7597973193596969
 40
0.7597973193596969
 40
0.7597973193596969
 40
0.7597973193596969
 10
203.4100062113133
 20
504.5262656038793
 30
0.0
 10
213.5020390465174
 20
504.8530578850144
 30
0.0
 10
223.5875547707057
 20
505.3403397174478
 30
0.0
 10
238.7079096879619
 20
506.1934098984626
 30
0.0
 10
243.7466453354803
 20
506.5004177124804
 30
0.0
 10
253.8218131942239
 20
507.1497328415335
 30
0.0
 10
258.8581588602468
 20
507.4943894687237
 30
0.0
 10
265.1527022593766
 20
507.9325993248646
 30
0.0
 10
266.4131161457058
 20
508.039664877754
 30
0.0
 10
268.2974446781084
 20
508.1294059548553
 30
0.0
 10
268.9195266452002
 20
508.1192499060058
 30
0.0
 10
270.1440977513095
 20
508.1632379963954
 30
0.0
 10
270.7511552081975
 20
508.1946941359679
 30
0.0
 10
272.5599043799755
 20
508.2754612965497
 30
0.0
 10
273.7572540307943
 20
508.3275942810732
 30
0.0
 10
276.014552436947
 20
508.4188200994793
 30
0.0
 10
277.084030461489
 20
508.4583965939486
 30
0.0
 10
279.0783799514915
 20
508.5255677573344
 30
0.0
 10
279.9981858396384
 20
508.5508331885576
 30
0.0
 10
281.5797740382929
 20
508.6089994695222
 30
0.0
 10
282.2693916729019
 20
508.6390141503926
 30
0.0
 10
283.4678974416392
 20
508.6894906958589
 30
0.0
 10
283.9585247805169
 20
508.7084278952866
 30
0.0
 10
284.6768833726494
 20
508.7338281617651
 30
0.0
 10
284.9030964445195
 20
508.7413558741903
 30
0.0
 10
285.0117983548781
 20
508.7453201563999
 30
0.0
 10
285.0248813920738
 20
508.7457747019765
 30
0.0
 10
285.0253842152576
 20
508.7457429120632
 30
0.0
  0
SPLINE
  5
AE
330
91
100
AcDbEntity
  8
$DDT_AUDIT_GENERATED_(93)
  6
Continuous
 62
     7
100
AcDbSpline
210
0.0
220
0.0
230
1.0
 70
     8
 71
     3
 72
     8
 73
     4
 74
     0
 42
0.0000000077839958
 43
0.0000000001
 40
0.7597973193596969
 40
0.7597973193596969
 40
0.7597973193596969
 40
0.7597973193596969
 40
0.7605757189381673
 40
0.7605757189381673
 40
0.7605757189381673
 40
0.7605757189381673
 10
285.0253842152576
 20
508.7457429120632
 30
0.0
 10
285.0254241646907
 20
508.7457403863464
 30
0.0
 10
285.0253847034861
 20
508.7457347907125
 30
0.0
 10
285.0252659731244
 20
508.7457261278338
 30
0.0
  0
ARC
  5
AF
330
91
100
AcDbEntity
  8
$DDT_AUDIT_GENERATED_(93)
  6
Continuous
 62
     7
100
AcDbCircle
 10
175.4987990696
 20
1528.3339290842
 30
0.0
 40
1033.08707371283
100
AcDbArc
 50
264.6356186854
 51
268.689769838
  0
ARC
  5
B0
330
91
100
AcDbEntity
  8
$DDT_AUDIT_GENERATED_(93)
  6
Continuous
 62
     7
100
AcDbCircle
 10
177.439811491
 20
1271.1373469316
 30
0.0
 40
776.0260698420709
100
AcDbArc
 50
268.1122793419
 51
269.2705137182
  0
ARC
  5
B1
330
91
100
AcDbEntity
  8
$DDT_AUDIT_GENERATED_(93)
  6
Continuous
 62
     7
100
AcDbCircle
 10
178.1802782193
 20
1271.076650383
 30
0.0
 40
775.9653792195337
100
AcDbArc
 50
270.7295786483
 51
271.8845658774
  0
ARC
  5
B2
330
91
100
AcDbEntity
  8
$DDT_AUDIT_GENERATED_(93)
  6
Continuous
 62
     7
100
AcDbCircle
 10
137.3371383419
 20
2268.5720716592
 30
0.0
 40
1774.282545892323
100
AcDbArc
 50
272.1434696542
 51
274.5050556472
  0
ARC
  5
B3
330
91
100
AcDbEntity
  8
$DDT_AUDIT_GENERATED_(93)
  6
Continuous
 62
     7
100
AcDbCircle
 10
171.1719339857
 20
532.1161888533
 30
0.0
 40
33.50138617291169
100
AcDbArc
 50
187.5843697809
 51
235.4370506023
  0
ARC
  5
B4
330
91
100
AcDbEntity
  8
$DDT_AUDIT_GENERATED_(93)
  6
Continuous
 62
     7
100
AcDbCircle
 10
173.1972084687
 20
571.6747955659
 30
0.0
 40
70.36360721939617
100
AcDbArc
 50
252.6093548807
 51
265.4011868978
  0
LINE
  5
B5
330
91
100
AcDbEntity
  8
$DDT_AUDIT_GENERATED_(93)
  6
Continuous
 62
     7
100
AcDbLine
 10
162.8099859789
 20
515.8953295377
 30
0.0
 11
162.8099859789
 21
515.7387954166
 31
0.0
  0
LINE
  5
B6
330
91
100
AcDbEntity
  8
$DDT_AUDIT_GENERATED_(93)
  6
Continuous
 62
     7
100
AcDbLine
 10
192.8099859789
 20
515.7913558717
 30
0.0
 11
192.8099859789
 21
515.9310088764
 31
0.0
  0
ARC
  5
B7
330
91
100
AcDbEntity
  8
$DDT_AUDIT_GENERATED_(93)
  6
Continuous
 62
     7
100
AcDbCircle
 10
177.8102851177
 20
-578.9942946518
 30
0.0
 40
1117.096399340909
100
AcDbArc
 50
90.28765557
 51
91.3978041831
  0
ARC
  5
B8
330
91
100
AcDbEntity
  8
$DDT_AUDIT_GENERATED_(93)
  6
Continuous
 62
     7
100
AcDbCircle
 10
177.8102851177
 20
-578.9942946518
 30
0.0
 40
1117.096399340909
100
AcDbArc
 50
88.6022266204
 51
89.712605192
  0
SPLINE
  5
B9
330
91
100
AcDbEntity
  8
$DDT_AUDIT_GENERATED_(93)
  6
Continuous
 62
     7
100
AcDbSpline
210
0.0
220
0.0
230
1.0
 70
     8
 71
     3
 72
     8
 73
     4
 74
     0
 42
0.0000000033394971
 43
0.0000000001
 40
0.0
 40
0.0
 40
0.0
 40
0.0
 40
0.0165114213995526
 40
0.0165114213995526
 40
0.0165114213995526
 40
0.0165114213995526
 10
172.1099859789159
 20
536.9258640735804
 30
0.0
 10
172.1099859789159
 20
536.936578664984
 30
0.0
 10
172.1207497483252
 20
536.9472239718242
 30
0.0
 10
172.1418573505812
 20
536.9577565028077
 30
0.0
  0
SPLINE
  5
BA
330
91
100
AcDbEntity
  8
$DDT_AUDIT_GENERATED_(93)
  6
Continuous
 62
     7
100
AcDbSpline
210
0.0
220
0.0
230
1.0
 70
     8
 71
     3
 72
    16
 73
    12
 74
     0
 42
0.0000000004318496
 43
0.0000000001
 40
0.499913127000173
 40
0.499913127000173
 40
0.499913127000173
 40
0.499913127000173
 40
0.4999999999999999
 40
0.4999999999999999
 40
0.6249999999999999
 40
0.6249999999999999
 40
0.7499999999999999
 40
0.7499999999999999
 40
0.875
 40
0.875
 40
1.0
 40
1.0
 40
1.0
 40
1.0
 10
183.5099842075326
 20
536.9261039455342
 30
0.0
 10
183.5099850367141
 20
536.9260482623612
 30
0.0
 10
183.5099855738055
 20
536.9259925779187
 30
0.0
 10
183.5103382765578
 20
536.8458117307154
 30
0.0
 10
182.8952062662559
 20
536.763447448899
 30
0.0
 10
180.7959963975652
 20
536.645249238131
 30
0.0
 10
179.3198739173353
 20
536.6096063938256
 30
0.0
 10
176.3115015356186
 20
536.6094346353183
 30
0.0
 10
174.8340251480691
 20
536.6448784282014
 30
0.0
 10
172.7282209095616
 20
536.7630591045603
 30
0.0
 10
172.1099859789159
 20
536.8447490748757
 30
0.0
 10
172.1099859789159
 20
536.9258640735804
 30
0.0
  0
ARC
  5
BB
330
91
100
AcDbEntity
  8
$DDT_AUDIT_GENERATED_(93)
  6
Continuous
 62
     7
100
AcDbCircle
 10
172.8201810169
 20
71.5467410845
 30
0.0
 40
441.7770192278886
100
AcDbArc
 50
89.3528390373
 51
90.6823193718
  0
ARC
  5
BC
330
91
100
AcDbEntity
  8
$DDT_AUDIT_GENERATED_(93)
  6
Continuous
 62
     7
100
AcDbCircle
 10
182.866091039
 20
287.5313382828
 30
0.0
 40
225.8208515096577
100
AcDbArc
 50
88.6818881294
 51
91.2829536841
  0
SPLINE
  5
BD
330
91
100
AcDbEntity
  8
$DDT_AUDIT_GENERATED_(93)
  6
Continuous
 62
     7
100
AcDbSpline
210
0.0
220
0.0
230
1.0
 70
     8
 71
     3
 72
     8
 73
     4
 74
     0
 42
0.0000000124375909
 43
0.0000000001
 40
0.2369639469075837
 40
0.2369639469075837
 40
0.2369639469075837
 40
0.2369639469075837
 40
0.2382077060020959
 40
0.2382077060020959
 40
0.2382077060020959
 40
0.2382077060020959
 10
70.59476474290696
 20
508.7457185952389
 30
0.0
 10
70.59437705766094
 20
508.7457360384141
 30
0.0
 10
70.5942034382102
 20
508.7457457984479
 30
0.0
 10
70.59424557966352
 20
508.7457479254161
 30
0.0
  0
SPLINE
  5
BE
330
91
100
AcDbEntity
  8
$DDT_AUDIT_GENERATED_(93)
  6
Continuous
 62
     7
100
AcDbSpline
210
0.0
220
0.0
230
1.0
 70
     8
 71
     3
 72
    30
 73
    26
 74
     0
 42
0.0000000000932546
 43
0.0000000001
 40
0.2382077060020959
 40
0.2382077060020959
 40
0.2382077060020959
 40
0.2382077060020959
 40
0.2500000000000016
 40
0.2500000000000016
 40
0.3125000000000018
 40
0.3125000000000018
 40
0.3437500000000019
 40
0.3437500000000019
 40
0.3750000000000019
 40
0.3750000000000019
 40
0.4062500000000019
 40
0.4062500000000019
 40
0.437500000000002
 40
0.437500000000002
 40
0.453125000000002
 40
0.453125000000002
 40
0.4687500000000019
 40
0.4687500000000019
 40
0.5000000000000019
 40
0.5000000000000019
 40
0.6250000000000014
 40
0.6250000000000014
 40
0.750000000000001
 40
0.750000000000001
 40
0.9999967397220093
 40
0.9999967397220093
 40
0.9999967397220093
 40
0.9999967397220093
 10
70.59424557966352
 20
508.7457479254161
 30
0.0
 10
70.59464513003415
 20
508.7457680915684
 30
0.0
 10
70.6144399942194
 20
508.745102101435
 30
0.0
 10
70.87044275183929
 20
508.7368523642289
 30
0.0
 10
71.75749355671995
 20
508.7060349238703
 30
0.0
 10
73.54569237761096
 20
508.6215729721912
 30
0.0
 10
74.22625605276103
 20
508.5895196010317
 30
0.0
 10
75.796337500874
 20
508.5272119656084
 30
0.0
 10
76.66494168863777
 20
508.5004814225456
 30
0.0
 10
78.67531569193464
 20
508.4605862250693
 30
0.0
 10
79.80767627913673
 20
508.4277008097446
 30
0.0
 10
82.1411712028639
 20
508.3399778824858
 30
0.0
 10
83.36948999011732
 20
508.287277452857
 30
0.0
 10
85.20925448147761
 20
508.181804982965
 30
0.0
 10
85.82352363188953
 20
508.1502115470924
 30
0.0
 10
87.06354414235415
 20
508.1334999981754
 30
0.0
 10
87.68997550100634
 20
508.1223211088165
 30
0.0
 10
89.56376188584441
 20
507.9966922302965
 30
0.0
 10
90.81410330260425
 20
507.9083535537662
 30
0.0
 10
97.06739976065778
 20
507.4723041497531
 30
0.0
 10
102.0734482315789
 20
507.1311427475235
 30
0.0
 10
112.0851507454222
 20
506.4872078008077
 30
0.0
 10
117.0919821803377
 20
506.182716590821
 30
0.0
 10
132.1160247688584
 20
505.3364462653265
 30
0.0
 10
142.1364338040327
 20
504.852942881819
 30
0.0
 10
152.1658252782982
 20
504.5276963140266
 30
0.0
  0
LINE
  5
BF
330
91
100
AcDbEntity
  8
$DDT_AUDIT_GENERATED_(93)
  6
Continuous
 62
     7
100
AcDbLine
 10
70.595491353
 20
532.5870274258
 30
0.0
 11
70.5954913529
 21
508.7456640254
 31
0.0
  0
ARC
  5
C0
330
91
100
AcDbEntity
  8
$DDT_AUDIT_GENERATED_(93)
  6
Continuous
 62
     7
100
AcDbCircle
 10
205.890856932
 20
546.8725224074
 30
0.0
 40
52.71457759424237
100
AcDbArc
 50
204.4520380842
 51
219.4233547089
  0
ARC
  5
C1
330
91
100
AcDbEntity
  8
$DDT_AUDIT_GENERATED_(93)
  6
Continuous
 62
     7
100
AcDbCircle
 10
149.741492335
 20
546.8717690747
 30
0.0
 40
52.70367233855317
100
AcDbArc
 50
320.5608784621
 51
335.5493776566
  0
ARC
  5
C2
330
91
100
AcDbEntity
  8
$DDT_AUDIT_GENERATED_(93)
  6
Continuous
 62
     7
100
AcDbCircle
 10
194.5278480164
 20
526.2026805684
 30
0.0
 40
3.34755498254825
100
AcDbArc
 50
345.2751740012
 51
359.9548295416
  0
ARC
  5
C3
330
91
100
AcDbEntity
  8
$DDT_AUDIT_GENERATED_(93)
  6
Continuous
 62
     7
100
AcDbCircle
 10
161.0740828792
 20
526.1897669162
 30
0.0
 40
3.329513840828115
100
AcDbArc
 50
180.043526625
 51
194.7685765851
  0
ARC
  5
C4
330
91
100
AcDbEntity
  8
$DDT_AUDIT_GENERATED_(93)
  6
Continuous
 62
     7
100
AcDbCircle
 10
284.5460089879
 20
532.6063633004
 30
0.0
 40
0.4695185580723824
100
AcDbArc
 50
357.1288262992
 51
68.7330425728
  0
ARC
  5
C5
330
91
100
AcDbEntity
  8
$DDT_AUDIT_GENERATED_(93)
  6
Continuous
 62
     7
100
AcDbCircle
 10
71.0708015573
 20
532.6015289634
 30
0.0
 40
0.4740740712973467
100
AcDbArc
 50
107.2486000466
 51
181.2896402399
  0
LINE
  5
C6
330
91
100
AcDbEntity
  8
$DDT_AUDIT_GENERATED_(93)
  6
Continuous
 62
     7
100
AcDbLine
 10
191.3099859789
 20
504.4653152237
 30
0.0
 11
191.3099859789
 21
508.3436763087
 31
0.0
  0
LINE
  5
C7
330
91
100
AcDbEntity
  8
$DDT_AUDIT_GENERATED_(93)
  6
Continuous
 62
     7
100
AcDbLine
 10
164.3099859789
 20
508.3659035386
 30
0.0
 11
164.3099859789
 21
504.4653152237
 31
0.0
  0
SPLINE
  5
C8
330
91
100
AcDbEntity
  8
$DDT_AUDIT_GENERATED_(93)
  6
Continuous
 62
     7
100
AcDbSpline
210
0.0
220
0.0
230
1.0
 70
     8
 71
     3
 72
     9
 73
     5
 74
     0
 42
0.0000000302182246
 43
0.0000000001
 40
0.8680872772302997
 40
0.8680872772302997
 40
0.8680872772302997
 40
0.8680872772302997
 40
0.8894456776307819
 40
0.8966829423303767
 40
0.8966829423303767
 40
0.8966829423303767
 40
0.8966829423303767
 10
162.7325366601917
 20
516.0217656746141
 30
0.0
 10
162.7336395309069
 20
516.0225071749833
 30
0.0
 10
162.7358760849993
 20
516.0218870836458
 30
0.0
 10
162.7392222294325
 20
516.0188763780972
 30
0.0
 10
162.7401466202596
 20
516.0179454187563
 30
0.0
  0
SPLINE
  5
C9
330
91
100
AcDbEntity
  8
$DDT_AUDIT_GENERATED_(93)
  6
Continuous
 62
     7
100
AcDbSpline
210
0.0
220
0.0
230
1.0
 70
     8
 71
     3
 72
     9
 73
     5
 74
     0
 42
0.0000000219842703
 43
0.0000000001
 40
0.0989498342628904
 40
0.0989498342628904
 40
0.0989498342628904
 40
0.0989498342628904
 40
0.1060619521278731
 40
0.1402648086723053
 40
0.1402648086723053
 40
0.1402648086723053
 40
0.1402648086723053
 10
192.9016772888167
 20
516.0937499152259
 30
0.0
 10
192.9029015529597
 20
516.0951900633661
 30
0.0
 10
192.9095447151525
 20
516.1025424684263
 30
0.0
 10
192.9136650525211
 20
516.1044982644435
 30
0.0
 10
192.9155832928845
 20
516.103002049468
 30
0.0
  0
ARC
  5
CA
330
91
100
AcDbEntity
  8
$DDT_AUDIT_GENERATED_(93)
  6
Continuous
 62
     7
100
AcDbCircle
 10
211.3284357557
 20
508.3386542013
 30
0.0
 40
20.01847463228808
100
AcDbArc
 50
179.5360694685
 51
180.0720086007
  0
ARC
  5
CB
330
91
100
AcDbEntity
  8
$DDT_AUDIT_GENERATED_(93)
  6
Continuous
 62
     7
100
AcDbCircle
 10
211.3284357557
 20
508.3386542013
 30
0.0
 40
20.01847463228808
100
AcDbArc
 50
158.1406766034
 51
158.6837346491
  0
ARC
  5
CC
330
91
100
AcDbEntity
  8
$DDT_AUDIT_GENERATED_(93)
  6
Continuous
 62
     7
100
AcDbCircle
 10
191.0099859789
 20
504.4653152237
 30
0.0
 40
0.2999999999999999
100
AcDbArc
 50
270.0
 51
0.0
  0
ARC
  5
CD
330
91
100
AcDbEntity
  8
$DDT_AUDIT_GENERATED_(93)
  6
Continuous
 62
     7
100
AcDbCircle
 10
164.6099859789
 20
504.4653152237
 30
0.0
 40
0.2999999999999999
100
AcDbArc
 50
180.0
 51
270.0
  0
ARC
  5
CE
330
91
100
AcDbEntity
  8
$DDT_AUDIT_GENERATED_(93)
  6
Continuous
 62
     7
100
AcDbCircle
 10
79.5779991761
 20
508.7200305355
 30
0.0
 40
8.972378652102948
100
AcDbArc
 50
179.8359124916
 51
264.6492247915
  0
ARC
  5
CF
330
91
100
AcDbEntity
  8
$DDT_AUDIT_GENERATED_(93)
  6
Continuous
 62
     7
100
AcDbCircle
 10
276.0247016701
 20
508.7220609709
 30
0.0
 40
8.975858415321692
100
AcDbArc
 50
275.2518030574
 51
0.1469609735
  0
LINE
  5
D0
330
91
100
AcDbEntity
  8
$DDT_AUDIT_GENERATED_(93)
  6
Continuous
 62
     7
100
AcDbLine
 10
285.0244821042
 20
508.7448055461
 30
0.0
 11
285.0244821059
 21
532.5827958101
 31
0.0
  0
LINE
  5
D2
330
91
100
AcDbEntity
  8
$DDT_AUDIT_GENERATED_(D1)
  6
Continuous
 62
     7
100
AcDbLine
 10
151.8742686493
 20
558.6924897206
 30
0.0
 11
168.8099859789
 21
558.6924897206
 31
0.0
  0
LINE
  5
D3
330
91
100
AcDbEntity
  8
$DDT_AUDIT_GENERATED_(D1)
  6
Continuous
 62
     7
100
AcDbLine
 10
186.8099859789
 20
558.6924897206
 30
0.0
 11
203.7457033068
 21
558.6924897206
 31
0.0
  0
ARC
  5
D4
330
91
100
AcDbEntity
  8
$DDT_AUDIT_GENERATED_(D1)
  6
Continuous
 62
     7
100
AcDbCircle
 10
-295.0180914772
 20
523.5545186251
 30
0.0
 40
499.9999999999999
100
AcDbArc
 50
1.6293170963
 51
4.0298365732
  0
ARC
  5
D5
330
91
100
AcDbEntity
  8
$DDT_AUDIT_GENERATED_(D1)
  6
Continuous
 62
     7
100
AcDbCircle
 10
650.6380634332
 20
523.5545186251
 30
0.0
 40
499.9999999999999
100
AcDbArc
 50
175.9701634268
 51
178.3706040528
  0
ARC
  5
D6
330
91
100
AcDbEntity
  8
$DDT_AUDIT_GENERATED_(D1)
  6
Continuous
 62
     7
100
AcDbCircle
 10
177.809985978
 20
556.8653152237
 30
0.0
 40
26.0
100
AcDbArc
 50
4.0298365732
 51
22.1174189327
  0
ARC
  5
D7
330
91
100
AcDbEntity
  8
$DDT_AUDIT_GENERATED_(D1)
  6
Continuous
 62
     7
100
AcDbCircle
 10
177.809985978
 20
556.8653152237
 30
0.0
 40
26.0
100
AcDbArc
 50
157.8663126243
 51
175.9701634268
  0
LINE
  5
D9
330
91
100
AcDbEntity
  8
A4225108_211188_
  6
Continuous
 62
     7
100
AcDbLine
 10
188.0599859789
 20
485.9453152237
 30
0.0
 11
167.5599859789
 21
485.9453152237
 31
0.0
  0
LINE
  5
DA
330
91
100
AcDbEntity
  8
A4225108_211188_
  6
Continuous
 62
     7
100
AcDbLine
 10
168.5599859789
 20
484.9453152237
 30
0.0
 11
187.0599859789
 21
484.9453152237
 31
0.0
  0
LINE
  5
DB
330
91
100
AcDbEntity
  8
A4225108_211188_
  6
Continuous
 62
     7
100
AcDbLine
 10
188.0599859789
 20
485.9453152237
 30
0.0
 11
188.0599859789
 21
504.1653152237
 31
0.0
  0
LINE
  5
DC
330
91
100
AcDbEntity
  8
A4225108_211188_
  6
Continuous
 62
     7
100
AcDbLine
 10
167.5599859789
 20
504.1653152237
 30
0.0
 11
167.5599859789
 21
485.9453152237
 31
0.0
  0
LINE
  5
DD
330
91
100
AcDbEntity
  8
A4225108_211188_
  6
Continuous
 62
     7
100
AcDbLine
 10
167.5599859789
 20
485.9453152237
 30
0.0
 11
168.5599859789
 21
484.9453152237
 31
0.0
  0
LINE
  5
DE
330
91
100
AcDbEntity
  8
A4225108_211188_
  6
Continuous
 62
     7
100
AcDbLine
 10
187.0599859789
 20
484.9453152237
 30
0.0
 11
188.0599859789
 21
485.9453152237
 31
0.0
  0
LINE
  5
E0
330
91
100
AcDbEntity
  8
A4225112_211188_
  6
Continuous
 62
     7
100
AcDbLine
 10
172.2099859789
 20
542.5953152237
 30
0.0
 11
172.2099859789
 21
536.8746359212
 31
0.0
  0
LINE
  5
E1
330
91
100
AcDbEntity
  8
A4225112_211188_
  6
Continuous
 62
     7
100
AcDbLine
 10
183.4099859789
 20
536.8998574655
 30
0.0
 11
183.4099859789
 21
542.5953152237
 31
0.0
  0
LINE
  5
E3
330
91
100
AcDbEntity
  8
$DDT_AUDIT_GENERATED_(E2)
  6
Continuous
 62
     7
100
AcDbLine
 10
188.5599859789
 20
508.0684612095
 30
0.0
 11
167.0599859789
 21
508.0684612095
 31
0.0
  0
LINE
  5
E4
330
91
100
AcDbEntity
  8
$DDT_AUDIT_GENERATED_(E2)
  6
Continuous
 62
     7
100
AcDbLine
 10
166.8099859789
 20
508.2127987781
 30
0.0
 11
166.8099859789
 21
508.3860038576
 31
0.0
  0
LINE
  5
E5
330
91
100
AcDbEntity
  8
$DDT_AUDIT_GENERATED_(E2)
  6
Continuous
 62
     7
100
AcDbLine
 10
166.8099859789
 20
509.2520292614
 30
0.0
 11
188.8099859789
 21
509.2520292614
 31
0.0
  0
LINE
  5
E6
330
91
100
AcDbEntity
  8
$DDT_AUDIT_GENERATED_(E2)
  6
Continuous
 62
     7
100
AcDbLine
 10
166.8099859789
 20
511.0684612095
 30
0.0
 11
166.0099859789
 21
511.0684612095
 31
0.0
  0
LINE
  5
E7
330
91
100
AcDbEntity
  8
$DDT_AUDIT_GENERATED_(E2)
  6
Continuous
 62
     7
100
AcDbLine
 10
166.8099859789
 20
511.0684612095
 30
0.0
 11
166.8099859789
 21
509.2520292614
 31
0.0
  0
LINE
  5
E8
330
91
100
AcDbEntity
  8
$DDT_AUDIT_GENERATED_(E2)
  6
Continuous
 62
     7
100
AcDbLine
 10
166.8099859789
 20
509.2520292614
 30
0.0
 11
166.8099859789
 21
508.3860038576
 31
0.0
  0
LINE
  5
E9
330
91
100
AcDbEntity
  8
$DDT_AUDIT_GENERATED_(E2)
  6
Continuous
 62
     7
100
AcDbLine
 10
188.8099859789
 20
508.3860038576
 30
0.0
 11
188.8099859789
 21
508.2127987781
 31
0.0
  0
LINE
  5
EA
330
91
100
AcDbEntity
  8
$DDT_AUDIT_GENERATED_(E2)
  6
Continuous
 62
     7
100
AcDbLine
 10
189.6099859789
 20
511.0684612095
 30
0.0
 11
188.8099859789
 21
511.0684612095
 31
0.0
  0
LINE
  5
EB
330
91
100
AcDbEntity
  8
$DDT_AUDIT_GENERATED_(E2)
  6
Continuous
 62
     7
100
AcDbLine
 10
188.8099859789
 20
508.3860038576
 30
0.0
 11
188.8099859789
 21
509.2520292614
 31
0.0
  0
LINE
  5
EC
330
91
100
AcDbEntity
  8
$DDT_AUDIT_GENERATED_(E2)
  6
Continuous
 62
     7
100
AcDbLine
 10
188.8099859789
 20
509.2520292614
 30
0.0
 11
188.8099859789
 21
511.0684612095
 31
0.0
  0
LINE
  5
ED
330
91
100
AcDbEntity
  8
$DDT_AUDIT_GENERATED_(E2)
  6
Continuous
 62
     7
100
AcDbLine
 10
166.8099859789
 20
508.2127987768
 30
0.0
 11
167.0599859789
 21
508.0684612095
 31
0.0
  0
LINE
  5
EE
330
91
100
AcDbEntity
  8
$DDT_AUDIT_GENERATED_(E2)
  6
Continuous
 62
     7
100
AcDbLine
 10
188.5599859789
 20
508.0684612095
 30
0.0
 11
188.8099859789
 21
508.2127987768
 31
0.0
  0
LINE
  5
EF
330
91
100
AcDbEntity
  8
$DDT_AUDIT_GENERATED_(E2)
  6
Continuous
 62
     7
100
AcDbLine
 10
166.0099859789
 20
513.2924348038
 30
0.0
 11
166.0099859789
 21
511.0684612095
 31
0.0
  0
LINE
  5
F0
330
91
100
AcDbEntity
  8
$DDT_AUDIT_GENERATED_(E2)
  6
Continuous
 62
     7
100
AcDbLine
 10
189.6099859789
 20
511.0684612095
 30
0.0
 11
189.6099859789
 21
513.2924348038
 31
0.0
  0
LINE
  5
F2
330
91
100
AcDbEntity
  8
$DDT_AUDIT_GENERATED_(F1)
  6
Continuous
 62
     7
100
AcDbLine
 10
169.3099859789
 20
542.5953152237
 30
0.0
 11
186.3099859789
 21
542.5953152237
 31
0.0
  0
LINE
  5
F3
330
91
100
AcDbEntity
  8
$DDT_AUDIT_GENERATED_(F1)
  6
Continuous
 62
     7
100
AcDbLine
 10
168.8099859789
 20
561.236213606
 30
0.0
 11
186.8099859789
 21
561.236213606
 31
0.0
  0
LINE
  5
F4
330
91
100
AcDbEntity
  8
$DDT_AUDIT_GENERATED_(F1)
  6
Continuous
 62
     7
100
AcDbLine
 10
186.8099859789
 20
543.0953152237
 30
0.0
 11
186.8099859789
 21
561.236213606
 31
0.0
  0
LINE
  5
F5
330
91
100
AcDbEntity
  8
$DDT_AUDIT_GENERATED_(F1)
  6
Continuous
 62
     7
100
AcDbLine
 10
168.8099859789
 20
561.236213606
 30
0.0
 11
168.8099859789
 21
543.0953152237
 31
0.0
  0
ARC
  5
F6
330
91
100
AcDbEntity
  8
$DDT_AUDIT_GENERATED_(F1)
  6
Continuous
 62
     7
100
AcDbCircle
 10
177.8099859789
 20
483.0953152237
 30
0.0
 40
80.00000000000003
100
AcDbArc
 50
84.5175184369
 51
95.4824815631
  0
ARC
  5
F7
330
91
100
AcDbEntity
  8
$DDT_AUDIT_GENERATED_(F1)
  6
Continuous
 62
     7
100
AcDbCircle
 10
169.3099859789
 20
543.0953152237
 30
0.0
 40
0.5000000000000004
100
AcDbArc
 50
180.0
 51
270.0
  0
ARC
  5
F8
330
91
100
AcDbEntity
  8
$DDT_AUDIT_GENERATED_(F1)
  6
Continuous
 62
     7
100
AcDbCircle
 10
186.3099859789
 20
543.0953152237
 30
0.0
 40
0.5000000000000004
100
AcDbArc
 50
270.0
 51
0.0
  0
ARC
  5
F9
330
91
100
AcDbEntity
  8
$DDT_AUDIT_GENERATED_(F1)
  6
Continuous
 62
     7
100
AcDbCircle
 10
185.3099859789
 20
561.236213606
 30
0.0
 40
1.499999999999998
100
AcDbArc
 50
0.0
 51
84.5175184369
  0
ARC
  5
FA
330
91
100
AcDbEntity
  8
$DDT_AUDIT_GENERATED_(F1)
  6
Continuous
 62
     7
100
AcDbCircle
 10
170.3099859789
 20
561.236213606
 30
0.0
 40
1.500000000000022
100
AcDbArc
 50
95.4824815631
 51
180.0
  0
ELLIPSE
  5
FC
330
91
100
AcDbEntity
  8
$DDT_AUDIT_GENERATED_(FB)
  6
Continuous
 62
     7
100
AcDbEllipse
 10
177.8099859789
 20
580.5396795833
 30
0.0
 11
-5.315561291589578E-14
 21
-3.725939276586439
 31
0.0
210
0.0
220
0.0
230
1.0
 40
0.8991021461
 41
0.3065763122360227
 42
1.570796326794909
  0
SPLINE
  5
FE
330
91
100
AcDbEntity
  8
$DDT_AUDIT_GENERATED_(FD)
  6
Continuous
 62
     7
100
AcDbSpline
210
0.0
220
0.0
230
1.0
 70
     8
 71
     3
 72
     8
 73
     4
 74
     0
 42
0.000000000697368
 43
0.0000000001
 40
0.0
 40
0.0
 40
0.0
 40
0.0
 40
0.2455553362632191
 40
0.2455553362632191
 40
0.2455553362632191
 40
0.2455553362632191
 10
161.6782112134447
 20
600.1882313490319
 30
0.0
 10
161.6919119324628
 20
601.7084707745827
 30
0.0
 10
161.7302964631938
 20
602.9342021071191
 30
0.0
 10
161.6954274316471
 20
603.7079564051814
 30
0.0
  0
SPLINE
  5
FF
330
91
100
AcDbEntity
  8
$DDT_AUDIT_GENERATED_(FD)
  6
Continuous
 62
     7
100
AcDbSpline
210
0.0
220
0.0
230
1.0
 70
     8
 71
     3
 72
     8
 73
     4
 74
     0
 42
0.0000000027566675
 43
0.0000000001
 40
0.3262747145256102
 40
0.3262747145256102
 40
0.3262747145256102
 40
0.3262747145256102
 40
0.3289034935900187
 40
0.3289034935900187
 40
0.3289034935900187
 40
0.3289034935900187
 10
161.6401226163838
 20
604.2756272286118
 30
0.0
 10
161.6400477666389
 20
604.2788770102478
 30
0.0
 10
161.6401151582465
 20
604.2820463563407
 30
0.0
 10
161.6403585810699
 20
604.2851522016314
 30
0.0
  0
SPLINE
  5
100
330
91
100
AcDbEntity
  8
$DDT_AUDIT_GENERATED_(FD)
  6
Continuous
 62
     7
100
AcDbSpline
210
0.0
220
0.0
230
1.0
 70
     8
 71
     3
 72
    30
 73
    26
 74
     0
 42
0.000000000105877
 43
0.0000000001
 40
0.3289034935900187
 40
0.3289034935900187
 40
0.3289034935900187
 40
0.3289034935900187
 40
0.3437500000000001
 40
0.3437500000000001
 40
0.3750000000000002
 40
0.3750000000000002
 40
0.4062500000000002
 40
0.4062500000000002
 40
0.4375000000000003
 40
0.4375000000000003
 40
0.4687500000000004
 40
0.4687500000000004
 40
0.5000000000000004
 40
0.5000000000000004
 40
0.5312500000000006
 40
0.5312500000000006
 40
0.5625000000000006
 40
0.5625000000000006
 40
0.5937500000000006
 40
0.5937500000000006
 40
0.6250000000000007
 40
0.6250000000000007
 40
0.6562500000000007
 40
0.6562500000000007
 40
0.6729662741062096
 40
0.6729662741062096
 40
0.6729662741062096
 40
0.6729662741062096
 10
161.6403585810699
 20
604.2851522016314
 30
0.0
 10
161.6417333556019
 20
604.3026930260543
 30
0.0
 10
161.6487228753544
 20
604.3182084095628
 30
0.0
 10
161.7067565911885
 20
604.3695647655068
 30
0.0
 10
161.8007839713733
 20
604.4350059867293
 30
0.0
 10
162.6628992547367
 20
604.5416591248206
 30
0.0
 10
163.4164798490549
 20
604.5658955248837
 30
0.0
 10
165.4398936034057
 20
604.5858325884166
 30
0.0
 10
166.6815128973217
 20
604.582459187806
 30
0.0
 10
169.4937297033227
 20
604.5733140678097
 30
0.0
 10
171.0468149296384
 20
604.5689544913488
 30
0.0
 10
174.3826126003132
 20
604.5722438189897
 30
0.0
 10
176.1023253845435
 20
604.5788696049007
 30
0.0
 10
179.6549506551736
 20
604.5785779110171
 30
0.0
 10
181.3786352571227
 20
604.5718535652355
 30
0.0
 10
184.7206718609242
 20
604.5690638061936
 30
0.0
 10
186.256508298763
 20
604.5737941995602
 30
0.0
 10
189.065501603339
 20
604.582842942042
 30
0.0
 10
190.2770425866408
 20
604.5857297067107
 30
0.0
 10
192.2762813777033
 20
604.5642728008265
 30
0.0
 10
193.0074679027122
 20
604.5382997988625
 30
0.0
 10
193.8333432095831
 20
604.4300861466231
 30
0.0
 10
193.9192817810835
 20
604.3661995432159
 30
0.0
 10
193.9748697223725
 20
604.3139617968841
 30
0.0
 10
193.9802249053189
 20
604.2964279473181
 30
0.0
 10
193.9798373021101
 20
604.2756713288986
 30
0.0
  0
SPLINE
  5
101
330
91
100
AcDbEntity
  8
$DDT_AUDIT_GENERATED_(FD)
  6
Continuous
 62
     7
100
AcDbSpline
210
0.0
220
0.0
230
1.0
 70
     8
 71
     3
 72
    10
 73
     6
 74
     0
 42
0.0000000007160797
 43
0.0000000001
 40
0.736727882033827
 40
0.736727882033827
 40
0.736727882033827
 40
0.736727882033827
 40
0.7500000000000006
 40
0.7500000000000006
 40
1.0
 40
1.0
 40
1.0
 40
1.0
 10
193.9335568382809
 20
603.8629475612423
 30
0.0
 10
193.930734900642
 20
603.8247573762955
 30
0.0
 10
193.9282488685342
 20
603.7850491213061
 30
0.0
 10
193.8885445421685
 20
602.9725446531228
 30
0.0
 10
193.9278515819728
 20
601.7323558300106
 30
0.0
 10
193.9417683107968
 20
600.1882085317017
 30
0.0
  0
ELLIPSE
  5
102
330
91
100
AcDbEntity
  8
$DDT_AUDIT_GENERATED_(FD)
  6
Continuous
 62
     7
100
AcDbEllipse
 10
162.6782107221
 20
600.1881105352
 30
0.0
 11
-0.999959392250286
 21
0.009011872748029837
 31
0.0
210
0.0
220
0.0
230
1.0
 40
0.9939320152
 41
0.0089454588950237
 42
1.382039280439751
  0
ELLIPSE
  5
103
330
91
100
AcDbEntity
  8
$DDT_AUDIT_GENERATED_(FD)
  6
Continuous
 62
     7
100
AcDbEllipse
 10
192.9417688022
 20
600.1880877156
 30
0.0
 11
0.9999593890575639
 21
0.009012227007901275
 31
0.0
210
0.0
220
0.0
230
1.0
 40
0.9939319891
 41
4.901145425502515
 42
6.274239493955453
  0
SPLINE
  5
104
330
91
100
AcDbEntity
  8
$DDT_AUDIT_GENERATED_(FD)
  6
Continuous
 62
     7
100
AcDbSpline
210
0.0
220
0.0
230
1.0
 70
     8
 71
     3
 72
    10
 73
     6
 74
     0
 42
0.0000000001450511
 43
0.0000000001
 40
0.0007330393073267
 40
0.0007330393073267
 40
0.0007330393073267
 40
0.0007330393073267
 40
0.0625000000000001
 40
0.0625000000000001
 40
0.0761628237079244
 40
0.0761628237079244
 40
0.0761628237079244
 40
0.0761628237079244
 10
195.9393108129525
 20
602.6992931606018
 30
0.0
 10
197.6962804249955
 20
602.4716789061357
 30
0.0
 10
199.1431696359238
 20
602.210598123469
 30
0.0
 10
200.5657078930153
 20
601.8484961977642
 30
0.0
 10
200.8090512068665
 20
601.7810871680716
 30
0.0
 10
201.0367818073042
 20
601.7122602347197
 30
0.0
  0
SPLINE
  5
105
330
91
100
AcDbEntity
  8
$DDT_AUDIT_GENERATED_(FD)
  6
Continuous
 62
     7
100
AcDbSpline
210
0.0
220
0.0
230
1.0
 70
     8
 71
     3
 72
    10
 73
     6
 74
     0
 42
0.0000000001507167
 43
0.0000000001
 40
0.9111758097779387
 40
0.9111758097779387
 40
0.9111758097779387
 40
0.9111758097779387
 40
0.9375000000000001
 40
0.9375000000000001
 40
1.0
 40
1.0
 40
1.0
 40
1.0
 10
153.9852275879484
 20
601.5159417656375
 30
0.0
 10
154.3643482833659
 20
601.6525171356677
 30
0.0
 10
154.8035792545626
 20
601.7844154242046
 30
0.0
 10
156.4857617324162
 20
602.2135044802449
 30
0.0
 10
157.958305470606
 20
602.4778996695884
 30
0.0
 10
159.7433538786849
 20
602.7073829185565
 30
0.0
  0
SPLINE
  5
106
330
91
100
AcDbEntity
  8
$DDT_AUDIT_GENERATED_(FD)
  6
Continuous
 62
     7
100
AcDbSpline
210
0.0
220
0.0
230
1.0
 70
     8
 71
     3
 72
    34
 73
    30
 74
     0
 42
0.0000000000989902
 43
0.0000000001
 40
0.3433831702195198
 40
0.3433831702195198
 40
0.3433831702195198
 40
0.3433831702195198
 40
0.3437499999999974
 40
0.3437499999999974
 40
0.3749999999999973
 40
0.3749999999999973
 40
0.3906249999999973
 40
0.3906249999999973
 40
0.4062499999999974
 40
0.4062499999999974
 40
0.4374999999999977
 40
0.4374999999999977
 40
0.468749999999998
 40
0.468749999999998
 40
0.4843749999999981
 40
0.4843749999999981
 40
0.4999999999999982
 40
0.4999999999999982
 40
0.5624999999999988
 40
0.5624999999999988
 40
0.5781249999999989
 40
0.5781249999999989
 40
0.593749999999999
 40
0.593749999999999
 40
0.6093749999999991
 40
0.6093749999999991
 40
0.6249999999999992
 40
0.6249999999999992
 40
0.6534954776943951
 40
0.6534954776943951
 40
0.6534954776943951
 40
0.6534954776943951
 10
162.1602679411041
 20
607.4435680529598
 30
0.0
 10
162.1606339106177
 20
607.4438830846794
 30
0.0
 10
162.1610059215034
 20
607.444196765541
 30
0.0
 10
162.1935968010977
 20
607.4711162451212
 30
0.0
 10
162.2678070837457
 20
607.4879599177158
 30
0.0
 10
162.8611214184454
 20
607.4977731039504
 30
0.0
 10
163.1368571861538
 20
607.4985398009009
 30
0.0
 10
163.8482739328453
 20
607.4958726679706
 30
0.0
 10
164.2867284733871
 20
607.4923776615354
 30
0.0
 10
165.7679447524316
 20
607.4775107326421
 30
0.0
 10
167.0047450717332
 20
607.4615168219591
 30
0.0
 10
169.783762871766
 20
607.4285540993164
 30
0.0
 10
171.3490817887915
 20
607.4114447179084
 30
0.0
 10
173.8181555978791
 20
607.393311113616
 30
0.0
 10
174.6585336561432
 20
607.3885109303126
 30
0.0
 10
176.3759143281327
 20
607.3822256115313
 30
0.0
 10
177.2624008898882
 20
607.380771529986
 30
0.0
 10
181.626100024573
 20
607.3830662947322
 30
0.0
 10
185.0524586766843
 20
607.4187693667529
 30
0.0
 10
188.4211131000327
 20
607.4594076833238
 30
0.0
 10
189.0484106579706
 20
607.467176154338
 30
0.0
 10
190.2064712488704
 20
607.4808241301236
 30
0.0
 10
190.7408174706003
 20
607.4867298351012
 30
0.0
 10
191.6630464416775
 20
607.4950380312299
 30
0.0
 10
192.0555106132099
 20
607.4975105880083
 30
0.0
 10
192.6895649889146
 20
607.498090105254
 30
0.0
 10
192.9304606700277
 20
607.4961109383909
 30
0.0
 10
193.3829235236506
 20
607.4833110895479
 30
0.0
 10
193.4384276826572
 20
607.4668320583631
 30
0.0
 10
193.4616245147901
 20
607.4423577819143
 30
0.0
  0
SPLINE
  5
107
330
91
100
AcDbEntity
  8
$DDT_AUDIT_GENERATED_(FD)
  6
Continuous
 62
     7
100
AcDbSpline
210
0.0
220
0.0
230
1.0
 70
     8
 71
     3
 72
     8
 73
     4
 74
     0
 42
0.0000000005337132
 43
0.0000000001
 40
0.0
 40
0.0
 40
0.0
 40
0.0
 40
0.0504437767503905
 40
0.0504437767503905
 40
0.0504437767503905
 40
0.0504437767503905
 10
193.9415321989198
 20
602.9366480093524
 30
0.0
 10
193.9387012848875
 20
603.2693645282537
 30
0.0
 10
193.9348342863789
 20
603.5847890497832
 30
0.0
 10
193.930784397328
 20
603.8817323533143
 30
0.0
  0
SPLINE
  5
108
330
91
100
AcDbEntity
  8
$DDT_AUDIT_GENERATED_(FD)
  6
Continuous
 62
     7
100
AcDbSpline
210
0.0
220
0.0
230
1.0
 70
     8
 71
     3
 72
     8
 73
     4
 74
     0
 42
0.0000000029102056
 43
0.0000000001
 40
0.3254704436396746
 40
0.3254704436396746
 40
0.3254704436396746
 40
0.3254704436396746
 40
0.3302912195195228
 40
0.3302912195195228
 40
0.3302912195195228
 40
0.3302912195195228
 10
193.9799317812121
 20
606.8966228035183
 30
0.0
 10
193.9801346035759
 20
606.9023288537647
 30
0.0
 10
193.9798617627477
 20
606.9078158304937
 30
0.0
 10
193.9788873767936
 20
606.9130882081752
 30
0.0
  0
SPLINE
  5
109
330
91
100
AcDbEntity
  8
$DDT_AUDIT_GENERATED_(FD)
  6
Continuous
 62
     7
100
AcDbSpline
210
0.0
220
0.0
230
1.0
 70
     8
 71
     3
 72
     8
 73
     4
 74
     0
 42
0.0000000029276836
 43
0.0000000001
 40
0.6677820383613903
 40
0.6677820383613903
 40
0.6677820383613903
 40
0.6677820383613903
 40
0.6733196278923115
 40
0.6733196278923115
 40
0.6733196278923115
 40
0.6733196278923115
 10
161.6419855582543
 20
606.9153434807633
 30
0.0
 10
161.6405632082186
 20
606.9093839143775
 30
0.0
 10
161.6400654557916
 20
606.9031440642605
 30
0.0
 10
161.6401917987356
 20
606.8966173316583
 30
0.0
  0
SPLINE
  5
10A
330
91
100
AcDbEntity
  8
$DDT_AUDIT_GENERATED_(FD)
  6
Continuous
 62
     7
100
AcDbSpline
210
0.0
220
0.0
230
1.0
 70
     8
 71
     3
 72
     8
 73
     4
 74
     0
 42
0.0000000005347008
 43
0.0000000001
 40
0.9512865430540712
 40
0.9512865430540712
 40
0.9512865430540712
 40
0.9512865430540712
 40
1.0
 40
1.0
 40
1.0
 40
1.0
 10
161.6887168947803
 20
603.847629533296
 30
0.0
 10
161.6848449770404
 20
603.5606503371185
 30
0.0
 10
161.6811697708134
 20
603.2566344639808
 30
0.0
 10
161.6784473195411
 20
602.9366481104198
 30
0.0
  0
SPLINE
  5
10B
330
91
100
AcDbEntity
  8
$DDT_AUDIT_GENERATED_(FD)
  6
Continuous
 62
     7
100
AcDbSpline
210
0.0
220
0.0
230
1.0
 70
     8
 71
     3
 72
     8
 73
     4
 74
     0
 42
0.000000000558789
 43
0.0000000001
 40
0.8331758772145067
 40
0.8331758772145067
 40
0.8331758772145067
 40
0.8331758772145067
 40
0.8338708176545002
 40
0.8338708176545002
 40
0.8338708176545002
 40
0.8338708176545002
 10
203.8703270766397
 20
599.709939025695
 30
0.0
 10
203.8703035026267
 20
599.7140848626158
 30
0.0
 10
203.8702320233031
 20
599.7182295758943
 30
0.0
 10
203.870112609685
 20
599.7223731667797
 30
0.0
  0
ELLIPSE
  5
10C
330
91
100
AcDbEntity
  8
$DDT_AUDIT_GENERATED_(FD)
  6
Continuous
 62
     7
100
AcDbEllipse
 10
195.8766255371
 20
602.2113447648
 30
0.0
 11
-0.06371154511386479
 21
-0.4959242270944214
 31
0.0
210
0.0
220
0.0
230
0.9999999999999998
 40
0.7092804906
 41
3.107608757280316
 42
3.151068092506665
  0
SPLINE
  5
10D
330
91
100
AcDbEntity
  8
$DDT_AUDIT_GENERATED_(FD)
  6
Continuous
 62
     7
100
AcDbSpline
210
0.0
220
0.0
230
1.0
 70
     8
 71
     3
 72
    18
 73
    14
 74
     0
 42
0.0000000007176575
 43
0.0000000001
 40
0.0
 40
0.0
 40
0.0
 40
0.0
 40
0.2500000000000017
 40
0.2500000000000017
 40
0.3125000000000022
 40
0.3125000000000022
 40
0.3437500000000024
 40
0.3437500000000024
 40
0.3750000000000026
 40
0.3750000000000026
 40
0.3906250000000026
 40
0.3906250000000026
 40
0.3941649814267295
 40
0.3941649814267295
 40
0.3941649814267295
 40
0.3941649814267295
 10
193.0212529775422
 20
599.2300713689276
 30
0.0
 10
193.007639999394
 20
600.7398213856065
 30
0.0
 10
192.9690399210859
 20
601.955733713326
 30
0.0
 10
193.0193681132425
 20
602.9158645237035
 30
0.0
 10
193.0380855396425
 20
603.0810641326514
 30
0.0
 10
193.0771989208617
 20
603.2542151061338
 30
0.0
 10
193.0974753220649
 20
603.2936158190779
 30
0.0
 10
193.0704686113156
 20
603.3548786097545
 30
0.0
 10
193.0339233768665
 20
603.402430666672
 30
0.0
 10
192.5433835542038
 20
603.4711713740926
 30
0.0
 10
192.3038182898976
 20
603.4895636898938
 30
0.0
 10
191.9087406541265
 20
603.502198979254
 30
0.0
 10
191.8314274068464
 20
603.504194187425
 30
0.0
 10
191.7500758101095
 20
603.5058924368922
 30
0.0
  0
SPLINE
  5
10E
330
91
100
AcDbEntity
  8
$DDT_AUDIT_GENERATED_(FD)
  6
Continuous
 62
     7
100
AcDbSpline
210
0.0
220
0.0
230
1.0
 70
     8
 71
     3
 72
    22
 73
    18
 74
     0
 42
0.0000000000744852
 43
0.0000000001
 40
0.3941649814267295
 40
0.3941649814267295
 40
0.3941649814267295
 40
0.3941649814267295
 40
0.4062500000000026
 40
0.4062500000000026
 40
0.4375000000000025
 40
0.4375000000000025
 40
0.4687500000000024
 40
0.4687500000000024
 40
0.4843750000000024
 40
0.4843750000000024
 40
0.5000000000000024
 40
0.5000000000000024
 40
0.5625000000000023
 40
0.5625000000000023
 40
0.5937500000000023
 40
0.5937500000000023
 40
0.59623569056857
 40
0.59623569056857
 40
0.59623569056857
 40
0.59623569056857
 10
191.7500758101095
 20
603.5058924368922
 30
0.0
 10
191.4723524440746
 20
603.5116900312514
 30
0.0
 10
191.1475642392647
 20
603.514026728114
 30
0.0
 10
189.856920490679
 20
603.5159461272156
 30
0.0
 10
188.6713442024548
 20
603.5041992316876
 30
0.0
 10
185.9831347138105
 20
603.4797473903782
 30
0.0
 10
184.4634792659735
 20
603.4684860769568
 30
0.0
 10
182.0554832819153
 20
603.4651155057347
 30
0.0
 10
181.2343295650931
 20
603.465958295833
 30
0.0
 10
179.5522511711535
 20
603.4687448111321
 30
0.0
 10
178.6810306029547
 20
603.470439369816
 30
0.0
 10
174.3823853079656
 20
603.4705052108205
 30
0.0
 10
170.9875762775195
 20
603.4674750414856
 30
0.0
 10
166.9573720377805
 20
603.5040866734159
 30
0.0
 10
165.7702874198829
 20
603.5158783833642
 30
0.0
 10
164.7647518159276
 20
603.5144578564077
 30
0.0
 10
164.692335162529
 20
603.5142812246729
 30
0.0
 10
164.6216225491871
 20
603.5140170535017
 30
0.0
  0
SPLINE
  5
10F
330
91
100
AcDbEntity
  8
$DDT_AUDIT_GENERATED_(FD)
  6
Continuous
 62
     7
100
AcDbSpline
210
0.0
220
0.0
230
1.0
 70
     8
 71
     3
 72
    18
 73
    14
 74
     0
 42
0.0000000006466299
 43
0.0000000001
 40
0.59623569056857
 40
0.59623569056857
 40
0.59623569056857
 40
0.59623569056857
 40
0.6093750000000022
 40
0.6093750000000022
 40
0.6250000000000021
 40
0.6250000000000021
 40
0.6562500000000021
 40
0.6562500000000021
 40
0.6875000000000021
 40
0.6875000000000021
 40
0.7500000000000018
 40
0.7500000000000018
 40
1.0
 40
1.0
 40
1.0
 40
1.0
 10
164.6216225491871
 20
603.5140170535017
 30
0.0
 10
164.2478371234573
 20
603.5126206501018
 30
0.0
 10
163.921665268368
 20
603.5087782565851
 30
0.0
 10
163.3220337871059
 20
603.4899761703809
 30
0.0
 10
163.0767335245017
 20
603.4711976154268
 30
0.0
 10
162.58749593128
 20
603.4027164489607
 30
0.0
 10
162.5504453812615
 20
603.3552478122052
 30
0.0
 10
162.5219753986239
 20
603.2940280603465
 30
0.0
 10
162.5424874239736
 20
603.2548709566894
 30
0.0
 10
162.5819360648695
 20
603.0820097859114
 30
0.0
 10
162.600540064663
 20
602.9168208504731
 30
0.0
 10
162.6509711668065
 20
601.9568372531694
 30
0.0
 10
162.6123483653516
 20
600.7405087831909
 30
0.0
 10
162.5987294310727
 20
599.2300947294622
 30
0.0
  0
ARC
  5
110
330
91
100
AcDbEntity
  8
$DDT_AUDIT_GENERATED_(FD)
  6
Continuous
 62
     7
100
AcDbCircle
 10
177.8121774132
 20
3446.3392397775
 30
0.0
 40
2847.149791074568
100
AcDbArc
 50
269.6938445206
 51
270.306067488
  0
SPLINE
  5
111
330
91
100
AcDbEntity
  8
$DDT_AUDIT_GENERATED_(FD)
  6
Continuous
 62
     7
100
AcDbSpline
210
0.0
220
0.0
230
1.0
 70
    11
 71
     3
 72
    22
 73
    18
 74
     0
 42
0.0000000004247965
 43
0.0000000001
 40
0.0
 40
0.0
 40
0.0
 40
0.0
 40
0.1250000000000002
 40
0.1250000000000002
 40
0.2500000000000003
 40
0.2500000000000003
 40
0.3750000000000003
 40
0.3750000000000003
 40
0.5000000000000002
 40
0.5000000000000002
 40
0.6250000000000001
 40
0.6250000000000001
 40
0.7500000000000001
 40
0.7500000000000001
 40
0.875
 40
0.875
 40
1.0
 40
1.0
 40
1.0
 40
1.0
 10
177.809989710207
 20
576.6799361219331
 30
0.0
 10
176.8421316457453
 20
576.6799349689554
 30
0.0
 10
175.928627165164
 20
577.172031315318
 30
0.0
 10
174.6955134688738
 20
578.6278042383701
 30
0.0
 10
174.3511327321048
 20
579.5759006364324
 30
0.0
 10
174.3153812896414
 20
581.4941819260406
 30
0.0
 10
174.6321937574584
 20
582.4533202342342
 30
0.0
 10
175.9071220483868
 20
583.8933027738349
 30
0.0
 10
176.8512854640884
 20
584.3248355677622
 30
0.0
 10
178.7610764854844
 20
584.3269960478937
 30
0.0
 10
179.7069434358598
 20
583.8968522423631
 30
0.0
 10
180.9836588309088
 20
582.4610693287572
 30
0.0
 10
181.3051033552277
 20
581.488178956972
 30
0.0
 10
181.2682217339612
 20
579.5763821689877
 30
0.0
 10
180.9202831928303
 20
578.6221129820283
 30
0.0
 10
179.6929220461014
 20
577.1746565031766
 30
0.0
 10
178.7778477746687
 20
576.6799372749108
 30
0.0
 10
177.809989710207
 20
576.6799361219331
 30
0.0
  0
SPLINE
  5
112
330
91
100
AcDbEntity
  8
$DDT_AUDIT_GENERATED_(FD)
  6
Continuous
 62
     7
100
AcDbSpline
210
0.0
220
0.0
230
1.0
 70
     8
 71
     3
 72
    18
 73
    14
 74
     0
 42
0.0000000004511174
 43
0.0000000001
 40
0.035681299552502
 40
0.035681299552502
 40
0.035681299552502
 40
0.035681299552502
 40
0.125
 40
0.125
 40
0.25
 40
0.25
 40
0.375
 40
0.375
 40
0.5
 40
0.5
 40
0.625
 40
0.625
 40
0.7354049330651675
 40
0.7354049330651675
 40
0.7354049330651675
 40
0.7354049330651675
 10
178.5733695874635
 20
576.9693459885706
 30
0.0
 10
179.1897115330354
 20
577.1495460801572
 30
0.0
 10
179.7434850605679
 20
577.5360737996131
 30
0.0
 10
180.7252976400002
 20
578.7278151495366
 30
0.0
 10
181.0406366203134
 20
579.6195047543558
 30
0.0
 10
181.0776325286409
 20
581.4328419188181
 30
0.0
 10
180.7905661602945
 20
582.3387524776701
 30
0.0
 10
179.6078592012996
 20
583.716552819476
 30
0.0
 10
178.7191323475179
 20
584.1382760040526
 30
0.0
 10
176.9146357328545
 20
584.1423014069846
 30
0.0
 10
176.0242465281636
 20
583.7253913902017
 30
0.0
 10
174.9031526572924
 20
582.4292748996029
 30
0.0
 10
174.6147206666155
 20
581.6402026098169
 30
0.0
 10
174.5670817566939
 20
580.8431224064934
 30
0.0
  0
SPLINE
  5
113
330
91
100
AcDbEntity
  8
$DDT_AUDIT_GENERATED_(FD)
  6
Continuous
 62
     7
100
AcDbSpline
210
0.0
220
0.0
230
1.0
 70
     8
 71
     3
 72
    12
 73
     8
 74
     0
 42
0.0000000004507221
 43
0.0000000001
 40
0.7461333483505023
 40
0.7461333483505023
 40
0.7461333483505023
 40
0.7461333483505023
 40
0.75
 40
0.75
 40
0.875
 40
0.875
 40
1.0
 40
1.0
 40
1.0
 40
1.0
 10
174.5600183899478
 20
580.6106896500637
 30
0.0
 10
174.5599900507975
 20
580.582776713114
 30
0.0
 10
174.5602574708151
 20
580.5548745958954
 30
0.0
 10
174.5790318578249
 20
579.6255694186048
 30
0.0
 10
174.8979362751832
 20
578.7244385225944
 30
0.0
 10
176.0347468532511
 20
577.343393938138
 30
0.0
 10
176.8957893555207
 20
576.8582979600064
 30
0.0
 10
177.8099894927374
 20
576.8582990700835
 30
0.0
  0
ARC
  5
114
330
91
100
AcDbEntity
  8
$DDT_AUDIT_GENERATED_(FD)
  6
Continuous
 62
     7
100
AcDbCircle
 10
177.8094903811
 20
24490.9033297095
 30
0.0
 40
23924.08026119733
100
AcDbArc
 50
269.9353561981
 51
269.9353566112
  0
LINE
  5
115
330
91
100
AcDbEntity
  8
$DDT_AUDIT_GENERATED_(FD)
  6
Continuous
 62
     7
100
AcDbLine
 10
204.6023491453
 20
566.6326227312
 30
0.0
 11
151.0183879545
 21
566.6326227312
 31
0.0
  0
LINE
  5
116
330
91
100
AcDbEntity
  8
$DDT_AUDIT_GENERATED_(FD)
  6
Continuous
 62
     7
100
AcDbLine
 10
192.35543886
 20
607.4978289259
 30
0.0
 11
163.2327335613
 21
607.4978289259
 31
0.0
  0
LINE
  5
117
330
91
100
AcDbEntity
  8
$DDT_AUDIT_GENERATED_(FD)
  6
Continuous
 62
     7
100
AcDbLine
 10
161.6420581952
 20
606.8943962258
 30
0.0
 11
161.6420581916
 21
604.2770641833
 31
0.0
  0
LINE
  5
118
330
91
100
AcDbEntity
  8
$DDT_AUDIT_GENERATED_(FD)
  6
Continuous
 62
     7
100
AcDbLine
 10
193.9779050381
 20
604.2766067764
 30
0.0
 11
193.9779050416
 21
606.8738536321
 31
0.0
  0
SPLINE
  5
119
330
91
100
AcDbEntity
  8
$DDT_AUDIT_GENERATED_(FD)
  6
Continuous
 62
     7
100
AcDbSpline
210
0.0
220
0.0
230
1.0
 70
     8
 71
     3
 72
    12
 73
     8
 74
     0
 42
0.000000008784362
 43
0.0000000001
 40
0.0
 40
0.0
 40
0.0
 40
0.0
 40
0.0079716376475165
 40
0.1519465309324015
 40
0.2924699613619133
 40
0.4469369961220333
 40
0.5613742106449853
 40
0.5613742106449853
 40
0.5613742106449853
 40
0.5613742106449853
 10
161.5992591928005
 20
604.2948594521896
 30
0.0
 10
161.597740448434
 20
604.2873571016456
 30
0.0
 10
161.5726822000532
 20
604.1643798521935
 30
0.0
 10
161.6446029591108
 20
603.952248575593
 30
0.0
 10
161.7113190167369
 20
603.7799376239501
 30
0.0
 10
161.7560511449196
 20
603.7081301985343
 30
0.0
 10
161.7626744795182
 20
603.6976222917156
 30
0.0
 10
161.7625788605417
 20
603.6976821669477
 30
0.0
  0
SPLINE
  5
11A
330
91
100
AcDbEntity
  8
$DDT_AUDIT_GENERATED_(FD)
  6
Continuous
 62
     7
100
AcDbSpline
210
0.0
220
0.0
230
1.0
 70
     8
 71
     3
 72
    12
 73
     8
 74
     0
 42
0.0000000083146407
 43
0.0000000001
 40
0.4551716138626207
 40
0.4551716138626207
 40
0.4551716138626207
 40
0.4551716138626207
 40
0.5311012866524375
 40
0.6977779858484028
 40
0.8378636559453134
 40
0.9706747089460263
 40
1.0
 40
1.0
 40
1.0
 40
1.0
 10
193.8481467850686
 20
603.682343955694
 30
0.0
 10
193.8481185872571
 20
603.6823273802753
 30
0.0
 10
193.8529593735767
 20
603.6901681696336
 30
0.0
 10
193.8907220809912
 20
603.7456615809789
 30
0.0
 10
193.9640760733905
 20
603.9115758956298
 30
0.0
 10
194.0419386067944
 20
604.1258664841004
 30
0.0
 10
194.019646949386
 20
604.2638899735307
 30
0.0
 10
194.0150217693631
 20
604.2932039346814
 30
0.0
  0
SPLINE
  5
11B
330
91
100
AcDbEntity
  8
$DDT_AUDIT_GENERATED_(FD)
  6
Continuous
 62
     7
100
AcDbSpline
210
0.0
220
0.0
230
1.0
 70
     8
 71
     3
 72
    15
 73
    11
 74
     0
 42
0.0000000027990929
 43
0.0000000001
 40
0.0
 40
0.0
 40
0.0
 40
0.0
 40
0.0141073548294214
 40
0.1435760684013632
 40
0.2745525021712791
 40
0.4234636125737501
 40
0.6007911490796249
 40
0.7938775688808494
 40
0.9847115806954909
 40
1.0
 40
1.0
 40
1.0
 40
1.0
 10
203.8628232608205
 20
599.7029836277627
 30
0.0
 10
203.8650733494398
 20
599.7187654066696
 30
0.0
 10
203.8845071054884
 20
599.8565649886488
 30
0.0
 10
203.7841523547745
 20
600.1440615416515
 30
0.0
 10
203.5729839088681
 20
600.4770106431976
 30
0.0
 10
203.2333551219745
 20
600.7878330787911
 30
0.0
 10
202.7502769203572
 20
601.0922576569433
 30
0.0
 10
202.0905525564689
 20
601.3864890865813
 30
0.0
 10
201.5314776168207
 20
601.593565146671
 30
0.0
 10
201.2041611264787
 20
601.6836530768827
 30
0.0
 10
201.1759332810491
 20
601.6914110041971
 30
0.0
  0
SPLINE
  5
11C
330
91
100
AcDbEntity
  8
$DDT_AUDIT_GENERATED_(FD)
  6
Continuous
 62
     7
100
AcDbSpline
210
0.0
220
0.0
230
1.0
 70
     8
 71
     3
 72
    13
 73
     9
 74
     0
 42
0.0000000034787741
 43
0.0000000001
 40
0.0
 40
0.0
 40
0.0
 40
0.0
 40
0.1107961794699679
 40
0.3333171833489122
 40
0.560114420419852
 40
0.7412471179710477
 40
0.8947449635945272
 40
1.0
 40
1.0
 40
1.0
 40
1.0
 10
153.7990842318711
 20
601.4715676516112
 30
0.0
 10
153.6536870180965
 20
601.4205506749755
 30
0.0
 10
153.2840182160163
 20
601.2892661535502
 30
0.0
 10
152.7512580438394
 20
601.025541169681
 30
0.0
 10
152.2769753179103
 20
600.7067577599572
 30
0.0
 10
151.9616028019916
 20
600.3679760689806
 30
0.0
 10
151.7791419582236
 20
600.0265648455137
 30
0.0
 10
151.7681969735875
 20
599.8163650448074
 30
0.0
 10
151.763928381971
 20
599.7146240488978
 30
0.0
  0
SPLINE
  5
11D
330
91
100
AcDbEntity
  8
$DDT_AUDIT_GENERATED_(FD)
  6
Continuous
 62
     7
100
AcDbSpline
210
0.0
220
0.0
230
1.0
 70
     8
 71
     3
 72
    14
 73
    10
 74
     0
 42
0.000000003725402
 43
0.0000000001
 40
0.1914547963746668
 40
0.1914547963746668
 40
0.1914547963746668
 40
0.1914547963746668
 40
0.2252855724372134
 40
0.3311026138703895
 40
0.4600908665788417
 40
0.6084414007040113
 40
0.7668562003834726
 40
0.9332830690061206
 40
1.0
 40
1.0
 40
1.0
 40
1.0
 10
161.7737038870306
 20
603.1809387284186
 30
0.0
 10
161.7733476990529
 20
603.1806446631826
 30
0.0
 10
161.7641383663748
 20
603.1729679114273
 30
0.0
 10
161.6961581377848
 20
603.1335132593911
 30
0.0
 10
161.4910691331964
 20
603.0531413541934
 30
0.0
 10
161.1382944092333
 20
602.9546956945137
 30
0.0
 10
160.6328673799225
 20
602.8498214503867
 30
0.0
 10
160.1200030663377
 20
602.7635393632579
 30
0.0
 10
159.780983271686
 20
602.7224011016079
 30
0.0
 10
159.6668031936759
 20
602.7086431994823
 30
0.0
  0
SPLINE
  5
11E
330
91
100
AcDbEntity
  8
$DDT_AUDIT_GENERATED_(FD)
  6
Continuous
 62
     7
100
AcDbSpline
210
0.0
220
0.0
230
1.0
 70
     8
 71
     3
 72
    13
 73
     9
 74
     0
 42
0.0000000040051691
 43
0.0000000001
 40
0.0
 40
0.0
 40
0.0
 40
0.0
 40
0.0709841524229319
 40
0.2471522877483719
 40
0.423059563581838
 40
0.5747419771138071
 40
0.7090610984604596
 40
0.7956581606311592
 40
0.7956581606311592
 40
0.7956581606311592
 40
0.7956581606311592
 10
195.768422189681
 20
602.7331836923903
 30
0.0
 10
195.6556111754443
 20
602.7477136482133
 30
0.0
 10
195.3220464863588
 20
602.7909822007659
 30
0.0
 10
194.8154847444465
 20
602.8824204304349
 30
0.0
 10
194.3361309714247
 20
602.990945016749
 30
0.0
 10
194.0236925257409
 20
603.0900814880621
 30
0.0
 10
193.8763804548206
 20
603.1583328721816
 30
0.0
 10
193.8445435502731
 20
603.1808993368072
 30
0.0
 10
193.8454866422405
 20
603.1803834029586
 30
0.0
  0
LINE
  5
11F
330
91
100
AcDbEntity
  8
$DDT_AUDIT_GENERATED_(FD)
  6
Continuous
 62
     7
100
AcDbLine
 10
195.9528607604
 20
602.7085634573
 30
0.0
 11
195.7684221897
 21
602.7331836924
 31
0.0
  0
SPLINE
  5
120
330
91
100
AcDbEntity
  8
$DDT_AUDIT_GENERATED_(FD)
  6
Continuous
 62
     7
100
AcDbSpline
210
0.0
220
0.0
230
1.0
 70
     8
 71
     3
 72
     8
 73
     4
 74
     0
 42
0.00000002743636
 43
0.0000000001
 40
0.0
 40
0.0
 40
0.0
 40
0.0
 40
1.0
 40
1.0
 40
1.0
 40
1.0
 10
161.880746083766
 20
607.3542819202413
 30
0.0
 10
161.747154503069
 20
607.2412835389993
 30
0.0
 10
161.6778755504809
 20
607.1481516070035
 30
0.0
 10
161.6729092260017
 20
607.0748861242539
 30
0.0
  0
SPLINE
  5
121
330
91
100
AcDbEntity
  8
$DDT_AUDIT_GENERATED_(FD)
  6
Continuous
 62
     7
100
AcDbSpline
210
0.0
220
0.0
230
1.0
 70
     8
 71
     3
 72
     8
 73
     4
 74
     0
 42
0.0000000299965093
 43
0.0000000001
 40
0.0
 40
0.0
 40
0.0
 40
0.0
 40
1.0
 40
1.0
 40
1.0
 40
1.0
 10
193.9403379933042
 20
607.064393890536
 30
0.0
 10
193.9413708311252
 20
607.1499505695584
 30
0.0
 10
193.8830080843417
 20
607.2348478036055
 30
0.0
 10
193.7652497529538
 20
607.319085592677
 30
0.0
  0
LINE
  5
122
330
91
100
AcDbEntity
  8
$DDT_AUDIT_GENERATED_(FD)
  6
Continuous
 62
     7
100
AcDbLine
 10
204.8031544463
 20
566.8390558277
 30
0.0
 11
203.8702515058
 21
599.7224005685
 31
0.0
  0
LINE
  5
123
330
91
100
AcDbEntity
  8
$DDT_AUDIT_GENERATED_(FD)
  6
Continuous
 62
     7
100
AcDbLine
 10
151.7497298221
 20
599.7224786481
 30
0.0
 11
150.8168239026
 21
566.8390289023
 31
0.0
  0
ARC
  5
124
330
91
100
AcDbEntity
  8
$DDT_AUDIT_GENERATED_(FD)
  6
Continuous
 62
     7
100
AcDbCircle
 10
204.6029786674
 20
566.8326228735
 30
0.0
 40
0.1999968415211877
100
AcDbArc
 50
269.8408314389
 51
1.5256282144
  0
ARC
  5
125
330
91
100
AcDbEntity
  8
$DDT_AUDIT_GENERATED_(FD)
  6
Continuous
 62
     7
100
AcDbCircle
 10
151.0168961836
 20
566.8326228015
 30
0.0
 40
0.1999981380875666
100
AcDbArc
 50
178.7496732093
 51
270.098984954
  0
LINE
  5
127
330
91
100
AcDbEntity
  8
$DDT_AUDIT_GENERATED_(126)
  6
Continuous
 62
     7
100
AcDbLine
 10
118.8099859789
 20
487.1653152237
 30
0.0
 11
118.8099859789
 21
497.1024406109
 31
0.0
  0
LINE
  5
128
330
91
100
AcDbEntity
  8
$DDT_AUDIT_GENERATED_(126)
  6
Continuous
 62
     7
100
AcDbLine
 10
86.8099859789
 20
499.1898333491
 30
0.0
 11
86.8099859789
 21
487.1653152237
 31
0.0
  0
LINE
  5
129
330
91
100
AcDbEntity
  8
$DDT_AUDIT_GENERATED_(126)
  6
Continuous
 62
     7
100
AcDbLine
 10
118.8099859789
 20
448.4653152237
 30
0.0
 11
118.8099859789
 21
487.1653152237
 31
0.0
  0
LINE
  5
12A
330
91
100
AcDbEntity
  8
$DDT_AUDIT_GENERATED_(126)
  6
Continuous
 62
     7
100
AcDbLine
 10
86.8099859789
 20
487.1653152237
 30
0.0
 11
86.8099859789
 21
448.4653152237
 31
0.0
  0
ARC
  5
12B
330
91
100
AcDbEntity
  8
$DDT_AUDIT_GENERATED_(126)
  6
Continuous
 62
     7
100
AcDbCircle
 10
118.5099859789
 20
448.4653152237
 30
0.0
 40
0.3000000000000086
100
AcDbArc
 50
270.0
 51
0.0
  0
ARC
  5
12C
330
91
100
AcDbEntity
  8
$DDT_AUDIT_GENERATED_(126)
  6
Continuous
 62
     7
100
AcDbCircle
 10
87.1099859789
 20
448.4653152237
 30
0.0
 40
0.3000000000000086
100
AcDbArc
 50
180.0
 51
270.0
  0
LINE
  5
12E
330
91
100
AcDbEntity
  8
$DDT_AUDIT_GENERATED_(12D)
  6
Continuous
 62
     7
100
AcDbLine
 10
125.3099859789
 20
443.1653152237
 30
0.0
 11
80.3099859789
 21
443.1653152237
 31
0.0
  0
LINE
  5
12F
330
91
100
AcDbEntity
  8
$DDT_AUDIT_GENERATED_(12D)
  6
Continuous
 62
     7
100
AcDbLine
 10
125.3099859789
 20
447.1653152237
 30
0.0
 11
80.3099859789
 21
447.1653152237
 31
0.0
  0
LINE
  5
130
330
91
100
AcDbEntity
  8
$DDT_AUDIT_GENERATED_(12D)
  6
Continuous
 62
     7
100
AcDbLine
 10
81.3099859789
 20
448.1653152237
 30
0.0
 11
124.3099859789
 21
448.1653152237
 31
0.0
  0
LINE
  5
131
330
91
100
AcDbEntity
  8
$DDT_AUDIT_GENERATED_(12D)
  6
Continuous
 62
     7
100
AcDbLine
 10
125.3099859789
 20
443.1653152237
 30
0.0
 11
125.3099859789
 21
447.1653152237
 31
0.0
  0
LINE
  5
132
330
91
100
AcDbEntity
  8
$DDT_AUDIT_GENERATED_(12D)
  6
Continuous
 62
     7
100
AcDbLine
 10
80.3099859789
 20
447.1653152237
 30
0.0
 11
80.3099859789
 21
443.1653152237
 31
0.0
  0
ARC
  5
133
330
91
100
AcDbEntity
  8
$DDT_AUDIT_GENERATED_(12D)
  6
Continuous
 62
     7
100
AcDbCircle
 10
124.3099859789
 20
447.1653152237
 30
0.0
 40
1.000000000000001
100
AcDbArc
 50
0.0
 51
90.0
  0
ARC
  5
134
330
91
100
AcDbEntity
  8
$DDT_AUDIT_GENERATED_(12D)
  6
Continuous
 62
     7
100
AcDbCircle
 10
81.3099859789
 20
447.1653152237
 30
0.0
 40
1.000000000000001
100
AcDbArc
 50
90.0
 51
180.0
  0
LINE
  5
135
330
91
100
AcDbEntity
  8
$DDT_AUDIT_GENERATED_(126)
  6
Continuous
 62
     7
100
AcDbLine
 10
268.8099859789
 20
487.1653152237
 30
0.0
 11
268.8099859789
 21
499.2180553304
 31
0.0
  0
LINE
  5
136
330
91
100
AcDbEntity
  8
$DDT_AUDIT_GENERATED_(126)
  6
Continuous
 62
     7
100
AcDbLine
 10
236.8099859789
 20
497.1049237469
 30
0.0
 11
236.8099859789
 21
487.1653152237
 31
0.0
  0
LINE
  5
137
330
91
100
AcDbEntity
  8
$DDT_AUDIT_GENERATED_(126)
  6
Continuous
 62
     7
100
AcDbLine
 10
268.8099859789
 20
448.4653152237
 30
0.0
 11
268.8099859789
 21
487.1653152237
 31
0.0
  0
LINE
  5
138
330
91
100
AcDbEntity
  8
$DDT_AUDIT_GENERATED_(126)
  6
Continuous
 62
     7
100
AcDbLine
 10
236.8099859789
 20
487.1653152237
 30
0.0
 11
236.8099859789
 21
448.4653152237
 31
0.0
  0
ARC
  5
139
330
91
100
AcDbEntity
  8
$DDT_AUDIT_GENERATED_(126)
  6
Continuous
 62
     7
100
AcDbCircle
 10
268.5099859789
 20
448.4653152237
 30
0.0
 40
0.3000000000000086
100
AcDbArc
 50
270.0
 51
0.0
  0
ARC
  5
13A
330
91
100
AcDbEntity
  8
$DDT_AUDIT_GENERATED_(126)
  6
Continuous
 62
     7
100
AcDbCircle
 10
237.1099859789
 20
448.4653152237
 30
0.0
 40
0.3000000000000017
100
AcDbArc
 50
180.0
 51
270.0
  0
LINE
  5
13B
330
91
100
AcDbEntity
  8
$DDT_AUDIT_GENERATED_(12D)
  6
Continuous
 62
     7
100
AcDbLine
 10
275.3099859789
 20
443.1653152237
 30
0.0
 11
230.3099859789
 21
443.1653152237
 31
0.0
  0
LINE
  5
13C
330
91
100
AcDbEntity
  8
$DDT_AUDIT_GENERATED_(12D)
  6
Continuous
 62
     7
100
AcDbLine
 10
275.3099859789
 20
447.1653152237
 30
0.0
 11
230.3099859789
 21
447.1653152237
 31
0.0
  0
LINE
  5
13D
330
91
100
AcDbEntity
  8
$DDT_AUDIT_GENERATED_(12D)
  6
Continuous
 62
     7
100
AcDbLine
 10
231.3099859789
 20
448.1653152237
 30
0.0
 11
274.3099859789
 21
448.1653152237
 31
0.0
  0
LINE
  5
13E
330
91
100
AcDbEntity
  8
$DDT_AUDIT_GENERATED_(12D)
  6
Continuous
 62
     7
100
AcDbLine
 10
275.3099859789
 20
443.1653152237
 30
0.0
 11
275.3099859789
 21
447.1653152237
 31
0.0
  0
LINE
  5
13F
330
91
100
AcDbEntity
  8
$DDT_AUDIT_GENERATED_(12D)
  6
Continuous
 62
     7
100
AcDbLine
 10
230.3099859789
 20
447.1653152237
 30
0.0
 11
230.3099859789
 21
443.1653152237
 31
0.0
  0
ARC
  5
140
330
91
100
AcDbEntity
  8
$DDT_AUDIT_GENERATED_(12D)
  6
Continuous
 62
     7
100
AcDbCircle
 10
274.3099859789
 20
447.1653152237
 30
0.0
 40
1.000000000000001
100
AcDbArc
 50
0.0
 51
90.0
  0
ARC
  5
141
330
91
100
AcDbEntity
  8
$DDT_AUDIT_GENERATED_(12D)
  6
Continuous
 62
     7
100
AcDbCircle
 10
231.3099859789
 20
447.1653152237
 30
0.0
 40
1.000000000000001
100
AcDbArc
 50
90.0
 51
180.0
  0
ENDBLK
  5
143
330
91
100
AcDbEntity
  8
0
100
AcDbBlockEnd
  0
BLOCK
  5
1F6
330
144
100
AcDbEntity
  8
0
100
AcDbBlockBegin
  2
SE1
 70
     0
 10
0.0
 20
0.0
 30
0.0
  3
SE1
  1

  0
ARC
  5
146
330
144
100
AcDbEntity
  8
$DDT_AUDIT_GENERATED_(93)
  6
Continuous
 62
     7
100
AcDbCircle
 10
491.5444391345
 20
-13.7583721663
 30
0.0
 40
544.5647830072193
100
AcDbArc
 50
80.1671965138
 51
90.0210498003
  0
LINE
  5
147
330
144
100
AcDbEntity
  8
$DDT_AUDIT_GENERATED_(93)
  6
Continuous
 62
     7
100
AcDbLine
 10
471.3443901132
 20
530.7846217625
 30
0.0
 11
471.3443901132
 21
536.8930452432
 31
0.0
  0
LINE
  5
148
330
144
100
AcDbEntity
  8
$DDT_AUDIT_GENERATED_(93)
  6
Continuous
 62
     7
100
AcDbLine
 10
471.3445739666
 20
527.6944754693
 30
0.0
 11
471.3443901132
 21
530.7846217625
 31
0.0
  0
LINE
  5
149
330
144
100
AcDbEntity
  8
$DDT_AUDIT_GENERATED_(93)
  6
Continuous
 62
     7
100
AcDbLine
 10
491.3443809757
 20
530.7830226632
 30
0.0
 11
471.3443901132
 21
530.7846217625
 31
0.0
  0
SPLINE
  5
14A
330
144
100
AcDbEntity
  8
$DDT_AUDIT_GENERATED_(93)
  6
Continuous
 62
     7
100
AcDbSpline
210
0.0
220
0.0
230
1.0
 70
     8
 71
     3
 72
    16
 73
    12
 74
     0
 42
0.000000000868154
 43
0.0000000001
 40
0.2447629693229625
 40
0.2447629693229625
 40
0.2447629693229625
 40
0.2447629693229625
 40
0.2500000000000004
 40
0.2500000000000004
 40
0.5000000000000008
 40
0.5000000000000008
 40
0.5625000000000008
 40
0.5625000000000008
 40
0.5937500000000008
 40
0.5937500000000008
 40
0.6073493644105984
 40
0.6073493644105984
 40
0.6073493644105984
 40
0.6073493644105984
 10
435.3235533030843
 20
538.0841781115395
 30
0.0
 10
435.3235533034288
 20
538.0839575334076
 30
0.0
 10
435.3235533041915
 20
538.0835007910873
 30
0.0
 10
435.3235533624772
 20
538.049784156371
 30
0.0
 10
435.3235542807581
 20
537.475240226172
 30
0.0
 10
435.3235546002752
 20
535.9273630260168
 30
0.0
 10
435.3235546388968
 20
535.5755705519861
 30
0.0
 10
435.3235546740406
 20
534.9882513627938
 30
0.0
 10
435.3006202596048
 20
534.7819595639546
 30
0.0
 10
435.603612874165
 20
534.4755966919955
 30
0.0
 10
435.7502010968745
 20
534.3815154069514
 30
0.0
 10
436.0008984454018
 20
534.2868815497129
 30
0.0
  0
SPLINE
  5
14B
330
144
100
AcDbEntity
  8
$DDT_AUDIT_GENERATED_(93)
  6
Continuous
 62
     7
100
AcDbSpline
210
0.0
220
0.0
230
1.0
 70
     8
 71
     3
 72
    30
 73
    26
 74
     0
 42
0.0000000000537197
 43
0.0000000001
 40
0.6073493644105984
 40
0.6073493644105984
 40
0.6073493644105984
 40
0.6073493644105984
 40
0.6093750000000009
 40
0.6093750000000009
 40
0.6250000000000009
 40
0.6250000000000009
 40
0.6406250000000009
 40
0.6406250000000009
 40
0.6562500000000009
 40
0.6562500000000009
 40
0.687500000000001
 40
0.687500000000001
 40
0.703125000000001
 40
0.703125000000001
 40
0.718750000000001
 40
0.718750000000001
 40
0.734375000000001
 40
0.734375000000001
 40
0.750000000000001
 40
0.750000000000001
 40
0.7656250000000011
 40
0.7656250000000011
 40
0.7812500000000011
 40
0.7812500000000011
 40
0.7905232238233268
 40
0.7905232238233268
 40
0.7905232238233268
 40
0.7905232238233268
 10
436.0008984454018
 20
534.2868815497129
 30
0.0
 10
436.0382400046111
 20
534.272785765278
 30
0.0
 10
436.0778913629564
 20
534.2586777212954
 30
0.0
 10
436.4449476619135
 20
534.1356568554468
 30
0.0
 10
436.9236492733453
 20
534.0292007983033
 30
0.0
 10
438.1444808397349
 20
533.8254634818248
 30
0.0
 10
438.8873578889159
 20
533.7259189934192
 30
0.0
 10
440.5702117075373
 20
533.5428702150713
 30
0.0
 10
441.5158807312283
 20
533.4594280179326
 30
0.0
 10
444.7440086511227
 20
533.2425051723646
 30
0.0
 10
447.3015501923974
 20
533.1498390580118
 30
0.0
 10
451.2275922378873
 20
533.0853080614797
 30
0.0
 10
452.5538684500614
 20
533.0761454952745
 30
0.0
 10
455.2332990851867
 20
533.0868676098169
 30
0.0
 10
456.5285461556289
 20
533.1087575951166
 30
0.0
 10
459.0410880124014
 20
533.1809396230346
 30
0.0
 10
460.2717695660725
 20
533.2305058353511
 30
0.0
 10
462.5989006915656
 20
533.3435132306804
 30
0.0
 10
463.703938057069
 20
533.4074753294634
 30
0.0
 10
465.7596013462246
 20
533.554513698577
 30
0.0
 10
466.7162455237478
 20
533.6393961794256
 30
0.0
 10
468.214400984504
 20
533.8277800800241
 30
0.0
 10
468.7984624915197
 20
533.9322511639494
 30
0.0
 10
469.5197596505923
 20
534.1001804398031
 30
0.0
 10
469.7464915342209
 20
534.1629441467326
 30
0.0
 10
469.9409758613202
 20
534.2256783318373
 30
0.0
  0
SPLINE
  5
14C
330
144
100
AcDbEntity
  8
$DDT_AUDIT_GENERATED_(93)
  6
Continuous
 62
     7
100
AcDbSpline
210
0.0
220
0.0
230
1.0
 70
     8
 71
     3
 72
    16
 73
    12
 74
     0
 42
0.0000000005839328
 43
0.0000000001
 40
0.7905232238233268
 40
0.7905232238233268
 40
0.7905232238233268
 40
0.7905232238233268
 40
0.7968750000000011
 40
0.7968750000000011
 40
0.8046875000000011
 40
0.8046875000000011
 40
0.8125000000000011
 40
0.8125000000000011
 40
0.8750000000000008
 40
0.8750000000000008
 40
1.0
 40
1.0
 40
1.0
 40
1.0
 10
469.9409758613202
 20
534.2256783318373
 30
0.0
 10
470.0741896108362
 20
534.2686486634074
 30
0.0
 10
470.1922738211733
 20
534.3116051442657
 30
0.0
 10
470.4287853755595
 20
534.4071876808309
 30
0.0
 10
470.5091011126111
 20
534.4604395586483
 30
0.0
 10
470.5601430616514
 20
534.5680849733051
 30
0.0
 10
470.5766494463837
 20
534.6215413146913
 30
0.0
 10
470.7136724184456
 20
535.0970687036473
 30
0.0
 10
470.7337533444106
 20
535.4825244163336
 30
0.0
 10
470.8218986498272
 20
536.512746876558
 30
0.0
 10
470.8360350905407
 20
537.029729493601
 30
0.0
 10
470.8458495114562
 20
537.3927552593423
 30
0.0
  0
ARC
  5
14D
330
144
100
AcDbEntity
  8
$DDT_AUDIT_GENERATED_(93)
  6
Continuous
 62
     7
100
AcDbCircle
 10
483.4945792175
 20
390.2304286535
 30
0.0
 40
147.7049110058036
100
AcDbArc
 50
86.949902319
 51
94.8446014903
  0
ARC
  5
14E
330
144
100
AcDbEntity
  8
$DDT_AUDIT_GENERATED_(93)
  6
Continuous
 62
     7
100
AcDbCircle
 10
484.0970532773
 20
-63.113151764
 30
0.0
 40
600.8830767661821
100
AcDbArc
 50
80.4167670632
 51
89.3080308664
  0
SPLINE
  5
14F
330
144
100
AcDbEntity
  8
$DDT_AUDIT_GENERATED_(93)
  6
Continuous
 62
     7
100
AcDbSpline
210
0.0
220
0.0
230
1.0
 70
     8
 71
     3
 72
    14
 73
    10
 74
     0
 42
0.0000000015065815
 43
0.0000000001
 40
0.0
 40
0.0
 40
0.0
 40
0.0
 40
0.2500000000000044
 40
0.2500000000000044
 40
0.3750000000000064
 40
0.3750000000000064
 40
0.4062500000000067
 40
0.4062500000000067
 40
0.421062276120076
 40
0.421062276120076
 40
0.421062276120076
 40
0.421062276120076
 10
471.3443901132485
 20
536.8930452432152
 30
0.0
 10
471.3354755748548
 20
536.5649148142883
 30
0.0
 10
471.3213711502752
 20
536.1114972456866
 30
0.0
 10
471.254868766593
 20
535.2238713820842
 30
0.0
 10
471.228039128
 20
534.8934440412822
 30
0.0
 10
471.1519458461295
 20
534.4406316510555
 30
0.0
 10
471.1344206240822
 20
534.3481059620211
 30
0.0
 10
471.0999464821247
 20
534.2090561295161
 30
0.0
 10
471.0875452890733
 20
534.1639251187146
 30
0.0
 10
471.0724968345939
 20
534.1184434216331
 30
0.0
  0
SPLINE
  5
150
330
144
100
AcDbEntity
  8
$DDT_AUDIT_GENERATED_(93)
  6
Continuous
 62
     7
100
AcDbSpline
210
0.0
220
0.0
230
1.0
 70
     8
 71
     3
 72
    42
 73
    38
 74
     0
 42
0.0000000001400871
 43
0.0000000001
 40
0.421062276120076
 40
0.421062276120076
 40
0.421062276120076
 40
0.421062276120076
 40
0.4218750000000067
 40
0.4218750000000067
 40
0.4375000000000067
 40
0.4375000000000067
 40
0.4531250000000067
 40
0.4531250000000067
 40
0.4687500000000067
 40
0.4687500000000067
 40
0.5000000000000063
 40
0.5000000000000063
 40
0.531250000000006
 40
0.531250000000006
 40
0.5625000000000057
 40
0.5625000000000057
 40
0.5937500000000053
 40
0.5937500000000053
 40
0.625000000000005
 40
0.625000000000005
 40
0.6562500000000047
 40
0.6562500000000047
 40
0.6875000000000043
 40
0.6875000000000043
 40
0.718750000000004
 40
0.718750000000004
 40
0.7500000000000036
 40
0.7500000000000036
 40
0.7812500000000032
 40
0.7812500000000032
 40
0.8125000000000029
 40
0.8125000000000029
 40
0.8437500000000026
 40
0.8437500000000026
 40
0.8750000000000022
 40
0.8750000000000022
 40
0.9367341211785183
 40
0.9367341211785183
 40
0.9367341211785183
 40
0.9367341211785183
 10
471.0724968345939
 20
534.1184434216331
 30
0.0
 10
471.0716711520174
 20
534.1159479198602
 30
0.0
 10
471.0708374997903
 20
534.1134513623371
 30
0.0
 10
471.0538108504084
 20
534.0629361760434
 30
0.0
 10
471.0468086874347
 20
534.0139326256458
 30
0.0
 10
470.9494373012934
 20
533.9208234870844
 30
0.0
 10
470.8380268188852
 20
533.8739673445219
 30
0.0
 10
470.5777411809906
 20
533.7785120373919
 30
0.0
 10
470.4334321276722
 20
533.730226486851
 30
0.0
 10
469.9498613511172
 20
533.5871809133272
 30
0.0
 10
469.5507211612687
 20
533.4930544517539
 30
0.0
 10
468.497679309766
 20
533.3104806735255
 30
0.0
 10
467.8505656989375
 20
533.2243951117333
 30
0.0
 10
466.2782555520526
 20
533.0710651307647
 30
0.0
 10
465.3528389426967
 20
533.0009669519221
 30
0.0
 10
463.4092792557267
 20
532.8765269317332
 30
0.0
 10
462.3820432614455
 20
532.8212457535163
 30
0.0
 10
460.2352631825858
 20
532.7231355849827
 30
0.0
 10
459.1082193198532
 20
532.6799102521501
 30
0.0
 10
456.808750808776
 20
532.6154286875337
 30
0.0
 10
455.6277190695409
 20
532.5943705422724
 30
0.0
 10
453.1927806038223
 20
532.578198876789
 30
0.0
 10
451.9769644361144
 20
532.5822994312157
 30
0.0
 10
449.5752505135197
 20
532.6098347618503
 30
0.0
 10
448.3731021817791
 20
532.6341570435507
 30
0.0
 10
446.0656358796208
 20
532.7015948276047
 30
0.0
 10
444.955737698201
 20
532.7441822850494
 30
0.0
 10
442.8442985015342
 20
532.850391996887
 30
0.0
 10
441.8430980409253
 20
532.9148065973219
 30
0.0
 10
440.0692183030235
 20
533.058331858528
 30
0.0
 10
439.2793276245679
 20
533.1382329153979
 30
0.0
 10
437.8551741736654
 20
533.3097551559841
 30
0.0
 10
437.2395300565032
 20
533.3991001045484
 30
0.0
 10
436.2173526688342
 20
533.5831066249012
 30
0.0
 10
435.821280722589
 20
533.6792150309196
 30
0.0
 10
435.0131494297583
 20
533.9651129918158
 30
0.0
 10
434.8996198843657
 20
534.156224174864
 30
0.0
 10
434.8471598769909
 20
534.3406894383924
 30
0.0
  0
SPLINE
  5
151
330
144
100
AcDbEntity
  8
$DDT_AUDIT_GENERATED_(93)
  6
Continuous
 62
     7
100
AcDbSpline
210
0.0
220
0.0
230
1.0
 70
     8
 71
     3
 72
    10
 73
     6
 74
     0
 42
0.000000001139073
 43
0.0000000001
 40
0.9367341211785183
 40
0.9367341211785183
 40
0.9367341211785183
 40
0.9367341211785183
 40
0.9375000000000011
 40
0.9375000000000011
 40
1.0
 40
1.0
 40
1.0
 40
1.0
 10
434.8471598769909
 20
534.3406894383924
 30
0.0
 10
434.8465090536236
 20
534.3429779303307
 30
0.0
 10
434.8458676295282
 20
534.3452653993891
 30
0.0
 10
434.7936017522372
 20
534.5341374026624
 30
0.0
 10
434.823545129753
 20
534.7146269561977
 30
0.0
 10
434.823545129753
 20
534.8863607227083
 30
0.0
  0
LINE
  5
152
330
144
100
AcDbEntity
  8
$DDT_AUDIT_GENERATED_(93)
  6
Continuous
 62
     7
100
AcDbLine
 10
571.1591024146
 20
513.2924348038
 30
0.0
 11
560.1231265847
 21
513.2924348038
 31
0.0
  0
ARC
  5
153
330
144
100
AcDbEntity
  8
$DDT_AUDIT_GENERATED_(93)
  6
Continuous
 62
     7
100
AcDbCircle
 10
558.3798454922
 20
492.4737886627
 30
0.0
 40
20.8915067938011
100
AcDbArc
 50
85.2134171878
 51
126.6016476633
  0
ARC
  5
154
330
144
100
AcDbEntity
  8
$DDT_AUDIT_GENERATED_(93)
  6
Continuous
 62
     7
100
AcDbCircle
 10
545.3017692143
 20
509.0765070051
 30
0.0
 40
0.2999999974255085
100
AcDbArc
 50
270.9860043477
 51
343.7471775234
  0
SPLINE
  5
155
330
144
100
AcDbEntity
  8
$DDT_AUDIT_GENERATED_(93)
  6
Continuous
 62
     7
100
AcDbSpline
210
0.0
220
0.0
230
1.0
 70
     8
 71
     3
 72
     8
 73
     4
 74
     0
 42
0.0000000645267995
 43
0.0000000001
 40
0.0
 40
0.0
 40
0.0
 40
0.0
 40
1.0
 40
1.0
 40
1.0
 40
1.0
 10
576.7019364786055
 20
513.2955798660189
 30
0.0
 10
576.7525068824627
 20
513.3029606273449
 30
0.0
 10
576.8010945030364
 20
513.3235293702611
 30
0.0
 10
576.8415933508275
 20
513.3547012279479
 30
0.0
  0
ARC
  5
156
330
144
100
AcDbEntity
  8
$DDT_AUDIT_GENERATED_(93)
  6
Continuous
 62
     7
100
AcDbCircle
 10
519.3526292001
 20
489.937365401
 30
0.0
 40
27.83134524216769
100
AcDbArc
 50
93.22294546
 51
122.0665428427
  0
SPLINE
  5
157
330
144
100
AcDbEntity
  8
$DDT_AUDIT_GENERATED_(93)
  6
Continuous
 62
     7
100
AcDbSpline
210
0.0
220
0.0
230
1.0
 70
     8
 71
     3
 72
    18
 73
    14
 74
     0
 42
0.0000000005151524
 43
0.0000000001
 40
0.4968269879131977
 40
0.4968269879131977
 40
0.4968269879131977
 40
0.4968269879131977
 40
0.4997432887052616
 40
0.5635961978695444
 40
0.5959622215316579
 40
0.6280713839596274
 40
0.6913856255678239
 40
0.7532004157510171
 40
0.8127801674120027
 40
0.8725490208229821
 40
0.9342729574680483
 40
0.9666029203354498
 40
1.0
 40
1.0
 40
1.0
 40
1.0
 10
499.4593834742758
 20
505.9219212353045
 30
0.0
 10
499.4591346036543
 20
505.9219024846445
 30
0.0
 10
499.4526402280611
 20
505.9237174261961
 30
0.0
 10
499.4151271322203
 20
506.0024701065994
 30
0.0
 10
499.3583992080974
 20
506.257696535476
 30
0.0
 10
499.3141427673927
 20
506.6168904407978
 30
0.0
 10
499.3271851151533
 20
507.2577390445982
 30
0.0
 10
499.6141111690482
 20
508.3123080691369
 30
0.0
 10
500.2515155424976
 20
509.572348943689
 30
0.0
 10
501.3016834327663
 20
510.9280023260817
 30
0.0
 10
502.4985048423598
 20
512.0451101392696
 30
0.0
 10
503.6247068108494
 20
512.9061423755852
 30
0.0
 10
504.2560644468464
 20
513.3148601062605
 30
0.0
 10
504.5768616216352
 20
513.5225402033026
 30
0.0
  0
SPLINE
  5
158
330
144
100
AcDbEntity
  8
$DDT_AUDIT_GENERATED_(93)
  6
Continuous
 62
     7
100
AcDbSpline
210
0.0
220
0.0
230
1.0
 70
     8
 71
     3
 72
    16
 73
    12
 74
     0
 42
0.0000000007281739
 43
0.0000000001
 40
0.0
 40
0.0
 40
0.0
 40
0.0
 40
0.0317416703561194
 40
0.0618600816771284
 40
0.1215358703803045
 40
0.240939670136156
 40
0.3030963777287422
 40
0.3671230220867986
 40
0.4331780402929066
 40
0.4664728640404648
 40
0.4946959041167445
 40
0.4946959041167445
 40
0.4946959041167445
 40
0.4946959041167445
 10
532.6112330600865
 20
513.6120550533719
 30
0.0
 10
532.8404795647939
 20
513.4435190322595
 30
0.0
 10
533.2872489800859
 20
513.1150658691276
 30
0.0
 10
534.0698940877298
 20
512.4402276143492
 30
0.0
 10
535.2148777202091
 20
511.2574234851476
 30
0.0
 10
536.0355422492502
 20
510.0077150068552
 30
0.0
 10
536.4344183106402
 20
509.1217862739772
 30
0.0
 10
536.5772059491429
 20
508.6463316285946
 30
0.0
 10
536.6156929227453
 20
508.4283347329323
 30
0.0
 10
536.6260971441076
 20
508.3534189806352
 30
0.0
 10
536.6317858008113
 20
508.3430260937205
 30
0.0
 10
536.6348119992426
 20
508.3432919586463
 30
0.0
  0
ARC
  5
159
330
144
100
AcDbEntity
  8
$DDT_AUDIT_GENERATED_(93)
  6
Continuous
 62
     7
100
AcDbCircle
 10
519.0324648397
 20
493.4400431606
 30
0.0
 40
24.3165172298132
100
AcDbArc
 50
56.0535737102
 51
92.9337553941
  0
LINE
  5
15A
330
144
100
AcDbEntity
  8
$DDT_AUDIT_GENERATED_(93)
  6
Continuous
 62
     7
100
AcDbLine
 10
525.0393081159
 20
504.1653152237
 30
0.0
 11
531.1078365018
 21
504.1653152237
 31
0.0
  0
LINE
  5
15B
330
144
100
AcDbEntity
  8
$DDT_AUDIT_GENERATED_(93)
  6
Continuous
 62
     7
100
AcDbLine
 10
525.0393081208
 20
504.1653152237
 30
0.0
 11
524.5520190805
 21
504.1653152237
 31
0.0
  0
LINE
  5
15C
330
144
100
AcDbEntity
  8
$DDT_AUDIT_GENERATED_(93)
  6
Continuous
 62
     7
100
AcDbLine
 10
512.1617884736
 20
504.1653152237
 30
0.0
 11
504.4471881685
 21
504.1653152237
 31
0.0
  0
LINE
  5
15D
330
144
100
AcDbEntity
  8
$DDT_AUDIT_GENERATED_(93)
  6
Continuous
 62
     7
100
AcDbLine
 10
512.5747382429
 20
504.1653152237
 30
0.0
 11
512.1617884761
 21
504.1653152237
 31
0.0
  0
LINE
  5
15E
330
144
100
AcDbEntity
  8
$DDT_AUDIT_GENERATED_(93)
  6
Continuous
 62
     7
100
AcDbLine
 10
524.5520161399
 20
504.1653152237
 30
0.0
 11
512.5747392684
 21
504.1653152237
 31
0.0
  0
SPLINE
  5
15F
330
144
100
AcDbEntity
  8
$DDT_AUDIT_GENERATED_(93)
  6
Continuous
 62
     7
100
AcDbSpline
210
0.0
220
0.0
230
1.0
 70
     8
 71
     3
 72
    54
 73
    50
 74
     0
 42
0.0000000002865879
 43
0.0000000001
 40
0.0
 40
0.0
 40
0.0
 40
0.0
 40
0.1250000000000022
 40
0.1250000000000022
 40
0.1875000000000033
 40
0.1875000000000033
 40
0.2500000000000044
 40
0.2500000000000044
 40
0.2578125000000045
 40
0.2578125000000045
 40
0.2617187500000046
 40
0.2617187500000046
 40
0.2656250000000046
 40
0.2656250000000046
 40
0.2734375000000045
 40
0.2734375000000045
 40
0.2812500000000044
 40
0.2812500000000044
 40
0.2890625000000043
 40
0.2890625000000043
 40
0.2968750000000043
 40
0.2968750000000043
 40
0.3046875000000042
 40
0.3046875000000042
 40
0.3125000000000041
 40
0.3125000000000041
 40
0.320312500000004
 40
0.320312500000004
 40
0.3281250000000039
 40
0.3281250000000039
 40
0.3359375000000038
 40
0.3359375000000038
 40
0.3437500000000037
 40
0.3437500000000037
 40
0.3515625000000037
 40
0.3515625000000037
 40
0.3593750000000036
 40
0.3593750000000036
 40
0.3750000000000036
 40
0.3750000000000036
 40
0.4062500000000034
 40
0.4062500000000034
 40
0.4375000000000032
 40
0.4375000000000032
 40
0.5000000000000029
 40
0.5000000000000029
 40
0.6250000000000021
 40
0.6250000000000021
 40
0.7433048880659184
 40
0.7433048880659184
 40
0.7433048880659184
 40
0.7433048880659184
 10
462.3527979360999
 20
495.5324274936899
 30
0.0
 10
462.349712711273
 20
495.8674019022209
 30
0.0
 10
462.3430490325903
 20
496.3685063643396
 30
0.0
 10
462.3070680960652
 20
497.2473709970471
 30
0.0
 10
462.2909983763468
 20
497.5638425898104
 30
0.0
 10
462.2353616470796
 20
498.2341602232872
 30
0.0
 10
462.211588696834
 20
498.5880438338402
 30
0.0
 10
462.0950180570065
 20
499.002917136079
 30
0.0
 10
462.080374322199
 20
499.0492473684694
 30
0.0
 10
462.0515995849559
 20
499.1190770563239
 30
0.0
 10
462.0660580430554
 20
499.1427957994136
 30
0.0
 10
461.9738185261266
 20
499.1885221121096
 30
0.0
 10
461.8973681816179
 20
499.2109842850175
 30
0.0
 10
461.6768027891511
 20
499.2786552039682
 30
0.0
 10
461.5127768555727
 20
499.3239872768675
 30
0.0
 10
461.0909351424536
 20
499.4120934984412
 30
0.0
 10
460.8449596176986
 20
499.4551534972332
 30
0.0
 10
460.1196567595022
 20
499.5335998206919
 30
0.0
 10
459.6213170808448
 20
499.5648312337265
 30
0.0
 10
458.6028766917399
 20
499.622159038658
 30
0.0
 10
458.0577058992637
 20
499.6479192388415
 30
0.0
 10
456.9403674555596
 20
499.694062982913
 30
0.0
 10
456.3655714092303
 20
499.7147213794643
 30
0.0
 10
455.1715917826074
 20
499.7492926762121
 30
0.0
 10
454.5498235896379
 20
499.7626181012338
 30
0.0
 10
453.285590197907
 20
499.7734089489613
 30
0.0
 10
452.6360159409679
 20
499.7721093479129
 30
0.0
 10
451.370707460658
 20
499.7618540439508
 30
0.0
 10
450.7476594142518
 20
499.7523621219796
 30
0.0
 10
449.5208625329121
 20
499.7246534813336
 30
0.0
 10
448.9223792466756
 20
499.7068820292889
 30
0.0
 10
447.8065513756115
 20
499.6609043981609
 30
0.0
 10
447.2836960261345
 20
499.6315451180677
 30
0.0
 10
446.3848048782373
 20
499.5642784541487
 30
0.0
 10
445.9893282193148
 20
499.5266324998934
 30
0.0
 10
445.2834701054102
 20
499.4474299206524
 30
0.0
 10
444.9766748256758
 20
499.4062043830891
 30
0.0
 10
444.2431257203355
 20
499.2759633097438
 30
0.0
 10
444.0793419327754
 20
499.1827524136425
 30
0.0
 10
443.7843572875516
 20
498.9095548739147
 30
0.0
 10
443.8235451297529
 20
498.7293137613465
 30
0.0
 10
443.8235451297529
 20
498.377975089352
 30
0.0
 10
443.8235451297529
 20
498.2062508774202
 30
0.0
 10
443.8235451297529
 20
497.7042726789252
 30
0.0
 10
443.823545129753
 20
497.3871360645071
 30
0.0
 10
443.8235451297529
 20
496.501629845632
 30
0.0
 10
443.823545129753
 20
495.9924001118964
 30
0.0
 10
443.823545129753
 20
495.2897055512017
 30
0.0
 10
443.8235451297529
 20
495.113841663853
 30
0.0
 10
443.8235451297529
 20
495.1115436517446
 30
0.0
  0
SPLINE
  5
160
330
144
100
AcDbEntity
  8
$DDT_AUDIT_GENERATED_(93)
  6
Continuous
 62
     7
100
AcDbSpline
210
0.0
220
0.0
230
1.0
 70
    24
 71
     3
 72
     8
 73
     4
 74
     0
 42
0.0000000119988824
 43
0.0000000001
 40
0.7433048880659184
 40
0.7433048880659184
 40
0.7433048880659184
 40
0.7433048880659184
 40
0.7445047763020628
 40
0.7445047763020628
 40
0.7445047763020628
 40
0.7445047763020628
 10
443.8235451297529
 20
495.1115436517446
 30
0.0
 10
443.8235451297529
 20
495.1115203445276
 30
0.0
 10
443.8235451297529
 20
495.1115148915172
 30
0.0
 10
443.8235451297529
 20
495.1115273007998
 30
0.0
  0
SPLINE
  5
161
330
144
100
AcDbEntity
  8
$DDT_AUDIT_GENERATED_(93)
  6
Continuous
 62
     7
100
AcDbSpline
210
0.0
220
0.0
230
1.0
 70
     8
 71
     3
 72
    26
 73
    22
 74
     0
 42
0.0000000004316523
 43
0.0000000001
 40
0.0
 40
0.0
 40
0.0
 40
0.0
 40
0.0161377826320591
 40
0.0323963763467611
 40
0.0487798116720427
 40
0.0652920277170421
 40
0.0819368721608991
 40
0.15566667496275
 40
0.2303631672113114
 40
0.3057880451658133
 40
0.3815316107561441
 40
0.4578273730485489
 40
0.5342769507975493
 40
0.6112741023412969
 40
0.6881439492463637
 40
0.765806444537024
 40
0.8431294501332901
 40
0.8824424738461615
 40
0.9216624227409611
 40
0.960833481430429
 40
1.0
 40
1.0
 40
1.0
 40
1.0
 10
471.3527975026986
 20
504.5276835892108
 30
0.0
 10
471.3527595197398
 20
504.6116722585323
 30
0.0
 10
471.3526830541553
 20
504.7806245655333
 30
0.0
 10
471.3525638770527
 20
505.0425969828115
 30
0.0
 10
471.3524408579644
 20
505.3119627615211
 30
0.0
 10
471.3523136670427
 20
505.5892977360944
 30
0.0
 10
471.3520325864988
 20
506.1995101390339
 30
0.0
 10
471.3515711395299
 20
507.1922432170345
 30
0.0
 10
471.3508954636537
 20
508.6408947862168
 30
0.0
 10
471.3501743458623
 20
510.1965094816756
 30
0.0
 10
471.3494236412533
 20
511.8515344787992
 30
0.0
 10
471.3486606803017
 20
513.5946467061902
 30
0.0
 10
471.3479025465845
 20
515.4214715343147
 30
0.0
 10
471.347169602313
 20
517.3196480600462
 30
0.0
 10
471.3464800418828
 20
519.2882805272891
 30
0.0
 10
471.3458570022365
 20
521.3124735298045
 30
0.0
 10
471.3454064704518
 20
523.0471048599904
 30
0.0
 10
471.345096114656
 20
524.4568985709604
 30
0.0
 10
471.3448903455577
 20
525.5301347008345
 30
0.0
 10
471.3447122132129
 20
526.6089015660847
 30
0.0
 10
471.3446199795537
 20
527.3326218268526
 30
0.0
 10
471.3445739666259
 20
527.69447546931
 30
0.0
  0
SPLINE
  5
162
330
144
100
AcDbEntity
  8
$DDT_AUDIT_GENERATED_(93)
  6
Continuous
 62
     7
100
AcDbSpline
210
0.0
220
0.0
230
1.0
 70
     8
 71
     3
 72
    16
 73
    12
 74
     0
 42
0.0000000021221319
 43
0.0000000001
 40
0.0000147109856121
 40
0.0000147109856121
 40
0.0000147109856121
 40
0.0000147109856121
 40
0.2499999999999997
 40
0.2499999999999997
 40
0.3749999999999997
 40
0.3749999999999997
 40
0.4999999999999998
 40
0.4999999999999998
 40
0.6249999999999998
 40
0.6249999999999998
 40
0.6639046130668144
 40
0.6639046130668144
 40
0.6639046130668144
 40
0.6639046130668144
 10
471.3527976152693
 20
504.5275877650458
 30
0.0
 10
471.3534390439502
 20
503.9848047127466
 30
0.0
 10
471.4184241067447
 20
503.4460827006706
 30
0.0
 10
471.5031853112603
 20
502.730514210461
 30
0.0
 10
471.5297545077108
 20
502.5079667514952
 30
0.0
 10
471.5690240745518
 20
502.1116174444409
 30
0.0
 10
471.5817189288444
 20
501.9378246609285
 30
0.0
 10
471.5897269283141
 20
501.6552117951098
 30
0.0
 10
471.585095609741
 20
501.5465291475056
 30
0.0
 10
471.5703471553028
 20
501.4500991422552
 30
0.0
 10
471.5662121364819
 20
501.4306580649992
 30
0.0
 10
471.5615920750548
 20
501.4144852579103
 30
0.0
  0
SPLINE
  5
163
330
144
100
AcDbEntity
  8
$DDT_AUDIT_GENERATED_(93)
  6
Continuous
 62
     7
100
AcDbSpline
210
0.0
220
0.0
230
1.0
 70
     8
 71
     3
 72
     8
 73
     4
 74
     0
 42
0.0000000095667014
 43
0.0000000001
 40
0.6639046130668144
 40
0.6639046130668144
 40
0.6639046130668144
 40
0.6639046130668144
 40
0.7090522281462442
 40
0.7090522281462442
 40
0.7090522281462442
 40
0.7090522281462442
 10
471.5615920750548
 20
501.4144852579103
 30
0.0
 10
471.5562306348936
 20
501.3957172093001
 30
0.0
 10
471.5502159930187
 20
501.3813505053279
 30
0.0
 10
471.5437814176869
 20
501.3711047739614
 30
0.0
  0
ARC
  5
164
330
144
100
AcDbEntity
  8
$DDT_AUDIT_GENERATED_(93)
  6
Continuous
 62
     7
100
AcDbCircle
 10
462.8412971537
 20
504.1113609782
 30
0.0
 40
8.999998506290524
100
AcDbArc
 50
279.0872338842
 51
342.883238296
  0
ARC
  5
165
330
144
100
AcDbEntity
  8
$DDT_AUDIT_GENERATED_(93)
  6
Continuous
 62
     7
100
AcDbCircle
 10
469.0014531466
 20
2170.6113313794
 30
0.0
 40
1632.856793014926
100
AcDbArc
 50
268.8484833378
 51
270.7609491858
  0
SPLINE
  5
166
330
144
100
AcDbEntity
  8
$DDT_AUDIT_GENERATED_(93)
  6
Continuous
 62
     7
100
AcDbSpline
210
0.0
220
0.0
230
1.0
 70
     8
 71
     3
 72
    12
 73
     8
 74
     0
 42
0.0000000004382236
 43
0.0000000001
 40
0.0
 40
0.0
 40
0.0
 40
0.0
 40
0.1249999999999999
 40
0.1249999999999999
 40
0.2499999999999999
 40
0.2499999999999999
 40
0.2501287595481451
 40
0.2501287595481451
 40
0.2501287595481451
 40
0.2501287595481451
 10
518.0019364841563
 20
536.9258640735804
 30
0.0
 10
516.4967803017659
 20
537.0069790722853
 30
0.0
 10
515.024536922099
 20
537.0841231834562
 30
0.0
 10
512.9203058485324
 20
537.192729015602
 30
0.0
 10
512.3026697673558
 20
537.2238241586082
 30
0.0
 10
512.3019364204239
 20
537.2238613245665
 30
0.0
 10
512.3019363093898
 20
537.2238613304253
 30
0.0
 10
512.3019368417857
 20
537.2238613039051
 30
0.0
  0
SPLINE
  5
167
330
144
100
AcDbEntity
  8
$DDT_AUDIT_GENERATED_(93)
  6
Continuous
 62
     7
100
AcDbSpline
210
0.0
220
0.0
230
1.0
 70
     8
 71
     3
 72
    10
 73
     6
 74
     0
 42
0.000000000437665
 43
0.0000000001
 40
0.7501135439016884
 40
0.7501135439016884
 40
0.7501135439016884
 40
0.7501135439016884
 40
0.8749999999999999
 40
0.8749999999999999
 40
1.0
 40
1.0
 40
1.0
 40
1.0
 10
523.7019362010486
 20
536.6095203684841
 30
0.0
 10
523.702316461796
 20
536.6094990456536
 30
0.0
 10
523.0851773650683
 20
536.6449321029818
 30
0.0
 10
520.982047346353
 20
536.7630591045602
 30
0.0
 10
519.5070926665466
 20
536.8447490748757
 30
0.0
 10
518.0019364841563
 20
536.9258640735804
 30
0.0
  0
ARC
  5
168
330
144
100
AcDbEntity
  8
$DDT_AUDIT_GENERATED_(93)
  6
Continuous
 62
     7
100
AcDbCircle
 10
574.1207667511
 20
178.0035857662
 30
0.0
 40
335.3019292288703
100
AcDbArc
 50
89.5589300884
 51
90.506090358
  0
LINE
  5
169
330
144
100
AcDbEntity
  8
$DDT_AUDIT_GENERATED_(93)
  6
Continuous
 62
     7
100
AcDbLine
 10
558.7664523187
 20
513.2924348038
 30
0.0
 11
559.9552340712
 21
513.2924348038
 31
0.0
  0
SPLINE
  5
16A
330
144
100
AcDbEntity
  8
$DDT_AUDIT_GENERATED_(93)
  6
Continuous
 62
     7
100
AcDbSpline
210
0.0
220
0.0
230
1.0
 70
     8
 71
     3
 72
    42
 73
    38
 74
     0
 42
0.0000000002315366
 43
0.0000000001
 40
0.0
 40
0.0
 40
0.0
 40
0.0
 40
0.0625000000000004
 40
0.0625000000000004
 40
0.0937500000000006
 40
0.0937500000000006
 40
0.1250000000000008
 40
0.1250000000000008
 40
0.156250000000001
 40
0.156250000000001
 40
0.1875000000000012
 40
0.1875000000000012
 40
0.2187500000000014
 40
0.2187500000000014
 40
0.2500000000000016
 40
0.2500000000000016
 40
0.3125000000000018
 40
0.3125000000000018
 40
0.3437500000000019
 40
0.3437500000000019
 40
0.3750000000000019
 40
0.3750000000000019
 40
0.4062500000000019
 40
0.4062500000000019
 40
0.437500000000002
 40
0.437500000000002
 40
0.453125000000002
 40
0.453125000000002
 40
0.4687500000000019
 40
0.4687500000000019
 40
0.5000000000000019
 40
0.5000000000000019
 40
0.6250000000000014
 40
0.6250000000000014
 40
0.750000000000001
 40
0.750000000000001
 40
0.9134788215064332
 40
0.9134788215064332
 40
0.9134788215064332
 40
0.9134788215064332
 10
434.9406971530687
 20
508.0087440261092
 30
0.0
 10
435.0842255562665
 20
508.16491689084
 30
0.0
 10
435.4253031004609
 20
508.2548819642508
 30
0.0
 10
436.8647954823252
 20
508.3755706353994
 30
0.0
 10
437.474389925959
 20
508.4219181519252
 30
0.0
 10
438.8702705500344
 20
508.50708175463
 30
0.0
 10
439.6653335418976
 20
508.546790893531
 30
0.0
 10
441.4830036207982
 20
508.6054054412694
 30
0.0
 10
442.4777848068122
 20
508.6283932400318
 30
0.0
 10
444.6320843696568
 20
508.6702394906764
 30
0.0
 10
445.805271107282
 20
508.6899557511016
 30
0.0
 10
448.2080174575336
 20
508.7221274200868
 30
0.0
 10
449.4398877193245
 20
508.7334899243295
 30
0.0
 10
451.9659075593066
 20
508.7462139642843
 30
0.0
 10
453.252163729812
 20
508.7472627691505
 30
0.0
 10
457.0252381325152
 20
508.7368523642289
 30
0.0
 10
459.461151771951
 20
508.7060349238703
 30
0.0
 10
462.7780424061534
 20
508.6215729721912
 30
0.0
 10
463.8436395011205
 20
508.5895196010317
 30
0.0
 10
465.8446983196139
 20
508.5272119656084
 30
0.0
 10
466.7571927672112
 20
508.5004814225456
 30
0.0
 10
468.2943724191238
 20
508.4605862250693
 30
0.0
 10
468.9109682011468
 20
508.4277008097446
 30
0.0
 10
469.8852710414046
 20
508.3399778824858
 30
0.0
 10
470.2500028710488
 20
508.287277452857
 30
0.0
 10
470.6954872544986
 20
508.181804982965
 30
0.0
 10
470.8350052966571
 20
508.1502115470924
 30
0.0
 10
471.0162242734662
 20
508.1334999981754
 30
0.0
 10
471.0342673301331
 20
508.1223211088165
 30
0.0
 10
471.0920390465469
 20
507.9966922302965
 30
0.0
 10
471.1150216419529
 20
507.9083535537662
 30
0.0
 10
471.2159054136015
 20
507.4723041497531
 30
0.0
 10
471.2433918989868
 20
507.1311427475235
 30
0.0
 10
471.2942177071588
 20
506.4872078008077
 30
0.0
 10
471.3093355420746
 20
506.182716590821
 30
0.0
 10
471.3354104854857
 20
505.5316947543233
 30
0.0
 10
471.3433209623225
 20
505.1972631635358
 30
0.0
 10
471.3478727693978
 20
504.9190235186325
 30
0.0
  0
SPLINE
  5
16B
330
144
100
AcDbEntity
  8
$DDT_AUDIT_GENERATED_(93)
  6
Continuous
 62
     7
100
AcDbSpline
210
0.0
220
0.0
230
1.0
 70
     8
 71
     3
 72
     8
 73
     4
 74
     0
 42
0.0000000022106992
 43
0.0000000001
 40
0.9134788215064332
 40
0.9134788215064332
 40
0.9134788215064332
 40
0.9134788215064332
 40
0.9999967397220093
 40
0.9999967397220093
 40
0.9999967397220093
 40
0.9999967397220093
 10
471.3478727693978
 20
504.9190235186325
 30
0.0
 10
471.3502817228551
 20
504.771770714751
 30
0.0
 10
471.3517499648635
 20
504.6402564057441
 30
0.0
 10
471.3527973842898
 20
504.5276963140266
 30
0.0
  0
ARC
  5
16C
330
144
100
AcDbEntity
  8
$DDT_AUDIT_GENERATED_(93)
  6
Continuous
 62
     7
100
AcDbCircle
 10
444.9789199948
 20
507.5922189207
 30
0.0
 40
10.04686075270734
100
AcDbArc
 50
177.6239371695
 51
201.3814442945
  0
ARC
  5
16D
330
144
100
AcDbEntity
  8
$DDT_AUDIT_GENERATED_(93)
  6
Continuous
 62
     7
100
AcDbCircle
 10
441.7160665549
 20
506.1977181325
 30
0.0
 40
6.893294947443538
100
AcDbArc
 50
189.9896881693
 51
207.8917520289
  0
LINE
  5
16E
330
144
100
AcDbEntity
  8
$DDT_AUDIT_GENERATED_(93)
  6
Continuous
 62
     7
100
AcDbLine
 10
434.8235451298
 20
535.2789756366
 30
0.0
 11
434.8235451298
 21
537.5843273858
 31
0.0
  0
SPLINE
  5
16F
330
144
100
AcDbEntity
  8
$DDT_AUDIT_GENERATED_(93)
  6
Continuous
 62
     7
100
AcDbSpline
210
0.0
220
0.0
230
1.0
 70
     8
 71
     3
 72
    12
 73
     8
 74
     0
 42
0.0000000154105984
 43
0.0000000001
 40
0.0
 40
0.0
 40
0.0
 40
0.0
 40
0.25
 40
0.25
 40
0.5
 40
0.5
 40
0.702474908851572
 40
0.702474908851572
 40
0.702474908851572
 40
0.702474908851572
 10
434.823545129753
 20
534.8863607227083
 30
0.0
 10
434.823545129753
 20
534.9996707910142
 30
0.0
 10
434.8383598736589
 20
535.0785181193628
 30
0.0
 10
434.8579662084405
 20
535.2054006809462
 30
0.0
 10
434.8645530754462
 20
535.2517466430123
 30
0.0
 10
434.8645461721418
 20
535.3110276989324
 30
0.0
 10
434.860221052431
 20
535.3286377027596
 30
0.0
 10
434.8533728298553
 20
535.3354891851221
 30
0.0
  0
LINE
  5
170
330
144
100
AcDbEntity
  8
$DDT_AUDIT_GENERATED_(93)
  6
Continuous
 62
     7
100
AcDbLine
 10
434.8235451298
 20
532.7559697883
 30
0.0
 11
434.8235451298
 21
533.758977565
 31
0.0
  0
LINE
  5
171
330
144
100
AcDbEntity
  8
$DDT_AUDIT_GENERATED_(93)
  6
Continuous
 62
     7
100
AcDbLine
 10
434.8235451298
 20
535.1077941883
 30
0.0
 11
434.8235451298
 21
535.2789756366
 31
0.0
  0
LINE
  5
172
330
144
100
AcDbEntity
  8
$DDT_AUDIT_GENERATED_(93)
  6
Continuous
 62
     7
100
AcDbLine
 10
435.6235451298
 20
502.9730169191
 30
0.0
 11
435.6235451298
 21
503.9293822989
 31
0.0
  0
ARC
  5
173
330
144
100
AcDbEntity
  8
$DDT_AUDIT_GENERATED_(93)
  6
Continuous
 62
     7
100
AcDbCircle
 10
212.9700525924
 20
520.4802996555
 30
0.0
 40
222.3207294575021
100
AcDbArc
 50
356.7841828679
 51
3.6560383963
  0
LINE
  5
174
330
144
100
AcDbEntity
  8
$DDT_AUDIT_GENERATED_(93)
  6
Continuous
 62
     7
100
AcDbLine
 10
443.8235451298
 20
495.1113624517
 30
0.0
 11
462.8413851805
 21
495.1113624517
 31
0.0
  0
SPLINE
  5
175
330
144
100
AcDbEntity
  8
$DDT_AUDIT_GENERATED_(93)
  6
Continuous
 62
     7
100
AcDbSpline
210
0.0
220
0.0
230
1.0
 70
     8
 71
     3
 72
    12
 73
     8
 74
     0
 42
0.000000000847031
 43
0.0000000001
 40
0.0
 40
0.0
 40
0.0
 40
0.0
 40
0.1558345413812586
 40
0.3954707834506523
 40
0.6212542825959372
 40
0.8391823964734181
 40
1.0
 40
1.0
 40
1.0
 40
1.0
 10
576.818690022123
 20
513.3836094455962
 30
0.0
 10
577.3570653099785
 20
513.7885250467514
 30
0.0
 10
578.5104909506657
 20
514.6675509780281
 30
0.0
 10
580.2510450900985
 20
516.4822385462573
 30
0.0
 10
581.8613603196592
 20
518.5933486834522
 30
0.0
 10
583.2117209713269
 20
520.6171385025498
 30
0.0
 10
583.997397422621
 20
521.7568940857758
 30
0.0
 10
584.3896967499879
 20
522.3308210191409
 30
0.0
  0
ARC
  5
176
330
144
100
AcDbEntity
  8
$DDT_AUDIT_GENERATED_(93)
  6
Continuous
 62
     7
100
AcDbCircle
 10
548.1502587958
 20
362.0075594338
 30
0.0
 40
146.7874425139138
100
AcDbArc
 50
91.1097430136
 51
94.4992046268
  0
ARC
  5
177
330
144
100
AcDbEntity
  8
$DDT_AUDIT_GENERATED_(93)
  6
Continuous
 62
     7
100
AcDbCircle
 10
585.6306988916
 20
-349.9491975302
 30
0.0
 40
860.1964922856695
100
AcDbArc
 50
95.749387133
 51
97.5169875023
  0
LINE
  5
178
330
144
100
AcDbEntity
  8
$DDT_AUDIT_GENERATED_(93)
  6
Continuous
 62
     7
100
AcDbLine
 10
436.2098282617
 20
538.0842651846
 30
0.0
 11
435.3235538703
 21
538.0842837619
 31
0.0
  0
ARC
  5
179
330
144
100
AcDbEntity
  8
$DDT_AUDIT_GENERATED_(93)
  6
Continuous
 62
     7
100
AcDbCircle
 10
477.5521202311
 20
-227.7055184941
 30
0.0
 40
765.71402633234
100
AcDbArc
 50
87.3934229494
 51
89.0179323731
  0
ARC
  5
17A
330
144
100
AcDbEntity
  8
$DDT_AUDIT_GENERATED_(93)
  6
Continuous
 62
     7
100
AcDbCircle
 10
494.4718186215
 20
35.583049686
 30
0.0
 40
501.8618716613826
100
AcDbArc
 50
79.8432949878
 51
86.6624366227
  0
LINE
  5
17B
330
144
100
AcDbEntity
  8
$DDT_AUDIT_GENERATED_(93)
  6
Continuous
 62
     7
100
AcDbLine
 10
584.5417000001
 20
522.8069890516
 30
0.0
 11
584.5417000001
 21
528.9008927999
 31
0.0
  0
ARC
  5
17C
330
144
100
AcDbEntity
  8
$DDT_AUDIT_GENERATED_(93)
  6
Continuous
 62
     7
100
AcDbCircle
 10
583.6897534421
 20
522.8078277612
 30
0.0
 40
0.8519869823743249
100
AcDbArc
 50
325.8131701706
 51
359.940253953
  0
SPLINE
  5
17D
330
144
100
AcDbEntity
  8
$DDT_AUDIT_GENERATED_(93)
  6
Continuous
 62
     7
100
AcDbSpline
210
0.0
220
0.0
230
1.0
 70
     8
 71
     3
 72
    12
 73
     8
 74
     0
 42
0.0000000038951426
 43
0.0000000001
 40
0.0
 40
0.0
 40
0.0
 40
0.0
 40
0.1423035083877218
 40
0.4150475727685034
 40
0.588155014616261
 40
0.73986041766383
 40
1.0
 40
1.0
 40
1.0
 40
1.0
 10
471.5673814953079
 20
501.37737583103
 30
0.0
 10
471.5989303536199
 20
501.5024697823862
 30
0.0
 10
471.680379862172
 20
501.8092013108949
 30
0.0
 10
471.9478063456955
 20
502.2825822545038
 30
0.0
 10
472.2947767282907
 20
502.6591704977748
 30
0.0
 10
472.7183652099838
 20
502.9371425301624
 30
0.0
 10
473.0355528568321
 20
502.954491778238
 30
0.0
 10
473.2762670394065
 20
502.9627528877867
 30
0.0
  0
ARC
  5
17E
330
144
100
AcDbEntity
  8
$DDT_AUDIT_GENERATED_(93)
  6
Continuous
 62
     7
100
AcDbCircle
 10
435.323545129
 20
537.5841691754
 30
0.0
 40
0.4999999993454891
100
AcDbArc
 50
90.3584964532
 51
178.3022095455
  0
ARC
  5
17F
330
144
100
AcDbEntity
  8
$DDT_AUDIT_GENERATED_(93)
  6
Continuous
 62
     7
100
AcDbCircle
 10
584.0497321439
 20
528.8993022261
 30
0.0
 40
0.4911992976689191
100
AcDbArc
 50
1.2951658967
 51
68.2650804045
  0
ARC
  5
180
330
144
100
AcDbEntity
  8
$DDT_AUDIT_GENERATED_(93)
  6
Continuous
 62
     7
100
AcDbCircle
 10
500.0519071896
 20
499.9497747177
 30
0.0
 40
6.001476124806189
100
AcDbArc
 50
45.4615921283
 51
95.6662316249
  0
ARC
  5
181
330
144
100
AcDbEntity
  8
$DDT_AUDIT_GENERATED_(93)
  6
Continuous
 62
     7
100
AcDbCircle
 10
537.0463397885
 20
502.355245077
 30
0.0
 40
6.002236484903456
100
AcDbArc
 50
93.9273103542
 51
161.2306986519
  0
ARC
  5
182
330
144
100
AcDbEntity
  8
$DDT_AUDIT_GENERATED_(93)
  6
Continuous
 62
     7
100
AcDbCircle
 10
531.1078326563
 20
504.4653152215
 30
0.0
 40
0.2999999966289176
100
AcDbArc
 50
269.999921486
 51
338.5321820113
  0
ARC
  5
183
330
144
100
AcDbEntity
  8
$DDT_AUDIT_GENERATED_(93)
  6
Continuous
 62
     7
100
AcDbCircle
 10
504.4471874796
 20
504.4653151246
 30
0.0
 40
0.2999999009143878
100
AcDbArc
 50
232.8432383697
 51
270.0010345954
  0
ARC
  5
184
330
144
100
AcDbEntity
  8
$DDT_AUDIT_GENERATED_(93)
  6
Continuous
 62
     7
100
AcDbCircle
 10
443.8235451299
 20
504.1114081659
 30
0.0
 40
8.999999550627525
100
AcDbArc
 50
183.3215339918
 51
270.0110808292
  0
ARC
  5
185
330
144
100
AcDbEntity
  8
$DDT_AUDIT_GENERATED_(93)
  6
Continuous
 62
     7
100
AcDbCircle
 10
462.9052689824
 20
504.2019413172
 30
0.0
 40
9.089599320235214
100
AcDbArc
 50
269.6946806309
 51
342.3217402083
  0
LINE
  5
186
330
144
100
AcDbEntity
  8
$DDT_AUDIT_GENERATED_(D1)
  6
Continuous
 62
     7
100
AcDbLine
 10
489.372616215
 20
558.6924897206
 30
0.0
 11
437.5011815575
 21
558.6924897206
 31
0.0
  0
ARC
  5
187
330
144
100
AcDbEntity
  8
$DDT_AUDIT_GENERATED_(D1)
  6
Continuous
 62
     7
100
AcDbCircle
 10
-9.3911785689
 20
523.5545186251
 30
0.0
 40
500.0
100
AcDbArc
 50
1.6438272563
 51
4.0298365732
  0
ARC
  5
188
330
144
100
AcDbEntity
  8
$DDT_AUDIT_GENERATED_(D1)
  6
Continuous
 62
     7
100
AcDbCircle
 10
936.2649763415
 20
523.5545186251
 30
0.0
 40
499.9999999999999
100
AcDbArc
 50
175.9701634268
 51
178.3354954112
  0
ARC
  5
189
330
144
100
AcDbEntity
  8
$DDT_AUDIT_GENERATED_(D1)
  6
Continuous
 62
     7
100
AcDbCircle
 10
463.4368988863
 20
556.8653152237
 30
0.0
 40
26.0
100
AcDbArc
 50
4.0298365732
 51
22.1174189327
  0
ARC
  5
18A
330
144
100
AcDbEntity
  8
$DDT_AUDIT_GENERATED_(D1)
  6
Continuous
 62
     7
100
AcDbCircle
 10
463.4368988863
 20
556.8653152237
 30
0.0
 40
26.0
100
AcDbArc
 50
157.8663126243
 51
175.9701634268
  0
LINE
  5
18B
330
144
100
AcDbEntity
  8
A4225108_211188_
  6
Continuous
 62
     7
100
AcDbLine
 10
507.7519364842
 20
485.9453152237
 30
0.0
 11
528.2519364842
 21
485.9453152237
 31
0.0
  0
LINE
  5
18C
330
144
100
AcDbEntity
  8
A4225108_211188_
  6
Continuous
 62
     7
100
AcDbLine
 10
508.7519364842
 20
484.9453152237
 30
0.0
 11
527.2519364842
 21
484.9453152237
 31
0.0
  0
LINE
  5
18D
330
144
100
AcDbEntity
  8
A4225108_211188_
  6
Continuous
 62
     7
100
AcDbLine
 10
528.2519364842
 20
485.9453152237
 30
0.0
 11
528.2519364842
 21
504.1653152237
 31
0.0
  0
LINE
  5
18E
330
144
100
AcDbEntity
  8
A4225108_211188_
  6
Continuous
 62
     7
100
AcDbLine
 10
507.7519364842
 20
504.1653152237
 30
0.0
 11
507.7519364842
 21
485.9453152237
 31
0.0
  0
LINE
  5
18F
330
144
100
AcDbEntity
  8
A4225108_211188_
  6
Continuous
 62
     7
100
AcDbLine
 10
507.7519364842
 20
485.9453152237
 30
0.0
 11
508.7519364842
 21
484.9453152237
 31
0.0
  0
LINE
  5
190
330
144
100
AcDbEntity
  8
A4225108_211188_
  6
Continuous
 62
     7
100
AcDbLine
 10
527.2519364842
 20
484.9453152237
 30
0.0
 11
528.2519364842
 21
485.9453152237
 31
0.0
  0
LINE
  5
191
330
144
100
AcDbEntity
  8
A4225112_211188_
  6
Continuous
 62
     7
100
AcDbLine
 10
512.4019364842
 20
542.5953152237
 30
0.0
 11
512.4019364842
 21
537.2187826664
 31
0.0
  0
LINE
  5
192
330
144
100
AcDbEntity
  8
A4225112_211188_
  6
Continuous
 62
     7
100
AcDbLine
 10
523.6019364842
 20
536.6152194354
 30
0.0
 11
523.6019364842
 21
542.5953152237
 31
0.0
  0
LINE
  5
193
330
144
100
AcDbEntity
  8
$DDT_AUDIT_GENERATED_(E2)
  6
Continuous
 62
     7
100
AcDbLine
 10
575.2019364842
 20
508.0684612095
 30
0.0
 11
553.7019364842
 21
508.0684612095
 31
0.0
  0
SPLINE
  5
194
330
144
100
AcDbEntity
  8
$DDT_AUDIT_GENERATED_(E2)
  6
Continuous
 62
     7
100
AcDbSpline
210
0.0
220
0.0
230
1.0
 70
     8
 71
     3
 72
    10
 73
     6
 74
     0
 42
0.0000000019260148
 43
0.0000000001
 40
0.0
 40
0.0
 40
0.0
 40
0.0
 40
0.5
 40
0.5
 40
1.0
 40
1.0
 40
1.0
 40
1.0
 10
567.0384399154319
 20
508.3860038575936
 30
0.0
 10
566.1764190935929
 20
508.2720860169277
 30
0.0
 10
565.3143277686492
 20
508.212808891403
 30
0.0
 10
563.5899921738971
 20
508.2127886648921
 30
0.0
 10
562.7277479020286
 20
508.2720471606086
 30
0.0
 10
561.8654330528807
 20
508.3860038575936
 30
0.0
  0
LINE
  5
195
330
144
100
AcDbEntity
  8
$DDT_AUDIT_GENERATED_(E2)
  6
Continuous
 62
     7
100
AcDbLine
 10
568.722767785
 20
509.2520292614
 30
0.0
 11
576.2519364842
 21
509.2520292614
 31
0.0
  0
LINE
  5
196
330
144
100
AcDbEntity
  8
$DDT_AUDIT_GENERATED_(E2)
  6
Continuous
 62
     7
100
AcDbLine
 10
568.722767785
 20
511.0684612095
 30
0.0
 11
560.1811051833
 21
511.0684612095
 31
0.0
  0
LINE
  5
197
330
144
100
AcDbEntity
  8
$DDT_AUDIT_GENERATED_(E2)
  6
Continuous
 62
     7
100
AcDbLine
 10
568.722767785
 20
511.0684612095
 30
0.0
 11
568.722767785
 21
509.2520292614
 31
0.0
  0
SPLINE
  5
198
330
144
100
AcDbEntity
  8
$DDT_AUDIT_GENERATED_(E2)
  6
Continuous
 62
     7
100
AcDbSpline
210
0.0
220
0.0
230
1.0
 70
     8
 71
     3
 72
    14
 73
    10
 74
     0
 42
0.0000000049321089
 43
0.0000000001
 40
0.0
 40
0.0
 40
0.0
 40
0.0
 40
0.1250000000000004
 40
0.1250000000000004
 40
0.2500000000000009
 40
0.2500000000000009
 40
0.5000000000000008
 40
0.5000000000000008
 40
1.0
 40
1.0
 40
1.0
 40
1.0
 10
568.7227677849689
 20
509.252029261378
 30
0.0
 10
568.7227677849689
 20
509.1677879624526
 30
0.0
 10
568.690636293689
 20
509.0836507081533
 30
0.0
 10
568.594838694458
 20
508.9444528069013
 30
0.0
 10
568.531711830165
 20
508.8854374039584
 30
0.0
 10
568.3294018793842
 20
508.7343164952044
 30
0.0
 10
568.1734122691324
 20
508.6629117742805
 30
0.0
 10
567.702646184698
 20
508.4915396586329
 30
0.0
 10
567.3702329066605
 20
508.4298509899961
 30
0.0
 10
567.0384399154319
 20
508.3860038575936
 30
0.0
  0
SPLINE
  5
199
330
144
100
AcDbEntity
  8
$DDT_AUDIT_GENERATED_(E2)
  6
Continuous
 62
     7
100
AcDbSpline
210
0.0
220
0.0
230
1.0
 70
     8
 71
     3
 72
    18
 73
    14
 74
     0
 42
0.0000000049401632
 43
0.0000000001
 40
0.0
 40
0.0
 40
0.0
 40
0.0
 40
0.2499999999999998
 40
0.2499999999999998
 40
0.4999999999999997
 40
0.4999999999999997
 40
0.6249999999999992
 40
0.6249999999999992
 40
0.7499999999999989
 40
0.7499999999999989
 40
0.8749999999999994
 40
0.8749999999999994
 40
1.0
 40
1.0
 40
1.0
 40
1.0
 10
561.8654330528807
 20
508.3860038575936
 30
0.0
 10
561.6990402727171
 20
508.4079930088278
 30
0.0
 10
561.5334877165003
 20
508.4350672664301
 30
0.0
 10
561.2051199699558
 20
508.5057825514443
 30
0.0
 10
561.0423499722975
 20
508.5492353770822
 30
0.0
 10
560.8068780145285
 20
508.6351650311764
 30
0.0
 10
560.7297090725823
 20
508.6673336761622
 30
0.0
 10
560.5793831831601
 20
508.7423722444445
 30
0.0
 10
560.5058125902113
 20
508.7855082226631
 30
0.0
 10
560.3717944074092
 20
508.8858070723169
 30
0.0
 10
560.3094160235345
 20
508.9439162387985
 30
0.0
 10
560.2129323505569
 20
509.0840747881661
 30
0.0
 10
560.1811051833438
 20
509.166278278153
 30
0.0
 10
560.1811051833438
 20
509.252029261378
 30
0.0
  0
LINE
  5
19A
330
144
100
AcDbEntity
  8
$DDT_AUDIT_GENERATED_(E2)
  6
Continuous
 62
     7
100
AcDbLine
 10
560.1811051833
 20
509.2520292614
 30
0.0
 11
560.1811051833
 21
511.0684612095
 31
0.0
  0
LINE
  5
19B
330
144
100
AcDbEntity
  8
$DDT_AUDIT_GENERATED_(E2)
  6
Continuous
 62
     7
100
AcDbLine
 10
561.8654330529
 20
508.3860038576
 30
0.0
 11
553.1519364842
 21
508.3860038576
 31
0.0
  0
LINE
  5
19C
330
144
100
AcDbEntity
  8
$DDT_AUDIT_GENERATED_(E2)
  6
Continuous
 62
     7
100
AcDbLine
 10
560.1811051833
 20
509.2520292614
 30
0.0
 11
552.6519364842
 21
509.2520292614
 31
0.0
  0
LINE
  5
19D
330
144
100
AcDbEntity
  8
$DDT_AUDIT_GENERATED_(E2)
  6
Continuous
 62
     7
100
AcDbLine
 10
553.1519364842
 20
508.3860038576
 30
0.0
 11
553.7019364842
 21
508.0684612095
 31
0.0
  0
LINE
  5
19E
330
144
100
AcDbEntity
  8
$DDT_AUDIT_GENERATED_(E2)
  6
Continuous
 62
     7
100
AcDbLine
 10
575.2019364842
 20
508.0684612095
 30
0.0
 11
575.7519364842
 21
508.3860038576
 31
0.0
  0
ARC
  5
19F
330
144
100
AcDbEntity
  8
$DDT_AUDIT_GENERATED_(E2)
  6
Continuous
 62
     7
100
AcDbCircle
 10
553.6519364842
 20
509.2520292614
 30
0.0
 40
1.000000000000001
100
AcDbArc
 50
180.0
 51
240.0
  0
ARC
  5
1A0
330
144
100
AcDbEntity
  8
$DDT_AUDIT_GENERATED_(E2)
  6
Continuous
 62
     7
100
AcDbCircle
 10
575.2519364842
 20
509.2520292614
 30
0.0
 40
1.000000000000001
100
AcDbArc
 50
300.0
 51
0.0
  0
LINE
  5
1A1
330
144
100
AcDbEntity
  8
$DDT_AUDIT_GENERATED_(E2)
  6
Continuous
 62
     7
100
AcDbLine
 10
552.6519364842
 20
512.5358637549
 30
0.0
 11
552.6519364842
 21
509.2520292614
 31
0.0
  0
LINE
  5
1A2
330
144
100
AcDbEntity
  8
$DDT_AUDIT_GENERATED_(E2)
  6
Continuous
 62
     7
100
AcDbLine
 10
576.2519364842
 20
509.2520292614
 30
0.0
 11
576.2519364842
 21
513.2943348837
 31
0.0
  0
LINE
  5
1A3
330
144
100
AcDbEntity
  8
$DDT_AUDIT_GENERATED_(F1)
  6
Continuous
 62
     7
100
AcDbLine
 10
509.5019364842
 20
542.5953152237
 30
0.0
 11
526.5019364842
 21
542.5953152237
 31
0.0
  0
LINE
  5
1A4
330
144
100
AcDbEntity
  8
$DDT_AUDIT_GENERATED_(F1)
  6
Continuous
 62
     7
100
AcDbLine
 10
509.0019364842
 20
561.236213606
 30
0.0
 11
527.0019364842
 21
561.236213606
 31
0.0
  0
LINE
  5
1A5
330
144
100
AcDbEntity
  8
$DDT_AUDIT_GENERATED_(F1)
  6
Continuous
 62
     7
100
AcDbLine
 10
527.0019364842
 20
543.0953152237
 30
0.0
 11
527.0019364842
 21
561.236213606
 31
0.0
  0
LINE
  5
1A6
330
144
100
AcDbEntity
  8
$DDT_AUDIT_GENERATED_(F1)
  6
Continuous
 62
     7
100
AcDbLine
 10
509.0019364842
 20
561.236213606
 30
0.0
 11
509.0019364842
 21
543.0953152237
 31
0.0
  0
ARC
  5
1A7
330
144
100
AcDbEntity
  8
$DDT_AUDIT_GENERATED_(F1)
  6
Continuous
 62
     7
100
AcDbCircle
 10
518.0019364842
 20
483.0953152237
 30
0.0
 40
80.00000000000004
100
AcDbArc
 50
84.5175184369
 51
90.0
  0
ARC
  5
1A8
330
144
100
AcDbEntity
  8
$DDT_AUDIT_GENERATED_(F1)
  6
Continuous
 62
     7
100
AcDbCircle
 10
518.0019364842
 20
483.0953152237
 30
0.0
 40
80.0
100
AcDbArc
 50
90.0
 51
95.4824815631
  0
ARC
  5
1A9
330
144
100
AcDbEntity
  8
$DDT_AUDIT_GENERATED_(F1)
  6
Continuous
 62
     7
100
AcDbCircle
 10
509.5019364842
 20
543.0953152237
 30
0.0
 40
0.5000000000000004
100
AcDbArc
 50
180.0
 51
270.0
  0
ARC
  5
1AA
330
144
100
AcDbEntity
  8
$DDT_AUDIT_GENERATED_(F1)
  6
Continuous
 62
     7
100
AcDbCircle
 10
526.5019364842
 20
543.0953152237
 30
0.0
 40
0.5000000000000004
100
AcDbArc
 50
270.0
 51
0.0
  0
ARC
  5
1AB
330
144
100
AcDbEntity
  8
$DDT_AUDIT_GENERATED_(F1)
  6
Continuous
 62
     7
100
AcDbCircle
 10
525.5019364842
 20
561.236213606
 30
0.0
 40
1.499999999999988
100
AcDbArc
 50
0.0
 51
84.5175184369
  0
ARC
  5
1AC
330
144
100
AcDbEntity
  8
$DDT_AUDIT_GENERATED_(F1)
  6
Continuous
 62
     7
100
AcDbCircle
 10
510.5019364842
 20
561.236213606
 30
0.0
 40
1.500000000000022
100
AcDbArc
 50
95.4824815631
 51
180.0
  0
LINE
  5
1AE
330
144
100
AcDbEntity
  8
$DDT_AUDIT_GENERATED_(1AD)
  6
Continuous
 62
     7
100
AcDbLine
 10
434.9368988885
 20
503.6653152237
 30
0.0
 11
434.9368988885
 21
528.4175145086
 31
0.0
  0
LINE
  5
1AF
330
144
100
AcDbEntity
  8
$DDT_AUDIT_GENERATED_(1AD)
  6
Continuous
 62
     7
100
AcDbLine
 10
417.9368988885
 20
503.6653152237
 30
0.0
 11
417.9368988885
 21
532.6653152237
 31
0.0
  0
LINE
  5
1B0
330
144
100
AcDbEntity
  8
$DDT_AUDIT_GENERATED_(1AD)
  6
Continuous
 62
     7
100
AcDbLine
 10
421.4368988885
 20
533.1653152237
 30
0.0
 11
421.4368988885
 21
531.0779739973
 31
0.0
  0
LINE
  5
1B1
330
144
100
AcDbEntity
  8
$DDT_AUDIT_GENERATED_(1AD)
  6
Continuous
 62
     7
100
AcDbLine
 10
421.4368988885
 20
520.25265645
 30
0.0
 11
421.4368988885
 21
516.0779739973
 31
0.0
  0
LINE
  5
1B2
330
144
100
AcDbEntity
  8
$DDT_AUDIT_GENERATED_(1AD)
  6
Continuous
 62
     7
100
AcDbLine
 10
421.4368988885
 20
505.25265645
 30
0.0
 11
421.4368988885
 21
503.1653152237
 31
0.0
  0
LINE
  5
1B3
330
144
100
AcDbEntity
  8
$DDT_AUDIT_GENERATED_(1AD)
  6
Continuous
 62
     7
100
AcDbLine
 10
421.4368988885
 20
503.1653152237
 30
0.0
 11
418.6411701594
 21
503.1653152237
 31
0.0
  0
ARC
  5
1B4
330
144
100
AcDbEntity
  8
$DDT_AUDIT_GENERATED_(1AD)
  6
Continuous
 62
     7
100
AcDbCircle
 10
425.2154584077
 20
510.6653152237
 30
0.0
 40
6.601089837288611
100
AcDbArc
 50
124.9187681796
 51
235.0812318205
  0
ARC
  5
1B5
330
144
100
AcDbEntity
  8
$DDT_AUDIT_GENERATED_(1AD)
  6
Continuous
 62
     7
100
AcDbCircle
 10
425.2154584077
 20
525.6653152237
 30
0.0
 40
6.601089837288617
100
AcDbArc
 50
124.9187681796
 51
235.0812318204
  0
LINE
  5
1B6
330
144
100
AcDbEntity
  8
$DDT_AUDIT_GENERATED_(1AD)
  6
Continuous
 62
     7
100
AcDbLine
 10
421.4368988885
 20
533.1653152237
 30
0.0
 11
418.6411701594
 21
533.1653152237
 31
0.0
  0
LINE
  5
1B7
330
144
100
AcDbEntity
  8
$DDT_AUDIT_GENERATED_(1AD)
  6
Continuous
 62
     7
100
AcDbLine
 10
431.4368988885
 20
533.1653152237
 30
0.0
 11
431.4368988885
 21
531.0779739973
 31
0.0
  0
LINE
  5
1B8
330
144
100
AcDbEntity
  8
$DDT_AUDIT_GENERATED_(1AD)
  6
Continuous
 62
     7
100
AcDbLine
 10
431.4368988885
 20
520.25265645
 30
0.0
 11
431.4368988885
 21
516.0779739973
 31
0.0
  0
LINE
  5
1B9
330
144
100
AcDbEntity
  8
$DDT_AUDIT_GENERATED_(1AD)
  6
Continuous
 62
     7
100
AcDbLine
 10
431.4368988885
 20
505.25265645
 30
0.0
 11
431.4368988885
 21
503.1653152237
 31
0.0
  0
LINE
  5
1BA
330
144
100
AcDbEntity
  8
$DDT_AUDIT_GENERATED_(1AD)
  6
Continuous
 62
     7
100
AcDbLine
 10
431.4368988885
 20
533.1653152237
 30
0.0
 11
434.2326276176
 21
533.1653152237
 31
0.0
  0
LINE
  5
1BB
330
144
100
AcDbEntity
  8
$DDT_AUDIT_GENERATED_(1AD)
  6
Continuous
 62
     7
100
AcDbLine
 10
431.4368988885
 20
533.1653152237
 30
0.0
 11
421.4368988885
 21
533.1653152237
 31
0.0
  0
LINE
  5
1BC
330
144
100
AcDbEntity
  8
$DDT_AUDIT_GENERATED_(1AD)
  6
Continuous
 62
     7
100
AcDbLine
 10
421.4368988885
 20
531.0779739973
 30
0.0
 11
431.4368988885
 21
531.0779739973
 31
0.0
  0
ARC
  5
1BD
330
144
100
AcDbEntity
  8
$DDT_AUDIT_GENERATED_(1AD)
  6
Continuous
 62
     7
100
AcDbCircle
 10
427.6583393693
 20
525.6653152237
 30
0.0
 40
6.601089837288605
100
AcDbArc
 50
304.9187681795
 51
55.0812318204
  0
LINE
  5
1BE
330
144
100
AcDbEntity
  8
$DDT_AUDIT_GENERATED_(1AD)
  6
Continuous
 62
     7
100
AcDbLine
 10
431.4368988885
 20
520.25265645
 30
0.0
 11
421.4368988885
 21
520.25265645
 31
0.0
  0
LINE
  5
1BF
330
144
100
AcDbEntity
  8
$DDT_AUDIT_GENERATED_(1AD)
  6
Continuous
 62
     7
100
AcDbLine
 10
421.4368988885
 20
516.0779739973
 30
0.0
 11
431.4368988885
 21
516.0779739973
 31
0.0
  0
ARC
  5
1C0
330
144
100
AcDbEntity
  8
$DDT_AUDIT_GENERATED_(1AD)
  6
Continuous
 62
     7
100
AcDbCircle
 10
427.6583393693
 20
510.6653152237
 30
0.0
 40
6.60108983728861
100
AcDbArc
 50
304.9187681796
 51
55.0812318204
  0
LINE
  5
1C1
330
144
100
AcDbEntity
  8
$DDT_AUDIT_GENERATED_(1AD)
  6
Continuous
 62
     7
100
AcDbLine
 10
431.4368988885
 20
505.25265645
 30
0.0
 11
421.4368988885
 21
505.25265645
 31
0.0
  0
LINE
  5
1C2
330
144
100
AcDbEntity
  8
$DDT_AUDIT_GENERATED_(1AD)
  6
Continuous
 62
     7
100
AcDbLine
 10
421.4368988885
 20
503.1653152237
 30
0.0
 11
431.4368988885
 21
503.1653152237
 31
0.0
  0
LINE
  5
1C3
330
144
100
AcDbEntity
  8
$DDT_AUDIT_GENERATED_(1AD)
  6
Continuous
 62
     7
100
AcDbLine
 10
431.4368988885
 20
503.1653152237
 30
0.0
 11
434.2326276176
 21
503.1653152237
 31
0.0
  0
ARC
  5
1C4
330
144
100
AcDbEntity
  8
$DDT_AUDIT_GENERATED_(1AD)
  6
Continuous
 62
     7
100
AcDbCircle
 10
428.8011976903
 20
524.7689128272
 30
0.0
 40
9.999999999999998
100
AcDbArc
 50
52.1519040322
 51
57.1103495616
  0
ARC
  5
1C5
330
144
100
AcDbEntity
  8
$DDT_AUDIT_GENERATED_(1AD)
  6
Continuous
 62
     7
100
AcDbCircle
 10
428.8011976903
 20
511.5617176201
 30
0.0
 40
9.999999999999996
100
AcDbArc
 50
302.8893611151
 51
307.8480959678
  0
ARC
  5
1C6
330
144
100
AcDbEntity
  8
$DDT_AUDIT_GENERATED_(1AD)
  6
Continuous
 62
     7
100
AcDbCircle
 10
424.0726000867
 20
524.7689128272
 30
0.0
 40
9.999999999999998
100
AcDbArc
 50
122.8893611151
 51
127.8480959678
  0
ARC
  5
1C7
330
144
100
AcDbEntity
  8
$DDT_AUDIT_GENERATED_(1AD)
  6
Continuous
 62
     7
100
AcDbCircle
 10
424.0726000867
 20
511.5617176201
 30
0.0
 40
9.999999999999998
100
AcDbArc
 50
232.1519040322
 51
237.1103495616
  0
ARC
  5
1C8
330
144
100
AcDbEntity
  8
$DDT_AUDIT_GENERATED_(FD)
  6
Continuous
 62
     7
100
AcDbCircle
 10
479.6796961942
 20
654.7645381152
 30
0.0
 40
55.05106919721898
100
AcDbArc
 50
271.6816593701
 51
277.5301830335
  0
ARC
  5
1C9
330
144
100
AcDbEntity
  8
$DDT_AUDIT_GENERATED_(FD)
  6
Continuous
 62
     7
100
AcDbCircle
 10
561.3476176299
 20
-28.8649169375
 30
0.0
 40
633.4438947368553
100
AcDbArc
 50
89.948915809
 51
96.7500197348
  0
ARC
  5
1CA
330
144
100
AcDbEntity
  8
$DDT_AUDIT_GENERATED_(FD)
  6
Continuous
 62
     7
100
AcDbCircle
 10
597.824701678
 20
-306.5501198254
 30
0.0
 40
916.756342948524
100
AcDbArc
 50
97.3333801412
 51
100.0991678969
  0
ARC
  5
1CB
330
144
100
AcDbEntity
  8
$DDT_AUDIT_GENERATED_(FD)
  6
Continuous
 62
     7
100
AcDbCircle
 10
570.2048185933
 20
-103.0292152423
 30
0.0
 40
711.3761286535582
100
AcDbArc
 50
96.7382332953
 51
97.2193282626
  0
ARC
  5
1CC
330
144
100
AcDbEntity
  8
$DDT_AUDIT_GENERATED_(FD)
  6
Continuous
 62
     7
100
AcDbCircle
 10
551.3853648655
 20
88.1395654312
 30
0.0
 40
519.3331551682279
100
AcDbArc
 50
88.9240182491
 51
97.1509689386
  0
ARC
  5
1CD
330
144
100
AcDbEntity
  8
$DDT_AUDIT_GENERATED_(FD)
  6
Continuous
 62
     7
100
AcDbCircle
 10
557.6484805827
 20
19.1817107124
 30
0.0
 40
584.2988428078801
100
AcDbArc
 50
89.6630988091
 51
96.9151696689
  0
ARC
  5
1CE
330
144
100
AcDbEntity
  8
$DDT_AUDIT_GENERATED_(FD)
  6
Continuous
 62
     7
100
AcDbCircle
 10
487.0236235043
 20
630.8092769298
 30
0.0
 40
31.59572181085466
100
AcDbArc
 50
259.554364217
 51
269.9591785083
  0
ARC
  5
1CF
330
144
100
AcDbEntity
  8
$DDT_AUDIT_GENERATED_(FD)
  6
Continuous
 62
     7
100
AcDbCircle
 10
519.7395608742
 20
581.0521732463
 30
0.0
 40
30.50784007854046
100
AcDbArc
 50
173.8398296052
 51
188.2397281548
  0
LINE
  5
1D0
330
144
100
AcDbEntity
  8
$DDT_AUDIT_GENERATED_(FD)
  6
Continuous
 62
     7
100
AcDbLine
 10
489.5249169771
 20
566.6326227312
 30
0.0
 11
435.9364466243
 21
566.6326227312
 31
0.0
  0
LINE
  5
1D1
330
144
100
AcDbEntity
  8
$DDT_AUDIT_GENERATED_(FD)
  6
Continuous
 62
     7
100
AcDbLine
 10
561.9122654241
 20
604.5797019156
 30
0.0
 11
561.6218624608
 21
606.9448784222
 31
0.0
  0
SPLINE
  5
1D2
330
144
100
AcDbEntity
  8
$DDT_AUDIT_GENERATED_(FD)
  6
Continuous
 62
     7
100
AcDbSpline
210
0.0
220
0.0
230
1.0
 70
     8
 71
     3
 72
    30
 73
    26
 74
     0
 42
0.0000000001442038
 43
0.0000000001
 40
0.0
 40
0.0
 40
0.0
 40
0.0
 40
0.0118850602672179
 40
0.0995430885726963
 40
0.1800261768133511
 40
0.2536994935225022
 40
0.3210466946853643
 40
0.3825503976688612
 40
0.4386920419737145
 40
0.5090552805958625
 40
0.5701102304221274
 40
0.6219940006663944
 40
0.6648450184248738
 40
0.699154634399958
 40
0.7299344144867378
 40
0.7558858582156229
 40
0.7803475698380009
 40
0.8058643393339313
 40
0.8338641302449445
 40
0.8541907982380441
 40
0.8765459422931862
 40
0.9017002500816622
 40
0.9311427628828156
 40
0.9664526336617023
 40
1.0
 40
1.0
 40
1.0
 40
1.0
 10
491.885644965978
 20
599.1903674845158
 30
0.0
 10
492.186144241563
 20
599.2222887414787
 30
0.0
 10
494.3476933625283
 20
599.4517475330099
 30
0.0
 10
498.6273903027056
 20
599.865709772642
 30
0.0
 10
504.1458415666748
 20
600.3735376732827
 30
0.0
 10
509.2589244121531
 20
600.8044150865561
 30
0.0
 10
513.9237430130523
 20
601.1643043334229
 30
0.0
 10
518.1899658897275
 20
601.4630691649706
 30
0.0
 10
522.5269169747879
 20
601.7372933863791
 30
0.0
 10
526.8555503026439
 20
601.9806359133844
 30
0.0
 10
531.0879258372645
 20
602.1788225159045
 30
0.0
 10
534.6867926341084
 20
602.3057615782692
 30
0.0
 10
537.6691068996438
 20
602.367917478432
 30
0.0
 10
540.1643078232374
 20
602.3684007930541
 30
0.0
 10
542.2682995662962
 20
602.3202115078993
 30
0.0
 10
544.1435593083908
 20
602.2459003648538
 30
0.0
 10
545.8978359203462
 20
602.1895898920121
 30
0.0
 10
547.7005226816306
 20
602.1806385214712
 30
0.0
 10
549.4070833432042
 20
602.2221161911742
 30
0.0
 10
551.0391814252317
 20
602.3003318461731
 30
0.0
 10
552.6035155884683
 20
602.4012755066015
 30
0.0
 10
554.3784118363634
 20
602.5492329593019
 30
0.0
 10
556.4339239999772
 20
602.7761647023585
 30
0.0
 10
558.7320209945269
 20
603.088946940439
 30
0.0
 10
560.1885732613758
 20
603.3273566800084
 30
0.0
 10
561.0300715530522
 20
603.4668174636838
 30
0.0
  0
ARC
  5
1D3
330
144
100
AcDbEntity
  8
$DDT_AUDIT_GENERATED_(FD)
  6
Continuous
 62
     7
100
AcDbCircle
 10
560.9451543072
 20
604.4294086846
 30
0.0
 40
0.964904892863139
100
AcDbArc
 50
284.9886640402
 51
8.8804901198
  0
ARC
  5
1D4
330
144
100
AcDbEntity
  8
$DDT_AUDIT_GENERATED_(FD)
  6
Continuous
 62
     7
100
AcDbCircle
 10
437.1553735096
 20
595.5092227322
 30
0.0
 40
0.4999999999772801
100
AcDbArc
 50
100.0407726949
 51
177.4902356446
  0
ARC
  5
1D5
330
144
100
AcDbEntity
  8
$DDT_AUDIT_GENERATED_(FD)
  6
Continuous
 62
     7
100
AcDbCircle
 10
561.1388096298
 20
606.8991185269
 30
0.0
 40
0.4789183645856394
100
AcDbArc
 50
5.5304412524
 51
75.8443387689
  0
ARC
  5
1D6
330
144
100
AcDbEntity
  8
$DDT_AUDIT_GENERATED_(FD)
  6
Continuous
 62
     7
100
AcDbCircle
 10
492.1927046757
 20
596.2088118131
 30
0.0
 40
2.999999999998985
100
AcDbArc
 50
95.8507190748
 51
181.0489495876
  0
LINE
  5
1D7
330
144
100
AcDbEntity
  8
$DDT_AUDIT_GENERATED_(FD)
  6
Continuous
 62
     7
100
AcDbLine
 10
489.4086674916
 20
584.2824964752
 30
0.0
 11
489.1931986611
 21
596.1543722305
 31
0.0
  0
LINE
  5
1D8
330
144
100
AcDbEntity
  8
$DDT_AUDIT_GENERATED_(FD)
  6
Continuous
 62
     7
100
AcDbLine
 10
489.7253077351
 20
566.836290353
 30
0.0
 11
489.5466503021
 21
576.6799361491
 31
0.0
  0
LINE
  5
1D9
330
144
100
AcDbEntity
  8
$DDT_AUDIT_GENERATED_(FD)
  6
Continuous
 62
     7
100
AcDbLine
 10
436.6558002843
 20
595.5305291892
 30
0.0
 11
435.7327883507
 21
566.8400811025
 31
0.0
  0
ARC
  5
1DA
330
144
100
AcDbEntity
  8
$DDT_AUDIT_GENERATED_(FD)
  6
Continuous
 62
     7
100
AcDbCircle
 10
489.5252192177
 20
566.8326227711
 30
0.0
 40
0.1999987112533215
100
AcDbArc
 50
269.9297146285
 51
1.0127768573
  0
ARC
  5
1DB
330
144
100
AcDbEntity
  8
$DDT_AUDIT_GENERATED_(FD)
  6
Continuous
 62
     7
100
AcDbCircle
 10
435.9328010603
 20
566.8326228
 30
0.0
 40
0.1999983915428617
100
AcDbArc
 50
178.5852975086
 51
270.0858767549
  0
LINE
  5
1DC
330
144
100
AcDbEntity
  8
$DDT_AUDIT_GENERATED_(126)
  6
Continuous
 62
     7
100
AcDbLine
 10
413.9368988885
 20
503.1653152237
 30
0.0
 11
413.9368988885
 21
533.1653152237
 31
0.0
  0
LINE
  5
1DD
330
144
100
AcDbEntity
  8
$DDT_AUDIT_GENERATED_(126)
  6
Continuous
 62
     7
100
AcDbLine
 10
412.9368988885
 20
534.1653152237
 30
0.0
 11
412.9368988885
 21
502.1653152237
 31
0.0
  0
LINE
  5
1DE
330
144
100
AcDbEntity
  8
$DDT_AUDIT_GENERATED_(126)
  6
Continuous
 62
     7
100
AcDbLine
 10
407.9368988885
 20
502.1653152237
 30
0.0
 11
412.9368988885
 21
502.1653152237
 31
0.0
  0
LINE
  5
1DF
330
144
100
AcDbEntity
  8
$DDT_AUDIT_GENERATED_(126)
  6
Continuous
 62
     7
100
AcDbLine
 10
412.9368988885
 20
534.1653152237
 30
0.0
 11
407.9368988885
 21
534.1653152237
 31
0.0
  0
ARC
  5
1E0
330
144
100
AcDbEntity
  8
$DDT_AUDIT_GENERATED_(126)
  6
Continuous
 62
     7
100
AcDbCircle
 10
407.9368988885
 20
487.1653152237
 30
0.0
 40
15.00000000000004
100
AcDbArc
 50
90.0
 51
180.0
  0
ARC
  5
1E1
330
144
100
AcDbEntity
  8
$DDT_AUDIT_GENERATED_(126)
  6
Continuous
 62
     7
100
AcDbCircle
 10
407.9368988885
 20
487.1653152237
 30
0.0
 40
47.00000000000004
100
AcDbArc
 50
90.0
 51
180.0
  0
LINE
  5
1E2
330
144
100
AcDbEntity
  8
$DDT_AUDIT_GENERATED_(126)
  6
Continuous
 62
     7
100
AcDbLine
 10
392.9368988885
 20
448.4653152237
 30
0.0
 11
392.9368988885
 21
487.1653152237
 31
0.0
  0
LINE
  5
1E3
330
144
100
AcDbEntity
  8
$DDT_AUDIT_GENERATED_(126)
  6
Continuous
 62
     7
100
AcDbLine
 10
360.9368988885
 20
487.1653152237
 30
0.0
 11
360.9368988885
 21
448.4653152237
 31
0.0
  0
LINE
  5
1E4
330
144
100
AcDbEntity
  8
$DDT_AUDIT_GENERATED_(126)
  6
Continuous
 62
     7
100
AcDbLine
 10
417.9368988885
 20
531.3802217564
 30
0.0
 11
417.3509423286
 21
530.3653152237
 31
0.0
  0
LINE
  5
1E5
330
144
100
AcDbEntity
  8
$DDT_AUDIT_GENERATED_(126)
  6
Continuous
 62
     7
100
AcDbLine
 10
417.3509423286
 20
505.9653152237
 30
0.0
 11
417.9368988885
 21
504.9504086909
 31
0.0
  0
ARC
  5
1E6
330
144
100
AcDbEntity
  8
$DDT_AUDIT_GENERATED_(126)
  6
Continuous
 62
     7
100
AcDbCircle
 10
416.8313270863
 20
530.6653152237
 30
0.0
 40
0.6000000000000041
100
AcDbArc
 50
270.0
 51
330.0
  0
ARC
  5
1E7
330
144
100
AcDbEntity
  8
$DDT_AUDIT_GENERATED_(126)
  6
Continuous
 62
     7
100
AcDbCircle
 10
416.8313270863
 20
505.6653152237
 30
0.0
 40
0.6000000000000033
100
AcDbArc
 50
30.0
 51
90.0
  0
LINE
  5
1E8
330
144
100
AcDbEntity
  8
$DDT_AUDIT_GENERATED_(126)
  6
Continuous
 62
     7
100
AcDbLine
 10
416.8313270863
 20
530.0653152237
 30
0.0
 11
414.5368988885
 21
530.0653152237
 31
0.0
  0
LINE
  5
1E9
330
144
100
AcDbEntity
  8
$DDT_AUDIT_GENERATED_(126)
  6
Continuous
 62
     7
100
AcDbLine
 10
414.5368988885
 20
506.2653152237
 30
0.0
 11
416.8313270863
 21
506.2653152237
 31
0.0
  0
ARC
  5
1EA
330
144
100
AcDbEntity
  8
$DDT_AUDIT_GENERATED_(126)
  6
Continuous
 62
     7
100
AcDbCircle
 10
414.5368988885
 20
530.6653152237
 30
0.0
 40
0.6000000000000033
100
AcDbArc
 50
180.0
 51
270.0
  0
ARC
  5
1EB
330
144
100
AcDbEntity
  8
$DDT_AUDIT_GENERATED_(126)
  6
Continuous
 62
     7
100
AcDbCircle
 10
414.5368988885
 20
505.6653152237
 30
0.0
 40
0.6000000000000033
100
AcDbArc
 50
90.0
 51
180.0
  0
ARC
  5
1EC
330
144
100
AcDbEntity
  8
$DDT_AUDIT_GENERATED_(126)
  6
Continuous
 62
     7
100
AcDbCircle
 10
412.9368988885
 20
503.1653152237
 30
0.0
 40
1.000000000000001
100
AcDbArc
 50
270.0
 51
0.0
  0
ARC
  5
1ED
330
144
100
AcDbEntity
  8
$DDT_AUDIT_GENERATED_(126)
  6
Continuous
 62
     7
100
AcDbCircle
 10
412.9368988885
 20
533.1653152237
 30
0.0
 40
1.000000000000001
100
AcDbArc
 50
0.0
 51
90.0
  0
ARC
  5
1EE
330
144
100
AcDbEntity
  8
$DDT_AUDIT_GENERATED_(126)
  6
Continuous
 62
     7
100
AcDbCircle
 10
392.6368988885
 20
448.4653152237
 30
0.0
 40
0.2999999999999947
100
AcDbArc
 50
270.0
 51
0.0
  0
ARC
  5
1EF
330
144
100
AcDbEntity
  8
$DDT_AUDIT_GENERATED_(126)
  6
Continuous
 62
     7
100
AcDbCircle
 10
361.2368988885
 20
448.4653152237
 30
0.0
 40
0.3000000000000086
100
AcDbArc
 50
180.0
 51
270.0
  0
LINE
  5
1F0
330
144
100
AcDbEntity
  8
$DDT_AUDIT_GENERATED_(12D)
  6
Continuous
 62
     7
100
AcDbLine
 10
354.4368988885
 20
443.1653152237
 30
0.0
 11
399.4368988885
 21
443.1653152237
 31
0.0
  0
LINE
  5
1F1
330
144
100
AcDbEntity
  8
$DDT_AUDIT_GENERATED_(12D)
  6
Continuous
 62
     7
100
AcDbLine
 10
398.4368988885
 20
448.1653152237
 30
0.0
 11
355.4368988885
 21
448.1653152237
 31
0.0
  0
LINE
  5
1F2
330
144
100
AcDbEntity
  8
$DDT_AUDIT_GENERATED_(12D)
  6
Continuous
 62
     7
100
AcDbLine
 10
399.4368988885
 20
443.1653152237
 30
0.0
 11
399.4368988885
 21
447.1653152237
 31
0.0
  0
LINE
  5
1F3
330
144
100
AcDbEntity
  8
$DDT_AUDIT_GENERATED_(12D)
  6
Continuous
 62
     7
100
AcDbLine
 10
354.4368988885
 20
447.1653152237
 30
0.0
 11
354.4368988885
 21
443.1653152237
 31
0.0
  0
ARC
  5
1F4
330
144
100
AcDbEntity
  8
$DDT_AUDIT_GENERATED_(12D)
  6
Continuous
 62
     7
100
AcDbCircle
 10
398.4368988885
 20
447.1653152237
 30
0.0
 40
1.000000000000001
100
AcDbArc
 50
0.0
 51
90.0
  0
ARC
  5
1F5
330
144
100
AcDbEntity
  8
$DDT_AUDIT_GENERATED_(12D)
  6
Continuous
 62
     7
100
AcDbCircle
 10
355.4368988885
 20
447.1653152237
 30
0.0
 40
1.000000000000001
100
AcDbArc
 50
90.0
 51
180.0
  0
ENDBLK
  5
1F7
330
144
100
AcDbEntity
  8
0
100
AcDbBlockEnd
  0
BLOCK
  5
275
330
1F8
100
AcDbEntity
  8
0
100
AcDbBlockBegin
  2
SE2
 70
     0
 10
0.0
 20
0.0
 30
0.0
  3
SE2
  1

  0
ARC
  5
1FA
330
1F8
100
AcDbEntity
  8
$DDT_AUDIT_GENERATED_(93)
  6
Continuous
 62
     7
100
AcDbCircle
 10
217.8754017542
 20
199.5687341325
 30
0.0
 40
19.99999979550987
100
AcDbArc
 50
174.8447818414
 51
177.5414210007
  0
SPLINE
  5
1FB
330
1F8
100
AcDbEntity
  8
$DDT_AUDIT_GENERATED_(93)
  6
Continuous
 62
     7
100
AcDbSpline
210
0.0
220
0.0
230
1.0
 70
     8
 71
     3
 72
    56
 73
    52
 74
     0
 42
0.0000000000477314
 43
0.0000000001
 40
0.0
 40
0.0
 40
0.0
 40
0.0
 40
0.2500000000000026
 40
0.2500000000000026
 40
0.3125000000000034
 40
0.3125000000000034
 40
0.3437500000000037
 40
0.3437500000000037
 40
0.359375000000004
 40
0.359375000000004
 40
0.3750000000000043
 40
0.3750000000000043
 40
0.3906250000000047
 40
0.3906250000000047
 40
0.406250000000005
 40
0.406250000000005
 40
0.4218750000000053
 40
0.4218750000000053
 40
0.4375000000000057
 40
0.4375000000000057
 40
0.4531250000000061
 40
0.4531250000000061
 40
0.4687500000000064
 40
0.4687500000000064
 40
0.4843750000000068
 40
0.4843750000000068
 40
0.5000000000000072
 40
0.5000000000000072
 40
0.5156250000000075
 40
0.5156250000000075
 40
0.531250000000008
 40
0.531250000000008
 40
0.5468750000000083
 40
0.5468750000000083
 40
0.5625000000000088
 40
0.5625000000000088
 40
0.5937500000000095
 40
0.5937500000000095
 40
0.6250000000000103
 40
0.6250000000000103
 40
0.6406250000000104
 40
0.6406250000000104
 40
0.6484375000000103
 40
0.6484375000000103
 40
0.6562500000000101
 40
0.6562500000000101
 40
0.6875000000000093
 40
0.6875000000000093
 40
0.7500000000000077
 40
0.7500000000000077
 40
1.0
 40
1.0
 40
1.0
 40
1.0
 10
197.8754019586543
 20
199.5687189764518
 30
0.0
 10
197.8754019586543
 20
182.1578138718015
 30
0.0
 10
197.8754019586543
 20
164.7542144197951
 30
0.0
 10
197.8754019586543
 20
143.100496173382
 30
0.0
 10
197.8754019586543
 20
138.7750545477901
 30
0.0
 10
197.8754019586543
 20
132.2953624132007
 30
0.0
 10
197.8754019586543
 20
130.1368786924145
 30
0.0
 10
197.8754019586543
 20
126.9013563374928
 30
0.0
 10
197.9082582675994
 20
125.8192269921507
 30
0.0
 10
197.7426370055923
 20
123.6827869281132
 30
0.0
 10
197.5592724474102
 20
122.6271503170861
 30
0.0
 10
197.0189095815868
 20
120.5377728608582
 30
0.0
 10
196.6605281260477
 20
119.5049071963248
 30
0.0
 10
195.8248748595896
 20
117.5206999347683
 30
0.0
 10
195.3492293397446
 20
116.5576482246941
 30
0.0
 10
194.2148208315696
 20
114.7231043089476
 30
0.0
 10
193.5531509464738
 20
113.8406457187789
 30
0.0
 10
192.1014180422399
 20
112.2327929702665
 30
0.0
 10
191.3102294148381
 20
111.5012143486282
 30
0.0
 10
189.6087598179972
 20
110.1699025530177
 30
0.0
 10
188.6950704822931
 20
109.563559118603
 30
0.0
 10
186.8152040634272
 20
108.4630062730698
 30
0.0
 10
185.8466169186147
 20
107.9787870950796
 30
0.0
 10
183.8329669398136
 20
107.1863257467195
 30
0.0
 10
182.7768159142659
 20
106.8757072992612
 30
0.0
 10
180.6091202915784
 20
106.5112693286454
 30
0.0
 10
179.5209303278382
 20
106.4078503868227
 30
0.0
 10
177.3363207841975
 20
106.35
 30
0.0
 10
176.2327909263994
 20
106.3985311522895
 30
0.0
 10
174.0521758526081
 20
106.6475192573273
 30
0.0
 10
172.981202024218
 20
106.8471600072754
 30
0.0
 10
170.9037653161568
 20
107.4966429826101
 30
0.0
 10
169.8833000270578
 20
107.9318578229598
 30
0.0
 10
167.9402843669147
 20
108.9388491564394
 30
0.0
 10
167.0149837925265
 20
109.5092485595074
 30
0.0
 10
164.3384091565349
 20
111.3646600835417
 30
0.0
 10
162.7265791965667
 20
112.9179842828104
 30
0.0
 10
160.229402659219
 20
116.4329415120432
 30
0.0
 10
159.2961783030813
 20
118.4387317924852
 30
0.0
 10
158.3134047604663
 20
121.5388387387892
 30
0.0
 10
158.0644213248826
 20
122.5928994806396
 30
0.0
 10
157.8364287074965
 20
124.2121303847892
 30
0.0
 10
157.784840272508
 20
124.7600866793885
 30
0.0
 10
157.7364825725238
 20
125.853894249909
 30
0.0
 10
157.7445699991775
 20
126.4009499258555
 30
0.0
 10
157.7445699991775
 20
129.1360460207634
 30
0.0
 10
157.7445699991775
 20
131.3262230741917
 30
0.0
 10
157.7445699991775
 20
137.9017314867949
 30
0.0
 10
157.7445699991775
 20
142.2926687907511
 30
0.0
 10
157.7445699991775
 20
164.2712372070589
 30
0.0
 10
157.7445699991775
 20
181.9038151868918
 30
0.0
 10
157.7445699991775
 20
199.568098368441
 30
0.0
  0
ARC
  5
1FC
330
1F8
100
AcDbEntity
  8
$DDT_AUDIT_GENERATED_(93)
  6
Continuous
 62
     7
100
AcDbCircle
 10
217.8754019586
 20
199.5687189764
 30
0.0
 40
19.99999999996763
100
AcDbArc
 50
90.0493051562
 51
179.9999999998
  0
ARC
  5
1FD
330
1F8
100
AcDbEntity
  8
$DDT_AUDIT_GENERATED_(93)
  6
Continuous
 62
     7
100
AcDbCircle
 10
137.7445699992
 20
199.5680983684
 30
0.0
 40
20.00000000001374
100
AcDbArc
 50
0.0
 51
89.9471636184
  0
LINE
  5
1FE
330
1F8
100
AcDbEntity
  8
$DDT_AUDIT_GENERATED_(93)
  6
Continuous
 62
     7
100
AcDbLine
 10
239.7874981583
 20
256.088934848
 30
0.0
 11
251.0887574951
 21
256.088934848
 31
0.0
  0
SPLINE
  5
1FF
330
1F8
100
AcDbEntity
  8
$DDT_AUDIT_GENERATED_(93)
  6
Continuous
 62
     7
100
AcDbSpline
210
0.0
220
0.0
230
1.0
 70
     8
 71
     3
 72
    50
 73
    46
 74
     0
 42
0.0000000000861312
 43
0.0000000001
 40
0.0
 40
0.0
 40
0.0
 40
0.0
 40
0.2500000000000044
 40
0.2500000000000044
 40
0.3750000000000064
 40
0.3750000000000064
 40
0.4062500000000067
 40
0.4062500000000067
 40
0.4218750000000067
 40
0.4218750000000067
 40
0.4375000000000067
 40
0.4375000000000067
 40
0.4531250000000067
 40
0.4531250000000067
 40
0.4687500000000067
 40
0.4687500000000067
 40
0.5000000000000063
 40
0.5000000000000063
 40
0.531250000000006
 40
0.531250000000006
 40
0.5625000000000057
 40
0.5625000000000057
 40
0.5937500000000053
 40
0.5937500000000053
 40
0.625000000000005
 40
0.625000000000005
 40
0.6562500000000047
 40
0.6562500000000047
 40
0.6875000000000043
 40
0.6875000000000043
 40
0.718750000000004
 40
0.718750000000004
 40
0.7500000000000036
 40
0.7500000000000036
 40
0.7812500000000032
 40
0.7812500000000032
 40
0.8125000000000029
 40
0.8125000000000029
 40
0.8437500000000026
 40
0.8437500000000026
 40
0.8750000000000022
 40
0.8750000000000022
 40
0.9375000000000011
 40
0.9375000000000011
 40
1.0
 40
1.0
 40
1.0
 40
1.0
 10
137.7630133730202
 20
219.568089864492
 30
0.0
 10
128.0960894482222
 20
219.5770044028856
 30
0.0
 10
118.4359981599141
 20
219.5911088274653
 30
0.0
 10
103.9573274521634
 20
219.6576112111475
 30
0.0
 10
99.13300140066411
 20
219.6844408497404
 30
0.0
 10
93.10493022291449
 20
219.760534131611
 30
0.0
 10
91.89954694602035
 20
219.7780593536583
 30
0.0
 10
90.0919964361846
 20
219.8131417581848
 30
0.0
 10
89.4895673680712
 20
219.8262995123493
 30
0.0
 10
88.28498297346349
 20
219.8586691273321
 30
0.0
 10
87.68244378662158
 20
219.8656712903058
 30
0.0
 10
86.4799237988273
 20
219.9630426764471
 30
0.0
 10
85.87945560900862
 20
220.0744531588553
 30
0.0
 10
84.69874954477247
 20
220.3347387967499
 30
0.0
 10
84.11299126453773
 20
220.4790478500683
 30
0.0
 10
82.3718298004642
 20
220.9626186266232
 30
0.0
 10
81.23560213375136
 20
221.3617588164718
 30
0.0
 10
79.04448665636338
 20
222.4148006679745
 30
0.0
 10
78.0135282387867
 20
223.0619142788029
 30
0.0
 10
76.19202395737825
 20
224.6342244256879
 30
0.0
 10
75.37611317511872
 20
225.5596410350438
 30
0.0
 10
73.94177350259065
 20
227.5032007220138
 30
0.0
 10
73.31290138613228
 20
228.530436716295
 30
0.0
 10
72.2020519825563
 20
230.6772167951547
 30
0.0
 10
71.71549797896787
 20
231.8042606578873
 30
0.0
 10
70.98450575175761
 20
234.1037291689645
 30
0.0
 10
70.74332035120015
 20
235.2847609081996
 30
0.0
 10
70.5504104938142
 20
237.7196993739182
 30
0.0
 10
70.58948510671902
 20
238.9355155416262
 30
0.0
 10
70.88085807163306
 20
241.3372294642208
 30
0.0
 10
71.1430921203155
 20
242.5393777959614
 30
0.0
 10
71.8786475978617
 20
244.8468440981196
 30
0.0
 10
72.3464723537457
 20
245.9567422795394
 30
0.0
 10
73.52951186688145
 20
248.0681814762062
 30
0.0
 10
74.2534901405395
 20
249.0693819368152
 30
0.0
 10
75.88260736045486
 20
250.8432616747169
 30
0.0
 10
76.7941266252431
 20
251.6331523531726
 30
0.0
 10
78.77276792845117
 20
253.0573058040751
 30
0.0
 10
79.81442724468022
 20
253.6729499212373
 30
0.0
 10
82.00094155738947
 20
254.6951273089063
 30
0.0
 10
83.16624664380987
 20
255.0911992551515
 30
0.0
 10
86.69553454824333
 20
255.905986852675
 30
0.0
 10
89.10885254117085
 20
256.0156119027543
 30
0.0
 10
93.94337676219638
 20
256.1188782255033
 30
0.0
 10
96.36107705320434
 20
256.0889348479875
 30
0.0
 10
98.77927420321714
 20
256.0889348479875
 30
0.0
  0
ARC
  5
200
330
1F8
100
AcDbEntity
  8
$DDT_AUDIT_GENERATED_(93)
  6
Continuous
 62
     7
100
AcDbCircle
 10
177.8099859798
 20
227.475581087
 30
0.0
 40
27.25
100
AcDbArc
 50
306.852355619
 51
0.0
  0
ARC
  5
201
330
1F8
100
AcDbEntity
  8
$DDT_AUDIT_GENERATED_(93)
  6
Continuous
 62
     7
100
AcDbCircle
 10
177.8099859798
 20
227.475581087
 30
0.0
 40
27.25
100
AcDbArc
 50
155.8061588325
 51
233.139086724
  0
ARC
  5
202
330
1F8
100
AcDbEntity
  8
$DDT_AUDIT_GENERATED_(93)
  6
Continuous
 62
     7
100
AcDbCircle
 10
177.8099859798
 20
227.475581087
 30
0.0
 40
27.25
100
AcDbArc
 50
0.0
 51
22.0109869166
  0
SPLINE
  5
203
330
1F8
100
AcDbEntity
  8
$DDT_AUDIT_GENERATED_(93)
  6
Continuous
 62
     7
100
AcDbSpline
210
0.0
220
0.0
230
1.0
 70
     8
 71
     3
 72
    50
 73
    46
 74
     0
 42
0.0000000000861387
 43
0.0000000001
 40
0.0
 40
0.0
 40
0.0
 40
0.0
 40
0.0312499999999998
 40
0.0312499999999998
 40
0.0624999999999996
 40
0.0624999999999996
 40
0.0937499999999994
 40
0.0937499999999994
 40
0.1249999999999991
 40
0.1249999999999991
 40
0.1562499999999989
 40
0.1562499999999989
 40
0.1874999999999987
 40
0.1874999999999987
 40
0.2187499999999985
 40
0.2187499999999985
 40
0.2499999999999983
 40
0.2499999999999983
 40
0.3124999999999978
 40
0.3124999999999978
 40
0.3437499999999976
 40
0.3437499999999976
 40
0.3749999999999973
 40
0.3749999999999973
 40
0.4062499999999971
 40
0.4062499999999971
 40
0.4374999999999968
 40
0.4374999999999968
 40
0.4687499999999964
 40
0.4687499999999964
 40
0.4999999999999961
 40
0.4999999999999961
 40
0.5312499999999958
 40
0.5312499999999958
 40
0.5624999999999954
 40
0.5624999999999954
 40
0.5781249999999954
 40
0.5781249999999954
 40
0.5937499999999954
 40
0.5937499999999954
 40
0.6249999999999958
 40
0.6249999999999958
 40
0.7499999999999972
 40
0.7499999999999972
 40
1.0
 40
1.0
 40
1.0
 40
1.0
 10
256.840697834601
 20
256.0889348479875
 30
0.0
 10
258.059645529317
 20
256.0889348479875
 30
0.0
 10
259.2784398268779
 20
256.0889348479875
 30
0.0
 10
261.7157298217377
 20
256.0889348479875
 30
0.0
 10
262.934932555419
 20
256.0989386626345
 30
0.0
 10
265.3680591560465
 20
256.0465343331829
 30
0.0
 10
266.581738702276
 20
255.9814576553263
 30
0.0
 10
269.0058220559862
 20
255.809355536882
 30
0.0
 10
270.2169854359124
 20
255.7034471510381
 30
0.0
 10
272.6136904278441
 20
255.1566527172209
 30
0.0
 10
273.7465229033979
 20
254.7349438836732
 30
0.0
 10
275.9083953698512
 20
253.657068762503
 30
0.0
 10
276.9528079808631
 20
253.0090481797983
 30
0.0
 10
278.9069273979356
 20
251.5645534929815
 30
0.0
 10
279.8177453767402
 20
250.7687908491914
 30
0.0
 10
281.4486775804224
 20
248.9654671233905
 30
0.0
 10
282.1652516871932
 20
247.9541312157613
 30
0.0
 10
283.9122579857012
 20
244.7745378716367
 30
0.0
 10
284.6321295602677
 20
242.3863438980777
 30
0.0
 10
285.0399743324057
 20
238.7642271409878
 30
0.0
 10
285.0639863851437
 20
237.5263479715318
 30
0.0
 10
284.8577518225189
 20
235.1087613663501
 30
0.0
 10
284.6261285148607
 20
233.9254219084772
 30
0.0
 10
283.9048255145444
 20
231.609853318815
 30
0.0
 10
283.4122951971517
 20
230.474739761713
 30
0.0
 10
282.2537483220447
 20
228.3386180243316
 30
0.0
 10
281.5836673902329
 20
227.3208568725973
 30
0.0
 10
280.0380635669232
 20
225.4195646499699
 30
0.0
 10
279.1753499225534
 20
224.5715974864025
 30
0.0
 10
277.2644227649939
 20
223.0875938421981
 30
0.0
 10
276.2105264060135
 20
222.4433973185185
 30
0.0
 10
274.0378506360806
 20
221.3786476743124
 30
0.0
 10
272.9108135671833
 20
220.9490333723926
 30
0.0
 10
270.5869523570959
 20
220.2657778124381
 30
0.0
 10
269.385856789483
 20
219.9801758618456
 30
0.0
 10
267.5932055445455
 20
219.8465905920037
 30
0.0
 10
266.9950116453323
 20
219.8371277557409
 30
0.0
 10
265.798772281493
 20
219.8060953978446
 30
0.0
 10
265.2005558562552
 20
219.7937164603729
 30
0.0
 10
263.4057177134133
 20
219.7607861009616
 30
0.0
 10
262.2089058822058
 20
219.7445311748072
 30
0.0
 10
256.2239206513482
 20
219.6742706064181
 30
0.0
 10
251.4330230029316
 20
219.6501021062487
 30
0.0
 10
237.0529055261155
 20
219.5895525535321
 30
0.0
 10
227.4579093489108
 20
219.5769724887984
 30
0.0
 10
217.8581912144837
 20
219.5687115711184
 30
0.0
  0
ARC
  5
204
330
1F8
100
AcDbEntity
  8
$DDT_AUDIT_GENERATED_(93)
  6
Continuous
 62
     7
100
AcDbCircle
 10
253.9647276648
 20
363.3294115694
 30
0.0
 40
107.2790336079742
100
AcDbArc
 50
268.4638126277
 51
271.5361873723
  0
LINE
  5
205
330
1F8
100
AcDbEntity
  8
$DDT_AUDIT_GENERATED_(93)
  6
Continuous
 62
     7
100
AcDbLine
 10
104.531214398
 20
256.088934848
 30
0.0
 11
239.7874981583
 21
256.088934848
 31
0.0
  0
ARC
  5
206
330
1F8
100
AcDbEntity
  8
$DDT_AUDIT_GENERATED_(93)
  6
Continuous
 62
     7
100
AcDbCircle
 10
101.6552443006
 20
363.3295290506
 30
0.0
 40
107.2791510449474
100
AcDbArc
 50
268.4638143484
 51
271.5361856516
  0
ARC
  5
207
330
1F8
100
AcDbEntity
  8
$DDT_AUDIT_GENERATED_(D1)
  6
Continuous
 62
     7
100
AcDbCircle
 10
177.809985978
 20
227.4755810915
 30
0.0
 40
26.98672363915592
100
AcDbArc
 50
180.232440566
 51
232.273965091
  0
ARC
  5
208
330
1F8
100
AcDbEntity
  8
$DDT_AUDIT_GENERATED_(D1)
  6
Continuous
 62
     7
100
AcDbCircle
 10
177.809985978
 20
227.4755810915
 30
0.0
 40
26.98672363915592
100
AcDbArc
 50
307.5783403224
 51
356.3892279751
  0
LINE
  5
209
330
1F8
100
AcDbEntity
  8
$DDT_AUDIT_GENERATED_(1AD)
  6
Continuous
 62
     7
100
AcDbLine
 10
112.6753670357
 20
259.4755810892
 30
0.0
 11
109.0599859789
 21
259.4755810892
 31
0.0
  0
LINE
  5
20A
330
1F8
100
AcDbEntity
  8
$DDT_AUDIT_GENERATED_(1AD)
  6
Continuous
 62
     7
100
AcDbLine
 10
99.2528866487
 20
255.9755810892
 30
0.0
 11
88.3099859789
 21
255.9755810892
 31
0.0
  0
LINE
  5
20B
330
1F8
100
AcDbEntity
  8
$DDT_AUDIT_GENERATED_(1AD)
  6
Continuous
 62
     7
100
AcDbLine
 10
117.3099859789
 20
272.9755810892
 30
0.0
 11
88.3099859789
 21
272.9755810892
 31
0.0
  0
LINE
  5
20C
330
1F8
100
AcDbEntity
  8
$DDT_AUDIT_GENERATED_(1AD)
  6
Continuous
 62
     7
100
AcDbLine
 10
112.6753670357
 20
269.4755810892
 30
0.0
 11
109.0599859789
 21
269.4755810892
 31
0.0
  0
LINE
  5
20D
330
1F8
100
AcDbEntity
  8
$DDT_AUDIT_GENERATED_(1AD)
  6
Continuous
 62
     7
100
AcDbLine
 10
96.5599859789
 20
269.4755810892
 30
0.0
 11
92.9446049221
 21
269.4755810892
 31
0.0
  0
LINE
  5
20E
330
1F8
100
AcDbEntity
  8
$DDT_AUDIT_GENERATED_(1AD)
  6
Continuous
 62
     7
100
AcDbLine
 10
86.5599859789
 20
269.4755810892
 30
0.0
 11
86.6946049221
 21
269.4755810892
 31
0.0
  0
LINE
  5
20F
330
1F8
100
AcDbEntity
  8
$DDT_AUDIT_GENERATED_(1AD)
  6
Continuous
 62
     7
100
AcDbLine
 10
118.9253670357
 20
269.4755810892
 30
0.0
 11
119.0599859789
 21
269.4755810892
 31
0.0
  0
SPLINE
  5
210
330
1F8
100
AcDbEntity
  8
$DDT_AUDIT_GENERATED_(1AD)
  6
Continuous
 62
     7
100
AcDbSpline
210
0.0
220
0.0
230
1.0
 70
     8
 71
     3
 72
    14
 73
    10
 74
     0
 42
0.0000000011014719
 43
0.0000000001
 40
0.0
 40
0.0
 40
0.0
 40
0.0
 40
0.25
 40
0.25
 40
0.5
 40
0.5
 40
0.75
 40
0.75
 40
1.0
 40
1.0
 40
1.0
 40
1.0
 10
118.9253670356825
 20
269.4755810892355
 30
0.0
 10
118.5780491870552
 20
270.4533876576887
 30
0.0
 10
118.0801218744718
 20
271.1502461518695
 30
0.0
 10
116.9902138099035
 20
272.0569281037392
 30
0.0
 10
116.3963396284986
 20
272.2708752040583
 30
0.0
 10
115.2079345251096
 20
272.2717423571002
 30
0.0
 10
114.6223807427126
 20
272.0644237988311
 30
0.0
 10
113.5220989996061
 20
271.1538253029078
 30
0.0
 10
113.0223022734323
 20
270.4523104903919
 30
0.0
 10
112.6753670356825
 20
269.4755810892355
 30
0.0
  0
SPLINE
  5
211
330
1F8
100
AcDbEntity
  8
$DDT_AUDIT_GENERATED_(1AD)
  6
Continuous
 62
     7
100
AcDbSpline
210
0.0
220
0.0
230
1.0
 70
     8
 71
     3
 72
    14
 73
    10
 74
     0
 42
0.0000000011014719
 43
0.0000000001
 40
0.0
 40
0.0
 40
0.0
 40
0.0
 40
0.25
 40
0.25
 40
0.5
 40
0.5
 40
0.75
 40
0.75
 40
1.0
 40
1.0
 40
1.0
 40
1.0
 10
92.94460492214931
 20
269.4755810892355
 30
0.0
 10
92.59728707352205
 20
270.4533876576887
 30
0.0
 10
92.09935976093864
 20
271.1502461518695
 30
0.0
 10
91.00945169637039
 20
272.0569281037392
 30
0.0
 10
90.41557751496538
 20
272.2708752040583
 30
0.0
 10
89.22717241157649
 20
272.2717423571002
 30
0.0
 10
88.64161862917943
 20
272.0644237988311
 30
0.0
 10
87.54133688607297
 20
271.1538253029078
 30
0.0
 10
87.04154015989913
 20
270.4523104903919
 30
0.0
 10
86.69460492214931
 20
269.4755810892355
 30
0.0
  0
SPLINE
  5
212
330
1F8
100
AcDbEntity
  8
$DDT_AUDIT_GENERATED_(1AD)
  6
Continuous
 62
     7
100
AcDbSpline
210
0.0
220
0.0
230
1.0
 70
     8
 71
     3
 72
    14
 73
    10
 74
     0
 42
0.0000000006969408
 43
0.0000000001
 40
0.0
 40
0.0
 40
0.0
 40
0.0
 40
0.25
 40
0.25
 40
0.5
 40
0.5
 40
0.75
 40
0.75
 40
1.0
 40
1.0
 40
1.0
 40
1.0
 10
109.0599859789159
 20
269.4755810892355
 30
0.0
 10
108.3668976264038
 20
270.4512095320052
 30
0.0
 10
107.3593374585729
 20
271.1571882206526
 30
0.0
 10
105.1686920061991
 20
272.0629019850489
 30
0.0
 10
103.9844777027097
 20
272.2732043817389
 30
0.0
 10
101.6043896938853
 20
272.2693895436018
 30
0.0
 10
100.4213660843417
 20
272.0540903010521
 30
0.0
 10
98.24936304449919
 20
271.1489039864138
 30
0.0
 10
97.24786033126587
 20
270.4438700249419
 30
0.0
 10
96.55998597891588
 20
269.4755810892355
 30
0.0
  0
LINE
  5
213
330
1F8
100
AcDbEntity
  8
$DDT_AUDIT_GENERATED_(1AD)
  6
Continuous
 62
     7
100
AcDbLine
 10
96.5599859789
 20
259.4755810892
 30
0.0
 11
92.9446049221
 21
259.4755810892
 31
0.0
  0
LINE
  5
214
330
1F8
100
AcDbEntity
  8
$DDT_AUDIT_GENERATED_(1AD)
  6
Continuous
 62
     7
100
AcDbLine
 10
86.6946049221
 20
259.4755810892
 30
0.0
 11
86.5599859789
 21
259.4755810892
 31
0.0
  0
LINE
  5
215
330
1F8
100
AcDbEntity
  8
$DDT_AUDIT_GENERATED_(1AD)
  6
Continuous
 62
     7
100
AcDbLine
 10
118.9253670357
 20
259.4755810892
 30
0.0
 11
119.0599859789
 21
259.4755810892
 31
0.0
  0
LINE
  5
216
330
1F8
100
AcDbEntity
  8
$DDT_AUDIT_GENERATED_(1AD)
  6
Continuous
 62
     7
100
AcDbLine
 10
109.0599859789
 20
269.4755810892
 30
0.0
 11
109.0599859789
 21
259.4755810892
 31
0.0
  0
SPLINE
  5
217
330
1F8
100
AcDbEntity
  8
$DDT_AUDIT_GENERATED_(1AD)
  6
Continuous
 62
     7
100
AcDbSpline
210
0.0
220
0.0
230
1.0
 70
     8
 71
     3
 72
    14
 73
    10
 74
     0
 42
0.0000000006969408
 43
0.0000000001
 40
0.0
 40
0.0
 40
0.0
 40
0.0
 40
0.25
 40
0.25
 40
0.5
 40
0.5
 40
0.75
 40
0.75
 40
1.0
 40
1.0
 40
1.0
 40
1.0
 10
109.0599859789159
 20
259.4755810892355
 30
0.0
 10
108.3668976264038
 20
258.4999526464658
 30
0.0
 10
107.3593374585729
 20
257.7939739578184
 30
0.0
 10
105.1686920061991
 20
256.8882601934222
 30
0.0
 10
103.9844777027097
 20
256.6779577967322
 30
0.0
 10
101.6043896938853
 20
256.6817726348692
 30
0.0
 10
100.4213660843417
 20
256.897071877419
 30
0.0
 10
98.24936304449916
 20
257.8022581920572
 30
0.0
 10
97.24786033126587
 20
258.5072921535292
 30
0.0
 10
96.55998597891588
 20
259.4755810892355
 30
0.0
  0
LINE
  5
218
330
1F8
100
AcDbEntity
  8
$DDT_AUDIT_GENERATED_(1AD)
  6
Continuous
 62
     7
100
AcDbLine
 10
96.5599859789
 20
259.4755810892
 30
0.0
 11
96.5599859789
 21
269.4755810892
 31
0.0
  0
LINE
  5
219
330
1F8
100
AcDbEntity
  8
$DDT_AUDIT_GENERATED_(1AD)
  6
Continuous
 62
     7
100
AcDbLine
 10
92.9446049221
 20
269.4755810892
 30
0.0
 11
92.9446049221
 21
259.4755810892
 31
0.0
  0
SPLINE
  5
21A
330
1F8
100
AcDbEntity
  8
$DDT_AUDIT_GENERATED_(1AD)
  6
Continuous
 62
     7
100
AcDbSpline
210
0.0
220
0.0
230
1.0
 70
     8
 71
     3
 72
    14
 73
    10
 74
     0
 42
0.0000000011014719
 43
0.0000000001
 40
0.0
 40
0.0
 40
0.0
 40
0.0
 40
0.2500000000000001
 40
0.2500000000000001
 40
0.5000000000000001
 40
0.5000000000000001
 40
0.7500000000000002
 40
0.7500000000000002
 40
1.0
 40
1.0
 40
1.0
 40
1.0
 10
92.94460492214931
 20
259.4755810892355
 30
0.0
 10
92.59728707352205
 20
258.4977745207825
 30
0.0
 10
92.09935976093864
 20
257.8009160266016
 30
0.0
 10
91.00945169637039
 20
256.8942340747319
 30
0.0
 10
90.41557751496538
 20
256.6802869744128
 30
0.0
 10
89.22717241157649
 20
256.6794198213709
 30
0.0
 10
88.64161862917943
 20
256.88673837964
 30
0.0
 10
87.54133688607297
 20
257.7973368755633
 30
0.0
 10
87.04154015989913
 20
258.4988516880791
 30
0.0
 10
86.69460492214931
 20
259.4755810892355
 30
0.0
  0
LINE
  5
21B
330
1F8
100
AcDbEntity
  8
$DDT_AUDIT_GENERATED_(1AD)
  6
Continuous
 62
     7
100
AcDbLine
 10
86.6946049221
 20
259.4755810892
 30
0.0
 11
86.6946049221
 21
269.4755810892
 31
0.0
  0
LINE
  5
21C
330
1F8
100
AcDbEntity
  8
$DDT_AUDIT_GENERATED_(1AD)
  6
Continuous
 62
     7
100
AcDbLine
 10
118.9253670357
 20
269.4755810892
 30
0.0
 11
118.9253670357
 21
259.4755810892
 31
0.0
  0
SPLINE
  5
21D
330
1F8
100
AcDbEntity
  8
$DDT_AUDIT_GENERATED_(1AD)
  6
Continuous
 62
     7
100
AcDbSpline
210
0.0
220
0.0
230
1.0
 70
     8
 71
     3
 72
    14
 73
    10
 74
     0
 42
0.0000000011014719
 43
0.0000000001
 40
0.0
 40
0.0
 40
0.0
 40
0.0
 40
0.2499999999999999
 40
0.2499999999999999
 40
0.4999999999999999
 40
0.4999999999999999
 40
0.7499999999999999
 40
0.7499999999999999
 40
1.0
 40
1.0
 40
1.0
 40
1.0
 10
118.9253670356825
 20
259.4755810892355
 30
0.0
 10
118.5780491870552
 20
258.4977745207825
 30
0.0
 10
118.0801218744718
 20
257.8009160266016
 30
0.0
 10
116.9902138099035
 20
256.8942340747319
 30
0.0
 10
116.3963396284985
 20
256.6802869744128
 30
0.0
 10
115.2079345251096
 20
256.6794198213709
 30
0.0
 10
114.6223807427126
 20
256.88673837964
 30
0.0
 10
113.5220989996061
 20
257.7973368755634
 30
0.0
 10
113.0223022734323
 20
258.4988516880791
 30
0.0
 10
112.6753670356825
 20
259.4755810892355
 30
0.0
  0
LINE
  5
21E
330
1F8
100
AcDbEntity
  8
$DDT_AUDIT_GENERATED_(1AD)
  6
Continuous
 62
     7
100
AcDbLine
 10
112.6753670357
 20
259.4755810892
 30
0.0
 11
112.6753670357
 21
269.4755810892
 31
0.0
  0
LINE
  5
21F
330
1F8
100
AcDbEntity
  8
$DDT_AUDIT_GENERATED_(1AD)
  6
Continuous
 62
     7
100
AcDbLine
 10
119.0599859789
 20
259.4755810892
 30
0.0
 11
119.0599859789
 21
269.4755810892
 31
0.0
  0
ARC
  5
220
330
1F8
100
AcDbEntity
  8
$DDT_AUDIT_GENERATED_(1AD)
  6
Continuous
 62
     7
100
AcDbCircle
 10
109.4135835825
 20
262.1112822874
 30
0.0
 40
9.999999999999998
100
AcDbArc
 50
322.1519040322
 51
344.7179936136
  0
ARC
  5
221
330
1F8
100
AcDbEntity
  8
$DDT_AUDIT_GENERATED_(1AD)
  6
Continuous
 62
     7
100
AcDbCircle
 10
96.2063883753
 20
262.1112822874
 30
0.0
 40
9.999999999999991
100
AcDbArc
 50
195.2820063864
 51
217.8480959678
  0
ARC
  5
222
330
1F8
100
AcDbEntity
  8
$DDT_AUDIT_GENERATED_(1AD)
  6
Continuous
 62
     7
100
AcDbCircle
 10
109.4135835825
 20
266.839879891
 30
0.0
 40
9.999999999999993
100
AcDbArc
 50
15.2820063864
 51
37.8480959678
  0
ARC
  5
223
330
1F8
100
AcDbEntity
  8
$DDT_AUDIT_GENERATED_(1AD)
  6
Continuous
 62
     7
100
AcDbCircle
 10
96.2063883753
 20
266.839879891
 30
0.0
 40
9.999999999999998
100
AcDbArc
 50
142.1519040322
 51
164.7179936136
  0
LINE
  5
224
330
1F8
100
AcDbEntity
  8
$DDT_AUDIT_GENERATED_(1AD)
  6
Continuous
 62
     7
100
AcDbLine
 10
86.5599859789
 20
269.4755810892
 30
0.0
 11
86.5599859789
 21
259.4755810892
 31
0.0
  0
LINE
  5
225
330
1F8
100
AcDbEntity
  8
$DDT_AUDIT_GENERATED_(1AD)
  6
Continuous
 62
     7
100
AcDbLine
 10
262.6753670357
 20
259.4755810892
 30
0.0
 11
259.0599859789
 21
259.4755810892
 31
0.0
  0
LINE
  5
226
330
1F8
100
AcDbEntity
  8
$DDT_AUDIT_GENERATED_(1AD)
  6
Continuous
 62
     7
100
AcDbLine
 10
267.1374605544
 20
255.9755810892
 30
0.0
 11
267.3099859789
 21
255.9755810892
 31
0.0
  0
LINE
  5
227
330
1F8
100
AcDbEntity
  8
$DDT_AUDIT_GENERATED_(1AD)
  6
Continuous
 62
     7
100
AcDbLine
 10
238.3099859789
 20
272.9755810892
 30
0.0
 11
267.3099859789
 21
272.9755810892
 31
0.0
  0
LINE
  5
228
330
1F8
100
AcDbEntity
  8
$DDT_AUDIT_GENERATED_(1AD)
  6
Continuous
 62
     7
100
AcDbLine
 10
262.6753670357
 20
269.4755810892
 30
0.0
 11
259.0599859789
 21
269.4755810892
 31
0.0
  0
LINE
  5
229
330
1F8
100
AcDbEntity
  8
$DDT_AUDIT_GENERATED_(1AD)
  6
Continuous
 62
     7
100
AcDbLine
 10
246.5599859789
 20
269.4755810892
 30
0.0
 11
242.9446049221
 21
269.4755810892
 31
0.0
  0
LINE
  5
22A
330
1F8
100
AcDbEntity
  8
$DDT_AUDIT_GENERATED_(1AD)
  6
Continuous
 62
     7
100
AcDbLine
 10
236.6946049221
 20
269.4755810892
 30
0.0
 11
236.5599859789
 21
269.4755810892
 31
0.0
  0
LINE
  5
22B
330
1F8
100
AcDbEntity
  8
$DDT_AUDIT_GENERATED_(1AD)
  6
Continuous
 62
     7
100
AcDbLine
 10
268.9253670357
 20
269.4755810892
 30
0.0
 11
269.0599859789
 21
269.4755810892
 31
0.0
  0
SPLINE
  5
22C
330
1F8
100
AcDbEntity
  8
$DDT_AUDIT_GENERATED_(1AD)
  6
Continuous
 62
     7
100
AcDbSpline
210
0.0
220
0.0
230
1.0
 70
     8
 71
     3
 72
    14
 73
    10
 74
     0
 42
0.0000000011014719
 43
0.0000000001
 40
0.0
 40
0.0
 40
0.0
 40
0.0
 40
0.25
 40
0.25
 40
0.5
 40
0.5
 40
0.75
 40
0.75
 40
1.0
 40
1.0
 40
1.0
 40
1.0
 10
268.9253670356825
 20
269.4755810892355
 30
0.0
 10
268.5780491870552
 20
270.4533876576887
 30
0.0
 10
268.0801218744718
 20
271.1502461518695
 30
0.0
 10
266.9902138099035
 20
272.0569281037392
 30
0.0
 10
266.3963396284985
 20
272.2708752040583
 30
0.0
 10
265.2079345251096
 20
272.2717423571002
 30
0.0
 10
264.6223807427126
 20
272.0644237988311
 30
0.0
 10
263.5220989996061
 20
271.1538253029078
 30
0.0
 10
263.0223022734323
 20
270.4523104903919
 30
0.0
 10
262.6753670356824
 20
269.4755810892355
 30
0.0
  0
SPLINE
  5
22D
330
1F8
100
AcDbEntity
  8
$DDT_AUDIT_GENERATED_(1AD)
  6
Continuous
 62
     7
100
AcDbSpline
210
0.0
220
0.0
230
1.0
 70
     8
 71
     3
 72
    14
 73
    10
 74
     0
 42
0.0000000011014719
 43
0.0000000001
 40
0.0
 40
0.0
 40
0.0
 40
0.0
 40
0.25
 40
0.25
 40
0.5
 40
0.5
 40
0.75
 40
0.75
 40
1.0
 40
1.0
 40
1.0
 40
1.0
 10
242.9446049221493
 20
269.4755810892355
 30
0.0
 10
242.597287073522
 20
270.4533876576886
 30
0.0
 10
242.0993597609386
 20
271.1502461518695
 30
0.0
 10
241.0094516963704
 20
272.0569281037392
 30
0.0
 10
240.4155775149654
 20
272.2708752040583
 30
0.0
 10
239.2271724115764
 20
272.2717423571002
 30
0.0
 10
238.6416186291794
 20
272.0644237988311
 30
0.0
 10
237.5413368860729
 20
271.1538253029077
 30
0.0
 10
237.0415401598991
 20
270.4523104903919
 30
0.0
 10
236.6946049221493
 20
269.4755810892355
 30
0.0
  0
SPLINE
  5
22E
330
1F8
100
AcDbEntity
  8
$DDT_AUDIT_GENERATED_(1AD)
  6
Continuous
 62
     7
100
AcDbSpline
210
0.0
220
0.0
230
1.0
 70
     8
 71
     3
 72
    14
 73
    10
 74
     0
 42
0.0000000006969408
 43
0.0000000001
 40
0.0
 40
0.0
 40
0.0
 40
0.0
 40
0.25
 40
0.25
 40
0.5
 40
0.5
 40
0.75
 40
0.75
 40
1.0
 40
1.0
 40
1.0
 40
1.0
 10
259.0599859789159
 20
269.4755810892355
 30
0.0
 10
258.3668976264037
 20
270.4512095320052
 30
0.0
 10
257.3593374585729
 20
271.1571882206526
 30
0.0
 10
255.1686920061991
 20
272.0629019850488
 30
0.0
 10
253.9844777027097
 20
272.2732043817388
 30
0.0
 10
251.6043896938852
 20
272.2693895436018
 30
0.0
 10
250.4213660843416
 20
272.054090301052
 30
0.0
 10
248.2493630444991
 20
271.1489039864138
 30
0.0
 10
247.2478603312659
 20
270.4438700249419
 30
0.0
 10
246.5599859789159
 20
269.4755810892355
 30
0.0
  0
LINE
  5
22F
330
1F8
100
AcDbEntity
  8
$DDT_AUDIT_GENERATED_(1AD)
  6
Continuous
 62
     7
100
AcDbLine
 10
246.5599859789
 20
259.4755810892
 30
0.0
 11
242.9446049221
 21
259.4755810892
 31
0.0
  0
LINE
  5
230
330
1F8
100
AcDbEntity
  8
$DDT_AUDIT_GENERATED_(1AD)
  6
Continuous
 62
     7
100
AcDbLine
 10
236.6946049221
 20
259.4755810892
 30
0.0
 11
236.5599859789
 21
259.4755810892
 31
0.0
  0
LINE
  5
231
330
1F8
100
AcDbEntity
  8
$DDT_AUDIT_GENERATED_(1AD)
  6
Continuous
 62
     7
100
AcDbLine
 10
268.9253670357
 20
259.4755810892
 30
0.0
 11
269.0599859789
 21
259.4755810892
 31
0.0
  0
LINE
  5
232
330
1F8
100
AcDbEntity
  8
$DDT_AUDIT_GENERATED_(1AD)
  6
Continuous
 62
     7
100
AcDbLine
 10
259.0599859789
 20
269.4755810892
 30
0.0
 11
259.0599859789
 21
259.4755810892
 31
0.0
  0
SPLINE
  5
233
330
1F8
100
AcDbEntity
  8
$DDT_AUDIT_GENERATED_(1AD)
  6
Continuous
 62
     7
100
AcDbSpline
210
0.0
220
0.0
230
1.0
 70
     8
 71
     3
 72
    14
 73
    10
 74
     0
 42
0.0000000006969408
 43
0.0000000001
 40
0.0
 40
0.0
 40
0.0
 40
0.0
 40
0.25
 40
0.25
 40
0.5
 40
0.5
 40
0.75
 40
0.75
 40
1.0
 40
1.0
 40
1.0
 40
1.0
 10
259.0599859789159
 20
259.4755810892355
 30
0.0
 10
258.3668976264037
 20
258.4999526464658
 30
0.0
 10
257.3593374585729
 20
257.7939739578184
 30
0.0
 10
255.1686920061991
 20
256.8882601934221
 30
0.0
 10
253.9844777027097
 20
256.6779577967322
 30
0.0
 10
251.6043896938852
 20
256.6817726348692
 30
0.0
 10
250.4213660843416
 20
256.897071877419
 30
0.0
 10
248.2493630444991
 20
257.8022581920572
 30
0.0
 10
247.2478603312659
 20
258.5072921535291
 30
0.0
 10
246.5599859789159
 20
259.4755810892355
 30
0.0
  0
LINE
  5
234
330
1F8
100
AcDbEntity
  8
$DDT_AUDIT_GENERATED_(1AD)
  6
Continuous
 62
     7
100
AcDbLine
 10
246.5599859789
 20
259.4755810892
 30
0.0
 11
246.5599859789
 21
269.4755810892
 31
0.0
  0
LINE
  5
235
330
1F8
100
AcDbEntity
  8
$DDT_AUDIT_GENERATED_(1AD)
  6
Continuous
 62
     7
100
AcDbLine
 10
242.9446049221
 20
269.4755810892
 30
0.0
 11
242.9446049221
 21
259.4755810892
 31
0.0
  0
SPLINE
  5
236
330
1F8
100
AcDbEntity
  8
$DDT_AUDIT_GENERATED_(1AD)
  6
Continuous
 62
     7
100
AcDbSpline
210
0.0
220
0.0
230
1.0
 70
     8
 71
     3
 72
    14
 73
    10
 74
     0
 42
0.0000000011014719
 43
0.0000000001
 40
0.0
 40
0.0
 40
0.0
 40
0.0
 40
0.2500000000000001
 40
0.2500000000000001
 40
0.5000000000000001
 40
0.5000000000000001
 40
0.7500000000000002
 40
0.7500000000000002
 40
1.0
 40
1.0
 40
1.0
 40
1.0
 10
242.9446049221493
 20
259.4755810892355
 30
0.0
 10
242.597287073522
 20
258.4977745207824
 30
0.0
 10
242.0993597609386
 20
257.8009160266015
 30
0.0
 10
241.0094516963704
 20
256.8942340747319
 30
0.0
 10
240.4155775149654
 20
256.6802869744128
 30
0.0
 10
239.2271724115764
 20
256.6794198213708
 30
0.0
 10
238.6416186291794
 20
256.88673837964
 30
0.0
 10
237.5413368860729
 20
257.7973368755633
 30
0.0
 10
237.0415401598991
 20
258.4988516880791
 30
0.0
 10
236.6946049221493
 20
259.4755810892355
 30
0.0
  0
LINE
  5
237
330
1F8
100
AcDbEntity
  8
$DDT_AUDIT_GENERATED_(1AD)
  6
Continuous
 62
     7
100
AcDbLine
 10
236.6946049221
 20
259.4755810892
 30
0.0
 11
236.6946049221
 21
269.4755810892
 31
0.0
  0
LINE
  5
238
330
1F8
100
AcDbEntity
  8
$DDT_AUDIT_GENERATED_(1AD)
  6
Continuous
 62
     7
100
AcDbLine
 10
268.9253670357
 20
269.4755810892
 30
0.0
 11
268.9253670357
 21
259.4755810892
 31
0.0
  0
SPLINE
  5
239
330
1F8
100
AcDbEntity
  8
$DDT_AUDIT_GENERATED_(1AD)
  6
Continuous
 62
     7
100
AcDbSpline
210
0.0
220
0.0
230
1.0
 70
     8
 71
     3
 72
    14
 73
    10
 74
     0
 42
0.0000000011014719
 43
0.0000000001
 40
0.0
 40
0.0
 40
0.0
 40
0.0
 40
0.2499999999999999
 40
0.2499999999999999
 40
0.4999999999999999
 40
0.4999999999999999
 40
0.7499999999999999
 40
0.7499999999999999
 40
1.0
 40
1.0
 40
1.0
 40
1.0
 10
268.9253670356825
 20
259.4755810892355
 30
0.0
 10
268.5780491870552
 20
258.4977745207825
 30
0.0
 10
268.0801218744718
 20
257.8009160266016
 30
0.0
 10
266.9902138099035
 20
256.8942340747319
 30
0.0
 10
266.3963396284985
 20
256.6802869744128
 30
0.0
 10
265.2079345251096
 20
256.6794198213709
 30
0.0
 10
264.6223807427126
 20
256.88673837964
 30
0.0
 10
263.5220989996061
 20
257.7973368755633
 30
0.0
 10
263.0223022734323
 20
258.4988516880791
 30
0.0
 10
262.6753670356824
 20
259.4755810892355
 30
0.0
  0
LINE
  5
23A
330
1F8
100
AcDbEntity
  8
$DDT_AUDIT_GENERATED_(1AD)
  6
Continuous
 62
     7
100
AcDbLine
 10
262.6753670357
 20
259.4755810892
 30
0.0
 11
262.6753670357
 21
269.4755810892
 31
0.0
  0
LINE
  5
23B
330
1F8
100
AcDbEntity
  8
$DDT_AUDIT_GENERATED_(1AD)
  6
Continuous
 62
     7
100
AcDbLine
 10
269.0599859789
 20
259.4755810892
 30
0.0
 11
269.0599859789
 21
269.4755810892
 31
0.0
  0
ARC
  5
23C
330
1F8
100
AcDbEntity
  8
$DDT_AUDIT_GENERATED_(1AD)
  6
Continuous
 62
     7
100
AcDbCircle
 10
259.4135835825
 20
262.1112822874
 30
0.0
 40
9.999999999999995
100
AcDbArc
 50
322.1519040322
 51
344.7179936136
  0
ARC
  5
23D
330
1F8
100
AcDbEntity
  8
$DDT_AUDIT_GENERATED_(1AD)
  6
Continuous
 62
     7
100
AcDbCircle
 10
246.2063883753
 20
262.1112822874
 30
0.0
 40
9.999999999999993
100
AcDbArc
 50
195.2820063864
 51
217.8480959678
  0
ARC
  5
23E
330
1F8
100
AcDbEntity
  8
$DDT_AUDIT_GENERATED_(1AD)
  6
Continuous
 62
     7
100
AcDbCircle
 10
259.4135835825
 20
266.839879891
 30
0.0
 40
9.999999999999995
100
AcDbArc
 50
15.2820063864
 51
37.8480959678
  0
ARC
  5
23F
330
1F8
100
AcDbEntity
  8
$DDT_AUDIT_GENERATED_(1AD)
  6
Continuous
 62
     7
100
AcDbCircle
 10
246.2063883753
 20
266.839879891
 30
0.0
 40
9.999999999999995
100
AcDbArc
 50
142.1519040322
 51
164.7179936136
  0
LINE
  5
240
330
1F8
100
AcDbEntity
  8
$DDT_AUDIT_GENERATED_(1AD)
  6
Continuous
 62
     7
100
AcDbLine
 10
236.5599859789
 20
269.4755810892
 30
0.0
 11
236.5599859789
 21
259.4755810892
 31
0.0
  0
ARC
  5
241
330
1F8
100
AcDbEntity
  8
$DDT_AUDIT_GENERATED_(FD)
  6
Continuous
 62
     7
100
AcDbCircle
 10
201.926429166
 20
204.0042636262
 30
0.0
 40
7.984673414745546
100
AcDbArc
 50
135.3343213702
 51
179.8983758638
  0
ARC
  5
242
330
1F8
100
AcDbEntity
  8
$DDT_AUDIT_GENERATED_(FD)
  6
Continuous
 62
     7
100
AcDbCircle
 10
153.6931974518
 20
204.004118108
 30
0.0
 40
7.985026580187472
100
AcDbArc
 50
0.1026642955
 51
44.6646408872
  0
SPLINE
  5
243
330
1F8
100
AcDbEntity
  8
$DDT_AUDIT_GENERATED_(FD)
  6
Continuous
 62
     7
100
AcDbSpline
210
0.0
220
0.0
230
1.0
 70
     8
 71
     3
 72
     8
 73
     4
 74
     0
 42
0.0000000000594807
 43
0.0000000001
 40
0.0
 40
0.0
 40
0.0
 40
0.0
 40
0.1833356693559899
 40
0.1833356693559899
 40
0.1833356693559899
 40
0.1833356693559899
 10
161.6782112134447
 20
204.0184259104153
 30
0.0
 10
161.6884403965285
 20
193.7617851087047
 30
0.0
 10
161.7124292303137
 20
183.4873560702857
 30
0.0
 10
161.7094170525672
 20
173.195760379116
 30
0.0
  0
SPLINE
  5
244
330
1F8
100
AcDbEntity
  8
$DDT_AUDIT_GENERATED_(FD)
  6
Continuous
 62
     7
100
AcDbSpline
210
0.0
220
0.0
230
1.0
 70
     8
 71
     3
 72
    30
 73
    26
 74
     0
 42
0.000000000059022
 43
0.0000000001
 40
0.3262746953024501
 40
0.3262746953024501
 40
0.3262746953024501
 40
0.3262746953024501
 40
0.3437499999999993
 40
0.3437499999999993
 40
0.3749999999999992
 40
0.3749999999999992
 40
0.4062499999999992
 40
0.4062499999999992
 40
0.4374999999999992
 40
0.4374999999999992
 40
0.4687499999999992
 40
0.4687499999999992
 40
0.4999999999999992
 40
0.4999999999999992
 40
0.5312499999999992
 40
0.5312499999999992
 40
0.5624999999999992
 40
0.5624999999999992
 40
0.5937499999999991
 40
0.5937499999999991
 40
0.6249999999999991
 40
0.6249999999999991
 40
0.656249999999999
 40
0.656249999999999
 40
0.6729662537696054
 40
0.6729662537696054
 40
0.6729662537696054
 40
0.6729662537696054
 10
161.6401226180259
 20
149.0940156156894
 30
0.0
 10
161.6396250263987
 20
148.1105800932077
 30
0.0
 10
161.6454133201475
 20
147.1273282066801
 30
0.0
 10
161.7067565911885
 20
144.3889088680981
 30
0.0
 10
161.8007839713733
 20
142.6230087214047
 30
0.0
 10
162.6628992547367
 20
139.1918041747746
 30
0.0
 10
163.4164798490549
 20
137.5925112938633
 30
0.0
 10
165.4398936034057
 20
134.6953196231502
 30
0.0
 10
166.6815128973217
 20
133.4256792137015
 30
0.0
 10
169.4937297033227
 20
131.2991853018783
 30
0.0
 10
171.0468149296384
 20
130.4553413405497
 30
0.0
 10
174.3826126003132
 20
129.2919576773456
 30
0.0
 10
176.1023253845435
 20
128.9921781192419
 30
0.0
 10
179.6549506551736
 20
129.0083232655469
 30
0.0
 10
181.3786352571227
 20
129.3242210520831
 30
0.0
 10
184.7206718609242
 20
130.525325506066
 30
0.0
 10
186.256508298763
 20
131.3778775086392
 30
0.0
 10
189.065501603339
 20
133.5434449842401
 30
0.0
 10
190.2770425866408
 20
134.8062390613454
 30
0.0
 10
192.2762813777033
 20
137.7272032530456
 30
0.0
 10
193.0074679027122
 20
139.3264340344437
 30
0.0
 10
193.8333432095831
 20
142.7498562967387
 30
0.0
 10
193.9192817810835
 20
144.5273930712723
 30
0.0
 10
193.9748696988045
 20
147.2189610723646
 30
0.0
 10
193.9802248922889
 20
148.1572877439882
 30
0.0
 10
193.9798373035248
 20
149.0956315315442
 30
0.0
  0
SPLINE
  5
245
330
1F8
100
AcDbEntity
  8
$DDT_AUDIT_GENERATED_(FD)
  6
Continuous
 62
     7
100
AcDbSpline
210
0.0
220
0.0
230
1.0
 70
     8
 71
     3
 72
     8
 73
     4
 74
     0
 42
0.0000000000596195
 43
0.0000000001
 40
0.8161427870124722
 40
0.8161427870124722
 40
0.8161427870124722
 40
0.8161427870124722
 40
1.0
 40
1.0
 40
1.0
 40
1.0
 10
193.9105972888981
 20
173.1800132159182
 30
0.0
 10
193.9075662912079
 20
183.476594948292
 30
0.0
 10
193.9315335468949
 20
193.7566148724141
 30
0.0
 10
193.9417683107968
 20
204.0184258405616
 30
0.0
  0
SPLINE
  5
246
330
1F8
100
AcDbEntity
  8
$DDT_AUDIT_GENERATED_(FD)
  6
Continuous
 62
     7
100
AcDbSpline
210
0.0
220
0.0
230
1.0
 70
     8
 71
     3
 72
    38
 73
    34
 74
     0
 42
0.0000000000594566
 43
0.0000000001
 40
0.0
 40
0.0
 40
0.0
 40
0.0
 40
0.2499999999999998
 40
0.2499999999999998
 40
0.3125
 40
0.3125
 40
0.34375
 40
0.34375
 40
0.3749999999999999
 40
0.3749999999999999
 40
0.4062499999999999
 40
0.4062499999999999
 40
0.4374999999999999
 40
0.4374999999999999
 40
0.4687499999999999
 40
0.4687499999999999
 40
0.4999999999999999
 40
0.4999999999999999
 40
0.5312499999999999
 40
0.5312499999999999
 40
0.5624999999999999
 40
0.5624999999999999
 40
0.5937499999999998
 40
0.5937499999999998
 40
0.6249999999999998
 40
0.6249999999999998
 40
0.6562499999999998
 40
0.6562499999999998
 40
0.6874999999999998
 40
0.6874999999999998
 40
0.7499999999999996
 40
0.7499999999999996
 40
1.0
 40
1.0
 40
1.0
 40
1.0
 10
193.9415321989198
 20
204.1167343486371
 30
0.0
 10
193.9275021529226
 20
190.1559216044686
 30
0.0
 10
193.8880237355393
 20
176.1650725760701
 30
0.0
 10
193.9366892577086
 20
158.6262405416609
 30
0.0
 10
193.9577497612138
 20
155.1159443613355
 30
0.0
 10
193.9796714020471
 20
149.8464518716752
 30
0.0
 10
193.9925287044029
 20
148.0875572438196
 30
0.0
 10
193.9062852368638
 20
144.5770200843839
 30
0.0
 10
193.8034760346509
 20
142.8195116753527
 30
0.0
 10
192.9172391174283
 20
139.3957778016319
 30
0.0
 10
192.1556142551082
 20
137.80847782685
 30
0.0
 10
190.1212419564184
 20
134.9280714561852
 30
0.0
 10
188.877511337375
 20
133.6677014064094
 30
0.0
 10
186.064970301461
 20
131.5583676724865
 30
0.0
 10
184.5152311290996
 20
130.7229609902833
 30
0.0
 10
181.1841014053366
 20
129.5719361195168
 30
0.0
 10
179.4687924973551
 20
129.277640203267
 30
0.0
 10
175.9294294673509
 20
129.3037596789126
 30
0.0
 10
174.2087760639903
 20
129.6246753000407
 30
0.0
 10
170.8814434652734
 20
130.8295767452138
 30
0.0
 10
169.3513000600459
 20
131.6817976499266
 30
0.0
 10
166.5506990425338
 20
133.845298146174
 30
0.0
 10
165.3435853574475
 20
135.1054789851256
 30
0.0
 10
163.3523420926662
 20
138.0152328641034
 30
0.0
 10
162.6208362832057
 20
139.6137944826913
 30
0.0
 10
161.7926497109675
 20
143.0237823867323
 30
0.0
 10
161.7027280413257
 20
144.7998052244122
 30
0.0
 10
161.6285021124083
 20
148.2979146657862
 30
0.0
 10
161.6407634068411
 20
150.0477014431864
 30
0.0
 10
161.6636544988652
 20
155.2960823487348
 30
0.0
 10
161.6839423283566
 20
158.7947588796368
 30
0.0
 10
161.7314844640899
 20
176.2751336869143
 30
0.0
 10
161.6924190813648
 20
190.2131597282416
 30
0.0
 10
161.6784473195411
 20
204.1167335033682
 30
0.0
  0
ARC
  5
247
330
1F8
100
AcDbEntity
  8
$DDT_AUDIT_GENERATED_(FD)
  6
Continuous
 62
     7
100
AcDbCircle
 10
177.8099895536
 20
228.1795905589
 30
0.0
 40
26.10011858083305
100
AcDbArc
 50
314.9002041218
 51
225.0997968536
  0
ARC
  5
248
330
1F8
100
AcDbEntity
  8
$DDT_AUDIT_GENERATED_(FD)
  6
Continuous
 62
     7
100
AcDbCircle
 10
177.810462179
 20
228.1846756362
 30
0.0
 40
26.97643720485066
100
AcDbArc
 50
0.0
 51
231.596204551
  0
ARC
  5
249
330
1F8
100
AcDbEntity
  8
$DDT_AUDIT_GENERATED_(FD)
  6
Continuous
 62
     7
100
AcDbCircle
 10
177.810462179
 20
228.1846756362
 30
0.0
 40
26.97643720485066
100
AcDbArc
 50
308.4432183139
 51
0.0
  0
LINE
  5
24A
330
1F8
100
AcDbEntity
  8
$DDT_AUDIT_GENERATED_(FD)
  6
Continuous
 62
     7
100
AcDbLine
 10
161.6420581952
 20
149.4147152968
 30
0.0
 11
161.6420581916
 21
149.0940209006
 31
0.0
  0
LINE
  5
24B
330
1F8
100
AcDbEntity
  8
$DDT_AUDIT_GENERATED_(FD)
  6
Continuous
 62
     7
100
AcDbLine
 10
193.9779050381
 20
149.0956268877
 30
0.0
 11
193.9779050416
 21
149.4145114458
 31
0.0
  0
ARC
  5
24C
330
1F8
100
AcDbEntity
  8
$DDT_AUDIT_GENERATED_(126)
  6
Continuous
 62
     7
100
AcDbCircle
 10
102.8099859789
 20
313.9755810892
 30
0.0
 40
16.0
100
AcDbArc
 50
0.0
 51
180.0
  0
LINE
  5
24D
330
1F8
100
AcDbEntity
  8
$DDT_AUDIT_GENERATED_(126)
  6
Continuous
 62
     7
100
AcDbLine
 10
117.8099859789
 20
276.9755810892
 30
0.0
 11
87.8099859789
 21
276.9755810892
 31
0.0
  0
LINE
  5
24E
330
1F8
100
AcDbEntity
  8
$DDT_AUDIT_GENERATED_(126)
  6
Continuous
 62
     7
100
AcDbLine
 10
86.8099859789
 20
282.9755810892
 30
0.0
 11
86.8099859789
 21
277.9755810892
 31
0.0
  0
LINE
  5
24F
330
1F8
100
AcDbEntity
  8
$DDT_AUDIT_GENERATED_(126)
  6
Continuous
 62
     7
100
AcDbLine
 10
118.8099859789
 20
277.9755810892
 30
0.0
 11
118.8099859789
 21
282.9755810892
 31
0.0
  0
LINE
  5
250
330
1F8
100
AcDbEntity
  8
$DDT_AUDIT_GENERATED_(126)
  6
Continuous
 62
     7
100
AcDbLine
 10
118.8099859789
 20
282.9755810892
 30
0.0
 11
118.8099859789
 21
313.9755810892
 31
0.0
  0
LINE
  5
251
330
1F8
100
AcDbEntity
  8
$DDT_AUDIT_GENERATED_(126)
  6
Continuous
 62
     7
100
AcDbLine
 10
86.8099859789
 20
313.9755810892
 30
0.0
 11
86.8099859789
 21
282.9755810892
 31
0.0
  0
LINE
  5
252
330
1F8
100
AcDbEntity
  8
$DDT_AUDIT_GENERATED_(126)
  6
Continuous
 62
     7
100
AcDbLine
 10
116.0248925117
 20
272.9755810892
 30
0.0
 11
115.0099859789
 21
273.5615376491
 31
0.0
  0
LINE
  5
253
330
1F8
100
AcDbEntity
  8
$DDT_AUDIT_GENERATED_(126)
  6
Continuous
 62
     7
100
AcDbLine
 10
90.6099859789
 20
273.5615376491
 30
0.0
 11
89.5950794462
 21
272.9755810892
 31
0.0
  0
ARC
  5
254
330
1F8
100
AcDbEntity
  8
$DDT_AUDIT_GENERATED_(126)
  6
Continuous
 62
     7
100
AcDbCircle
 10
115.3099859789
 20
274.0811528914
 30
0.0
 40
0.6000000000000041
100
AcDbArc
 50
180.0
 51
240.0
  0
ARC
  5
255
330
1F8
100
AcDbEntity
  8
$DDT_AUDIT_GENERATED_(126)
  6
Continuous
 62
     7
100
AcDbCircle
 10
90.3099859789
 20
274.0811528914
 30
0.0
 40
0.6000000000000033
100
AcDbArc
 50
300.0
 51
0.0
  0
LINE
  5
256
330
1F8
100
AcDbEntity
  8
$DDT_AUDIT_GENERATED_(126)
  6
Continuous
 62
     7
100
AcDbLine
 10
114.7099859789
 20
274.0811528914
 30
0.0
 11
114.7099859789
 21
276.3755810892
 31
0.0
  0
LINE
  5
257
330
1F8
100
AcDbEntity
  8
$DDT_AUDIT_GENERATED_(126)
  6
Continuous
 62
     7
100
AcDbLine
 10
90.9099859789
 20
276.3755810892
 30
0.0
 11
90.9099859789
 21
274.0811528914
 31
0.0
  0
ARC
  5
258
330
1F8
100
AcDbEntity
  8
$DDT_AUDIT_GENERATED_(126)
  6
Continuous
 62
     7
100
AcDbCircle
 10
115.3099859789
 20
276.3755810892
 30
0.0
 40
0.5999999999999894
100
AcDbArc
 50
90.0
 51
180.0
  0
ARC
  5
259
330
1F8
100
AcDbEntity
  8
$DDT_AUDIT_GENERATED_(126)
  6
Continuous
 62
     7
100
AcDbCircle
 10
90.3099859789
 20
276.3755810892
 30
0.0
 40
0.6000000000000033
100
AcDbArc
 50
0.0
 51
90.0
  0
ARC
  5
25A
330
1F8
100
AcDbEntity
  8
$DDT_AUDIT_GENERATED_(126)
  6
Continuous
 62
     7
100
AcDbCircle
 10
87.8099859789
 20
277.9755810892
 30
0.0
 40
1.000000000000001
100
AcDbArc
 50
180.0
 51
270.0
  0
ARC
  5
25B
330
1F8
100
AcDbEntity
  8
$DDT_AUDIT_GENERATED_(126)
  6
Continuous
 62
     7
100
AcDbCircle
 10
117.8099859789
 20
277.9755810892
 30
0.0
 40
1.000000000000001
100
AcDbArc
 50
270.0
 51
0.0
  0
ARC
  5
25C
330
1F8
100
AcDbEntity
  8
$DDT_AUDIT_GENERATED_(12D)
  6
Continuous
 62
     7
100
AcDbCircle
 10
102.8099859789
 20
313.9755810892
 30
0.0
 40
22.5
100
AcDbArc
 50
315.3253904356
 51
0.0
  0
ARC
  5
25D
330
1F8
100
AcDbEntity
  8
$DDT_AUDIT_GENERATED_(12D)
  6
Continuous
 62
     7
100
AcDbCircle
 10
102.8099859789
 20
313.9755810892
 30
0.0
 40
22.5
100
AcDbArc
 50
0.0
 51
224.6746095644
  0
ARC
  5
25F
330
1F8
100
AcDbEntity
  8
$DDT_AUDIT_GENERATED_(25E)
  6
Continuous
 62
     7
100
AcDbCircle
 10
102.8099859789
 20
313.9755810892
 30
0.0
 40
23.99999999999999
100
AcDbArc
 50
311.8103148958
 51
0.0
  0
ARC
  5
260
330
1F8
100
AcDbEntity
  8
$DDT_AUDIT_GENERATED_(25E)
  6
Continuous
 62
     7
100
AcDbCircle
 10
102.8099859789
 20
313.9755810892
 30
0.0
 40
23.99999999999999
100
AcDbArc
 50
0.0
 51
228.1896851042
  0
ARC
  5
261
330
1F8
100
AcDbEntity
  8
$DDT_AUDIT_GENERATED_(126)
  6
Continuous
 62
     7
100
AcDbCircle
 10
252.8099859789
 20
313.9755810892
 30
0.0
 40
16.0
100
AcDbArc
 50
0.0
 51
180.0
  0
LINE
  5
262
330
1F8
100
AcDbEntity
  8
$DDT_AUDIT_GENERATED_(126)
  6
Continuous
 62
     7
100
AcDbLine
 10
237.8099859789
 20
276.9755810892
 30
0.0
 11
267.8099859789
 21
276.9755810892
 31
0.0
  0
LINE
  5
263
330
1F8
100
AcDbEntity
  8
$DDT_AUDIT_GENERATED_(126)
  6
Continuous
 62
     7
100
AcDbLine
 10
236.8099859789
 20
282.9755810892
 30
0.0
 11
236.8099859789
 21
277.9755810892
 31
0.0
  0
LINE
  5
264
330
1F8
100
AcDbEntity
  8
$DDT_AUDIT_GENERATED_(126)
  6
Continuous
 62
     7
100
AcDbLine
 10
268.8099859789
 20
277.9755810892
 30
0.0
 11
268.8099859789
 21
282.9755810892
 31
0.0
  0
LINE
  5
265
330
1F8
100
AcDbEntity
  8
$DDT_AUDIT_GENERATED_(126)
  6
Continuous
 62
     7
100
AcDbLine
 10
268.8099859789
 20
282.9755810892
 30
0.0
 11
268.8099859789
 21
313.9755810892
 31
0.0
  0
LINE
  5
266
330
1F8
100
AcDbEntity
  8
$DDT_AUDIT_GENERATED_(126)
  6
Continuous
 62
     7
100
AcDbLine
 10
236.8099859789
 20
313.9755810892
 30
0.0
 11
236.8099859789
 21
282.9755810892
 31
0.0
  0
LINE
  5
267
330
1F8
100
AcDbEntity
  8
$DDT_AUDIT_GENERATED_(126)
  6
Continuous
 62
     7
100
AcDbLine
 10
266.0248925117
 20
272.9755810892
 30
0.0
 11
265.0099859789
 21
273.5615376491
 31
0.0
  0
LINE
  5
268
330
1F8
100
AcDbEntity
  8
$DDT_AUDIT_GENERATED_(126)
  6
Continuous
 62
     7
100
AcDbLine
 10
240.6099859789
 20
273.5615376491
 30
0.0
 11
239.5950794462
 21
272.9755810892
 31
0.0
  0
ARC
  5
269
330
1F8
100
AcDbEntity
  8
$DDT_AUDIT_GENERATED_(126)
  6
Continuous
 62
     7
100
AcDbCircle
 10
265.3099859789
 20
274.0811528914
 30
0.0
 40
0.6000000000000041
100
AcDbArc
 50
180.0
 51
240.0
  0
ARC
  5
26A
330
1F8
100
AcDbEntity
  8
$DDT_AUDIT_GENERATED_(126)
  6
Continuous
 62
     7
100
AcDbCircle
 10
240.3099859789
 20
274.0811528914
 30
0.0
 40
0.6000000000000033
100
AcDbArc
 50
300.0
 51
0.0
  0
LINE
  5
26B
330
1F8
100
AcDbEntity
  8
$DDT_AUDIT_GENERATED_(126)
  6
Continuous
 62
     7
100
AcDbLine
 10
264.7099859789
 20
274.0811528914
 30
0.0
 11
264.7099859789
 21
276.3755810892
 31
0.0
  0
LINE
  5
26C
330
1F8
100
AcDbEntity
  8
$DDT_AUDIT_GENERATED_(126)
  6
Continuous
 62
     7
100
AcDbLine
 10
240.9099859789
 20
276.3755810892
 30
0.0
 11
240.9099859789
 21
274.0811528914
 31
0.0
  0
ARC
  5
26D
330
1F8
100
AcDbEntity
  8
$DDT_AUDIT_GENERATED_(126)
  6
Continuous
 62
     7
100
AcDbCircle
 10
265.3099859789
 20
276.3755810892
 30
0.0
 40
0.5999999999999894
100
AcDbArc
 50
90.0
 51
180.0
  0
ARC
  5
26E
330
1F8
100
AcDbEntity
  8
$DDT_AUDIT_GENERATED_(126)
  6
Continuous
 62
     7
100
AcDbCircle
 10
240.3099859789
 20
276.3755810892
 30
0.0
 40
0.6000000000000033
100
AcDbArc
 50
0.0
 51
90.0
  0
ARC
  5
26F
330
1F8
100
AcDbEntity
  8
$DDT_AUDIT_GENERATED_(126)
  6
Continuous
 62
     7
100
AcDbCircle
 10
237.8099859789
 20
277.9755810892
 30
0.0
 40
1.000000000000001
100
AcDbArc
 50
180.0
 51
270.0
  0
ARC
  5
270
330
1F8
100
AcDbEntity
  8
$DDT_AUDIT_GENERATED_(126)
  6
Continuous
 62
     7
100
AcDbCircle
 10
267.8099859789
 20
277.9755810892
 30
0.0
 40
1.000000000000001
100
AcDbArc
 50
270.0
 51
0.0
  0
ARC
  5
271
330
1F8
100
AcDbEntity
  8
$DDT_AUDIT_GENERATED_(12D)
  6
Continuous
 62
     7
100
AcDbCircle
 10
252.8099859789
 20
313.9755810892
 30
0.0
 40
22.5
100
AcDbArc
 50
315.3253904356
 51
0.0
  0
ARC
  5
272
330
1F8
100
AcDbEntity
  8
$DDT_AUDIT_GENERATED_(12D)
  6
Continuous
 62
     7
100
AcDbCircle
 10
252.8099859789
 20
313.9755810892
 30
0.0
 40
22.5
100
AcDbArc
 50
0.0
 51
224.6746095644
  0
ARC
  5
273
330
1F8
100
AcDbEntity
  8
$DDT_AUDIT_GENERATED_(25E)
  6
Continuous
 62
     7
100
AcDbCircle
 10
252.8099859789
 20
313.9755810892
 30
0.0
 40
23.99999999999999
100
AcDbArc
 50
311.8103148958
 51
0.0
  0
ARC
  5
274
330
1F8
100
AcDbEntity
  8
$DDT_AUDIT_GENERATED_(25E)
  6
Continuous
 62
     7
100
AcDbCircle
 10
252.8099859789
 20
313.9755810892
 30
0.0
 40
23.99999999999999
100
AcDbArc
 50
0.0
 51
228.1896851042
  0
ENDBLK
  5
276
330
1F8
100
AcDbEntity
  8
0
100
AcDbBlockEnd
  0
ENDSEC
  0
SECTION
  2
ENTITIES
  0
INSERT
  5
5F
330
1F
100
AcDbEntity
  8
Default
100
AcDbBlockReference
  2
SEANNOT_GROUP
 10
0.0
 20
0.0
 30
0.0
  0
INSERT
  5
66
330
1F
100
AcDbEntity
  8
Default
100
AcDbBlockReference
  2
SEANNOT_GROUP1
 10
0.0
 20
0.0
 30
0.0
  0
INSERT
  5
6C
330
1F
100
AcDbEntity
  8
Default
100
AcDbBlockReference
  2
SEANNOT_GROUP2
 10
0.0
 20
0.0
 30
0.0
  0
INSERT
  5
72
330
1F
100
AcDbEntity
  8
Default
100
AcDbBlockReference
  2
SEANNOT_GROUP3
 10
0.0
 20
0.0
 30
0.0
  0
INSERT
  5
7C
330
1F
100
AcDbEntity
  8
Default
100
AcDbBlockReference
  2
SEANNOT_GROUP4
 10
0.0
 20
0.0
 30
0.0
  0
INSERT
  5
86
330
1F
100
AcDbEntity
  8
Default
100
AcDbBlockReference
  2
SEANNOT_GROUP5
 10
0.0
 20
0.0
 30
0.0
  0
INSERT
  5
8C
330
1F
100
AcDbEntity
  8
Default
100
AcDbBlockReference
  2
SEANNOT_GROUP6
 10
0.0
 20
0.0
 30
0.0
  0
INSERT
  5
92
330
1F
100
AcDbEntity
  8
Default
100
AcDbBlockReference
  2
SE
 10
0.0
 20
0.0
 30
0.0
  0
INSERT
  5
145
330
1F
100
AcDbEntity
  8
Default
100
AcDbBlockReference
  2
SE1
 10
0.0
 20
0.0
 30
0.0
  0
INSERT
  5
1F9
330
1F
100
AcDbEntity
  8
Default
100
AcDbBlockReference
  2
SE2
 10
0.0
 20
0.0
 30
0.0
  0
TEXT
  5
278
330
1F
100
AcDbEntity
  8
Default
  6
Continuous
 62
     7
100
AcDbText
 10
5.9362635081
 20
53.4225120485
 30
0.0
 40
10.0
  1
Grohe AG^J
  7
SEACAD_seiso_ttf
 11
5.9362635081
 21
63.4225120485
 31
0.0
100
AcDbText
 73
     3
  0
TEXT
  5
279
330
1F
100
AcDbEntity
  8
Default
  6
Continuous
 62
     7
100
AcDbText
 10
5.9362635081
 20
37.0588756849
 30
0.0
 40
10.0
  1
 
  7
SEACAD_seiso_ttf
 11
5.9362635081
 21
47.0588756849
 31
0.0
100
AcDbText
 73
     3
  0
TEXT
  5
27A
330
1F
100
AcDbEntity
  8
Default
  6
Continuous
 62
     7
100
AcDbText
 10
5.9362635081
 20
20.6952393213
 30
0.0
 40
10.0
  1
ecn: 
  7
SEACAD_seiso_ttf
 11
5.9362635081
 21
30.6952393213
 31
0.0
100
AcDbText
 73
     3
  0
TEXT
  5
27B
330
1F
100
AcDbEntity
  8
Default
  6
Continuous
 62
     7
100
AcDbText
 10
5.9362635081
 20
4.3316029576
 30
0.0
 40
10.0
  1
unit: mm
  7
SEACAD_seiso_ttf
 11
5.9362635081
 21
14.3316029576
 31
0.0
100
AcDbText
 73
     3
  0
LINE
  5
27C
330
1F
100
AcDbEntity
  8
Default
  6
Continuous
 62
     7
100
AcDbLine
 10
0.0
 20
0.0
 30
0.0
 11
100.0
 21
0.0
 31
0.0
  0
LINE
  5
27D
330
1F
100
AcDbEntity
  8
Default
  6
Continuous
 62
     7
100
AcDbLine
 10
0.0
 20
0.0
 30
0.0
 11
0.0
 21
100.0
 31
0.0
  0
TEXT
  5
27E
330
1F
100
AcDbEntity
  8
Default
  6
Continuous
 62
     7
100
AcDbText
 10
24.3923665681
 20
-18.2375342018
 30
0.0
 40
10.0
  1
100 mm
  7
SEACAD_seiso_ttf
 11
24.3923665681
 21
-8.2375342018
 31
0.0
100
AcDbText
 73
     3
  0
TEXT
  5
27F
330
1F
100
AcDbEntity
  8
Default
  6
Continuous
 62
     7
100
AcDbText
 10
-7.6150308803
 20
24.6231930421
 30
0.0
 40
10.0
  1
100 mm
 50
90.0
  7
SEACAD_seiso_ttf
 11
-17.6150308803
 21
24.6231930421
 31
0.0
100
AcDbText
 73
     3
  0
TEXT
  5
280
330
1F
100
AcDbEntity
  8
Default
  6
Continuous
 62
     7
100
AcDbText
 10
28.4878128572
 20
20.0907663715
 30
0.0
 40
10.0
  1
218690
  7
SEACAD_seiso_ttf
 11
28.4878128572
 21
30.0907663715
 31
0.0
100
AcDbText
 73
     3
  0
TEXT
  5
281
330
1F
100
AcDbEntity
  8
Default
  6
Continuous
 62
     7
100
AcDbText
 10
5.9012241913
 20
36.7242780188
 30
0.0
 40
10.0
  1
33612002
  7
SEACAD_seiso_ttf
 11
5.9012241913
 21
46.7242780188
 31
0.0
100
AcDbText
 73
     3
  0
ENDSEC
  0
SECTION
  2
OBJECTS
  0
DICTIONARY
  5
C
330
0
100
AcDbDictionary
281
     1
  3
ACAD_GROUP
350
D
  3
ACAD_LAYOUT
350
1A
  3
ACAD_MLEADERSTYLE
350
285
  3
ACAD_MLINESTYLE
350
17
  3
ACAD_PLOTSETTINGS
350
19
  3
ACAD_PLOTSTYLENAME
350
E
  3
ACAD_SCALELIST
350
3B
  3
ACAD_TABLESTYLE
350
284
  3
ACAD_VISUALSTYLE
350
2A
  3
AcDbVariableDictionary
350
282
  0
DICTIONARY
  5
D
102
{ACAD_REACTORS
330
C
102
}
330
C
100
AcDbDictionary
281
     1
  0
DICTIONARY
  5
1A
102
{ACAD_REACTORS
330
C
102
}
330
C
100
AcDbDictionary
281
     1
  3
Layout1
350
1E
  3
Model
350
22
  0
DICTIONARY
  5
285
102
{ACAD_REACTORS
330
C
102
}
330
C
100
AcDbDictionary
281
     1
  0
DICTIONARY
  5
17
102
{ACAD_REACTORS
330
C
102
}
330
C
100
AcDbDictionary
281
     1
  3
Standard
350
18
  0
DICTIONARY
  5
19
102
{ACAD_REACTORS
330
C
102
}
330
C
100
AcDbDictionary
281
     1
  0
ACDBDICTIONARYWDFLT
  5
E
102
{ACAD_REACTORS
330
C
102
}
330
C
100
AcDbDictionary
281
     1
  3
Normal
350
F
100
AcDbDictionaryWithDefault
340
F
  0
DICTIONARY
  5
3B
102
{ACAD_REACTORS
330
C
102
}
330
C
100
AcDbDictionary
281
     1
  3
A0
350
3C
  3
A1
350
3D
  3
A2
350
3E
  3
A3
350
3F
  3
A4
350
40
  3
A5
350
41
  3
A6
350
42
  3
A7
350
43
  3
A8
350
44
  3
A9
350
45
  3
B0
350
46
  3
B1
350
47
  3
B2
350
48
  3
B3
350
49
  3
B4
350
4A
  3
B5
350
4B
  3
B6
350
4C
  3
B7
350
4D
  3
B8
350
4E
  3
B9
350
4F
  3
C0
350
50
  3
C1
350
51
  3
C2
350
52
  3
C3
350
53
  3
C4
350
54
  3
C5
350
55
  3
C6
350
56
  3
C7
350
57
  3
C8
350
58
  3
C9
350
59
  3
D0
350
5A
  3
D1
350
5B
  3
D2
350
5C
  0
DICTIONARY
  5
284
102
{ACAD_REACTORS
330
C
102
}
330
C
100
AcDbDictionary
281
     1
  0
DICTIONARY
  5
2A
102
{ACAD_REACTORS
330
C
102
}
330
C
100
AcDbDictionary
281
     1
  3
2dWireframe
350
2F
  3
3D Hidden
350
31
  3
3dWireframe
350
30
  3
Basic
350
32
  3
Brighten
350
36
  3
ColorChange
350
3A
  3
Conceptual
350
34
  3
Dim
350
35
  3
Facepattern
350
39
  3
Flat
350
2B
  3
FlatWithEdges
350
2C
  3
Gouraud
350
2D
  3
GouraudWithEdges
350
2E
  3
Linepattern
350
38
  3
Realistic
350
33
  3
Thicken
350
37
  0
DICTIONARY
  5
282
102
{ACAD_REACTORS
330
C
102
}
330
C
100
AcDbDictionary
281
     1
  3
CANNOSCALE
350
283
  3
PSOLHEIGHT
350
287
  3
PSOLWIDTH
350
286
  0
LAYOUT
  5
1E
102
{ACAD_REACTORS
330
1A
102
}
330
1A
100
AcDbPlotSettings
  1

  2
none_device
  4

  6

 40
0.0
 41
0.0
 42
0.0
 43
0.0
 44
0.0
 45
0.0
 46
0.0
 47
0.0
 48
0.0
 49
0.0
140
0.0
141
0.0
142
1.0
143
1.0
 70
   688
 72
     0
 73
     0
 74
     5
  7

 75
    16
147
1.0
148
0.0
149
0.0
100
AcDbLayout
  1
Layout1
 70
     1
 71
     1
 10
0.0
 20
0.0
 11
1682.0
 21
2378.0
 12
0.0
 22
0.0
 32
0.0
 14
0.0
 24
0.0
 34
0.0
 15
1682.0
 25
2378.0
 35
0.0
146
0.0
 13
0.0
 23
0.0
 33
0.0
 16
1.0
 26
0.0
 36
0.0
 17
0.0
 27
1.0
 37
0.0
 76
     0
330
1B
  0
LAYOUT
  5
22
102
{ACAD_REACTORS
330
1A
102
}
330
1A
100
AcDbPlotSettings
  1

  2
none_device
  4

  6

 40
0.0
 41
0.0
 42
0.0
 43
0.0
 44
0.0
 45
0.0
 46
0.0
 47
0.0
 48
0.0
 49
0.0
140
0.0
141
0.0
142
1.0
143
1.0
 70
  1712
 72
     0
 73
     0
 74
     0
  7

 75
     0
147
1.0
148
0.0
149
0.0
100
AcDbLayout
  1
Model
 70
     1
 71
     0
 10
0.0
 20
0.0
 11
1682.0
 21
2378.0
 12
0.0
 22
0.0
 32
0.0
 14
0.0
 24
0.0
 34
0.0
 15
1682.0
 25
2378.0
 35
0.0
146
0.0
 13
0.0
 23
0.0
 33
0.0
 16
1.0
 26
0.0
 36
0.0
 17
0.0
 27
1.0
 37
0.0
 76
     0
330
1F
331
29
  0
MLINESTYLE
  5
18
102
{ACAD_REACTORS
330
17
102
}
330
17
100
AcDbMlineStyle
  2
Standard
 70
     0
  3

 62
   256
 51
90.0
 52
90.0
 71
     2
 49
0.5
 62
   256
  6
BYLAYER
 49
-0.5
 62
   256
  6
BYLAYER
  0
ACDBPLACEHOLDER
  5
F
102
{ACAD_REACTORS
330
E
102
}
330
E
  0
SCALE
  5
3C
102
{ACAD_REACTORS
330
3B
102
}
330
3B
100
AcDbScale
 70
     0
300
1:1
140
1.0
141
1.0
290
     1
  0
SCALE
  5
3D
102
{ACAD_REACTORS
330
3B
102
}
330
3B
100
AcDbScale
 70
     0
300
1:2
140
1.0
141
2.0
290
     0
  0
SCALE
  5
3E
102
{ACAD_REACTORS
330
3B
102
}
330
3B
100
AcDbScale
 70
     0
300
1:4
140
1.0
141
4.0
290
     0
  0
SCALE
  5
3F
102
{ACAD_REACTORS
330
3B
102
}
330
3B
100
AcDbScale
 70
     0
300
1:5
140
1.0
141
5.0
290
     0
  0
SCALE
  5
40
102
{ACAD_REACTORS
330
3B
102
}
330
3B
100
AcDbScale
 70
     0
300
1:8
140
1.0
141
8.0
290
     0
  0
SCALE
  5
41
102
{ACAD_REACTORS
330
3B
102
}
330
3B
100
AcDbScale
 70
     0
300
1:10
140
1.0
141
10.0
290
     0
  0
SCALE
  5
42
102
{ACAD_REACTORS
330
3B
102
}
330
3B
100
AcDbScale
 70
     0
300
1:16
140
1.0
141
16.0
290
     0
  0
SCALE
  5
43
102
{ACAD_REACTORS
330
3B
102
}
330
3B
100
AcDbScale
 70
     0
300
1:20
140
1.0
141
20.0
290
     0
  0
SCALE
  5
44
102
{ACAD_REACTORS
330
3B
102
}
330
3B
100
AcDbScale
 70
     0
300
1:30
140
1.0
141
30.0
290
     0
  0
SCALE
  5
45
102
{ACAD_REACTORS
330
3B
102
}
330
3B
100
AcDbScale
 70
     0
300
1:40
140
1.0
141
40.0
290
     0
  0
SCALE
  5
46
102
{ACAD_REACTORS
330
3B
102
}
330
3B
100
AcDbScale
 70
     0
300
1:50
140
1.0
141
50.0
290
     0
  0
SCALE
  5
47
102
{ACAD_REACTORS
330
3B
102
}
330
3B
100
AcDbScale
 70
     0
300
1:100
140
1.0
141
100.0
290
     0
  0
SCALE
  5
48
102
{ACAD_REACTORS
330
3B
102
}
330
3B
100
AcDbScale
 70
     0
300
2:1
140
2.0
141
1.0
290
     0
  0
SCALE
  5
49
102
{ACAD_REACTORS
330
3B
102
}
330
3B
100
AcDbScale
 70
     0
300
4:1
140
4.0
141
1.0
290
     0
  0
SCALE
  5
4A
102
{ACAD_REACTORS
330
3B
102
}
330
3B
100
AcDbScale
 70
     0
300
8:1
140
8.0
141
1.0
290
     0
  0
SCALE
  5
4B
102
{ACAD_REACTORS
330
3B
102
}
330
3B
100
AcDbScale
 70
     0
300
10:1
140
10.0
141
1.0
290
     0
  0
SCALE
  5
4C
102
{ACAD_REACTORS
330
3B
102
}
330
3B
100
AcDbScale
 70
     0
300
100:1
140
100.0
141
1.0
290
     0
  0
SCALE
  5
4D
102
{ACAD_REACTORS
330
3B
102
}
330
3B
100
AcDbScale
 70
     0
300
1/128" = 1'-0"
140
0.0078125
141
12.0
290
     0
  0
SCALE
  5
4E
102
{ACAD_REACTORS
330
3B
102
}
330
3B
100
AcDbScale
 70
     0
300
1/64" = 1'-0"
140
0.015625
141
12.0
290
     0
  0
SCALE
  5
4F
102
{ACAD_REACTORS
330
3B
102
}
330
3B
100
AcDbScale
 70
     0
300
1/32" = 1'-0"
140
0.03125
141
12.0
290
     0
  0
SCALE
  5
50
102
{ACAD_REACTORS
330
3B
102
}
330
3B
100
AcDbScale
 70
     0
300
1/16" = 1'-0"
140
0.0625
141
12.0
290
     0
  0
SCALE
  5
51
102
{ACAD_REACTORS
330
3B
102
}
330
3B
100
AcDbScale
 70
     0
300
3/32" = 1'-0"
140
0.09375
141
12.0
290
     0
  0
SCALE
  5
52
102
{ACAD_REACTORS
330
3B
102
}
330
3B
100
AcDbScale
 70
     0
300
1/8" = 1'-0"
140
0.125
141
12.0
290
     0
  0
SCALE
  5
53
102
{ACAD_REACTORS
330
3B
102
}
330
3B
100
AcDbScale
 70
     0
300
3/16" = 1'-0"
140
0.1875
141
12.0
290
     0
  0
SCALE
  5
54
102
{ACAD_REACTORS
330
3B
102
}
330
3B
100
AcDbScale
 70
     0
300
1/4" = 1'-0"
140
0.25
141
12.0
290
     0
  0
SCALE
  5
55
102
{ACAD_REACTORS
330
3B
102
}
330
3B
100
AcDbScale
 70
     0
300
3/8" = 1'-0"
140
0.375
141
12.0
290
     0
  0
SCALE
  5
56
102
{ACAD_REACTORS
330
3B
102
}
330
3B
100
AcDbScale
 70
     0
300
1/2" = 1'-0"
140
0.5
141
12.0
290
     0
  0
SCALE
  5
57
102
{ACAD_REACTORS
330
3B
102
}
330
3B
100
AcDbScale
 70
     0
300
3/4" = 1'-0"
140
0.75
141
12.0
290
     0
  0
SCALE
  5
58
102
{ACAD_REACTORS
330
3B
102
}
330
3B
100
AcDbScale
 70
     0
300
1" = 1'-0"
140
1.0
141
12.0
290
     0
  0
SCALE
  5
59
102
{ACAD_REACTORS
330
3B
102
}
330
3B
100
AcDbScale
 70
     0
300
1-1/2" = 1'-0"
140
1.5
141
12.0
290
     0
  0
SCALE
  5
5A
102
{ACAD_REACTORS
330
3B
102
}
330
3B
100
AcDbScale
 70
     0
300
3" = 1'-0"
140
3.0
141
12.0
290
     0
  0
SCALE
  5
5B
102
{ACAD_REACTORS
330
3B
102
}
330
3B
100
AcDbScale
 70
     0
300
6" = 1'-0"
140
6.0
141
12.0
290
     0
  0
SCALE
  5
5C
102
{ACAD_REACTORS
330
3B
102
}
330
3B
100
AcDbScale
 70
     0
300
1'-0" = 1'-0"
140
12.0
141
12.0
290
     0
  0
VISUALSTYLE
  5
2F
102
{ACAD_REACTORS
330
2A
102
}
330
2A
100
AcDbVisualStyle
  2
2dWireframe
 70
     4
 71
     0
 72
     2
 73
     0
 90
        0
 40
-0.6
 41
-30.0
 62
     5
 63
     7
 74
     1
 91
        4
 64
     7
 65
   257
 75
     1
175
     1
 42
1.0
 92
        0
 66
   257
 43
1.0
 76
     1
 77
     6
 78
     2
 67
     7
 79
     5
170
     0
171
     0
290
     0
174
     0
 93
        1
 44
0.0
173
     0
291
     0
 45
0.0
1001
ACAD
1000
AcDbSavedByObjectVersion
1070
     0
  0
VISUALSTYLE
  5
31
102
{ACAD_REACTORS
330
2A
102
}
330
2A
100
AcDbVisualStyle
  2
3D Hidden
 70
     6
 71
     1
 72
     2
 73
     2
 90
        0
 40
-0.6
 41
-30.0
 62
     5
 63
     7
 74
     2
 91
        2
 64
     7
 65
   257
 75
     2
175
     1
 42
40.0
 92
        0
 66
   257
 43
1.0
 76
     1
 77
     6
 78
     2
 67
     7
 79
     3
170
     0
171
     0
290
     0
174
     0
 93
        1
 44
0.0
173
     0
291
     0
 45
0.0
1001
ACAD
1000
AcDbSavedByObjectVersion
1070
     0
  0
VISUALSTYLE
  5
30
102
{ACAD_REACTORS
330
2A
102
}
330
2A
100
AcDbVisualStyle
  2
3dWireframe
 70
     5
 71
     0
 72
     2
 73
     0
 90
        0
 40
-0.6
 41
-30.0
 62
     5
 63
     7
 74
     1
 91
        4
 64
     7
 65
   257
 75
     1
175
     1
 42
1.0
 92
        0
 66
   257
 43
1.0
 76
     1
 77
     6
 78
     2
 67
     7
 79
     5
170
     0
171
     0
290
     0
174
     0
 93
        1
 44
0.0
173
     0
291
     0
 45
0.0
1001
ACAD
1000
AcDbSavedByObjectVersion
1070
     0
  0
VISUALSTYLE
  5
32
102
{ACAD_REACTORS
330
2A
102
}
330
2A
100
AcDbVisualStyle
  2
Basic
 70
     7
 71
     1
 72
     0
 73
     1
 90
        0
 40
-0.6
 41
-30.0
 62
     5
 63
     7
 74
     0
 91
        4
 64
     7
 65
   257
 75
     1
175
     1
 42
1.0
 92
        8
 66
     7
 43
1.0
 76
     1
 77
     6
 78
     2
 67
     7
 79
     5
170
     0
171
     0
290
     0
174
     0
 93
        1
 44
0.0
173
     0
291
     1
 45
0.0
1001
ACAD
1000
AcDbSavedByObjectVersion
1070
     0
  0
VISUALSTYLE
  5
36
102
{ACAD_REACTORS
330
2A
102
}
330
2A
100
AcDbVisualStyle
  2
Brighten
 70
    12
 71
     2
 72
     2
 73
     0
 90
        0
 40
-0.6
 41
-30.0
 62
     5
 63
     7
 74
     1
 91
        4
 64
     7
 65
   257
 75
     1
175
     1
 42
1.0
 92
        8
 66
     7
 43
1.0
 76
     1
 77
     6
 78
     2
 67
     7
 79
     5
170
     0
171
     0
290
     0
174
     0
 93
        1
 44
50.0
173
     0
291
     1
 45
0.0
1001
ACAD
1000
AcDbSavedByObjectVersion
1070
     0
  0
VISUALSTYLE
  5
3A
102
{ACAD_REACTORS
330
2A
102
}
330
2A
100
AcDbVisualStyle
  2
ColorChange
 70
    16
 71
     2
 72
     2
 73
     3
 90
        0
 40
-0.6
 41
-30.0
 62
     5
 63
     8
 74
     1
 91
        4
 64
     7
 65
   257
 75
     1
175
     1
 42
1.0
 92
        8
 66
     8
 43
1.0
 76
     1
 77
     6
 78
     2
 67
     7
 79
     5
170
     0
171
     0
290
     0
174
     0
 93
        1
 44
0.0
173
     0
291
     1
 45
0.0
1001
ACAD
1000
AcDbSavedByObjectVersion
1070
     0
  0
VISUALSTYLE
  5
34
102
{ACAD_REACTORS
330
2A
102
}
330
2A
100
AcDbVisualStyle
  2
Conceptual
 70
     9
 71
     3
 72
     2
 73
     0
 90
        0
 40
-0.6
 41
-30.0
 62
     5
 63
     7
 74
     2
 91
        2
 64
     7
 65
   257
 75
     1
175
     1
 42
40.0
 92
        8
 66
     7
 43
1.0
 76
     1
 77
     6
 78
     2
 67
     7
 79
     3
170
     0
171
     0
290
     0
174
     0
 93
        1
 44
0.0
173
     0
291
     0
 45
0.0
1001
ACAD
1000
AcDbSavedByObjectVersion
1070
     0
  0
VISUALSTYLE
  5
35
102
{ACAD_REACTORS
330
2A
102
}
330
2A
100
AcDbVisualStyle
  2
Dim
 70
    11
 71
     2
 72
     2
 73
     0
 90
        0
 40
-0.6
 41
-30.0
 62
     5
 63
     7
 74
     1
 91
        4
 64
     7
 65
   257
 75
     1
175
     1
 42
1.0
 92
        8
 66
     7
 43
1.0
 76
     1
 77
     6
 78
     2
 67
     7
 79
     5
170
     0
171
     0
290
     0
174
     0
 93
        1
 44
-50.0
173
     0
291
     1
 45
0.0
1001
ACAD
1000
AcDbSavedByObjectVersion
1070
     0
  0
VISUALSTYLE
  5
39
102
{ACAD_REACTORS
330
2A
102
}
330
2A
100
AcDbVisualStyle
  2
Facepattern
 70
    15
 71
     2
 72
     2
 73
     0
 90
        0
 40
-0.6
 41
-30.0
 62
     5
 63
     7
 74
     1
 91
        4
 64
     7
 65
   257
 75
     1
175
     1
 42
1.0
 92
        8
 66
     7
 43
1.0
 76
     1
 77
     6
 78
     2
 67
     7
 79
     5
170
     0
171
     0
290
     0
174
     0
 93
        1
 44
0.0
173
     0
291
     1
 45
0.0
1001
ACAD
1000
AcDbSavedByObjectVersion
1070
     0
  0
VISUALSTYLE
  5
2B
102
{ACAD_REACTORS
330
2A
102
}
330
2A
100
AcDbVisualStyle
  2
Flat
 70
     0
 71
     2
 72
     1
 73
     1
 90
        2
 40
-0.6
 41
30.0
 62
     5
 63
     7
 74
     0
 91
        4
 64
     7
 65
   257
 75
     1
175
     1
 42
1.0
 92
        8
 66
     7
 43
1.0
 76
     1
 77
     6
 78
     2
 67
     7
 79
     5
170
     0
171
     0
290
     0
174
     0
 93
       13
 44
0.0
173
     0
291
     1
 45
0.0
1001
ACAD
1000
AcDbSavedByObjectVersion
1070
     0
  0
VISUALSTYLE
  5
2C
102
{ACAD_REACTORS
330
2A
102
}
330
2A
100
AcDbVisualStyle
  2
FlatWithEdges
 70
     1
 71
     2
 72
     1
 73
     1
 90
        2
 40
-0.6
 41
30.0
 62
     5
 63
     7
 74
     1
 91
        4
 64
     7
 65
   257
 75
     1
175
     1
 42
1.0
 92
        0
 66
   257
 43
1.0
 76
     1
 77
     6
 78
     2
 67
     7
 79
     5
170
     0
171
     0
290
     0
174
     0
 93
       13
 44
0.0
173
     0
291
     1
 45
0.0
1001
ACAD
1000
AcDbSavedByObjectVersion
1070
     0
  0
VISUALSTYLE
  5
2D
102
{ACAD_REACTORS
330
2A
102
}
330
2A
100
AcDbVisualStyle
  2
Gouraud
 70
     2
 71
     2
 72
     2
 73
     1
 90
        2
 40
-0.6
 41
30.0
 62
     5
 63
     7
 74
     0
 91
        4
 64
     7
 65
   257
 75
     1
175
     1
 42
1.0
 92
        0
 66
     7
 43
1.0
 76
     1
 77
     6
 78
     2
 67
     7
 79
     5
170
     0
171
     0
290
     0
174
     0
 93
       13
 44
0.0
173
     0
291
     1
 45
0.0
1001
ACAD
1000
AcDbSavedByObjectVersion
1070
     0
  0
VISUALSTYLE
  5
2E
102
{ACAD_REACTORS
330
2A
102
}
330
2A
100
AcDbVisualStyle
  2
GouraudWithEdges
 70
     3
 71
     2
 72
     2
 73
     1
 90
        2
 40
-0.6
 41
30.0
 62
     5
 63
     7
 74
     1
 91
        4
 64
     7
 65
   257
 75
     1
175
     1
 42
1.0
 92
        0
 66
   257
 43
1.0
 76
     1
 77
     6
 78
     2
 67
     7
 79
     5
170
     0
171
     0
290
     0
174
     0
 93
       13
 44
0.0
173
     0
291
     1
 45
0.0
1001
ACAD
1000
AcDbSavedByObjectVersion
1070
     0
  0
VISUALSTYLE
  5
38
102
{ACAD_REACTORS
330
2A
102
}
330
2A
100
AcDbVisualStyle
  2
Linepattern
 70
    14
 71
     2
 72
     2
 73
     0
 90
        0
 40
-0.6
 41
-30.0
 62
     5
 63
     7
 74
     1
 91
        4
 64
     7
 65
   257
 75
     7
175
     7
 42
1.0
 92
        8
 66
     7
 43
1.0
 76
     1
 77
     6
 78
     2
 67
     7
 79
     5
170
     0
171
     0
290
     0
174
     0
 93
        1
 44
0.0
173
     0
291
     1
 45
0.0
1001
ACAD
1000
AcDbSavedByObjectVersion
1070
     0
  0
VISUALSTYLE
  5
33
102
{ACAD_REACTORS
330
2A
102
}
330
2A
100
AcDbVisualStyle
  2
Realistic
 70
     8
 71
     2
 72
     2
 73
     0
 90
        0
 40
-0.6
 41
-30.0
 62
     5
 63
     7
 74
     1
 91
        0
 64
     7
 65
   257
 75
     1
175
     1
 42
1.0
 92
        8
 66
     8
 43
1.0
 76
     1
 77
     6
 78
     2
 67
     7
 79
     5
170
     0
171
     0
290
     0
174
     0
 93
       13
 44
0.0
173
     0
291
     0
 45
0.0
1001
ACAD
1000
AcDbSavedByObjectVersion
1070
     0
  0
VISUALSTYLE
  5
37
102
{ACAD_REACTORS
330
2A
102
}
330
2A
100
AcDbVisualStyle
  2
Thicken
 70
    13
 71
     2
 72
     2
 73
     0
 90
        0
 40
-0.6
 41
-30.0
 62
     5
 63
     7
 74
     1
 91
        4
 64
     7
 65
   257
 75
     1
175
     1
 42
1.0
 92
       12
 66
     7
 43
1.0
 76
     1
 77
     6
 78
     2
 67
     7
 79
     5
170
     0
171
     0
290
     0
174
     0
 93
        1
 44
0.0
173
     0
291
     1
 45
0.0
1001
ACAD
1000
AcDbSavedByObjectVersion
1070
     0
  0
DICTIONARYVAR
  5
283
102
{ACAD_REACTORS
330
282
102
}
330
282
100
DictionaryVariables
280
     0
  1
1:1
  0
DICTIONARYVAR
  5
287
102
{ACAD_REACTORS
330
282
102
}
330
282
100
DictionaryVariables
280
     0
  1
80.000000
  0
DICTIONARYVAR
  5
286
102
{ACAD_REACTORS
330
282
102
}
330
282
100
DictionaryVariables
280
     0
  1
5.000000
  0
ENDSEC
  0
EOF
