  0
SECTION
  2
HEADER
  9
$ACADVER
  1
AC1009
  9
$DWGCODEPAGE
  3
ansi_1252
  9
$INSBASE
 10
0.0
 20
0.0
 30
0.0
  9
$EXTMIN
 10
1.000000000000000E+20
 20
1.000000000000000E+20
 30
1.000000000000000E+20
  9
$EXTMAX
 10
-1.000000000000000E+20
 20
-1.000000000000000E+20
 30
-1.000000000000000E+20
  9
$LIMMIN
 10
0.0
 20
0.0
  9
$LIMMAX
 10
12.0
 20
9.0
  9
$ORTHOMODE
 70
     0
  9
$REGENMODE
 70
     1
  9
$FILLMODE
 70
     1
  9
$QTEXTMODE
 70
     0
  9
$MIRRTEXT
 70
     1
  9
$DRAGMODE
 70
     2
  9
$LTSCALE
 40
1.0
  9
$OSMODE
 70
    37
  9
$ATTMODE
 70
     1
  9
$TEXTSIZE
 40
0.2
  9
$TRACEWID
 40
0.05
  9
$TEXTSTYLE
  7
STANDARD
  9
$CLAYER
  8
0
  9
$CELTYPE
  6
BYLAYER
  9
$CECOLOR
 62
   256
  9
$DIMSCALE
 40
1.0
  9
$DIMASZ
 40
0.18
  9
$DIMEXO
 40
0.0625
  9
$DIMDLI
 40
0.38
  9
$DIMRND
 40
0.0
  9
$DIMDLE
 40
0.0
  9
$DIMEXE
 40
0.18
  9
$DIMTP
 40
0.0
  9
$DIMTM
 40
0.0
  9
$DIMTXT
 40
0.18
  9
$DIMCEN
 40
0.09
  9
$DIMTSZ
 40
0.0
  9
$DIMTOL
 70
     0
  9
$DIMLIM
 70
     0
  9
$DIMTIH
 70
     1
  9
$DIMTOH
 70
     1
  9
$DIMSE1
 70
     0
  9
$DIMSE2
 70
     0
  9
$DIMTAD
 70
     0
  9
$DIMZIN
 70
     0
  9
$DIMBLK
  1

  9
$DIMASO
 70
     1
  9
$DIMSHO
 70
     1
  9
$DIMPOST
  1

  9
$DIMAPOST
  1

  9
$DIMALT
 70
     0
  9
$DIMALTD
 70
     2
  9
$DIMALTF
 40
25.4
  9
$DIMLFAC
 40
1.0
  9
$DIMTOFL
 70
     0
  9
$DIMTVP
 40
0.0
  9
$DIMTIX
 70
     0
  9
$DIMSOXD
 70
     0
  9
$DIMSAH
 70
     0
  9
$DIMBLK1
  1

  9
$DIMBLK2
  1

  9
$DIMSTYLE
  2
STANDARD
  9
$DIMCLRD
 70
     0
  9
$DIMCLRE
 70
     0
  9
$DIMCLRT
 70
     0
  9
$DIMTFAC
 40
1.0
  9
$DIMGAP
 40
0.09
  9
$LUNITS
 70
     2
  9
$LUPREC
 70
     4
  9
$SKETCHINC
 40
0.1
  9
$FILLETRAD
 40
0.5
  9
$AUNITS
 70
     0
  9
$AUPREC
 70
     0
  9
$MENU
  1
.
  9
$ELEVATION
 40
0.0
  9
$PELEVATION
 40
0.0
  9
$THICKNESS
 40
0.0
  9
$LIMCHECK
 70
     0
  9
$CHAMFERA
 40
0.5
  9
$CHAMFERB
 40
0.5
  9
$SKPOLY
 70
     0
  9
$TDCREATE
 40
2455432.79604419
  9
$TDUPDATE
 40
2455432.79604419
  9
$TDINDWG
 40
0.0000000116
  9
$TDUSRTIMER
 40
0.0000000116
  9
$USRTIMER
 70
     1
  9
$ANGBASE
 50
0.0
  9
$ANGDIR
 70
     0
  9
$PDMODE
 70
     0
  9
$PDSIZE
 40
0.0
  9
$PLINEWID
 40
0.0
  9
$COORDS
 70
     1
  9
$SPLFRAME
 70
     0
  9
$SPLINETYPE
 70
     6
  9
$SPLINESEGS
 70
     8
  9
$ATTDIA
 70
     0
  9
$ATTREQ
 70
     1
  9
$HANDLING
 70
     1
  9
$HANDSEED
  5
5E8
  9
$SURFTAB1
 70
     6
  9
$SURFTAB2
 70
     6
  9
$SURFTYPE
 70
     6
  9
$SURFU
 70
     6
  9
$SURFV
 70
     6
  9
$UCSNAME
  2

  9
$UCSORG
 10
0.0
 20
0.0
 30
0.0
  9
$UCSXDIR
 10
1.0
 20
0.0
 30
0.0
  9
$UCSYDIR
 10
0.0
 20
1.0
 30
0.0
  9
$PUCSNAME
  2

  9
$PUCSORG
 10
0.0
 20
0.0
 30
0.0
  9
$PUCSXDIR
 10
1.0
 20
0.0
 30
0.0
  9
$PUCSYDIR
 10
0.0
 20
1.0
 30
0.0
  9
$USERI1
 70
     0
  9
$USERI2
 70
     0
  9
$USERI3
 70
     0
  9
$USERI4
 70
     0
  9
$USERI5
 70
     0
  9
$USERR1
 40
0.0
  9
$USERR2
 40
0.0
  9
$USERR3
 40
0.0
  9
$USERR4
 40
0.0
  9
$USERR5
 40
0.0
  9
$WORLDVIEW
 70
     1
  9
$SHADEDGE
 70
     3
  9
$SHADEDIF
 70
    70
  9
$TILEMODE
 70
     1
  9
$MAXACTVP
 70
    64
  9
$PLIMCHECK
 70
     0
  9
$PEXTMIN
 10
1.000000000000000E+20
 20
1.000000000000000E+20
 30
1.000000000000000E+20
  9
$PEXTMAX
 10
-1.000000000000000E+20
 20
-1.000000000000000E+20
 30
-1.000000000000000E+20
  9
$PLIMMIN
 10
0.0
 20
0.0
  9
$PLIMMAX
 10
12.0
 20
9.0
  9
$UNITMODE
 70
     0
  9
$VISRETAIN
 70
     1
  9
$PLINEGEN
 70
     0
  9
$PSLTSCALE
 70
     1
  0
ENDSEC
  0
SECTION
  2
TABLES
  0
TABLE
  2
VPORT
 70
     1
  0
VPORT
  2
*ACTIVE
 70
     0
 10
0.0
 20
0.0
 11
1.0
 21
1.0
 12
0.0
 22
0.0
 13
0.0
 23
0.0
 14
0.5
 24
0.5
 15
0.5
 25
0.5
 16
274.7937927246094
 26
157.0114898681641
 36
274.7937622070312
 17
33.82550048828125
 27
0.0
 37
72.76651000976562
 40
153.5338113958614
 41
1.972972972850329
 42
50.0
 43
0.0
 44
0.0
 50
0.0
 51
0.0
 71
     0
 72
   100
 73
     1
 74
     3
 75
     0
 76
     0
 77
     0
 78
     0
  0
ENDTAB
  0
TABLE
  2
LTYPE
 70
     1
  0
LTYPE
  2
CONTINUOUS
 70
     0
  3
Solid line
 72
    65
 73
     0
 40
0.0
  0
ENDTAB
  0
TABLE
  2
LAYER
 70
     2
  0
LAYER
  2
0
 70
     0
 62
     7
  6
CONTINUOUS
  0
LAYER
  2
LAYER_1
 70
     0
 62
     7
  6
CONTINUOUS
  0
ENDTAB
  0
TABLE
  2
STYLE
 70
     1
  0
STYLE
  2
STANDARD
 70
     0
 40
0.0
 41
1.0
 50
0.0
 71
     0
 42
0.2
  3
txt
  4

  0
ENDTAB
  0
TABLE
  2
VIEW
 70
     0
  0
ENDTAB
  0
TABLE
  2
UCS
 70
     0
  0
ENDTAB
  0
TABLE
  2
APPID
 70
     1
  0
APPID
  2
ACAD
 70
     0
  0
ENDTAB
  0
TABLE
  2
DIMSTYLE
 70
     1
  0
DIMSTYLE
  2
STANDARD
 70
     0
  3

  4

  5

  6

  7

 40
1.0
 41
0.18
 42
0.0625
 43
0.38
 44
0.18
 45
0.0
 46
0.0
 47
0.0
 48
0.0
140
0.18
141
0.09
142
0.0
143
25.4
144
1.0
145
0.0
146
1.0
147
0.09
 71
     0
 72
     0
 73
     1
 74
     1
 75
     0
 76
     0
 77
     0
 78
     0
170
     0
171
     2
172
     0
173
     0
174
     0
175
     0
176
     0
177
     0
178
     0
  0
ENDTAB
  0
ENDSEC
  0
SECTION
  2
BLOCKS
  0
BLOCK
  8
0
  2
$MODEL_SPACE
 70
     0
 10
0.0
 20
0.0
 30
0.0
  3
$MODEL_SPACE
  1

  0
ENDBLK
  5
21
  8
0
  0
BLOCK
 67
     1
  8
0
  2
$PAPER_SPACE
 70
     0
 10
0.0
 20
0.0
 30
0.0
  3
$PAPER_SPACE
  1

  0
ENDBLK
  5
1D
 67
     1
  8
0
  0
BLOCK
  8
0
  2
E3_NODE
 70
     0
 10
0.0
 20
0.0
 30
0.0
  3
E3_NODE
  1

  0
POLYLINE
  5
3C
  8
0
 62
     9
 66
     1
 10
0.0
 20
0.0
 30
0.0
 70
    64
 71
    42
 72
    56
  0
VERTEX
  5
3D
  8
0
 10
18.23900032043457
 20
0.0
 30
116.806999206543
 70
   192
  0
VERTEX
  5
3E
  8
0
 10
16.4330005645752
 20
7.914000034332275
 30
116.806999206543
 70
   192
  0
VERTEX
  5
3F
  8
0
 10
14.05000019073486
 20
6.765999794006348
 30
121.1230010986328
 70
   192
  0
VERTEX
  5
40
  8
0
 10
15.5939998626709
 20
0.0
 30
121.1230010986328
 70
   192
  0
VERTEX
  5
41
  8
0
 10
11.37199974060059
 20
14.26000022888184
 30
116.806999206543
 70
   192
  0
VERTEX
  5
42
  8
0
 10
9.722999572753906
 20
12.19200038909912
 30
121.1230010986328
 70
   192
  0
VERTEX
  5
43
  8
0
 10
4.059000015258789
 20
17.7819995880127
 30
116.806999206543
 70
   192
  0
VERTEX
  5
44
  8
0
 10
3.470000028610229
 20
15.20300006866455
 30
121.1230010986328
 70
   192
  0
VERTEX
  5
45
  8
0
 10
-4.059000015258789
 20
17.7819995880127
 30
116.806999206543
 70
   192
  0
VERTEX
  5
46
  8
0
 10
-3.470000028610229
 20
15.20300006866455
 30
121.1230010986328
 70
   192
  0
VERTEX
  5
47
  8
0
 10
-11.37199974060059
 20
14.26000022888184
 30
116.806999206543
 70
   192
  0
VERTEX
  5
48
  8
0
 10
-9.722999572753906
 20
12.19200038909912
 30
121.1230010986328
 70
   192
  0
VERTEX
  5
49
  8
0
 10
-16.4330005645752
 20
7.914000034332275
 30
116.806999206543
 70
   192
  0
VERTEX
  5
4A
  8
0
 10
-14.05000019073486
 20
6.765999794006348
 30
121.1230010986328
 70
   192
  0
VERTEX
  5
4B
  8
0
 10
-18.23900032043457
 20
0.0
 30
116.806999206543
 70
   192
  0
VERTEX
  5
4C
  8
0
 10
-15.5939998626709
 20
0.0
 30
121.1230010986328
 70
   192
  0
VERTEX
  5
4D
  8
0
 10
-16.4330005645752
 20
-7.914000034332275
 30
116.806999206543
 70
   192
  0
VERTEX
  5
4E
  8
0
 10
-14.05000019073486
 20
-6.765999794006348
 30
121.1230010986328
 70
   192
  0
VERTEX
  5
4F
  8
0
 10
-11.37199974060059
 20
-14.26000022888184
 30
116.806999206543
 70
   192
  0
VERTEX
  5
50
  8
0
 10
-9.722999572753906
 20
-12.19200038909912
 30
121.1230010986328
 70
   192
  0
VERTEX
  5
51
  8
0
 10
-4.059000015258789
 20
-17.7819995880127
 30
116.806999206543
 70
   192
  0
VERTEX
  5
52
  8
0
 10
-3.470000028610229
 20
-15.20300006866455
 30
121.1230010986328
 70
   192
  0
VERTEX
  5
53
  8
0
 10
4.059000015258789
 20
-17.7819995880127
 30
116.806999206543
 70
   192
  0
VERTEX
  5
54
  8
0
 10
3.470000028610229
 20
-15.20300006866455
 30
121.1230010986328
 70
   192
  0
VERTEX
  5
55
  8
0
 10
11.37199974060059
 20
-14.26000022888184
 30
116.806999206543
 70
   192
  0
VERTEX
  5
56
  8
0
 10
9.722999572753906
 20
-12.19200038909912
 30
121.1230010986328
 70
   192
  0
VERTEX
  5
57
  8
0
 10
16.4330005645752
 20
-7.914000034332275
 30
116.806999206543
 70
   192
  0
VERTEX
  5
58
  8
0
 10
14.05000019073486
 20
-6.765999794006348
 30
121.1230010986328
 70
   192
  0
VERTEX
  5
59
  8
0
 10
10.76700019836426
 20
5.184999942779541
 30
124.6370010375977
 70
   192
  0
VERTEX
  5
5A
  8
0
 10
11.94999980926514
 20
0.0
 30
124.6370010375977
 70
   192
  0
VERTEX
  5
5B
  8
0
 10
7.451000213623047
 20
9.343000411987305
 30
124.6370010375977
 70
   192
  0
VERTEX
  5
5C
  8
0
 10
2.658999919891357
 20
11.64999961853027
 30
124.6370010375977
 70
   192
  0
VERTEX
  5
5D
  8
0
 10
-2.658999919891357
 20
11.64999961853027
 30
124.6370010375977
 70
   192
  0
VERTEX
  5
5E
  8
0
 10
-7.451000213623047
 20
9.343000411987305
 30
124.6370010375977
 70
   192
  0
VERTEX
  5
5F
  8
0
 10
-10.76700019836426
 20
5.184999942779541
 30
124.6370010375977
 70
   192
  0
VERTEX
  5
60
  8
0
 10
-11.94999980926514
 20
0.0
 30
124.6370010375977
 70
   192
  0
VERTEX
  5
61
  8
0
 10
-10.76700019836426
 20
-5.184999942779541
 30
124.6370010375977
 70
   192
  0
VERTEX
  5
62
  8
0
 10
-7.451000213623047
 20
-9.343000411987305
 30
124.6370010375977
 70
   192
  0
VERTEX
  5
63
  8
0
 10
-2.658999919891357
 20
-11.64999961853027
 30
124.6370010375977
 70
   192
  0
VERTEX
  5
64
  8
0
 10
2.658999919891357
 20
-11.64999961853027
 30
124.6370010375977
 70
   192
  0
VERTEX
  5
65
  8
0
 10
7.451000213623047
 20
-9.343000411987305
 30
124.6370010375977
 70
   192
  0
VERTEX
  5
66
  8
0
 10
10.76700019836426
 20
-5.184999942779541
 30
124.6370010375977
 70
   192
  0
VERTEX
  5
67
  8
0
 62
     9
 10
0.0
 20
0.0
 30
0.0
 70
   128
 71
     3
 72
     2
 73
     1
  0
VERTEX
  5
68
  8
0
 62
     9
 10
0.0
 20
0.0
 30
0.0
 70
   128
 71
     4
 72
     3
 73
     1
  0
VERTEX
  5
69
  8
0
 62
     9
 10
0.0
 20
0.0
 30
0.0
 70
   128
 71
     6
 72
     5
 73
     2
  0
VERTEX
  5
6A
  8
0
 62
     9
 10
0.0
 20
0.0
 30
0.0
 70
   128
 71
     3
 72
     6
 73
     2
  0
VERTEX
  5
6B
  8
0
 62
     9
 10
0.0
 20
0.0
 30
0.0
 70
   128
 71
     8
 72
     7
 73
     5
  0
VERTEX
  5
6C
  8
0
 62
     9
 10
0.0
 20
0.0
 30
0.0
 70
   128
 71
     6
 72
     8
 73
     5
  0
VERTEX
  5
6D
  8
0
 62
     9
 10
0.0
 20
0.0
 30
0.0
 70
   128
 71
    10
 72
     9
 73
     7
  0
VERTEX
  5
6E
  8
0
 62
     9
 10
0.0
 20
0.0
 30
0.0
 70
   128
 71
     8
 72
    10
 73
     7
  0
VERTEX
  5
6F
  8
0
 62
     9
 10
0.0
 20
0.0
 30
0.0
 70
   128
 71
    12
 72
    11
 73
     9
  0
VERTEX
  5
70
  8
0
 62
     9
 10
0.0
 20
0.0
 30
0.0
 70
   128
 71
    10
 72
    12
 73
     9
  0
VERTEX
  5
71
  8
0
 62
     9
 10
0.0
 20
0.0
 30
0.0
 70
   128
 71
    14
 72
    13
 73
    11
  0
VERTEX
  5
72
  8
0
 62
     9
 10
0.0
 20
0.0
 30
0.0
 70
   128
 71
    12
 72
    14
 73
    11
  0
VERTEX
  5
73
  8
0
 62
     9
 10
0.0
 20
0.0
 30
0.0
 70
   128
 71
    16
 72
    15
 73
    13
  0
VERTEX
  5
74
  8
0
 62
     9
 10
0.0
 20
0.0
 30
0.0
 70
   128
 71
    14
 72
    16
 73
    13
  0
VERTEX
  5
75
  8
0
 62
     9
 10
0.0
 20
0.0
 30
0.0
 70
   128
 71
    18
 72
    17
 73
    15
  0
VERTEX
  5
76
  8
0
 62
     9
 10
0.0
 20
0.0
 30
0.0
 70
   128
 71
    16
 72
    18
 73
    15
  0
VERTEX
  5
77
  8
0
 62
     9
 10
0.0
 20
0.0
 30
0.0
 70
   128
 71
    20
 72
    19
 73
    17
  0
VERTEX
  5
78
  8
0
 62
     9
 10
0.0
 20
0.0
 30
0.0
 70
   128
 71
    18
 72
    20
 73
    17
  0
VERTEX
  5
79
  8
0
 62
     9
 10
0.0
 20
0.0
 30
0.0
 70
   128
 71
    22
 72
    21
 73
    19
  0
VERTEX
  5
7A
  8
0
 62
     9
 10
0.0
 20
0.0
 30
0.0
 70
   128
 71
    20
 72
    22
 73
    19
  0
VERTEX
  5
7B
  8
0
 62
     9
 10
0.0
 20
0.0
 30
0.0
 70
   128
 71
    24
 72
    23
 73
    21
  0
VERTEX
  5
7C
  8
0
 62
     9
 10
0.0
 20
0.0
 30
0.0
 70
   128
 71
    22
 72
    24
 73
    21
  0
VERTEX
  5
7D
  8
0
 62
     9
 10
0.0
 20
0.0
 30
0.0
 70
   128
 71
    26
 72
    25
 73
    23
  0
VERTEX
  5
7E
  8
0
 62
     9
 10
0.0
 20
0.0
 30
0.0
 70
   128
 71
    24
 72
    26
 73
    23
  0
VERTEX
  5
7F
  8
0
 62
     9
 10
0.0
 20
0.0
 30
0.0
 70
   128
 71
    28
 72
    27
 73
    25
  0
VERTEX
  5
80
  8
0
 62
     9
 10
0.0
 20
0.0
 30
0.0
 70
   128
 71
    26
 72
    28
 73
    25
  0
VERTEX
  5
81
  8
0
 62
     9
 10
0.0
 20
0.0
 30
0.0
 70
   128
 71
     4
 72
     1
 73
    27
  0
VERTEX
  5
82
  8
0
 62
     9
 10
0.0
 20
0.0
 30
0.0
 70
   128
 71
    28
 72
     4
 73
    27
  0
VERTEX
  5
83
  8
0
 62
     9
 10
0.0
 20
0.0
 30
0.0
 70
   128
 71
    29
 72
     3
 73
     4
  0
VERTEX
  5
84
  8
0
 62
     9
 10
0.0
 20
0.0
 30
0.0
 70
   128
 71
    30
 72
    29
 73
     4
  0
VERTEX
  5
85
  8
0
 62
     9
 10
0.0
 20
0.0
 30
0.0
 70
   128
 71
    31
 72
     6
 73
     3
  0
VERTEX
  5
86
  8
0
 62
     9
 10
0.0
 20
0.0
 30
0.0
 70
   128
 71
    29
 72
    31
 73
     3
  0
VERTEX
  5
87
  8
0
 62
     9
 10
0.0
 20
0.0
 30
0.0
 70
   128
 71
    32
 72
     8
 73
     6
  0
VERTEX
  5
88
  8
0
 62
     9
 10
0.0
 20
0.0
 30
0.0
 70
   128
 71
    31
 72
    32
 73
     6
  0
VERTEX
  5
89
  8
0
 62
     9
 10
0.0
 20
0.0
 30
0.0
 70
   128
 71
    33
 72
    10
 73
     8
  0
VERTEX
  5
8A
  8
0
 62
     9
 10
0.0
 20
0.0
 30
0.0
 70
   128
 71
    32
 72
    33
 73
     8
  0
VERTEX
  5
8B
  8
0
 62
     9
 10
0.0
 20
0.0
 30
0.0
 70
   128
 71
    34
 72
    12
 73
    10
  0
VERTEX
  5
8C
  8
0
 62
     9
 10
0.0
 20
0.0
 30
0.0
 70
   128
 71
    33
 72
    34
 73
    10
  0
VERTEX
  5
8D
  8
0
 62
     9
 10
0.0
 20
0.0
 30
0.0
 70
   128
 71
    35
 72
    14
 73
    12
  0
VERTEX
  5
8E
  8
0
 62
     9
 10
0.0
 20
0.0
 30
0.0
 70
   128
 71
    34
 72
    35
 73
    12
  0
VERTEX
  5
8F
  8
0
 62
     9
 10
0.0
 20
0.0
 30
0.0
 70
   128
 71
    36
 72
    16
 73
    14
  0
VERTEX
  5
90
  8
0
 62
     9
 10
0.0
 20
0.0
 30
0.0
 70
   128
 71
    35
 72
    36
 73
    14
  0
VERTEX
  5
91
  8
0
 62
     9
 10
0.0
 20
0.0
 30
0.0
 70
   128
 71
    37
 72
    18
 73
    16
  0
VERTEX
  5
92
  8
0
 62
     9
 10
0.0
 20
0.0
 30
0.0
 70
   128
 71
    36
 72
    37
 73
    16
  0
VERTEX
  5
93
  8
0
 62
     9
 10
0.0
 20
0.0
 30
0.0
 70
   128
 71
    38
 72
    20
 73
    18
  0
VERTEX
  5
94
  8
0
 62
     9
 10
0.0
 20
0.0
 30
0.0
 70
   128
 71
    37
 72
    38
 73
    18
  0
VERTEX
  5
95
  8
0
 62
     9
 10
0.0
 20
0.0
 30
0.0
 70
   128
 71
    39
 72
    22
 73
    20
  0
VERTEX
  5
96
  8
0
 62
     9
 10
0.0
 20
0.0
 30
0.0
 70
   128
 71
    38
 72
    39
 73
    20
  0
VERTEX
  5
97
  8
0
 62
     9
 10
0.0
 20
0.0
 30
0.0
 70
   128
 71
    40
 72
    24
 73
    22
  0
VERTEX
  5
98
  8
0
 62
     9
 10
0.0
 20
0.0
 30
0.0
 70
   128
 71
    39
 72
    40
 73
    22
  0
VERTEX
  5
99
  8
0
 62
     9
 10
0.0
 20
0.0
 30
0.0
 70
   128
 71
    41
 72
    26
 73
    24
  0
VERTEX
  5
9A
  8
0
 62
     9
 10
0.0
 20
0.0
 30
0.0
 70
   128
 71
    40
 72
    41
 73
    24
  0
VERTEX
  5
9B
  8
0
 62
     9
 10
0.0
 20
0.0
 30
0.0
 70
   128
 71
    42
 72
    28
 73
    26
  0
VERTEX
  5
9C
  8
0
 62
     9
 10
0.0
 20
0.0
 30
0.0
 70
   128
 71
    41
 72
    42
 73
    26
  0
VERTEX
  5
9D
  8
0
 62
     9
 10
0.0
 20
0.0
 30
0.0
 70
   128
 71
    30
 72
     4
 73
    28
  0
VERTEX
  5
9E
  8
0
 62
     9
 10
0.0
 20
0.0
 30
0.0
 70
   128
 71
    42
 72
    30
 73
    28
  0
SEQEND
  5
9F
  8
0
 62
     9
  0
ENDBLK
  5
A3
  8
0
  0
BLOCK
  8
0
  2
E3_NODE_1_
 70
     0
 10
0.0
 20
0.0
 30
0.0
  3
E3_NODE_1_
  1

  0
POLYLINE
  5
A5
  8
0
 62
     9
 66
     1
 10
0.0
 20
0.0
 30
0.0
 70
    64
 71
    21
 72
    20
  0
VERTEX
  5
A6
  8
0
 10
1.092000007629395
 20
0.0
 30
148.4850006103516
 70
   192
  0
VERTEX
  5
A7
  8
0
 10
-12.29899978637695
 20
14.86299991607666
 30
148.3509979248047
 70
   192
  0
VERTEX
  5
A8
  8
0
 10
-14.74300003051758
 20
11.49899959564209
 30
148.4179992675781
 70
   192
  0
VERTEX
  5
A9
  8
0
 10
11.07499980926514
 20
17.32099914550781
 30
147.7120056152344
 70
   192
  0
VERTEX
  5
AA
  8
0
 10
7.120999813079834
 20
18.60499954223633
 30
147.8200073242188
 70
   192
  0
VERTEX
  5
AB
  8
0
 10
20.63400077819824
 20
-4.157999992370605
 30
147.4499969482422
 70
   192
  0
VERTEX
  5
AC
  8
0
 10
20.63400077819824
 20
0.0
 30
147.4499969482422
 70
   192
  0
VERTEX
  5
AD
  8
0
 10
3.167999982833862
 20
-19.88999938964844
 30
147.9279937744141
 70
   192
  0
VERTEX
  5
AE
  8
0
 10
7.120999813079834
 20
-18.60499954223633
 30
147.8200073242188
 70
   192
  0
VERTEX
  5
AF
  8
0
 10
-17.18600082397461
 20
-8.135000228881836
 30
148.4850006103516
 70
   192
  0
VERTEX
  5
B0
  8
0
 10
-14.74300003051758
 20
-11.49899959564209
 30
148.4179992675781
 70
   192
  0
VERTEX
  5
B1
  8
0
 10
-18.91399955749512
 20
0.0
 30
148.5330047607422
 70
   192
  0
VERTEX
  5
B2
  8
0
 10
-12.29899978637695
 20
-14.86299991607666
 30
148.3509979248047
 70
   192
  0
VERTEX
  5
B3
  8
0
 10
-5.099999904632568
 20
-19.02099990844727
 30
148.1540069580078
 70
   192
  0
VERTEX
  5
B4
  8
0
 10
11.07499980926514
 20
-17.32099914550781
 30
147.7120056152344
 70
   192
  0
VERTEX
  5
B5
  8
0
 10
17.25300025939941
 20
-11.75599956512451
 30
147.5420074462891
 70
   192
  0
VERTEX
  5
B6
  8
0
 10
20.63400077819824
 20
4.157999992370605
 30
147.4499969482422
 70
   192
  0
VERTEX
  5
B7
  8
0
 10
17.25300025939941
 20
11.75599956512451
 30
147.5420074462891
 70
   192
  0
VERTEX
  5
B8
  8
0
 10
3.167999982833862
 20
19.88999938964844
 30
147.9279937744141
 70
   192
  0
VERTEX
  5
B9
  8
0
 10
-5.099999904632568
 20
19.02099990844727
 30
148.1540069580078
 70
   192
  0
VERTEX
  5
BA
  8
0
 10
-17.18600082397461
 20
8.135000228881836
 30
148.4850006103516
 70
   192
  0
VERTEX
  5
BB
  8
0
 62
     9
 10
0.0
 20
0.0
 30
0.0
 70
   128
 71
     3
 72
     2
 73
     1
  0
VERTEX
  5
BC
  8
0
 62
     9
 10
0.0
 20
0.0
 30
0.0
 70
   128
 71
     5
 72
     4
 73
     1
  0
VERTEX
  5
BD
  8
0
 62
     9
 10
0.0
 20
0.0
 30
0.0
 70
   128
 71
     7
 72
     6
 73
     1
  0
VERTEX
  5
BE
  8
0
 62
     9
 10
0.0
 20
0.0
 30
0.0
 70
   128
 71
     9
 72
     8
 73
     1
  0
VERTEX
  5
BF
  8
0
 62
     9
 10
0.0
 20
0.0
 30
0.0
 70
   128
 71
    11
 72
    10
 73
     1
  0
VERTEX
  5
C0
  8
0
 62
     9
 10
0.0
 20
0.0
 30
0.0
 70
   128
 71
     1
 72
    10
 73
    12
  0
VERTEX
  5
C1
  8
0
 62
     9
 10
0.0
 20
0.0
 30
0.0
 70
   128
 71
     1
 72
    13
 73
    11
  0
VERTEX
  5
C2
  8
0
 62
     9
 10
0.0
 20
0.0
 30
0.0
 70
   128
 71
     1
 72
    14
 73
    13
  0
VERTEX
  5
C3
  8
0
 62
     9
 10
0.0
 20
0.0
 30
0.0
 70
   128
 71
     1
 72
     8
 73
    14
  0
VERTEX
  5
C4
  8
0
 62
     9
 10
0.0
 20
0.0
 30
0.0
 70
   128
 71
     1
 72
    15
 73
     9
  0
VERTEX
  5
C5
  8
0
 62
     9
 10
0.0
 20
0.0
 30
0.0
 70
   128
 71
     1
 72
    16
 73
    15
  0
VERTEX
  5
C6
  8
0
 62
     9
 10
0.0
 20
0.0
 30
0.0
 70
   128
 71
     1
 72
     6
 73
    16
  0
VERTEX
  5
C7
  8
0
 62
     9
 10
0.0
 20
0.0
 30
0.0
 70
   128
 71
     1
 72
    17
 73
     7
  0
VERTEX
  5
C8
  8
0
 62
     9
 10
0.0
 20
0.0
 30
0.0
 70
   128
 71
     1
 72
    18
 73
    17
  0
VERTEX
  5
C9
  8
0
 62
     9
 10
0.0
 20
0.0
 30
0.0
 70
   128
 71
     1
 72
     4
 73
    18
  0
VERTEX
  5
CA
  8
0
 62
     9
 10
0.0
 20
0.0
 30
0.0
 70
   128
 71
     1
 72
    19
 73
     5
  0
VERTEX
  5
CB
  8
0
 62
     9
 10
0.0
 20
0.0
 30
0.0
 70
   128
 71
     1
 72
    20
 73
    19
  0
VERTEX
  5
CC
  8
0
 62
     9
 10
0.0
 20
0.0
 30
0.0
 70
   128
 71
     1
 72
     2
 73
    20
  0
VERTEX
  5
CD
  8
0
 62
     9
 10
0.0
 20
0.0
 30
0.0
 70
   128
 71
     1
 72
    21
 73
     3
  0
VERTEX
  5
CE
  8
0
 62
     9
 10
0.0
 20
0.0
 30
0.0
 70
   128
 71
     1
 72
    12
 73
    21
  0
SEQEND
  5
CF
  8
0
 62
     9
  0
ENDBLK
  5
D2
  8
0
  0
BLOCK
  8
0
  2
E3_NODE_2_
 70
     0
 10
0.0
 20
0.0
 30
0.0
  3
E3_NODE_2_
  1

  0
POLYLINE
  5
D4
  8
0
 62
     9
 66
     1
 10
0.0
 20
0.0
 30
0.0
 70
    64
 71
    44
 72
    46
  0
VERTEX
  5
D5
  8
0
 10
16.44499969482422
 20
11.75599956512451
 30
118.0530014038086
 70
   192
  0
VERTEX
  5
D6
  8
0
 10
6.448999881744385
 20
19.02099990844727
 30
118.3270034790039
 70
   192
  0
VERTEX
  5
D7
  8
0
 10
11.07499980926514
 20
17.32099914550781
 30
147.7120056152344
 70
   192
  0
VERTEX
  5
D8
  8
0
 10
7.120999813079834
 20
18.60499954223633
 30
147.8200073242188
 70
   192
  0
VERTEX
  5
D9
  8
0
 10
16.44499969482422
 20
-11.75599956512451
 30
118.0530014038086
 70
   192
  0
VERTEX
  5
DA
  8
0
 10
17.25300025939941
 20
-11.75599956512451
 30
147.5420074462891
 70
   192
  0
VERTEX
  5
DB
  8
0
 10
11.07499980926514
 20
-17.32099914550781
 30
147.7120056152344
 70
   192
  0
VERTEX
  5
DC
  8
0
 10
6.448999881744385
 20
-19.02099990844727
 30
118.3270034790039
 70
   192
  0
VERTEX
  5
DD
  8
0
 10
2.555999994277954
 20
19.86899948120117
 30
118.4339981079102
 70
   192
  0
VERTEX
  5
DE
  8
0
 10
3.167999982833862
 20
19.88999938964844
 30
147.9279937744141
 70
   192
  0
VERTEX
  5
DF
  8
0
 10
-5.788000106811523
 20
18.97299957275391
 30
122.7900009155273
 70
   192
  0
VERTEX
  5
E0
  8
0
 10
-5.099999904632568
 20
19.02099990844727
 30
148.1540069580078
 70
   192
  0
VERTEX
  5
E1
  8
0
 10
-12.29899978637695
 20
14.86299991607666
 30
148.3509979248047
 70
   192
  0
VERTEX
  5
E2
  8
0
 10
-14.03899955749512
 20
13.73299980163574
 30
127.0970001220703
 70
   192
  0
VERTEX
  5
E3
  8
0
 10
-15.26200008392334
 20
11.5290002822876
 30
127.7360000610352
 70
   192
  0
VERTEX
  5
E4
  8
0
 10
-14.74300003051758
 20
11.49899959564209
 30
148.4179992675781
 70
   192
  0
VERTEX
  5
E5
  8
0
 10
-6.00600004196167
 20
18.95000076293945
 30
122.9039993286133
 70
   192
  0
VERTEX
  5
E6
  8
0
 10
-18.91399955749512
 20
0.0
 30
148.5330047607422
 70
   192
  0
VERTEX
  5
E7
  8
0
 10
-17.18600082397461
 20
8.135000228881836
 30
148.4850006103516
 70
   192
  0
VERTEX
  5
E8
  8
0
 10
-18.7180004119873
 20
5.303999900817871
 30
129.5399932861328
 70
   192
  0
VERTEX
  5
E9
  8
0
 10
-15.37100028991699
 20
-11.60999965667725
 30
127.7929992675781
 70
   192
  0
VERTEX
  5
EA
  8
0
 10
-14.74300003051758
 20
-11.49899959564209
 30
148.4179992675781
 70
   192
  0
VERTEX
  5
EB
  8
0
 10
-17.18600082397461
 20
-8.135000228881836
 30
148.4850006103516
 70
   192
  0
VERTEX
  5
EC
  8
0
 10
-18.84499931335449
 20
-0.0140000004321337
 30
129.6060028076172
 70
   192
  0
VERTEX
  5
ED
  8
0
 10
-18.94899940490723
 20
-4.364999771118164
 30
129.6609954833984
 70
   192
  0
VERTEX
  5
EE
  8
0
 10
-5.099999904632568
 20
-19.02099990844727
 30
148.1540069580078
 70
   192
  0
VERTEX
  5
EF
  8
0
 10
-14.67800045013428
 20
-13.01299953460693
 30
127.4309997558594
 70
   192
  0
VERTEX
  5
F0
  8
0
 10
-6.902999877929688
 20
-18.61800003051758
 30
123.3720016479492
 70
   192
  0
VERTEX
  5
F1
  8
0
 10
-12.29899978637695
 20
-14.86299991607666
 30
148.3509979248047
 70
   192
  0
VERTEX
  5
F2
  8
0
 10
3.167999982833862
 20
-19.88999938964844
 30
147.9279937744141
 70
   192
  0
VERTEX
  5
F3
  8
0
 10
-5.758999824523926
 20
-18.77000045776367
 30
122.7750015258789
 70
   192
  0
VERTEX
  5
F4
  8
0
 10
7.120999813079834
 20
-18.60499954223633
 30
147.8200073242188
 70
   192
  0
VERTEX
  5
F5
  8
0
 10
2.555999994277954
 20
-19.86899948120117
 30
118.4339981079102
 70
   192
  0
VERTEX
  5
F6
  8
0
 10
20.26300048828125
 20
0.0
 30
117.9489974975586
 70
   192
  0
VERTEX
  5
F7
  8
0
 10
18.91500091552734
 20
8.5
 30
137.9929962158203
 70
   192
  0
VERTEX
  5
F8
  8
0
 10
17.25300025939941
 20
11.75599956512451
 30
147.5420074462891
 70
   192
  0
VERTEX
  5
F9
  8
0
 10
19.07999992370605
 20
8.5
 30
143.9909973144531
 70
   192
  0
VERTEX
  5
FA
  8
0
 10
20.63400077819824
 20
4.157999992370605
 30
147.4499969482422
 70
   192
  0
VERTEX
  5
FB
  8
0
 10
20.97500038146973
 20
0.0
 30
143.9389953613281
 70
   192
  0
VERTEX
  5
FC
  8
0
 10
20.63400077819824
 20
0.0
 30
147.4499969482422
 70
   192
  0
VERTEX
  5
FD
  8
0
 10
19.07999992370605
 20
-8.5
 30
143.9909973144531
 70
   192
  0
VERTEX
  5
FE
  8
0
 10
20.63400077819824
 20
-4.157999992370605
 30
147.4499969482422
 70
   192
  0
VERTEX
  5
FF
  8
0
 10
18.91500091552734
 20
-8.5
 30
137.9929962158203
 70
   192
  0
VERTEX
  5
100
  8
0
 10
20.81100082397461
 20
0.0
 30
137.9409942626953
 70
   192
  0
VERTEX
  5
101
  8
0
 62
     9
 10
0.0
 20
0.0
 30
0.0
 70
   128
 71
     3
 72
     2
 73
     1
  0
VERTEX
  5
102
  8
0
 62
     9
 10
0.0
 20
0.0
 30
0.0
 70
   128
 71
     3
 72
     4
 73
     2
  0
VERTEX
  5
103
  8
0
 62
     9
 10
0.0
 20
0.0
 30
0.0
 70
   128
 71
     7
 72
     6
 73
     5
  0
VERTEX
  5
104
  8
0
 62
     9
 10
0.0
 20
0.0
 30
0.0
 70
   128
 71
     5
 72
     8
 73
     7
  0
VERTEX
  5
105
  8
0
 62
     9
 10
0.0
 20
0.0
 30
0.0
 70
   128
 71
     9
 72
     2
 73
     4
  0
VERTEX
  5
106
  8
0
 62
     9
 10
0.0
 20
0.0
 30
0.0
 70
   128
 71
    11
 72
     9
 73
    10
  0
VERTEX
  5
107
  8
0
 62
     9
 10
0.0
 20
0.0
 30
0.0
 70
   128
 71
    10
 72
    12
 73
    11
  0
VERTEX
  5
108
  8
0
 62
     9
 10
0.0
 20
0.0
 30
0.0
 70
   128
 71
    15
 72
    14
 73
    13
  0
VERTEX
  5
109
  8
0
 62
     9
 10
0.0
 20
0.0
 30
0.0
 70
   128
 71
    13
 72
    16
 73
    15
  0
VERTEX
  5
10A
  8
0
 62
     9
 10
0.0
 20
0.0
 30
0.0
 70
   128
 71
    17
 72
    11
 73
    12
  0
VERTEX
  5
10B
  8
0
 62
     9
 10
0.0
 20
0.0
 30
0.0
 70
   128
 71
    12
 72
    14
 73
    17
  0
VERTEX
  5
10C
  8
0
 62
     9
 10
0.0
 20
0.0
 30
0.0
 70
   128
 71
    20
 72
    19
 73
    18
  0
VERTEX
  5
10D
  8
0
 62
     9
 10
0.0
 20
0.0
 30
0.0
 70
   128
 71
    19
 72
    20
 73
    15
  0
VERTEX
  5
10E
  8
0
 62
     9
 10
0.0
 20
0.0
 30
0.0
 70
   128
 71
    15
 72
    16
 73
    19
  0
VERTEX
  5
10F
  8
0
 62
     9
 10
0.0
 20
0.0
 30
0.0
 70
   128
 71
    23
 72
    22
 73
    21
  0
VERTEX
  5
110
  8
0
 62
     9
 10
0.0
 20
0.0
 30
0.0
 70
   128
 71
    25
 72
    24
 73
    18
  0
VERTEX
  5
111
  8
0
 62
     9
 10
0.0
 20
0.0
 30
0.0
 70
   128
 71
    18
 72
    23
 73
    25
  0
VERTEX
  5
112
  8
0
 62
     9
 10
0.0
 20
0.0
 30
0.0
 70
   128
 71
    28
 72
    27
 73
    26
  0
VERTEX
  5
113
  8
0
 62
     9
 10
0.0
 20
0.0
 30
0.0
 70
   128
 71
    21
 72
    22
 73
    29
  0
VERTEX
  5
114
  8
0
 62
     9
 10
0.0
 20
0.0
 30
0.0
 70
   128
 71
    29
 72
    26
 73
    27
  0
VERTEX
  5
115
  8
0
 62
     9
 10
0.0
 20
0.0
 30
0.0
 70
   128
 71
    29
 72
    27
 73
    21
  0
VERTEX
  5
116
  8
0
 62
     9
 10
0.0
 20
0.0
 30
0.0
 70
   128
 71
    31
 72
    26
 73
    30
  0
VERTEX
  5
117
  8
0
 62
     9
 10
0.0
 20
0.0
 30
0.0
 70
   128
 71
    33
 72
    30
 73
    32
  0
VERTEX
  5
118
  8
0
 62
     9
 10
0.0
 20
0.0
 30
0.0
 70
   128
 71
    32
 72
     8
 73
    33
  0
VERTEX
  5
119
  8
0
 62
     9
 10
0.0
 20
0.0
 30
0.0
 70
   128
 71
    35
 72
     1
 73
    34
  0
VERTEX
  5
11A
  8
0
 62
     9
 10
0.0
 20
0.0
 30
0.0
 70
   128
 71
    35
 72
    37
 73
    36
  0
VERTEX
  5
11B
  8
0
 62
     9
 10
0.0
 20
0.0
 30
0.0
 70
   128
 71
    38
 72
    36
 73
    37
  0
VERTEX
  5
11C
  8
0
 62
     9
 10
0.0
 20
0.0
 30
0.0
 70
   128
 71
    37
 72
    39
 73
    38
  0
VERTEX
  5
11D
  8
0
 62
     9
 10
0.0
 20
0.0
 30
0.0
 70
   128
 71
    39
 72
    40
 73
    38
  0
VERTEX
  5
11E
  8
0
 62
     9
 10
0.0
 20
0.0
 30
0.0
 70
   128
 71
    36
 72
     1
 73
    35
  0
VERTEX
  5
11F
  8
0
 62
     9
 10
0.0
 20
0.0
 30
0.0
 70
   128
 71
    42
 72
    39
 73
    41
  0
VERTEX
  5
120
  8
0
 62
     9
 10
0.0
 20
0.0
 30
0.0
 70
   128
 71
    42
 72
    40
 73
    39
  0
VERTEX
  5
121
  8
0
 62
     9
 10
0.0
 20
0.0
 30
0.0
 70
   128
 71
    43
 72
     5
 73
     6
  0
VERTEX
  5
122
  8
0
 62
     9
 10
0.0
 20
0.0
 30
0.0
 70
   128
 71
    43
 72
    44
 73
    34
  0
VERTEX
  5
123
  8
0
 62
     9
 10
0.0
 20
0.0
 30
0.0
 70
   128
 71
    34
 72
     5
 73
    43
  0
VERTEX
  5
124
  8
0
 62
     9
 10
0.0
 20
0.0
 30
0.0
 70
   128
 71
     6
 72
    41
 73
    43
  0
VERTEX
  5
125
  8
0
 62
     9
 10
0.0
 20
0.0
 30
0.0
 70
   128
 71
    41
 72
     6
 73
    42
  0
VERTEX
  5
126
  8
0
 62
     9
 10
0.0
 20
0.0
 30
0.0
 70
   128
 71
    34
 72
    44
 73
    35
  0
VERTEX
  5
127
  8
0
 62
     9
 10
0.0
 20
0.0
 30
0.0
 70
   128
 71
    30
 72
    33
 73
    31
  0
VERTEX
  5
128
  8
0
 62
     9
 10
0.0
 20
0.0
 30
0.0
 70
   128
 71
    26
 72
    31
 73
    28
  0
VERTEX
  5
129
  8
0
 62
     9
 10
0.0
 20
0.0
 30
0.0
 70
   128
 71
    21
 72
    25
 73
    23
  0
VERTEX
  5
12A
  8
0
 62
     9
 10
0.0
 20
0.0
 30
0.0
 70
   128
 71
    18
 72
    24
 73
    20
  0
VERTEX
  5
12B
  8
0
 62
     9
 10
0.0
 20
0.0
 30
0.0
 70
   128
 71
    14
 72
    12
 73
    13
  0
VERTEX
  5
12C
  8
0
 62
     9
 10
0.0
 20
0.0
 30
0.0
 70
   128
 71
     4
 72
    10
 73
     9
  0
VERTEX
  5
12D
  8
0
 62
     9
 10
0.0
 20
0.0
 30
0.0
 70
   128
 71
     8
 72
    32
 73
     7
  0
VERTEX
  5
12E
  8
0
 62
     9
 10
0.0
 20
0.0
 30
0.0
 70
   128
 71
     1
 72
    36
 73
     3
  0
SEQEND
  5
12F
  8
0
 62
     9
  0
ENDBLK
  5
132
  8
0
  0
BLOCK
  8
0
  2
E3_NODE_3_
 70
     0
 10
0.0
 20
0.0
 30
0.0
  3
E3_NODE_3_
  1

  0
POLYLINE
  5
134
  8
0
 62
     9
 66
     1
 10
0.0
 20
0.0
 30
0.0
 70
    64
 71
     7
 72
     5
  0
VERTEX
  5
135
  8
0
 10
16.44499969482422
 20
11.75599956512451
 30
118.0530014038086
 70
   192
  0
VERTEX
  5
136
  8
0
 10
20.26300048828125
 20
0.0
 30
117.9489974975586
 70
   192
  0
VERTEX
  5
137
  8
0
 10
16.44499969482422
 20
-11.75599956512451
 30
118.0530014038086
 70
   192
  0
VERTEX
  5
138
  8
0
 10
6.448999881744385
 20
-19.02099990844727
 30
118.3270034790039
 70
   192
  0
VERTEX
  5
139
  8
0
 10
6.448999881744385
 20
19.02099990844727
 30
118.3270034790039
 70
   192
  0
VERTEX
  5
13A
  8
0
 10
2.555999994277954
 20
19.86899948120117
 30
118.4339981079102
 70
   192
  0
VERTEX
  5
13B
  8
0
 10
2.555999994277954
 20
-19.86899948120117
 30
118.4339981079102
 70
   192
  0
VERTEX
  5
13C
  8
0
 62
     9
 10
0.0
 20
0.0
 30
0.0
 70
   128
 71
     3
 72
     2
 73
     1
  0
VERTEX
  5
13D
  8
0
 62
     9
 10
0.0
 20
0.0
 30
0.0
 70
   128
 71
     1
 72
     5
 73
     4
  0
VERTEX
  5
13E
  8
0
 62
     9
 10
0.0
 20
0.0
 30
0.0
 70
   128
 71
     5
 72
     6
 73
     4
  0
VERTEX
  5
13F
  8
0
 62
     9
 10
0.0
 20
0.0
 30
0.0
 70
   128
 71
     1
 72
     4
 73
     3
  0
VERTEX
  5
140
  8
0
 62
     9
 10
0.0
 20
0.0
 30
0.0
 70
   128
 71
     6
 72
     7
 73
     4
  0
SEQEND
  5
141
  8
0
 62
     9
  0
ENDBLK
  5
144
  8
0
  0
BLOCK
  8
0
  2
E3_NODE_4_
 70
     0
 10
0.0
 20
0.0
 30
0.0
  3
E3_NODE_4_
  1

  0
POLYLINE
  5
146
  8
0
 62
     9
 66
     1
 10
0.0
 20
0.0
 30
0.0
 70
    64
 71
    13
 72
    11
  0
VERTEX
  5
147
  8
0
 10
-18.84499931335449
 20
-0.0140000004321337
 30
129.6060028076172
 70
   192
  0
VERTEX
  5
148
  8
0
 10
-5.758999824523926
 20
-18.77000045776367
 30
122.7750015258789
 70
   192
  0
VERTEX
  5
149
  8
0
 10
-15.37100028991699
 20
-11.60999965667725
 30
127.7929992675781
 70
   192
  0
VERTEX
  5
14A
  8
0
 10
-6.902999877929688
 20
-18.61800003051758
 30
123.3720016479492
 70
   192
  0
VERTEX
  5
14B
  8
0
 10
-15.26200008392334
 20
11.5290002822876
 30
127.7360000610352
 70
   192
  0
VERTEX
  5
14C
  8
0
 10
-14.03899955749512
 20
13.73299980163574
 30
127.0970001220703
 70
   192
  0
VERTEX
  5
14D
  8
0
 10
-18.7180004119873
 20
5.303999900817871
 30
129.5399932861328
 70
   192
  0
VERTEX
  5
14E
  8
0
 10
-14.67800045013428
 20
-13.01299953460693
 30
127.4309997558594
 70
   192
  0
VERTEX
  5
14F
  8
0
 10
-6.00600004196167
 20
18.95000076293945
 30
122.9039993286133
 70
   192
  0
VERTEX
  5
150
  8
0
 10
-18.94899940490723
 20
-4.364999771118164
 30
129.6609954833984
 70
   192
  0
VERTEX
  5
151
  8
0
 10
2.555999994277954
 20
19.86899948120117
 30
118.4339981079102
 70
   192
  0
VERTEX
  5
152
  8
0
 10
2.555999994277954
 20
-19.86899948120117
 30
118.4339981079102
 70
   192
  0
VERTEX
  5
153
  8
0
 10
-5.788000106811523
 20
18.97299957275391
 30
122.7900009155273
 70
   192
  0
VERTEX
  5
154
  8
0
 62
     9
 10
0.0
 20
0.0
 30
0.0
 70
   128
 71
     3
 72
     2
 73
     1
  0
VERTEX
  5
155
  8
0
 62
     9
 10
0.0
 20
0.0
 30
0.0
 70
   128
 71
     4
 72
     2
 73
     3
  0
VERTEX
  5
156
  8
0
 62
     9
 10
0.0
 20
0.0
 30
0.0
 70
   128
 71
     6
 72
     5
 73
     2
  0
VERTEX
  5
157
  8
0
 62
     9
 10
0.0
 20
0.0
 30
0.0
 70
   128
 71
     7
 72
     1
 73
     2
  0
VERTEX
  5
158
  8
0
 62
     9
 10
0.0
 20
0.0
 30
0.0
 70
   128
 71
     3
 72
     8
 73
     4
  0
VERTEX
  5
159
  8
0
 62
     9
 10
0.0
 20
0.0
 30
0.0
 70
   128
 71
     2
 72
     9
 73
     6
  0
VERTEX
  5
15A
  8
0
 62
     9
 10
0.0
 20
0.0
 30
0.0
 70
   128
 71
     1
 72
    10
 73
     3
  0
VERTEX
  5
15B
  8
0
 62
     9
 10
0.0
 20
0.0
 30
0.0
 70
   128
 71
     2
 72
    12
 73
    11
  0
VERTEX
  5
15C
  8
0
 62
     9
 10
0.0
 20
0.0
 30
0.0
 70
   128
 71
     2
 72
     5
 73
     7
  0
VERTEX
  5
15D
  8
0
 62
     9
 10
0.0
 20
0.0
 30
0.0
 70
   128
 71
     2
 72
    13
 73
     9
  0
VERTEX
  5
15E
  8
0
 62
     9
 10
0.0
 20
0.0
 30
0.0
 70
   128
 71
    11
 72
    13
 73
     2
  0
SEQEND
  5
15F
  8
0
 62
     9
  0
ENDBLK
  5
162
  8
0
  0
BLOCK
  8
0
  2
E3_NODE_5_
 70
     0
 10
0.0
 20
0.0
 30
0.0
  3
E3_NODE_5_
  1

  0
POLYLINE
  5
164
  8
0
 62
     9
 66
     1
 10
0.0
 20
0.0
 30
0.0
 70
    64
 71
     4
 72
     2
  0
VERTEX
  5
165
  8
0
 10
71.55599975585938
 20
-8.5
 30
142.5540008544922
 70
   192
  0
VERTEX
  5
166
  8
0
 10
19.07999992370605
 20
-8.5
 30
143.9909973144531
 70
   192
  0
VERTEX
  5
167
  8
0
 10
18.91500091552734
 20
-8.5
 30
137.9929962158203
 70
   192
  0
VERTEX
  5
168
  8
0
 10
71.39199829101562
 20
-8.5
 30
136.5570068359375
 70
   192
  0
VERTEX
  5
169
  8
0
 62
     9
 10
0.0
 20
0.0
 30
0.0
 70
   128
 71
     3
 72
     2
 73
     1
  0
VERTEX
  5
16A
  8
0
 62
     9
 10
0.0
 20
0.0
 30
0.0
 70
   128
 71
     1
 72
     4
 73
     3
  0
SEQEND
  5
16B
  8
0
 62
     9
  0
ENDBLK
  5
16E
  8
0
  0
BLOCK
  8
0
  2
E3_NODE_6_
 70
     0
 10
0.0
 20
0.0
 30
0.0
  3
E3_NODE_6_
  1

  0
POLYLINE
  5
170
  8
0
 62
     9
 66
     1
 10
0.0
 20
0.0
 30
0.0
 70
    64
 71
     5
 72
     3
  0
VERTEX
  5
171
  8
0
 10
71.39199829101562
 20
-8.5
 30
136.5570068359375
 70
   192
  0
VERTEX
  5
172
  8
0
 10
18.91500091552734
 20
-8.5
 30
137.9929962158203
 70
   192
  0
VERTEX
  5
173
  8
0
 10
20.81100082397461
 20
0.0
 30
137.9409942626953
 70
   192
  0
VERTEX
  5
174
  8
0
 10
71.39199829101562
 20
8.5
 30
136.5570068359375
 70
   192
  0
VERTEX
  5
175
  8
0
 10
18.91500091552734
 20
8.5
 30
137.9929962158203
 70
   192
  0
VERTEX
  5
176
  8
0
 62
     9
 10
0.0
 20
0.0
 30
0.0
 70
   128
 71
     3
 72
     2
 73
     1
  0
VERTEX
  5
177
  8
0
 62
     9
 10
0.0
 20
0.0
 30
0.0
 70
   128
 71
     1
 72
     4
 73
     3
  0
VERTEX
  5
178
  8
0
 62
     9
 10
0.0
 20
0.0
 30
0.0
 70
   128
 71
     4
 72
     5
 73
     3
  0
SEQEND
  5
179
  8
0
 62
     9
  0
ENDBLK
  5
17C
  8
0
  0
BLOCK
  8
0
  2
E3_NODE_7_
 70
     0
 10
0.0
 20
0.0
 30
0.0
  3
E3_NODE_7_
  1

  0
POLYLINE
  5
17E
  8
0
 62
     9
 66
     1
 10
0.0
 20
0.0
 30
0.0
 70
    64
 71
     4
 72
     2
  0
VERTEX
  5
17F
  8
0
 10
71.55599975585938
 20
8.5
 30
142.5540008544922
 70
   192
  0
VERTEX
  5
180
  8
0
 10
71.39199829101562
 20
8.5
 30
136.5570068359375
 70
   192
  0
VERTEX
  5
181
  8
0
 10
18.91500091552734
 20
8.5
 30
137.9929962158203
 70
   192
  0
VERTEX
  5
182
  8
0
 10
19.07999992370605
 20
8.5
 30
143.9909973144531
 70
   192
  0
VERTEX
  5
183
  8
0
 62
     9
 10
0.0
 20
0.0
 30
0.0
 70
   128
 71
     3
 72
     2
 73
     1
  0
VERTEX
  5
184
  8
0
 62
     9
 10
0.0
 20
0.0
 30
0.0
 70
   128
 71
     1
 72
     4
 73
     3
  0
SEQEND
  5
185
  8
0
 62
     9
  0
ENDBLK
  5
188
  8
0
  0
BLOCK
  8
0
  2
E3_NODE_8_
 70
     0
 10
0.0
 20
0.0
 30
0.0
  3
E3_NODE_8_
  1

  0
POLYLINE
  5
18A
  8
0
 62
     9
 66
     1
 10
0.0
 20
0.0
 30
0.0
 70
    64
 71
     5
 72
     3
  0
VERTEX
  5
18B
  8
0
 10
71.55599975585938
 20
-8.5
 30
142.5540008544922
 70
   192
  0
VERTEX
  5
18C
  8
0
 10
71.55599975585938
 20
8.5
 30
142.5540008544922
 70
   192
  0
VERTEX
  5
18D
  8
0
 10
20.97500038146973
 20
0.0
 30
143.9389953613281
 70
   192
  0
VERTEX
  5
18E
  8
0
 10
19.07999992370605
 20
8.5
 30
143.9909973144531
 70
   192
  0
VERTEX
  5
18F
  8
0
 10
19.07999992370605
 20
-8.5
 30
143.9909973144531
 70
   192
  0
VERTEX
  5
190
  8
0
 62
     9
 10
0.0
 20
0.0
 30
0.0
 70
   128
 71
     3
 72
     2
 73
     1
  0
VERTEX
  5
191
  8
0
 62
     9
 10
0.0
 20
0.0
 30
0.0
 70
   128
 71
     3
 72
     4
 73
     2
  0
VERTEX
  5
192
  8
0
 62
     9
 10
0.0
 20
0.0
 30
0.0
 70
   128
 71
     1
 72
     5
 73
     3
  0
SEQEND
  5
193
  8
0
 62
     9
  0
ENDBLK
  5
196
  8
0
  0
BLOCK
  8
0
  2
E3_NODE_9_
 70
     0
 10
0.0
 20
0.0
 30
0.0
  3
E3_NODE_9_
  1

  0
POLYLINE
  5
198
  8
0
 62
     9
 66
     1
 10
0.0
 20
0.0
 30
0.0
 70
    64
 71
     4
 72
     2
  0
VERTEX
  5
199
  8
0
 10
71.39199829101562
 20
-8.5
 30
136.5570068359375
 70
   192
  0
VERTEX
  5
19A
  8
0
 10
71.39199829101562
 20
8.5
 30
136.5570068359375
 70
   192
  0
VERTEX
  5
19B
  8
0
 10
71.55599975585938
 20
8.5
 30
142.5540008544922
 70
   192
  0
VERTEX
  5
19C
  8
0
 10
71.55599975585938
 20
-8.5
 30
142.5540008544922
 70
   192
  0
VERTEX
  5
19D
  8
0
 62
     9
 10
0.0
 20
0.0
 30
0.0
 70
   128
 71
     3
 72
     2
 73
     1
  0
VERTEX
  5
19E
  8
0
 62
     9
 10
0.0
 20
0.0
 30
0.0
 70
   128
 71
     1
 72
     4
 73
     3
  0
SEQEND
  5
19F
  8
0
 62
     9
  0
ENDBLK
  5
1A2
  8
0
  0
BLOCK
  8
0
  2
E3_NODE_10_
 70
     0
 10
0.0
 20
0.0
 30
0.0
  3
E3_NODE_10_
  1

  0
POLYLINE
  5
1A4
  8
0
 62
     9
 66
     1
 10
0.0
 20
0.0
 30
0.0
 70
    64
 71
     4
 72
     2
  0
VERTEX
  5
1A5
  8
0
 10
26.0
 20
-26.0
 30
-3.0
 70
   192
  0
VERTEX
  5
1A6
  8
0
 10
26.0
 20
-26.0
 30
5.0
 70
   192
  0
VERTEX
  5
1A7
  8
0
 10
-26.0
 20
-26.0
 30
5.0
 70
   192
  0
VERTEX
  5
1A8
  8
0
 10
-26.0
 20
-26.0
 30
-3.0
 70
   192
  0
VERTEX
  5
1A9
  8
0
 62
     9
 10
0.0
 20
0.0
 30
0.0
 70
   128
 71
     3
 72
     2
 73
     1
  0
VERTEX
  5
1AA
  8
0
 62
     9
 10
0.0
 20
0.0
 30
0.0
 70
   128
 71
     1
 72
     4
 73
     3
  0
SEQEND
  5
1AB
  8
0
 62
     9
  0
ENDBLK
  5
1AE
  8
0
  0
BLOCK
  8
0
  2
E3_NODE_11_
 70
     0
 10
0.0
 20
0.0
 30
0.0
  3
E3_NODE_11_
  1

  0
POLYLINE
  5
1B0
  8
0
 62
     9
 66
     1
 10
0.0
 20
0.0
 30
0.0
 70
    64
 71
     4
 72
     2
  0
VERTEX
  5
1B1
  8
0
 10
26.0
 20
26.0
 30
-3.0
 70
   192
  0
VERTEX
  5
1B2
  8
0
 10
26.0
 20
26.0
 30
5.0
 70
   192
  0
VERTEX
  5
1B3
  8
0
 10
26.0
 20
-26.0
 30
5.0
 70
   192
  0
VERTEX
  5
1B4
  8
0
 10
26.0
 20
-26.0
 30
-3.0
 70
   192
  0
VERTEX
  5
1B5
  8
0
 62
     9
 10
0.0
 20
0.0
 30
0.0
 70
   128
 71
     3
 72
     2
 73
     1
  0
VERTEX
  5
1B6
  8
0
 62
     9
 10
0.0
 20
0.0
 30
0.0
 70
   128
 71
     1
 72
     4
 73
     3
  0
SEQEND
  5
1B7
  8
0
 62
     9
  0
ENDBLK
  5
1BA
  8
0
  0
BLOCK
  8
0
  2
E3_NODE_12_
 70
     0
 10
0.0
 20
0.0
 30
0.0
  3
E3_NODE_12_
  1

  0
POLYLINE
  5
1BC
  8
0
 62
     9
 66
     1
 10
0.0
 20
0.0
 30
0.0
 70
    64
 71
     4
 72
     2
  0
VERTEX
  5
1BD
  8
0
 10
26.0
 20
26.0
 30
5.0
 70
   192
  0
VERTEX
  5
1BE
  8
0
 10
26.0
 20
26.0
 30
-3.0
 70
   192
  0
VERTEX
  5
1BF
  8
0
 10
-26.0
 20
26.0
 30
-3.0
 70
   192
  0
VERTEX
  5
1C0
  8
0
 10
-26.0
 20
26.0
 30
5.0
 70
   192
  0
VERTEX
  5
1C1
  8
0
 62
     9
 10
0.0
 20
0.0
 30
0.0
 70
   128
 71
     3
 72
     2
 73
     1
  0
VERTEX
  5
1C2
  8
0
 62
     9
 10
0.0
 20
0.0
 30
0.0
 70
   128
 71
     1
 72
     4
 73
     3
  0
SEQEND
  5
1C3
  8
0
 62
     9
  0
ENDBLK
  5
1C6
  8
0
  0
BLOCK
  8
0
  2
E3_NODE_13_
 70
     0
 10
0.0
 20
0.0
 30
0.0
  3
E3_NODE_13_
  1

  0
POLYLINE
  5
1C8
  8
0
 62
     9
 66
     1
 10
0.0
 20
0.0
 30
0.0
 70
    64
 71
     4
 72
     2
  0
VERTEX
  5
1C9
  8
0
 10
-26.0
 20
-26.0
 30
5.0
 70
   192
  0
VERTEX
  5
1CA
  8
0
 10
-26.0
 20
26.0
 30
5.0
 70
   192
  0
VERTEX
  5
1CB
  8
0
 10
-26.0
 20
26.0
 30
-3.0
 70
   192
  0
VERTEX
  5
1CC
  8
0
 10
-26.0
 20
-26.0
 30
-3.0
 70
   192
  0
VERTEX
  5
1CD
  8
0
 62
     9
 10
0.0
 20
0.0
 30
0.0
 70
   128
 71
     3
 72
     2
 73
     1
  0
VERTEX
  5
1CE
  8
0
 62
     9
 10
0.0
 20
0.0
 30
0.0
 70
   128
 71
     1
 72
     4
 73
     3
  0
SEQEND
  5
1CF
  8
0
 62
     9
  0
ENDBLK
  5
1D2
  8
0
  0
BLOCK
  8
0
  2
E3_NODE_14_
 70
     0
 10
0.0
 20
0.0
 30
0.0
  3
E3_NODE_14_
  1

  0
POLYLINE
  5
1D4
  8
0
 62
     9
 66
     1
 10
0.0
 20
0.0
 30
0.0
 70
    64
 71
     4
 72
     2
  0
VERTEX
  5
1D5
  8
0
 10
-26.0
 20
-26.0
 30
5.0
 70
   192
  0
VERTEX
  5
1D6
  8
0
 10
26.0
 20
-26.0
 30
5.0
 70
   192
  0
VERTEX
  5
1D7
  8
0
 10
26.0
 20
26.0
 30
5.0
 70
   192
  0
VERTEX
  5
1D8
  8
0
 10
-26.0
 20
26.0
 30
5.0
 70
   192
  0
VERTEX
  5
1D9
  8
0
 62
     9
 10
0.0
 20
0.0
 30
0.0
 70
   128
 71
     3
 72
     2
 73
     1
  0
VERTEX
  5
1DA
  8
0
 62
     9
 10
0.0
 20
0.0
 30
0.0
 70
   128
 71
     1
 72
     4
 73
     3
  0
SEQEND
  5
1DB
  8
0
 62
     9
  0
ENDBLK
  5
1DE
  8
0
  0
BLOCK
  8
0
  2
E3_NODE_15_
 70
     0
 10
0.0
 20
0.0
 30
0.0
  3
E3_NODE_15_
  1

  0
POLYLINE
  5
1E0
  8
0
 62
     9
 66
     1
 10
0.0
 20
0.0
 30
0.0
 70
    64
 71
     4
 72
     2
  0
VERTEX
  5
1E1
  8
0
 10
26.0
 20
-26.0
 30
-3.0
 70
   192
  0
VERTEX
  5
1E2
  8
0
 10
-26.0
 20
-26.0
 30
-3.0
 70
   192
  0
VERTEX
  5
1E3
  8
0
 10
-26.0
 20
26.0
 30
-3.0
 70
   192
  0
VERTEX
  5
1E4
  8
0
 10
26.0
 20
26.0
 30
-3.0
 70
   192
  0
VERTEX
  5
1E5
  8
0
 62
     9
 10
0.0
 20
0.0
 30
0.0
 70
   128
 71
     3
 72
     2
 73
     1
  0
VERTEX
  5
1E6
  8
0
 62
     9
 10
0.0
 20
0.0
 30
0.0
 70
   128
 71
     1
 72
     4
 73
     3
  0
SEQEND
  5
1E7
  8
0
 62
     9
  0
ENDBLK
  5
1EA
  8
0
  0
BLOCK
  8
0
  2
E3_NODE_16_
 70
     0
 10
0.0
 20
0.0
 30
0.0
  3
E3_NODE_16_
  1

  0
POLYLINE
  5
1EC
  8
0
 62
     9
 66
     1
 10
0.0
 20
0.0
 30
0.0
 70
    64
 71
     4
 72
     2
  0
VERTEX
  5
1ED
  8
0
 10
-41.99900054931641
 20
-2.0
 30
46.67100143432617
 70
   192
  0
VERTEX
  5
1EE
  8
0
 10
-41.99900054931641
 20
0.0
 30
48.67100143432617
 70
   192
  0
VERTEX
  5
1EF
  8
0
 10
-41.99900054931641
 20
2.0
 30
46.67100143432617
 70
   192
  0
VERTEX
  5
1F0
  8
0
 10
-41.99900054931641
 20
0.0
 30
44.67100143432617
 70
   192
  0
VERTEX
  5
1F1
  8
0
 62
     9
 10
0.0
 20
0.0
 30
0.0
 70
   128
 71
     3
 72
     2
 73
     1
  0
VERTEX
  5
1F2
  8
0
 62
     9
 10
0.0
 20
0.0
 30
0.0
 70
   128
 71
     1
 72
     4
 73
     3
  0
SEQEND
  5
1F3
  8
0
 62
     9
  0
ENDBLK
  5
1F6
  8
0
  0
BLOCK
  8
0
  2
E3_NODE_17_
 70
     0
 10
0.0
 20
0.0
 30
0.0
  3
E3_NODE_17_
  1

  0
POLYLINE
  5
1F8
  8
0
 62
     9
 66
     1
 10
0.0
 20
0.0
 30
0.0
 70
    64
 71
    12
 72
    12
  0
VERTEX
  5
1F9
  8
0
 10
-41.99900054931641
 20
0.0
 30
44.67100143432617
 70
   192
  0
VERTEX
  5
1FA
  8
0
 10
-41.99900054931641
 20
2.0
 30
46.67100143432617
 70
   192
  0
VERTEX
  5
1FB
  8
0
 10
-28.5319995880127
 20
1.901999950408936
 30
46.05300140380859
 70
   192
  0
VERTEX
  5
1FC
  8
0
 10
-28.5319995880127
 20
1.730000019073486
 30
46.58399963378906
 70
   192
  0
VERTEX
  5
1FD
  8
0
 10
-41.99900054931641
 20
0.0
 30
48.67100143432617
 70
   192
  0
VERTEX
  5
1FE
  8
0
 10
-28.5319995880127
 20
1.175999999046326
 30
48.28900146484375
 70
   192
  0
VERTEX
  5
1FF
  8
0
 10
-28.5319995880127
 20
0.0
 30
48.67100143432617
 70
   192
  0
VERTEX
  5
200
  8
0
 10
-41.99900054931641
 20
-2.0
 30
46.67100143432617
 70
   192
  0
VERTEX
  5
201
  8
0
 10
-28.5319995880127
 20
-1.730000019073486
 30
46.58399963378906
 70
   192
  0
VERTEX
  5
202
  8
0
 10
-28.5319995880127
 20
-1.175999999046326
 30
48.28900146484375
 70
   192
  0
VERTEX
  5
203
  8
0
 10
-28.5319995880127
 20
0.0
 30
44.67100143432617
 70
   192
  0
VERTEX
  5
204
  8
0
 10
-28.5319995880127
 20
-1.901999950408936
 30
46.05300140380859
 70
   192
  0
VERTEX
  5
205
  8
0
 62
     9
 10
0.0
 20
0.0
 30
0.0
 70
   128
 71
     3
 72
     2
 73
     1
  0
VERTEX
  5
206
  8
0
 62
     9
 10
0.0
 20
0.0
 30
0.0
 70
   128
 71
     3
 72
     4
 73
     2
  0
VERTEX
  5
207
  8
0
 62
     9
 10
0.0
 20
0.0
 30
0.0
 70
   128
 71
     6
 72
     5
 73
     2
  0
VERTEX
  5
208
  8
0
 62
     9
 10
0.0
 20
0.0
 30
0.0
 70
   128
 71
     6
 72
     7
 73
     5
  0
VERTEX
  5
209
  8
0
 62
     9
 10
0.0
 20
0.0
 30
0.0
 70
   128
 71
    10
 72
     9
 73
     8
  0
VERTEX
  5
20A
  8
0
 62
     9
 10
0.0
 20
0.0
 30
0.0
 70
   128
 71
     8
 72
     5
 73
    10
  0
VERTEX
  5
20B
  8
0
 62
     9
 10
0.0
 20
0.0
 30
0.0
 70
   128
 71
    12
 72
    11
 73
     1
  0
VERTEX
  5
20C
  8
0
 62
     9
 10
0.0
 20
0.0
 30
0.0
 70
   128
 71
     1
 72
     8
 73
    12
  0
VERTEX
  5
20D
  8
0
 62
     9
 10
0.0
 20
0.0
 30
0.0
 70
   128
 71
     8
 72
     9
 73
    12
  0
VERTEX
  5
20E
  8
0
 62
     9
 10
0.0
 20
0.0
 30
0.0
 70
   128
 71
     5
 72
     7
 73
    10
  0
VERTEX
  5
20F
  8
0
 62
     9
 10
0.0
 20
0.0
 30
0.0
 70
   128
 71
     2
 72
     4
 73
     6
  0
VERTEX
  5
210
  8
0
 62
     9
 10
0.0
 20
0.0
 30
0.0
 70
   128
 71
     1
 72
    11
 73
     3
  0
SEQEND
  5
211
  8
0
 62
     9
  0
ENDBLK
  5
214
  8
0
  0
BLOCK
  8
0
  2
E3_NODE_18_
 70
     0
 10
0.0
 20
0.0
 30
0.0
  3
E3_NODE_18_
  1

  0
POLYLINE
  5
216
  8
0
 62
     9
 66
     1
 10
0.0
 20
0.0
 30
0.0
 70
    64
 71
    21
 72
    26
  0
VERTEX
  5
217
  8
0
 10
-27.13199996948242
 20
-1.901999950408936
 30
45.59799957275391
 70
   192
  0
VERTEX
  5
218
  8
0
 10
-28.5319995880127
 20
-1.901999950408936
 30
46.05300140380859
 70
   192
  0
VERTEX
  5
219
  8
0
 10
-28.5319995880127
 20
0.0
 30
44.67100143432617
 70
   192
  0
VERTEX
  5
21A
  8
0
 10
-26.26600074768066
 20
-1.901999950408936
 30
44.40700149536133
 70
   192
  0
VERTEX
  5
21B
  8
0
 10
-27.94400024414062
 20
0.0
 30
44.47999954223633
 70
   192
  0
VERTEX
  5
21C
  8
0
 10
-25.8169994354248
 20
-1.175999999046326
 30
47.40700149536133
 70
   192
  0
VERTEX
  5
21D
  8
0
 10
-28.5319995880127
 20
-1.730000019073486
 30
46.58399963378906
 70
   192
  0
VERTEX
  5
21E
  8
0
 10
-28.5319995880127
 20
-1.175999999046326
 30
48.28900146484375
 70
   192
  0
VERTEX
  5
21F
  8
0
 10
-25.76199913024902
 20
-1.730000019073486
 30
44.57099914550781
 70
   192
  0
VERTEX
  5
220
  8
0
 10
-25.8169994354248
 20
1.175999999046326
 30
47.40700149536133
 70
   192
  0
VERTEX
  5
221
  8
0
 10
-28.5319995880127
 20
0.0
 30
48.67100143432617
 70
   192
  0
VERTEX
  5
222
  8
0
 10
-28.5319995880127
 20
1.175999999046326
 30
48.28900146484375
 70
   192
  0
VERTEX
  5
223
  8
0
 10
-23.77599906921387
 20
0.0
 30
45.21599960327148
 70
   192
  0
VERTEX
  5
224
  8
0
 10
-24.13999938964844
 20
-1.175999999046326
 30
45.09799957275391
 70
   192
  0
VERTEX
  5
225
  8
0
 10
-28.5319995880127
 20
1.730000019073486
 30
46.58399963378906
 70
   192
  0
VERTEX
  5
226
  8
0
 10
-27.13199996948242
 20
1.901999950408936
 30
45.59799957275391
 70
   192
  0
VERTEX
  5
227
  8
0
 10
-28.5319995880127
 20
1.901999950408936
 30
46.05300140380859
 70
   192
  0
VERTEX
  5
228
  8
0
 10
-25.76199913024902
 20
1.730000019073486
 30
44.57099914550781
 70
   192
  0
VERTEX
  5
229
  8
0
 10
-24.13999938964844
 20
1.175999999046326
 30
45.09799957275391
 70
   192
  0
VERTEX
  5
22A
  8
0
 10
-26.26600074768066
 20
1.901999950408936
 30
44.40700149536133
 70
   192
  0
VERTEX
  5
22B
  8
0
 10
-27.58099937438965
 20
0.0
 30
43.97999954223633
 70
   192
  0
VERTEX
  5
22C
  8
0
 62
     9
 10
0.0
 20
0.0
 30
0.0
 70
   128
 71
     3
 72
     2
 73
     1
  0
VERTEX
  5
22D
  8
0
 62
     9
 10
0.0
 20
0.0
 30
0.0
 70
   128
 71
     5
 72
     1
 73
     4
  0
VERTEX
  5
22E
  8
0
 62
     9
 10
0.0
 20
0.0
 30
0.0
 70
   128
 71
     7
 72
     6
 73
     1
  0
VERTEX
  5
22F
  8
0
 62
     9
 10
0.0
 20
0.0
 30
0.0
 70
   128
 71
     7
 72
     8
 73
     6
  0
VERTEX
  5
230
  8
0
 62
     9
 10
0.0
 20
0.0
 30
0.0
 70
   128
 71
     1
 72
     6
 73
     9
  0
VERTEX
  5
231
  8
0
 62
     9
 10
0.0
 20
0.0
 30
0.0
 70
   128
 71
     9
 72
     4
 73
     1
  0
VERTEX
  5
232
  8
0
 62
     9
 10
0.0
 20
0.0
 30
0.0
 70
   128
 71
    11
 72
    10
 73
     6
  0
VERTEX
  5
233
  8
0
 62
     9
 10
0.0
 20
0.0
 30
0.0
 70
   128
 71
    11
 72
    12
 73
    10
  0
VERTEX
  5
234
  8
0
 62
     9
 10
0.0
 20
0.0
 30
0.0
 70
   128
 71
    13
 72
     6
 73
    10
  0
VERTEX
  5
235
  8
0
 62
     9
 10
0.0
 20
0.0
 30
0.0
 70
   128
 71
    13
 72
    14
 73
     6
  0
VERTEX
  5
236
  8
0
 62
     9
 10
0.0
 20
0.0
 30
0.0
 70
   128
 71
    16
 72
    10
 73
    15
  0
VERTEX
  5
237
  8
0
 62
     9
 10
0.0
 20
0.0
 30
0.0
 70
   128
 71
    15
 72
    17
 73
    16
  0
VERTEX
  5
238
  8
0
 62
     9
 10
0.0
 20
0.0
 30
0.0
 70
   128
 71
    18
 72
    10
 73
    16
  0
VERTEX
  5
239
  8
0
 62
     9
 10
0.0
 20
0.0
 30
0.0
 70
   128
 71
    18
 72
    19
 73
    10
  0
VERTEX
  5
23A
  8
0
 62
     9
 10
0.0
 20
0.0
 30
0.0
 70
   128
 71
     3
 72
     5
 73
    16
  0
VERTEX
  5
23B
  8
0
 62
     9
 10
0.0
 20
0.0
 30
0.0
 70
   128
 71
    21
 72
    20
 73
    16
  0
VERTEX
  5
23C
  8
0
 62
     9
 10
0.0
 20
0.0
 30
0.0
 70
   128
 71
    16
 72
     5
 73
    21
  0
VERTEX
  5
23D
  8
0
 62
     9
 10
0.0
 20
0.0
 30
0.0
 70
   128
 71
    16
 72
    17
 73
     3
  0
VERTEX
  5
23E
  8
0
 62
     9
 10
0.0
 20
0.0
 30
0.0
 70
   128
 71
    16
 72
    20
 73
    18
  0
VERTEX
  5
23F
  8
0
 62
     9
 10
0.0
 20
0.0
 30
0.0
 70
   128
 71
    10
 72
    12
 73
    15
  0
VERTEX
  5
240
  8
0
 62
     9
 10
0.0
 20
0.0
 30
0.0
 70
   128
 71
    10
 72
    19
 73
    13
  0
VERTEX
  5
241
  8
0
 62
     9
 10
0.0
 20
0.0
 30
0.0
 70
   128
 71
     6
 72
     8
 73
    11
  0
VERTEX
  5
242
  8
0
 62
     9
 10
0.0
 20
0.0
 30
0.0
 70
   128
 71
     6
 72
    14
 73
     9
  0
VERTEX
  5
243
  8
0
 62
     9
 10
0.0
 20
0.0
 30
0.0
 70
   128
 71
     1
 72
     2
 73
     7
  0
VERTEX
  5
244
  8
0
 62
     9
 10
0.0
 20
0.0
 30
0.0
 70
   128
 71
     4
 72
    21
 73
     5
  0
VERTEX
  5
245
  8
0
 62
     9
 10
0.0
 20
0.0
 30
0.0
 70
   128
 71
     1
 72
     5
 73
     3
  0
SEQEND
  5
246
  8
0
 62
     9
  0
ENDBLK
  5
249
  8
0
  0
BLOCK
  8
0
  2
E3_NODE_19_
 70
     0
 10
0.0
 20
0.0
 30
0.0
  3
E3_NODE_19_
  1

  0
POLYLINE
  5
24B
  8
0
 62
     9
 66
     1
 10
0.0
 20
0.0
 30
0.0
 70
    64
 71
    12
 72
    12
  0
VERTEX
  5
24C
  8
0
 10
-24.13999938964844
 20
1.175999999046326
 30
45.09799957275391
 70
   192
  0
VERTEX
  5
24D
  8
0
 10
-8.824999809265137
 20
0.0
 30
-0.800000011920929
 70
   192
  0
VERTEX
  5
24E
  8
0
 10
-10.92800045013428
 20
2.0
 30
-0.800000011920929
 70
   192
  0
VERTEX
  5
24F
  8
0
 10
-25.76199913024902
 20
1.730000019073486
 30
44.57099914550781
 70
   192
  0
VERTEX
  5
250
  8
0
 10
-26.26600074768066
 20
1.901999950408936
 30
44.40700149536133
 70
   192
  0
VERTEX
  5
251
  8
0
 10
-13.0310001373291
 20
0.0
 30
-0.800000011920929
 70
   192
  0
VERTEX
  5
252
  8
0
 10
-27.58099937438965
 20
0.0
 30
43.97999954223633
 70
   192
  0
VERTEX
  5
253
  8
0
 10
-26.26600074768066
 20
-1.901999950408936
 30
44.40700149536133
 70
   192
  0
VERTEX
  5
254
  8
0
 10
-10.92800045013428
 20
-2.0
 30
-0.800000011920929
 70
   192
  0
VERTEX
  5
255
  8
0
 10
-25.76199913024902
 20
-1.730000019073486
 30
44.57099914550781
 70
   192
  0
VERTEX
  5
256
  8
0
 10
-24.13999938964844
 20
-1.175999999046326
 30
45.09799957275391
 70
   192
  0
VERTEX
  5
257
  8
0
 10
-23.77599906921387
 20
0.0
 30
45.21599960327148
 70
   192
  0
VERTEX
  5
258
  8
0
 62
     9
 10
0.0
 20
0.0
 30
0.0
 70
   128
 71
     3
 72
     2
 73
     1
  0
VERTEX
  5
259
  8
0
 62
     9
 10
0.0
 20
0.0
 30
0.0
 70
   128
 71
     1
 72
     4
 73
     3
  0
VERTEX
  5
25A
  8
0
 62
     9
 10
0.0
 20
0.0
 30
0.0
 70
   128
 71
     6
 72
     3
 73
     5
  0
VERTEX
  5
25B
  8
0
 62
     9
 10
0.0
 20
0.0
 30
0.0
 70
   128
 71
     5
 72
     7
 73
     6
  0
VERTEX
  5
25C
  8
0
 62
     9
 10
0.0
 20
0.0
 30
0.0
 70
   128
 71
     6
 72
     7
 73
     8
  0
VERTEX
  5
25D
  8
0
 62
     9
 10
0.0
 20
0.0
 30
0.0
 70
   128
 71
     8
 72
    10
 73
     9
  0
VERTEX
  5
25E
  8
0
 62
     9
 10
0.0
 20
0.0
 30
0.0
 70
   128
 71
     9
 72
    10
 73
    11
  0
VERTEX
  5
25F
  8
0
 62
     9
 10
0.0
 20
0.0
 30
0.0
 70
   128
 71
    11
 72
    12
 73
     2
  0
VERTEX
  5
260
  8
0
 62
     9
 10
0.0
 20
0.0
 30
0.0
 70
   128
 71
    11
 72
     2
 73
     9
  0
VERTEX
  5
261
  8
0
 62
     9
 10
0.0
 20
0.0
 30
0.0
 70
   128
 71
     8
 72
     9
 73
     6
  0
VERTEX
  5
262
  8
0
 62
     9
 10
0.0
 20
0.0
 30
0.0
 70
   128
 71
     3
 72
     4
 73
     5
  0
VERTEX
  5
263
  8
0
 62
     9
 10
0.0
 20
0.0
 30
0.0
 70
   128
 71
     2
 72
    12
 73
     1
  0
SEQEND
  5
264
  8
0
 62
     9
  0
ENDBLK
  5
267
  8
0
  0
BLOCK
  8
0
  2
E3_NODE_20_
 70
     0
 10
0.0
 20
0.0
 30
0.0
  3
E3_NODE_20_
  1

  0
POLYLINE
  5
269
  8
0
 62
     9
 66
     1
 10
0.0
 20
0.0
 30
0.0
 70
    64
 71
    10
 72
     8
  0
VERTEX
  5
26A
  8
0
 10
-19.02099990844727
 20
6.179999828338623
 30
117.0
 70
   192
  0
VERTEX
  5
26B
  8
0
 10
11.75599956512451
 20
16.18000030517578
 30
117.0
 70
   192
  0
VERTEX
  5
26C
  8
0
 10
0.0
 20
20.0
 30
117.0
 70
   192
  0
VERTEX
  5
26D
  8
0
 10
19.02099990844727
 20
6.179999828338623
 30
117.0
 70
   192
  0
VERTEX
  5
26E
  8
0
 10
19.02099990844727
 20
-6.179999828338623
 30
117.0
 70
   192
  0
VERTEX
  5
26F
  8
0
 10
-11.75599956512451
 20
-16.18000030517578
 30
117.0
 70
   192
  0
VERTEX
  5
270
  8
0
 10
0.0
 20
-20.0
 30
117.0
 70
   192
  0
VERTEX
  5
271
  8
0
 10
-19.02099990844727
 20
-6.179999828338623
 30
117.0
 70
   192
  0
VERTEX
  5
272
  8
0
 10
11.75599956512451
 20
-16.18000030517578
 30
117.0
 70
   192
  0
VERTEX
  5
273
  8
0
 10
-11.75599956512451
 20
16.18000030517578
 30
117.0
 70
   192
  0
VERTEX
  5
274
  8
0
 62
     9
 10
0.0
 20
0.0
 30
0.0
 70
   128
 71
     3
 72
     2
 73
     1
  0
VERTEX
  5
275
  8
0
 62
     9
 10
0.0
 20
0.0
 30
0.0
 70
   128
 71
     2
 72
     4
 73
     1
  0
VERTEX
  5
276
  8
0
 62
     9
 10
0.0
 20
0.0
 30
0.0
 70
   128
 71
     7
 72
     6
 73
     5
  0
VERTEX
  5
277
  8
0
 62
     9
 10
0.0
 20
0.0
 30
0.0
 70
   128
 71
     8
 72
     1
 73
     5
  0
VERTEX
  5
278
  8
0
 62
     9
 10
0.0
 20
0.0
 30
0.0
 70
   128
 71
     4
 72
     5
 73
     1
  0
VERTEX
  5
279
  8
0
 62
     9
 10
0.0
 20
0.0
 30
0.0
 70
   128
 71
     5
 72
     6
 73
     8
  0
VERTEX
  5
27A
  8
0
 62
     9
 10
0.0
 20
0.0
 30
0.0
 70
   128
 71
     5
 72
     9
 73
     7
  0
VERTEX
  5
27B
  8
0
 62
     9
 10
0.0
 20
0.0
 30
0.0
 70
   128
 71
     1
 72
    10
 73
     3
  0
SEQEND
  5
27C
  8
0
 62
     9
  0
ENDBLK
  5
27F
  8
0
  0
BLOCK
  8
0
  2
E3_NODE_21_
 70
     0
 10
0.0
 20
0.0
 30
0.0
  3
E3_NODE_21_
  1

  0
POLYLINE
  5
281
  8
0
 62
     9
 66
     1
 10
0.0
 20
0.0
 30
0.0
 70
    64
 71
    59
 72
    61
  0
VERTEX
  5
282
  8
0
 10
-11.75599956512451
 20
16.18000030517578
 30
2.5
 70
   192
  0
VERTEX
  5
283
  8
0
 10
-11.75599956512451
 20
16.18000030517578
 30
117.0
 70
   192
  0
VERTEX
  5
284
  8
0
 10
0.0
 20
20.0
 30
117.0
 70
   192
  0
VERTEX
  5
285
  8
0
 10
-19.02099990844727
 20
6.179999828338623
 30
2.5
 70
   192
  0
VERTEX
  5
286
  8
0
 10
-19.02099990844727
 20
6.179999828338623
 30
117.0
 70
   192
  0
VERTEX
  5
287
  8
0
 10
-19.02099990844727
 20
-6.179999828338623
 30
2.5
 70
   192
  0
VERTEX
  5
288
  8
0
 10
-19.02099990844727
 20
-6.179999828338623
 30
117.0
 70
   192
  0
VERTEX
  5
289
  8
0
 10
-11.75599956512451
 20
-16.18000030517578
 30
2.5
 70
   192
  0
VERTEX
  5
28A
  8
0
 10
-11.75599956512451
 20
-16.18000030517578
 30
117.0
 70
   192
  0
VERTEX
  5
28B
  8
0
 10
0.0
 20
-20.0
 30
2.5
 70
   192
  0
VERTEX
  5
28C
  8
0
 10
0.0
 20
-20.0
 30
117.0
 70
   192
  0
VERTEX
  5
28D
  8
0
 10
11.75599956512451
 20
-16.18000030517578
 30
2.5
 70
   192
  0
VERTEX
  5
28E
  8
0
 10
11.75599956512451
 20
-16.18000030517578
 30
117.0
 70
   192
  0
VERTEX
  5
28F
  8
0
 10
0.0
 20
20.0
 30
2.5
 70
   192
  0
VERTEX
  5
290
  8
0
 10
11.75599956512451
 20
16.18000030517578
 30
117.0
 70
   192
  0
VERTEX
  5
291
  8
0
 10
19.02099990844727
 20
-6.179999828338623
 30
2.5
 70
   192
  0
VERTEX
  5
292
  8
0
 10
19.92499923706055
 20
-1.730000019073486
 30
64.94200134277344
 70
   192
  0
VERTEX
  5
293
  8
0
 10
19.69099998474121
 20
-3.5
 30
65.23300170898438
 70
   192
  0
VERTEX
  5
294
  8
0
 10
19.02099990844727
 20
6.179999828338623
 30
2.5
 70
   192
  0
VERTEX
  5
295
  8
0
 10
19.91699981689453
 20
1.820999979972839
 30
64.9520034790039
 70
   192
  0
VERTEX
  5
296
  8
0
 10
19.00099945068359
 20
6.171999931335449
 30
66.08699798583984
 70
   192
  0
VERTEX
  5
297
  8
0
 10
19.09600067138672
 20
5.943999767303467
 30
65.97000122070312
 70
   192
  0
VERTEX
  5
298
  8
0
 10
19.53000068664551
 20
4.308000087738037
 30
65.43199920654297
 70
   192
  0
VERTEX
  5
299
  8
0
 10
19.02099990844727
 20
-6.179999828338623
 30
117.0
 70
   192
  0
VERTEX
  5
29A
  8
0
 10
18.38100051879883
 20
-7.881999969482422
 30
94.65299987792969
 70
   192
  0
VERTEX
  5
29B
  8
0
 10
19.00300025939941
 20
-6.235000133514404
 30
94.65299987792969
 70
   192
  0
VERTEX
  5
29C
  8
0
 10
15.86800003051758
 20
-12.17399978637695
 30
94.65299987792969
 70
   192
  0
VERTEX
  5
29D
  8
0
 10
14.89599990844727
 20
-13.3459997177124
 30
94.38300323486328
 70
   192
  0
VERTEX
  5
29E
  8
0
 10
12.97799968719482
 20
-15.21700000762939
 30
73.16899871826172
 70
   192
  0
VERTEX
  5
29F
  8
0
 10
12.97799968719482
 20
-15.21700000762939
 30
79.65299987792969
 70
   192
  0
VERTEX
  5
2A0
  8
0
 10
12.97799968719482
 20
-15.21700000762939
 30
91.15299987792969
 70
   192
  0
VERTEX
  5
2A1
  8
0
 10
13.04899978637695
 20
-15.1569995880127
 30
91.8479995727539
 70
   192
  0
VERTEX
  5
2A2
  8
0
 10
13.32100009918213
 20
-14.91800022125244
 30
92.66600036621094
 70
   192
  0
VERTEX
  5
2A3
  8
0
 10
13.85900020599365
 20
-14.42000007629395
 30
93.51499938964844
 70
   192
  0
VERTEX
  5
2A4
  8
0
 10
16.19300079345703
 20
-11.73900032043457
 30
69.50299835205078
 70
   192
  0
VERTEX
  5
2A5
  8
0
 10
14.62399959564209
 20
-13.64299964904785
 30
71.33799743652344
 70
   192
  0
VERTEX
  5
2A6
  8
0
 10
18.14900016784668
 20
-8.402999877929688
 30
67.13700103759766
 70
   192
  0
VERTEX
  5
2A7
  8
0
 10
18.74600028991699
 20
-6.96999979019165
 30
66.40299987792969
 70
   192
  0
VERTEX
  5
2A8
  8
0
 10
18.96500015258789
 20
-6.164999961853027
 30
66.13099670410156
 70
   192
  0
VERTEX
  5
2A9
  8
0
 10
19.95400047302246
 20
-1.353999972343445
 30
94.65299987792969
 70
   192
  0
VERTEX
  5
2AA
  8
0
 10
19.99600028991699
 20
0.4059999883174896
 30
94.65299987792969
 70
   192
  0
VERTEX
  5
2AB
  8
0
 10
19.02099990844727
 20
6.179999828338623
 30
117.0
 70
   192
  0
VERTEX
  5
2AC
  8
0
 10
19.01399993896484
 20
-6.178999900817871
 30
94.65299987792969
 70
   192
  0
VERTEX
  5
2AD
  8
0
 10
19.27700042724609
 20
5.327000141143799
 30
94.65299987792969
 70
   192
  0
VERTEX
  5
2AE
  8
0
 10
11.75599956512451
 20
16.18000030517578
 30
2.5
 70
   192
  0
VERTEX
  5
2AF
  8
0
 10
17.68099975585938
 20
9.347999572753906
 30
67.70899963378906
 70
   192
  0
VERTEX
  5
2B0
  8
0
 10
12.97799968719482
 20
15.21700000762939
 30
73.16899871826172
 70
   192
  0
VERTEX
  5
2B1
  8
0
 10
13.40999984741211
 20
14.83800029754639
 30
72.70500183105469
 70
   192
  0
VERTEX
  5
2B2
  8
0
 10
16.06900024414062
 20
11.9069995880127
 30
69.6500015258789
 70
   192
  0
VERTEX
  5
2B3
  8
0
 10
12.97799968719482
 20
15.21700000762939
 30
79.65299987792969
 70
   192
  0
VERTEX
  5
2B4
  8
0
 10
12.97799968719482
 20
15.21700000762939
 30
91.15299987792969
 70
   192
  0
VERTEX
  5
2B5
  8
0
 10
13.0939998626709
 20
15.11800003051758
 30
92.04199981689453
 70
   192
  0
VERTEX
  5
2B6
  8
0
 10
14.05300045013428
 20
14.23099994659424
 30
93.73300170898438
 70
   192
  0
VERTEX
  5
2B7
  8
0
 10
13.39400005340576
 20
14.85200023651123
 30
92.81500244140625
 70
   192
  0
VERTEX
  5
2B8
  8
0
 10
16.42900085449219
 20
11.40499973297119
 30
94.65299987792969
 70
   192
  0
VERTEX
  5
2B9
  8
0
 10
19.00300025939941
 20
6.173999786376953
 30
94.65299987792969
 70
   192
  0
VERTEX
  5
2BA
  8
0
 10
18.73399925231934
 20
7.001999855041504
 30
94.65299987792969
 70
   192
  0
VERTEX
  5
2BB
  8
0
 10
15.86800003051758
 20
12.17399978637695
 30
94.65299987792969
 70
   192
  0
VERTEX
  5
2BC
  8
0
 10
15.08100032806396
 20
13.13599967956543
 30
94.4729995727539
 70
   192
  0
VERTEX
  5
2BD
  8
0
 62
     9
 10
0.0
 20
0.0
 30
0.0
 70
   128
 71
     3
 72
     2
 73
     1
  0
VERTEX
  5
2BE
  8
0
 62
     9
 10
0.0
 20
0.0
 30
0.0
 70
   128
 71
     2
 72
     5
 73
     4
  0
VERTEX
  5
2BF
  8
0
 62
     9
 10
0.0
 20
0.0
 30
0.0
 70
   128
 71
     5
 72
     7
 73
     6
  0
VERTEX
  5
2C0
  8
0
 62
     9
 10
0.0
 20
0.0
 30
0.0
 70
   128
 71
     7
 72
     9
 73
     8
  0
VERTEX
  5
2C1
  8
0
 62
     9
 10
0.0
 20
0.0
 30
0.0
 70
   128
 71
     9
 72
    11
 73
    10
  0
VERTEX
  5
2C2
  8
0
 62
     9
 10
0.0
 20
0.0
 30
0.0
 70
   128
 71
    11
 72
    13
 73
    12
  0
VERTEX
  5
2C3
  8
0
 62
     9
 10
0.0
 20
0.0
 30
0.0
 70
   128
 71
    15
 72
     3
 73
    14
  0
VERTEX
  5
2C4
  8
0
 62
     9
 10
0.0
 20
0.0
 30
0.0
 70
   128
 71
    18
 72
    17
 73
    16
  0
VERTEX
  5
2C5
  8
0
 62
     9
 10
0.0
 20
0.0
 30
0.0
 70
   128
 71
    17
 72
    20
 73
    19
  0
VERTEX
  5
2C6
  8
0
 62
     9
 10
0.0
 20
0.0
 30
0.0
 70
   128
 71
    19
 72
    16
 73
    17
  0
VERTEX
  5
2C7
  8
0
 62
     9
 10
0.0
 20
0.0
 30
0.0
 70
   128
 71
    22
 72
    21
 73
    19
  0
VERTEX
  5
2C8
  8
0
 62
     9
 10
0.0
 20
0.0
 30
0.0
 70
   128
 71
    19
 72
    23
 73
    22
  0
VERTEX
  5
2C9
  8
0
 62
     9
 10
0.0
 20
0.0
 30
0.0
 70
   128
 71
    19
 72
    20
 73
    23
  0
VERTEX
  5
2CA
  8
0
 62
     9
 10
0.0
 20
0.0
 30
0.0
 70
   128
 71
    26
 72
    25
 73
    24
  0
VERTEX
  5
2CB
  8
0
 62
     9
 10
0.0
 20
0.0
 30
0.0
 70
   128
 71
    27
 72
    13
 73
    24
  0
VERTEX
  5
2CC
  8
0
 62
     9
 10
0.0
 20
0.0
 30
0.0
 70
   128
 71
    24
 72
    25
 73
    27
  0
VERTEX
  5
2CD
  8
0
 62
     9
 10
0.0
 20
0.0
 30
0.0
 70
   128
 71
    27
 72
    28
 73
    13
  0
VERTEX
  5
2CE
  8
0
 62
     9
 10
0.0
 20
0.0
 30
0.0
 70
   128
 71
    29
 72
    12
 73
    13
  0
VERTEX
  5
2CF
  8
0
 62
     9
 10
0.0
 20
0.0
 30
0.0
 70
   128
 71
    13
 72
    30
 73
    29
  0
VERTEX
  5
2D0
  8
0
 62
     9
 10
0.0
 20
0.0
 30
0.0
 70
   128
 71
    13
 72
    31
 73
    30
  0
VERTEX
  5
2D1
  8
0
 62
     9
 10
0.0
 20
0.0
 30
0.0
 70
   128
 71
    13
 72
    32
 73
    31
  0
VERTEX
  5
2D2
  8
0
 62
     9
 10
0.0
 20
0.0
 30
0.0
 70
   128
 71
    13
 72
    33
 73
    32
  0
VERTEX
  5
2D3
  8
0
 62
     9
 10
0.0
 20
0.0
 30
0.0
 70
   128
 71
    13
 72
    34
 73
    33
  0
VERTEX
  5
2D4
  8
0
 62
     9
 10
0.0
 20
0.0
 30
0.0
 70
   128
 71
    13
 72
    28
 73
    34
  0
VERTEX
  5
2D5
  8
0
 62
     9
 10
0.0
 20
0.0
 30
0.0
 70
   128
 71
    36
 72
    35
 73
    12
  0
VERTEX
  5
2D6
  8
0
 62
     9
 10
0.0
 20
0.0
 30
0.0
 70
   128
 71
    35
 72
    37
 73
    12
  0
VERTEX
  5
2D7
  8
0
 62
     9
 10
0.0
 20
0.0
 30
0.0
 70
   128
 71
    37
 72
    38
 73
    12
  0
VERTEX
  5
2D8
  8
0
 62
     9
 10
0.0
 20
0.0
 30
0.0
 70
   128
 71
    39
 72
    16
 73
    12
  0
VERTEX
  5
2D9
  8
0
 62
     9
 10
0.0
 20
0.0
 30
0.0
 70
   128
 71
    12
 72
    38
 73
    39
  0
VERTEX
  5
2DA
  8
0
 62
     9
 10
0.0
 20
0.0
 30
0.0
 70
   128
 71
    12
 72
    29
 73
    36
  0
VERTEX
  5
2DB
  8
0
 62
     9
 10
0.0
 20
0.0
 30
0.0
 70
   128
 71
    41
 72
    40
 73
    24
  0
VERTEX
  5
2DC
  8
0
 62
     9
 10
0.0
 20
0.0
 30
0.0
 70
   128
 71
    24
 72
    42
 73
    41
  0
VERTEX
  5
2DD
  8
0
 62
     9
 10
0.0
 20
0.0
 30
0.0
 70
   128
 71
    40
 72
    43
 73
    24
  0
VERTEX
  5
2DE
  8
0
 62
     9
 10
0.0
 20
0.0
 30
0.0
 70
   128
 71
    42
 72
    44
 73
    41
  0
VERTEX
  5
2DF
  8
0
 62
     9
 10
0.0
 20
0.0
 30
0.0
 70
   128
 71
    21
 72
    46
 73
    45
  0
VERTEX
  5
2E0
  8
0
 62
     9
 10
0.0
 20
0.0
 30
0.0
 70
   128
 71
    48
 72
    47
 73
    45
  0
VERTEX
  5
2E1
  8
0
 62
     9
 10
0.0
 20
0.0
 30
0.0
 70
   128
 71
    45
 72
    49
 73
    48
  0
VERTEX
  5
2E2
  8
0
 62
     9
 10
0.0
 20
0.0
 30
0.0
 70
   128
 71
    45
 72
    46
 73
    49
  0
VERTEX
  5
2E3
  8
0
 62
     9
 10
0.0
 20
0.0
 30
0.0
 70
   128
 71
    47
 72
    50
 73
    15
  0
VERTEX
  5
2E4
  8
0
 62
     9
 10
0.0
 20
0.0
 30
0.0
 70
   128
 71
    50
 72
    51
 73
    15
  0
VERTEX
  5
2E5
  8
0
 62
     9
 10
0.0
 20
0.0
 30
0.0
 70
   128
 71
    51
 72
    52
 73
    15
  0
VERTEX
  5
2E6
  8
0
 62
     9
 10
0.0
 20
0.0
 30
0.0
 70
   128
 71
    54
 72
    53
 73
    15
  0
VERTEX
  5
2E7
  8
0
 62
     9
 10
0.0
 20
0.0
 30
0.0
 70
   128
 71
    15
 72
    52
 73
    54
  0
VERTEX
  5
2E8
  8
0
 62
     9
 10
0.0
 20
0.0
 30
0.0
 70
   128
 71
    55
 72
    42
 73
    15
  0
VERTEX
  5
2E9
  8
0
 62
     9
 10
0.0
 20
0.0
 30
0.0
 70
   128
 71
    57
 72
    56
 73
    42
  0
VERTEX
  5
2EA
  8
0
 62
     9
 10
0.0
 20
0.0
 30
0.0
 70
   128
 71
    42
 72
    55
 73
    57
  0
VERTEX
  5
2EB
  8
0
 62
     9
 10
0.0
 20
0.0
 30
0.0
 70
   128
 71
    15
 72
    58
 73
    55
  0
VERTEX
  5
2EC
  8
0
 62
     9
 10
0.0
 20
0.0
 30
0.0
 70
   128
 71
    15
 72
    59
 73
    58
  0
VERTEX
  5
2ED
  8
0
 62
     9
 10
0.0
 20
0.0
 30
0.0
 70
   128
 71
    15
 72
    53
 73
    59
  0
VERTEX
  5
2EE
  8
0
 62
     9
 10
0.0
 20
0.0
 30
0.0
 70
   128
 71
    15
 72
    45
 73
    47
  0
VERTEX
  5
2EF
  8
0
 62
     9
 10
0.0
 20
0.0
 30
0.0
 70
   128
 71
    45
 72
    19
 73
    21
  0
VERTEX
  5
2F0
  8
0
 62
     9
 10
0.0
 20
0.0
 30
0.0
 70
   128
 71
    42
 72
    56
 73
    44
  0
VERTEX
  5
2F1
  8
0
 62
     9
 10
0.0
 20
0.0
 30
0.0
 70
   128
 71
    24
 72
    43
 73
    26
  0
VERTEX
  5
2F2
  8
0
 62
     9
 10
0.0
 20
0.0
 30
0.0
 70
   128
 71
    16
 72
    39
 73
    18
  0
VERTEX
  5
2F3
  8
0
 62
     9
 10
0.0
 20
0.0
 30
0.0
 70
   128
 71
    14
 72
    45
 73
    15
  0
VERTEX
  5
2F4
  8
0
 62
     9
 10
0.0
 20
0.0
 30
0.0
 70
   128
 71
    12
 72
    10
 73
    11
  0
VERTEX
  5
2F5
  8
0
 62
     9
 10
0.0
 20
0.0
 30
0.0
 70
   128
 71
    10
 72
     8
 73
     9
  0
VERTEX
  5
2F6
  8
0
 62
     9
 10
0.0
 20
0.0
 30
0.0
 70
   128
 71
     8
 72
     6
 73
     7
  0
VERTEX
  5
2F7
  8
0
 62
     9
 10
0.0
 20
0.0
 30
0.0
 70
   128
 71
     6
 72
     4
 73
     5
  0
VERTEX
  5
2F8
  8
0
 62
     9
 10
0.0
 20
0.0
 30
0.0
 70
   128
 71
     4
 72
     1
 73
     2
  0
VERTEX
  5
2F9
  8
0
 62
     9
 10
0.0
 20
0.0
 30
0.0
 70
   128
 71
     1
 72
    14
 73
     3
  0
SEQEND
  5
2FA
  8
0
 62
     9
  0
ENDBLK
  5
2FD
  8
0
  0
BLOCK
  8
0
  2
E3_NODE_22_
 70
     0
 10
0.0
 20
0.0
 30
0.0
  3
E3_NODE_22_
  1

  0
POLYLINE
  5
2FF
  8
0
 62
     9
 66
     1
 10
0.0
 20
0.0
 30
0.0
 70
    64
 71
    22
 72
    20
  0
VERTEX
  5
300
  8
0
 10
18.38100051879883
 20
-7.881999969482422
 30
94.65299987792969
 70
   192
  0
VERTEX
  5
301
  8
0
 10
15.86800003051758
 20
-12.17399978637695
 30
94.65299987792969
 70
   192
  0
VERTEX
  5
302
  8
0
 10
17.26600074768066
 20
-13.24600028991699
 30
92.89099884033203
 70
   192
  0
VERTEX
  5
303
  8
0
 10
21.13800048828125
 20
-9.0649995803833
 30
91.65299987792969
 70
   192
  0
VERTEX
  5
304
  8
0
 10
21.85400009155273
 20
-7.171000003814697
 30
91.65299987792969
 70
   192
  0
VERTEX
  5
305
  8
0
 10
19.00300025939941
 20
-6.235000133514404
 30
94.65299987792969
 70
   192
  0
VERTEX
  5
306
  8
0
 10
22.94700050354004
 20
-1.557000041007996
 30
91.65299987792969
 70
   192
  0
VERTEX
  5
307
  8
0
 10
19.95400047302246
 20
-1.353999972343445
 30
94.65299987792969
 70
   192
  0
VERTEX
  5
308
  8
0
 10
19.01399993896484
 20
-6.178999900817871
 30
94.65299987792969
 70
   192
  0
VERTEX
  5
309
  8
0
 10
22.9950008392334
 20
0.4670000076293945
 30
91.65299987792969
 70
   192
  0
VERTEX
  5
30A
  8
0
 10
19.99600028991699
 20
0.4059999883174896
 30
94.65299987792969
 70
   192
  0
VERTEX
  5
30B
  8
0
 10
22.16900062561035
 20
6.126999855041504
 30
91.65299987792969
 70
   192
  0
VERTEX
  5
30C
  8
0
 10
19.27700042724609
 20
5.327000141143799
 30
94.65299987792969
 70
   192
  0
VERTEX
  5
30D
  8
0
 10
21.54400062561035
 20
8.053000450134277
 30
91.65299987792969
 70
   192
  0
VERTEX
  5
30E
  8
0
 10
19.00300025939941
 20
6.173999786376953
 30
94.65299987792969
 70
   192
  0
VERTEX
  5
30F
  8
0
 10
18.73399925231934
 20
7.001999855041504
 30
94.65299987792969
 70
   192
  0
VERTEX
  5
310
  8
0
 10
18.89399909973145
 20
13.11600017547607
 30
91.65299987792969
 70
   192
  0
VERTEX
  5
311
  8
0
 10
16.42900085449219
 20
11.40499973297119
 30
94.65299987792969
 70
   192
  0
VERTEX
  5
312
  8
0
 10
16.7859992980957
 20
12.87800025939941
 30
92.28600311279297
 70
   192
  0
VERTEX
  5
313
  8
0
 10
18.24799919128418
 20
14.0
 30
91.65299987792969
 70
   192
  0
VERTEX
  5
314
  8
0
 10
15.86800003051758
 20
12.17399978637695
 30
94.65299987792969
 70
   192
  0
VERTEX
  5
315
  8
0
 10
18.24799919128418
 20
-14.0
 30
91.65299987792969
 70
   192
  0
VERTEX
  5
316
  8
0
 62
     9
 10
0.0
 20
0.0
 30
0.0
 70
   128
 71
     3
 72
     2
 73
     1
  0
VERTEX
  5
317
  8
0
 62
     9
 10
0.0
 20
0.0
 30
0.0
 70
   128
 71
     1
 72
     4
 73
     3
  0
VERTEX
  5
318
  8
0
 62
     9
 10
0.0
 20
0.0
 30
0.0
 70
   128
 71
     1
 72
     6
 73
     5
  0
VERTEX
  5
319
  8
0
 62
     9
 10
0.0
 20
0.0
 30
0.0
 70
   128
 71
     9
 72
     8
 73
     7
  0
VERTEX
  5
31A
  8
0
 62
     9
 10
0.0
 20
0.0
 30
0.0
 70
   128
 71
     7
 72
     5
 73
     9
  0
VERTEX
  5
31B
  8
0
 62
     9
 10
0.0
 20
0.0
 30
0.0
 70
   128
 71
    11
 72
    10
 73
     7
  0
VERTEX
  5
31C
  8
0
 62
     9
 10
0.0
 20
0.0
 30
0.0
 70
   128
 71
    11
 72
    13
 73
    12
  0
VERTEX
  5
31D
  8
0
 62
     9
 10
0.0
 20
0.0
 30
0.0
 70
   128
 71
    15
 72
    14
 73
    12
  0
VERTEX
  5
31E
  8
0
 62
     9
 10
0.0
 20
0.0
 30
0.0
 70
   128
 71
    15
 72
    16
 73
    14
  0
VERTEX
  5
31F
  8
0
 62
     9
 10
0.0
 20
0.0
 30
0.0
 70
   128
 71
    16
 72
    18
 73
    17
  0
VERTEX
  5
320
  8
0
 62
     9
 10
0.0
 20
0.0
 30
0.0
 70
   128
 71
    19
 72
    17
 73
    18
  0
VERTEX
  5
321
  8
0
 62
     9
 10
0.0
 20
0.0
 30
0.0
 70
   128
 71
    19
 72
    20
 73
    17
  0
VERTEX
  5
322
  8
0
 62
     9
 10
0.0
 20
0.0
 30
0.0
 70
   128
 71
    18
 72
    21
 73
    19
  0
VERTEX
  5
323
  8
0
 62
     9
 10
0.0
 20
0.0
 30
0.0
 70
   128
 71
    17
 72
    14
 73
    16
  0
VERTEX
  5
324
  8
0
 62
     9
 10
0.0
 20
0.0
 30
0.0
 70
   128
 71
    12
 72
    13
 73
    15
  0
VERTEX
  5
325
  8
0
 62
     9
 10
0.0
 20
0.0
 30
0.0
 70
   128
 71
    12
 72
    10
 73
    11
  0
VERTEX
  5
326
  8
0
 62
     9
 10
0.0
 20
0.0
 30
0.0
 70
   128
 71
     7
 72
     8
 73
    11
  0
VERTEX
  5
327
  8
0
 62
     9
 10
0.0
 20
0.0
 30
0.0
 70
   128
 71
     5
 72
     6
 73
     9
  0
VERTEX
  5
328
  8
0
 62
     9
 10
0.0
 20
0.0
 30
0.0
 70
   128
 71
     5
 72
     4
 73
     1
  0
VERTEX
  5
329
  8
0
 62
     9
 10
0.0
 20
0.0
 30
0.0
 70
   128
 71
     4
 72
    22
 73
     3
  0
SEQEND
  5
32A
  8
0
 62
     9
  0
ENDBLK
  5
32D
  8
0
  0
BLOCK
  8
0
  2
E3_NODE_23_
 70
     0
 10
0.0
 20
0.0
 30
0.0
  3
E3_NODE_23_
  1

  0
POLYLINE
  5
32F
  8
0
 62
     9
 66
     1
 10
0.0
 20
0.0
 30
0.0
 70
    64
 71
    22
 72
    24
  0
VERTEX
  5
330
  8
0
 10
15.86800003051758
 20
-12.17399978637695
 30
94.65299987792969
 70
   192
  0
VERTEX
  5
331
  8
0
 10
14.89599990844727
 20
-13.3459997177124
 30
94.38300323486328
 70
   192
  0
VERTEX
  5
332
  8
0
 10
15.91699981689453
 20
-13.43900012969971
 30
92.41200256347656
 70
   192
  0
VERTEX
  5
333
  8
0
 10
13.85900020599365
 20
-14.42000007629395
 30
93.51499938964844
 70
   192
  0
VERTEX
  5
334
  8
0
 10
14.92500019073486
 20
-14.08600044250488
 30
92.19599914550781
 70
   192
  0
VERTEX
  5
335
  8
0
 10
13.32100009918213
 20
-14.91800022125244
 30
92.66600036621094
 70
   192
  0
VERTEX
  5
336
  8
0
 10
14.39099979400635
 20
-14.42199993133545
 30
91.85299682617188
 70
   192
  0
VERTEX
  5
337
  8
0
 10
13.04899978637695
 20
-15.1569995880127
 30
91.8479995727539
 70
   192
  0
VERTEX
  5
338
  8
0
 10
14.11699962615967
 20
-14.58899974822998
 30
91.48100280761719
 70
   192
  0
VERTEX
  5
339
  8
0
 10
12.97799968719482
 20
-15.21700000762939
 30
91.15299987792969
 70
   192
  0
VERTEX
  5
33A
  8
0
 10
14.10799980163574
 20
-14.80099964141846
 30
91.15299987792969
 70
   192
  0
VERTEX
  5
33B
  8
0
 10
14.92500019073486
 20
-14.5
 30
91.15299987792969
 70
   192
  0
VERTEX
  5
33C
  8
0
 10
14.9350004196167
 20
-14.5
 30
91.15699768066406
 70
   192
  0
VERTEX
  5
33D
  8
0
 10
15.0620002746582
 20
-14.5
 30
91.1760025024414
 70
   192
  0
VERTEX
  5
33E
  8
0
 10
15.43400001525879
 20
-14.5
 30
91.2300033569336
 70
   192
  0
VERTEX
  5
33F
  8
0
 10
16.13299942016602
 20
-14.5
 30
91.33300018310547
 70
   192
  0
VERTEX
  5
340
  8
0
 10
18.25
 20
-14.01099967956543
 30
91.65299987792969
 70
   192
  0
VERTEX
  5
341
  8
0
 10
18.24799919128418
 20
-14.0
 30
91.65299987792969
 70
   192
  0
VERTEX
  5
342
  8
0
 10
17.50300025939941
 20
-14.5
 30
91.53299713134766
 70
   192
  0
VERTEX
  5
343
  8
0
 10
18.3129997253418
 20
-14.5
 30
91.6520004272461
 70
   192
  0
VERTEX
  5
344
  8
0
 10
17.26600074768066
 20
-13.24600028991699
 30
92.89099884033203
 70
   192
  0
VERTEX
  5
345
  8
0
 10
18.31900024414062
 20
-14.5
 30
91.65299987792969
 70
   192
  0
VERTEX
  5
346
  8
0
 62
     9
 10
0.0
 20
0.0
 30
0.0
 70
   128
 71
     3
 72
     2
 73
     1
  0
VERTEX
  5
347
  8
0
 62
     9
 10
0.0
 20
0.0
 30
0.0
 70
   128
 71
     5
 72
     4
 73
     2
  0
VERTEX
  5
348
  8
0
 62
     9
 10
0.0
 20
0.0
 30
0.0
 70
   128
 71
     7
 72
     6
 73
     4
  0
VERTEX
  5
349
  8
0
 62
     9
 10
0.0
 20
0.0
 30
0.0
 70
   128
 71
     9
 72
     8
 73
     6
  0
VERTEX
  5
34A
  8
0
 62
     9
 10
0.0
 20
0.0
 30
0.0
 70
   128
 71
    11
 72
    10
 73
     8
  0
VERTEX
  5
34B
  8
0
 62
     9
 10
0.0
 20
0.0
 30
0.0
 70
   128
 71
    12
 72
    11
 73
     9
  0
VERTEX
  5
34C
  8
0
 62
     9
 10
0.0
 20
0.0
 30
0.0
 70
   128
 71
     9
 72
    13
 73
    12
  0
VERTEX
  5
34D
  8
0
 62
     9
 10
0.0
 20
0.0
 30
0.0
 70
   128
 71
    14
 72
     9
 73
     7
  0
VERTEX
  5
34E
  8
0
 62
     9
 10
0.0
 20
0.0
 30
0.0
 70
   128
 71
    15
 72
     7
 73
     5
  0
VERTEX
  5
34F
  8
0
 62
     9
 10
0.0
 20
0.0
 30
0.0
 70
   128
 71
    16
 72
     5
 73
     3
  0
VERTEX
  5
350
  8
0
 62
     9
 10
0.0
 20
0.0
 30
0.0
 70
   128
 71
    18
 72
    17
 73
     3
  0
VERTEX
  5
351
  8
0
 62
     9
 10
0.0
 20
0.0
 30
0.0
 70
   128
 71
    19
 72
     3
 73
    17
  0
VERTEX
  5
352
  8
0
 62
     9
 10
0.0
 20
0.0
 30
0.0
 70
   128
 71
    17
 72
    20
 73
    19
  0
VERTEX
  5
353
  8
0
 62
     9
 10
0.0
 20
0.0
 30
0.0
 70
   128
 71
     3
 72
    21
 73
    18
  0
VERTEX
  5
354
  8
0
 62
     9
 10
0.0
 20
0.0
 30
0.0
 70
   128
 71
    17
 72
    22
 73
    20
  0
VERTEX
  5
355
  8
0
 62
     9
 10
0.0
 20
0.0
 30
0.0
 70
   128
 71
     3
 72
    19
 73
    16
  0
VERTEX
  5
356
  8
0
 62
     9
 10
0.0
 20
0.0
 30
0.0
 70
   128
 71
     5
 72
    16
 73
    15
  0
VERTEX
  5
357
  8
0
 62
     9
 10
0.0
 20
0.0
 30
0.0
 70
   128
 71
     7
 72
    15
 73
    14
  0
VERTEX
  5
358
  8
0
 62
     9
 10
0.0
 20
0.0
 30
0.0
 70
   128
 71
     9
 72
    14
 73
    13
  0
VERTEX
  5
359
  8
0
 62
     9
 10
0.0
 20
0.0
 30
0.0
 70
   128
 71
     8
 72
     9
 73
    11
  0
VERTEX
  5
35A
  8
0
 62
     9
 10
0.0
 20
0.0
 30
0.0
 70
   128
 71
     6
 72
     7
 73
     9
  0
VERTEX
  5
35B
  8
0
 62
     9
 10
0.0
 20
0.0
 30
0.0
 70
   128
 71
     4
 72
     5
 73
     7
  0
VERTEX
  5
35C
  8
0
 62
     9
 10
0.0
 20
0.0
 30
0.0
 70
   128
 71
     2
 72
     3
 73
     5
  0
VERTEX
  5
35D
  8
0
 62
     9
 10
0.0
 20
0.0
 30
0.0
 70
   128
 71
     1
 72
    21
 73
     3
  0
SEQEND
  5
35E
  8
0
 62
     9
  0
ENDBLK
  5
361
  8
0
  0
BLOCK
  8
0
  2
E3_NODE_24_
 70
     0
 10
0.0
 20
0.0
 30
0.0
  3
E3_NODE_24_
  1

  0
POLYLINE
  5
363
  8
0
 62
     9
 66
     1
 10
0.0
 20
0.0
 30
0.0
 70
    64
 71
     9
 72
     7
  0
VERTEX
  5
364
  8
0
 10
12.97799968719482
 20
-15.21700000762939
 30
79.65299987792969
 70
   192
  0
VERTEX
  5
365
  8
0
 10
14.92500019073486
 20
-14.5
 30
79.65299987792969
 70
   192
  0
VERTEX
  5
366
  8
0
 10
14.10799980163574
 20
-14.80099964141846
 30
91.15299987792969
 70
   192
  0
VERTEX
  5
367
  8
0
 10
14.92500019073486
 20
-14.5
 30
91.15299987792969
 70
   192
  0
VERTEX
  5
368
  8
0
 10
12.98700046539307
 20
-15.20899963378906
 30
73.18499755859375
 70
   192
  0
VERTEX
  5
369
  8
0
 10
14.4980001449585
 20
-14.5310001373291
 30
75.3489990234375
 70
   192
  0
VERTEX
  5
36A
  8
0
 10
12.97799968719482
 20
-15.21700000762939
 30
73.16899871826172
 70
   192
  0
VERTEX
  5
36B
  8
0
 10
14.92500019073486
 20
-14.5
 30
75.8740005493164
 70
   192
  0
VERTEX
  5
36C
  8
0
 10
12.97799968719482
 20
-15.21700000762939
 30
91.15299987792969
 70
   192
  0
VERTEX
  5
36D
  8
0
 62
     9
 10
0.0
 20
0.0
 30
0.0
 70
   128
 71
     3
 72
     2
 73
     1
  0
VERTEX
  5
36E
  8
0
 62
     9
 10
0.0
 20
0.0
 30
0.0
 70
   128
 71
     3
 72
     4
 73
     2
  0
VERTEX
  5
36F
  8
0
 62
     9
 10
0.0
 20
0.0
 30
0.0
 70
   128
 71
     6
 72
     5
 73
     2
  0
VERTEX
  5
370
  8
0
 62
     9
 10
0.0
 20
0.0
 30
0.0
 70
   128
 71
     5
 72
     7
 73
     1
  0
VERTEX
  5
371
  8
0
 62
     9
 10
0.0
 20
0.0
 30
0.0
 70
   128
 71
     1
 72
     2
 73
     5
  0
VERTEX
  5
372
  8
0
 62
     9
 10
0.0
 20
0.0
 30
0.0
 70
   128
 71
     2
 72
     8
 73
     6
  0
VERTEX
  5
373
  8
0
 62
     9
 10
0.0
 20
0.0
 30
0.0
 70
   128
 71
     1
 72
     9
 73
     3
  0
SEQEND
  5
374
  8
0
 62
     9
  0
ENDBLK
  5
377
  8
0
  0
BLOCK
  8
0
  2
E3_NODE_25_
 70
     0
 10
0.0
 20
0.0
 30
0.0
  3
E3_NODE_25_
  1

  0
POLYLINE
  5
379
  8
0
 62
     9
 66
     1
 10
0.0
 20
0.0
 30
0.0
 70
    64
 71
    22
 72
    24
  0
VERTEX
  5
37A
  8
0
 10
13.0939998626709
 20
15.11800003051758
 30
92.04199981689453
 70
   192
  0
VERTEX
  5
37B
  8
0
 10
14.16300010681152
 20
14.56099987030029
 30
91.5719985961914
 70
   192
  0
VERTEX
  5
37C
  8
0
 10
14.10799980163574
 20
14.80099964141846
 30
91.15299987792969
 70
   192
  0
VERTEX
  5
37D
  8
0
 10
13.39400005340576
 20
14.85200023651123
 30
92.81500244140625
 70
   192
  0
VERTEX
  5
37E
  8
0
 10
14.46399974822998
 20
14.37600040435791
 30
91.91799926757812
 70
   192
  0
VERTEX
  5
37F
  8
0
 10
14.05300045013428
 20
14.23099994659424
 30
93.73300170898438
 70
   192
  0
VERTEX
  5
380
  8
0
 10
15.11400032043457
 20
13.96399974822998
 30
92.2699966430664
 70
   192
  0
VERTEX
  5
381
  8
0
 10
15.08100032806396
 20
13.13599967956543
 30
94.4729995727539
 70
   192
  0
VERTEX
  5
382
  8
0
 10
16.08799934387207
 20
13.32600021362305
 30
92.41100311279297
 70
   192
  0
VERTEX
  5
383
  8
0
 10
15.86800003051758
 20
12.17399978637695
 30
94.65299987792969
 70
   192
  0
VERTEX
  5
384
  8
0
 10
16.7859992980957
 20
12.87800025939941
 30
92.28600311279297
 70
   192
  0
VERTEX
  5
385
  8
0
 10
17.75600051879883
 20
14.5
 30
91.56800079345703
 70
   192
  0
VERTEX
  5
386
  8
0
 10
18.24799919128418
 20
14.0
 30
91.65299987792969
 70
   192
  0
VERTEX
  5
387
  8
0
 10
18.20000076293945
 20
14.5
 30
91.63300323486328
 70
   192
  0
VERTEX
  5
388
  8
0
 10
18.25
 20
14.01099967956543
 30
91.65299987792969
 70
   192
  0
VERTEX
  5
389
  8
0
 10
18.31900024414062
 20
14.5
 30
91.65299987792969
 70
   192
  0
VERTEX
  5
38A
  8
0
 10
16.38500022888184
 20
14.5
 30
91.36799621582031
 70
   192
  0
VERTEX
  5
38B
  8
0
 10
15.52999973297119
 20
14.5
 30
91.24400329589844
 70
   192
  0
VERTEX
  5
38C
  8
0
 10
15.12800025939941
 20
14.5
 30
91.18499755859375
 70
   192
  0
VERTEX
  5
38D
  8
0
 10
14.9350004196167
 20
14.5
 30
91.15699768066406
 70
   192
  0
VERTEX
  5
38E
  8
0
 10
14.92500019073486
 20
14.5
 30
91.15299987792969
 70
   192
  0
VERTEX
  5
38F
  8
0
 10
12.97799968719482
 20
15.21700000762939
 30
91.15299987792969
 70
   192
  0
VERTEX
  5
390
  8
0
 62
     9
 10
0.0
 20
0.0
 30
0.0
 70
   128
 71
     3
 72
     2
 73
     1
  0
VERTEX
  5
391
  8
0
 62
     9
 10
0.0
 20
0.0
 30
0.0
 70
   128
 71
     2
 72
     5
 73
     4
  0
VERTEX
  5
392
  8
0
 62
     9
 10
0.0
 20
0.0
 30
0.0
 70
   128
 71
     5
 72
     7
 73
     6
  0
VERTEX
  5
393
  8
0
 62
     9
 10
0.0
 20
0.0
 30
0.0
 70
   128
 71
     7
 72
     9
 73
     8
  0
VERTEX
  5
394
  8
0
 62
     9
 10
0.0
 20
0.0
 30
0.0
 70
   128
 71
     9
 72
    11
 73
    10
  0
VERTEX
  5
395
  8
0
 62
     9
 10
0.0
 20
0.0
 30
0.0
 70
   128
 71
    11
 72
     9
 73
    12
  0
VERTEX
  5
396
  8
0
 62
     9
 10
0.0
 20
0.0
 30
0.0
 70
   128
 71
    12
 72
    14
 73
    13
  0
VERTEX
  5
397
  8
0
 62
     9
 10
0.0
 20
0.0
 30
0.0
 70
   128
 71
    15
 72
    13
 73
    14
  0
VERTEX
  5
398
  8
0
 62
     9
 10
0.0
 20
0.0
 30
0.0
 70
   128
 71
    14
 72
    16
 73
    15
  0
VERTEX
  5
399
  8
0
 62
     9
 10
0.0
 20
0.0
 30
0.0
 70
   128
 71
    17
 72
    12
 73
     9
  0
VERTEX
  5
39A
  8
0
 62
     9
 10
0.0
 20
0.0
 30
0.0
 70
   128
 71
    18
 72
    17
 73
     7
  0
VERTEX
  5
39B
  8
0
 62
     9
 10
0.0
 20
0.0
 30
0.0
 70
   128
 71
    19
 72
    18
 73
     5
  0
VERTEX
  5
39C
  8
0
 62
     9
 10
0.0
 20
0.0
 30
0.0
 70
   128
 71
    21
 72
    20
 73
     2
  0
VERTEX
  5
39D
  8
0
 62
     9
 10
0.0
 20
0.0
 30
0.0
 70
   128
 71
    20
 72
    19
 73
     2
  0
VERTEX
  5
39E
  8
0
 62
     9
 10
0.0
 20
0.0
 30
0.0
 70
   128
 71
     2
 72
     3
 73
    21
  0
VERTEX
  5
39F
  8
0
 62
     9
 10
0.0
 20
0.0
 30
0.0
 70
   128
 71
     5
 72
     2
 73
    19
  0
VERTEX
  5
3A0
  8
0
 62
     9
 10
0.0
 20
0.0
 30
0.0
 70
   128
 71
     7
 72
     5
 73
    18
  0
VERTEX
  5
3A1
  8
0
 62
     9
 10
0.0
 20
0.0
 30
0.0
 70
   128
 71
     9
 72
     7
 73
    17
  0
VERTEX
  5
3A2
  8
0
 62
     9
 10
0.0
 20
0.0
 30
0.0
 70
   128
 71
    12
 72
    13
 73
    11
  0
VERTEX
  5
3A3
  8
0
 62
     9
 10
0.0
 20
0.0
 30
0.0
 70
   128
 71
    10
 72
     8
 73
     9
  0
VERTEX
  5
3A4
  8
0
 62
     9
 10
0.0
 20
0.0
 30
0.0
 70
   128
 71
     8
 72
     6
 73
     7
  0
VERTEX
  5
3A5
  8
0
 62
     9
 10
0.0
 20
0.0
 30
0.0
 70
   128
 71
     6
 72
     4
 73
     5
  0
VERTEX
  5
3A6
  8
0
 62
     9
 10
0.0
 20
0.0
 30
0.0
 70
   128
 71
     4
 72
     1
 73
     2
  0
VERTEX
  5
3A7
  8
0
 62
     9
 10
0.0
 20
0.0
 30
0.0
 70
   128
 71
     1
 72
    22
 73
     3
  0
SEQEND
  5
3A8
  8
0
 62
     9
  0
ENDBLK
  5
3AB
  8
0
  0
BLOCK
  8
0
  2
E3_NODE_26_
 70
     0
 10
0.0
 20
0.0
 30
0.0
  3
E3_NODE_26_
  1

  0
POLYLINE
  5
3AD
  8
0
 62
     9
 66
     1
 10
0.0
 20
0.0
 30
0.0
 70
    64
 71
     9
 72
     7
  0
VERTEX
  5
3AE
  8
0
 10
12.97799968719482
 20
15.21700000762939
 30
79.65299987792969
 70
   192
  0
VERTEX
  5
3AF
  8
0
 10
12.97799968719482
 20
15.21700000762939
 30
91.15299987792969
 70
   192
  0
VERTEX
  5
3B0
  8
0
 10
14.10799980163574
 20
14.80099964141846
 30
91.15299987792969
 70
   192
  0
VERTEX
  5
3B1
  8
0
 10
14.92500019073486
 20
14.5
 30
79.65299987792969
 70
   192
  0
VERTEX
  5
3B2
  8
0
 10
14.92500019073486
 20
14.5
 30
75.8740005493164
 70
   192
  0
VERTEX
  5
3B3
  8
0
 10
14.48600006103516
 20
14.5319995880127
 30
75.33399963378906
 70
   192
  0
VERTEX
  5
3B4
  8
0
 10
12.98700046539307
 20
15.20899963378906
 30
73.18499755859375
 70
   192
  0
VERTEX
  5
3B5
  8
0
 10
12.97799968719482
 20
15.21700000762939
 30
73.16899871826172
 70
   192
  0
VERTEX
  5
3B6
  8
0
 10
14.92500019073486
 20
14.5
 30
91.15299987792969
 70
   192
  0
VERTEX
  5
3B7
  8
0
 62
     9
 10
0.0
 20
0.0
 30
0.0
 70
   128
 71
     3
 72
     2
 73
     1
  0
VERTEX
  5
3B8
  8
0
 62
     9
 10
0.0
 20
0.0
 30
0.0
 70
   128
 71
     1
 72
     4
 73
     3
  0
VERTEX
  5
3B9
  8
0
 62
     9
 10
0.0
 20
0.0
 30
0.0
 70
   128
 71
     5
 72
     4
 73
     1
  0
VERTEX
  5
3BA
  8
0
 62
     9
 10
0.0
 20
0.0
 30
0.0
 70
   128
 71
     1
 72
     6
 73
     5
  0
VERTEX
  5
3BB
  8
0
 62
     9
 10
0.0
 20
0.0
 30
0.0
 70
   128
 71
     1
 72
     7
 73
     6
  0
VERTEX
  5
3BC
  8
0
 62
     9
 10
0.0
 20
0.0
 30
0.0
 70
   128
 71
     1
 72
     8
 73
     7
  0
VERTEX
  5
3BD
  8
0
 62
     9
 10
0.0
 20
0.0
 30
0.0
 70
   128
 71
     4
 72
     9
 73
     3
  0
SEQEND
  5
3BE
  8
0
 62
     9
  0
ENDBLK
  5
3C1
  8
0
  0
BLOCK
  8
0
  2
E3_NODE_27_
 70
     0
 10
0.0
 20
0.0
 30
0.0
  3
E3_NODE_27_
  1

  0
POLYLINE
  5
3C3
  8
0
 62
     9
 66
     1
 10
0.0
 20
0.0
 30
0.0
 70
    64
 71
    58
 72
    68
  0
VERTEX
  5
3C4
  8
0
 10
18.4419994354248
 20
11.10599994659424
 30
73.7229995727539
 70
   192
  0
VERTEX
  5
3C5
  8
0
 10
16.06900024414062
 20
11.9069995880127
 30
69.6500015258789
 70
   192
  0
VERTEX
  5
3C6
  8
0
 10
13.40999984741211
 20
14.83800029754639
 30
72.70500183105469
 70
   192
  0
VERTEX
  5
3C7
  8
0
 10
24.33099937438965
 20
9.564000129699707
 30
74.87899780273438
 70
   192
  0
VERTEX
  5
3C8
  8
0
 10
20.01799964904785
 20
8.49899959564209
 30
72.23899841308594
 70
   192
  0
VERTEX
  5
3C9
  8
0
 10
17.68099975585938
 20
9.347999572753906
 30
67.70899963378906
 70
   192
  0
VERTEX
  5
3CA
  8
0
 10
25.27400016784668
 20
7.697999954223633
 30
74.20899963378906
 70
   192
  0
VERTEX
  5
3CB
  8
0
 10
21.3120002746582
 20
5.254000186920166
 30
70.98799896240234
 70
   192
  0
VERTEX
  5
3CC
  8
0
 10
19.00099945068359
 20
6.171999931335449
 30
66.08699798583984
 70
   192
  0
VERTEX
  5
3CD
  8
0
 10
19.09600067138672
 20
5.943999767303467
 30
65.97000122070312
 70
   192
  0
VERTEX
  5
3CE
  8
0
 10
26.65900039672852
 20
4.35699987411499
 30
73.2249984741211
 70
   192
  0
VERTEX
  5
3CF
  8
0
 10
21.6879997253418
 20
3.769999980926514
 30
70.61900329589844
 70
   192
  0
VERTEX
  5
3D0
  8
0
 10
19.53000068664551
 20
4.308000087738037
 30
65.43199920654297
 70
   192
  0
VERTEX
  5
3D1
  8
0
 10
27.13800048828125
 20
1.837000012397766
 30
72.88600158691406
 70
   192
  0
VERTEX
  5
3D2
  8
0
 10
22.01199913024902
 20
1.577999949455261
 30
70.29900360107422
 70
   192
  0
VERTEX
  5
3D3
  8
0
 10
27.14299964904785
 20
0.0
 30
72.88200378417969
 70
   192
  0
VERTEX
  5
3D4
  8
0
 10
22.01899909973145
 20
-1.498999953269958
 30
70.29199981689453
 70
   192
  0
VERTEX
  5
3D5
  8
0
 10
19.91699981689453
 20
1.820999979972839
 30
64.9520034790039
 70
   192
  0
VERTEX
  5
3D6
  8
0
 10
27.14800071716309
 20
-1.745000004768372
 30
72.87899780273438
 70
   192
  0
VERTEX
  5
3D7
  8
0
 10
26.85799980163574
 20
-3.536999940872192
 30
73.08399963378906
 70
   192
  0
VERTEX
  5
3D8
  8
0
 10
21.82399940490723
 20
-3.051000118255615
 30
70.48500061035156
 70
   192
  0
VERTEX
  5
3D9
  8
0
 10
19.69099998474121
 20
-3.5
 30
65.23300170898438
 70
   192
  0
VERTEX
  5
3DA
  8
0
 10
19.92499923706055
 20
-1.730000019073486
 30
64.94200134277344
 70
   192
  0
VERTEX
  5
3DB
  8
0
 10
25.67799949645996
 20
-7.084000110626221
 30
73.9209976196289
 70
   192
  0
VERTEX
  5
3DC
  8
0
 10
21.00099945068359
 20
-6.206999778747559
 30
71.29100036621094
 70
   192
  0
VERTEX
  5
3DD
  8
0
 10
18.96500015258789
 20
-6.164999961853027
 30
66.13099670410156
 70
   192
  0
VERTEX
  5
3DE
  8
0
 10
18.74600028991699
 20
-6.96999979019165
 30
66.40299987792969
 70
   192
  0
VERTEX
  5
3DF
  8
0
 10
25.35799980163574
 20
-7.717000007629395
 30
74.14900207519531
 70
   192
  0
VERTEX
  5
3E0
  8
0
 10
24.92499923706055
 20
-8.572999954223633
 30
74.45700073242188
 70
   192
  0
VERTEX
  5
3E1
  8
0
 10
20.45700073242188
 20
-7.573999881744385
 30
71.81900024414062
 70
   192
  0
VERTEX
  5
3E2
  8
0
 10
18.14900016784668
 20
-8.402999877929688
 30
67.13700103759766
 70
   192
  0
VERTEX
  5
3E3
  8
0
 10
22.42200088500977
 20
-12.10999965667725
 30
76.22899627685547
 70
   192
  0
VERTEX
  5
3E4
  8
0
 10
18.56599998474121
 20
-10.92899990081787
 30
73.60800170898438
 70
   192
  0
VERTEX
  5
3E5
  8
0
 10
16.19300079345703
 20
-11.73900032043457
 30
69.50299835205078
 70
   192
  0
VERTEX
  5
3E6
  8
0
 10
20.37899971008301
 20
-14.18599987030029
 30
77.6500015258789
 70
   192
  0
VERTEX
  5
3E7
  8
0
 10
16.95599937438965
 20
-12.96300029754639
 30
75.072998046875
 70
   192
  0
VERTEX
  5
3E8
  8
0
 10
14.62399959564209
 20
-13.64299964904785
 30
71.33799743652344
 70
   192
  0
VERTEX
  5
3E9
  8
0
 10
17.78899955749512
 20
-14.5
 30
77.6050033569336
 70
   192
  0
VERTEX
  5
3EA
  8
0
 10
15.97500038146973
 20
-14.5
 30
76.81199645996094
 70
   192
  0
VERTEX
  5
3EB
  8
0
 10
20.02400016784668
 20
-14.5
 30
77.89299774169922
 70
   192
  0
VERTEX
  5
3EC
  8
0
 10
14.4980001449585
 20
-14.5310001373291
 30
75.3489990234375
 70
   192
  0
VERTEX
  5
3ED
  8
0
 10
12.98700046539307
 20
-15.20899963378906
 30
73.18499755859375
 70
   192
  0
VERTEX
  5
3EE
  8
0
 10
15.49199962615967
 20
-14.5
 30
76.37999725341797
 70
   192
  0
VERTEX
  5
3EF
  8
0
 10
14.92500019073486
 20
-14.5
 30
75.8740005493164
 70
   192
  0
VERTEX
  5
3F0
  8
0
 10
15.66499996185303
 20
14.29399967193604
 30
76.21900177001953
 70
   192
  0
VERTEX
  5
3F1
  8
0
 10
14.48600006103516
 20
14.5319995880127
 30
75.33399963378906
 70
   192
  0
VERTEX
  5
3F2
  8
0
 10
14.92500019073486
 20
14.5
 30
75.8740005493164
 70
   192
  0
VERTEX
  5
3F3
  8
0
 10
12.98700046539307
 20
15.20899963378906
 30
73.18499755859375
 70
   192
  0
VERTEX
  5
3F4
  8
0
 10
12.97799968719482
 20
15.21700000762939
 30
73.16899871826172
 70
   192
  0
VERTEX
  5
3F5
  8
0
 10
15.91499996185303
 20
14.5
 30
76.77100372314453
 70
   192
  0
VERTEX
  5
3F6
  8
0
 10
16.57399940490723
 20
14.5
 30
77.15499877929688
 70
   192
  0
VERTEX
  5
3F7
  8
0
 10
15.48799991607666
 20
14.5
 30
76.38400268554688
 70
   192
  0
VERTEX
  5
3F8
  8
0
 10
18.70000076293945
 20
14.5
 30
77.79100036621094
 70
   192
  0
VERTEX
  5
3F9
  8
0
 10
20.02400016784668
 20
14.5
 30
77.89299774169922
 70
   192
  0
VERTEX
  5
3FA
  8
0
 10
16.58600044250488
 20
14.5
 30
77.15899658203125
 70
   192
  0
VERTEX
  5
3FB
  8
0
 10
22.26300048828125
 20
12.29199981689453
 30
76.34100341796875
 70
   192
  0
VERTEX
  5
3FC
  8
0
 10
12.97799968719482
 20
-15.21700000762939
 30
73.16899871826172
 70
   192
  0
VERTEX
  5
3FD
  8
0
 10
26.11700057983398
 20
6.028999805450439
 30
73.61000061035156
 70
   192
  0
VERTEX
  5
3FE
  8
0
 62
     9
 10
0.0
 20
0.0
 30
0.0
 70
   128
 71
     3
 72
     2
 73
     1
  0
VERTEX
  5
3FF
  8
0
 62
     9
 10
0.0
 20
0.0
 30
0.0
 70
   128
 71
     1
 72
     5
 73
     4
  0
VERTEX
  5
400
  8
0
 62
     9
 10
0.0
 20
0.0
 30
0.0
 70
   128
 71
     2
 72
     6
 73
     5
  0
VERTEX
  5
401
  8
0
 62
     9
 10
0.0
 20
0.0
 30
0.0
 70
   128
 71
     7
 72
     4
 73
     5
  0
VERTEX
  5
402
  8
0
 62
     9
 10
0.0
 20
0.0
 30
0.0
 70
   128
 71
     5
 72
     8
 73
     7
  0
VERTEX
  5
403
  8
0
 62
     9
 10
0.0
 20
0.0
 30
0.0
 70
   128
 71
     6
 72
     9
 73
     8
  0
VERTEX
  5
404
  8
0
 62
     9
 10
0.0
 20
0.0
 30
0.0
 70
   128
 71
     9
 72
    10
 73
     8
  0
VERTEX
  5
405
  8
0
 62
     9
 10
0.0
 20
0.0
 30
0.0
 70
   128
 71
     8
 72
    12
 73
    11
  0
VERTEX
  5
406
  8
0
 62
     9
 10
0.0
 20
0.0
 30
0.0
 70
   128
 71
    10
 72
    13
 73
    12
  0
VERTEX
  5
407
  8
0
 62
     9
 10
0.0
 20
0.0
 30
0.0
 70
   128
 71
    12
 72
    15
 73
    14
  0
VERTEX
  5
408
  8
0
 62
     9
 10
0.0
 20
0.0
 30
0.0
 70
   128
 71
    15
 72
    12
 73
    13
  0
VERTEX
  5
409
  8
0
 62
     9
 10
0.0
 20
0.0
 30
0.0
 70
   128
 71
    16
 72
    14
 73
    15
  0
VERTEX
  5
40A
  8
0
 62
     9
 10
0.0
 20
0.0
 30
0.0
 70
   128
 71
    15
 72
    17
 73
    16
  0
VERTEX
  5
40B
  8
0
 62
     9
 10
0.0
 20
0.0
 30
0.0
 70
   128
 71
    17
 72
    15
 73
    18
  0
VERTEX
  5
40C
  8
0
 62
     9
 10
0.0
 20
0.0
 30
0.0
 70
   128
 71
    21
 72
    20
 73
    19
  0
VERTEX
  5
40D
  8
0
 62
     9
 10
0.0
 20
0.0
 30
0.0
 70
   128
 71
    17
 72
    23
 73
    22
  0
VERTEX
  5
40E
  8
0
 62
     9
 10
0.0
 20
0.0
 30
0.0
 70
   128
 71
    25
 72
    24
 73
    20
  0
VERTEX
  5
40F
  8
0
 62
     9
 10
0.0
 20
0.0
 30
0.0
 70
   128
 71
    26
 72
    25
 73
    21
  0
VERTEX
  5
410
  8
0
 62
     9
 10
0.0
 20
0.0
 30
0.0
 70
   128
 71
    26
 72
    27
 73
    25
  0
VERTEX
  5
411
  8
0
 62
     9
 10
0.0
 20
0.0
 30
0.0
 70
   128
 71
    29
 72
    28
 73
    25
  0
VERTEX
  5
412
  8
0
 62
     9
 10
0.0
 20
0.0
 30
0.0
 70
   128
 71
    28
 72
    24
 73
    25
  0
VERTEX
  5
413
  8
0
 62
     9
 10
0.0
 20
0.0
 30
0.0
 70
   128
 71
    31
 72
    30
 73
    25
  0
VERTEX
  5
414
  8
0
 62
     9
 10
0.0
 20
0.0
 30
0.0
 70
   128
 71
    33
 72
    32
 73
    29
  0
VERTEX
  5
415
  8
0
 62
     9
 10
0.0
 20
0.0
 30
0.0
 70
   128
 71
    34
 72
    33
 73
    30
  0
VERTEX
  5
416
  8
0
 62
     9
 10
0.0
 20
0.0
 30
0.0
 70
   128
 71
    36
 72
    35
 73
    32
  0
VERTEX
  5
417
  8
0
 62
     9
 10
0.0
 20
0.0
 30
0.0
 70
   128
 71
    37
 72
    36
 73
    33
  0
VERTEX
  5
418
  8
0
 62
     9
 10
0.0
 20
0.0
 30
0.0
 70
   128
 71
    39
 72
    38
 73
    36
  0
VERTEX
  5
419
  8
0
 62
     9
 10
0.0
 20
0.0
 30
0.0
 70
   128
 71
    40
 72
    35
 73
    36
  0
VERTEX
  5
41A
  8
0
 62
     9
 10
0.0
 20
0.0
 30
0.0
 70
   128
 71
    36
 72
    38
 73
    40
  0
VERTEX
  5
41B
  8
0
 62
     9
 10
0.0
 20
0.0
 30
0.0
 70
   128
 71
    41
 72
    36
 73
    37
  0
VERTEX
  5
41C
  8
0
 62
     9
 10
0.0
 20
0.0
 30
0.0
 70
   128
 71
    37
 72
    42
 73
    41
  0
VERTEX
  5
41D
  8
0
 62
     9
 10
0.0
 20
0.0
 30
0.0
 70
   128
 71
    44
 72
    43
 73
    36
  0
VERTEX
  5
41E
  8
0
 62
     9
 10
0.0
 20
0.0
 30
0.0
 70
   128
 71
    36
 72
    41
 73
    44
  0
VERTEX
  5
41F
  8
0
 62
     9
 10
0.0
 20
0.0
 30
0.0
 70
   128
 71
    47
 72
    46
 73
    45
  0
VERTEX
  5
420
  8
0
 62
     9
 10
0.0
 20
0.0
 30
0.0
 70
   128
 71
    46
 72
    48
 73
     3
  0
VERTEX
  5
421
  8
0
 62
     9
 10
0.0
 20
0.0
 30
0.0
 70
   128
 71
    48
 72
    49
 73
     3
  0
VERTEX
  5
422
  8
0
 62
     9
 10
0.0
 20
0.0
 30
0.0
 70
   128
 71
     3
 72
    45
 73
    46
  0
VERTEX
  5
423
  8
0
 62
     9
 10
0.0
 20
0.0
 30
0.0
 70
   128
 71
    51
 72
    50
 73
    45
  0
VERTEX
  5
424
  8
0
 62
     9
 10
0.0
 20
0.0
 30
0.0
 70
   128
 71
    50
 72
    52
 73
    45
  0
VERTEX
  5
425
  8
0
 62
     9
 10
0.0
 20
0.0
 30
0.0
 70
   128
 71
    54
 72
    53
 73
     1
  0
VERTEX
  5
426
  8
0
 62
     9
 10
0.0
 20
0.0
 30
0.0
 70
   128
 71
    55
 72
    45
 73
     1
  0
VERTEX
  5
427
  8
0
 62
     9
 10
0.0
 20
0.0
 30
0.0
 70
   128
 71
     1
 72
    53
 73
    55
  0
VERTEX
  5
428
  8
0
 62
     9
 10
0.0
 20
0.0
 30
0.0
 70
   128
 71
     1
 72
    56
 73
    54
  0
VERTEX
  5
429
  8
0
 62
     9
 10
0.0
 20
0.0
 30
0.0
 70
   128
 71
    45
 72
    55
 73
    51
  0
VERTEX
  5
42A
  8
0
 62
     9
 10
0.0
 20
0.0
 30
0.0
 70
   128
 71
    45
 72
    52
 73
    47
  0
VERTEX
  5
42B
  8
0
 62
     9
 10
0.0
 20
0.0
 30
0.0
 70
   128
 71
    37
 72
    57
 73
    42
  0
VERTEX
  5
42C
  8
0
 62
     9
 10
0.0
 20
0.0
 30
0.0
 70
   128
 71
    36
 72
    43
 73
    39
  0
VERTEX
  5
42D
  8
0
 62
     9
 10
0.0
 20
0.0
 30
0.0
 70
   128
 71
    33
 72
    34
 73
    37
  0
VERTEX
  5
42E
  8
0
 62
     9
 10
0.0
 20
0.0
 30
0.0
 70
   128
 71
    32
 72
    33
 73
    36
  0
VERTEX
  5
42F
  8
0
 62
     9
 10
0.0
 20
0.0
 30
0.0
 70
   128
 71
    30
 72
    31
 73
    34
  0
VERTEX
  5
430
  8
0
 62
     9
 10
0.0
 20
0.0
 30
0.0
 70
   128
 71
    29
 72
    30
 73
    33
  0
VERTEX
  5
431
  8
0
 62
     9
 10
0.0
 20
0.0
 30
0.0
 70
   128
 71
    25
 72
    27
 73
    31
  0
VERTEX
  5
432
  8
0
 62
     9
 10
0.0
 20
0.0
 30
0.0
 70
   128
 71
    25
 72
    30
 73
    29
  0
VERTEX
  5
433
  8
0
 62
     9
 10
0.0
 20
0.0
 30
0.0
 70
   128
 71
    21
 72
    22
 73
    26
  0
VERTEX
  5
434
  8
0
 62
     9
 10
0.0
 20
0.0
 30
0.0
 70
   128
 71
    20
 72
    21
 73
    25
  0
VERTEX
  5
435
  8
0
 62
     9
 10
0.0
 20
0.0
 30
0.0
 70
   128
 71
    22
 72
    21
 73
    17
  0
VERTEX
  5
436
  8
0
 62
     9
 10
0.0
 20
0.0
 30
0.0
 70
   128
 71
    19
 72
    17
 73
    21
  0
VERTEX
  5
437
  8
0
 62
     9
 10
0.0
 20
0.0
 30
0.0
 70
   128
 71
    18
 72
    23
 73
    17
  0
VERTEX
  5
438
  8
0
 62
     9
 10
0.0
 20
0.0
 30
0.0
 70
   128
 71
    17
 72
    19
 73
    16
  0
VERTEX
  5
439
  8
0
 62
     9
 10
0.0
 20
0.0
 30
0.0
 70
   128
 71
    13
 72
    18
 73
    15
  0
VERTEX
  5
43A
  8
0
 62
     9
 10
0.0
 20
0.0
 30
0.0
 70
   128
 71
    14
 72
    11
 73
    12
  0
VERTEX
  5
43B
  8
0
 62
     9
 10
0.0
 20
0.0
 30
0.0
 70
   128
 71
    12
 72
     8
 73
    10
  0
VERTEX
  5
43C
  8
0
 62
     9
 10
0.0
 20
0.0
 30
0.0
 70
   128
 71
    11
 72
    58
 73
     8
  0
VERTEX
  5
43D
  8
0
 62
     9
 10
0.0
 20
0.0
 30
0.0
 70
   128
 71
     8
 72
     5
 73
     6
  0
VERTEX
  5
43E
  8
0
 62
     9
 10
0.0
 20
0.0
 30
0.0
 70
   128
 71
     8
 72
    58
 73
     7
  0
VERTEX
  5
43F
  8
0
 62
     9
 10
0.0
 20
0.0
 30
0.0
 70
   128
 71
     5
 72
     1
 73
     2
  0
VERTEX
  5
440
  8
0
 62
     9
 10
0.0
 20
0.0
 30
0.0
 70
   128
 71
     4
 72
    56
 73
     1
  0
VERTEX
  5
441
  8
0
 62
     9
 10
0.0
 20
0.0
 30
0.0
 70
   128
 71
     1
 72
    45
 73
     3
  0
SEQEND
  5
442
  8
0
 62
     9
  0
ENDBLK
  5
445
  8
0
  0
BLOCK
  8
0
  2
E3_NODE_28_
 70
     0
 10
0.0
 20
0.0
 30
0.0
  3
E3_NODE_28_
  1

  0
POLYLINE
  5
447
  8
0
 62
     9
 66
     1
 10
0.0
 20
0.0
 30
0.0
 70
    64
 71
    15
 72
    13
  0
VERTEX
  5
448
  8
0
 10
76.93399810791016
 20
14.5
 30
91.65299987792969
 70
   192
  0
VERTEX
  5
449
  8
0
 10
18.25
 20
14.01099967956543
 30
91.65299987792969
 70
   192
  0
VERTEX
  5
44A
  8
0
 10
18.24799919128418
 20
14.0
 30
91.65299987792969
 70
   192
  0
VERTEX
  5
44B
  8
0
 10
76.93399810791016
 20
-14.5
 30
91.65299987792969
 70
   192
  0
VERTEX
  5
44C
  8
0
 10
22.9950008392334
 20
0.4670000076293945
 30
91.65299987792969
 70
   192
  0
VERTEX
  5
44D
  8
0
 10
18.31900024414062
 20
14.5
 30
91.65299987792969
 70
   192
  0
VERTEX
  5
44E
  8
0
 10
22.94700050354004
 20
-1.557000041007996
 30
91.65299987792969
 70
   192
  0
VERTEX
  5
44F
  8
0
 10
21.85400009155273
 20
-7.171000003814697
 30
91.65299987792969
 70
   192
  0
VERTEX
  5
450
  8
0
 10
22.16900062561035
 20
6.126999855041504
 30
91.65299987792969
 70
   192
  0
VERTEX
  5
451
  8
0
 10
18.89399909973145
 20
13.11600017547607
 30
91.65299987792969
 70
   192
  0
VERTEX
  5
452
  8
0
 10
21.13800048828125
 20
-9.0649995803833
 30
91.65299987792969
 70
   192
  0
VERTEX
  5
453
  8
0
 10
18.24799919128418
 20
-14.0
 30
91.65299987792969
 70
   192
  0
VERTEX
  5
454
  8
0
 10
21.54400062561035
 20
8.053000450134277
 30
91.65299987792969
 70
   192
  0
VERTEX
  5
455
  8
0
 10
18.25
 20
-14.01099967956543
 30
91.65299987792969
 70
   192
  0
VERTEX
  5
456
  8
0
 10
18.31900024414062
 20
-14.5
 30
91.65299987792969
 70
   192
  0
VERTEX
  5
457
  8
0
 62
     9
 10
0.0
 20
0.0
 30
0.0
 70
   128
 71
     3
 72
     2
 73
     1
  0
VERTEX
  5
458
  8
0
 62
     9
 10
0.0
 20
0.0
 30
0.0
 70
   128
 71
     5
 72
     1
 73
     4
  0
VERTEX
  5
459
  8
0
 62
     9
 10
0.0
 20
0.0
 30
0.0
 70
   128
 71
     2
 72
     6
 73
     1
  0
VERTEX
  5
45A
  8
0
 62
     9
 10
0.0
 20
0.0
 30
0.0
 70
   128
 71
     8
 72
     7
 73
     4
  0
VERTEX
  5
45B
  8
0
 62
     9
 10
0.0
 20
0.0
 30
0.0
 70
   128
 71
     5
 72
     9
 73
     1
  0
VERTEX
  5
45C
  8
0
 62
     9
 10
0.0
 20
0.0
 30
0.0
 70
   128
 71
     1
 72
    10
 73
     3
  0
VERTEX
  5
45D
  8
0
 62
     9
 10
0.0
 20
0.0
 30
0.0
 70
   128
 71
    12
 72
    11
 73
     4
  0
VERTEX
  5
45E
  8
0
 62
     9
 10
0.0
 20
0.0
 30
0.0
 70
   128
 71
     4
 72
     7
 73
     5
  0
VERTEX
  5
45F
  8
0
 62
     9
 10
0.0
 20
0.0
 30
0.0
 70
   128
 71
     1
 72
    13
 73
    10
  0
VERTEX
  5
460
  8
0
 62
     9
 10
0.0
 20
0.0
 30
0.0
 70
   128
 71
     4
 72
    14
 73
    12
  0
VERTEX
  5
461
  8
0
 62
     9
 10
0.0
 20
0.0
 30
0.0
 70
   128
 71
     1
 72
     9
 73
    13
  0
VERTEX
  5
462
  8
0
 62
     9
 10
0.0
 20
0.0
 30
0.0
 70
   128
 71
     4
 72
    11
 73
     8
  0
VERTEX
  5
463
  8
0
 62
     9
 10
0.0
 20
0.0
 30
0.0
 70
   128
 71
     4
 72
    15
 73
    14
  0
SEQEND
  5
464
  8
0
 62
     9
  0
ENDBLK
  5
467
  8
0
  0
BLOCK
  8
0
  2
E3_NODE_29_
 70
     0
 10
0.0
 20
0.0
 30
0.0
  3
E3_NODE_29_
  1

  0
POLYLINE
  5
469
  8
0
 62
     9
 66
     1
 10
0.0
 20
0.0
 30
0.0
 70
    64
 71
    36
 72
    40
  0
VERTEX
  5
46A
  8
0
 10
46.97600173950195
 20
0.0
 30
74.69999694824219
 70
   192
  0
VERTEX
  5
46B
  8
0
 10
46.94200134277344
 20
7.559999942779541
 30
75.62899780273438
 70
   192
  0
VERTEX
  5
46C
  8
0
 10
62.07099914550781
 20
7.435999870300293
 30
76.69400024414062
 70
   192
  0
VERTEX
  5
46D
  8
0
 10
62.10400009155273
 20
0.0
 30
76.15899658203125
 70
   192
  0
VERTEX
  5
46E
  8
0
 10
62.07099914550781
 20
-7.435999870300293
 30
76.69400024414062
 70
   192
  0
VERTEX
  5
46F
  8
0
 10
46.73099899291992
 20
-14.5
 30
78.125
 70
   192
  0
VERTEX
  5
470
  8
0
 10
24.92499923706055
 20
-8.572999954223633
 30
74.45700073242188
 70
   192
  0
VERTEX
  5
471
  8
0
 10
25.35799980163574
 20
-7.717000007629395
 30
74.14900207519531
 70
   192
  0
VERTEX
  5
472
  8
0
 10
46.94200134277344
 20
-7.559999942779541
 30
75.62899780273438
 70
   192
  0
VERTEX
  5
473
  8
0
 10
46.85900115966797
 20
-14.5
 30
78.125
 70
   192
  0
VERTEX
  5
474
  8
0
 10
22.42200088500977
 20
-12.10999965667725
 30
76.22899627685547
 70
   192
  0
VERTEX
  5
475
  8
0
 10
20.02400016784668
 20
-14.5
 30
77.89299774169922
 70
   192
  0
VERTEX
  5
476
  8
0
 10
20.37899971008301
 20
-14.18599987030029
 30
77.6500015258789
 70
   192
  0
VERTEX
  5
477
  8
0
 10
26.85799980163574
 20
-3.536999940872192
 30
73.08399963378906
 70
   192
  0
VERTEX
  5
478
  8
0
 10
27.14800071716309
 20
-1.745000004768372
 30
72.87899780273438
 70
   192
  0
VERTEX
  5
479
  8
0
 10
25.67799949645996
 20
-7.084000110626221
 30
73.9209976196289
 70
   192
  0
VERTEX
  5
47A
  8
0
 10
27.13800048828125
 20
1.837000012397766
 30
72.88600158691406
 70
   192
  0
VERTEX
  5
47B
  8
0
 10
26.65900039672852
 20
4.35699987411499
 30
73.2249984741211
 70
   192
  0
VERTEX
  5
47C
  8
0
 10
26.11700057983398
 20
6.028999805450439
 30
73.61000061035156
 70
   192
  0
VERTEX
  5
47D
  8
0
 10
27.14299964904785
 20
0.0
 30
72.88200378417969
 70
   192
  0
VERTEX
  5
47E
  8
0
 10
46.85900115966797
 20
14.5
 30
78.11699676513672
 70
   192
  0
VERTEX
  5
47F
  8
0
 10
24.33099937438965
 20
9.564000129699707
 30
74.87899780273438
 70
   192
  0
VERTEX
  5
480
  8
0
 10
22.26300048828125
 20
12.29199981689453
 30
76.34100341796875
 70
   192
  0
VERTEX
  5
481
  8
0
 10
25.27400016784668
 20
7.697999954223633
 30
74.20899963378906
 70
   192
  0
VERTEX
  5
482
  8
0
 10
50.17699813842773
 20
14.5
 30
78.1449966430664
 70
   192
  0
VERTEX
  5
483
  8
0
 10
61.98300170898438
 20
14.5
 30
78.1719970703125
 70
   192
  0
VERTEX
  5
484
  8
0
 10
76.88600158691406
 20
14.5
 30
78.20600128173828
 70
   192
  0
VERTEX
  5
485
  8
0
 10
76.76499938964844
 20
7.328999996185303
 30
77.57599639892578
 70
   192
  0
VERTEX
  5
486
  8
0
 10
76.72799682617188
 20
5.074999809265137
 30
77.37699890136719
 70
   192
  0
VERTEX
  5
487
  8
0
 10
76.71499633789062
 20
-3.299999952316284
 30
77.31099700927734
 70
   192
  0
VERTEX
  5
488
  8
0
 10
76.72000122070312
 20
-4.191999912261963
 30
77.34100341796875
 70
   192
  0
VERTEX
  5
489
  8
0
 10
76.72000122070312
 20
-0.0010000000474975
 30
77.33699798583984
 70
   192
  0
VERTEX
  5
48A
  8
0
 10
76.75700378417969
 20
-7.758999824523926
 30
77.53199768066406
 70
   192
  0
VERTEX
  5
48B
  8
0
 10
76.75299835205078
 20
-7.335000038146973
 30
77.50900268554688
 70
   192
  0
VERTEX
  5
48C
  8
0
 10
76.88600158691406
 20
-14.5
 30
78.20600128173828
 70
   192
  0
VERTEX
  5
48D
  8
0
 10
20.02400016784668
 20
14.5
 30
77.89299774169922
 70
   192
  0
VERTEX
  5
48E
  8
0
 62
     9
 10
0.0
 20
0.0
 30
0.0
 70
   128
 71
     3
 72
     2
 73
     1
  0
VERTEX
  5
48F
  8
0
 62
     9
 10
0.0
 20
0.0
 30
0.0
 70
   128
 71
     5
 72
     4
 73
     1
  0
VERTEX
  5
490
  8
0
 62
     9
 10
0.0
 20
0.0
 30
0.0
 70
   128
 71
     8
 72
     7
 73
     6
  0
VERTEX
  5
491
  8
0
 62
     9
 10
0.0
 20
0.0
 30
0.0
 70
   128
 71
     6
 72
    10
 73
     9
  0
VERTEX
  5
492
  8
0
 62
     9
 10
0.0
 20
0.0
 30
0.0
 70
   128
 71
     7
 72
    11
 73
     6
  0
VERTEX
  5
493
  8
0
 62
     9
 10
0.0
 20
0.0
 30
0.0
 70
   128
 71
    13
 72
    12
 73
     6
  0
VERTEX
  5
494
  8
0
 62
     9
 10
0.0
 20
0.0
 30
0.0
 70
   128
 71
     6
 72
    11
 73
    13
  0
VERTEX
  5
495
  8
0
 62
     9
 10
0.0
 20
0.0
 30
0.0
 70
   128
 71
    15
 72
    14
 73
     9
  0
VERTEX
  5
496
  8
0
 62
     9
 10
0.0
 20
0.0
 30
0.0
 70
   128
 71
    16
 72
     8
 73
     9
  0
VERTEX
  5
497
  8
0
 62
     9
 10
0.0
 20
0.0
 30
0.0
 70
   128
 71
     9
 72
    14
 73
    16
  0
VERTEX
  5
498
  8
0
 62
     9
 10
0.0
 20
0.0
 30
0.0
 70
   128
 71
     9
 72
     1
 73
    15
  0
VERTEX
  5
499
  8
0
 62
     9
 10
0.0
 20
0.0
 30
0.0
 70
   128
 71
    17
 72
     1
 73
     2
  0
VERTEX
  5
49A
  8
0
 62
     9
 10
0.0
 20
0.0
 30
0.0
 70
   128
 71
     2
 72
    18
 73
    17
  0
VERTEX
  5
49B
  8
0
 62
     9
 10
0.0
 20
0.0
 30
0.0
 70
   128
 71
     2
 72
    19
 73
    18
  0
VERTEX
  5
49C
  8
0
 62
     9
 10
0.0
 20
0.0
 30
0.0
 70
   128
 71
    17
 72
    20
 73
     1
  0
VERTEX
  5
49D
  8
0
 62
     9
 10
0.0
 20
0.0
 30
0.0
 70
   128
 71
    23
 72
    22
 73
    21
  0
VERTEX
  5
49E
  8
0
 62
     9
 10
0.0
 20
0.0
 30
0.0
 70
   128
 71
    24
 72
     2
 73
    21
  0
VERTEX
  5
49F
  8
0
 62
     9
 10
0.0
 20
0.0
 30
0.0
 70
   128
 71
    21
 72
    22
 73
    24
  0
VERTEX
  5
4A0
  8
0
 62
     9
 10
0.0
 20
0.0
 30
0.0
 70
   128
 71
    25
 72
     2
 73
     3
  0
VERTEX
  5
4A1
  8
0
 62
     9
 10
0.0
 20
0.0
 30
0.0
 70
   128
 71
    25
 72
    21
 73
     2
  0
VERTEX
  5
4A2
  8
0
 62
     9
 10
0.0
 20
0.0
 30
0.0
 70
   128
 71
    28
 72
    27
 73
    26
  0
VERTEX
  5
4A3
  8
0
 62
     9
 10
0.0
 20
0.0
 30
0.0
 70
   128
 71
    29
 72
     3
 73
     4
  0
VERTEX
  5
4A4
  8
0
 62
     9
 10
0.0
 20
0.0
 30
0.0
 70
   128
 71
    29
 72
    28
 73
     3
  0
VERTEX
  5
4A5
  8
0
 62
     9
 10
0.0
 20
0.0
 30
0.0
 70
   128
 71
    30
 72
     4
 73
     5
  0
VERTEX
  5
4A6
  8
0
 62
     9
 10
0.0
 20
0.0
 30
0.0
 70
   128
 71
     5
 72
    31
 73
    30
  0
VERTEX
  5
4A7
  8
0
 62
     9
 10
0.0
 20
0.0
 30
0.0
 70
   128
 71
    30
 72
    32
 73
     4
  0
VERTEX
  5
4A8
  8
0
 62
     9
 10
0.0
 20
0.0
 30
0.0
 70
   128
 71
    33
 72
     9
 73
    10
  0
VERTEX
  5
4A9
  8
0
 62
     9
 10
0.0
 20
0.0
 30
0.0
 70
   128
 71
     5
 72
     9
 73
    33
  0
VERTEX
  5
4AA
  8
0
 62
     9
 10
0.0
 20
0.0
 30
0.0
 70
   128
 71
    33
 72
    34
 73
     5
  0
VERTEX
  5
4AB
  8
0
 62
     9
 10
0.0
 20
0.0
 30
0.0
 70
   128
 71
    10
 72
    35
 73
    33
  0
VERTEX
  5
4AC
  8
0
 62
     9
 10
0.0
 20
0.0
 30
0.0
 70
   128
 71
     5
 72
    34
 73
    31
  0
VERTEX
  5
4AD
  8
0
 62
     9
 10
0.0
 20
0.0
 30
0.0
 70
   128
 71
     4
 72
    32
 73
    29
  0
VERTEX
  5
4AE
  8
0
 62
     9
 10
0.0
 20
0.0
 30
0.0
 70
   128
 71
    26
 72
     3
 73
    28
  0
VERTEX
  5
4AF
  8
0
 62
     9
 10
0.0
 20
0.0
 30
0.0
 70
   128
 71
     3
 72
    26
 73
    25
  0
VERTEX
  5
4B0
  8
0
 62
     9
 10
0.0
 20
0.0
 30
0.0
 70
   128
 71
    21
 72
    36
 73
    23
  0
VERTEX
  5
4B1
  8
0
 62
     9
 10
0.0
 20
0.0
 30
0.0
 70
   128
 71
     2
 72
    24
 73
    19
  0
VERTEX
  5
4B2
  8
0
 62
     9
 10
0.0
 20
0.0
 30
0.0
 70
   128
 71
     1
 72
    20
 73
    15
  0
VERTEX
  5
4B3
  8
0
 62
     9
 10
0.0
 20
0.0
 30
0.0
 70
   128
 71
     6
 72
     9
 73
     8
  0
VERTEX
  5
4B4
  8
0
 62
     9
 10
0.0
 20
0.0
 30
0.0
 70
   128
 71
     1
 72
     9
 73
     5
  0
VERTEX
  5
4B5
  8
0
 62
     9
 10
0.0
 20
0.0
 30
0.0
 70
   128
 71
     1
 72
     4
 73
     3
  0
SEQEND
  5
4B6
  8
0
 62
     9
  0
ENDBLK
  5
4B9
  8
0
  0
BLOCK
  8
0
  2
E3_NODE_30_
 70
     0
 10
0.0
 20
0.0
 30
0.0
  3
E3_NODE_30_
  1

  0
POLYLINE
  5
4BB
  8
0
 62
     9
 66
     1
 10
0.0
 20
0.0
 30
0.0
 70
    64
 71
    36
 72
    37
  0
VERTEX
  5
4BC
  8
0
 10
94.3239974975586
 20
-14.0310001373291
 30
65.79100036621094
 70
   192
  0
VERTEX
  5
4BD
  8
0
 10
94.35199737548828
 20
-14.5
 30
65.80000305175781
 70
   192
  0
VERTEX
  5
4BE
  8
0
 10
92.38099670410156
 20
-14.5
 30
69.8479995727539
 70
   192
  0
VERTEX
  5
4BF
  8
0
 10
91.85900115966797
 20
-14.5
 30
70.55500030517578
 70
   192
  0
VERTEX
  5
4C0
  8
0
 10
91.35800170898438
 20
0.0
 30
70.08000183105469
 70
   192
  0
VERTEX
  5
4C1
  8
0
 10
93.9260025024414
 20
-2.463000059127808
 30
65.66100311279297
 70
   192
  0
VERTEX
  5
4C2
  8
0
 10
93.98500061035156
 20
-0.0020000000949949
 30
65.68099975585938
 70
   192
  0
VERTEX
  5
4C3
  8
0
 10
87.26799774169922
 20
0.0
 30
73.78500366210938
 70
   192
  0
VERTEX
  5
4C4
  8
0
 10
90.86000061035156
 20
-14.5
 30
71.90799713134766
 70
   192
  0
VERTEX
  5
4C5
  8
0
 10
82.34400177001953
 20
0.0
 30
76.34500122070312
 70
   192
  0
VERTEX
  5
4C6
  8
0
 10
85.92500305175781
 20
-14.5
 30
76.02400207519531
 70
   192
  0
VERTEX
  5
4C7
  8
0
 10
87.68299865722656
 20
-14.5
 30
74.88700103759766
 70
   192
  0
VERTEX
  5
4C8
  8
0
 10
87.94200134277344
 20
-14.5
 30
74.6449966430664
 70
   192
  0
VERTEX
  5
4C9
  8
0
 10
76.72000122070312
 20
-4.191999912261963
 30
77.34100341796875
 70
   192
  0
VERTEX
  5
4CA
  8
0
 10
76.71499633789062
 20
-3.299999952316284
 30
77.31099700927734
 70
   192
  0
VERTEX
  5
4CB
  8
0
 10
82.87899780273438
 20
-14.5
 30
77.25800323486328
 70
   192
  0
VERTEX
  5
4CC
  8
0
 10
76.75299835205078
 20
-7.335000038146973
 30
77.50900268554688
 70
   192
  0
VERTEX
  5
4CD
  8
0
 10
76.75700378417969
 20
-7.758999824523926
 30
77.53199768066406
 70
   192
  0
VERTEX
  5
4CE
  8
0
 10
81.98999786376953
 20
-14.5
 30
77.61799621582031
 70
   192
  0
VERTEX
  5
4CF
  8
0
 10
80.15599822998047
 20
-14.5
 30
77.99800109863281
 70
   192
  0
VERTEX
  5
4D0
  8
0
 10
76.88600158691406
 20
-14.5
 30
78.20600128173828
 70
   192
  0
VERTEX
  5
4D1
  8
0
 10
76.76499938964844
 20
7.328999996185303
 30
77.57599639892578
 70
   192
  0
VERTEX
  5
4D2
  8
0
 10
76.88600158691406
 20
14.5
 30
78.20600128173828
 70
   192
  0
VERTEX
  5
4D3
  8
0
 10
81.19599914550781
 20
14.5
 30
77.80699920654297
 70
   192
  0
VERTEX
  5
4D4
  8
0
 10
76.72799682617188
 20
5.074999809265137
 30
77.37699890136719
 70
   192
  0
VERTEX
  5
4D5
  8
0
 10
76.72000122070312
 20
-0.0010000000474975
 30
77.33699798583984
 70
   192
  0
VERTEX
  5
4D6
  8
0
 10
82.9000015258789
 20
14.5
 30
77.2969970703125
 70
   192
  0
VERTEX
  5
4D7
  8
0
 10
83.82099914550781
 20
14.5
 30
77.02100372314453
 70
   192
  0
VERTEX
  5
4D8
  8
0
 10
87.56099700927734
 20
14.5
 30
74.97699737548828
 70
   192
  0
VERTEX
  5
4D9
  8
0
 10
89.00499725341797
 20
14.5
 30
73.81500244140625
 70
   192
  0
VERTEX
  5
4DA
  8
0
 10
87.95600128173828
 20
14.5
 30
74.65899658203125
 70
   192
  0
VERTEX
  5
4DB
  8
0
 10
91.8740005493164
 20
14.5
 30
70.56400299072266
 70
   192
  0
VERTEX
  5
4DC
  8
0
 10
94.3239974975586
 20
14.0310001373291
 30
65.79100036621094
 70
   192
  0
VERTEX
  5
4DD
  8
0
 10
91.99299621582031
 20
14.5
 30
70.43000030517578
 70
   192
  0
VERTEX
  5
4DE
  8
0
 10
92.6780014038086
 20
14.5
 30
69.36900329589844
 70
   192
  0
VERTEX
  5
4DF
  8
0
 10
94.35199737548828
 20
14.5
 30
65.80000305175781
 70
   192
  0
VERTEX
  5
4E0
  8
0
 62
     9
 10
0.0
 20
0.0
 30
0.0
 70
   128
 71
     3
 72
     2
 73
     1
  0
VERTEX
  5
4E1
  8
0
 62
     9
 10
0.0
 20
0.0
 30
0.0
 70
   128
 71
     6
 72
     5
 73
     4
  0
VERTEX
  5
4E2
  8
0
 62
     9
 10
0.0
 20
0.0
 30
0.0
 70
   128
 71
     4
 72
     1
 73
     6
  0
VERTEX
  5
4E3
  8
0
 62
     9
 10
0.0
 20
0.0
 30
0.0
 70
   128
 71
     6
 72
     7
 73
     5
  0
VERTEX
  5
4E4
  8
0
 62
     9
 10
0.0
 20
0.0
 30
0.0
 70
   128
 71
     9
 72
     5
 73
     8
  0
VERTEX
  5
4E5
  8
0
 62
     9
 10
0.0
 20
0.0
 30
0.0
 70
   128
 71
     9
 72
     4
 73
     5
  0
VERTEX
  5
4E6
  8
0
 62
     9
 10
0.0
 20
0.0
 30
0.0
 70
   128
 71
    11
 72
     8
 73
    10
  0
VERTEX
  5
4E7
  8
0
 62
     9
 10
0.0
 20
0.0
 30
0.0
 70
   128
 71
    11
 72
    12
 73
     8
  0
VERTEX
  5
4E8
  8
0
 62
     9
 10
0.0
 20
0.0
 30
0.0
 70
   128
 71
    12
 72
    13
 73
     8
  0
VERTEX
  5
4E9
  8
0
 62
     9
 10
0.0
 20
0.0
 30
0.0
 70
   128
 71
    15
 72
    14
 73
    10
  0
VERTEX
  5
4EA
  8
0
 62
     9
 10
0.0
 20
0.0
 30
0.0
 70
   128
 71
    17
 72
    16
 73
    10
  0
VERTEX
  5
4EB
  8
0
 62
     9
 10
0.0
 20
0.0
 30
0.0
 70
   128
 71
    10
 72
    14
 73
    17
  0
VERTEX
  5
4EC
  8
0
 62
     9
 10
0.0
 20
0.0
 30
0.0
 70
   128
 71
    19
 72
    16
 73
    18
  0
VERTEX
  5
4ED
  8
0
 62
     9
 10
0.0
 20
0.0
 30
0.0
 70
   128
 71
    18
 72
    20
 73
    19
  0
VERTEX
  5
4EE
  8
0
 62
     9
 10
0.0
 20
0.0
 30
0.0
 70
   128
 71
    18
 72
    21
 73
    20
  0
VERTEX
  5
4EF
  8
0
 62
     9
 10
0.0
 20
0.0
 30
0.0
 70
   128
 71
    16
 72
    17
 73
    18
  0
VERTEX
  5
4F0
  8
0
 62
     9
 10
0.0
 20
0.0
 30
0.0
 70
   128
 71
    24
 72
    23
 73
    22
  0
VERTEX
  5
4F1
  8
0
 62
     9
 10
0.0
 20
0.0
 30
0.0
 70
   128
 71
    22
 72
    25
 73
    10
  0
VERTEX
  5
4F2
  8
0
 62
     9
 10
0.0
 20
0.0
 30
0.0
 70
   128
 71
    25
 72
    26
 73
    10
  0
VERTEX
  5
4F3
  8
0
 62
     9
 10
0.0
 20
0.0
 30
0.0
 70
   128
 71
    10
 72
    27
 73
    22
  0
VERTEX
  5
4F4
  8
0
 62
     9
 10
0.0
 20
0.0
 30
0.0
 70
   128
 71
    28
 72
    10
 73
     8
  0
VERTEX
  5
4F5
  8
0
 62
     9
 10
0.0
 20
0.0
 30
0.0
 70
   128
 71
    28
 72
    27
 73
    10
  0
VERTEX
  5
4F6
  8
0
 62
     9
 10
0.0
 20
0.0
 30
0.0
 70
   128
 71
     8
 72
    29
 73
    28
  0
VERTEX
  5
4F7
  8
0
 62
     9
 10
0.0
 20
0.0
 30
0.0
 70
   128
 71
    30
 72
     8
 73
     5
  0
VERTEX
  5
4F8
  8
0
 62
     9
 10
0.0
 20
0.0
 30
0.0
 70
   128
 71
    30
 72
    31
 73
     8
  0
VERTEX
  5
4F9
  8
0
 62
     9
 10
0.0
 20
0.0
 30
0.0
 70
   128
 71
    33
 72
    32
 73
     5
  0
VERTEX
  5
4FA
  8
0
 62
     9
 10
0.0
 20
0.0
 30
0.0
 70
   128
 71
    34
 72
    32
 73
    33
  0
VERTEX
  5
4FB
  8
0
 62
     9
 10
0.0
 20
0.0
 30
0.0
 70
   128
 71
    33
 72
    35
 73
    34
  0
VERTEX
  5
4FC
  8
0
 62
     9
 10
0.0
 20
0.0
 30
0.0
 70
   128
 71
    33
 72
    36
 73
    35
  0
VERTEX
  5
4FD
  8
0
 62
     9
 10
0.0
 20
0.0
 30
0.0
 70
   128
 71
     5
 72
     7
 73
    33
  0
VERTEX
  5
4FE
  8
0
 62
     9
 10
0.0
 20
0.0
 30
0.0
 70
   128
 71
     5
 72
    32
 73
    30
  0
VERTEX
  5
4FF
  8
0
 62
     9
 10
0.0
 20
0.0
 30
0.0
 70
   128
 71
     8
 72
    31
 73
    29
  0
VERTEX
  5
500
  8
0
 62
     9
 10
0.0
 20
0.0
 30
0.0
 70
   128
 71
    22
 72
    27
 73
    24
  0
VERTEX
  5
501
  8
0
 62
     9
 10
0.0
 20
0.0
 30
0.0
 70
   128
 71
    10
 72
    26
 73
    15
  0
VERTEX
  5
502
  8
0
 62
     9
 10
0.0
 20
0.0
 30
0.0
 70
   128
 71
    10
 72
    16
 73
    11
  0
VERTEX
  5
503
  8
0
 62
     9
 10
0.0
 20
0.0
 30
0.0
 70
   128
 71
     8
 72
    13
 73
     9
  0
VERTEX
  5
504
  8
0
 62
     9
 10
0.0
 20
0.0
 30
0.0
 70
   128
 71
     1
 72
     4
 73
     3
  0
SEQEND
  5
505
  8
0
 62
     9
  0
ENDBLK
  5
508
  8
0
  0
BLOCK
  8
0
  2
E3_NODE_31_
 70
     0
 10
0.0
 20
0.0
 30
0.0
  3
E3_NODE_31_
  1

  0
POLYLINE
  5
50A
  8
0
 62
     9
 66
     1
 10
0.0
 20
0.0
 30
0.0
 70
    64
 71
    37
 72
    35
  0
VERTEX
  5
50B
  8
0
 10
109.6500015258789
 20
14.5
 30
61.42100143432617
 70
   192
  0
VERTEX
  5
50C
  8
0
 10
97.08899688720703
 20
14.5
 30
57.34000015258789
 70
   192
  0
VERTEX
  5
50D
  8
0
 10
94.81199645996094
 20
14.5
 30
64.4469985961914
 70
   192
  0
VERTEX
  5
50E
  8
0
 10
17.75600051879883
 20
14.5
 30
91.56800079345703
 70
   192
  0
VERTEX
  5
50F
  8
0
 10
20.02400016784668
 20
14.5
 30
77.89299774169922
 70
   192
  0
VERTEX
  5
510
  8
0
 10
18.70000076293945
 20
14.5
 30
77.79100036621094
 70
   192
  0
VERTEX
  5
511
  8
0
 10
76.93399810791016
 20
14.5
 30
91.65299987792969
 70
   192
  0
VERTEX
  5
512
  8
0
 10
50.17699813842773
 20
14.5
 30
78.1449966430664
 70
   192
  0
VERTEX
  5
513
  8
0
 10
46.85900115966797
 20
14.5
 30
78.11699676513672
 70
   192
  0
VERTEX
  5
514
  8
0
 10
106.3769989013672
 20
14.5
 30
72.21399688720703
 70
   192
  0
VERTEX
  5
515
  8
0
 10
16.38500022888184
 20
14.5
 30
91.36799621582031
 70
   192
  0
VERTEX
  5
516
  8
0
 10
18.31900024414062
 20
14.5
 30
91.65299987792969
 70
   192
  0
VERTEX
  5
517
  8
0
 10
76.88600158691406
 20
14.5
 30
78.20600128173828
 70
   192
  0
VERTEX
  5
518
  8
0
 10
61.98300170898438
 20
14.5
 30
78.1719970703125
 70
   192
  0
VERTEX
  5
519
  8
0
 10
100.1679992675781
 20
14.5
 30
81.56199645996094
 70
   192
  0
VERTEX
  5
51A
  8
0
 10
92.6780014038086
 20
14.5
 30
69.36900329589844
 70
   192
  0
VERTEX
  5
51B
  8
0
 10
94.35199737548828
 20
14.5
 30
65.80000305175781
 70
   192
  0
VERTEX
  5
51C
  8
0
 10
18.20000076293945
 20
14.5
 30
91.63300323486328
 70
   192
  0
VERTEX
  5
51D
  8
0
 10
87.95600128173828
 20
14.5
 30
74.65899658203125
 70
   192
  0
VERTEX
  5
51E
  8
0
 10
87.56099700927734
 20
14.5
 30
74.97699737548828
 70
   192
  0
VERTEX
  5
51F
  8
0
 10
91.99299621582031
 20
14.5
 30
70.43000030517578
 70
   192
  0
VERTEX
  5
520
  8
0
 10
91.8740005493164
 20
14.5
 30
70.56400299072266
 70
   192
  0
VERTEX
  5
521
  8
0
 10
15.52999973297119
 20
14.5
 30
91.24400329589844
 70
   192
  0
VERTEX
  5
522
  8
0
 10
88.86900329589844
 20
14.5
 30
89.25900268554688
 70
   192
  0
VERTEX
  5
523
  8
0
 10
81.19599914550781
 20
14.5
 30
77.80699920654297
 70
   192
  0
VERTEX
  5
524
  8
0
 10
89.00499725341797
 20
14.5
 30
73.81500244140625
 70
   192
  0
VERTEX
  5
525
  8
0
 10
16.58600044250488
 20
14.5
 30
77.15899658203125
 70
   192
  0
VERTEX
  5
526
  8
0
 10
15.12800025939941
 20
14.5
 30
91.18499755859375
 70
   192
  0
VERTEX
  5
527
  8
0
 10
14.92500019073486
 20
14.5
 30
91.15299987792969
 70
   192
  0
VERTEX
  5
528
  8
0
 10
14.9350004196167
 20
14.5
 30
91.15699768066406
 70
   192
  0
VERTEX
  5
529
  8
0
 10
83.82099914550781
 20
14.5
 30
77.02100372314453
 70
   192
  0
VERTEX
  5
52A
  8
0
 10
82.9000015258789
 20
14.5
 30
77.2969970703125
 70
   192
  0
VERTEX
  5
52B
  8
0
 10
16.57399940490723
 20
14.5
 30
77.15499877929688
 70
   192
  0
VERTEX
  5
52C
  8
0
 10
14.92500019073486
 20
14.5
 30
79.65299987792969
 70
   192
  0
VERTEX
  5
52D
  8
0
 10
15.91499996185303
 20
14.5
 30
76.77100372314453
 70
   192
  0
VERTEX
  5
52E
  8
0
 10
15.48799991607666
 20
14.5
 30
76.38400268554688
 70
   192
  0
VERTEX
  5
52F
  8
0
 10
14.92500019073486
 20
14.5
 30
75.8740005493164
 70
   192
  0
VERTEX
  5
530
  8
0
 62
     9
 10
0.0
 20
0.0
 30
0.0
 70
   128
 71
     3
 72
     2
 73
     1
  0
VERTEX
  5
531
  8
0
 62
     9
 10
0.0
 20
0.0
 30
0.0
 70
   128
 71
     6
 72
     5
 73
     4
  0
VERTEX
  5
532
  8
0
 62
     9
 10
0.0
 20
0.0
 30
0.0
 70
   128
 71
     9
 72
     8
 73
     7
  0
VERTEX
  5
533
  8
0
 62
     9
 10
0.0
 20
0.0
 30
0.0
 70
   128
 71
     1
 72
    10
 73
     3
  0
VERTEX
  5
534
  8
0
 62
     9
 10
0.0
 20
0.0
 30
0.0
 70
   128
 71
     4
 72
    11
 73
     6
  0
VERTEX
  5
535
  8
0
 62
     9
 10
0.0
 20
0.0
 30
0.0
 70
   128
 71
     7
 72
    12
 73
     9
  0
VERTEX
  5
536
  8
0
 62
     9
 10
0.0
 20
0.0
 30
0.0
 70
   128
 71
    14
 72
    13
 73
     7
  0
VERTEX
  5
537
  8
0
 62
     9
 10
0.0
 20
0.0
 30
0.0
 70
   128
 71
    16
 72
    10
 73
    15
  0
VERTEX
  5
538
  8
0
 62
     9
 10
0.0
 20
0.0
 30
0.0
 70
   128
 71
    10
 72
    17
 73
     3
  0
VERTEX
  5
539
  8
0
 62
     9
 10
0.0
 20
0.0
 30
0.0
 70
   128
 71
     5
 72
    18
 73
     4
  0
VERTEX
  5
53A
  8
0
 62
     9
 10
0.0
 20
0.0
 30
0.0
 70
   128
 71
     7
 72
     8
 73
    14
  0
VERTEX
  5
53B
  8
0
 62
     9
 10
0.0
 20
0.0
 30
0.0
 70
   128
 71
    20
 72
    19
 73
    15
  0
VERTEX
  5
53C
  8
0
 62
     9
 10
0.0
 20
0.0
 30
0.0
 70
   128
 71
    22
 72
    21
 73
    15
  0
VERTEX
  5
53D
  8
0
 62
     9
 10
0.0
 20
0.0
 30
0.0
 70
   128
 71
    10
 72
    16
 73
    17
  0
VERTEX
  5
53E
  8
0
 62
     9
 10
0.0
 20
0.0
 30
0.0
 70
   128
 71
     6
 72
    11
 73
    23
  0
VERTEX
  5
53F
  8
0
 62
     9
 10
0.0
 20
0.0
 30
0.0
 70
   128
 71
    12
 72
     5
 73
     9
  0
VERTEX
  5
540
  8
0
 62
     9
 10
0.0
 20
0.0
 30
0.0
 70
   128
 71
    25
 72
    24
 73
     7
  0
VERTEX
  5
541
  8
0
 62
     9
 10
0.0
 20
0.0
 30
0.0
 70
   128
 71
    19
 72
    26
 73
    15
  0
VERTEX
  5
542
  8
0
 62
     9
 10
0.0
 20
0.0
 30
0.0
 70
   128
 71
    15
 72
    21
 73
    16
  0
VERTEX
  5
543
  8
0
 62
     9
 10
0.0
 20
0.0
 30
0.0
 70
   128
 71
    23
 72
    28
 73
    27
  0
VERTEX
  5
544
  8
0
 62
     9
 10
0.0
 20
0.0
 30
0.0
 70
   128
 71
    30
 72
    29
 73
    27
  0
VERTEX
  5
545
  8
0
 62
     9
 10
0.0
 20
0.0
 30
0.0
 70
   128
 71
     7
 72
    13
 73
    25
  0
VERTEX
  5
546
  8
0
 62
     9
 10
0.0
 20
0.0
 30
0.0
 70
   128
 71
    32
 72
    31
 73
    24
  0
VERTEX
  5
547
  8
0
 62
     9
 10
0.0
 20
0.0
 30
0.0
 70
   128
 71
    15
 72
    26
 73
    22
  0
VERTEX
  5
548
  8
0
 62
     9
 10
0.0
 20
0.0
 30
0.0
 70
   128
 71
    34
 72
    33
 73
    27
  0
VERTEX
  5
549
  8
0
 62
     9
 10
0.0
 20
0.0
 30
0.0
 70
   128
 71
    27
 72
    28
 73
    30
  0
VERTEX
  5
54A
  8
0
 62
     9
 10
0.0
 20
0.0
 30
0.0
 70
   128
 71
    24
 72
    25
 73
    32
  0
VERTEX
  5
54B
  8
0
 62
     9
 10
0.0
 20
0.0
 30
0.0
 70
   128
 71
    15
 72
    24
 73
    20
  0
VERTEX
  5
54C
  8
0
 62
     9
 10
0.0
 20
0.0
 30
0.0
 70
   128
 71
    36
 72
    35
 73
    34
  0
VERTEX
  5
54D
  8
0
 62
     9
 10
0.0
 20
0.0
 30
0.0
 70
   128
 71
    23
 72
    27
 73
     6
  0
VERTEX
  5
54E
  8
0
 62
     9
 10
0.0
 20
0.0
 30
0.0
 70
   128
 71
    24
 72
    31
 73
    20
  0
VERTEX
  5
54F
  8
0
 62
     9
 10
0.0
 20
0.0
 30
0.0
 70
   128
 71
    35
 72
    33
 73
    34
  0
VERTEX
  5
550
  8
0
 62
     9
 10
0.0
 20
0.0
 30
0.0
 70
   128
 71
     5
 72
    12
 73
    18
  0
VERTEX
  5
551
  8
0
 62
     9
 10
0.0
 20
0.0
 30
0.0
 70
   128
 71
    27
 72
    29
 73
    34
  0
VERTEX
  5
552
  8
0
 62
     9
 10
0.0
 20
0.0
 30
0.0
 70
   128
 71
    34
 72
    37
 73
    36
  0
SEQEND
  5
553
  8
0
 62
     9
  0
ENDBLK
  5
556
  8
0
  0
BLOCK
  8
0
  2
E3_NODE_32_
 70
     0
 10
0.0
 20
0.0
 30
0.0
  3
E3_NODE_32_
  1

  0
POLYLINE
  5
558
  8
0
 62
     9
 66
     1
 10
0.0
 20
0.0
 30
0.0
 70
    64
 71
    34
 72
    32
  0
VERTEX
  5
559
  8
0
 10
17.78899955749512
 20
-14.5
 30
77.6050033569336
 70
   192
  0
VERTEX
  5
55A
  8
0
 10
17.50300025939941
 20
-14.5
 30
91.53299713134766
 70
   192
  0
VERTEX
  5
55B
  8
0
 10
16.13299942016602
 20
-14.5
 30
91.33300018310547
 70
   192
  0
VERTEX
  5
55C
  8
0
 10
18.31900024414062
 20
-14.5
 30
91.65299987792969
 70
   192
  0
VERTEX
  5
55D
  8
0
 10
46.73099899291992
 20
-14.5
 30
78.125
 70
   192
  0
VERTEX
  5
55E
  8
0
 10
46.85900115966797
 20
-14.5
 30
78.125
 70
   192
  0
VERTEX
  5
55F
  8
0
 10
15.43400001525879
 20
-14.5
 30
91.2300033569336
 70
   192
  0
VERTEX
  5
560
  8
0
 10
76.93399810791016
 20
-14.5
 30
91.65299987792969
 70
   192
  0
VERTEX
  5
561
  8
0
 10
76.88600158691406
 20
-14.5
 30
78.20600128173828
 70
   192
  0
VERTEX
  5
562
  8
0
 10
15.0620002746582
 20
-14.5
 30
91.1760025024414
 70
   192
  0
VERTEX
  5
563
  8
0
 10
14.9350004196167
 20
-14.5
 30
91.15699768066406
 70
   192
  0
VERTEX
  5
564
  8
0
 10
18.3129997253418
 20
-14.5
 30
91.6520004272461
 70
   192
  0
VERTEX
  5
565
  8
0
 10
20.02400016784668
 20
-14.5
 30
77.89299774169922
 70
   192
  0
VERTEX
  5
566
  8
0
 10
109.6500015258789
 20
-14.5
 30
61.42100143432617
 70
   192
  0
VERTEX
  5
567
  8
0
 10
106.3769989013672
 20
-14.5
 30
72.21399688720703
 70
   192
  0
VERTEX
  5
568
  8
0
 10
94.81199645996094
 20
-14.5
 30
64.4469985961914
 70
   192
  0
VERTEX
  5
569
  8
0
 10
100.1679992675781
 20
-14.5
 30
81.56199645996094
 70
   192
  0
VERTEX
  5
56A
  8
0
 10
91.85900115966797
 20
-14.5
 30
70.55500030517578
 70
   192
  0
VERTEX
  5
56B
  8
0
 10
92.38099670410156
 20
-14.5
 30
69.8479995727539
 70
   192
  0
VERTEX
  5
56C
  8
0
 10
87.68299865722656
 20
-14.5
 30
74.88700103759766
 70
   192
  0
VERTEX
  5
56D
  8
0
 10
87.94200134277344
 20
-14.5
 30
74.6449966430664
 70
   192
  0
VERTEX
  5
56E
  8
0
 10
88.86900329589844
 20
-14.5
 30
89.25900268554688
 70
   192
  0
VERTEX
  5
56F
  8
0
 10
85.92500305175781
 20
-14.5
 30
76.02400207519531
 70
   192
  0
VERTEX
  5
570
  8
0
 10
14.92500019073486
 20
-14.5
 30
91.15299987792969
 70
   192
  0
VERTEX
  5
571
  8
0
 10
94.35199737548828
 20
-14.5
 30
65.80000305175781
 70
   192
  0
VERTEX
  5
572
  8
0
 10
90.86000061035156
 20
-14.5
 30
71.90799713134766
 70
   192
  0
VERTEX
  5
573
  8
0
 10
80.15599822998047
 20
-14.5
 30
77.99800109863281
 70
   192
  0
VERTEX
  5
574
  8
0
 10
81.98999786376953
 20
-14.5
 30
77.61799621582031
 70
   192
  0
VERTEX
  5
575
  8
0
 10
82.87899780273438
 20
-14.5
 30
77.25800323486328
 70
   192
  0
VERTEX
  5
576
  8
0
 10
14.92500019073486
 20
-14.5
 30
79.65299987792969
 70
   192
  0
VERTEX
  5
577
  8
0
 10
15.97500038146973
 20
-14.5
 30
76.81199645996094
 70
   192
  0
VERTEX
  5
578
  8
0
 10
14.92500019073486
 20
-14.5
 30
75.8740005493164
 70
   192
  0
VERTEX
  5
579
  8
0
 10
15.49199962615967
 20
-14.5
 30
76.37999725341797
 70
   192
  0
VERTEX
  5
57A
  8
0
 10
97.08899688720703
 20
-14.5
 30
57.34000015258789
 70
   192
  0
VERTEX
  5
57B
  8
0
 62
     9
 10
0.0
 20
0.0
 30
0.0
 70
   128
 71
     3
 72
     2
 73
     1
  0
VERTEX
  5
57C
  8
0
 62
     9
 10
0.0
 20
0.0
 30
0.0
 70
   128
 71
     6
 72
     5
 73
     4
  0
VERTEX
  5
57D
  8
0
 62
     9
 10
0.0
 20
0.0
 30
0.0
 70
   128
 71
     1
 72
     7
 73
     3
  0
VERTEX
  5
57E
  8
0
 62
     9
 10
0.0
 20
0.0
 30
0.0
 70
   128
 71
     4
 72
     8
 73
     6
  0
VERTEX
  5
57F
  8
0
 62
     9
 10
0.0
 20
0.0
 30
0.0
 70
   128
 71
     8
 72
     9
 73
     6
  0
VERTEX
  5
580
  8
0
 62
     9
 10
0.0
 20
0.0
 30
0.0
 70
   128
 71
    11
 72
    10
 73
     1
  0
VERTEX
  5
581
  8
0
 62
     9
 10
0.0
 20
0.0
 30
0.0
 70
   128
 71
     2
 72
    12
 73
     1
  0
VERTEX
  5
582
  8
0
 62
     9
 10
0.0
 20
0.0
 30
0.0
 70
   128
 71
     5
 72
    13
 73
     4
  0
VERTEX
  5
583
  8
0
 62
     9
 10
0.0
 20
0.0
 30
0.0
 70
   128
 71
     1
 72
    10
 73
     7
  0
VERTEX
  5
584
  8
0
 62
     9
 10
0.0
 20
0.0
 30
0.0
 70
   128
 71
    12
 72
     4
 73
    13
  0
VERTEX
  5
585
  8
0
 62
     9
 10
0.0
 20
0.0
 30
0.0
 70
   128
 71
    16
 72
    15
 73
    14
  0
VERTEX
  5
586
  8
0
 62
     9
 10
0.0
 20
0.0
 30
0.0
 70
   128
 71
    19
 72
    18
 73
    17
  0
VERTEX
  5
587
  8
0
 62
     9
 10
0.0
 20
0.0
 30
0.0
 70
   128
 71
    21
 72
    20
 73
    17
  0
VERTEX
  5
588
  8
0
 62
     9
 10
0.0
 20
0.0
 30
0.0
 70
   128
 71
    20
 72
    23
 73
    22
  0
VERTEX
  5
589
  8
0
 62
     9
 10
0.0
 20
0.0
 30
0.0
 70
   128
 71
    13
 72
     1
 73
    12
  0
VERTEX
  5
58A
  8
0
 62
     9
 10
0.0
 20
0.0
 30
0.0
 70
   128
 71
     1
 72
    24
 73
    11
  0
VERTEX
  5
58B
  8
0
 62
     9
 10
0.0
 20
0.0
 30
0.0
 70
   128
 71
    16
 72
    25
 73
    15
  0
VERTEX
  5
58C
  8
0
 62
     9
 10
0.0
 20
0.0
 30
0.0
 70
   128
 71
    18
 72
    26
 73
    17
  0
VERTEX
  5
58D
  8
0
 62
     9
 10
0.0
 20
0.0
 30
0.0
 70
   128
 71
    22
 72
    17
 73
    20
  0
VERTEX
  5
58E
  8
0
 62
     9
 10
0.0
 20
0.0
 30
0.0
 70
   128
 71
    27
 72
     8
 73
    22
  0
VERTEX
  5
58F
  8
0
 62
     9
 10
0.0
 20
0.0
 30
0.0
 70
   128
 71
    25
 72
    19
 73
    15
  0
VERTEX
  5
590
  8
0
 62
     9
 10
0.0
 20
0.0
 30
0.0
 70
   128
 71
    17
 72
    26
 73
    21
  0
VERTEX
  5
591
  8
0
 62
     9
 10
0.0
 20
0.0
 30
0.0
 70
   128
 71
    29
 72
    28
 73
    22
  0
VERTEX
  5
592
  8
0
 62
     9
 10
0.0
 20
0.0
 30
0.0
 70
   128
 71
     8
 72
    27
 73
     9
  0
VERTEX
  5
593
  8
0
 62
     9
 10
0.0
 20
0.0
 30
0.0
 70
   128
 71
    17
 72
    15
 73
    19
  0
VERTEX
  5
594
  8
0
 62
     9
 10
0.0
 20
0.0
 30
0.0
 70
   128
 71
    22
 72
    28
 73
    27
  0
VERTEX
  5
595
  8
0
 62
     9
 10
0.0
 20
0.0
 30
0.0
 70
   128
 71
    22
 72
    23
 73
    29
  0
VERTEX
  5
596
  8
0
 62
     9
 10
0.0
 20
0.0
 30
0.0
 70
   128
 71
    30
 72
    24
 73
     1
  0
VERTEX
  5
597
  8
0
 62
     9
 10
0.0
 20
0.0
 30
0.0
 70
   128
 71
     1
 72
    31
 73
    30
  0
VERTEX
  5
598
  8
0
 62
     9
 10
0.0
 20
0.0
 30
0.0
 70
   128
 71
    33
 72
    32
 73
    30
  0
VERTEX
  5
599
  8
0
 62
     9
 10
0.0
 20
0.0
 30
0.0
 70
   128
 71
    30
 72
    31
 73
    33
  0
VERTEX
  5
59A
  8
0
 62
     9
 10
0.0
 20
0.0
 30
0.0
 70
   128
 71
    14
 72
    34
 73
    16
  0
SEQEND
  5
59B
  8
0
 62
     9
  0
ENDBLK
  5
59E
  8
0
  0
BLOCK
  8
0
  2
E3_NODE_33_
 70
     0
 10
0.0
 20
0.0
 30
0.0
  3
E3_NODE_33_
  1

  0
POLYLINE
  5
5A0
  8
0
 62
     9
 66
     1
 10
0.0
 20
0.0
 30
0.0
 70
    64
 71
     6
 72
     4
  0
VERTEX
  5
5A1
  8
0
 10
109.6500015258789
 20
-14.5
 30
61.42100143432617
 70
   192
  0
VERTEX
  5
5A2
  8
0
 10
97.06099700927734
 20
-14.0310001373291
 30
57.33100128173828
 70
   192
  0
VERTEX
  5
5A3
  8
0
 10
96.6520004272461
 20
0.8960000276565552
 30
57.19800186157227
 70
   192
  0
VERTEX
  5
5A4
  8
0
 10
109.6500015258789
 20
14.5
 30
61.42100143432617
 70
   192
  0
VERTEX
  5
5A5
  8
0
 10
97.08899688720703
 20
-14.5
 30
57.34000015258789
 70
   192
  0
VERTEX
  5
5A6
  8
0
 10
97.08899688720703
 20
14.5
 30
57.34000015258789
 70
   192
  0
VERTEX
  5
5A7
  8
0
 62
     9
 10
0.0
 20
0.0
 30
0.0
 70
   128
 71
     3
 72
     2
 73
     1
  0
VERTEX
  5
5A8
  8
0
 62
     9
 10
0.0
 20
0.0
 30
0.0
 70
   128
 71
     1
 72
     4
 73
     3
  0
VERTEX
  5
5A9
  8
0
 62
     9
 10
0.0
 20
0.0
 30
0.0
 70
   128
 71
     2
 72
     5
 73
     1
  0
VERTEX
  5
5AA
  8
0
 62
     9
 10
0.0
 20
0.0
 30
0.0
 70
   128
 71
     4
 72
     6
 73
     3
  0
SEQEND
  5
5AB
  8
0
 62
     9
  0
ENDBLK
  5
5AE
  8
0
  0
BLOCK
  8
0
  2
E3_NODE_34_
 70
     0
 10
0.0
 20
0.0
 30
0.0
  3
E3_NODE_34_
  1

  0
POLYLINE
  5
5B0
  8
0
 62
     9
 66
     1
 10
0.0
 20
0.0
 30
0.0
 70
    64
 71
    12
 72
    10
  0
VERTEX
  5
5B1
  8
0
 10
97.06099700927734
 20
-14.0310001373291
 30
57.33100128173828
 70
   192
  0
VERTEX
  5
5B2
  8
0
 10
97.08899688720703
 20
-14.5
 30
57.34000015258789
 70
   192
  0
VERTEX
  5
5B3
  8
0
 10
94.81199645996094
 20
-14.5
 30
64.4469985961914
 70
   192
  0
VERTEX
  5
5B4
  8
0
 10
94.3239974975586
 20
-14.0310001373291
 30
65.79100036621094
 70
   192
  0
VERTEX
  5
5B5
  8
0
 10
93.9260025024414
 20
-2.463000059127808
 30
65.66100311279297
 70
   192
  0
VERTEX
  5
5B6
  8
0
 10
96.6520004272461
 20
0.8960000276565552
 30
57.19800186157227
 70
   192
  0
VERTEX
  5
5B7
  8
0
 10
93.98500061035156
 20
-0.0020000000949949
 30
65.68099975585938
 70
   192
  0
VERTEX
  5
5B8
  8
0
 10
94.3239974975586
 20
14.0310001373291
 30
65.79100036621094
 70
   192
  0
VERTEX
  5
5B9
  8
0
 10
94.35199737548828
 20
14.5
 30
65.80000305175781
 70
   192
  0
VERTEX
  5
5BA
  8
0
 10
94.81199645996094
 20
14.5
 30
64.4469985961914
 70
   192
  0
VERTEX
  5
5BB
  8
0
 10
97.08899688720703
 20
14.5
 30
57.34000015258789
 70
   192
  0
VERTEX
  5
5BC
  8
0
 10
94.35199737548828
 20
-14.5
 30
65.80000305175781
 70
   192
  0
VERTEX
  5
5BD
  8
0
 62
     9
 10
0.0
 20
0.0
 30
0.0
 70
   128
 71
     3
 72
     2
 73
     1
  0
VERTEX
  5
5BE
  8
0
 62
     9
 10
0.0
 20
0.0
 30
0.0
 70
   128
 71
     1
 72
     4
 73
     3
  0
VERTEX
  5
5BF
  8
0
 62
     9
 10
0.0
 20
0.0
 30
0.0
 70
   128
 71
     5
 72
     4
 73
     1
  0
VERTEX
  5
5C0
  8
0
 62
     9
 10
0.0
 20
0.0
 30
0.0
 70
   128
 71
     1
 72
     6
 73
     5
  0
VERTEX
  5
5C1
  8
0
 62
     9
 10
0.0
 20
0.0
 30
0.0
 70
   128
 71
     6
 72
     7
 73
     5
  0
VERTEX
  5
5C2
  8
0
 62
     9
 10
0.0
 20
0.0
 30
0.0
 70
   128
 71
    10
 72
     9
 73
     8
  0
VERTEX
  5
5C3
  8
0
 62
     9
 10
0.0
 20
0.0
 30
0.0
 70
   128
 71
     6
 72
    11
 73
     8
  0
VERTEX
  5
5C4
  8
0
 62
     9
 10
0.0
 20
0.0
 30
0.0
 70
   128
 71
     8
 72
     7
 73
     6
  0
VERTEX
  5
5C5
  8
0
 62
     9
 10
0.0
 20
0.0
 30
0.0
 70
   128
 71
     8
 72
    11
 73
    10
  0
VERTEX
  5
5C6
  8
0
 62
     9
 10
0.0
 20
0.0
 30
0.0
 70
   128
 71
     4
 72
    12
 73
     3
  0
SEQEND
  5
5C7
  8
0
 62
     9
  0
ENDBLK
  5
5CA
  8
0
  0
BLOCK
  8
0
  2
E3_NODE_35_
 70
     0
 10
0.0
 20
0.0
 30
0.0
  3
E3_NODE_35_
  1

  0
POLYLINE
  5
5CC
  8
0
 62
     9
 66
     1
 10
0.0
 20
0.0
 30
0.0
 70
    64
 71
    10
 72
     8
  0
VERTEX
  5
5CD
  8
0
 10
76.93399810791016
 20
14.5
 30
91.65299987792969
 70
   192
  0
VERTEX
  5
5CE
  8
0
 10
76.93399810791016
 20
-14.5
 30
91.65299987792969
 70
   192
  0
VERTEX
  5
5CF
  8
0
 10
88.86900329589844
 20
-14.5
 30
89.25900268554688
 70
   192
  0
VERTEX
  5
5D0
  8
0
 10
100.1679992675781
 20
-14.5
 30
81.56199645996094
 70
   192
  0
VERTEX
  5
5D1
  8
0
 10
100.1679992675781
 20
14.5
 30
81.56199645996094
 70
   192
  0
VERTEX
  5
5D2
  8
0
 10
88.86900329589844
 20
14.5
 30
89.25900268554688
 70
   192
  0
VERTEX
  5
5D3
  8
0
 10
106.3769989013672
 20
-14.5
 30
72.21399688720703
 70
   192
  0
VERTEX
  5
5D4
  8
0
 10
106.3769989013672
 20
14.5
 30
72.21399688720703
 70
   192
  0
VERTEX
  5
5D5
  8
0
 10
109.6500015258789
 20
-14.5
 30
61.42100143432617
 70
   192
  0
VERTEX
  5
5D6
  8
0
 10
109.6500015258789
 20
14.5
 30
61.42100143432617
 70
   192
  0
VERTEX
  5
5D7
  8
0
 62
     9
 10
0.0
 20
0.0
 30
0.0
 70
   128
 71
     3
 72
     2
 73
     1
  0
VERTEX
  5
5D8
  8
0
 62
     9
 10
0.0
 20
0.0
 30
0.0
 70
   128
 71
     6
 72
     5
 73
     4
  0
VERTEX
  5
5D9
  8
0
 62
     9
 10
0.0
 20
0.0
 30
0.0
 70
   128
 71
     5
 72
     8
 73
     7
  0
VERTEX
  5
5DA
  8
0
 62
     9
 10
0.0
 20
0.0
 30
0.0
 70
   128
 71
     8
 72
    10
 73
     9
  0
VERTEX
  5
5DB
  8
0
 62
     9
 10
0.0
 20
0.0
 30
0.0
 70
   128
 71
     9
 72
     7
 73
     8
  0
VERTEX
  5
5DC
  8
0
 62
     9
 10
0.0
 20
0.0
 30
0.0
 70
   128
 71
     7
 72
     4
 73
     5
  0
VERTEX
  5
5DD
  8
0
 62
     9
 10
0.0
 20
0.0
 30
0.0
 70
   128
 71
     4
 72
     3
 73
     6
  0
VERTEX
  5
5DE
  8
0
 62
     9
 10
0.0
 20
0.0
 30
0.0
 70
   128
 71
     1
 72
     6
 73
     3
  0
SEQEND
  5
5DF
  8
0
 62
     9
  0
ENDBLK
  5
5E2
  8
0
  0
ENDSEC
  0
SECTION
  2
ENTITIES
  0
INSERT
  5
A0
  8
LAYER_1
  2
E3_NODE
 10
0.0
 20
0.0
 30
0.0
  0
INSERT
  5
D0
  8
LAYER_1
  2
E3_NODE_1_
 10
0.0
 20
0.0
 30
0.0
  0
INSERT
  5
130
  8
LAYER_1
  2
E3_NODE_2_
 10
0.0
 20
0.0
 30
0.0
  0
INSERT
  5
142
  8
LAYER_1
  2
E3_NODE_3_
 10
0.0
 20
0.0
 30
0.0
  0
INSERT
  5
160
  8
LAYER_1
  2
E3_NODE_4_
 10
0.0
 20
0.0
 30
0.0
  0
INSERT
  5
16C
  8
LAYER_1
  2
E3_NODE_5_
 10
0.0
 20
0.0
 30
0.0
  0
INSERT
  5
17A
  8
LAYER_1
  2
E3_NODE_6_
 10
0.0
 20
0.0
 30
0.0
  0
INSERT
  5
186
  8
LAYER_1
  2
E3_NODE_7_
 10
0.0
 20
0.0
 30
0.0
  0
INSERT
  5
194
  8
LAYER_1
  2
E3_NODE_8_
 10
0.0
 20
0.0
 30
0.0
  0
INSERT
  5
1A0
  8
LAYER_1
  2
E3_NODE_9_
 10
0.0
 20
0.0
 30
0.0
  0
INSERT
  5
1AC
  8
LAYER_1
  2
E3_NODE_10_
 10
0.0
 20
0.0
 30
0.0
  0
INSERT
  5
1B8
  8
LAYER_1
  2
E3_NODE_11_
 10
0.0
 20
0.0
 30
0.0
  0
INSERT
  5
1C4
  8
LAYER_1
  2
E3_NODE_12_
 10
0.0
 20
0.0
 30
0.0
  0
INSERT
  5
1D0
  8
LAYER_1
  2
E3_NODE_13_
 10
0.0
 20
0.0
 30
0.0
  0
INSERT
  5
1DC
  8
LAYER_1
  2
E3_NODE_14_
 10
0.0
 20
0.0
 30
0.0
  0
INSERT
  5
1E8
  8
LAYER_1
  2
E3_NODE_15_
 10
0.0
 20
0.0
 30
0.0
  0
INSERT
  5
1F4
  8
LAYER_1
  2
E3_NODE_16_
 10
0.0
 20
0.0
 30
0.0
  0
INSERT
  5
212
  8
LAYER_1
  2
E3_NODE_17_
 10
0.0
 20
0.0
 30
0.0
  0
INSERT
  5
247
  8
LAYER_1
  2
E3_NODE_18_
 10
0.0
 20
0.0
 30
0.0
  0
INSERT
  5
265
  8
LAYER_1
  2
E3_NODE_19_
 10
0.0
 20
0.0
 30
0.0
  0
INSERT
  5
27D
  8
LAYER_1
  2
E3_NODE_20_
 10
0.0
 20
0.0
 30
0.0
  0
INSERT
  5
2FB
  8
LAYER_1
  2
E3_NODE_21_
 10
0.0
 20
0.0
 30
0.0
  0
INSERT
  5
32B
  8
LAYER_1
  2
E3_NODE_22_
 10
0.0
 20
0.0
 30
0.0
  0
INSERT
  5
35F
  8
LAYER_1
  2
E3_NODE_23_
 10
0.0
 20
0.0
 30
0.0
  0
INSERT
  5
375
  8
LAYER_1
  2
E3_NODE_24_
 10
0.0
 20
0.0
 30
0.0
  0
INSERT
  5
3A9
  8
LAYER_1
  2
E3_NODE_25_
 10
0.0
 20
0.0
 30
0.0
  0
INSERT
  5
3BF
  8
LAYER_1
  2
E3_NODE_26_
 10
0.0
 20
0.0
 30
0.0
  0
INSERT
  5
443
  8
LAYER_1
  2
E3_NODE_27_
 10
0.0
 20
0.0
 30
0.0
  0
INSERT
  5
465
  8
LAYER_1
  2
E3_NODE_28_
 10
0.0
 20
0.0
 30
0.0
  0
INSERT
  5
4B7
  8
LAYER_1
  2
E3_NODE_29_
 10
0.0
 20
0.0
 30
0.0
  0
INSERT
  5
506
  8
LAYER_1
  2
E3_NODE_30_
 10
0.0
 20
0.0
 30
0.0
  0
INSERT
  5
554
  8
LAYER_1
  2
E3_NODE_31_
 10
0.0
 20
0.0
 30
0.0
  0
INSERT
  5
59C
  8
LAYER_1
  2
E3_NODE_32_
 10
0.0
 20
0.0
 30
0.0
  0
INSERT
  5
5AC
  8
LAYER_1
  2
E3_NODE_33_
 10
0.0
 20
0.0
 30
0.0
  0
INSERT
  5
5C8
  8
LAYER_1
  2
E3_NODE_34_
 10
0.0
 20
0.0
 30
0.0
  0
INSERT
  5
5E0
  8
LAYER_1
  2
E3_NODE_35_
 10
0.0
 20
0.0
 30
0.0
  0
ENDSEC
  0
EOF
