  0
SECTION
  2
HEADER
  9
$ACADVER
  1
AC1015
  9
$ACADMAINTVER
 70
     6
  9
$DWGCODEPAGE
  3
ANSI_1252
  9
$INSBASE
 10
0.0
 20
0.0
 30
0.0
  9
$EXTMIN
 10
0.0
 20
0.0
 30
0.0
  9
$EXTMAX
 10
1682.0
 20
2378.0
 30
0.0
  9
$LIMMIN
 10
0.0
 20
0.0
  9
$LIMMAX
 10
1682.0
 20
2378.0
  9
$ORTHOMODE
 70
     0
  9
$REGENMODE
 70
     1
  9
$FILLMODE
 70
     1
  9
$QTEXTMODE
 70
     0
  9
$MIRRTEXT
 70
     1
  9
$LTSCALE
 40
1.0
  9
$ATTMODE
 70
     1
  9
$TEXTSIZE
 40
2.5
  9
$TRACEWID
 40
1.0
  9
$TEXTSTYLE
  7
Standard
  9
$CLAYER
  8
0
  9
$CELTYPE
  6
ByLayer
  9
$CECOLOR
 62
   256
  9
$CELTSCALE
 40
1.0
  9
$DISPSILH
 70
     0
  9
$DIMSCALE
 40
1.0
  9
$DIMASZ
 40
2.5
  9
$DIMEXO
 40
0.625
  9
$DIMDLI
 40
3.75
  9
$DIMRND
 40
0.0
  9
$DIMDLE
 40
0.0
  9
$DIMEXE
 40
1.25
  9
$DIMTP
 40
0.0
  9
$DIMTM
 40
0.0
  9
$DIMTXT
 40
2.5
  9
$DIMCEN
 40
2.5
  9
$DIMTSZ
 40
0.0
  9
$DIMTOL
 70
     0
  9
$DIMLIM
 70
     0
  9
$DIMTIH
 70
     0
  9
$DIMTOH
 70
     0
  9
$DIMSE1
 70
     0
  9
$DIMSE2
 70
     0
  9
$DIMTAD
 70
     1
  9
$DIMZIN
 70
     8
  9
$DIMBLK
  1

  9
$DIMASO
 70
     1
  9
$DIMSHO
 70
     1
  9
$DIMPOST
  1

  9
$DIMAPOST
  1

  9
$DIMALT
 70
     0
  9
$DIMALTD
 70
     3
  9
$DIMALTF
 40
0.0393700787
  9
$DIMLFAC
 40
1.0
  9
$DIMTOFL
 70
     1
  9
$DIMTVP
 40
0.0
  9
$DIMTIX
 70
     0
  9
$DIMSOXD
 70
     0
  9
$DIMSAH
 70
     0
  9
$DIMBLK1
  1

  9
$DIMBLK2
  1

  9
$DIMSTYLE
  2
ISO-25
  9
$DIMCLRD
 70
     0
  9
$DIMCLRE
 70
     0
  9
$DIMCLRT
 70
     0
  9
$DIMTFAC
 40
1.0
  9
$DIMGAP
 40
0.625
  9
$DIMJUST
 70
     0
  9
$DIMSD1
 70
     0
  9
$DIMSD2
 70
     0
  9
$DIMTOLJ
 70
     0
  9
$DIMTZIN
 70
     8
  9
$DIMALTZ
 70
     0
  9
$DIMALTTZ
 70
     0
  9
$DIMUPT
 70
     0
  9
$DIMDEC
 70
     2
  9
$DIMTDEC
 70
     2
  9
$DIMALTU
 70
     2
  9
$DIMALTTD
 70
     3
  9
$DIMTXSTY
  7
Standard
  9
$DIMAUNIT
 70
     0
  9
$DIMADEC
 70
     0
  9
$DIMALTRND
 40
0.0
  9
$DIMAZIN
 70
     0
  9
$DIMDSEP
 70
    44
  9
$DIMATFIT
 70
     3
  9
$DIMFRAC
 70
     0
  9
$DIMLDRBLK
  1

  9
$DIMLUNIT
 70
     2
  9
$DIMLWD
 70
    -2
  9
$DIMLWE
 70
    -2
  9
$DIMTMOVE
 70
     0
  9
$LUNITS
 70
     2
  9
$LUPREC
 70
     4
  9
$SKETCHINC
 40
1.0
  9
$FILLETRAD
 40
10.0
  9
$AUNITS
 70
     0
  9
$AUPREC
 70
     0
  9
$MENU
  1
.
  9
$ELEVATION
 40
0.0
  9
$PELEVATION
 40
0.0
  9
$THICKNESS
 40
0.0
  9
$LIMCHECK
 70
     0
  9
$CHAMFERA
 40
10.0
  9
$CHAMFERB
 40
10.0
  9
$CHAMFERC
 40
20.0
  9
$CHAMFERD
 40
0.0
  9
$SKPOLY
 70
     0
  9
$TDCREATE
 40
2455439.546840579
  9
$TDUCREATE
 40
2455439.463507245
  9
$TDUPDATE
 40
2455439.54684059
  9
$TDUUPDATE
 40
2455439.463507257
  9
$TDINDWG
 40
0.0000000116
  9
$TDUSRTIMER
 40
0.0000000116
  9
$USRTIMER
 70
     1
  9
$ANGBASE
 50
0.0
  9
$ANGDIR
 70
     0
  9
$PDMODE
 70
     0
  9
$PDSIZE
 40
0.0
  9
$PLINEWID
 40
0.0
  9
$SPLFRAME
 70
     0
  9
$SPLINETYPE
 70
     6
  9
$SPLINESEGS
 70
     8
  9
$HANDSEED
  5
1DB
  9
$SURFTAB1
 70
     6
  9
$SURFTAB2
 70
     6
  9
$SURFTYPE
 70
     6
  9
$SURFU
 70
     6
  9
$SURFV
 70
     6
  9
$UCSBASE
  2

  9
$UCSNAME
  2

  9
$UCSORG
 10
0.0
 20
0.0
 30
0.0
  9
$UCSXDIR
 10
1.0
 20
0.0
 30
0.0
  9
$UCSYDIR
 10
0.0
 20
1.0
 30
0.0
  9
$UCSORTHOREF
  2

  9
$UCSORTHOVIEW
 70
     0
  9
$UCSORGTOP
 10
0.0
 20
0.0
 30
0.0
  9
$UCSORGBOTTOM
 10
0.0
 20
0.0
 30
0.0
  9
$UCSORGLEFT
 10
0.0
 20
0.0
 30
0.0
  9
$UCSORGRIGHT
 10
0.0
 20
0.0
 30
0.0
  9
$UCSORGFRONT
 10
0.0
 20
0.0
 30
0.0
  9
$UCSORGBACK
 10
0.0
 20
0.0
 30
0.0
  9
$PUCSBASE
  2

  9
$PUCSNAME
  2

  9
$PUCSORG
 10
0.0
 20
0.0
 30
0.0
  9
$PUCSXDIR
 10
1.0
 20
0.0
 30
0.0
  9
$PUCSYDIR
 10
0.0
 20
1.0
 30
0.0
  9
$PUCSORTHOREF
  2

  9
$PUCSORTHOVIEW
 70
     0
  9
$PUCSORGTOP
 10
0.0
 20
0.0
 30
0.0
  9
$PUCSORGBOTTOM
 10
0.0
 20
0.0
 30
0.0
  9
$PUCSORGLEFT
 10
0.0
 20
0.0
 30
0.0
  9
$PUCSORGRIGHT
 10
0.0
 20
0.0
 30
0.0
  9
$PUCSORGFRONT
 10
0.0
 20
0.0
 30
0.0
  9
$PUCSORGBACK
 10
0.0
 20
0.0
 30
0.0
  9
$USERI1
 70
     0
  9
$USERI2
 70
     0
  9
$USERI3
 70
     0
  9
$USERI4
 70
     0
  9
$USERI5
 70
     0
  9
$USERR1
 40
0.0
  9
$USERR2
 40
0.0
  9
$USERR3
 40
0.0
  9
$USERR4
 40
0.0
  9
$USERR5
 40
0.0
  9
$WORLDVIEW
 70
     1
  9
$SHADEDGE
 70
     3
  9
$SHADEDIF
 70
    70
  9
$TILEMODE
 70
     1
  9
$MAXACTVP
 70
    64
  9
$PINSBASE
 10
0.0
 20
0.0
 30
0.0
  9
$PLIMCHECK
 70
     0
  9
$PEXTMIN
 10
0.0
 20
0.0
 30
0.0
  9
$PEXTMAX
 10
1682.0
 20
2378.0
 30
0.0
  9
$PLIMMIN
 10
0.0
 20
0.0
  9
$PLIMMAX
 10
1682.0
 20
2378.0
  9
$UNITMODE
 70
     0
  9
$VISRETAIN
 70
     1
  9
$PLINEGEN
 70
     0
  9
$PSLTSCALE
 70
     1
  9
$TREEDEPTH
 70
  3020
  9
$CMLSTYLE
  2
Standard
  9
$CMLJUST
 70
     0
  9
$CMLSCALE
 40
20.0
  9
$PROXYGRAPHICS
 70
     1
  9
$MEASUREMENT
 70
     1
  9
$CELWEIGHT
370
    -1
  9
$ENDCAPS
280
     0
  9
$JOINSTYLE
280
     0
  9
$LWDISPLAY
290
     0
  9
$INSUNITS
 70
     4
  9
$HYPERLINKBASE
  1

  9
$STYLESHEET
  1

  9
$XEDIT
290
     1
  9
$CEPSNTYPE
380
     0
  9
$PSTYLEMODE
290
     1
  9
$FINGERPRINTGUID
  2
{F78E4059-D4E7-4FB3-A3F3-D55D4A885767}
  9
$VERSIONGUID
  2
{FAEB1C32-E019-11D5-929B-00C0DF256EC4}
  9
$EXTNAMES
290
     1
  9
$PSVPSCALE
 40
0.0
  9
$OLESTARTUP
290
     0
  0
ENDSEC
  0
SECTION
  2
CLASSES
  0
CLASS
  1
ACDBDICTIONARYWDFLT
  2
AcDbDictionaryWithDefault
  3
ObjectDBX Classes
 90
        0
280
     0
281
     0
  0
CLASS
  1
VISUALSTYLE
  2
AcDbVisualStyle
  3
ObjectDBX Classes
 90
     4095
280
     0
281
     0
  0
CLASS
  1
SCALE
  2
AcDbScale
  3
ObjectDBX Classes
 90
     1153
280
     0
281
     0
  0
CLASS
  1
DICTIONARYVAR
  2
AcDbDictionaryVar
  3
ObjectDBX Classes
 90
        0
280
     0
281
     0
  0
CLASS
  1
ACDBPLACEHOLDER
  2
AcDbPlaceHolder
  3
ObjectDBX Classes
 90
        0
280
     0
281
     0
  0
CLASS
  1
LAYOUT
  2
AcDbLayout
  3
ObjectDBX Classes
 90
        0
280
     0
281
     0
  0
ENDSEC
  0
SECTION
  2
TABLES
  0
TABLE
  2
VPORT
  5
8
330
0
100
AcDbSymbolTable
 70
     1
  0
VPORT
  5
29
330
8
100
AcDbSymbolTableRecord
100
AcDbViewportTableRecord
  2
*Active
 70
     0
 10
0.0
 20
0.0
 11
1.0
 21
1.0
 12
344.1869158879
 22
148.5
 13
0.0
 23
0.0
 14
10.0
 24
10.0
 15
10.0
 25
10.0
 16
0.0
 26
0.0
 36
1.0
 17
0.0
 27
0.0
 37
0.0
 40
297.0
 41
1.9729729729
 42
50.0
 43
0.0
 44
0.0
 50
0.0
 51
0.0
 71
     0
 72
   100
 73
     1
 74
     3
 75
     0
 76
     0
 77
     0
 78
     0
281
     0
 65
     1
110
0.0
120
0.0
130
0.0
111
1.0
121
0.0
131
0.0
112
0.0
122
1.0
132
0.0
 79
     0
146
0.0
  0
ENDTAB
  0
TABLE
  2
LTYPE
  5
5
330
0
100
AcDbSymbolTable
 70
     2
  0
LTYPE
  5
14
330
5
100
AcDbSymbolTableRecord
100
AcDbLinetypeTableRecord
  2
ByBlock
 70
     0
  3

 72
    65
 73
     0
 40
0.0
  0
LTYPE
  5
15
330
5
100
AcDbSymbolTableRecord
100
AcDbLinetypeTableRecord
  2
ByLayer
 70
     0
  3

 72
    65
 73
     0
 40
0.0
  0
LTYPE
  5
16
330
5
100
AcDbSymbolTableRecord
100
AcDbLinetypeTableRecord
  2
Continuous
 70
     0
  3
Solid line
 72
    65
 73
     0
 40
0.0
  0
LTYPE
  5
60
330
5
100
AcDbSymbolTableRecord
100
AcDbLinetypeTableRecord
  2
CENTER2
 70
     0
  3
Center (.5x) ___ _ ___ _ ___ _ ___ _ ___ _ ___
 72
    65
 73
     4
 40
28.575
 49
19.05
 74
     4
 75
     0
340
0
 46
0.0
 50
0.0
 44
0.0
 45
0.0
 49
-3.175
 74
     4
 75
     0
340
0
 46
0.0
 50
0.0
 44
0.0
 45
0.0
 49
3.175
 74
     4
 75
     0
340
0
 46
0.0
 50
0.0
 44
0.0
 45
0.0
 49
-3.175
 74
     4
 75
     0
340
0
 46
0.0
 50
0.0
 44
0.0
 45
0.0
  0
ENDTAB
  0
TABLE
  2
LAYER
  5
2
330
0
100
AcDbSymbolTable
 70
     9
  0
LAYER
  5
10
330
2
100
AcDbSymbolTableRecord
100
AcDbLayerTableRecord
  2
0
 70
     0
 62
     7
  6
Continuous
370
    -3
390
F
  0
LAYER
  5
5D
330
2
100
AcDbSymbolTableRecord
100
AcDbLayerTableRecord
  2
Default
 70
     0
 62
     7
  6
Continuous
370
    -3
390
F
  0
LAYER
  5
87
330
2
100
AcDbSymbolTableRecord
100
AcDbLayerTableRecord
  2
$DDT_AUDIT_GENERATED_(87)
 70
     0
 62
     7
  6
Continuous
370
    -3
390
F
  0
LAYER
  5
A2
330
2
100
AcDbSymbolTableRecord
100
AcDbLayerTableRecord
  2
$DDT_AUDIT_GENERATED_(A2)
 70
     0
 62
     7
  6
Continuous
370
    -3
390
F
  0
LAYER
  5
B0
330
2
100
AcDbSymbolTableRecord
100
AcDbLayerTableRecord
  2
$DDT_AUDIT_GENERATED_(B0)
 70
     0
 62
     7
  6
Continuous
370
    -3
390
F
  0
LAYER
  5
E5
330
2
100
AcDbSymbolTableRecord
100
AcDbLayerTableRecord
  2
$DDT_AUDIT_GENERATED_(E5)
 70
     0
 62
     7
  6
Continuous
370
    -3
390
F
  0
LAYER
  5
101
330
2
100
AcDbSymbolTableRecord
100
AcDbLayerTableRecord
  2
$DDT_AUDIT_GENERATED_(101)
 70
     0
 62
     7
  6
Continuous
370
    -3
390
F
  0
LAYER
  5
104
330
2
100
AcDbSymbolTableRecord
100
AcDbLayerTableRecord
  2
$DDT_AUDIT_GENERATED_(104)
 70
     0
 62
     7
  6
Continuous
370
    -3
390
F
  0
LAYER
  5
12F
330
2
100
AcDbSymbolTableRecord
100
AcDbLayerTableRecord
  2
$DDT_AUDIT_GENERATED_(12F)
 70
     0
 62
     7
  6
Continuous
370
    -3
390
F
  0
ENDTAB
  0
TABLE
  2
STYLE
  5
3
330
0
100
AcDbSymbolTable
 70
     2
  0
STYLE
  5
11
330
3
100
AcDbSymbolTableRecord
100
AcDbTextStyleTableRecord
  2
Standard
 70
     0
 40
0.0
 41
1.0
 50
0.0
 71
     0
 42
2.5
  3
txt
  4

  0
STYLE
  5
1CA
330
3
100
AcDbSymbolTableRecord
100
AcDbTextStyleTableRecord
  2
SEACAD_seiso_ttf
 70
     0
 40
0.0
 41
1.0
 50
0.0
 71
     0
 42
0.2
  3
seiso.ttf
  4

  0
ENDTAB
  0
TABLE
  2
VIEW
  5
6
330
0
100
AcDbSymbolTable
 70
     0
  0
ENDTAB
  0
TABLE
  2
UCS
  5
7
330
0
100
AcDbSymbolTable
 70
     0
  0
ENDTAB
  0
TABLE
  2
APPID
  5
9
330
0
100
AcDbSymbolTable
 70
     1
  0
APPID
  5
12
330
9
100
AcDbSymbolTableRecord
100
AcDbRegAppTableRecord
  2
ACAD
 70
     0
  0
ENDTAB
  0
TABLE
  2
DIMSTYLE
  5
A
330
0
100
AcDbSymbolTable
 70
     1
100
AcDbDimStyleTable
  0
DIMSTYLE
105
27
330
A
100
AcDbSymbolTableRecord
100
AcDbDimStyleTableRecord
  2
ISO-25
 70
     0
 41
2.5
 42
0.625
 43
3.75
 44
1.25
 73
     0
 74
     0
 77
     1
 78
     8
140
2.5
141
2.5
143
0.0393700787
147
0.625
171
     3
172
     1
271
     2
272
     2
274
     3
278
    44
283
     0
284
     8
340
11
  0
ENDTAB
  0
TABLE
  2
BLOCK_RECORD
  5
1
330
0
100
AcDbSymbolTable
 70
     9
  0
BLOCK_RECORD
  5
1F
330
1
100
AcDbSymbolTableRecord
100
AcDbBlockTableRecord
  2
*Model_Space
340
22
  0
BLOCK_RECORD
  5
1B
330
1
100
AcDbSymbolTableRecord
100
AcDbBlockTableRecord
  2
*Paper_Space
340
1E
  0
BLOCK_RECORD
  5
5E
330
1
100
AcDbSymbolTableRecord
100
AcDbBlockTableRecord
  2
SEANNOT_GROUP
340
0
102
{BLKREFS
331
5F
102
}
  0
BLOCK_RECORD
  5
69
330
1
100
AcDbSymbolTableRecord
100
AcDbBlockTableRecord
  2
SEANNOT_GROUP1
340
0
102
{BLKREFS
331
6A
102
}
  0
BLOCK_RECORD
  5
73
330
1
100
AcDbSymbolTableRecord
100
AcDbBlockTableRecord
  2
SEANNOT_GROUP2
340
0
102
{BLKREFS
331
74
102
}
  0
BLOCK_RECORD
  5
79
330
1
100
AcDbSymbolTableRecord
100
AcDbBlockTableRecord
  2
SEANNOT_GROUP3
340
0
102
{BLKREFS
331
7A
102
}
  0
BLOCK_RECORD
  5
7F
330
1
100
AcDbSymbolTableRecord
100
AcDbBlockTableRecord
  2
SEANNOT_GROUP4
340
0
102
{BLKREFS
331
80
102
}
  0
BLOCK_RECORD
  5
85
330
1
100
AcDbSymbolTableRecord
100
AcDbBlockTableRecord
  2
SE
340
0
102
{BLKREFS
331
86
102
}
  0
BLOCK_RECORD
  5
B8
330
1
100
AcDbSymbolTableRecord
100
AcDbBlockTableRecord
  2
SE1
340
0
102
{BLKREFS
331
B9
102
}
  0
BLOCK_RECORD
  5
145
330
1
100
AcDbSymbolTableRecord
100
AcDbBlockTableRecord
  2
SE2
340
0
102
{BLKREFS
331
146
102
}
  0
ENDTAB
  0
ENDSEC
  0
SECTION
  2
BLOCKS
  0
BLOCK
  5
20
330
1F
100
AcDbEntity
  8
0
100
AcDbBlockBegin
  2
*Model_Space
 70
     0
 10
0.0
 20
0.0
 30
0.0
  3
*Model_Space
  1

  0
ENDBLK
  5
21
330
1F
100
AcDbEntity
  8
0
100
AcDbBlockEnd
  0
BLOCK
  5
1C
330
1B
100
AcDbEntity
 67
     1
  8
0
100
AcDbBlockBegin
  2
*Paper_Space
 70
     0
 10
0.0
 20
0.0
 30
0.0
  3
*Paper_Space
  1

  0
ENDBLK
  5
1D
330
1B
100
AcDbEntity
 67
     1
  8
0
100
AcDbBlockEnd
  0
BLOCK
  5
67
330
5E
100
AcDbEntity
  8
0
100
AcDbBlockBegin
  2
SEANNOT_GROUP
 70
     0
 10
0.0
 20
0.0
 30
0.0
  3
SEANNOT_GROUP
  1

  0
LINE
  5
61
330
5E
100
AcDbEntity
  8
Default
  6
CENTER2
 62
     7
100
AcDbLine
 10
95.9178254557
 20
445.3732598722
 30
0.0
 11
55.9178263498
 21
445.3732598722
 31
0.0
  0
LINE
  5
62
330
5E
100
AcDbEntity
  8
Default
  6
CENTER2
 62
     7
100
AcDbLine
 10
75.9178259028
 20
465.3732594252
 30
0.0
 11
75.9178259028
 21
425.3732603192
 31
0.0
  0
LINE
  5
63
330
5E
100
AcDbEntity
  8
Default
  6
CENTER2
 62
     7
100
AcDbLine
 10
100.917825344
 20
445.3732598722
 30
0.0
 11
114.4178259028
 21
445.3732598722
 31
0.0
  0
LINE
  5
64
330
5E
100
AcDbEntity
  8
Default
  6
CENTER2
 62
     7
100
AcDbLine
 10
75.9178259028
 20
470.3732593134
 30
0.0
 11
75.9178259028
 21
483.8732598722
 31
0.0
  0
LINE
  5
65
330
5E
100
AcDbEntity
  8
Default
  6
CENTER2
 62
     7
100
AcDbLine
 10
50.9178264616
 20
445.3732598722
 30
0.0
 11
37.4178259028
 21
445.3732598722
 31
0.0
  0
LINE
  5
66
330
5E
100
AcDbEntity
  8
Default
  6
CENTER2
 62
     7
100
AcDbLine
 10
75.9178259028
 20
420.373260431
 30
0.0
 11
75.9178259028
 21
406.8732598722
 31
0.0
  0
ENDBLK
  5
68
330
5E
100
AcDbEntity
  8
0
100
AcDbBlockEnd
  0
BLOCK
  5
71
330
69
100
AcDbEntity
  8
0
100
AcDbBlockBegin
  2
SEANNOT_GROUP1
 70
     0
 10
0.0
 20
0.0
 30
0.0
  3
SEANNOT_GROUP1
  1

  0
LINE
  5
6B
330
69
100
AcDbEntity
  8
Default
  6
CENTER2
 62
     7
100
AcDbLine
 10
245.9178254557
 20
445.3732598722
 30
0.0
 11
205.9178263498
 21
445.3732598722
 31
0.0
  0
LINE
  5
6C
330
69
100
AcDbEntity
  8
Default
  6
CENTER2
 62
     7
100
AcDbLine
 10
225.9178259028
 20
465.3732594252
 30
0.0
 11
225.9178259028
 21
425.3732603192
 31
0.0
  0
LINE
  5
6D
330
69
100
AcDbEntity
  8
Default
  6
CENTER2
 62
     7
100
AcDbLine
 10
250.917825344
 20
445.3732598722
 30
0.0
 11
264.4178259028
 21
445.3732598722
 31
0.0
  0
LINE
  5
6E
330
69
100
AcDbEntity
  8
Default
  6
CENTER2
 62
     7
100
AcDbLine
 10
225.9178259028
 20
470.3732593134
 30
0.0
 11
225.9178259028
 21
483.8732598722
 31
0.0
  0
LINE
  5
6F
330
69
100
AcDbEntity
  8
Default
  6
CENTER2
 62
     7
100
AcDbLine
 10
200.9178264616
 20
445.3732598722
 30
0.0
 11
187.4178259028
 21
445.3732598722
 31
0.0
  0
LINE
  5
70
330
69
100
AcDbEntity
  8
Default
  6
CENTER2
 62
     7
100
AcDbLine
 10
225.9178259028
 20
420.373260431
 30
0.0
 11
225.9178259028
 21
406.8732598722
 31
0.0
  0
ENDBLK
  5
72
330
69
100
AcDbEntity
  8
0
100
AcDbBlockEnd
  0
BLOCK
  5
77
330
73
100
AcDbEntity
  8
0
100
AcDbBlockBegin
  2
SEANNOT_GROUP2
 70
     0
 10
0.0
 20
0.0
 30
0.0
  3
SEANNOT_GROUP2
  1

  0
LINE
  5
75
330
73
100
AcDbEntity
  8
Default
  6
CENTER2
 62
     7
100
AcDbLine
 10
362.4451058822
 20
445.3732598722
 30
0.0
 11
322.4451067763
 21
445.3732598722
 31
0.0
  0
LINE
  5
76
330
73
100
AcDbEntity
  8
Default
  6
CENTER2
 62
     7
100
AcDbLine
 10
342.4451063292
 20
465.3732594252
 30
0.0
 11
342.4451063292
 21
425.3732603192
 31
0.0
  0
ENDBLK
  5
78
330
73
100
AcDbEntity
  8
0
100
AcDbBlockEnd
  0
BLOCK
  5
7D
330
79
100
AcDbEntity
  8
0
100
AcDbBlockBegin
  2
SEANNOT_GROUP3
 70
     0
 10
0.0
 20
0.0
 30
0.0
  3
SEANNOT_GROUP3
  1

  0
LINE
  5
7B
330
79
100
AcDbEntity
  8
Default
  6
CENTER2
 62
     7
100
AcDbLine
 10
95.9178254557
 20
255.3591966907
 30
0.0
 11
55.9178263498
 21
255.3591966907
 31
0.0
  0
LINE
  5
7C
330
79
100
AcDbEntity
  8
Default
  6
CENTER2
 62
     7
100
AcDbLine
 10
75.9178259028
 20
275.3591962436
 30
0.0
 11
75.9178259028
 21
235.3591971377
 31
0.0
  0
ENDBLK
  5
7E
330
79
100
AcDbEntity
  8
0
100
AcDbBlockEnd
  0
BLOCK
  5
83
330
7F
100
AcDbEntity
  8
0
100
AcDbBlockBegin
  2
SEANNOT_GROUP4
 70
     0
 10
0.0
 20
0.0
 30
0.0
  3
SEANNOT_GROUP4
  1

  0
LINE
  5
81
330
7F
100
AcDbEntity
  8
Default
  6
CENTER2
 62
     7
100
AcDbLine
 10
245.9178254557
 20
255.3591966907
 30
0.0
 11
205.9178263498
 21
255.3591966907
 31
0.0
  0
LINE
  5
82
330
7F
100
AcDbEntity
  8
Default
  6
CENTER2
 62
     7
100
AcDbLine
 10
225.9178259028
 20
275.3591962436
 30
0.0
 11
225.9178259028
 21
235.3591971377
 31
0.0
  0
ENDBLK
  5
84
330
7F
100
AcDbEntity
  8
0
100
AcDbBlockEnd
  0
BLOCK
  5
B6
330
85
100
AcDbEntity
  8
0
100
AcDbBlockBegin
  2
SE
 70
     0
 10
0.0
 20
0.0
 30
0.0
  3
SE
  1

  0
SPLINE
  5
88
330
85
100
AcDbEntity
  8
$DDT_AUDIT_GENERATED_(87)
  6
Continuous
 62
     7
100
AcDbSpline
210
0.0
220
0.0
230
1.0
 70
     8
 71
     3
 72
     8
 73
     4
 74
     0
 42
0.0000000078293626
 43
0.0000000001
 40
0.7428378170372003
 40
0.7428378170372003
 40
0.7428378170372003
 40
0.7428378170372003
 40
0.7441045939810065
 40
0.7441045939810065
 40
0.7441045939810065
 40
0.7441045939810065
 10
258.1170726279246
 20
435.8986662998805
 30
0.0
 10
258.1166712485949
 20
435.8986473926868
 30
0.0
 10
258.1161312259723
 20
435.8986221508243
 30
0.0
 10
258.1154564228555
 20
435.8985904871662
 30
0.0
  0
ARC
  5
89
330
85
100
AcDbEntity
  8
$DDT_AUDIT_GENERATED_(87)
  6
Continuous
 62
     7
100
AcDbCircle
 10
128.2734453611
 20
1883.736060184
 30
0.0
 40
1461.871710927751
100
AcDbArc
 50
272.4187513844
 51
274.7697516191
  0
ARC
  5
8A
330
85
100
AcDbEntity
  8
$DDT_AUDIT_GENERATED_(87)
  6
Continuous
 62
     7
100
AcDbCircle
 10
190.2850900171
 20
415.1730471746
 30
0.0
 40
7.999999999999964
100
AcDbArc
 50
92.2695229441
 51
151.2545158688
  0
ARC
  5
8B
330
85
100
AcDbEntity
  8
$DDT_AUDIT_GENERATED_(87)
  6
Continuous
 62
     7
100
AcDbCircle
 10
150.8868318514
 20
436.8812526593
 30
0.0
 40
36.98300252898752
100
AcDbArc
 50
295.9835203845
 51
331.1219153236
  0
ARC
  5
8C
330
85
100
AcDbEntity
  8
$DDT_AUDIT_GENERATED_(87)
  6
Continuous
 62
     7
100
AcDbCircle
 10
111.5505617918
 20
415.1730471685
 30
0.0
 40
8.000000000000027
100
AcDbArc
 50
28.7454841399
 51
87.7304770641
  0
ARC
  5
8D
330
85
100
AcDbEntity
  8
$DDT_AUDIT_GENERATED_(87)
  6
Continuous
 62
     7
100
AcDbCircle
 10
179.4154399755
 20
1976.9158475878
 30
0.0
 40
1555.216683462164
100
AcDbArc
 50
265.3006717029
 51
267.5106764463
  0
ARC
  5
8E
330
85
100
AcDbEntity
  8
$DDT_AUDIT_GENERATED_(87)
  6
Continuous
 62
     7
100
AcDbCircle
 10
151.0235976936
 20
-676.4322754489
 30
0.0
 40
1141.729391093582
100
AcDbArc
 50
86.8921586462
 51
93.5539090786
  0
ARC
  5
8F
330
85
100
AcDbEntity
  8
$DDT_AUDIT_GENERATED_(87)
  6
Continuous
 62
     7
100
AcDbCircle
 10
152.5678087479
 20
-644.7101837937
 30
0.0
 40
1109.934876585877
100
AcDbArc
 50
84.5664576477
 51
90.0851755568
  0
ARC
  5
90
330
85
100
AcDbEntity
  8
$DDT_AUDIT_GENERATED_(87)
  6
Continuous
 62
     7
100
AcDbCircle
 10
151.0069194267
 20
436.9768621359
 30
0.0
 40
37.0800934258512
100
AcDbArc
 50
208.964092108
 51
244.0443522627
  0
ARC
  5
91
330
85
100
AcDbEntity
  8
$DDT_AUDIT_GENERATED_(87)
  6
Continuous
 62
     7
100
AcDbCircle
 10
149.2859418077
 20
-645.1071073628
 30
0.0
 40
1110.331772853616
100
AcDbArc
 50
89.915792852
 51
95.4325032213
  0
SPLINE
  5
92
330
85
100
AcDbEntity
  8
$DDT_AUDIT_GENERATED_(87)
  6
Continuous
 62
     7
100
AcDbSpline
210
0.0
220
0.0
230
1.0
 70
     8
 71
     3
 72
     8
 73
     4
 74
     0
 42
0.0000000059026589
 43
0.0000000001
 40
0.2564914235346829
 40
0.2564914235346829
 40
0.2564914235346829
 40
0.2564914235346829
 40
0.2570816894213471
 40
0.2570816894213471
 40
0.2570816894213471
 40
0.2570816894213471
 10
43.71894990294508
 20
435.8987226474262
 30
0.0
 10
43.71892493021436
 20
435.8987273853131
 30
0.0
 10
43.71893421637132
 20
435.8987307171485
 30
0.0
 10
43.71897814007353
 20
435.8987326532601
 30
0.0
  0
LINE
  5
93
330
85
100
AcDbEntity
  8
$DDT_AUDIT_GENERATED_(87)
  6
Continuous
 62
     7
100
AcDbLine
 10
69.1941554518
 20
462.3395133755
 30
0.0
 11
70.0960304063
 21
462.4057790774
 31
0.0
  0
LINE
  5
94
330
85
100
AcDbEntity
  8
$DDT_AUDIT_GENERATED_(87)
  6
Continuous
 62
     7
100
AcDbLine
 10
79.3476266982
 20
463.0434737555
 30
0.0
 11
80.250477697
 21
463.1014748073
 31
0.0
  0
LINE
  5
95
330
85
100
AcDbEntity
  8
$DDT_AUDIT_GENERATED_(87)
  6
Continuous
 62
     7
100
AcDbLine
 10
70.0960304063
 20
462.4057790774
 30
0.0
 11
79.3476266982
 21
463.0434737555
 31
0.0
  0
LINE
  5
96
330
85
100
AcDbEntity
  8
$DDT_AUDIT_GENERATED_(87)
  6
Continuous
 62
     7
100
AcDbLine
 10
221.5851722689
 20
463.1014749151
 30
0.0
 11
212.9229928468
 21
463.617928431
 31
0.0
  0
LINE
  5
97
330
85
100
AcDbEntity
  8
$DDT_AUDIT_GENERATED_(87)
  6
Continuous
 62
     7
100
AcDbLine
 10
222.4880233581
 20
463.0434738586
 30
0.0
 11
221.5851722689
 21
463.1014749151
 31
0.0
  0
LINE
  5
98
330
85
100
AcDbEntity
  8
$DDT_AUDIT_GENERATED_(87)
  6
Continuous
 62
     7
100
AcDbLine
 10
231.7396185517
 20
462.4057792711
 30
0.0
 11
222.4880233581
 21
463.0434738586
 31
0.0
  0
LINE
  5
99
330
85
100
AcDbEntity
  8
$DDT_AUDIT_GENERATED_(87)
  6
Continuous
 62
     7
100
AcDbLine
 10
232.6414935966
 20
462.3395135643
 30
0.0
 11
231.7396185517
 21
462.4057792711
 31
0.0
  0
ARC
  5
9A
330
85
100
AcDbEntity
  8
$DDT_AUDIT_GENERATED_(87)
  6
Continuous
 62
     7
100
AcDbCircle
 10
150.9178259028
 20
436.8732598722
 30
0.0
 40
27.25
100
AcDbArc
 50
89.9999999765
 51
233.1383965186
  0
ARC
  5
9B
330
85
100
AcDbEntity
  8
$DDT_AUDIT_GENERATED_(87)
  6
Continuous
 62
     7
100
AcDbCircle
 10
150.9178259028
 20
436.8732598722
 30
0.0
 40
27.25
100
AcDbArc
 50
306.8954845346
 51
89.9999999765
  0
ARC
  5
9C
330
85
100
AcDbEntity
  8
$DDT_AUDIT_GENERATED_(87)
  6
Continuous
 62
     7
100
AcDbCircle
 10
249.1501211478
 20
435.8788857225
 30
0.0
 40
8.977617329212185
100
AcDbArc
 50
275.0926351177
 51
0.1177723822
  0
ARC
  5
9D
330
85
100
AcDbEntity
  8
$DDT_AUDIT_GENERATED_(87)
  6
Continuous
 62
     7
100
AcDbCircle
 10
257.6455566137
 20
459.7484613534
 30
0.0
 40
0.4881835529137219
100
AcDbArc
 50
359.2225411804
 51
76.1074570398
  0
ARC
  5
9E
330
85
100
AcDbEntity
  8
$DDT_AUDIT_GENERATED_(87)
  6
Continuous
 62
     7
100
AcDbCircle
 10
44.19456277
 20
459.7598473836
 30
0.0
 40
0.4748890633108532
100
AcDbArc
 50
106.7961189283
 51
182.3369476301
  0
ARC
  5
9F
330
85
100
AcDbEntity
  8
$DDT_AUDIT_GENERATED_(87)
  6
Continuous
 62
     7
100
AcDbCircle
 10
52.7179955838
 20
435.8986872562
 30
0.0
 40
8.999992024298804
100
AcDbArc
 50
180.002202707
 51
265.4241572525
  0
LINE
  5
A0
330
85
100
AcDbEntity
  8
$DDT_AUDIT_GENERATED_(87)
  6
Continuous
 62
     7
100
AcDbLine
 10
43.7179389473
 20
459.7410244943
 30
0.0
 11
43.7179390253
 21
435.8981794162
 31
0.0
  0
LINE
  5
A1
330
85
100
AcDbEntity
  8
$DDT_AUDIT_GENERATED_(87)
  6
Continuous
 62
     7
100
AcDbLine
 10
258.1171622036
 20
435.8981072312
 30
0.0
 11
258.1171621271
 21
459.7402261486
 31
0.0
  0
LINE
  5
A3
330
85
100
AcDbEntity
  8
$DDT_AUDIT_GENERATED_(A2)
  6
Continuous
 62
     7
100
AcDbLine
 10
167.0496082346
 20
413.3857176067
 30
0.0
 11
167.0493721228
 21
413.4840261148
 31
0.0
  0
ARC
  5
A4
330
85
100
AcDbEntity
  8
$DDT_AUDIT_GENERATED_(A2)
  6
Continuous
 62
     7
100
AcDbCircle
 10
175.0342690898
 20
413.3715553923
 30
0.0
 40
7.984673414745513
100
AcDbArc
 50
135.3343213702
 51
179.8983758638
  0
ARC
  5
A5
330
85
100
AcDbEntity
  8
$DDT_AUDIT_GENERATED_(A2)
  6
Continuous
 62
     7
100
AcDbCircle
 10
126.8010373757
 20
413.3714098742
 30
0.0
 40
7.985026580187465
100
AcDbArc
 50
0.1026642955
 51
44.6646408872
  0
SPLINE
  5
A6
330
85
100
AcDbEntity
  8
$DDT_AUDIT_GENERATED_(A2)
  6
Continuous
 62
     7
100
AcDbSpline
210
0.0
220
0.0
230
1.0
 70
     8
 71
     3
 72
     8
 73
     4
 74
     0
 42
0.0000000000594807
 43
0.0000000001
 40
0.0
 40
0.0
 40
0.0
 40
0.0
 40
0.1833356693559321
 40
0.1833356693559321
 40
0.1833356693559321
 40
0.1833356693559321
 10
134.7860511372921
 20
413.3857176765742
 30
0.0
 10
134.7962803203758
 20
403.1290768748668
 30
0.0
 10
134.820269154161
 20
392.854647836451
 30
0.0
 10
134.8172569764145
 20
382.5630521452846
 30
0.0
  0
ARC
  5
A7
330
85
100
AcDbEntity
  8
$DDT_AUDIT_GENERATED_(A2)
  6
Continuous
 62
     7
100
AcDbCircle
 10
150.9178294772
 20
437.6243763486
 30
0.0
 40
25.61070763505847
100
AcDbArc
 50
314.8645287145
 51
225.1354722612
  0
ARC
  5
A8
330
85
100
AcDbEntity
  8
$DDT_AUDIT_GENERATED_(A2)
  6
Continuous
 62
     7
100
AcDbCircle
 10
126.8257297628
 20
413.5328339895
 30
0.0
 40
8.460563544125979
100
AcDbArc
 50
0.0699904933
 51
44.5872440115
  0
ARC
  5
A9
330
85
100
AcDbEntity
  8
$DDT_AUDIT_GENERATED_(A2)
  6
Continuous
 62
     7
100
AcDbCircle
 10
175.0090160229
 20
413.5332096204
 30
0.0
 40
8.459649514752877
100
AcDbArc
 50
135.4102232349
 51
179.9325401179
  0
SPLINE
  5
AA
330
85
100
AcDbEntity
  8
$DDT_AUDIT_GENERATED_(A2)
  6
Continuous
 62
     7
100
AcDbSpline
210
0.0
220
0.0
230
1.0
 70
     8
 71
     3
 72
    44
 73
    40
 74
     0
 42
0.0000000000599439
 43
0.0000000001
 40
0.0
 40
0.0
 40
0.0
 40
0.0
 40
0.2499999999999979
 40
0.2499999999999979
 40
0.3124999999999976
 40
0.3124999999999976
 40
0.3437499999999974
 40
0.3437499999999974
 40
0.3749999999999973
 40
0.3749999999999973
 40
0.3906249999999973
 40
0.3906249999999973
 40
0.4062499999999974
 40
0.4062499999999974
 40
0.4374999999999977
 40
0.4374999999999977
 40
0.468749999999998
 40
0.468749999999998
 40
0.4843749999999981
 40
0.4843749999999981
 40
0.4999999999999982
 40
0.4999999999999982
 40
0.5624999999999988
 40
0.5624999999999988
 40
0.5781249999999989
 40
0.5781249999999989
 40
0.593749999999999
 40
0.593749999999999
 40
0.6093749999999991
 40
0.6093749999999991
 40
0.6249999999999992
 40
0.6249999999999992
 40
0.6562499999999992
 40
0.6562499999999992
 40
0.6874999999999992
 40
0.6874999999999992
 40
0.7499999999999992
 40
0.7499999999999992
 40
1.0
 40
1.0
 40
1.0
 40
1.0
 10
135.2862869943987
 20
413.5431691114316
 30
0.0
 10
135.3002075919426
 20
399.6805258734063
 30
0.0
 10
135.3388701761692
 20
385.78122396076
 30
0.0
 10
135.2924194225454
 20
368.3504372739137
 30
0.0
 10
135.2729216612277
 20
364.863168147649
 30
0.0
 10
135.2492139553799
 20
359.6307320950773
 30
0.0
 10
135.2370112278668
 20
357.8862702391459
 30
0.0
 10
135.3014367249449
 20
354.3978318597795
 30
0.0
 10
135.375647007593
 20
352.6250072399698
 30
0.0
 10
135.9689613422926
 20
350.0795965639288
 30
0.0
 10
136.2446971100011
 20
349.2574839574763
 30
0.0
 10
136.9561138566926
 20
347.6673329850268
 30
0.0
 10
137.3945683972344
 20
346.8944129822532
 30
0.0
 10
138.8757846762789
 20
344.7376119112251
 30
0.0
 10
140.1125849955805
 20
343.4628732922608
 30
0.0
 10
142.8916027956133
 20
341.3582075718023
 30
0.0
 10
144.4569217126387
 20
340.5138335938711
 30
0.0
 10
146.9259955217264
 20
339.6709605405667
 30
0.0
 10
147.7663735799905
 20
339.4603003911715
 30
0.0
 10
149.48375425198
 20
339.1873283844337
 30
0.0
 10
150.3702408137355
 20
339.126203475045
 30
0.0
 10
154.7339399484203
 20
339.2240396437251
 30
0.0
 10
158.1602986005316
 20
340.6092119493576
 30
0.0
 10
161.52895302388
 20
343.375192742638
 30
0.0
 10
162.1562505818179
 20
343.9767830609679
 30
0.0
 10
163.3143111727177
 20
345.280588865073
 30
0.0
 10
163.8486573944476
 20
345.9900151951697
 30
0.0
 10
164.7708863655247
 20
347.4673332636731
 30
0.0
 10
165.1633505370572
 20
348.2387710385514
 30
0.0
 10
165.7974049127619
 20
349.8536864718528
 30
0.0
 10
166.038300593875
 20
350.709364220686
 30
0.0
 10
166.5190115329197
 20
353.2864431636779
 30
0.0
 10
166.55478628485
 20
355.0121503212736
 30
0.0
 10
166.5961545234634
 20
358.4639494887033
 30
0.0
 10
166.5843219585093
 20
360.1905246377779
 30
0.0
 10
166.5592743763486
 20
365.3693087851913
 30
0.0
 10
166.5415234473995
 20
368.821586113964
 30
0.0
 10
166.4979964678787
 20
386.0697684511453
 30
0.0
 10
166.5355944006838
 20
399.8233070365378
 30
0.0
 10
166.549372371784
 20
413.5431699844757
 30
0.0
  0
SPLINE
  5
AB
330
85
100
AcDbEntity
  8
$DDT_AUDIT_GENERATED_(A2)
  6
Continuous
 62
     7
100
AcDbSpline
210
0.0
220
0.0
230
1.0
 70
     8
 71
     3
 72
    38
 73
    34
 74
     0
 42
0.0000000000594566
 43
0.0000000001
 40
0.0
 40
0.0
 40
0.0
 40
0.0
 40
0.2499999999999998
 40
0.2499999999999998
 40
0.3125
 40
0.3125
 40
0.34375
 40
0.34375
 40
0.3749999999999999
 40
0.3749999999999999
 40
0.4062499999999999
 40
0.4062499999999999
 40
0.4374999999999999
 40
0.4374999999999999
 40
0.4687499999999999
 40
0.4687499999999999
 40
0.4999999999999999
 40
0.4999999999999999
 40
0.5312499999999999
 40
0.5312499999999999
 40
0.5624999999999999
 40
0.5624999999999999
 40
0.5937499999999998
 40
0.5937499999999998
 40
0.6249999999999998
 40
0.6249999999999998
 40
0.6562499999999998
 40
0.6562499999999998
 40
0.6874999999999998
 40
0.6874999999999998
 40
0.7499999999999996
 40
0.7499999999999996
 40
1.0
 40
1.0
 40
1.0
 40
1.0
 10
167.0493721227671
 20
413.4840261147959
 30
0.0
 10
167.03534207677
 20
399.5232133706274
 30
0.0
 10
166.9958636593866
 20
385.5323643422289
 30
0.0
 10
167.0445291815559
 20
367.9935323078197
 30
0.0
 10
167.0655896850611
 20
364.4832361274944
 30
0.0
 10
167.0875113258944
 20
359.2137436378341
 30
0.0
 10
167.1003686282502
 20
357.4548490099784
 30
0.0
 10
167.0141251607111
 20
353.9443118505428
 30
0.0
 10
166.9113159584982
 20
352.1868034415115
 30
0.0
 10
166.0250790412756
 20
348.7630695677907
 30
0.0
 10
165.2634541789556
 20
347.1757695930089
 30
0.0
 10
163.2290818802657
 20
344.2953632223441
 30
0.0
 10
161.9853512612223
 20
343.0349931725682
 30
0.0
 10
159.1728102253083
 20
340.9256594386453
 30
0.0
 10
157.6230710529469
 20
340.0902527564422
 30
0.0
 10
154.2919413291839
 20
338.9392278856757
 30
0.0
 10
152.5766324212024
 20
338.6449319694258
 30
0.0
 10
149.0372693911982
 20
338.6710514450715
 30
0.0
 10
147.3166159878376
 20
338.9919670661995
 30
0.0
 10
143.9892833891207
 20
340.1968685113727
 30
0.0
 10
142.4591399838932
 20
341.0490894160855
 30
0.0
 10
139.6585389663811
 20
343.2125899123328
 30
0.0
 10
138.4514252812947
 20
344.4727707512845
 30
0.0
 10
136.4601820165136
 20
347.3825246302623
 30
0.0
 10
135.728676207053
 20
348.9810862488501
 30
0.0
 10
134.9004896348148
 20
352.3910741528911
 30
0.0
 10
134.810567965173
 20
354.1670969905711
 30
0.0
 10
134.7363420362556
 20
357.665206431945
 30
0.0
 10
134.7486033306884
 20
359.4149932093453
 30
0.0
 10
134.7714944227125
 20
364.6633741148937
 30
0.0
 10
134.7917822522039
 20
368.1620506457957
 30
0.0
 10
134.8393243879373
 20
385.6424254530732
 30
0.0
 10
134.8002590052121
 20
399.5804514944004
 30
0.0
 10
134.7862872433885
 20
413.484025269527
 30
0.0
  0
ARC
  5
AC
330
85
100
AcDbEntity
  8
$DDT_AUDIT_GENERATED_(A2)
  6
Continuous
 62
     7
100
AcDbCircle
 10
175.001132133
 20
413.4738504205
 30
0.0
 40
7.951766521005768
100
AcDbArc
 50
135.3798925273
 51
179.9266798775
  0
ARC
  5
AD
330
85
100
AcDbEntity
  8
$DDT_AUDIT_GENERATED_(A2)
  6
Continuous
 62
     7
100
AcDbCircle
 10
150.9178294774
 20
437.5468823251
 30
0.0
 40
26.10011858083303
100
AcDbArc
 50
314.9002041218
 51
225.0997968536
  0
LINE
  5
AE
330
85
100
AcDbEntity
  8
$DDT_AUDIT_GENERATED_(A2)
  6
Continuous
 62
     7
100
AcDbLine
 10
167.0857449619
 20
358.4629186538
 30
0.0
 11
167.0857449655
 21
358.7818032119
 31
0.0
  0
ARC
  5
AF
330
85
100
AcDbEntity
  8
$DDT_AUDIT_GENERATED_(A2)
  6
Continuous
 62
     7
100
AcDbCircle
 10
304.004126382
 20
360.2129061507
 30
0.0
 40
169.2701118299284
100
AcDbArc
 50
178.8837552908
 51
181.7628853142
  0
ARC
  5
B1
330
85
100
AcDbEntity
  8
$DDT_AUDIT_GENERATED_(B0)
  6
Continuous
 62
     7
100
AcDbCircle
 10
75.9178259028
 20
445.3732598722
 30
0.0
 40
35.0
100
AcDbArc
 50
156.9256097489
 51
321.412083882
  0
ARC
  5
B2
330
85
100
AcDbEntity
  8
$DDT_AUDIT_GENERATED_(B0)
  6
Continuous
 62
     7
100
AcDbCircle
 10
75.9178259028
 20
445.3732598722
 30
0.0
 40
35.0
100
AcDbArc
 50
32.920444312
 51
154.8225061649
  0
ARC
  5
B3
330
85
100
AcDbEntity
  8
$DDT_AUDIT_GENERATED_(B0)
  6
Continuous
 62
     7
100
AcDbCircle
 10
225.9178259028
 20
445.3732598722
 30
0.0
 40
35.0
100
AcDbArc
 50
218.5835312984
 51
0.0
  0
ARC
  5
B4
330
85
100
AcDbEntity
  8
$DDT_AUDIT_GENERATED_(B0)
  6
Continuous
 62
     7
100
AcDbCircle
 10
225.9178259028
 20
445.3732598722
 30
0.0
 40
35.0
100
AcDbArc
 50
25.027666536
 51
147.1266205046
  0
ARC
  5
B5
330
85
100
AcDbEntity
  8
$DDT_AUDIT_GENERATED_(B0)
  6
Continuous
 62
     7
100
AcDbCircle
 10
225.9178259028
 20
445.3732598722
 30
0.0
 40
35.0
100
AcDbArc
 50
0.0
 51
22.9279683671
  0
ENDBLK
  5
B7
330
85
100
AcDbEntity
  8
0
100
AcDbBlockEnd
  0
BLOCK
  5
143
330
B8
100
AcDbEntity
  8
0
100
AcDbBlockBegin
  2
SE1
 70
     0
 10
0.0
 20
0.0
 30
0.0
  3
SE1
  1

  0
LINE
  5
BA
330
B8
100
AcDbEntity
  8
$DDT_AUDIT_GENERATED_(87)
  6
Continuous
 62
     7
100
AcDbLine
 10
385.4951063292
 20
432.1597123832
 30
0.0
 11
385.4951063292
 21
433.2538476825
 31
0.0
  0
ARC
  5
BB
330
B8
100
AcDbEntity
  8
$DDT_AUDIT_GENERATED_(87)
  6
Continuous
 62
     7
100
AcDbCircle
 10
-1892.7922597232
 20
425.7188674209
 30
0.0
 40
2314.698202842116
100
AcDbArc
 50
359.9413307215
 51
0.1589955102
  0
LINE
  5
BC
330
B8
100
AcDbEntity
  8
$DDT_AUDIT_GENERATED_(87)
  6
Continuous
 62
     7
100
AcDbLine
 10
385.4951063292
 20
423.3486815037
 30
0.0
 11
385.4951063292
 21
432.1597123832
 31
0.0
  0
SPLINE
  5
BD
330
B8
100
AcDbEntity
  8
$DDT_AUDIT_GENERATED_(87)
  6
Continuous
 62
     7
100
AcDbSpline
210
0.0
220
0.0
230
1.0
 70
     8
 71
     3
 72
    12
 73
     8
 74
     0
 42
0.0000000016012634
 43
0.0000000001
 40
0.6082658075426531
 40
0.6082658075426531
 40
0.6082658075426531
 40
0.6082658075426531
 40
0.7499999999999998
 40
0.7499999999999998
 40
0.8749999999999999
 40
0.8749999999999999
 40
1.0
 40
1.0
 40
1.0
 40
1.0
 10
421.9062738477249
 20
411.3447681604817
 30
0.0
 10
421.906273709812
 20
410.7734592145823
 30
0.0
 10
421.9062420003082
 20
410.2948345720554
 30
0.0
 10
421.9061321735206
 20
409.5889412107454
 30
0.0
 10
421.9060612285716
 20
409.3351510888912
 30
0.0
 10
421.9058948452492
 20
408.989719422963
 30
0.0
 10
421.9057974977688
 20
408.8984636186823
 30
0.0
 10
421.9057012823457
 20
408.8984288965675
 30
0.0
  0
LINE
  5
BE
330
B8
100
AcDbEntity
  8
$DDT_AUDIT_GENERATED_(87)
  6
Continuous
 62
     7
100
AcDbLine
 10
385.4951063292
 20
423.3486815076
 30
0.0
 11
385.4951063292
 21
408.8984302331
 31
0.0
  0
LINE
  5
BF
330
B8
100
AcDbEntity
  8
$DDT_AUDIT_GENERATED_(87)
  6
Continuous
 62
     7
100
AcDbLine
 10
394.4951063292
 20
423.1667719754
 30
0.0
 11
412.8969854242
 21
423.1667719754
 31
0.0
  0
ELLIPSE
  5
C0
330
B8
100
AcDbEntity
  8
$DDT_AUDIT_GENERATED_(87)
  6
Continuous
 62
     7
100
AcDbEllipse
 10
412.8969854242
 20
432.1597123832
 30
0.0
 11
8.997821724395088
 21
0.1980005454680512
 31
0.0
210
0.0
220
0.0
230
0.9999999999999998
 40
0.9992152215
 41
4.690404405712113
 42
6.261166196954893
  0
ELLIPSE
  5
C1
330
B8
100
AcDbEntity
  8
$DDT_AUDIT_GENERATED_(87)
  6
Continuous
 62
     7
100
AcDbEllipse
 10
394.4951063292
 20
432.1597123832
 30
0.0
 11
9.000000000000394
 21
-3.637715129123364E-12
 31
0.0
210
0.0
220
0.0
230
1.0
 40
0.9992156009
 41
3.141592653590198
 42
4.712388980385094
  0
ARC
  5
C2
330
B8
100
AcDbEntity
  8
$DDT_AUDIT_GENERATED_(87)
  6
Continuous
 62
     7
100
AcDbCircle
 10
412.9057012905
 20
408.8984288833
 30
0.0
 40
8.99999999184014
100
AcDbArc
 50
270.2836832649
 51
0.0
  0
LINE
  5
C3
330
B8
100
AcDbEntity
  8
$DDT_AUDIT_GENERATED_(87)
  6
Continuous
 62
     7
100
AcDbLine
 10
385.9951341341
 20
465.2666503666
 30
0.0
 11
385.9951341036
 21
463.1014748073
 31
0.0
  0
SPLINE
  5
C4
330
B8
100
AcDbEntity
  8
$DDT_AUDIT_GENERATED_(87)
  6
Continuous
 62
     7
100
AcDbSpline
210
0.0
220
0.0
230
1.0
 70
     8
 71
     3
 72
    14
 73
    10
 74
     0
 42
0.0000000015480872
 43
0.0000000001
 40
0.07536749991341
 40
0.07536749991341
 40
0.07536749991341
 40
0.07536749991341
 40
0.2500000000000001
 40
0.2500000000000001
 40
0.5000000000000001
 40
0.5000000000000001
 40
0.5625000000000001
 40
0.5625000000000001
 40
0.5721279331052762
 40
0.5721279331052762
 40
0.5721279331052762
 40
0.5721279331052762
 10
421.9063743639561
 20
464.6710949613687
 30
0.0
 10
421.9064773129728
 20
464.5898134267155
 30
0.0
 10
421.9050245782286
 20
464.4130540736434
 30
0.0
 10
421.8877425759954
 20
463.7362839675645
 30
0.0
 10
421.8767826085883
 20
463.1129775250857
 30
0.0
 10
421.7691967156266
 20
462.0506095486626
 30
0.0
 10
421.7431910715502
 20
461.8246898580169
 30
0.0
 10
421.6913914249205
 20
461.550047921939
 30
0.0
 10
421.6841531383474
 20
461.5130928552117
 30
0.0
 10
421.6761765119284
 20
461.475866888151
 30
0.0
  0
SPLINE
  5
C5
330
B8
100
AcDbEntity
  8
$DDT_AUDIT_GENERATED_(87)
  6
Continuous
 62
     7
100
AcDbSpline
210
0.0
220
0.0
230
1.0
 70
     8
 71
     3
 72
    40
 73
    36
 74
     0
 42
0.0000000001108725
 43
0.0000000001
 40
0.5721279331052762
 40
0.5721279331052762
 40
0.5721279331052762
 40
0.5721279331052762
 40
0.59375
 40
0.59375
 40
0.6093750000000001
 40
0.6093750000000001
 40
0.6250000000000002
 40
0.6250000000000002
 40
0.6562500000000001
 40
0.6562500000000001
 40
0.671875
 40
0.671875
 40
0.6874999999999999
 40
0.6874999999999999
 40
0.7187499999999999
 40
0.7187499999999999
 40
0.7499999999999999
 40
0.7499999999999999
 40
0.765625
 40
0.765625
 40
0.78125
 40
0.78125
 40
0.8125
 40
0.8125
 40
0.84375
 40
0.84375
 40
0.875
 40
0.875
 40
0.90625
 40
0.90625
 40
0.9375
 40
0.9375
 40
0.96875
 40
0.96875
 40
0.9817350750635149
 40
0.9817350750635149
 40
0.9817350750635149
 40
0.9817350750635149
 10
421.6761765119284
 20
461.475866888151
 30
0.0
 10
421.6582628903711
 20
461.3922661463087
 30
0.0
 10
421.6366254838697
 20
461.3072991304014
 30
0.0
 10
421.5848501217131
 20
461.1590428168568
 30
0.0
 10
421.5639873276675
 20
461.0982370113742
 30
0.0
 10
421.3356427446608
 20
460.9782592857774
 30
0.0
 10
421.1629372870577
 20
460.9168330511228
 30
0.0
 10
420.5943879623246
 20
460.7325609654063
 30
0.0
 10
420.0798653500694
 20
460.6081316556636
 30
0.0
 10
418.9897404818804
 20
460.4369036207599
 30
0.0
 10
418.5746805593297
 20
460.3822842615947
 30
0.0
 10
417.6143699644041
 20
460.2795132368969
 30
0.0
 10
417.0595235490459
 20
460.2311876298796
 30
0.0
 10
415.2976029473892
 20
460.0979676028465
 30
0.0
 10
413.9782058239759
 20
460.0220649969512
 30
0.0
 10
411.1960410971415
 20
459.8896982375926
 30
0.0
 10
409.7554380604186
 20
459.8327658220689
 30
0.0
 10
407.4744249081469
 20
459.7729195616467
 30
0.0
 10
406.689276455943
 20
459.7579772081402
 30
0.0
 10
405.1145388918161
 20
459.7409659185041
 30
0.0
 10
404.3180803566026
 20
459.7386915430598
 30
0.0
 10
401.9210423330963
 20
459.744388196775
 30
0.0
 10
400.3462907818816
 20
459.7617351450794
 30
0.0
 10
397.2610697804562
 20
459.8332009670049
 30
0.0
 10
395.7783866236984
 20
459.8881443575462
 30
0.0
 10
393.0890748831494
 20
460.0319455703873
 30
0.0
 10
391.8296268223535
 20
460.120471309182
 30
0.0
 10
389.5888464214097
 20
460.3148814310987
 30
0.0
 10
388.5955609578896
 20
460.4220687171174
 30
0.0
 10
387.0328096616003
 20
460.654216432278
 30
0.0
 10
386.4746831943147
 20
460.7755925916946
 30
0.0
 10
385.7333259147294
 20
461.0259890700556
 30
0.0
 10
385.5629270169704
 20
461.1526414726324
 30
0.0
 10
385.4950044547724
 20
461.3279074406016
 30
0.0
 10
385.4882107837089
 20
461.379294413473
 30
0.0
 10
385.4870805472105
 20
461.43037358806
 30
0.0
  0
SPLINE
  5
C6
330
B8
100
AcDbEntity
  8
$DDT_AUDIT_GENERATED_(87)
  6
Continuous
 62
     7
100
AcDbSpline
210
0.0
220
0.0
230
1.0
 70
     8
 71
     3
 72
     8
 73
     4
 74
     0
 42
0.0000000008547099
 43
0.0000000001
 40
0.9817350750635149
 40
0.9817350750635149
 40
0.9817350750635149
 40
0.9817350750635149
 40
1.0
 40
1.0
 40
1.0
 40
1.0
 10
385.4870805472105
 20
461.43037358806
 30
0.0
 10
385.4854907462503
 20
461.5022220205938
 30
0.0
 10
385.4951063292233
 20
461.5734614590779
 30
0.0
 10
385.4951063292233
 20
461.6434073684892
 30
0.0
  0
ARC
  5
C7
330
B8
100
AcDbEntity
  8
$DDT_AUDIT_GENERATED_(87)
  6
Continuous
 62
     7
100
AcDbCircle
 10
421.4057012831
 20
464.7234713704
 30
0.0
 40
0.4999999992310641
100
AcDbArc
 50
0.0
 51
89.7428982071
  0
LINE
  5
C8
330
B8
100
AcDbEntity
  8
$DDT_AUDIT_GENERATED_(87)
  6
Continuous
 62
     7
100
AcDbLine
 10
385.4951063292
 20
462.7673479256
 30
0.0
 11
385.4951063292
 21
464.7666588242
 31
0.0
  0
SPLINE
  5
C9
330
B8
100
AcDbEntity
  8
$DDT_AUDIT_GENERATED_(87)
  6
Continuous
 62
     7
100
AcDbSpline
210
0.0
220
0.0
230
1.0
 70
     8
 71
     3
 72
    12
 73
     8
 74
     0
 42
0.0000000005131346
 43
0.0000000001
 40
0.0
 40
0.0
 40
0.0
 40
0.0
 40
0.0312500000000001
 40
0.0312500000000001
 40
0.0625000000000002
 40
0.0625000000000002
 40
0.0898070317456002
 40
0.0898070317456002
 40
0.0898070317456002
 40
0.0898070317456002
 10
385.9951340843754
 20
462.3395133755218
 30
0.0
 10
385.9951340816016
 20
462.2238687675404
 30
0.0
 10
385.9951340788181
 20
462.1050484083403
 30
0.0
 10
385.9951340732653
 20
461.8613737872436
 30
0.0
 10
385.9823913959216
 20
461.7364742971594
 30
0.0
 10
386.300740126449
 20
461.498159279187
 30
0.0
 10
386.5794969181932
 20
461.3847304380914
 30
0.0
 10
387.0136815911175
 20
461.2749072863648
 30
0.0
  0
SPLINE
  5
CA
330
B8
100
AcDbEntity
  8
$DDT_AUDIT_GENERATED_(87)
  6
Continuous
 62
     7
100
AcDbSpline
210
0.0
220
0.0
230
1.0
 70
     8
 71
     3
 72
    26
 73
    22
 74
     0
 42
0.0000000000852135
 43
0.0000000001
 40
0.0898070317456002
 40
0.0898070317456002
 40
0.0898070317456002
 40
0.0898070317456002
 40
0.0937500000000003
 40
0.0937500000000003
 40
0.1250000000000004
 40
0.1250000000000004
 40
0.1562500000000004
 40
0.1562500000000004
 40
0.1875000000000006
 40
0.1875000000000006
 40
0.2187500000000006
 40
0.2187500000000006
 40
0.2500000000000008
 40
0.2500000000000008
 40
0.2812500000000009
 40
0.2812500000000009
 40
0.3125000000000011
 40
0.3125000000000011
 40
0.3437500000000012
 40
0.3437500000000012
 40
0.3699694024628379
 40
0.3699694024628379
 40
0.3699694024628379
 40
0.3699694024628379
 10
387.0136815911175
 20
461.2749072863648
 30
0.0
 10
387.0763752005086
 20
461.2590494954159
 30
0.0
 10
387.1423094178806
 20
461.2432668816209
 30
0.0
 10
387.7604046009358
 20
461.1032286875914
 30
0.0
 10
388.5391243393514
 20
460.9813995524681
 30
0.0
 10
390.457738212287
 20
460.7631633176687
 30
0.0
 10
391.5839599583211
 20
460.6635463788168
 30
0.0
 10
394.0636838729728
 20
460.4874956425796
 30
0.0
 10
395.3972845288084
 20
460.4127524777338
 30
0.0
 10
398.3285877366631
 20
460.3032011603065
 30
0.0
 10
399.8769646870315
 20
460.2694757943451
 30
0.0
 10
402.9962936553774
 20
460.235162470214
 30
0.0
 10
404.6030822933019
 20
460.2305118345868
 30
0.0
 10
407.6733432184676
 20
460.2715790112562
 30
0.0
 10
409.1669340848557
 20
460.3187070176353
 30
0.0
 10
412.0247818837037
 20
460.4337715246296
 30
0.0
 10
413.3812413897178
 20
460.5012076238971
 30
0.0
 10
415.9116991597316
 20
460.660183287286
 30
0.0
 10
417.0986391005575
 20
460.7544031847995
 30
0.0
 10
418.7484299492683
 20
460.9549546774766
 30
0.0
 10
419.3350917822423
 20
461.0570765778963
 30
0.0
 10
419.7882684087511
 20
461.1607874111035
 30
0.0
  0
SPLINE
  5
CB
330
B8
100
AcDbEntity
  8
$DDT_AUDIT_GENERATED_(87)
  6
Continuous
 62
     7
100
AcDbSpline
210
0.0
220
0.0
230
1.0
 70
     8
 71
     3
 72
    22
 73
    18
 74
     0
 42
0.0000000012554553
 43
0.0000000001
 40
0.3699694024628379
 40
0.3699694024628379
 40
0.3699694024628379
 40
0.3699694024628379
 40
0.3750000000000014
 40
0.3750000000000014
 40
0.3906250000000013
 40
0.3906250000000013
 40
0.4062500000000012
 40
0.4062500000000012
 40
0.4218750000000012
 40
0.4218750000000012
 40
0.4375000000000011
 40
0.4375000000000011
 40
0.5000000000000011
 40
0.5000000000000011
 40
0.7500000000000006
 40
0.7500000000000006
 40
1.0
 40
1.0
 40
1.0
 40
1.0
 10
419.7882684087511
 20
461.1607874111035
 30
0.0
 10
419.8752173475931
 20
461.1806859371224
 30
0.0
 10
419.9572523820084
 20
461.2006429554947
 30
0.0
 10
420.2748549016958
 20
461.282564481554
 30
0.0
 10
420.4722664110259
 20
461.3450082156707
 30
0.0
 10
420.8215879473327
 20
461.46972408675
 30
0.0
 10
420.9767652741978
 20
461.5319211102395
 30
0.0
 10
421.1086267045441
 20
461.659428086298
 30
0.0
 10
421.1116905323576
 20
461.7237388442512
 30
0.0
 10
421.149410437412
 20
461.8498613365975
 30
0.0
 10
421.1645080820795
 20
461.9121813843913
 30
0.0
 10
421.2316356617081
 20
462.2199127661763
 30
0.0
 10
421.259892285916
 20
462.4536909208515
 30
0.0
 10
421.3789493745019
 20
463.5537166893114
 30
0.0
 10
421.3888418623218
 20
464.2010777491422
 30
0.0
 10
421.410409112696
 20
465.0266106187959
 30
0.0
 10
421.4089387800421
 20
465.2234614681811
 30
0.0
 10
421.4079449119807
 20
465.2234663357631
 30
0.0
  0
ARC
  5
CC
330
B8
100
AcDbEntity
  8
$DDT_AUDIT_GENERATED_(87)
  6
Continuous
 62
     7
100
AcDbCircle
 10
386.2232689861
 20
461.6479959308
 30
0.0
 40
0.7281771142653306
100
AcDbArc
 50
108.2579692232
 51
180.3610481417
  0
SPLINE
  5
CD
330
B8
100
AcDbEntity
  8
$DDT_AUDIT_GENERATED_(87)
  6
Continuous
 62
     7
100
AcDbSpline
210
0.0
220
0.0
230
1.0
 70
     8
 71
     3
 72
    14
 73
    10
 74
     0
 42
0.0000000142021029
 43
0.0000000001
 40
0.0
 40
0.0
 40
0.0
 40
0.0
 40
0.25
 40
0.25
 40
0.5
 40
0.5
 40
0.75
 40
0.75
 40
1.0
 40
1.0
 40
1.0
 40
1.0
 10
385.4951063292233
 20
462.7673479255813
 30
0.0
 10
385.4951063292233
 20
462.8542220926817
 30
0.0
 10
385.5202062178883
 20
462.911523965546
 30
0.0
 10
385.5833851786654
 20
463.0052533951866
 30
0.0
 10
385.6236494156504
 20
463.0393853290119
 30
0.0
 10
385.7131542179106
 20
463.0888044101091
 30
0.0
 10
385.7627016813911
 20
463.1041709520031
 30
0.0
 10
385.8707685709604
 20
463.1173908001896
 30
0.0
 10
385.9289595104594
 20
463.1155795809077
 30
0.0
 10
385.9951341035626
 20
463.1014748072805
 30
0.0
  0
SPLINE
  5
CE
330
B8
100
AcDbEntity
  8
$DDT_AUDIT_GENERATED_(87)
  6
Continuous
 62
     7
100
AcDbSpline
210
0.0
220
0.0
230
1.0
 70
     8
 71
     3
 72
    46
 73
    42
 74
     0
 42
0.0000000002553517
 43
0.0000000001
 40
0.0
 40
0.0
 40
0.0
 40
0.0
 40
0.0312499999999998
 40
0.0312499999999998
 40
0.0624999999999995
 40
0.0624999999999995
 40
0.0937499999999993
 40
0.0937499999999993
 40
0.124999999999999
 40
0.124999999999999
 40
0.1874999999999983
 40
0.1874999999999983
 40
0.2499999999999975
 40
0.2499999999999975
 40
0.2812499999999972
 40
0.2812499999999972
 40
0.3124999999999969
 40
0.3124999999999969
 40
0.3437499999999966
 40
0.3437499999999966
 40
0.3749999999999963
 40
0.3749999999999963
 40
0.406249999999996
 40
0.406249999999996
 40
0.4374999999999957
 40
0.4374999999999957
 40
0.4687499999999954
 40
0.4687499999999954
 40
0.4999999999999951
 40
0.4999999999999951
 40
0.5156249999999952
 40
0.5156249999999952
 40
0.5312499999999953
 40
0.5312499999999953
 40
0.5624999999999954
 40
0.5624999999999954
 40
0.624999999999996
 40
0.624999999999996
 40
0.7499999999999972
 40
0.7499999999999972
 40
1.0
 40
1.0
 40
1.0
 40
1.0
 10
385.6083196761125
 20
435.2456857862415
 30
0.0
 10
385.7043679538503
 20
435.2977555578435
 30
0.0
 10
385.8737281423701
 20
435.34436952832
 30
0.0
 10
386.4032529102901
 20
435.4295781125471
 30
0.0
 10
386.7710736633039
 20
435.4681374430442
 30
0.0
 10
387.7025881321778
 20
435.5376089172788
 30
0.0
 10
388.2656144405427
 20
435.5680193027215
 30
0.0
 10
389.5873617748323
 20
435.6314766330728
 30
0.0
 10
390.3428399981846
 20
435.6678964903165
 30
0.0
 10
392.7574051166721
 20
435.7680316711217
 30
0.0
 10
394.624361176835
 20
435.8188260055563
 30
0.0
 10
398.6977910288452
 20
435.8752212730016
 30
0.0
 10
400.9240958776285
 20
435.8941339289479
 30
0.0
 10
404.2379026054325
 20
435.8999966896003
 30
0.0
 10
405.3627057519671
 20
435.8976916029087
 30
0.0
 10
407.519330972224
 20
435.8876278043379
 30
0.0
 10
408.5593548700858
 20
435.8782600603055
 30
0.0
 10
410.592762451005
 20
435.8408895597938
 30
0.0
 10
411.5950548842158
 20
435.8149957329695
 30
0.0
 10
413.5147406027467
 20
435.7606369078035
 30
0.0
 10
414.4345121860033
 20
435.7314619844597
 30
0.0
 10
416.1702694792025
 20
435.6757337663803
 30
0.0
 10
416.9961868948671
 20
435.6485050834814
 30
0.0
 10
418.4327218540641
 20
435.6162768240728
 30
0.0
 10
419.0166914831586
 20
435.5938962054455
 30
0.0
 10
419.9909204797781
 20
435.5279070753128
 30
0.0
 10
420.3803136386425
 20
435.4855364905825
 30
0.0
 10
420.9977288039119
 20
435.3845560218312
 30
0.0
 10
421.255768746673
 20
435.307295013296
 30
0.0
 10
421.5136536115682
 20
435.2605601894015
 30
0.0
 10
421.5602114384569
 20
435.2634067806813
 30
0.0
 10
421.6012495650079
 20
435.2043894502489
 30
0.0
 10
421.6145247764106
 20
435.1576874787371
 30
0.0
 10
421.6539548345467
 20
435.0372271255369
 30
0.0
 10
421.6732698083366
 20
434.9562703053311
 30
0.0
 10
421.7237821296949
 20
434.715304735227
 30
0.0
 10
421.7463056489894
 20
434.5568007908722
 30
0.0
 10
421.8031474885581
 20
434.093083599759
 30
0.0
 10
421.8252437176463
 20
433.7990636673162
 30
0.0
 10
421.8764407496872
 20
432.9773879387971
 30
0.0
 10
421.8892717299778
 20
432.5099174070585
 30
0.0
 10
421.8969820016159
 20
432.1597123831309
 30
0.0
  0
ARC
  5
CF
330
B8
100
AcDbEntity
  8
$DDT_AUDIT_GENERATED_(87)
  6
Continuous
 62
     7
100
AcDbCircle
 10
392.8516944415
 20
433.1914983311
 30
0.0
 40
7.35685232248419
100
AcDbArc
 50
179.5144122377
 51
206.1012063051
  0
ARC
  5
D0
330
B8
100
AcDbEntity
  8
$DDT_AUDIT_GENERATED_(87)
  6
Continuous
 62
     7
100
AcDbCircle
 10
394.7328469806
 20
434.7561184882
 30
0.0
 40
9.137651485432203
100
AcDbArc
 50
176.9287976273
 51
201.7397999474
  0
SPLINE
  5
D1
330
B8
100
AcDbEntity
  8
$DDT_AUDIT_GENERATED_(87)
  6
Continuous
 62
     7
100
AcDbSpline
210
0.0
220
0.0
230
1.0
 70
     8
 71
     3
 72
    18
 73
    14
 74
     0
 42
0.000000000378506
 43
0.0000000001
 40
0.0
 40
0.0
 40
0.0
 40
0.0
 40
0.25
 40
0.25
 40
0.3750000000000001
 40
0.3750000000000001
 40
0.5000000000000002
 40
0.5000000000000002
 40
0.7500000000000004
 40
0.7500000000000004
 40
0.8750000000000002
 40
0.8750000000000002
 40
1.0
 40
1.0
 40
1.0
 40
1.0
 10
385.6083196761125
 20
435.2456857862415
 30
0.0
 10
385.7199328042274
 20
437.3974802205476
 30
0.0
 10
385.8807139852722
 20
439.8382401169231
 30
0.0
 10
385.9866960993708
 20
443.5630288287362
 30
0.0
 10
386.0017121275492
 20
444.8329470823322
 30
0.0
 10
385.9846121333392
 20
447.3319002506467
 30
0.0
 10
385.9530222066143
 20
448.5707039791098
 30
0.0
 10
385.8074768533106
 20
452.2534038312258
 30
0.0
 10
385.6381577221293
 20
454.6221003405443
 30
0.0
 10
385.5097187892478
 20
457.7103738070151
 30
0.0
 10
385.4955098629477
 20
458.6311617963516
 30
0.0
 10
385.4947572428228
 20
460.2806274120501
 30
0.0
 10
385.4951063292233
 20
461.0214880077725
 30
0.0
 10
385.4951063292233
 20
461.6434073684892
 30
0.0
  0
LINE
  5
D2
330
B8
100
AcDbEntity
  8
$DDT_AUDIT_GENERATED_(87)
  6
Continuous
 62
     7
100
AcDbLine
 10
385.9951340844
 20
462.3395133755
 30
0.0
 11
386.2451063292
 21
462.4057790774
 31
0.0
  0
LINE
  5
D3
330
B8
100
AcDbEntity
  8
$DDT_AUDIT_GENERATED_(87)
  6
Continuous
 62
     7
100
AcDbLine
 10
386.2451063292
 20
463.0434737555
 30
0.0
 11
385.9951341036
 21
463.1014748073
 31
0.0
  0
LINE
  5
D4
330
B8
100
AcDbEntity
  8
$DDT_AUDIT_GENERATED_(87)
  6
Continuous
 62
     7
100
AcDbLine
 10
385.4951063292
 20
462.7673479256
 30
0.0
 11
385.4951063292
 21
461.7598002681
 31
0.0
  0
LINE
  5
D5
330
B8
100
AcDbEntity
  8
$DDT_AUDIT_GENERATED_(87)
  6
Continuous
 62
     7
100
AcDbLine
 10
385.4951063292
 20
460.4818870505
 30
0.0
 11
385.4951063292
 21
455.875237499
 31
0.0
  0
LINE
  5
D6
330
B8
100
AcDbEntity
  8
$DDT_AUDIT_GENERATED_(87)
  6
Continuous
 62
     7
100
AcDbLine
 10
385.4951063292
 20
434.8513386669
 30
0.0
 11
385.4951063292
 21
433.2538476825
 31
0.0
  0
LINE
  5
D7
330
B8
100
AcDbEntity
  8
$DDT_AUDIT_GENERATED_(87)
  6
Continuous
 62
     7
100
AcDbLine
 10
386.2451063292
 20
462.4057790774
 30
0.0
 11
386.2451063292
 21
463.0434737555
 31
0.0
  0
LINE
  5
D8
330
B8
100
AcDbEntity
  8
$DDT_AUDIT_GENERATED_(87)
  6
Continuous
 62
     7
100
AcDbLine
 10
386.2451063292
 20
431.3716047411
 30
0.0
 11
386.2451063292
 21
429.9547917318
 31
0.0
  0
SPLINE
  5
D9
330
B8
100
AcDbEntity
  8
$DDT_AUDIT_GENERATED_(87)
  6
Continuous
 62
     7
100
AcDbSpline
210
0.0
220
0.0
230
1.0
 70
     8
 71
     3
 72
     8
 73
     4
 74
     0
 42
0.0000000070588782
 43
0.0000000001
 40
0.84905081909993
 40
0.84905081909993
 40
0.84905081909993
 40
0.84905081909993
 40
1.0
 40
1.0
 40
1.0
 40
1.0
 10
421.9042225424899
 20
464.5096410024282
 30
0.0
 10
421.9060597769955
 20
464.6535153925619
 30
0.0
 10
421.9057012823457
 20
464.7234713695692
 30
0.0
 10
421.9057012823457
 20
464.723471369663
 30
0.0
  0
ARC
  5
DA
330
B8
100
AcDbEntity
  8
$DDT_AUDIT_GENERATED_(87)
  6
Continuous
 62
     7
100
AcDbCircle
 10
403.700109013
 20
365.0554589959
 30
0.0
 40
36.04981516616841
100
AcDbArc
 50
75.2051418115
 51
104.7938031623
  0
LINE
  5
DB
330
B8
100
AcDbEntity
  8
$DDT_AUDIT_GENERATED_(87)
  6
Continuous
 62
     7
100
AcDbLine
 10
412.9057014926
 20
399.9101033448
 30
0.0
 11
412.9501063172
 21
399.8985384358
 31
0.0
  0
LINE
  5
DC
330
B8
100
AcDbEntity
  8
$DDT_AUDIT_GENERATED_(87)
  6
Continuous
 62
     7
100
AcDbLine
 10
412.9501063292
 20
399.8985384328
 30
0.0
 11
412.9057535004
 21
399.9100897225
 31
0.0
  0
SPLINE
  5
DD
330
B8
100
AcDbEntity
  8
$DDT_AUDIT_GENERATED_(87)
  6
Continuous
 62
     7
100
AcDbSpline
210
0.0
220
0.0
230
1.0
 70
     8
 71
     3
 72
    30
 73
    26
 74
     0
 42
0.0000000001467056
 43
0.0000000001
 40
0.136539923047469
 40
0.136539923047469
 40
0.136539923047469
 40
0.136539923047469
 40
0.1875000000000002
 40
0.1875000000000002
 40
0.2500000000000002
 40
0.2500000000000002
 40
0.3125000000000002
 40
0.3125000000000002
 40
0.3750000000000002
 40
0.3750000000000002
 40
0.4375000000000003
 40
0.4375000000000003
 40
0.5000000000000002
 40
0.5000000000000002
 40
0.5625000000000003
 40
0.5625000000000003
 40
0.6250000000000002
 40
0.6250000000000002
 40
0.6875000000000003
 40
0.6875000000000003
 40
0.7500000000000002
 40
0.7500000000000002
 40
0.8125000000000002
 40
0.8125000000000002
 40
0.8635807052210358
 40
0.8635807052210358
 40
0.8635807052210358
 40
0.8635807052210358
 10
421.9062750601819
 20
412.0938474322357
 30
0.0
 10
421.9062748637871
 20
412.6974183319009
 30
0.0
 10
421.9062405184827
 20
413.4025940048428
 30
0.0
 10
421.9060863082641
 20
415.1971905823473
 30
0.0
 10
421.9059465907843
 20
416.3480008311646
 30
0.0
 10
421.9056012777892
 20
418.8618672399054
 30
0.0
 10
421.9053943801457
 20
420.2335244043347
 30
0.0
 10
421.9049562253093
 20
423.2117507822496
 30
0.0
 10
421.9047291699449
 20
424.7977052569813
 30
0.0
 10
421.9043295241073
 20
428.0762226529692
 30
0.0
 10
421.9041545303585
 20
429.7928889874015
 30
0.0
 10
421.9039129548065
 20
433.3100157127994
 30
0.0
 10
421.9038484597296
 20
435.0778967113433
 30
0.0
 10
421.9038475878845
 20
438.6317952272199
 30
0.0
 10
421.9039131989063
 20
440.4366600255479
 30
0.0
 10
421.904152772398
 20
443.9314125576731
 30
0.0
 10
421.9043250255766
 20
445.6299900221094
 30
0.0
 10
421.9047263489811
 20
448.9290139334036
 30
0.0
 10
421.9049548730247
 20
450.5251599509395
 30
0.0
 10
421.9053892761888
 20
453.4787135535164
 30
0.0
 10
421.9055971162541
 20
454.8552961139292
 30
0.0
 10
421.9059469608689
 20
457.4002835667166
 30
0.0
 10
421.9060842022041
 20
458.5308133886589
 30
0.0
 10
421.906239313234
 20
460.3251093876787
 30
0.0
 10
421.9062745425855
 20
461.0425812204363
 30
0.0
 10
421.9062749729292
 20
461.65165994683
 30
0.0
  0
ARC
  5
DE
330
B8
100
AcDbEntity
  8
$DDT_AUDIT_GENERATED_(87)
  6
Continuous
 62
     7
100
AcDbCircle
 10
394.4951063292
 20
408.8984288883
 30
0.0
 40
8.99999999958406
100
AcDbArc
 50
180.0000002349
 51
270.0031972319
  0
SPLINE
  5
DF
330
B8
100
AcDbEntity
  8
$DDT_AUDIT_GENERATED_(87)
  6
Continuous
 62
     7
100
AcDbSpline
210
0.0
220
0.0
230
1.0
 70
     8
 71
     3
 72
    13
 73
     9
 74
     0
 42
0.0000000144863563
 43
0.0000000001
 40
0.0
 40
0.0
 40
0.0
 40
0.0
 40
0.0590335982618799
 40
0.2018696809351316
 40
0.3867514686563051
 40
0.6177177506221841
 40
0.8705058059608547
 40
1.0
 40
1.0
 40
1.0
 40
1.0
 10
421.8936382002851
 20
464.837652686376
 30
0.0
 10
421.8913229934117
 20
464.8482691806036
 30
0.0
 10
421.884068964355
 20
464.8796817520019
 30
0.0
 10
421.8506201112522
 20
464.9659369206138
 30
0.0
 10
421.7773644641119
 20
465.0719028876391
 30
0.0
 10
421.6550138200697
 20
465.1699999096639
 30
0.0
 10
421.5140458701164
 20
465.2258783048678
 30
0.0
 10
421.4299988229711
 20
465.2203103430159
 30
0.0
 10
421.3969335566035
 20
465.2176428606065
 30
0.0
  0
SPLINE
  5
E0
330
B8
100
AcDbEntity
  8
$DDT_AUDIT_GENERATED_(87)
  6
Continuous
 62
     7
100
AcDbSpline
210
0.0
220
0.0
230
1.0
 70
     8
 71
     3
 72
    10
 73
     6
 74
     0
 42
0.0000000432413234
 43
0.0000000001
 40
0.0
 40
0.0
 40
0.0
 40
0.0
 40
0.4236965271293037
 40
0.8984267532296908
 40
1.0
 40
1.0
 40
1.0
 40
1.0
 10
385.4946481805271
 20
461.6558208297204
 30
0.0
 10
385.4947559567906
 20
461.6387384153334
 30
0.0
 10
385.49803262807
 20
461.6004967538063
 30
0.0
 10
385.4788059229471
 20
461.5300026336228
 30
0.0
 10
385.4856962611677
 20
461.4451289743663
 30
0.0
 10
385.4870463576099
 20
461.4276071297131
 30
0.0
  0
ARC
  5
E1
330
B8
100
AcDbEntity
  8
$DDT_AUDIT_GENERATED_(87)
  6
Continuous
 62
     7
100
AcDbCircle
 10
385.9951063292
 20
464.7666442993
 30
0.0
 40
0.4999999999612381
100
AcDbArc
 50
90.4503595528
 51
179.6025098723
  0
LINE
  5
E2
330
B8
100
AcDbEntity
  8
$DDT_AUDIT_GENERATED_(87)
  6
Continuous
 62
     7
100
AcDbLine
 10
421.4079450064
 20
465.2226188797
 30
0.0
 11
385.9951646916
 21
465.266181153
 31
0.0
  0
LINE
  5
E3
330
B8
100
AcDbEntity
  8
$DDT_AUDIT_GENERATED_(87)
  6
Continuous
 62
     7
100
AcDbLine
 10
421.9062751186
 20
461.6401824422
 30
0.0
 11
421.9062751186
 21
464.6406707851
 31
0.0
  0
LINE
  5
E4
330
B8
100
AcDbEntity
  8
$DDT_AUDIT_GENERATED_(87)
  6
Continuous
 62
     7
100
AcDbLine
 10
421.9062751186
 20
411.3576374265
 30
0.0
 11
421.9062751186
 21
412.1020418568
 31
0.0
  0
LINE
  5
E6
330
B8
100
AcDbEntity
  8
$DDT_AUDIT_GENERATED_(E5)
  6
Continuous
 62
     7
100
AcDbLine
 10
442.5222808262
 20
410.9375425434
 30
0.0
 11
442.5222808262
 21
462.8089772009
 31
0.0
  0
ARC
  5
E7
330
B8
100
AcDbEntity
  8
$DDT_AUDIT_GENERATED_(E5)
  6
Continuous
 62
     7
100
AcDbCircle
 10
407.3843097307
 20
909.7013373274
 30
0.0
 40
499.9999999999999
100
AcDbArc
 50
271.664339864
 51
274.0298365732
  0
ARC
  5
E8
330
B8
100
AcDbEntity
  8
$DDT_AUDIT_GENERATED_(E5)
  6
Continuous
 62
     7
100
AcDbCircle
 10
407.3843097307
 20
-35.954817583
 30
0.0
 40
499.9999999999999
100
AcDbArc
 50
85.9701634268
 51
88.3375329876
  0
ARC
  5
E9
330
B8
100
AcDbEntity
  8
$DDT_AUDIT_GENERATED_(E5)
  6
Continuous
 62
     7
100
AcDbCircle
 10
440.6951063292
 20
436.8732598722
 30
0.0
 40
26.0
100
AcDbArc
 50
274.0298365732
 51
292.396276131
  0
ARC
  5
EA
330
B8
100
AcDbEntity
  8
$DDT_AUDIT_GENERATED_(E5)
  6
Continuous
 62
     7
100
AcDbCircle
 10
440.6951063292
 20
436.8732598722
 30
0.0
 40
26.0
100
AcDbArc
 50
67.6018597033
 51
85.9701634268
  0
ARC
  5
EB
330
B8
100
AcDbEntity
  8
$DDT_AUDIT_GENERATED_(A2)
  6
Continuous
 62
     7
100
AcDbCircle
 10
538.7203013342
 20
420.6000755497
 30
0.0
 40
55.05106919722053
100
AcDbArc
 50
181.6816593701
 51
187.5301830335
  0
ARC
  5
EC
330
B8
100
AcDbEntity
  8
$DDT_AUDIT_GENERATED_(A2)
  6
Continuous
 62
     7
100
AcDbCircle
 10
-144.9091537185
 20
338.9321541138
 30
0.0
 40
633.4438947368511
100
AcDbArc
 50
359.9489158091
 51
6.7500197349
  0
ARC
  5
ED
330
B8
100
AcDbEntity
  8
$DDT_AUDIT_GENERATED_(A2)
  6
Continuous
 62
     7
100
AcDbCircle
 10
-422.5943566055
 20
302.455070066
 30
0.0
 40
916.7563429476271
100
AcDbArc
 50
7.3333801412
 51
10.0991511972
  0
ARC
  5
EE
330
B8
100
AcDbEntity
  8
$DDT_AUDIT_GENERATED_(A2)
  6
Continuous
 62
     7
100
AcDbCircle
 10
-219.0734520226
 20
330.0749531507
 30
0.0
 40
711.3761286528171
100
AcDbArc
 50
6.7382332953
 51
7.2193282626
  0
ARC
  5
EF
330
B8
100
AcDbEntity
  8
$DDT_AUDIT_GENERATED_(A2)
  6
Continuous
 62
     7
100
AcDbCircle
 10
-27.9046713498
 20
348.8944068784
 30
0.0
 40
519.333155168255
100
AcDbArc
 50
358.9240182491
 51
7.1509689386
  0
ARC
  5
F0
330
B8
100
AcDbEntity
  8
$DDT_AUDIT_GENERATED_(A2)
  6
Continuous
 62
     7
100
AcDbCircle
 10
-96.8625260687
 20
342.6312911612
 30
0.0
 40
584.2988428078845
100
AcDbArc
 50
359.6630988091
 51
6.9151696689
  0
ARC
  5
F1
330
B8
100
AcDbEntity
  8
$DDT_AUDIT_GENERATED_(A2)
  6
Continuous
 62
     7
100
AcDbCircle
 10
514.7650401488
 20
413.2561482396
 30
0.0
 40
31.59572181085697
100
AcDbArc
 50
169.554364217
 51
179.9591785083
  0
ARC
  5
F2
330
B8
100
AcDbEntity
  8
$DDT_AUDIT_GENERATED_(A2)
  6
Continuous
 62
     7
100
AcDbCircle
 10
465.0079364652
 20
380.5402108697
 30
0.0
 40
30.50784007854066
100
AcDbArc
 50
83.8398296052
 51
98.2155578465
  0
SPLINE
  5
F3
330
B8
100
AcDbEntity
  8
$DDT_AUDIT_GENERATED_(A2)
  6
Continuous
 62
     7
100
AcDbSpline
210
0.0
220
0.0
230
1.0
 70
     8
 71
     3
 72
     8
 73
     4
 74
     0
 42
0.0000000046838199
 43
0.0000000001
 40
0.5461561412009056
 40
0.5461561412009056
 40
0.5461561412009056
 40
0.5461561412009056
 40
0.5466245231876787
 40
0.5466245231876787
 40
0.5466245231876787
 40
0.5466245231876787
 10
450.792020854087
 20
410.5590182327233
 30
0.0
 10
450.792020798569
 20
410.5589716479014
 30
0.0
 10
450.7920207550457
 20
410.5589651252679
 30
0.0
 10
450.7920207235695
 20
410.5589986986641
 30
0.0
  0
LINE
  5
F4
330
B8
100
AcDbEntity
  8
$DDT_AUDIT_GENERATED_(A2)
  6
Continuous
 62
     7
100
AcDbLine
 10
450.5883859502
 20
410.7548547668
 30
0.0
 11
450.5883859502
 21
464.3433251196
 31
0.0
  0
LINE
  5
F5
330
B8
100
AcDbEntity
  8
$DDT_AUDIT_GENERATED_(A2)
  6
Continuous
 62
     7
100
AcDbLine
 10
488.5349515369
 20
338.3674432588
 30
0.0
 11
490.8992225089
 21
338.6577350381
 31
0.0
  0
SPLINE
  5
F6
330
B8
100
AcDbEntity
  8
$DDT_AUDIT_GENERATED_(A2)
  6
Continuous
 62
     7
100
AcDbSpline
210
0.0
220
0.0
230
1.0
 70
     8
 71
     3
 72
    34
 73
    30
 74
     0
 42
0.0000000001442049
 43
0.0000000001
 40
0.0
 40
0.0
 40
0.0
 40
0.0
 40
0.0004576760214438
 40
0.0783013892589391
 40
0.1506687459450234
 40
0.2176833528781386
 40
0.279669496483323
 40
0.3369508972999481
 40
0.3898506350287548
 40
0.4386910798458993
 40
0.4979771190023067
 40
0.5507832334490868
 40
0.5971887191986468
 40
0.6372732130057348
 40
0.6711184666272503
 40
0.6991535919873966
 40
0.7252295653824964
 40
0.7475635995659692
 40
0.7680984868350872
 40
0.788659446182834
 40
0.8103213282786232
 40
0.8338635358296711
 40
0.8511713308534505
 40
0.8699266458871092
 40
0.8904858220777809
 40
0.9137011351580334
 40
0.9405629462929841
 40
0.9720682059332079
 40
1.0
 40
1.0
 40
1.0
 40
1.0
 10
483.1486878443171
 20
408.3943978701554
 30
0.0
 10
483.1499175762596
 20
408.3828261091305
 30
0.0
 10
483.3315637808047
 20
406.6734983183728
 30
0.0
 10
483.6829597763444
 20
403.0793827075871
 30
0.0
 10
484.1497492388452
 20
398.1281052145181
 30
0.0
 10
484.5558952496218
 20
393.4797891819805
 30
0.0
 10
484.9041045726661
 20
389.1907536827277
 30
0.0
 10
485.2011854116978
 20
385.2215968671741
 30
0.0
 10
485.453127335033
 20
381.5546454884011
 30
0.0
 10
485.686481623126
 20
377.8398485417713
 30
0.0
 10
485.8974791114788
 20
374.125917518695
 30
0.0
 10
486.0773565182952
 20
370.4666763530917
 30
0.0
 10
486.206555958213
 20
367.249438977329
 30
0.0
 10
486.2881663118412
 20
364.4690685490711
 30
0.0
 10
486.3253749326088
 20
362.1123794272108
 30
0.0
 10
486.3209893370615
 20
360.0791900417783
 30
0.0
 10
486.2836760336746
 20
358.3124795395174
 30
0.0
 10
486.2259220801032
 20
356.7198782130741
 30
0.0
 10
486.1702113958639
 20
355.2547658864741
 30
0.0
 10
486.1396226247865
 20
353.8043582650698
 30
0.0
 10
486.1425934400576
 20
352.2840817337885
 30
0.0
 10
486.1810284556798
 20
350.8394947364206
 30
0.0
 10
486.2447711571684
 20
349.4631940436162
 30
0.0
 10
486.3248842450777
 20
348.1566969977293
 30
0.0
 10
486.4334963662572
 20
346.7158317536951
 30
0.0
 10
486.5904123443746
 20
345.0883967779708
 30
0.0
 10
486.8134455490879
 20
343.2256422136162
 30
0.0
 10
487.0981862397929
 20
341.2084069950129
 30
0.0
 10
487.305226379008
 20
339.9501344517879
 30
0.0
 10
487.4216354659497
 20
339.2495431506093
 30
0.0
  0
ARC
  5
F7
330
B8
100
AcDbEntity
  8
$DDT_AUDIT_GENERATED_(A2)
  6
Continuous
 62
     7
100
AcDbCircle
 10
488.3964012141
 20
339.3447023733
 30
0.0
 40
0.9785673374357381
100
AcDbArc
 50
192.3700433152
 51
278.0983276949
  0
ARC
  5
F8
330
B8
100
AcDbEntity
  8
$DDT_AUDIT_GENERATED_(A2)
  6
Continuous
 62
     7
100
AcDbCircle
 10
479.4649859512
 20
463.1243982343
 30
0.0
 40
0.4999999999772785
100
AcDbArc
 50
10.0407726949
 51
87.4902356446
  0
SPLINE
  5
F9
330
B8
100
AcDbEntity
  8
$DDT_AUDIT_GENERATED_(A2)
  6
Continuous
 62
     7
100
AcDbSpline
210
0.0
220
0.0
230
1.0
 70
     8
 71
     3
 72
    13
 73
     9
 74
     0
 42
0.0000000159690264
 43
0.0000000001
 40
0.0
 40
0.0
 40
0.0
 40
0.0
 40
0.1334503728740409
 40
0.3795783733489144
 40
0.5825668928906578
 40
0.75416432722976
 40
0.8955556339841131
 40
1.0
 40
1.0
 40
1.0
 40
1.0
 10
490.8980657772118
 20
338.6673045750196
 30
0.0
 10
490.9283444849485
 20
338.6682002742735
 30
0.0
 10
491.0024755710039
 20
338.6712769962344
 30
0.0
 10
491.1145933990713
 20
338.7315034307964
 30
0.0
 10
491.2113246577175
 20
338.8153189194576
 30
0.0
 10
491.2729723009516
 20
338.902714657807
 30
0.0
 10
491.3095094701136
 20
338.9832789478423
 30
0.0
 10
491.3209312158914
 20
339.0292258769423
 30
0.0
 10
491.3264062370586
 20
339.0522901338003
 30
0.0
  0
ARC
  5
FA
330
B8
100
AcDbEntity
  8
$DDT_AUDIT_GENERATED_(A2)
  6
Continuous
 62
     7
100
AcDbCircle
 10
480.1645750321
 20
408.0870670682
 30
0.0
 40
2.99999999999899
100
AcDbArc
 50
5.852299744
 51
91.0301612087
  0
LINE
  5
FB
330
B8
100
AcDbEntity
  8
$DDT_AUDIT_GENERATED_(A2)
  6
Continuous
 62
     7
100
AcDbLine
 10
468.2382596942
 20
410.8711042523
 30
0.0
 11
480.1101354494
 21
411.0865730828
 31
0.0
  0
LINE
  5
FC
330
B8
100
AcDbEntity
  8
$DDT_AUDIT_GENERATED_(A2)
  6
Continuous
 62
     7
100
AcDbLine
 10
450.792053572
 20
410.5544640088
 30
0.0
 11
460.6356993681
 21
410.7331214418
 31
0.0
  0
LINE
  5
FD
330
B8
100
AcDbEntity
  8
$DDT_AUDIT_GENERATED_(A2)
  6
Continuous
 62
     7
100
AcDbLine
 10
479.4862924082
 20
463.6239714596
 30
0.0
 11
450.7958443215
 21
464.5469833932
 31
0.0
  0
ARC
  5
FE
330
B8
100
AcDbEntity
  8
$DDT_AUDIT_GENERATED_(A2)
  6
Continuous
 62
     7
100
AcDbCircle
 10
461.3249928568
 20
406.2335209393
 30
0.0
 40
4.55039348410956
100
AcDbArc
 50
96.9846957548
 51
98.3920205499
  0
ARC
  5
FF
330
B8
100
AcDbEntity
  8
$DDT_AUDIT_GENERATED_(A2)
  6
Continuous
 62
     7
100
AcDbCircle
 10
450.7883859901
 20
410.7545525262
 30
0.0
 40
0.1999987112533003
100
AcDbArc
 50
179.9297146285
 51
271.0127768573
  0
ARC
  5
100
330
B8
100
AcDbEntity
  8
$DDT_AUDIT_GENERATED_(A2)
  6
Continuous
 62
     7
100
AcDbCircle
 10
450.788386019
 20
464.3469706836
 30
0.0
 40
0.1999983915428498
100
AcDbArc
 50
88.5852975087
 51
180.0858767549
  0
LINE
  5
102
330
B8
100
AcDbEntity
  8
$DDT_AUDIT_GENERATED_(101)
  6
Continuous
 62
     7
100
AcDbLine
 10
385.5913210966
 20
455.8732598722
 30
0.0
 11
385.2451063292
 21
455.8732598722
 31
0.0
  0
LINE
  5
103
330
B8
100
AcDbEntity
  8
$DDT_AUDIT_GENERATED_(101)
  6
Continuous
 62
     7
100
AcDbLine
 10
385.2451063292
 20
434.8732598722
 30
0.0
 11
385.6128713707
 21
434.8732598722
 31
0.0
  0
LINE
  5
105
330
B8
100
AcDbEntity
  8
$DDT_AUDIT_GENERATED_(104)
  6
Continuous
 62
     7
100
AcDbLine
 10
371.7451063292
 20
461.488640929
 30
0.0
 11
371.7451063292
 21
461.6232598722
 31
0.0
  0
LINE
  5
106
330
B8
100
AcDbEntity
  8
$DDT_AUDIT_GENERATED_(104)
  6
Continuous
 62
     7
100
AcDbLine
 10
371.7451063292
 20
429.2578788154
 30
0.0
 11
371.7451063292
 21
429.1232598722
 31
0.0
  0
SPLINE
  5
107
330
B8
100
AcDbEntity
  8
$DDT_AUDIT_GENERATED_(104)
  6
Continuous
 62
     7
100
AcDbSpline
210
0.0
220
0.0
230
1.0
 70
     8
 71
     3
 72
     8
 73
     4
 74
     0
 42
0.0000000009323543
 43
0.0000000001
 40
0.7940680054933107
 40
0.7940680054933107
 40
0.7940680054933107
 40
0.7940680054933107
 40
1.0
 40
1.0
 40
1.0
 40
1.0
 10
369.8754423564224
 20
430.3690826701191
 30
0.0
 10
370.3227284041806
 20
429.9331601058814
 30
0.0
 10
370.9405469945295
 20
429.543659077323
 30
0.0
 10
371.7451063292233
 20
429.2578788154252
 30
0.0
  0
SPLINE
  5
108
330
B8
100
AcDbEntity
  8
$DDT_AUDIT_GENERATED_(104)
  6
Continuous
 62
     7
100
AcDbSpline
210
0.0
220
0.0
230
1.0
 70
     8
 71
     3
 72
     8
 73
     4
 74
     0
 42
0.0000000009352422
 43
0.0000000001
 40
0.0
 40
0.0
 40
0.0
 40
0.0
 40
0.2064216288159705
 40
0.2064216288159705
 40
0.2064216288159705
 40
0.2064216288159705
 10
371.7451063292233
 20
461.4886409289583
 30
0.0
 10
370.9377446311152
 20
461.2018652648363
 30
0.0
 10
370.3219215924535
 20
460.8124103604282
 30
0.0
 10
369.8765668581599
 20
460.3785848660228
 30
0.0
  0
LINE
  5
109
330
B8
100
AcDbEntity
  8
$DDT_AUDIT_GENERATED_(104)
  6
Continuous
 62
     7
100
AcDbLine
 10
381.7451063292
 20
461.488640929
 30
0.0
 11
381.7451063292
 21
461.6232598722
 31
0.0
  0
LINE
  5
10A
330
B8
100
AcDbEntity
  8
$DDT_AUDIT_GENERATED_(104)
  6
Continuous
 62
     7
100
AcDbLine
 10
381.7451063292
 20
429.2578788154
 30
0.0
 11
381.7451063292
 21
429.1232598722
 31
0.0
  0
LINE
  5
10B
330
B8
100
AcDbEntity
  8
$DDT_AUDIT_GENERATED_(104)
  6
Continuous
 62
     7
100
AcDbLine
 10
371.7451063292
 20
461.488640929
 30
0.0
 11
381.7451063292
 21
461.488640929
 31
0.0
  0
SPLINE
  5
10C
330
B8
100
AcDbEntity
  8
$DDT_AUDIT_GENERATED_(104)
  6
Continuous
 62
     7
100
AcDbSpline
210
0.0
220
0.0
230
1.0
 70
     8
 71
     3
 72
     8
 73
     4
 74
     0
 42
0.0000000009352422
 43
0.0000000001
 40
0.0
 40
0.0
 40
0.0
 40
0.0
 40
0.206421628815971
 40
0.206421628815971
 40
0.206421628815971
 40
0.206421628815971
 10
381.7451063292233
 20
461.4886409289583
 30
0.0
 10
382.5524680273315
 20
461.2018652648363
 30
0.0
 10
383.1682910659933
 20
460.8124103604282
 30
0.0
 10
383.6136458002868
 20
460.3785848660228
 30
0.0
  0
SPLINE
  5
10D
330
B8
100
AcDbEntity
  8
$DDT_AUDIT_GENERATED_(104)
  6
Continuous
 62
     7
100
AcDbSpline
210
0.0
220
0.0
230
1.0
 70
     8
 71
     3
 72
     8
 73
     4
 74
     0
 42
0.0000000009323543
 43
0.0000000001
 40
0.7940680054933101
 40
0.7940680054933101
 40
0.7940680054933101
 40
0.7940680054933101
 40
1.0
 40
1.0
 40
1.0
 40
1.0
 10
383.6147703020243
 20
430.3690826701191
 30
0.0
 10
383.1674842542662
 20
429.9331601058814
 30
0.0
 10
382.5496656639172
 20
429.543659077323
 30
0.0
 10
381.7451063292233
 20
429.2578788154252
 30
0.0
  0
LINE
  5
10E
330
B8
100
AcDbEntity
  8
$DDT_AUDIT_GENERATED_(104)
  6
Continuous
 62
     7
100
AcDbLine
 10
381.7451063292
 20
429.2578788154
 30
0.0
 11
371.7451063292
 21
429.2578788154
 31
0.0
  0
LINE
  5
10F
330
B8
100
AcDbEntity
  8
$DDT_AUDIT_GENERATED_(104)
  6
Continuous
 62
     7
100
AcDbLine
 10
371.7451063292
 20
429.1232598722
 30
0.0
 11
381.7451063292
 21
429.1232598722
 31
0.0
  0
ARC
  5
110
330
B8
100
AcDbEntity
  8
$DDT_AUDIT_GENERATED_(104)
  6
Continuous
 62
     7
100
AcDbCircle
 10
379.109405131
 20
451.9768574758
 30
0.0
 40
10.0
100
AcDbArc
 50
57.0315611015
 51
74.7179936136
  0
ARC
  5
111
330
B8
100
AcDbEntity
  8
$DDT_AUDIT_GENERATED_(104)
  6
Continuous
 62
     7
100
AcDbCircle
 10
379.109405131
 20
438.7696622686
 30
0.0
 40
9.999999999999996
100
AcDbArc
 50
285.2820063864
 51
302.7664231993
  0
ARC
  5
112
330
B8
100
AcDbEntity
  8
$DDT_AUDIT_GENERATED_(104)
  6
Continuous
 62
     7
100
AcDbCircle
 10
374.3808075274
 20
451.9768574758
 30
0.0
 40
9.999999999999998
100
AcDbArc
 50
105.2820063864
 51
122.9135726377
  0
ARC
  5
113
330
B8
100
AcDbEntity
  8
$DDT_AUDIT_GENERATED_(104)
  6
Continuous
 62
     7
100
AcDbCircle
 10
374.3808075274
 20
438.7696622686
 30
0.0
 40
10.0
100
AcDbArc
 50
237.1057791376
 51
254.7179936136
  0
LINE
  5
114
330
B8
100
AcDbEntity
  8
$DDT_AUDIT_GENERATED_(104)
  6
Continuous
 62
     7
100
AcDbLine
 10
381.7451063292
 20
461.6232598722
 30
0.0
 11
371.7451063292
 21
461.6232598722
 31
0.0
  0
LINE
  5
115
330
B8
100
AcDbEntity
  8
$DDT_AUDIT_GENERATED_(104)
  6
Continuous
 62
     7
100
AcDbLine
 10
381.7451063292
 20
432.4606010985
 30
0.0
 11
381.7451063292
 21
430.3732598722
 31
0.0
  0
LINE
  5
116
330
B8
100
AcDbEntity
  8
$DDT_AUDIT_GENERATED_(104)
  6
Continuous
 62
     7
100
AcDbLine
 10
385.2451063292
 20
430.8732598722
 30
0.0
 11
385.2451063292
 21
459.8732598722
 31
0.0
  0
LINE
  5
117
330
B8
100
AcDbEntity
  8
$DDT_AUDIT_GENERATED_(104)
  6
Continuous
 62
     7
100
AcDbLine
 10
368.2451063292
 20
430.8732598722
 30
0.0
 11
368.2451063292
 21
459.8732598722
 31
0.0
  0
LINE
  5
118
330
B8
100
AcDbEntity
  8
$DDT_AUDIT_GENERATED_(104)
  6
Continuous
 62
     7
100
AcDbLine
 10
371.7451063292
 20
432.4606010985
 30
0.0
 11
371.7451063292
 21
430.3732598722
 31
0.0
  0
LINE
  5
119
330
B8
100
AcDbEntity
  8
$DDT_AUDIT_GENERATED_(104)
  6
Continuous
 62
     7
100
AcDbLine
 10
371.7451063292
 20
460.3732598722
 30
0.0
 11
371.7451063292
 21
458.2859186458
 31
0.0
  0
LINE
  5
11A
330
B8
100
AcDbEntity
  8
$DDT_AUDIT_GENERATED_(104)
  6
Continuous
 62
     7
100
AcDbLine
 10
371.7451063292
 20
447.4606010985
 30
0.0
 11
371.7451063292
 21
443.2859186458
 31
0.0
  0
ARC
  5
11B
330
B8
100
AcDbEntity
  8
$DDT_AUDIT_GENERATED_(104)
  6
Continuous
 62
     7
100
AcDbCircle
 10
375.5236658484
 20
437.8732598722
 30
0.0
 40
6.601089837288614
100
AcDbArc
 50
124.9187681795
 51
235.0812318205
  0
ARC
  5
11C
330
B8
100
AcDbEntity
  8
$DDT_AUDIT_GENERATED_(104)
  6
Continuous
 62
     7
100
AcDbCircle
 10
375.5236658484
 20
452.8732598722
 30
0.0
 40
6.601089837288617
100
AcDbArc
 50
124.9187681796
 51
235.0812318205
  0
LINE
  5
11D
330
B8
100
AcDbEntity
  8
$DDT_AUDIT_GENERATED_(104)
  6
Continuous
 62
     7
100
AcDbLine
 10
371.7451063292
 20
460.3732598722
 30
0.0
 11
368.9493776001
 21
460.3732598722
 31
0.0
  0
LINE
  5
11E
330
B8
100
AcDbEntity
  8
$DDT_AUDIT_GENERATED_(104)
  6
Continuous
 62
     7
100
AcDbLine
 10
368.9493776001
 20
430.3732598722
 30
0.0
 11
371.7451063292
 21
430.3732598722
 31
0.0
  0
LINE
  5
11F
330
B8
100
AcDbEntity
  8
$DDT_AUDIT_GENERATED_(104)
  6
Continuous
 62
     7
100
AcDbLine
 10
381.7451063292
 20
460.3732598722
 30
0.0
 11
381.7451063292
 21
458.2859186458
 31
0.0
  0
LINE
  5
120
330
B8
100
AcDbEntity
  8
$DDT_AUDIT_GENERATED_(104)
  6
Continuous
 62
     7
100
AcDbLine
 10
381.7451063292
 20
447.4606010985
 30
0.0
 11
381.7451063292
 21
443.2859186458
 31
0.0
  0
LINE
  5
121
330
B8
100
AcDbEntity
  8
$DDT_AUDIT_GENERATED_(104)
  6
Continuous
 62
     7
100
AcDbLine
 10
371.7451063292
 20
430.3732598722
 30
0.0
 11
381.7451063292
 21
430.3732598722
 31
0.0
  0
LINE
  5
122
330
B8
100
AcDbEntity
  8
$DDT_AUDIT_GENERATED_(104)
  6
Continuous
 62
     7
100
AcDbLine
 10
381.7451063292
 20
430.3732598722
 30
0.0
 11
384.5408350583
 21
430.3732598722
 31
0.0
  0
LINE
  5
123
330
B8
100
AcDbEntity
  8
$DDT_AUDIT_GENERATED_(104)
  6
Continuous
 62
     7
100
AcDbLine
 10
384.5408350583
 20
460.3732598722
 30
0.0
 11
381.7451063292
 21
460.3732598722
 31
0.0
  0
LINE
  5
124
330
B8
100
AcDbEntity
  8
$DDT_AUDIT_GENERATED_(104)
  6
Continuous
 62
     7
100
AcDbLine
 10
381.7451063292
 20
460.3732598722
 30
0.0
 11
371.7451063292
 21
460.3732598722
 31
0.0
  0
LINE
  5
125
330
B8
100
AcDbEntity
  8
$DDT_AUDIT_GENERATED_(104)
  6
Continuous
 62
     7
100
AcDbLine
 10
371.7451063292
 20
458.2859186458
 30
0.0
 11
381.7451063292
 21
458.2859186458
 31
0.0
  0
ARC
  5
126
330
B8
100
AcDbEntity
  8
$DDT_AUDIT_GENERATED_(104)
  6
Continuous
 62
     7
100
AcDbCircle
 10
377.96654681
 20
452.8732598722
 30
0.0
 40
6.601089837288604
100
AcDbArc
 50
304.9187681796
 51
55.0812318204
  0
LINE
  5
127
330
B8
100
AcDbEntity
  8
$DDT_AUDIT_GENERATED_(104)
  6
Continuous
 62
     7
100
AcDbLine
 10
381.7451063292
 20
447.4606010985
 30
0.0
 11
371.7451063292
 21
447.4606010985
 31
0.0
  0
LINE
  5
128
330
B8
100
AcDbEntity
  8
$DDT_AUDIT_GENERATED_(104)
  6
Continuous
 62
     7
100
AcDbLine
 10
371.7451063292
 20
443.2859186458
 30
0.0
 11
381.7451063292
 21
443.2859186458
 31
0.0
  0
ARC
  5
129
330
B8
100
AcDbEntity
  8
$DDT_AUDIT_GENERATED_(104)
  6
Continuous
 62
     7
100
AcDbCircle
 10
377.96654681
 20
437.8732598722
 30
0.0
 40
6.601089837288607
100
AcDbArc
 50
304.9187681796
 51
55.0812318204
  0
LINE
  5
12A
330
B8
100
AcDbEntity
  8
$DDT_AUDIT_GENERATED_(104)
  6
Continuous
 62
     7
100
AcDbLine
 10
381.7451063292
 20
432.4606010985
 30
0.0
 11
371.7451063292
 21
432.4606010985
 31
0.0
  0
ARC
  5
12B
330
B8
100
AcDbEntity
  8
$DDT_AUDIT_GENERATED_(104)
  6
Continuous
 62
     7
100
AcDbCircle
 10
379.109405131
 20
451.9768574758
 30
0.0
 40
10.0
100
AcDbArc
 50
52.1519040322
 51
57.1057791376
  0
ARC
  5
12C
330
B8
100
AcDbEntity
  8
$DDT_AUDIT_GENERATED_(104)
  6
Continuous
 62
     7
100
AcDbCircle
 10
379.109405131
 20
438.7696622686
 30
0.0
 40
10.0
100
AcDbArc
 50
302.8998938636
 51
307.8480959678
  0
ARC
  5
12D
330
B8
100
AcDbEntity
  8
$DDT_AUDIT_GENERATED_(104)
  6
Continuous
 62
     7
100
AcDbCircle
 10
374.3808075274
 20
451.9768574758
 30
0.0
 40
9.999999999999998
100
AcDbArc
 50
122.8998938636
 51
127.8480959678
  0
ARC
  5
12E
330
B8
100
AcDbEntity
  8
$DDT_AUDIT_GENERATED_(104)
  6
Continuous
 62
     7
100
AcDbCircle
 10
374.3808075274
 20
438.7696622686
 30
0.0
 40
9.999999999999998
100
AcDbArc
 50
232.1519040322
 51
237.1057791376
  0
LINE
  5
130
330
B8
100
AcDbEntity
  8
$DDT_AUDIT_GENERATED_(12F)
  6
Continuous
 62
     7
100
AcDbLine
 10
412.7001063292
 20
392.9032598722
 30
0.0
 11
394.7001063292
 21
392.9032598722
 31
0.0
  0
LINE
  5
131
330
B8
100
AcDbEntity
  8
$DDT_AUDIT_GENERATED_(12F)
  6
Continuous
 62
     7
100
AcDbLine
 10
393.2201063292
 20
391.4232598722
 30
0.0
 11
414.1801063292
 21
391.4232598722
 31
0.0
  0
LINE
  5
132
330
B8
100
AcDbEntity
  8
$DDT_AUDIT_GENERATED_(12F)
  6
Continuous
 62
     7
100
AcDbLine
 10
394.4201063292
 20
384.0032598722
 30
0.0
 11
412.9801063292
 21
384.0032598722
 31
0.0
  0
LINE
  5
133
330
B8
100
AcDbEntity
  8
$DDT_AUDIT_GENERATED_(12F)
  6
Continuous
 62
     7
100
AcDbLine
 10
393.2201063292
 20
385.2032598722
 30
0.0
 11
414.1801063292
 21
385.2032598722
 31
0.0
  0
LINE
  5
134
330
B8
100
AcDbEntity
  8
$DDT_AUDIT_GENERATED_(12F)
  6
Continuous
 62
     7
100
AcDbLine
 10
393.2201063292
 20
391.4232598722
 30
0.0
 11
393.2201063292
 21
385.2032598722
 31
0.0
  0
LINE
  5
135
330
B8
100
AcDbEntity
  8
$DDT_AUDIT_GENERATED_(12F)
  6
Continuous
 62
     7
100
AcDbLine
 10
414.1801063292
 20
385.2032598722
 30
0.0
 11
414.1801063292
 21
391.4232598722
 31
0.0
  0
LINE
  5
136
330
B8
100
AcDbEntity
  8
$DDT_AUDIT_GENERATED_(12F)
  6
Continuous
 62
     7
100
AcDbLine
 10
394.7001063292
 20
399.9630728318
 30
0.0
 11
394.7001063292
 21
392.9032598722
 31
0.0
  0
LINE
  5
137
330
B8
100
AcDbEntity
  8
$DDT_AUDIT_GENERATED_(12F)
  6
Continuous
 62
     7
100
AcDbLine
 10
412.7001063292
 20
392.9032598722
 30
0.0
 11
412.7001063292
 21
399.9632683389
 31
0.0
  0
LINE
  5
138
330
B8
100
AcDbEntity
  8
$DDT_AUDIT_GENERATED_(12F)
  6
Continuous
 62
     7
100
AcDbLine
 10
414.1801063292
 20
391.4232598722
 30
0.0
 11
412.7001063292
 21
392.9032598722
 31
0.0
  0
LINE
  5
139
330
B8
100
AcDbEntity
  8
$DDT_AUDIT_GENERATED_(12F)
  6
Continuous
 62
     7
100
AcDbLine
 10
394.7001063292
 20
392.9032598722
 30
0.0
 11
393.2201063292
 21
391.4232598722
 31
0.0
  0
LINE
  5
13A
330
B8
100
AcDbEntity
  8
$DDT_AUDIT_GENERATED_(12F)
  6
Continuous
 62
     7
100
AcDbLine
 10
393.2201063292
 20
385.2032598722
 30
0.0
 11
394.4201063292
 21
384.0032598722
 31
0.0
  0
LINE
  5
13B
330
B8
100
AcDbEntity
  8
$DDT_AUDIT_GENERATED_(12F)
  6
Continuous
 62
     7
100
AcDbLine
 10
412.9801063292
 20
384.0032598722
 30
0.0
 11
414.1801063292
 21
385.2032598722
 31
0.0
  0
LINE
  5
13C
330
B8
100
AcDbEntity
  8
$DDT_AUDIT_GENERATED_(B0)
  6
Continuous
 62
     7
100
AcDbLine
 10
342.4451063292
 20
480.3732598722
 30
0.0
 11
342.4451063292
 21
410.3732598722
 31
0.0
  0
LINE
  5
13D
330
B8
100
AcDbEntity
  8
$DDT_AUDIT_GENERATED_(B0)
  6
Continuous
 62
     7
100
AcDbLine
 10
342.4451063292
 20
410.3732598722
 30
0.0
 11
365.2280513932
 21
410.3732598722
 31
0.0
  0
LINE
  5
13E
330
B8
100
AcDbEntity
  8
$DDT_AUDIT_GENERATED_(B0)
  6
Continuous
 62
     7
100
AcDbLine
 10
365.2280513932
 20
480.3732598722
 30
0.0
 11
342.4451063292
 21
480.3732598722
 31
0.0
  0
ARC
  5
13F
330
B8
100
AcDbEntity
  8
$DDT_AUDIT_GENERATED_(B0)
  6
Continuous
 62
     7
100
AcDbCircle
 10
-81.5548936708
 20
445.3732598722
 30
0.0
 40
450.0000000000001
100
AcDbArc
 50
355.7757259843
 51
358.2917066217
  0
ARC
  5
140
330
B8
100
AcDbEntity
  8
$DDT_AUDIT_GENERATED_(B0)
  6
Continuous
 62
     7
100
AcDbCircle
 10
-81.5548936708
 20
445.3732598722
 30
0.0
 40
450.0000000000001
100
AcDbArc
 50
1.7082933783
 51
4.2242740157
  0
ARC
  5
141
330
B8
100
AcDbEntity
  8
$DDT_AUDIT_GENERATED_(B0)
  6
Continuous
 62
     7
100
AcDbCircle
 10
365.2280513932
 20
412.3732598722
 30
0.0
 40
2.000000000000002
100
AcDbArc
 50
270.0
 51
355.7757259844
  0
ARC
  5
142
330
B8
100
AcDbEntity
  8
$DDT_AUDIT_GENERATED_(B0)
  6
Continuous
 62
     7
100
AcDbCircle
 10
365.2280513932
 20
478.3732598722
 30
0.0
 40
2.000000000000142
100
AcDbArc
 50
4.2242740156
 51
90.0
  0
ENDBLK
  5
144
330
B8
100
AcDbEntity
  8
0
100
AcDbBlockEnd
  0
BLOCK
  5
1C8
330
145
100
AcDbEntity
  8
0
100
AcDbBlockBegin
  2
SE2
 70
     0
 10
0.0
 20
0.0
 30
0.0
  3
SE2
  1

  0
SPLINE
  5
147
330
145
100
AcDbEntity
  8
$DDT_AUDIT_GENERATED_(87)
  6
Continuous
 62
     7
100
AcDbSpline
210
0.0
220
0.0
230
1.0
 70
     8
 71
     3
 72
    46
 73
    42
 74
     0
 42
0.0000000000662634
 43
0.0000000001
 40
0.0
 40
0.0
 40
0.0
 40
0.0
 40
0.2500000000000001
 40
0.2500000000000001
 40
0.5000000000000001
 40
0.5000000000000001
 40
0.5625000000000001
 40
0.5625000000000001
 40
0.59375
 40
0.59375
 40
0.6093750000000001
 40
0.6093750000000001
 40
0.6250000000000002
 40
0.6250000000000002
 40
0.6562500000000001
 40
0.6562500000000001
 40
0.671875
 40
0.671875
 40
0.6874999999999999
 40
0.6874999999999999
 40
0.7187499999999999
 40
0.7187499999999999
 40
0.7499999999999999
 40
0.7499999999999999
 40
0.765625
 40
0.765625
 40
0.78125
 40
0.78125
 40
0.8125
 40
0.8125
 40
0.84375
 40
0.84375
 40
0.875
 40
0.875
 40
0.90625
 40
0.90625
 40
0.9375
 40
0.9375
 40
0.96875
 40
0.96875
 40
1.0
 40
1.0
 40
1.0
 40
1.0
 10
150.9178259119684
 20
175.8986017375369
 30
0.0
 10
138.3846110469869
 20
175.8976249903922
 30
0.0
 10
125.8536338530009
 20
175.8962110803439
 30
0.0
 10
100.8002152359879
 20
175.9165604438873
 30
0.0
 10
88.2813620141613
 20
175.9275204112944
 30
0.0
 10
72.65110201086091
 20
176.035106304256
 30
0.0
 10
69.52607452600573
 20
176.0611119483324
 30
0.0
 10
64.84014693200155
 20
176.128439773524
 30
0.0
 10
63.27817011049354
 20
176.1542942077429
 30
0.0
 10
60.93965023604875
 20
176.2194528981695
 30
0.0
 10
60.15991069667719
 20
176.2403156922151
 30
0.0
 10
58.62696179157626
 20
176.4686602752218
 30
0.0
 10
57.86896389287769
 20
176.6413657328249
 30
0.0
 10
55.60217450998304
 20
177.209915057558
 30
0.0
 10
54.08185010312822
 20
177.7244376698132
 30
0.0
 10
51.99795448338909
 20
178.8145625380022
 30
0.0
 10
51.33422054472044
 20
179.229622460553
 30
0.0
 10
50.0845593901961
 20
180.1899330554785
 30
0.0
 10
49.49898626702014
 20
180.7447794708367
 30
0.0
 10
47.90518502484834
 20
182.5067000724935
 30
0.0
 10
47.01580091974795
 20
183.8260971959067
 30
0.0
 10
45.47611193195986
 20
186.6082619227411
 30
0.0
 10
44.82241736953031
 20
188.0488649594641
 30
0.0
 10
44.12332000851228
 20
190.3298781117357
 30
0.0
 10
43.94620939552956
 20
191.1150265639396
 30
0.0
 10
43.73905660277585
 20
192.6897641280665
 30
0.0
 10
43.70680630333379
 20
193.4862226632799
 30
0.0
 10
43.75043872970473
 20
195.8832606867863
 30
0.0
 10
43.9316440925251
 20
197.4580122380011
 30
0.0
 10
44.71426218766571
 20
200.5432332394264
 30
0.0
 10
45.32786920513476
 20
202.0259163961842
 30
0.0
 10
46.94520939286592
 20
204.7152281367333
 30
0.0
 10
47.94420067392365
 20
205.9746761975292
 30
0.0
 10
50.17439816579079
 20
208.215456598473
 30
0.0
 10
51.42488648416603
 20
209.2087420619931
 30
0.0
 10
54.18702400760038
 20
210.7714933582824
 30
0.0
 10
55.65349881205265
 20
211.3296198255679
 30
0.0
 10
58.72997230669472
 20
212.0709771051532
 30
0.0
 10
60.31451042270596
 20
212.2413760029122
 30
0.0
 10
63.45495790743814
 20
212.3373441940203
 30
0.0
 10
65.02706351516045
 20
212.3091966906593
 30
0.0
 10
66.59876899216289
 20
212.3091966906593
 30
0.0
  0
LINE
  5
148
330
145
100
AcDbEntity
  8
$DDT_AUDIT_GENERATED_(87)
  6
Continuous
 62
     7
100
AcDbLine
 10
212.8953381005
 20
212.3091966907
 30
0.0
 11
218.9172392992
 21
212.3091966907
 31
0.0
  0
LINE
  5
149
330
145
100
AcDbEntity
  8
$DDT_AUDIT_GENERATED_(87)
  6
Continuous
 62
     7
100
AcDbLine
 10
82.9184105087
 20
212.3091966907
 30
0.0
 11
212.8953381005
 21
212.3091966907
 31
0.0
  0
ARC
  5
14A
330
145
100
AcDbEntity
  8
$DDT_AUDIT_GENERATED_(87)
  6
Continuous
 62
     7
100
AcDbCircle
 10
65.7085179503
 20
200.702691341
 30
0.0
 40
11.64059763712932
100
AcDbArc
 50
72.5761475955
 51
85.6138435982
  0
ARC
  5
14B
330
145
100
AcDbEntity
  8
$DDT_AUDIT_GENERATED_(87)
  6
Continuous
 62
     7
100
AcDbCircle
 10
83.7375519522
 20
200.5711267937
 30
0.0
 40
11.76661708442504
100
AcDbArc
 50
93.9919153766
 51
107.2386970243
  0
ARC
  5
14C
330
145
100
AcDbEntity
  8
$DDT_AUDIT_GENERATED_(87)
  6
Continuous
 62
     7
100
AcDbCircle
 10
59.9469065519
 20
194.9155659272
 30
0.0
 40
17.28349303200428
100
AcDbArc
 50
88.2130259074
 51
88.9190780648
  0
ARC
  5
14D
330
145
100
AcDbEntity
  8
$DDT_AUDIT_GENERATED_(87)
  6
Continuous
 62
     7
100
AcDbCircle
 10
64.2679838404
 20
173.967567223
 30
0.0
 40
38.41240827728367
100
AcDbArc
 50
95.9659974596
 51
99.8929994381
  0
LINE
  5
14E
330
145
100
AcDbEntity
  8
$DDT_AUDIT_GENERATED_(87)
  6
Continuous
 62
     7
100
AcDbLine
 10
69.1941554518
 20
211.8091689355
 30
0.0
 11
70.0960304063
 21
211.5591966907
 31
0.0
  0
LINE
  5
14F
330
145
100
AcDbEntity
  8
$DDT_AUDIT_GENERATED_(87)
  6
Continuous
 62
     7
100
AcDbLine
 10
79.3476266982
 20
211.5591966907
 30
0.0
 11
80.250477697
 21
211.8091689163
 31
0.0
  0
LINE
  5
150
330
145
100
AcDbEntity
  8
$DDT_AUDIT_GENERATED_(87)
  6
Continuous
 62
     7
100
AcDbLine
 10
70.0960304063
 20
211.5591966907
 30
0.0
 11
79.3476266982
 21
211.5591966907
 31
0.0
  0
SPLINE
  5
151
330
145
100
AcDbEntity
  8
$DDT_AUDIT_GENERATED_(87)
  6
Continuous
 62
     7
100
AcDbSpline
210
0.0
220
0.0
230
1.0
 70
     8
 71
     3
 72
    38
 73
    34
 74
     0
 42
0.0000000000662451
 43
0.0000000001
 40
0.0
 40
0.0
 40
0.0
 40
0.0
 40
0.03125
 40
0.03125
 40
0.0625000000000001
 40
0.0625000000000001
 40
0.0937500000000001
 40
0.0937500000000001
 40
0.1250000000000001
 40
0.1250000000000001
 40
0.1562500000000002
 40
0.1562500000000002
 40
0.1875000000000002
 40
0.1875000000000002
 40
0.2187500000000002
 40
0.2187500000000002
 40
0.2500000000000002
 40
0.2500000000000002
 40
0.2812500000000002
 40
0.2812500000000002
 40
0.3125000000000002
 40
0.3125000000000002
 40
0.3750000000000002
 40
0.3750000000000002
 40
0.4062500000000004
 40
0.4062500000000004
 40
0.4375000000000006
 40
0.4375000000000006
 40
0.5000000000000006
 40
0.5000000000000006
 40
0.7500000000000002
 40
0.7500000000000002
 40
1.0
 40
1.0
 40
1.0
 40
1.0
 10
235.2368802159967
 20
212.3091966906593
 30
0.0
 10
236.7943400041935
 20
212.3091966906593
 30
0.0
 10
238.3519642101938
 20
212.3165439586034
 30
0.0
 10
241.4650607427443
 20
212.300272033214
 30
0.0
 10
243.0114826041229
 20
212.1419589024165
 30
0.0
 10
246.0739043960215
 20
211.3855279352061
 30
0.0
 10
247.5456706297958
 20
210.8196642758983
 30
0.0
 10
250.2814442688804
 20
209.2940590468169
 30
0.0
 10
251.5477477714896
 20
208.3108074018865
 30
0.0
 10
253.777487847252
 20
206.1060329927205
 30
0.0
 10
254.7831869995324
 20
204.8599983656416
 30
0.0
 10
256.425380690082
 20
202.1927775791907
 30
0.0
 10
257.0435547442877
 20
200.7590255190088
 30
0.0
 10
257.8658543681125
 20
197.6872116424784
 30
0.0
 10
258.0598816865721
 20
196.127485736601
 30
0.0
 10
258.1553974842038
 20
192.9891214831454
 30
0.0
 10
258.0205025922117
 20
191.3820458976904
 30
0.0
 10
257.2183511535223
 20
188.3734228318625
 30
0.0
 10
256.5912938858273
 20
186.9335512876079
 30
0.0
 10
255.0609182360575
 20
184.1775653808575
 30
0.0
 10
254.1725718651013
 20
182.8895495709264
 30
0.0
 10
250.9368630202933
 20
179.4421866464461
 30
0.0
 10
248.1090353898129
 20
177.8957438887574
 30
0.0
 10
243.6140640148643
 20
176.5585089697841
 30
0.0
 10
242.0571163973525
 20
176.2575962386443
 30
0.0
 10
238.9214103300829
 20
176.1434567529267
 30
0.0
 10
237.3530778377554
 20
176.1226536184424
 30
0.0
 10
232.647299456861
 20
176.0540112262509
 30
0.0
 10
229.509001148572
 20
176.029143109766
 30
0.0
 10
213.8125349446691
 20
175.92568081753
 30
0.0
 10
201.239175015379
 20
175.9168919425091
 30
0.0
 10
176.0868657333243
 20
175.8976184032679
 30
0.0
 10
163.5049669979709
 20
175.8986017375369
 30
0.0
 10
150.9178259119684
 20
175.8986017375369
 30
0.0
  0
ARC
  5
152
330
145
100
AcDbEntity
  8
$DDT_AUDIT_GENERATED_(87)
  6
Continuous
 62
     7
100
AcDbCircle
 10
236.1271313628
 20
200.7026896826
 30
0.0
 40
11.6405992986835
100
AcDbArc
 50
94.3861562927
 51
107.4238512034
  0
ARC
  5
153
330
145
100
AcDbEntity
  8
$DDT_AUDIT_GENERATED_(87)
  6
Continuous
 62
     7
100
AcDbCircle
 10
218.0980977531
 20
200.5711251435
 30
0.0
 40
11.766618737701
100
AcDbArc
 50
72.7613041444
 51
86.0080846843
  0
LINE
  5
154
330
145
100
AcDbEntity
  8
$DDT_AUDIT_GENERATED_(87)
  6
Continuous
 62
     7
100
AcDbLine
 10
222.4880233581
 20
211.5591966907
 30
0.0
 11
221.5851722689
 21
211.8091689163
 31
0.0
  0
ARC
  5
155
330
145
100
AcDbEntity
  8
$DDT_AUDIT_GENERATED_(87)
  6
Continuous
 62
     7
100
AcDbCircle
 10
237.8426629393
 20
175.6650499575
 30
0.0
 40
36.73667912870935
100
AcDbArc
 50
80.030095471
 51
84.0966782332
  0
ARC
  5
156
330
145
100
AcDbEntity
  8
$DDT_AUDIT_GENERATED_(87)
  6
Continuous
 62
     7
100
AcDbCircle
 10
243.02858098
 20
188.7377963507
 30
0.0
 40
23.54667348289892
100
AcDbArc
 50
93.41800545
 51
94.5729230073
  0
LINE
  5
157
330
145
100
AcDbEntity
  8
$DDT_AUDIT_GENERATED_(87)
  6
Continuous
 62
     7
100
AcDbLine
 10
231.7396185517
 20
211.5591966907
 30
0.0
 11
222.4880233581
 21
211.5591966907
 31
0.0
  0
LINE
  5
158
330
145
100
AcDbEntity
  8
$DDT_AUDIT_GENERATED_(87)
  6
Continuous
 62
     7
100
AcDbLine
 10
232.6414935966
 20
211.8091689355
 30
0.0
 11
231.7396185517
 21
211.5591966907
 31
0.0
  0
LINE
  5
159
330
145
100
AcDbEntity
  8
$DDT_AUDIT_GENERATED_(E5)
  6
Continuous
 62
     7
100
AcDbLine
 10
124.982108574
 20
155.2820221937
 30
0.0
 11
176.8535432315
 21
155.2820221937
 31
0.0
  0
ARC
  5
15A
330
145
100
AcDbEntity
  8
$DDT_AUDIT_GENERATED_(E5)
  6
Continuous
 62
     7
100
AcDbCircle
 10
623.745903358
 20
190.4199932892
 30
0.0
 40
499.9999999999999
100
AcDbArc
 50
181.6640174003
 51
184.0298365732
  0
ARC
  5
15B
330
145
100
AcDbEntity
  8
$DDT_AUDIT_GENERATED_(E5)
  6
Continuous
 62
     7
100
AcDbCircle
 10
-321.9102515524
 20
190.4199932892
 30
0.0
 40
499.9999999999999
100
AcDbArc
 50
355.9701634268
 51
358.3360345857
  0
ARC
  5
15C
330
145
100
AcDbEntity
  8
$DDT_AUDIT_GENERATED_(E5)
  6
Continuous
 62
     7
100
AcDbCircle
 10
150.9178259028
 20
157.1091966907
 30
0.0
 40
26.0
100
AcDbArc
 50
337.5713163743
 51
355.9701634268
  0
ARC
  5
15D
330
145
100
AcDbEntity
  8
$DDT_AUDIT_GENERATED_(E5)
  6
Continuous
 62
     7
100
AcDbCircle
 10
150.9178259028
 20
157.1091966907
 30
0.0
 40
26.0
100
AcDbArc
 50
184.0298365732
 51
202.4279563024
  0
SPLINE
  5
15E
330
145
100
AcDbEntity
  8
$DDT_AUDIT_GENERATED_(A2)
  6
Continuous
 62
     7
100
AcDbSpline
210
0.0
220
0.0
230
1.0
 70
     8
 71
     3
 72
    10
 73
     6
 74
     0
 42
0.0000000018888694
 43
0.0000000001
 40
0.6729662741062145
 40
0.6729662741062145
 40
0.6729662741062145
 40
0.6729662741062145
 40
0.687499999999999
 40
0.687499999999999
 40
0.7045769029980786
 40
0.7045769029980786
 40
0.7045769029980786
 40
0.7045769029980786
 10
167.0876772259574
 20
109.5728684720023
 30
0.0
 10
167.0873402298807
 20
109.5909150175827
 30
0.0
 10
167.0826621556248
 20
109.6113977136949
 30
0.0
 10
167.0748735564328
 20
109.6668118439226
 30
0.0
 10
167.0703098967582
 20
109.7008959528407
 30
0.0
 10
167.0657066074712
 20
109.7385609113739
 30
0.0
  0
SPLINE
  5
15F
330
145
100
AcDbEntity
  8
$DDT_AUDIT_GENERATED_(A2)
  6
Continuous
 62
     7
100
AcDbSpline
210
0.0
220
0.0
230
1.0
 70
     8
 71
     3
 72
    10
 73
     6
 74
     0
 42
0.0000000001434939
 43
0.0000000001
 40
0.0
 40
0.0
 40
0.0
 40
0.0
 40
0.0625000000000001
 40
0.0625000000000001
 40
0.0735344180483123
 40
0.0735344180483123
 40
0.0735344180483123
 40
0.0735344180483123
 10
168.9844654609847
 20
111.1411569213063
 30
0.0
 10
170.7697377799403
 20
111.3706689646504
 30
0.0
 10
172.237185094185
 20
111.6344227101312
 30
0.0
 10
173.6239784373972
 20
111.9874258983606
 30
0.0
 10
173.8227339186404
 20
112.0415841831493
 30
0.0
 10
174.0114674578044
 20
112.0967178108642
 30
0.0
  0
SPLINE
  5
160
330
145
100
AcDbEntity
  8
$DDT_AUDIT_GENERATED_(A2)
  6
Continuous
 62
     7
100
AcDbSpline
210
0.0
220
0.0
230
1.0
 70
     8
 71
     3
 72
    20
 73
    16
 74
     0
 42
0.0000000002766011
 43
0.0000000001
 40
0.0735344180483123
 40
0.0735344180483123
 40
0.0735344180483123
 40
0.0735344180483123
 40
0.0937500000000001
 40
0.0937500000000001
 40
0.1250000000000002
 40
0.1250000000000002
 40
0.1562500000000002
 40
0.1562500000000002
 40
0.1875000000000003
 40
0.1875000000000003
 40
0.2500000000000004
 40
0.2500000000000004
 40
0.2812500000000005
 40
0.2812500000000005
 40
0.2837407266846857
 40
0.2837407266846857
 40
0.2837407266846857
 40
0.2837407266846857
 10
174.0114674578044
 20
112.0967178108642
 30
0.0
 10
174.3572363339969
 20
112.1977252554331
 30
0.0
 10
174.6693675702621
 20
112.3020063403702
 30
0.0
 10
175.3677504901134
 20
112.5725038398266
 30
0.0
 10
175.7066436536609
 20
112.7426197110063
 30
0.0
 10
176.2103537699527
 20
113.0951662224145
 30
0.0
 10
176.3754408566002
 20
113.279249955217
 30
0.0
 10
176.5105405970405
 20
113.6516642768273
 30
0.0
 10
176.4808248658913
 20
113.8395054896558
 30
0.0
 10
176.1141738232255
 20
114.4074425170225
 30
0.0
 10
175.4906612156896
 20
114.7972091674929
 30
0.0
 10
174.0748282419715
 20
115.3544371735903
 30
0.0
 10
173.5224970995235
 20
115.5365956865232
 30
0.0
 10
172.8363220366796
 20
115.7286892432217
 30
0.0
 10
172.7851271888471
 20
115.7428421971677
 30
0.0
 10
172.7334017885863
 20
115.7569645309211
 30
0.0
  0
SPLINE
  5
161
330
145
100
AcDbEntity
  8
$DDT_AUDIT_GENERATED_(A2)
  6
Continuous
 62
     7
100
AcDbSpline
210
0.0
220
0.0
230
1.0
 70
     8
 71
     3
 72
    24
 73
    20
 74
     0
 42
0.0000000000981698
 43
0.0000000001
 40
0.2837407266846857
 40
0.2837407266846857
 40
0.2837407266846857
 40
0.2837407266846857
 40
0.3125000000000005
 40
0.3125000000000005
 40
0.3437500000000006
 40
0.3437500000000006
 40
0.3750000000000006
 40
0.3750000000000006
 40
0.4375000000000006
 40
0.4375000000000006
 40
0.5000000000000007
 40
0.5000000000000007
 40
0.6250000000000008
 40
0.6250000000000008
 40
0.6562500000000008
 40
0.6562500000000008
 40
0.6875000000000009
 40
0.6875000000000009
 40
0.7126465812913998
 40
0.7126465812913998
 40
0.7126465812913998
 40
0.7126465812913998
 10
172.7334017885863
 20
115.7569645309211
 30
0.0
 10
172.1361524265459
 20
115.920028611281
 30
0.0
 10
171.4681684525073
 20
116.0790103289536
 30
0.0
 10
169.9625117187115
 20
116.391604510547
 30
0.0
 10
169.1097570487758
 20
116.5450164874078
 30
0.0
 10
167.2621550401687
 20
116.8313018473254
 30
0.0
 10
166.2593741809341
 20
116.9653327258614
 30
0.0
 10
163.1086160215804
 20
117.3270304351298
 30
0.0
 10
160.8358711401917
 20
117.5151242622668
 30
0.0
 10
155.9699407005471
 20
117.77755722606
 30
0.0
 10
153.4864442504467
 20
117.8462196657716
 30
0.0
 10
145.8731306149622
 20
117.8479203693365
 30
0.0
 10
140.836288013199
 20
117.5677667444808
 30
0.0
 10
135.6111153898372
 20
116.9696746977847
 30
0.0
 10
134.6055815180585
 20
116.8359074027131
 30
0.0
 10
132.7408990880473
 20
116.5476960518193
 30
0.0
 10
131.8851846679579
 20
116.3938521048784
 30
0.0
 10
130.4709147781273
 20
116.1006813988582
 30
0.0
 10
129.8847299392284
 20
115.9636866947201
 30
0.0
 10
129.3477086090707
 20
115.8224294645217
 30
0.0
  0
SPLINE
  5
162
330
145
100
AcDbEntity
  8
$DDT_AUDIT_GENERATED_(A2)
  6
Continuous
 62
     7
100
AcDbSpline
210
0.0
220
0.0
230
1.0
 70
     8
 71
     3
 72
    16
 73
    12
 74
     0
 42
0.0000000002684689
 43
0.0000000001
 40
0.7126465812913998
 40
0.7126465812913998
 40
0.7126465812913998
 40
0.7126465812913998
 40
0.7500000000000007
 40
0.7500000000000007
 40
0.8125000000000004
 40
0.8125000000000004
 40
0.8437500000000004
 40
0.8437500000000004
 40
0.8750000000000003
 40
0.8750000000000003
 40
0.932827528654273
 40
0.932827528654273
 40
0.932827528654273
 40
0.932827528654273
 10
129.3477086090707
 20
115.8224294645217
 30
0.0
 10
128.5500024569549
 20
115.612602116459
 30
0.0
 10
127.8607753069262
 20
115.3933695289163
 30
0.0
 10
126.3498615010518
 20
114.7997909251747
 30
0.0
 10
125.7248137950448
 20
114.4104024802502
 30
0.0
 10
125.3552992920229
 20
113.8413146203412
 30
0.0
 10
125.3254574543173
 20
113.65382366653
 30
0.0
 10
125.4575580146844
 20
113.2835420484962
 30
0.0
 10
125.6205768090594
 20
113.0992844980778
 30
0.0
 10
126.339271200366
 20
112.5939850091098
 30
0.0
 10
127.1012456032549
 20
112.2881580647271
 30
0.0
 10
128.1500988588313
 20
112.005120158523
 30
0.0
  0
SPLINE
  5
163
330
145
100
AcDbEntity
  8
$DDT_AUDIT_GENERATED_(A2)
  6
Continuous
 62
     7
100
AcDbSpline
210
0.0
220
0.0
230
1.0
 70
     8
 71
     3
 72
    10
 73
     6
 74
     0
 42
0.0000000001403512
 43
0.0000000001
 40
0.932827528654273
 40
0.932827528654273
 40
0.932827528654273
 40
0.932827528654273
 40
0.9375000000000001
 40
0.9375000000000001
 40
1.0
 40
1.0
 40
1.0
 40
1.0
 10
128.1500988588313
 20
112.005120158523
 30
0.0
 10
128.2348463293977
 20
111.982250661291
 30
0.0
 10
128.3214667343531
 20
111.9595299459329
 30
0.0
 10
129.5936016562635
 20
111.6350353206559
 30
0.0
 10
131.0661453944534
 20
111.3706401313125
 30
0.0
 10
132.8511938025322
 20
111.1411568823444
 30
0.0
  0
SPLINE
  5
164
330
145
100
AcDbEntity
  8
$DDT_AUDIT_GENERATED_(A2)
  6
Continuous
 62
     7
100
AcDbSpline
210
0.0
220
0.0
230
1.0
 70
     8
 71
     3
 72
    16
 73
    12
 74
     0
 42
0.0000000038141966
 43
0.0000000001
 40
0.0
 40
0.0
 40
0.0
 40
0.0
 40
0.2499999999999999
 40
0.2499999999999999
 40
0.3750000000000001
 40
0.3750000000000001
 40
0.5000000000000003
 40
0.5000000000000003
 40
0.7500000000000002
 40
0.7500000000000002
 40
1.0
 40
1.0
 40
1.0
 40
1.0
 10
132.8511938025322
 20
111.1411568823444
 30
0.0
 10
133.2396859519682
 20
111.0912128918914
 30
0.0
 10
133.5832542334534
 20
111.0376877201902
 30
0.0
 10
134.0341650331844
 20
110.9525286655737
 30
0.0
 10
134.1736497956322
 20
110.9233238541152
 30
0.0
 10
134.4305439226672
 20
110.8632857605775
 30
0.0
 10
134.5482762744492
 20
110.8323210666557
 30
0.0
 10
134.8607572624352
 20
110.7389140104132
 30
0.0
 10
135.0177413058724
 20
110.6754711657066
 30
0.0
 10
135.2304913685402
 20
110.5464908451324
 30
0.0
 10
135.2857327178463
 20
110.480598502338
 30
0.0
 10
135.2862869943987
 20
110.4154040700979
 30
0.0
  0
SPLINE
  5
165
330
145
100
AcDbEntity
  8
$DDT_AUDIT_GENERATED_(A2)
  6
Continuous
 62
     7
100
AcDbSpline
210
0.0
220
0.0
230
1.0
 70
     8
 71
     3
 72
    16
 73
    12
 74
     0
 42
0.0000000038152829
 43
0.0000000001
 40
0.0
 40
0.0
 40
0.0
 40
0.0
 40
0.2499999999999987
 40
0.2499999999999987
 40
0.3749999999999988
 40
0.3749999999999988
 40
0.499999999999999
 40
0.499999999999999
 40
0.7499999999999994
 40
0.7499999999999994
 40
1.0
 40
1.0
 40
1.0
 40
1.0
 10
166.549372371784
 20
110.4154041732153
 30
0.0
 10
166.5499266975926
 20
110.4806008466947
 30
0.0
 10
166.6040319460022
 20
110.5453840783257
 30
0.0
 10
166.7622072225701
 20
110.6418993554551
 30
0.0
 10
166.8278615791557
 20
110.6739594284572
 30
0.0
 10
166.9855829514507
 20
110.7378277687191
 30
0.0
 10
167.0781875028104
 20
110.769762959432
 30
0.0
 10
167.3904683668406
 20
110.8631856099493
 30
0.0
 10
167.6452049906971
 20
110.9228607005896
 30
0.0
 10
168.2466602707364
 20
111.036751075741
 30
0.0
 10
168.5959651337822
 20
111.0912118776346
 30
0.0
 10
168.9844654609847
 20
111.1411569213063
 30
0.0
  0
SPLINE
  5
166
330
145
100
AcDbEntity
  8
$DDT_AUDIT_GENERATED_(A2)
  6
Continuous
 62
     7
100
AcDbSpline
210
0.0
220
0.0
230
1.0
 70
     8
 71
     3
 72
    14
 73
    10
 74
     0
 42
0.00000000085942
 43
0.0000000001
 40
0.0
 40
0.0
 40
0.0
 40
0.0
 40
0.2499999999999979
 40
0.2499999999999979
 40
0.3124999999999976
 40
0.3124999999999976
 40
0.3437499999999974
 40
0.3437499999999974
 40
0.3486461690822211
 40
0.3486461690822211
 40
0.3486461690822211
 40
0.3486461690822211
 10
135.2862869943987
 20
110.4154040700979
 30
0.0
 10
135.3002075919426
 20
108.7780527354831
 30
0.0
 10
135.3388701761692
 20
107.5584444428554
 30
0.0
 10
135.2924194225454
 20
106.7342526879939
 30
0.0
 10
135.2729216612277
 20
106.6046773611131
 30
0.0
 10
135.2492139553799
 20
106.4670525724022
 30
0.0
 10
135.2370112278668
 20
106.4306378560571
 30
0.0
 10
135.2742709864363
 20
106.3998619665304
 30
0.0
 10
135.2803489439966
 20
106.3959328991439
 30
0.0
 10
135.2885321962095
 20
106.3922455732265
 30
0.0
  0
SPLINE
  5
167
330
145
100
AcDbEntity
  8
$DDT_AUDIT_GENERATED_(A2)
  6
Continuous
 62
     7
100
AcDbSpline
210
0.0
220
0.0
230
1.0
 70
     8
 71
     3
 72
    10
 73
     6
 74
     0
 42
0.0000000003666211
 43
0.0000000001
 40
0.3486461690822211
 40
0.3486461690822211
 40
0.3486461690822211
 40
0.3486461690822211
 40
0.3749999999999973
 40
0.3749999999999973
 40
0.3858989352272728
 40
0.3858989352272728
 40
0.3858989352272728
 40
0.3858989352272728
 10
135.2885321962095
 20
106.3922455732265
 30
0.0
 10
135.3325788869091
 20
106.3723983902285
 30
0.0
 10
135.4376196433604
 20
106.3595548801123
 30
0.0
 10
135.9091417801299
 20
106.351756089031
 30
0.0
 10
136.0850272577773
 20
106.3506929196094
 30
0.0
 10
136.2995279106071
 20
106.3507111048644
 30
0.0
  0
SPLINE
  5
168
330
145
100
AcDbEntity
  8
$DDT_AUDIT_GENERATED_(A2)
  6
Continuous
 62
     7
100
AcDbSpline
210
0.0
220
0.0
230
1.0
 70
     8
 71
     3
 72
    10
 73
     6
 74
     0
 42
0.0000000003704918
 43
0.0000000001
 40
0.610378086656392
 40
0.610378086656392
 40
0.610378086656392
 40
0.610378086656392
 40
0.6249999999999992
 40
0.6249999999999992
 40
0.6480045541473359
 40
0.6480045541473359
 40
0.6480045541473359
 40
0.6480045541473359
 10
165.5404923415177
 20
106.3507117772072
 30
0.0
 10
165.8280023151895
 20
106.350714336089
 30
0.0
 10
166.0485874147504
 20
106.3527198692772
 30
0.0
 10
166.434453111188
 20
106.3636357324216
 30
0.0
 10
166.5160871476404
 20
106.3756618309209
 30
0.0
 10
166.5509933190417
 20
106.3929260102645
 30
0.0
  0
SPLINE
  5
169
330
145
100
AcDbEntity
  8
$DDT_AUDIT_GENERATED_(A2)
  6
Continuous
 62
     7
100
AcDbSpline
210
0.0
220
0.0
230
1.0
 70
     8
 71
     3
 72
    14
 73
    10
 74
     0
 42
0.0000000008694932
 43
0.0000000001
 40
0.6480045541473359
 40
0.6480045541473359
 40
0.6480045541473359
 40
0.6480045541473359
 40
0.6562499999999992
 40
0.6562499999999992
 40
0.6874999999999992
 40
0.6874999999999992
 40
0.7499999999999992
 40
0.7499999999999992
 40
1.0
 40
1.0
 40
1.0
 40
1.0
 10
166.5509933190417
 20
106.3929260102645
 30
0.0
 10
166.5635046219936
 20
106.399113952663
 30
0.0
 10
166.5700128110126
 20
106.4059748296385
 30
0.0
 10
166.5961545234634
 20
106.4420363934856
 30
0.0
 10
166.5843219585093
 20
106.4801431176939
 30
0.0
 10
166.5592743763486
 20
106.622169396519
 30
0.0
 10
166.5415234473995
 20
106.7538112996723
 30
0.0
 10
166.4979964678787
 20
107.5838785290041
 30
0.0
 10
166.5355944006838
 20
108.7949169559285
 30
0.0
 10
166.549372371784
 20
110.4154041732153
 30
0.0
  0
SPLINE
  5
16A
330
145
100
AcDbEntity
  8
$DDT_AUDIT_GENERATED_(A2)
  6
Continuous
 62
     7
100
AcDbSpline
210
0.0
220
0.0
230
1.0
 70
     8
 71
     3
 72
    12
 73
     8
 74
     0
 42
0.0000000008424473
 43
0.0000000001
 40
0.0133728154740698
 40
0.0133728154740698
 40
0.0133728154740698
 40
0.0133728154740698
 40
0.2499999999999998
 40
0.2499999999999998
 40
0.3125
 40
0.3125
 40
0.3254652972854734
 40
0.3254652972854734
 40
0.3254652972854734
 40
0.3254652972854734
 10
167.0469181169524
 20
110.6509469663039
 30
0.0
 10
167.0313429341494
 20
109.1336038137052
 30
0.0
 10
166.9979462035399
 20
108.0037019967885
 30
0.0
 10
167.0445291815559
 20
107.2203125798463
 30
0.0
 10
167.0655896850611
 20
107.0924993337216
 30
0.0
 10
167.0832357985808
 20
106.9842148471363
 30
0.0
 10
167.0872228400142
 20
106.9672827401018
 30
0.0
 10
167.0877710538726
 20
106.9519352723823
 30
0.0
  0
SPLINE
  5
16B
330
145
100
AcDbEntity
  8
$DDT_AUDIT_GENERATED_(A2)
  6
Continuous
 62
     7
100
AcDbSpline
210
0.0
220
0.0
230
1.0
 70
     8
 71
     3
 72
    12
 73
     8
 74
     0
 42
0.0000000008458173
 43
0.0000000001
 40
0.6733196278923176
 40
0.6733196278923176
 40
0.6733196278923176
 40
0.6733196278923176
 40
0.6874999999999998
 40
0.6874999999999998
 40
0.7499999999999996
 40
0.7499999999999996
 40
0.9864325094533162
 40
0.9864325094533162
 40
0.9864325094533162
 40
0.9864325094533162
 10
134.7480317225829
 20
106.9519224692426
 30
0.0
 10
134.7483552550421
 20
106.9686357876333
 30
0.0
 10
134.752771249866
 20
106.9872303181408
 30
0.0
 10
134.7714944227125
 20
107.0985520932325
 30
0.0
 10
134.7917822522039
 20
107.2271338710923
 30
0.0
 10
134.8372603000105
 20
108.0125031241968
 30
0.0
 10
134.8042720844349
 20
109.1387806691188
 30
0.0
 10
134.7887673694875
 20
110.6482670577775
 30
0.0
  0
SPLINE
  5
16C
330
145
100
AcDbEntity
  8
$DDT_AUDIT_GENERATED_(A2)
  6
Continuous
 62
     7
100
AcDbSpline
210
0.0
220
0.0
230
1.0
 70
     8
 71
     3
 72
    34
 73
    30
 74
     0
 42
0.0000000001237107
 43
0.0000000001
 40
0.1662554223290022
 40
0.1662554223290022
 40
0.1662554223290022
 40
0.1662554223290022
 40
0.1875
 40
0.1875
 40
0.2500000000000001
 40
0.2500000000000001
 40
0.2812500000000001
 40
0.2812500000000001
 40
0.3125000000000001
 40
0.3125000000000001
 40
0.3437500000000002
 40
0.3437500000000002
 40
0.3750000000000002
 40
0.3750000000000002
 40
0.4375000000000003
 40
0.4375000000000003
 40
0.5000000000000003
 40
0.5000000000000003
 40
0.6250000000000004
 40
0.6250000000000004
 40
0.6562500000000004
 40
0.6562500000000004
 40
0.6875000000000004
 40
0.6875000000000004
 40
0.7500000000000003
 40
0.7500000000000003
 40
0.8125000000000003
 40
0.8125000000000003
 40
0.8338708176545001
 40
0.8338708176545001
 40
0.8338708176545001
 40
0.8338708176545001
 10
124.8577098878874
 20
114.1260848826141
 30
0.0
 10
124.8540258140121
 20
114.2531615686383
 30
0.0
 10
124.895434126482
 20
114.3809675970888
 30
0.0
 10
125.2304847780094
 20
114.8877667233273
 30
0.0
 10
125.867190145664
 20
115.2774947303991
 30
0.0
 10
127.3123504449194
 20
115.8345397280572
 30
0.0
 10
127.8761145120006
 20
116.0166448199187
 30
0.0
 10
129.1735143482919
 20
116.3722898567162
 30
0.0
 10
129.9087916582523
 20
116.5456540682576
 30
0.0
 10
131.5083313771995
 20
116.8706414046297
 30
0.0
 10
132.3781343510213
 20
117.0236659276007
 30
0.0
 10
134.2625427582863
 20
117.3093979315148
 30
0.0
 10
135.2854196537219
 20
117.4432724146823
 30
0.0
 10
138.4962430653175
 20
117.8043509622153
 30
0.0
 10
140.8142788109986
 20
117.9924024102101
 30
0.0
 10
145.7709639931174
 20
118.254272726421
 30
0.0
 10
148.3013980792764
 20
118.3226968575579
 30
0.0
 10
156.0605745791549
 20
118.3243159395739
 30
0.0
 10
161.1903019187009
 20
118.0447125390333
 30
0.0
 10
166.5166154398768
 20
117.4473782793795
 30
0.0
 10
167.5418502758981
 20
117.313792277786
 30
0.0
 10
169.442850795117
 20
117.0262291253379
 30
0.0
 10
170.3155514240657
 20
116.872793317189
 30
0.0
 10
172.7137445888994
 20
116.3862558372008
 30
0.0
 10
174.0332442788081
 20
116.0227920886496
 30
0.0
 10
175.9637025693803
 20
115.2799731317888
 30
0.0
 10
176.6018800105447
 20
114.8906302312185
 30
0.0
 10
176.939966145135
 20
114.382075589941
 30
0.0
 10
176.9816247427062
 20
114.2535903961448
 30
0.0
 10
176.9779525335323
 20
114.1261666341212
 30
0.0
  0
ELLIPSE
  5
16D
330
145
100
AcDbEntity
  8
$DDT_AUDIT_GENERATED_(A2)
  6
Continuous
 62
     7
100
AcDbEllipse
 10
168.984465461
 20
111.6371950361
 30
0.0
 11
-0.06371154511385091
 21
0.4959242270944075
 31
0.0
210
0.0
220
0.0
230
0.9999999999999999
 40
0.7092804906
 41
2.962407651319538
 42
3.155778084360382
  0
ARC
  5
16E
330
145
100
AcDbEntity
  8
$DDT_AUDIT_GENERATED_(A2)
  6
Continuous
 62
     7
100
AcDbCircle
 10
150.9173303046
 20
-23777.0547900309
 30
0.0
 40
23924.08026131969
100
AcDbArc
 50
89.9353563116
 51
89.9353569837
  0
LINE
  5
16F
330
145
100
AcDbEntity
  8
$DDT_AUDIT_GENERATED_(A2)
  6
Continuous
 62
     7
100
AcDbLine
 10
177.7099112051
 20
147.2159170697
 30
0.0
 11
124.1260509684
 21
147.2159170697
 31
0.0
  0
LINE
  5
170
330
145
100
AcDbEntity
  8
$DDT_AUDIT_GENERATED_(A2)
  6
Continuous
 62
     7
100
AcDbLine
 10
136.3371928587
 20
106.350710875
 30
0.0
 11
165.5319779288
 21
106.350710875
 31
0.0
  0
LINE
  5
171
330
145
100
AcDbEntity
  8
$DDT_AUDIT_GENERATED_(A2)
  6
Continuous
 62
     7
100
AcDbLine
 10
134.7498981155
 20
109.5714756176
 30
0.0
 11
134.749898119
 21
106.9541435751
 31
0.0
  0
LINE
  5
172
330
145
100
AcDbEntity
  8
$DDT_AUDIT_GENERATED_(A2)
  6
Continuous
 62
     7
100
AcDbLine
 10
167.0857449655
 20
106.9661596203
 30
0.0
 11
167.0857449654
 21
106.9912621218
 31
0.0
  0
LINE
  5
173
330
145
100
AcDbEntity
  8
$DDT_AUDIT_GENERATED_(A2)
  6
Continuous
 62
     7
100
AcDbLine
 10
167.085744965
 20
107.3397951281
 30
0.0
 11
167.0857449619
 21
109.5719330245
 31
0.0
  0
SPLINE
  5
174
330
145
100
AcDbEntity
  8
$DDT_AUDIT_GENERATED_(A2)
  6
Continuous
 62
     7
100
AcDbSpline
210
0.0
220
0.0
230
1.0
 70
     8
 71
     3
 72
    15
 73
    11
 74
     0
 42
0.0000000024670243
 43
0.0000000001
 40
0.0
 40
0.0
 40
0.0
 40
0.0
 40
0.083906860467586
 40
0.1916039082060003
 40
0.3081785881570149
 40
0.444700198423448
 40
0.6008511589646063
 40
0.7619630172059746
 40
0.9203306178075987
 40
1.0
 40
1.0
 40
1.0
 40
1.0
 10
124.869774066048
 20
114.1324133138819
 30
0.0
 10
124.8754578712964
 20
114.0279110448768
 30
0.0
 10
124.8884626127615
 20
113.8277240753094
 30
0.0
 10
125.0487177485321
 20
113.5179103063515
 30
0.0
 10
125.298344821856
 20
113.2270666299509
 30
0.0
 10
125.664275230728
 20
112.9436765661365
 30
0.0
 10
126.1666299586886
 20
112.6640236857367
 30
0.0
 10
126.8075243330323
 20
112.3960681399571
 30
0.0
 10
127.4513029386116
 20
112.1767767590352
 30
0.0
 10
127.8693817221509
 20
112.0658452811681
 30
0.0
 10
128.0347782536476
 20
112.0223193336622
 30
0.0
  0
SPLINE
  5
175
330
145
100
AcDbEntity
  8
$DDT_AUDIT_GENERATED_(A2)
  6
Continuous
 62
     7
100
AcDbSpline
210
0.0
220
0.0
230
1.0
 70
     8
 71
     3
 72
    14
 73
    10
 74
     0
 42
0.0000000027546907
 43
0.0000000001
 40
0.0
 40
0.0
 40
0.0
 40
0.0
 40
0.1209046445964359
 40
0.2892989975458277
 40
0.4600869045436613
 40
0.633975152651582
 40
0.7750616023689921
 40
0.8948505139259454
 40
1.0
 40
1.0
 40
1.0
 40
1.0
 10
174.1947267491195
 20
112.1329011262641
 30
0.0
 10
174.4072953611664
 20
112.1962145578921
 30
0.0
 10
174.8347811148342
 20
112.3251107521724
 30
0.0
 10
175.4527449029064
 20
112.5668630540399
 30
0.0
 10
176.0170218292884
 20
112.8469936294125
 30
0.0
 10
176.4482326228448
 20
113.1445644363302
 30
0.0
 10
176.7443004293676
 20
113.4545079412236
 30
0.0
 10
176.9315350025748
 20
113.7833796980315
 30
0.0
 10
176.9596861592785
 20
113.9981261681919
 30
0.0
 10
176.9739154748742
 20
114.1180442833633
 30
0.0
  0
SPLINE
  5
176
330
145
100
AcDbEntity
  8
$DDT_AUDIT_GENERATED_(A2)
  6
Continuous
 62
     7
100
AcDbSpline
210
0.0
220
0.0
230
1.0
 70
     8
 71
     3
 72
    14
 73
    10
 74
     0
 42
0.0000000038139624
 43
0.0000000001
 40
0.0
 40
0.0
 40
0.0
 40
0.0
 40
0.0366825889291079
 40
0.1928673234229171
 40
0.3483567556122498
 40
0.5015951017199404
 40
0.6464931913984405
 40
0.7576681573847203
 40
0.8023886744161729
 40
0.8023886744161729
 40
0.8023886744161729
 40
0.8023886744161729
 10
132.8402221159589
 20
111.1324874018423
 30
0.0
 10
132.9024780709642
 20
111.1250014512163
 30
0.0
 10
133.1822502207942
 20
111.0912310872474
 30
0.0
 10
133.6439021790571
 20
111.0154885028453
 30
0.0
 10
134.1575579412485
 20
110.9145233254694
 30
0.0
 10
134.547162633641
 20
110.8123761084408
 30
0.0
 10
134.782975479728
 20
110.7254664159646
 30
0.0
 10
134.8690831781654
 20
110.6774787796262
 30
0.0
 10
134.8810709750838
 20
110.6682078543714
 30
0.0
 10
134.8812459190657
 20
110.6681632078498
 30
0.0
  0
SPLINE
  5
177
330
145
100
AcDbEntity
  8
$DDT_AUDIT_GENERATED_(A2)
  6
Continuous
 62
     7
100
AcDbSpline
210
0.0
220
0.0
230
1.0
 70
     8
 71
     3
 72
    14
 73
    10
 74
     0
 42
0.0000000037592462
 43
0.0000000001
 40
0.1868888685924077
 40
0.1868888685924077
 40
0.1868888685924077
 40
0.1868888685924077
 40
0.2215394892185724
 40
0.3188096348782644
 40
0.436339164217697
 40
0.5702510957807182
 40
0.714692356340696
 40
0.8658383424261757
 40
1.0
 40
1.0
 40
1.0
 40
1.0
 10
166.9536121529324
 20
110.6680496930295
 30
0.0
 10
166.9538622256424
 20
110.6681772189126
 30
0.0
 10
166.9623756479559
 20
110.6747548515811
 30
0.0
 10
167.0233343672473
 20
110.7106785127191
 30
0.0
 10
167.1988543633316
 20
110.781702999266
 30
0.0
 10
167.4963040509556
 20
110.8697040246543
 30
0.0
 10
167.9221685869858
 20
110.9653487584876
 30
0.0
 10
168.4513720487998
 20
111.0600846236894
 30
0.0
 10
168.8371667741517
 20
111.1120022087868
 30
0.0
 10
169.0535335923142
 20
111.1407354589089
 30
0.0
  0
ARC
  5
178
330
145
100
AcDbEntity
  8
$DDT_AUDIT_GENERATED_(A2)
  6
Continuous
 62
     7
100
AcDbCircle
 10
166.5711650054
 20
106.9020357005
 30
0.0
 40
0.4970795392274169
100
AcDbArc
 50
287.4194626012
 51
349.5966972881
  0
ARC
  5
179
330
145
100
AcDbEntity
  8
$DDT_AUDIT_GENERATED_(A2)
  6
Continuous
 62
     7
100
AcDbCircle
 10
135.2666723741
 20
106.902345979
 30
0.0
 40
0.4987230843529189
100
AcDbArc
 50
191.0120051865
 51
253.3686187612
  0
LINE
  5
17A
330
145
100
AcDbEntity
  8
$DDT_AUDIT_GENERATED_(A2)
  6
Continuous
 62
     7
100
AcDbLine
 10
123.9246638264
 20
147.0095108986
 30
0.0
 11
124.857569746
 21
114.1260611528
 31
0.0
  0
LINE
  5
17B
330
145
100
AcDbEntity
  8
$DDT_AUDIT_GENERATED_(A2)
  6
Continuous
 62
     7
100
AcDbLine
 10
176.9780914296
 20
114.1261392324
 30
0.0
 11
177.9109943701
 21
147.0094839732
 31
0.0
  0
ARC
  5
17C
330
145
100
AcDbEntity
  8
$DDT_AUDIT_GENERATED_(A2)
  6
Continuous
 62
     7
100
AcDbCircle
 10
177.7108185958
 20
147.0159169066
 30
0.0
 40
0.2000002678962113
100
AcDbArc
 50
358.2523346581
 51
90.1591698579
  0
ARC
  5
17D
330
145
100
AcDbEntity
  8
$DDT_AUDIT_GENERATED_(A2)
  6
Continuous
 62
     7
100
AcDbCircle
 10
124.1247360996
 20
147.0159169561
 30
0.0
 40
0.2000001592903469
100
AcDbArc
 50
89.9010128034
 51
182.0161924011
  0
LINE
  5
17E
330
145
100
AcDbEntity
  8
$DDT_AUDIT_GENERATED_(101)
  6
Continuous
 62
     7
100
AcDbLine
 10
236.4178259028
 20
212.3163400813
 30
0.0
 11
236.4178259028
 21
212.5591966907
 31
0.0
  0
LINE
  5
17F
330
145
100
AcDbEntity
  8
$DDT_AUDIT_GENERATED_(101)
  6
Continuous
 62
     7
100
AcDbLine
 10
215.4178259028
 20
212.5591966907
 30
0.0
 11
215.4178259028
 21
212.3091966907
 31
0.0
  0
LINE
  5
180
330
145
100
AcDbEntity
  8
$DDT_AUDIT_GENERATED_(101)
  6
Continuous
 62
     7
100
AcDbLine
 10
86.4178259028
 20
212.3091966907
 30
0.0
 11
86.4178259028
 21
212.5591966907
 31
0.0
  0
LINE
  5
181
330
145
100
AcDbEntity
  8
$DDT_AUDIT_GENERATED_(101)
  6
Continuous
 62
     7
100
AcDbLine
 10
65.4178259028
 20
212.5591966907
 30
0.0
 11
65.4178259028
 21
212.3137096781
 31
0.0
  0
LINE
  5
182
330
145
100
AcDbEntity
  8
$DDT_AUDIT_GENERATED_(104)
  6
Continuous
 62
     7
100
AcDbLine
 10
211.4178259028
 20
212.5591966907
 30
0.0
 11
240.4178259028
 21
212.5591966907
 31
0.0
  0
LINE
  5
183
330
145
100
AcDbEntity
  8
$DDT_AUDIT_GENERATED_(104)
  6
Continuous
 62
     7
100
AcDbLine
 10
211.4178259028
 20
229.5591966907
 30
0.0
 11
240.4178259028
 21
229.5591966907
 31
0.0
  0
LINE
  5
184
330
145
100
AcDbEntity
  8
$DDT_AUDIT_GENERATED_(104)
  6
Continuous
 62
     7
100
AcDbLine
 10
240.9178259028
 20
226.0591966907
 30
0.0
 11
238.8304846764
 21
226.0591966907
 31
0.0
  0
LINE
  5
185
330
145
100
AcDbEntity
  8
$DDT_AUDIT_GENERATED_(104)
  6
Continuous
 62
     7
100
AcDbLine
 10
228.0051671291
 20
226.0591966907
 30
0.0
 11
223.8304846764
 21
226.0591966907
 31
0.0
  0
LINE
  5
186
330
145
100
AcDbEntity
  8
$DDT_AUDIT_GENERATED_(104)
  6
Continuous
 62
     7
100
AcDbLine
 10
213.0051671291
 20
226.0591966907
 30
0.0
 11
210.9178259028
 21
226.0591966907
 31
0.0
  0
LINE
  5
187
330
145
100
AcDbEntity
  8
$DDT_AUDIT_GENERATED_(104)
  6
Continuous
 62
     7
100
AcDbLine
 10
210.9178259028
 20
226.0591966907
 30
0.0
 11
210.9178259028
 21
228.8549254198
 31
0.0
  0
ARC
  5
188
330
145
100
AcDbEntity
  8
$DDT_AUDIT_GENERATED_(104)
  6
Continuous
 62
     7
100
AcDbCircle
 10
218.4178259028
 20
222.2806371715
 30
0.0
 40
6.601089837288617
100
AcDbArc
 50
34.9187681795
 51
145.0812318205
  0
ARC
  5
189
330
145
100
AcDbEntity
  8
$DDT_AUDIT_GENERATED_(104)
  6
Continuous
 62
     7
100
AcDbCircle
 10
233.4178259028
 20
222.2806371715
 30
0.0
 40
6.601089837288609
100
AcDbArc
 50
34.9187681795
 51
145.0812318204
  0
LINE
  5
18A
330
145
100
AcDbEntity
  8
$DDT_AUDIT_GENERATED_(104)
  6
Continuous
 62
     7
100
AcDbLine
 10
240.9178259028
 20
226.0591966907
 30
0.0
 11
240.9178259028
 21
228.8549254198
 31
0.0
  0
LINE
  5
18B
330
145
100
AcDbEntity
  8
$DDT_AUDIT_GENERATED_(104)
  6
Continuous
 62
     7
100
AcDbLine
 10
240.9178259028
 20
216.0591966907
 30
0.0
 11
238.8304846764
 21
216.0591966907
 31
0.0
  0
LINE
  5
18C
330
145
100
AcDbEntity
  8
$DDT_AUDIT_GENERATED_(104)
  6
Continuous
 62
     7
100
AcDbLine
 10
228.0051671291
 20
216.0591966907
 30
0.0
 11
223.8304846764
 21
216.0591966907
 31
0.0
  0
LINE
  5
18D
330
145
100
AcDbEntity
  8
$DDT_AUDIT_GENERATED_(104)
  6
Continuous
 62
     7
100
AcDbLine
 10
213.0051671291
 20
216.0591966907
 30
0.0
 11
210.9178259028
 21
216.0591966907
 31
0.0
  0
LINE
  5
18E
330
145
100
AcDbEntity
  8
$DDT_AUDIT_GENERATED_(104)
  6
Continuous
 62
     7
100
AcDbLine
 10
240.9178259028
 20
213.2634679615
 30
0.0
 11
240.9178259028
 21
216.0591966907
 31
0.0
  0
LINE
  5
18F
330
145
100
AcDbEntity
  8
$DDT_AUDIT_GENERATED_(104)
  6
Continuous
 62
     7
100
AcDbLine
 10
240.9178259028
 20
216.0591966907
 30
0.0
 11
240.9178259028
 21
226.0591966907
 31
0.0
  0
LINE
  5
190
330
145
100
AcDbEntity
  8
$DDT_AUDIT_GENERATED_(104)
  6
Continuous
 62
     7
100
AcDbLine
 10
238.8304846764
 20
226.0591966907
 30
0.0
 11
238.8304846764
 21
216.0591966907
 31
0.0
  0
ARC
  5
191
330
145
100
AcDbEntity
  8
$DDT_AUDIT_GENERATED_(104)
  6
Continuous
 62
     7
100
AcDbCircle
 10
233.4178259028
 20
219.8377562098
 30
0.0
 40
6.6010898372886
100
AcDbArc
 50
214.9187681795
 51
325.0812318205
  0
LINE
  5
192
330
145
100
AcDbEntity
  8
$DDT_AUDIT_GENERATED_(104)
  6
Continuous
 62
     7
100
AcDbLine
 10
228.0051671291
 20
216.0591966907
 30
0.0
 11
228.0051671291
 21
226.0591966907
 31
0.0
  0
LINE
  5
193
330
145
100
AcDbEntity
  8
$DDT_AUDIT_GENERATED_(104)
  6
Continuous
 62
     7
100
AcDbLine
 10
223.8304846764
 20
226.0591966907
 30
0.0
 11
223.8304846764
 21
216.0591966907
 31
0.0
  0
ARC
  5
194
330
145
100
AcDbEntity
  8
$DDT_AUDIT_GENERATED_(104)
  6
Continuous
 62
     7
100
AcDbCircle
 10
218.4178259028
 20
219.8377562098
 30
0.0
 40
6.601089837288606
100
AcDbArc
 50
214.9187681796
 51
325.0812318205
  0
LINE
  5
195
330
145
100
AcDbEntity
  8
$DDT_AUDIT_GENERATED_(104)
  6
Continuous
 62
     7
100
AcDbLine
 10
213.0051671291
 20
216.0591966907
 30
0.0
 11
213.0051671291
 21
226.0591966907
 31
0.0
  0
LINE
  5
196
330
145
100
AcDbEntity
  8
$DDT_AUDIT_GENERATED_(104)
  6
Continuous
 62
     7
100
AcDbLine
 10
210.9178259028
 20
226.0591966907
 30
0.0
 11
210.9178259028
 21
216.0591966907
 31
0.0
  0
LINE
  5
197
330
145
100
AcDbEntity
  8
$DDT_AUDIT_GENERATED_(104)
  6
Continuous
 62
     7
100
AcDbLine
 10
210.9178259028
 20
216.0591966907
 30
0.0
 11
210.9178259028
 21
213.2634679615
 31
0.0
  0
ARC
  5
198
330
145
100
AcDbEntity
  8
$DDT_AUDIT_GENERATED_(104)
  6
Continuous
 62
     7
100
AcDbCircle
 10
232.5214235063
 20
218.6948978889
 30
0.0
 40
9.999999999999998
100
AcDbArc
 50
322.1519040322
 51
327.0968369536
  0
ARC
  5
199
330
145
100
AcDbEntity
  8
$DDT_AUDIT_GENERATED_(104)
  6
Continuous
 62
     7
100
AcDbCircle
 10
219.3142282992
 20
218.6948978889
 30
0.0
 40
9.999999999999996
100
AcDbArc
 50
212.8931812762
 51
217.8480959678
  0
ARC
  5
19A
330
145
100
AcDbEntity
  8
$DDT_AUDIT_GENERATED_(104)
  6
Continuous
 62
     7
100
AcDbCircle
 10
232.5214235063
 20
223.4234954924
 30
0.0
 40
9.999999999999991
100
AcDbArc
 50
32.8931812762
 51
37.8480959678
  0
ARC
  5
19B
330
145
100
AcDbEntity
  8
$DDT_AUDIT_GENERATED_(104)
  6
Continuous
 62
     7
100
AcDbCircle
 10
219.3142282992
 20
223.4234954924
 30
0.0
 40
9.999999999999998
100
AcDbArc
 50
142.1519040322
 51
147.0968369536
  0
LINE
  5
19C
330
145
100
AcDbEntity
  8
$DDT_AUDIT_GENERATED_(104)
  6
Continuous
 62
     7
100
AcDbLine
 10
61.4178259028
 20
212.5591966907
 30
0.0
 11
90.4178259028
 21
212.5591966907
 31
0.0
  0
LINE
  5
19D
330
145
100
AcDbEntity
  8
$DDT_AUDIT_GENERATED_(104)
  6
Continuous
 62
     7
100
AcDbLine
 10
61.4178259028
 20
229.5591966907
 30
0.0
 11
90.4178259028
 21
229.5591966907
 31
0.0
  0
LINE
  5
19E
330
145
100
AcDbEntity
  8
$DDT_AUDIT_GENERATED_(104)
  6
Continuous
 62
     7
100
AcDbLine
 10
92.0332069595
 20
226.0591966907
 30
0.0
 11
92.1678259028
 21
226.0591966907
 31
0.0
  0
LINE
  5
19F
330
145
100
AcDbEntity
  8
$DDT_AUDIT_GENERATED_(104)
  6
Continuous
 62
     7
100
AcDbLine
 10
85.7832069595
 20
226.0591966907
 30
0.0
 11
82.1678259028
 21
226.0591966907
 31
0.0
  0
LINE
  5
1A0
330
145
100
AcDbEntity
  8
$DDT_AUDIT_GENERATED_(104)
  6
Continuous
 62
     7
100
AcDbLine
 10
69.6678259028
 20
226.0591966907
 30
0.0
 11
66.052444846
 21
226.0591966907
 31
0.0
  0
LINE
  5
1A1
330
145
100
AcDbEntity
  8
$DDT_AUDIT_GENERATED_(104)
  6
Continuous
 62
     7
100
AcDbLine
 10
59.802444846
 20
226.0591966907
 30
0.0
 11
59.6678259028
 21
226.0591966907
 31
0.0
  0
SPLINE
  5
1A2
330
145
100
AcDbEntity
  8
$DDT_AUDIT_GENERATED_(104)
  6
Continuous
 62
     7
100
AcDbSpline
210
0.0
220
0.0
230
1.0
 70
     8
 71
     3
 72
    14
 73
    10
 74
     0
 42
0.0000000011014719
 43
0.0000000001
 40
0.0
 40
0.0
 40
0.0
 40
0.0
 40
0.25
 40
0.25
 40
0.5
 40
0.5
 40
0.75
 40
0.75
 40
1.0
 40
1.0
 40
1.0
 40
1.0
 10
66.05244484599685
 20
226.0591966906593
 30
0.0
 10
65.70512699736956
 20
227.0370032591124
 30
0.0
 10
65.20719968478616
 20
227.7338617532933
 30
0.0
 10
64.11729162021791
 20
228.640543705163
 30
0.0
 10
63.5234174388129
 20
228.854490805482
 30
0.0
 10
62.335012335424
 20
228.8553579585239
 30
0.0
 10
61.74945855302695
 20
228.6480394002548
 30
0.0
 10
60.64917680992048
 20
227.7374409043315
 30
0.0
 10
60.14938008374664
 20
227.0359260918157
 30
0.0
 10
59.80244484599684
 20
226.0591966906593
 30
0.0
  0
SPLINE
  5
1A3
330
145
100
AcDbEntity
  8
$DDT_AUDIT_GENERATED_(104)
  6
Continuous
 62
     7
100
AcDbSpline
210
0.0
220
0.0
230
1.0
 70
     8
 71
     3
 72
    14
 73
    10
 74
     0
 42
0.0000000006969408
 43
0.0000000001
 40
0.0
 40
0.0
 40
0.0
 40
0.0
 40
0.25
 40
0.25
 40
0.5
 40
0.5
 40
0.75
 40
0.75
 40
1.0
 40
1.0
 40
1.0
 40
1.0
 10
82.16782590276343
 20
226.0591966906593
 30
0.0
 10
81.47473755025128
 20
227.034825133429
 30
0.0
 10
80.46717738242043
 20
227.7408038220764
 30
0.0
 10
78.27653193004664
 20
228.6465175864726
 30
0.0
 10
77.09231762655727
 20
228.8568199831626
 30
0.0
 10
74.71222961773279
 20
228.8530051450256
 30
0.0
 10
73.52920600818919
 20
228.6377059024758
 30
0.0
 10
71.3572029683467
 20
227.7325195878376
 30
0.0
 10
70.35570025511339
 20
227.0274856263656
 30
0.0
 10
69.66782590276341
 20
226.0591966906593
 30
0.0
  0
SPLINE
  5
1A4
330
145
100
AcDbEntity
  8
$DDT_AUDIT_GENERATED_(104)
  6
Continuous
 62
     7
100
AcDbSpline
210
0.0
220
0.0
230
1.0
 70
     8
 71
     3
 72
    14
 73
    10
 74
     0
 42
0.0000000011014719
 43
0.0000000001
 40
0.0
 40
0.0
 40
0.0
 40
0.0
 40
0.25
 40
0.25
 40
0.5
 40
0.5
 40
0.75
 40
0.75
 40
1.0
 40
1.0
 40
1.0
 40
1.0
 10
92.03320695952999
 20
226.0591966906593
 30
0.0
 10
91.6858891109027
 20
227.0370032591124
 30
0.0
 10
91.18796179831932
 20
227.7338617532933
 30
0.0
 10
90.09805373375107
 20
228.640543705163
 30
0.0
 10
89.50417955234606
 20
228.854490805482
 30
0.0
 10
88.31577444895716
 20
228.8553579585239
 30
0.0
 10
87.73022066656011
 20
228.6480394002548
 30
0.0
 10
86.62993892345364
 20
227.7374409043315
 30
0.0
 10
86.1301421972798
 20
227.0359260918157
 30
0.0
 10
85.78320695952998
 20
226.0591966906593
 30
0.0
  0
LINE
  5
1A5
330
145
100
AcDbEntity
  8
$DDT_AUDIT_GENERATED_(104)
  6
Continuous
 62
     7
100
AcDbLine
 10
92.0332069595
 20
216.0591966907
 30
0.0
 11
92.1678259028
 21
216.0591966907
 31
0.0
  0
LINE
  5
1A6
330
145
100
AcDbEntity
  8
$DDT_AUDIT_GENERATED_(104)
  6
Continuous
 62
     7
100
AcDbLine
 10
85.7832069595
 20
216.0591966907
 30
0.0
 11
82.1678259028
 21
216.0591966907
 31
0.0
  0
LINE
  5
1A7
330
145
100
AcDbEntity
  8
$DDT_AUDIT_GENERATED_(104)
  6
Continuous
 62
     7
100
AcDbLine
 10
69.6678259028
 20
216.0591966907
 30
0.0
 11
66.052444846
 21
216.0591966907
 31
0.0
  0
LINE
  5
1A8
330
145
100
AcDbEntity
  8
$DDT_AUDIT_GENERATED_(104)
  6
Continuous
 62
     7
100
AcDbLine
 10
59.802444846
 20
216.0591966907
 30
0.0
 11
59.6678259028
 21
216.0591966907
 31
0.0
  0
LINE
  5
1A9
330
145
100
AcDbEntity
  8
$DDT_AUDIT_GENERATED_(104)
  6
Continuous
 62
     7
100
AcDbLine
 10
92.0332069595
 20
226.0591966907
 30
0.0
 11
92.0332069595
 21
216.0591966907
 31
0.0
  0
SPLINE
  5
1AA
330
145
100
AcDbEntity
  8
$DDT_AUDIT_GENERATED_(104)
  6
Continuous
 62
     7
100
AcDbSpline
210
0.0
220
0.0
230
1.0
 70
     8
 71
     3
 72
    14
 73
    10
 74
     0
 42
0.0000000011014719
 43
0.0000000001
 40
0.0
 40
0.0
 40
0.0
 40
0.0
 40
0.2499999999999999
 40
0.2499999999999999
 40
0.4999999999999999
 40
0.4999999999999999
 40
0.7499999999999999
 40
0.7499999999999999
 40
1.0
 40
1.0
 40
1.0
 40
1.0
 10
92.03320695952999
 20
216.0591966906593
 30
0.0
 10
91.68588911090272
 20
215.0813901222062
 30
0.0
 10
91.18796179831932
 20
214.3845316280253
 30
0.0
 10
90.09805373375107
 20
213.4778496761556
 30
0.0
 10
89.50417955234605
 20
213.2639025758365
 30
0.0
 10
88.31577444895714
 20
213.2630354227946
 30
0.0
 10
87.73022066656011
 20
213.4703539810637
 30
0.0
 10
86.62993892345364
 20
214.380952476987
 30
0.0
 10
86.1301421972798
 20
215.0824672895029
 30
0.0
 10
85.78320695952998
 20
216.0591966906593
 30
0.0
  0
LINE
  5
1AB
330
145
100
AcDbEntity
  8
$DDT_AUDIT_GENERATED_(104)
  6
Continuous
 62
     7
100
AcDbLine
 10
85.7832069595
 20
216.0591966907
 30
0.0
 11
85.7832069595
 21
226.0591966907
 31
0.0
  0
LINE
  5
1AC
330
145
100
AcDbEntity
  8
$DDT_AUDIT_GENERATED_(104)
  6
Continuous
 62
     7
100
AcDbLine
 10
82.1678259028
 20
226.0591966907
 30
0.0
 11
82.1678259028
 21
216.0591966907
 31
0.0
  0
SPLINE
  5
1AD
330
145
100
AcDbEntity
  8
$DDT_AUDIT_GENERATED_(104)
  6
Continuous
 62
     7
100
AcDbSpline
210
0.0
220
0.0
230
1.0
 70
     8
 71
     3
 72
    14
 73
    10
 74
     0
 42
0.0000000006969408
 43
0.0000000001
 40
0.0
 40
0.0
 40
0.0
 40
0.0
 40
0.25
 40
0.25
 40
0.5
 40
0.5
 40
0.75
 40
0.75
 40
1.0
 40
1.0
 40
1.0
 40
1.0
 10
82.16782590276343
 20
216.0591966906593
 30
0.0
 10
81.47473755025129
 20
215.0835682478896
 30
0.0
 10
80.46717738242043
 20
214.3775895592422
 30
0.0
 10
78.27653193004666
 20
213.4718757948459
 30
0.0
 10
77.09231762655727
 20
213.261573398156
 30
0.0
 10
74.71222961773279
 20
213.265388236293
 30
0.0
 10
73.52920600818919
 20
213.4806874788428
 30
0.0
 10
71.35720296834668
 20
214.385873793481
 30
0.0
 10
70.35570025511339
 20
215.0909077549529
 30
0.0
 10
69.66782590276341
 20
216.0591966906593
 30
0.0
  0
LINE
  5
1AE
330
145
100
AcDbEntity
  8
$DDT_AUDIT_GENERATED_(104)
  6
Continuous
 62
     7
100
AcDbLine
 10
69.6678259028
 20
216.0591966907
 30
0.0
 11
69.6678259028
 21
226.0591966907
 31
0.0
  0
LINE
  5
1AF
330
145
100
AcDbEntity
  8
$DDT_AUDIT_GENERATED_(104)
  6
Continuous
 62
     7
100
AcDbLine
 10
66.052444846
 20
226.0591966907
 30
0.0
 11
66.052444846
 21
216.0591966907
 31
0.0
  0
SPLINE
  5
1B0
330
145
100
AcDbEntity
  8
$DDT_AUDIT_GENERATED_(104)
  6
Continuous
 62
     7
100
AcDbSpline
210
0.0
220
0.0
230
1.0
 70
     8
 71
     3
 72
    14
 73
    10
 74
     0
 42
0.0000000011014719
 43
0.0000000001
 40
0.0
 40
0.0
 40
0.0
 40
0.0
 40
0.2500000000000001
 40
0.2500000000000001
 40
0.5000000000000001
 40
0.5000000000000001
 40
0.7500000000000002
 40
0.7500000000000002
 40
1.0
 40
1.0
 40
1.0
 40
1.0
 10
66.05244484599685
 20
216.0591966906593
 30
0.0
 10
65.70512699736956
 20
215.0813901222062
 30
0.0
 10
65.20719968478616
 20
214.3845316280253
 30
0.0
 10
64.11729162021791
 20
213.4778496761556
 30
0.0
 10
63.5234174388129
 20
213.2639025758365
 30
0.0
 10
62.335012335424
 20
213.2630354227946
 30
0.0
 10
61.74945855302695
 20
213.4703539810637
 30
0.0
 10
60.64917680992048
 20
214.380952476987
 30
0.0
 10
60.14938008374664
 20
215.0824672895029
 30
0.0
 10
59.80244484599684
 20
216.0591966906593
 30
0.0
  0
LINE
  5
1B1
330
145
100
AcDbEntity
  8
$DDT_AUDIT_GENERATED_(104)
  6
Continuous
 62
     7
100
AcDbLine
 10
59.802444846
 20
216.0591966907
 30
0.0
 11
59.802444846
 21
226.0591966907
 31
0.0
  0
LINE
  5
1B2
330
145
100
AcDbEntity
  8
$DDT_AUDIT_GENERATED_(104)
  6
Continuous
 62
     7
100
AcDbLine
 10
59.6678259028
 20
226.0591966907
 30
0.0
 11
59.6678259028
 21
216.0591966907
 31
0.0
  0
ARC
  5
1B3
330
145
100
AcDbEntity
  8
$DDT_AUDIT_GENERATED_(104)
  6
Continuous
 62
     7
100
AcDbCircle
 10
82.5214235063
 20
218.6948978889
 30
0.0
 40
9.999999999999998
100
AcDbArc
 50
322.1519040322
 51
344.7179936136
  0
ARC
  5
1B4
330
145
100
AcDbEntity
  8
$DDT_AUDIT_GENERATED_(104)
  6
Continuous
 62
     7
100
AcDbCircle
 10
69.3142282992
 20
218.6948978889
 30
0.0
 40
9.999999999999991
100
AcDbArc
 50
195.2820063864
 51
217.8480959678
  0
ARC
  5
1B5
330
145
100
AcDbEntity
  8
$DDT_AUDIT_GENERATED_(104)
  6
Continuous
 62
     7
100
AcDbCircle
 10
82.5214235063
 20
223.4234954924
 30
0.0
 40
9.999999999999993
100
AcDbArc
 50
15.2820063864
 51
37.8480959678
  0
ARC
  5
1B6
330
145
100
AcDbEntity
  8
$DDT_AUDIT_GENERATED_(104)
  6
Continuous
 62
     7
100
AcDbCircle
 10
69.3142282992
 20
223.4234954924
 30
0.0
 40
9.999999999999998
100
AcDbArc
 50
142.1519040322
 51
164.7179936136
  0
LINE
  5
1B7
330
145
100
AcDbEntity
  8
$DDT_AUDIT_GENERATED_(104)
  6
Continuous
 62
     7
100
AcDbLine
 10
92.1678259028
 20
216.0591966907
 30
0.0
 11
92.1678259028
 21
226.0591966907
 31
0.0
  0
LINE
  5
1B8
330
145
100
AcDbEntity
  8
$DDT_AUDIT_GENERATED_(B0)
  6
Continuous
 62
     7
100
AcDbLine
 10
110.9178259028
 20
255.3591966907
 30
0.0
 11
40.9178259028
 21
255.3591966907
 31
0.0
  0
LINE
  5
1B9
330
145
100
AcDbEntity
  8
$DDT_AUDIT_GENERATED_(B0)
  6
Continuous
 62
     7
100
AcDbLine
 10
110.9178259028
 20
232.5762516267
 30
0.0
 11
40.9178259028
 21
232.5762516267
 31
0.0
  0
LINE
  5
1BA
330
145
100
AcDbEntity
  8
$DDT_AUDIT_GENERATED_(B0)
  6
Continuous
 62
     7
100
AcDbLine
 10
40.9178259028
 20
255.3591966907
 30
0.0
 11
40.9178259028
 21
232.5762516267
 31
0.0
  0
LINE
  5
1BB
330
145
100
AcDbEntity
  8
$DDT_AUDIT_GENERATED_(B0)
  6
Continuous
 62
     7
100
AcDbLine
 10
110.9178259028
 20
232.5762516267
 30
0.0
 11
110.9178259028
 21
255.3591966907
 31
0.0
  0
ARC
  5
1BC
330
145
100
AcDbEntity
  8
$DDT_AUDIT_GENERATED_(B0)
  6
Continuous
 62
     7
100
AcDbCircle
 10
75.9178259028
 20
679.3591966907
 30
0.0
 40
450.0000000000001
100
AcDbArc
 50
271.7082933783
 51
274.2242740157
  0
ARC
  5
1BD
330
145
100
AcDbEntity
  8
$DDT_AUDIT_GENERATED_(B0)
  6
Continuous
 62
     7
100
AcDbCircle
 10
75.9178259028
 20
679.3591966907
 30
0.0
 40
450.0000000000001
100
AcDbArc
 50
265.7757259843
 51
268.2917066217
  0
ARC
  5
1BE
330
145
100
AcDbEntity
  8
$DDT_AUDIT_GENERATED_(B0)
  6
Continuous
 62
     7
100
AcDbCircle
 10
42.9178259028
 20
232.5762516267
 30
0.0
 40
2.000000000000002
100
AcDbArc
 50
180.0
 51
265.7757259844
  0
ARC
  5
1BF
330
145
100
AcDbEntity
  8
$DDT_AUDIT_GENERATED_(B0)
  6
Continuous
 62
     7
100
AcDbCircle
 10
108.9178259028
 20
232.5762516267
 30
0.0
 40
2.000000000000141
100
AcDbArc
 50
274.2242740156
 51
0.0
  0
LINE
  5
1C0
330
145
100
AcDbEntity
  8
$DDT_AUDIT_GENERATED_(B0)
  6
Continuous
 62
     7
100
AcDbLine
 10
260.9178259028
 20
255.3591966907
 30
0.0
 11
190.9178259028
 21
255.3591966907
 31
0.0
  0
LINE
  5
1C1
330
145
100
AcDbEntity
  8
$DDT_AUDIT_GENERATED_(B0)
  6
Continuous
 62
     7
100
AcDbLine
 10
260.9178259028
 20
232.5762516267
 30
0.0
 11
190.9178259028
 21
232.5762516267
 31
0.0
  0
LINE
  5
1C2
330
145
100
AcDbEntity
  8
$DDT_AUDIT_GENERATED_(B0)
  6
Continuous
 62
     7
100
AcDbLine
 10
190.9178259028
 20
255.3591966907
 30
0.0
 11
190.9178259028
 21
232.5762516267
 31
0.0
  0
LINE
  5
1C3
330
145
100
AcDbEntity
  8
$DDT_AUDIT_GENERATED_(B0)
  6
Continuous
 62
     7
100
AcDbLine
 10
260.9178259028
 20
232.5762516267
 30
0.0
 11
260.9178259028
 21
255.3591966907
 31
0.0
  0
ARC
  5
1C4
330
145
100
AcDbEntity
  8
$DDT_AUDIT_GENERATED_(B0)
  6
Continuous
 62
     7
100
AcDbCircle
 10
225.9178259028
 20
679.3591966907
 30
0.0
 40
450.0000000000001
100
AcDbArc
 50
271.7082933783
 51
274.2242740157
  0
ARC
  5
1C5
330
145
100
AcDbEntity
  8
$DDT_AUDIT_GENERATED_(B0)
  6
Continuous
 62
     7
100
AcDbCircle
 10
225.9178259028
 20
679.3591966907
 30
0.0
 40
450.0000000000002
100
AcDbArc
 50
265.7757259843
 51
268.2917066217
  0
ARC
  5
1C6
330
145
100
AcDbEntity
  8
$DDT_AUDIT_GENERATED_(B0)
  6
Continuous
 62
     7
100
AcDbCircle
 10
192.9178259028
 20
232.5762516267
 30
0.0
 40
1.999999999999995
100
AcDbArc
 50
180.0
 51
265.7757259844
  0
ARC
  5
1C7
330
145
100
AcDbEntity
  8
$DDT_AUDIT_GENERATED_(B0)
  6
Continuous
 62
     7
100
AcDbCircle
 10
258.9178259028
 20
232.5762516267
 30
0.0
 40
2.000000000000141
100
AcDbArc
 50
274.2242740156
 51
0.0
  0
ENDBLK
  5
1C9
330
145
100
AcDbEntity
  8
0
100
AcDbBlockEnd
  0
ENDSEC
  0
SECTION
  2
ENTITIES
  0
INSERT
  5
5F
330
1F
100
AcDbEntity
  8
Default
100
AcDbBlockReference
  2
SEANNOT_GROUP
 10
0.0
 20
0.0
 30
0.0
  0
INSERT
  5
6A
330
1F
100
AcDbEntity
  8
Default
100
AcDbBlockReference
  2
SEANNOT_GROUP1
 10
0.0
 20
0.0
 30
0.0
  0
INSERT
  5
74
330
1F
100
AcDbEntity
  8
Default
100
AcDbBlockReference
  2
SEANNOT_GROUP2
 10
0.0
 20
0.0
 30
0.0
  0
INSERT
  5
7A
330
1F
100
AcDbEntity
  8
Default
100
AcDbBlockReference
  2
SEANNOT_GROUP3
 10
0.0
 20
0.0
 30
0.0
  0
INSERT
  5
80
330
1F
100
AcDbEntity
  8
Default
100
AcDbBlockReference
  2
SEANNOT_GROUP4
 10
0.0
 20
0.0
 30
0.0
  0
INSERT
  5
86
330
1F
100
AcDbEntity
  8
Default
100
AcDbBlockReference
  2
SE
 10
0.0
 20
0.0
 30
0.0
  0
INSERT
  5
B9
330
1F
100
AcDbEntity
  8
Default
100
AcDbBlockReference
  2
SE1
 10
0.0
 20
0.0
 30
0.0
  0
INSERT
  5
146
330
1F
100
AcDbEntity
  8
Default
100
AcDbBlockReference
  2
SE2
 10
0.0
 20
0.0
 30
0.0
  0
TEXT
  5
1CB
330
1F
100
AcDbEntity
  8
Default
  6
Continuous
 62
     7
100
AcDbText
 10
5.9362635081
 20
53.4225120485
 30
0.0
 40
10.0
  1
Grohe AG^J
  7
SEACAD_seiso_ttf
 11
5.9362635081
 21
63.4225120485
 31
0.0
100
AcDbText
 73
     3
  0
TEXT
  5
1CC
330
1F
100
AcDbEntity
  8
Default
  6
Continuous
 62
     7
100
AcDbText
 10
5.9362635081
 20
37.0588756849
 30
0.0
 40
10.0
  1
 
  7
SEACAD_seiso_ttf
 11
5.9362635081
 21
47.0588756849
 31
0.0
100
AcDbText
 73
     3
  0
TEXT
  5
1CD
330
1F
100
AcDbEntity
  8
Default
  6
Continuous
 62
     7
100
AcDbText
 10
5.9362635081
 20
20.6952393213
 30
0.0
 40
10.0
  1
ecn: 
  7
SEACAD_seiso_ttf
 11
5.9362635081
 21
30.6952393213
 31
0.0
100
AcDbText
 73
     3
  0
TEXT
  5
1CE
330
1F
100
AcDbEntity
  8
Default
  6
Continuous
 62
     7
100
AcDbText
 10
5.9362635081
 20
4.3316029576
 30
0.0
 40
10.0
  1
unit: mm
  7
SEACAD_seiso_ttf
 11
5.9362635081
 21
14.3316029576
 31
0.0
100
AcDbText
 73
     3
  0
LINE
  5
1CF
330
1F
100
AcDbEntity
  8
Default
  6
Continuous
 62
     7
100
AcDbLine
 10
0.0
 20
0.0
 30
0.0
 11
100.0
 21
0.0
 31
0.0
  0
LINE
  5
1D0
330
1F
100
AcDbEntity
  8
Default
  6
Continuous
 62
     7
100
AcDbLine
 10
0.0
 20
0.0
 30
0.0
 11
0.0
 21
100.0
 31
0.0
  0
TEXT
  5
1D1
330
1F
100
AcDbEntity
  8
Default
  6
Continuous
 62
     7
100
AcDbText
 10
24.3923665681
 20
-18.2375342018
 30
0.0
 40
10.0
  1
100 mm
  7
SEACAD_seiso_ttf
 11
24.3923665681
 21
-8.2375342018
 31
0.0
100
AcDbText
 73
     3
  0
TEXT
  5
1D2
330
1F
100
AcDbEntity
  8
Default
  6
Continuous
 62
     7
100
AcDbText
 10
-7.6150308803
 20
24.6231930421
 30
0.0
 40
10.0
  1
100 mm
 50
90.0
  7
SEACAD_seiso_ttf
 11
-17.6150308803
 21
24.6231930421
 31
0.0
100
AcDbText
 73
     3
  0
TEXT
  5
1D3
330
1F
100
AcDbEntity
  8
Default
  6
Continuous
 62
     7
100
AcDbText
 10
28.4878128572
 20
20.0907663715
 30
0.0
 40
10.0
  1
218690
  7
SEACAD_seiso_ttf
 11
28.4878128572
 21
30.0907663715
 31
0.0
100
AcDbText
 73
     3
  0
TEXT
  5
1D4
330
1F
100
AcDbEntity
  8
Default
  6
Continuous
 62
     7
100
AcDbText
 10
5.9012241913
 20
36.7242780188
 30
0.0
 40
10.0
  1
33590002
  7
SEACAD_seiso_ttf
 11
5.9012241913
 21
46.7242780188
 31
0.0
100
AcDbText
 73
     3
  0
ENDSEC
  0
SECTION
  2
OBJECTS
  0
DICTIONARY
  5
C
330
0
100
AcDbDictionary
281
     1
  3
ACAD_GROUP
350
D
  3
ACAD_LAYOUT
350
1A
  3
ACAD_MLEADERSTYLE
350
1D8
  3
ACAD_MLINESTYLE
350
17
  3
ACAD_PLOTSETTINGS
350
19
  3
ACAD_PLOTSTYLENAME
350
E
  3
ACAD_SCALELIST
350
3B
  3
ACAD_TABLESTYLE
350
1D7
  3
ACAD_VISUALSTYLE
350
2A
  3
AcDbVariableDictionary
350
1D5
  0
DICTIONARY
  5
D
102
{ACAD_REACTORS
330
C
102
}
330
C
100
AcDbDictionary
281
     1
  0
DICTIONARY
  5
1A
102
{ACAD_REACTORS
330
C
102
}
330
C
100
AcDbDictionary
281
     1
  3
Layout1
350
1E
  3
Model
350
22
  0
DICTIONARY
  5
1D8
102
{ACAD_REACTORS
330
C
102
}
330
C
100
AcDbDictionary
281
     1
  0
DICTIONARY
  5
17
102
{ACAD_REACTORS
330
C
102
}
330
C
100
AcDbDictionary
281
     1
  3
Standard
350
18
  0
DICTIONARY
  5
19
102
{ACAD_REACTORS
330
C
102
}
330
C
100
AcDbDictionary
281
     1
  0
ACDBDICTIONARYWDFLT
  5
E
102
{ACAD_REACTORS
330
C
102
}
330
C
100
AcDbDictionary
281
     1
  3
Normal
350
F
100
AcDbDictionaryWithDefault
340
F
  0
DICTIONARY
  5
3B
102
{ACAD_REACTORS
330
C
102
}
330
C
100
AcDbDictionary
281
     1
  3
A0
350
3C
  3
A1
350
3D
  3
A2
350
3E
  3
A3
350
3F
  3
A4
350
40
  3
A5
350
41
  3
A6
350
42
  3
A7
350
43
  3
A8
350
44
  3
A9
350
45
  3
B0
350
46
  3
B1
350
47
  3
B2
350
48
  3
B3
350
49
  3
B4
350
4A
  3
B5
350
4B
  3
B6
350
4C
  3
B7
350
4D
  3
B8
350
4E
  3
B9
350
4F
  3
C0
350
50
  3
C1
350
51
  3
C2
350
52
  3
C3
350
53
  3
C4
350
54
  3
C5
350
55
  3
C6
350
56
  3
C7
350
57
  3
C8
350
58
  3
C9
350
59
  3
D0
350
5A
  3
D1
350
5B
  3
D2
350
5C
  0
DICTIONARY
  5
1D7
102
{ACAD_REACTORS
330
C
102
}
330
C
100
AcDbDictionary
281
     1
  0
DICTIONARY
  5
2A
102
{ACAD_REACTORS
330
C
102
}
330
C
100
AcDbDictionary
281
     1
  3
2dWireframe
350
2F
  3
3D Hidden
350
31
  3
3dWireframe
350
30
  3
Basic
350
32
  3
Brighten
350
36
  3
ColorChange
350
3A
  3
Conceptual
350
34
  3
Dim
350
35
  3
Facepattern
350
39
  3
Flat
350
2B
  3
FlatWithEdges
350
2C
  3
Gouraud
350
2D
  3
GouraudWithEdges
350
2E
  3
Linepattern
350
38
  3
Realistic
350
33
  3
Thicken
350
37
  0
DICTIONARY
  5
1D5
102
{ACAD_REACTORS
330
C
102
}
330
C
100
AcDbDictionary
281
     1
  3
CANNOSCALE
350
1D6
  3
PSOLHEIGHT
350
1DA
  3
PSOLWIDTH
350
1D9
  0
LAYOUT
  5
1E
102
{ACAD_REACTORS
330
1A
102
}
330
1A
100
AcDbPlotSettings
  1

  2
none_device
  4

  6

 40
0.0
 41
0.0
 42
0.0
 43
0.0
 44
0.0
 45
0.0
 46
0.0
 47
0.0
 48
0.0
 49
0.0
140
0.0
141
0.0
142
1.0
143
1.0
 70
   688
 72
     0
 73
     0
 74
     5
  7

 75
    16
147
1.0
148
0.0
149
0.0
100
AcDbLayout
  1
Layout1
 70
     1
 71
     1
 10
0.0
 20
0.0
 11
1682.0
 21
2378.0
 12
0.0
 22
0.0
 32
0.0
 14
0.0
 24
0.0
 34
0.0
 15
1682.0
 25
2378.0
 35
0.0
146
0.0
 13
0.0
 23
0.0
 33
0.0
 16
1.0
 26
0.0
 36
0.0
 17
0.0
 27
1.0
 37
0.0
 76
     0
330
1B
  0
LAYOUT
  5
22
102
{ACAD_REACTORS
330
1A
102
}
330
1A
100
AcDbPlotSettings
  1

  2
none_device
  4

  6

 40
0.0
 41
0.0
 42
0.0
 43
0.0
 44
0.0
 45
0.0
 46
0.0
 47
0.0
 48
0.0
 49
0.0
140
0.0
141
0.0
142
1.0
143
1.0
 70
  1712
 72
     0
 73
     0
 74
     0
  7

 75
     0
147
1.0
148
0.0
149
0.0
100
AcDbLayout
  1
Model
 70
     1
 71
     0
 10
0.0
 20
0.0
 11
1682.0
 21
2378.0
 12
0.0
 22
0.0
 32
0.0
 14
0.0
 24
0.0
 34
0.0
 15
1682.0
 25
2378.0
 35
0.0
146
0.0
 13
0.0
 23
0.0
 33
0.0
 16
1.0
 26
0.0
 36
0.0
 17
0.0
 27
1.0
 37
0.0
 76
     0
330
1F
331
29
  0
MLINESTYLE
  5
18
102
{ACAD_REACTORS
330
17
102
}
330
17
100
AcDbMlineStyle
  2
Standard
 70
     0
  3

 62
   256
 51
90.0
 52
90.0
 71
     2
 49
0.5
 62
   256
  6
BYLAYER
 49
-0.5
 62
   256
  6
BYLAYER
  0
ACDBPLACEHOLDER
  5
F
102
{ACAD_REACTORS
330
E
102
}
330
E
  0
SCALE
  5
3C
102
{ACAD_REACTORS
330
3B
102
}
330
3B
100
AcDbScale
 70
     0
300
1:1
140
1.0
141
1.0
290
     1
  0
SCALE
  5
3D
102
{ACAD_REACTORS
330
3B
102
}
330
3B
100
AcDbScale
 70
     0
300
1:2
140
1.0
141
2.0
290
     0
  0
SCALE
  5
3E
102
{ACAD_REACTORS
330
3B
102
}
330
3B
100
AcDbScale
 70
     0
300
1:4
140
1.0
141
4.0
290
     0
  0
SCALE
  5
3F
102
{ACAD_REACTORS
330
3B
102
}
330
3B
100
AcDbScale
 70
     0
300
1:5
140
1.0
141
5.0
290
     0
  0
SCALE
  5
40
102
{ACAD_REACTORS
330
3B
102
}
330
3B
100
AcDbScale
 70
     0
300
1:8
140
1.0
141
8.0
290
     0
  0
SCALE
  5
41
102
{ACAD_REACTORS
330
3B
102
}
330
3B
100
AcDbScale
 70
     0
300
1:10
140
1.0
141
10.0
290
     0
  0
SCALE
  5
42
102
{ACAD_REACTORS
330
3B
102
}
330
3B
100
AcDbScale
 70
     0
300
1:16
140
1.0
141
16.0
290
     0
  0
SCALE
  5
43
102
{ACAD_REACTORS
330
3B
102
}
330
3B
100
AcDbScale
 70
     0
300
1:20
140
1.0
141
20.0
290
     0
  0
SCALE
  5
44
102
{ACAD_REACTORS
330
3B
102
}
330
3B
100
AcDbScale
 70
     0
300
1:30
140
1.0
141
30.0
290
     0
  0
SCALE
  5
45
102
{ACAD_REACTORS
330
3B
102
}
330
3B
100
AcDbScale
 70
     0
300
1:40
140
1.0
141
40.0
290
     0
  0
SCALE
  5
46
102
{ACAD_REACTORS
330
3B
102
}
330
3B
100
AcDbScale
 70
     0
300
1:50
140
1.0
141
50.0
290
     0
  0
SCALE
  5
47
102
{ACAD_REACTORS
330
3B
102
}
330
3B
100
AcDbScale
 70
     0
300
1:100
140
1.0
141
100.0
290
     0
  0
SCALE
  5
48
102
{ACAD_REACTORS
330
3B
102
}
330
3B
100
AcDbScale
 70
     0
300
2:1
140
2.0
141
1.0
290
     0
  0
SCALE
  5
49
102
{ACAD_REACTORS
330
3B
102
}
330
3B
100
AcDbScale
 70
     0
300
4:1
140
4.0
141
1.0
290
     0
  0
SCALE
  5
4A
102
{ACAD_REACTORS
330
3B
102
}
330
3B
100
AcDbScale
 70
     0
300
8:1
140
8.0
141
1.0
290
     0
  0
SCALE
  5
4B
102
{ACAD_REACTORS
330
3B
102
}
330
3B
100
AcDbScale
 70
     0
300
10:1
140
10.0
141
1.0
290
     0
  0
SCALE
  5
4C
102
{ACAD_REACTORS
330
3B
102
}
330
3B
100
AcDbScale
 70
     0
300
100:1
140
100.0
141
1.0
290
     0
  0
SCALE
  5
4D
102
{ACAD_REACTORS
330
3B
102
}
330
3B
100
AcDbScale
 70
     0
300
1/128" = 1'-0"
140
0.0078125
141
12.0
290
     0
  0
SCALE
  5
4E
102
{ACAD_REACTORS
330
3B
102
}
330
3B
100
AcDbScale
 70
     0
300
1/64" = 1'-0"
140
0.015625
141
12.0
290
     0
  0
SCALE
  5
4F
102
{ACAD_REACTORS
330
3B
102
}
330
3B
100
AcDbScale
 70
     0
300
1/32" = 1'-0"
140
0.03125
141
12.0
290
     0
  0
SCALE
  5
50
102
{ACAD_REACTORS
330
3B
102
}
330
3B
100
AcDbScale
 70
     0
300
1/16" = 1'-0"
140
0.0625
141
12.0
290
     0
  0
SCALE
  5
51
102
{ACAD_REACTORS
330
3B
102
}
330
3B
100
AcDbScale
 70
     0
300
3/32" = 1'-0"
140
0.09375
141
12.0
290
     0
  0
SCALE
  5
52
102
{ACAD_REACTORS
330
3B
102
}
330
3B
100
AcDbScale
 70
     0
300
1/8" = 1'-0"
140
0.125
141
12.0
290
     0
  0
SCALE
  5
53
102
{ACAD_REACTORS
330
3B
102
}
330
3B
100
AcDbScale
 70
     0
300
3/16" = 1'-0"
140
0.1875
141
12.0
290
     0
  0
SCALE
  5
54
102
{ACAD_REACTORS
330
3B
102
}
330
3B
100
AcDbScale
 70
     0
300
1/4" = 1'-0"
140
0.25
141
12.0
290
     0
  0
SCALE
  5
55
102
{ACAD_REACTORS
330
3B
102
}
330
3B
100
AcDbScale
 70
     0
300
3/8" = 1'-0"
140
0.375
141
12.0
290
     0
  0
SCALE
  5
56
102
{ACAD_REACTORS
330
3B
102
}
330
3B
100
AcDbScale
 70
     0
300
1/2" = 1'-0"
140
0.5
141
12.0
290
     0
  0
SCALE
  5
57
102
{ACAD_REACTORS
330
3B
102
}
330
3B
100
AcDbScale
 70
     0
300
3/4" = 1'-0"
140
0.75
141
12.0
290
     0
  0
SCALE
  5
58
102
{ACAD_REACTORS
330
3B
102
}
330
3B
100
AcDbScale
 70
     0
300
1" = 1'-0"
140
1.0
141
12.0
290
     0
  0
SCALE
  5
59
102
{ACAD_REACTORS
330
3B
102
}
330
3B
100
AcDbScale
 70
     0
300
1-1/2" = 1'-0"
140
1.5
141
12.0
290
     0
  0
SCALE
  5
5A
102
{ACAD_REACTORS
330
3B
102
}
330
3B
100
AcDbScale
 70
     0
300
3" = 1'-0"
140
3.0
141
12.0
290
     0
  0
SCALE
  5
5B
102
{ACAD_REACTORS
330
3B
102
}
330
3B
100
AcDbScale
 70
     0
300
6" = 1'-0"
140
6.0
141
12.0
290
     0
  0
SCALE
  5
5C
102
{ACAD_REACTORS
330
3B
102
}
330
3B
100
AcDbScale
 70
     0
300
1'-0" = 1'-0"
140
12.0
141
12.0
290
     0
  0
VISUALSTYLE
  5
2F
102
{ACAD_REACTORS
330
2A
102
}
330
2A
100
AcDbVisualStyle
  2
2dWireframe
 70
     4
 71
     0
 72
     2
 73
     0
 90
        0
 40
-0.6
 41
-30.0
 62
     5
 63
     7
 74
     1
 91
        4
 64
     7
 65
   257
 75
     1
175
     1
 42
1.0
 92
        0
 66
   257
 43
1.0
 76
     1
 77
     6
 78
     2
 67
     7
 79
     5
170
     0
171
     0
290
     0
174
     0
 93
        1
 44
0.0
173
     0
291
     0
 45
0.0
1001
ACAD
1000
AcDbSavedByObjectVersion
1070
     0
  0
VISUALSTYLE
  5
31
102
{ACAD_REACTORS
330
2A
102
}
330
2A
100
AcDbVisualStyle
  2
3D Hidden
 70
     6
 71
     1
 72
     2
 73
     2
 90
        0
 40
-0.6
 41
-30.0
 62
     5
 63
     7
 74
     2
 91
        2
 64
     7
 65
   257
 75
     2
175
     1
 42
40.0
 92
        0
 66
   257
 43
1.0
 76
     1
 77
     6
 78
     2
 67
     7
 79
     3
170
     0
171
     0
290
     0
174
     0
 93
        1
 44
0.0
173
     0
291
     0
 45
0.0
1001
ACAD
1000
AcDbSavedByObjectVersion
1070
     0
  0
VISUALSTYLE
  5
30
102
{ACAD_REACTORS
330
2A
102
}
330
2A
100
AcDbVisualStyle
  2
3dWireframe
 70
     5
 71
     0
 72
     2
 73
     0
 90
        0
 40
-0.6
 41
-30.0
 62
     5
 63
     7
 74
     1
 91
        4
 64
     7
 65
   257
 75
     1
175
     1
 42
1.0
 92
        0
 66
   257
 43
1.0
 76
     1
 77
     6
 78
     2
 67
     7
 79
     5
170
     0
171
     0
290
     0
174
     0
 93
        1
 44
0.0
173
     0
291
     0
 45
0.0
1001
ACAD
1000
AcDbSavedByObjectVersion
1070
     0
  0
VISUALSTYLE
  5
32
102
{ACAD_REACTORS
330
2A
102
}
330
2A
100
AcDbVisualStyle
  2
Basic
 70
     7
 71
     1
 72
     0
 73
     1
 90
        0
 40
-0.6
 41
-30.0
 62
     5
 63
     7
 74
     0
 91
        4
 64
     7
 65
   257
 75
     1
175
     1
 42
1.0
 92
        8
 66
     7
 43
1.0
 76
     1
 77
     6
 78
     2
 67
     7
 79
     5
170
     0
171
     0
290
     0
174
     0
 93
        1
 44
0.0
173
     0
291
     1
 45
0.0
1001
ACAD
1000
AcDbSavedByObjectVersion
1070
     0
  0
VISUALSTYLE
  5
36
102
{ACAD_REACTORS
330
2A
102
}
330
2A
100
AcDbVisualStyle
  2
Brighten
 70
    12
 71
     2
 72
     2
 73
     0
 90
        0
 40
-0.6
 41
-30.0
 62
     5
 63
     7
 74
     1
 91
        4
 64
     7
 65
   257
 75
     1
175
     1
 42
1.0
 92
        8
 66
     7
 43
1.0
 76
     1
 77
     6
 78
     2
 67
     7
 79
     5
170
     0
171
     0
290
     0
174
     0
 93
        1
 44
50.0
173
     0
291
     1
 45
0.0
1001
ACAD
1000
AcDbSavedByObjectVersion
1070
     0
  0
VISUALSTYLE
  5
3A
102
{ACAD_REACTORS
330
2A
102
}
330
2A
100
AcDbVisualStyle
  2
ColorChange
 70
    16
 71
     2
 72
     2
 73
     3
 90
        0
 40
-0.6
 41
-30.0
 62
     5
 63
     8
 74
     1
 91
        4
 64
     7
 65
   257
 75
     1
175
     1
 42
1.0
 92
        8
 66
     8
 43
1.0
 76
     1
 77
     6
 78
     2
 67
     7
 79
     5
170
     0
171
     0
290
     0
174
     0
 93
        1
 44
0.0
173
     0
291
     1
 45
0.0
1001
ACAD
1000
AcDbSavedByObjectVersion
1070
     0
  0
VISUALSTYLE
  5
34
102
{ACAD_REACTORS
330
2A
102
}
330
2A
100
AcDbVisualStyle
  2
Conceptual
 70
     9
 71
     3
 72
     2
 73
     0
 90
        0
 40
-0.6
 41
-30.0
 62
     5
 63
     7
 74
     2
 91
        2
 64
     7
 65
   257
 75
     1
175
     1
 42
40.0
 92
        8
 66
     7
 43
1.0
 76
     1
 77
     6
 78
     2
 67
     7
 79
     3
170
     0
171
     0
290
     0
174
     0
 93
        1
 44
0.0
173
     0
291
     0
 45
0.0
1001
ACAD
1000
AcDbSavedByObjectVersion
1070
     0
  0
VISUALSTYLE
  5
35
102
{ACAD_REACTORS
330
2A
102
}
330
2A
100
AcDbVisualStyle
  2
Dim
 70
    11
 71
     2
 72
     2
 73
     0
 90
        0
 40
-0.6
 41
-30.0
 62
     5
 63
     7
 74
     1
 91
        4
 64
     7
 65
   257
 75
     1
175
     1
 42
1.0
 92
        8
 66
     7
 43
1.0
 76
     1
 77
     6
 78
     2
 67
     7
 79
     5
170
     0
171
     0
290
     0
174
     0
 93
        1
 44
-50.0
173
     0
291
     1
 45
0.0
1001
ACAD
1000
AcDbSavedByObjectVersion
1070
     0
  0
VISUALSTYLE
  5
39
102
{ACAD_REACTORS
330
2A
102
}
330
2A
100
AcDbVisualStyle
  2
Facepattern
 70
    15
 71
     2
 72
     2
 73
     0
 90
        0
 40
-0.6
 41
-30.0
 62
     5
 63
     7
 74
     1
 91
        4
 64
     7
 65
   257
 75
     1
175
     1
 42
1.0
 92
        8
 66
     7
 43
1.0
 76
     1
 77
     6
 78
     2
 67
     7
 79
     5
170
     0
171
     0
290
     0
174
     0
 93
        1
 44
0.0
173
     0
291
     1
 45
0.0
1001
ACAD
1000
AcDbSavedByObjectVersion
1070
     0
  0
VISUALSTYLE
  5
2B
102
{ACAD_REACTORS
330
2A
102
}
330
2A
100
AcDbVisualStyle
  2
Flat
 70
     0
 71
     2
 72
     1
 73
     1
 90
        2
 40
-0.6
 41
30.0
 62
     5
 63
     7
 74
     0
 91
        4
 64
     7
 65
   257
 75
     1
175
     1
 42
1.0
 92
        8
 66
     7
 43
1.0
 76
     1
 77
     6
 78
     2
 67
     7
 79
     5
170
     0
171
     0
290
     0
174
     0
 93
       13
 44
0.0
173
     0
291
     1
 45
0.0
1001
ACAD
1000
AcDbSavedByObjectVersion
1070
     0
  0
VISUALSTYLE
  5
2C
102
{ACAD_REACTORS
330
2A
102
}
330
2A
100
AcDbVisualStyle
  2
FlatWithEdges
 70
     1
 71
     2
 72
     1
 73
     1
 90
        2
 40
-0.6
 41
30.0
 62
     5
 63
     7
 74
     1
 91
        4
 64
     7
 65
   257
 75
     1
175
     1
 42
1.0
 92
        0
 66
   257
 43
1.0
 76
     1
 77
     6
 78
     2
 67
     7
 79
     5
170
     0
171
     0
290
     0
174
     0
 93
       13
 44
0.0
173
     0
291
     1
 45
0.0
1001
ACAD
1000
AcDbSavedByObjectVersion
1070
     0
  0
VISUALSTYLE
  5
2D
102
{ACAD_REACTORS
330
2A
102
}
330
2A
100
AcDbVisualStyle
  2
Gouraud
 70
     2
 71
     2
 72
     2
 73
     1
 90
        2
 40
-0.6
 41
30.0
 62
     5
 63
     7
 74
     0
 91
        4
 64
     7
 65
   257
 75
     1
175
     1
 42
1.0
 92
        0
 66
     7
 43
1.0
 76
     1
 77
     6
 78
     2
 67
     7
 79
     5
170
     0
171
     0
290
     0
174
     0
 93
       13
 44
0.0
173
     0
291
     1
 45
0.0
1001
ACAD
1000
AcDbSavedByObjectVersion
1070
     0
  0
VISUALSTYLE
  5
2E
102
{ACAD_REACTORS
330
2A
102
}
330
2A
100
AcDbVisualStyle
  2
GouraudWithEdges
 70
     3
 71
     2
 72
     2
 73
     1
 90
        2
 40
-0.6
 41
30.0
 62
     5
 63
     7
 74
     1
 91
        4
 64
     7
 65
   257
 75
     1
175
     1
 42
1.0
 92
        0
 66
   257
 43
1.0
 76
     1
 77
     6
 78
     2
 67
     7
 79
     5
170
     0
171
     0
290
     0
174
     0
 93
       13
 44
0.0
173
     0
291
     1
 45
0.0
1001
ACAD
1000
AcDbSavedByObjectVersion
1070
     0
  0
VISUALSTYLE
  5
38
102
{ACAD_REACTORS
330
2A
102
}
330
2A
100
AcDbVisualStyle
  2
Linepattern
 70
    14
 71
     2
 72
     2
 73
     0
 90
        0
 40
-0.6
 41
-30.0
 62
     5
 63
     7
 74
     1
 91
        4
 64
     7
 65
   257
 75
     7
175
     7
 42
1.0
 92
        8
 66
     7
 43
1.0
 76
     1
 77
     6
 78
     2
 67
     7
 79
     5
170
     0
171
     0
290
     0
174
     0
 93
        1
 44
0.0
173
     0
291
     1
 45
0.0
1001
ACAD
1000
AcDbSavedByObjectVersion
1070
     0
  0
VISUALSTYLE
  5
33
102
{ACAD_REACTORS
330
2A
102
}
330
2A
100
AcDbVisualStyle
  2
Realistic
 70
     8
 71
     2
 72
     2
 73
     0
 90
        0
 40
-0.6
 41
-30.0
 62
     5
 63
     7
 74
     1
 91
        0
 64
     7
 65
   257
 75
     1
175
     1
 42
1.0
 92
        8
 66
     8
 43
1.0
 76
     1
 77
     6
 78
     2
 67
     7
 79
     5
170
     0
171
     0
290
     0
174
     0
 93
       13
 44
0.0
173
     0
291
     0
 45
0.0
1001
ACAD
1000
AcDbSavedByObjectVersion
1070
     0
  0
VISUALSTYLE
  5
37
102
{ACAD_REACTORS
330
2A
102
}
330
2A
100
AcDbVisualStyle
  2
Thicken
 70
    13
 71
     2
 72
     2
 73
     0
 90
        0
 40
-0.6
 41
-30.0
 62
     5
 63
     7
 74
     1
 91
        4
 64
     7
 65
   257
 75
     1
175
     1
 42
1.0
 92
       12
 66
     7
 43
1.0
 76
     1
 77
     6
 78
     2
 67
     7
 79
     5
170
     0
171
     0
290
     0
174
     0
 93
        1
 44
0.0
173
     0
291
     1
 45
0.0
1001
ACAD
1000
AcDbSavedByObjectVersion
1070
     0
  0
DICTIONARYVAR
  5
1D6
102
{ACAD_REACTORS
330
1D5
102
}
330
1D5
100
DictionaryVariables
280
     0
  1
1:1
  0
DICTIONARYVAR
  5
1DA
102
{ACAD_REACTORS
330
1D5
102
}
330
1D5
100
DictionaryVariables
280
     0
  1
80.000000
  0
DICTIONARYVAR
  5
1D9
102
{ACAD_REACTORS
330
1D5
102
}
330
1D5
100
DictionaryVariables
280
     0
  1
5.000000
  0
ENDSEC
  0
EOF
