  0
SECTION
  2
HEADER
  9
$ACADVER
  1
AC1015
  9
$ACADMAINTVER
 70
     6
  9
$DWGCODEPAGE
  3
ANSI_1252
  9
$INSBASE
 10
0.0
 20
0.0
 30
0.0
  9
$EXTMIN
 10
0.0
 20
0.0
 30
0.0
  9
$EXTMAX
 10
1682.0
 20
2378.0
 30
0.0
  9
$LIMMIN
 10
0.0
 20
0.0
  9
$LIMMAX
 10
1682.0
 20
2378.0
  9
$ORTHOMODE
 70
     0
  9
$REGENMODE
 70
     1
  9
$FILLMODE
 70
     1
  9
$QTEXTMODE
 70
     0
  9
$MIRRTEXT
 70
     1
  9
$LTSCALE
 40
1.0
  9
$ATTMODE
 70
     1
  9
$TEXTSIZE
 40
2.5
  9
$TRACEWID
 40
1.0
  9
$TEXTSTYLE
  7
Standard
  9
$CLAYER
  8
0
  9
$CELTYPE
  6
ByLayer
  9
$CECOLOR
 62
   256
  9
$CELTSCALE
 40
1.0
  9
$DISPSILH
 70
     0
  9
$DIMSCALE
 40
1.0
  9
$DIMASZ
 40
2.5
  9
$DIMEXO
 40
0.625
  9
$DIMDLI
 40
3.75
  9
$DIMRND
 40
0.0
  9
$DIMDLE
 40
0.0
  9
$DIMEXE
 40
1.25
  9
$DIMTP
 40
0.0
  9
$DIMTM
 40
0.0
  9
$DIMTXT
 40
2.5
  9
$DIMCEN
 40
2.5
  9
$DIMTSZ
 40
0.0
  9
$DIMTOL
 70
     0
  9
$DIMLIM
 70
     0
  9
$DIMTIH
 70
     0
  9
$DIMTOH
 70
     0
  9
$DIMSE1
 70
     0
  9
$DIMSE2
 70
     0
  9
$DIMTAD
 70
     1
  9
$DIMZIN
 70
     8
  9
$DIMBLK
  1

  9
$DIMASO
 70
     1
  9
$DIMSHO
 70
     1
  9
$DIMPOST
  1

  9
$DIMAPOST
  1

  9
$DIMALT
 70
     0
  9
$DIMALTD
 70
     3
  9
$DIMALTF
 40
0.0393700787
  9
$DIMLFAC
 40
1.0
  9
$DIMTOFL
 70
     1
  9
$DIMTVP
 40
0.0
  9
$DIMTIX
 70
     0
  9
$DIMSOXD
 70
     0
  9
$DIMSAH
 70
     0
  9
$DIMBLK1
  1

  9
$DIMBLK2
  1

  9
$DIMSTYLE
  2
ISO-25
  9
$DIMCLRD
 70
     0
  9
$DIMCLRE
 70
     0
  9
$DIMCLRT
 70
     0
  9
$DIMTFAC
 40
1.0
  9
$DIMGAP
 40
0.625
  9
$DIMJUST
 70
     0
  9
$DIMSD1
 70
     0
  9
$DIMSD2
 70
     0
  9
$DIMTOLJ
 70
     0
  9
$DIMTZIN
 70
     8
  9
$DIMALTZ
 70
     0
  9
$DIMALTTZ
 70
     0
  9
$DIMUPT
 70
     0
  9
$DIMDEC
 70
     2
  9
$DIMTDEC
 70
     2
  9
$DIMALTU
 70
     2
  9
$DIMALTTD
 70
     3
  9
$DIMTXSTY
  7
Standard
  9
$DIMAUNIT
 70
     0
  9
$DIMADEC
 70
     0
  9
$DIMALTRND
 40
0.0
  9
$DIMAZIN
 70
     0
  9
$DIMDSEP
 70
    44
  9
$DIMATFIT
 70
     3
  9
$DIMFRAC
 70
     0
  9
$DIMLDRBLK
  1

  9
$DIMLUNIT
 70
     2
  9
$DIMLWD
 70
    -2
  9
$DIMLWE
 70
    -2
  9
$DIMTMOVE
 70
     0
  9
$LUNITS
 70
     2
  9
$LUPREC
 70
     4
  9
$SKETCHINC
 40
1.0
  9
$FILLETRAD
 40
10.0
  9
$AUNITS
 70
     0
  9
$AUPREC
 70
     0
  9
$MENU
  1
.
  9
$ELEVATION
 40
0.0
  9
$PELEVATION
 40
0.0
  9
$THICKNESS
 40
0.0
  9
$LIMCHECK
 70
     0
  9
$CHAMFERA
 40
10.0
  9
$CHAMFERB
 40
10.0
  9
$CHAMFERC
 40
20.0
  9
$CHAMFERD
 40
0.0
  9
$SKPOLY
 70
     0
  9
$TDCREATE
 40
2455439.377784271
  9
$TDUCREATE
 40
2455439.294450937
  9
$TDUPDATE
 40
2455439.377784282
  9
$TDUUPDATE
 40
2455439.294450949
  9
$TDINDWG
 40
0.0000000116
  9
$TDUSRTIMER
 40
0.0000000116
  9
$USRTIMER
 70
     1
  9
$ANGBASE
 50
0.0
  9
$ANGDIR
 70
     0
  9
$PDMODE
 70
     0
  9
$PDSIZE
 40
0.0
  9
$PLINEWID
 40
0.0
  9
$SPLFRAME
 70
     0
  9
$SPLINETYPE
 70
     6
  9
$SPLINESEGS
 70
     8
  9
$HANDSEED
  5
1EB
  9
$SURFTAB1
 70
     6
  9
$SURFTAB2
 70
     6
  9
$SURFTYPE
 70
     6
  9
$SURFU
 70
     6
  9
$SURFV
 70
     6
  9
$UCSBASE
  2

  9
$UCSNAME
  2

  9
$UCSORG
 10
0.0
 20
0.0
 30
0.0
  9
$UCSXDIR
 10
1.0
 20
0.0
 30
0.0
  9
$UCSYDIR
 10
0.0
 20
1.0
 30
0.0
  9
$UCSORTHOREF
  2

  9
$UCSORTHOVIEW
 70
     0
  9
$UCSORGTOP
 10
0.0
 20
0.0
 30
0.0
  9
$UCSORGBOTTOM
 10
0.0
 20
0.0
 30
0.0
  9
$UCSORGLEFT
 10
0.0
 20
0.0
 30
0.0
  9
$UCSORGRIGHT
 10
0.0
 20
0.0
 30
0.0
  9
$UCSORGFRONT
 10
0.0
 20
0.0
 30
0.0
  9
$UCSORGBACK
 10
0.0
 20
0.0
 30
0.0
  9
$PUCSBASE
  2

  9
$PUCSNAME
  2

  9
$PUCSORG
 10
0.0
 20
0.0
 30
0.0
  9
$PUCSXDIR
 10
1.0
 20
0.0
 30
0.0
  9
$PUCSYDIR
 10
0.0
 20
1.0
 30
0.0
  9
$PUCSORTHOREF
  2

  9
$PUCSORTHOVIEW
 70
     0
  9
$PUCSORGTOP
 10
0.0
 20
0.0
 30
0.0
  9
$PUCSORGBOTTOM
 10
0.0
 20
0.0
 30
0.0
  9
$PUCSORGLEFT
 10
0.0
 20
0.0
 30
0.0
  9
$PUCSORGRIGHT
 10
0.0
 20
0.0
 30
0.0
  9
$PUCSORGFRONT
 10
0.0
 20
0.0
 30
0.0
  9
$PUCSORGBACK
 10
0.0
 20
0.0
 30
0.0
  9
$USERI1
 70
     0
  9
$USERI2
 70
     0
  9
$USERI3
 70
     0
  9
$USERI4
 70
     0
  9
$USERI5
 70
     0
  9
$USERR1
 40
0.0
  9
$USERR2
 40
0.0
  9
$USERR3
 40
0.0
  9
$USERR4
 40
0.0
  9
$USERR5
 40
0.0
  9
$WORLDVIEW
 70
     1
  9
$SHADEDGE
 70
     3
  9
$SHADEDIF
 70
    70
  9
$TILEMODE
 70
     1
  9
$MAXACTVP
 70
    64
  9
$PINSBASE
 10
0.0
 20
0.0
 30
0.0
  9
$PLIMCHECK
 70
     0
  9
$PEXTMIN
 10
0.0
 20
0.0
 30
0.0
  9
$PEXTMAX
 10
1682.0
 20
2378.0
 30
0.0
  9
$PLIMMIN
 10
0.0
 20
0.0
  9
$PLIMMAX
 10
1682.0
 20
2378.0
  9
$UNITMODE
 70
     0
  9
$VISRETAIN
 70
     1
  9
$PLINEGEN
 70
     0
  9
$PSLTSCALE
 70
     1
  9
$TREEDEPTH
 70
  3020
  9
$CMLSTYLE
  2
Standard
  9
$CMLJUST
 70
     0
  9
$CMLSCALE
 40
20.0
  9
$PROXYGRAPHICS
 70
     1
  9
$MEASUREMENT
 70
     1
  9
$CELWEIGHT
370
    -1
  9
$ENDCAPS
280
     0
  9
$JOINSTYLE
280
     0
  9
$LWDISPLAY
290
     0
  9
$INSUNITS
 70
     4
  9
$HYPERLINKBASE
  1

  9
$STYLESHEET
  1

  9
$XEDIT
290
     1
  9
$CEPSNTYPE
380
     0
  9
$PSTYLEMODE
290
     1
  9
$FINGERPRINTGUID
  2
{C734058B-61C4-4D5C-89C8-F3CF4D80ECFA}
  9
$VERSIONGUID
  2
{FAEB1C32-E019-11D5-929B-00C0DF256EC4}
  9
$EXTNAMES
290
     1
  9
$PSVPSCALE
 40
0.0
  9
$OLESTARTUP
290
     0
  0
ENDSEC
  0
SECTION
  2
CLASSES
  0
CLASS
  1
ACDBDICTIONARYWDFLT
  2
AcDbDictionaryWithDefault
  3
ObjectDBX Classes
 90
        0
280
     0
281
     0
  0
CLASS
  1
VISUALSTYLE
  2
AcDbVisualStyle
  3
ObjectDBX Classes
 90
     4095
280
     0
281
     0
  0
CLASS
  1
SCALE
  2
AcDbScale
  3
ObjectDBX Classes
 90
     1153
280
     0
281
     0
  0
CLASS
  1
DICTIONARYVAR
  2
AcDbDictionaryVar
  3
ObjectDBX Classes
 90
        0
280
     0
281
     0
  0
CLASS
  1
ACDBPLACEHOLDER
  2
AcDbPlaceHolder
  3
ObjectDBX Classes
 90
        0
280
     0
281
     0
  0
CLASS
  1
LAYOUT
  2
AcDbLayout
  3
ObjectDBX Classes
 90
        0
280
     0
281
     0
  0
ENDSEC
  0
SECTION
  2
TABLES
  0
TABLE
  2
VPORT
  5
8
330
0
100
AcDbSymbolTable
 70
     1
  0
VPORT
  5
29
330
8
100
AcDbSymbolTableRecord
100
AcDbViewportTableRecord
  2
*Active
 70
     0
 10
0.0
 20
0.0
 11
1.0
 21
1.0
 12
344.1869158879
 22
148.5
 13
0.0
 23
0.0
 14
10.0
 24
10.0
 15
10.0
 25
10.0
 16
0.0
 26
0.0
 36
1.0
 17
0.0
 27
0.0
 37
0.0
 40
297.0
 41
1.9729729729
 42
50.0
 43
0.0
 44
0.0
 50
0.0
 51
0.0
 71
     0
 72
   100
 73
     1
 74
     3
 75
     0
 76
     0
 77
     0
 78
     0
281
     0
 65
     1
110
0.0
120
0.0
130
0.0
111
1.0
121
0.0
131
0.0
112
0.0
122
1.0
132
0.0
 79
     0
146
0.0
  0
ENDTAB
  0
TABLE
  2
LTYPE
  5
5
330
0
100
AcDbSymbolTable
 70
     2
  0
LTYPE
  5
14
330
5
100
AcDbSymbolTableRecord
100
AcDbLinetypeTableRecord
  2
ByBlock
 70
     0
  3

 72
    65
 73
     0
 40
0.0
  0
LTYPE
  5
15
330
5
100
AcDbSymbolTableRecord
100
AcDbLinetypeTableRecord
  2
ByLayer
 70
     0
  3

 72
    65
 73
     0
 40
0.0
  0
LTYPE
  5
16
330
5
100
AcDbSymbolTableRecord
100
AcDbLinetypeTableRecord
  2
Continuous
 70
     0
  3
Solid line
 72
    65
 73
     0
 40
0.0
  0
LTYPE
  5
60
330
5
100
AcDbSymbolTableRecord
100
AcDbLinetypeTableRecord
  2
CENTER2
 70
     0
  3
Center (.5x) ___ _ ___ _ ___ _ ___ _ ___ _ ___
 72
    65
 73
     4
 40
28.575
 49
19.05
 74
     4
 75
     0
340
0
 46
0.0
 50
0.0
 44
0.0
 45
0.0
 49
-3.175
 74
     4
 75
     0
340
0
 46
0.0
 50
0.0
 44
0.0
 45
0.0
 49
3.175
 74
     4
 75
     0
340
0
 46
0.0
 50
0.0
 44
0.0
 45
0.0
 49
-3.175
 74
     4
 75
     0
340
0
 46
0.0
 50
0.0
 44
0.0
 45
0.0
  0
ENDTAB
  0
TABLE
  2
LAYER
  5
2
330
0
100
AcDbSymbolTable
 70
     8
  0
LAYER
  5
10
330
2
100
AcDbSymbolTableRecord
100
AcDbLayerTableRecord
  2
0
 70
     0
 62
     7
  6
Continuous
370
    -3
390
F
  0
LAYER
  5
5D
330
2
100
AcDbSymbolTableRecord
100
AcDbLayerTableRecord
  2
Default
 70
     0
 62
     7
  6
Continuous
370
    -3
390
F
  0
LAYER
  5
77
330
2
100
AcDbSymbolTableRecord
100
AcDbLayerTableRecord
  2
$DDT_AUDIT_GENERATED_(77)
 70
     0
 62
     7
  6
Continuous
370
    -3
390
F
  0
LAYER
  5
8D
330
2
100
AcDbSymbolTableRecord
100
AcDbLayerTableRecord
  2
02636038_GEHÄUSE
 70
     0
 62
     7
  6
Continuous
370
    -3
390
F
  0
LAYER
  5
A2
330
2
100
AcDbSymbolTableRecord
100
AcDbLayerTableRecord
  2
$DDT_AUDIT_GENERATED_(A2)
 70
     0
 62
     7
  6
Continuous
370
    -3
390
F
  0
LAYER
  5
15C
330
2
100
AcDbSymbolTableRecord
100
AcDbLayerTableRecord
  2
$DDT_AUDIT_GENERATED_(15C)
 70
     0
 62
     7
  6
Continuous
370
    -3
390
F
  0
LAYER
  5
15F
330
2
100
AcDbSymbolTableRecord
100
AcDbLayerTableRecord
  2
$DDT_AUDIT_GENERATED_(15F)
 70
     0
 62
     7
  6
Continuous
370
    -3
390
F
  0
LAYER
  5
166
330
2
100
AcDbSymbolTableRecord
100
AcDbLayerTableRecord
  2
$DDT_AUDIT_GENERATED_(166)
 70
     0
 62
     7
  6
Continuous
370
    -3
390
F
  0
ENDTAB
  0
TABLE
  2
STYLE
  5
3
330
0
100
AcDbSymbolTable
 70
     2
  0
STYLE
  5
11
330
3
100
AcDbSymbolTableRecord
100
AcDbTextStyleTableRecord
  2
Standard
 70
     0
 40
0.0
 41
1.0
 50
0.0
 71
     0
 42
2.5
  3
txt
  4

  0
STYLE
  5
1DA
330
3
100
AcDbSymbolTableRecord
100
AcDbTextStyleTableRecord
  2
SEACAD_seiso_ttf
 70
     0
 40
0.0
 41
1.0
 50
0.0
 71
     0
 42
0.2
  3
seiso.ttf
  4

  0
ENDTAB
  0
TABLE
  2
VIEW
  5
6
330
0
100
AcDbSymbolTable
 70
     0
  0
ENDTAB
  0
TABLE
  2
UCS
  5
7
330
0
100
AcDbSymbolTable
 70
     0
  0
ENDTAB
  0
TABLE
  2
APPID
  5
9
330
0
100
AcDbSymbolTable
 70
     1
  0
APPID
  5
12
330
9
100
AcDbSymbolTableRecord
100
AcDbRegAppTableRecord
  2
ACAD
 70
     0
  0
ENDTAB
  0
TABLE
  2
DIMSTYLE
  5
A
330
0
100
AcDbSymbolTable
 70
     1
100
AcDbDimStyleTable
  0
DIMSTYLE
105
27
330
A
100
AcDbSymbolTableRecord
100
AcDbDimStyleTableRecord
  2
ISO-25
 70
     0
 41
2.5
 42
0.625
 43
3.75
 44
1.25
 73
     0
 74
     0
 77
     1
 78
     8
140
2.5
141
2.5
143
0.0393700787
147
0.625
171
     3
172
     1
271
     2
272
     2
274
     3
278
    44
283
     0
284
     8
340
11
  0
ENDTAB
  0
TABLE
  2
BLOCK_RECORD
  5
1
330
0
100
AcDbSymbolTable
 70
     7
  0
BLOCK_RECORD
  5
1F
330
1
100
AcDbSymbolTableRecord
100
AcDbBlockTableRecord
  2
*Model_Space
340
22
  0
BLOCK_RECORD
  5
1B
330
1
100
AcDbSymbolTableRecord
100
AcDbBlockTableRecord
  2
*Paper_Space
340
1E
  0
BLOCK_RECORD
  5
5E
330
1
100
AcDbSymbolTableRecord
100
AcDbBlockTableRecord
  2
SEANNOT_GROUP
340
0
102
{BLKREFS
331
5F
102
}
  0
BLOCK_RECORD
  5
65
330
1
100
AcDbSymbolTableRecord
100
AcDbBlockTableRecord
  2
SEANNOT_GROUP1
340
0
102
{BLKREFS
331
66
102
}
  0
BLOCK_RECORD
  5
6B
330
1
100
AcDbSymbolTableRecord
100
AcDbBlockTableRecord
  2
SEANNOT_GROUP2
340
0
102
{BLKREFS
331
6C
102
}
  0
BLOCK_RECORD
  5
75
330
1
100
AcDbSymbolTableRecord
100
AcDbBlockTableRecord
  2
SE
340
0
102
{BLKREFS
331
76
102
}
  0
BLOCK_RECORD
  5
189
330
1
100
AcDbSymbolTableRecord
100
AcDbBlockTableRecord
  2
SE1
340
0
102
{BLKREFS
331
18A
102
}
  0
BLOCK_RECORD
  5
1C6
330
1
100
AcDbSymbolTableRecord
100
AcDbBlockTableRecord
  2
SE2
340
0
102
{BLKREFS
331
1C7
102
}
  0
ENDTAB
  0
ENDSEC
  0
SECTION
  2
BLOCKS
  0
BLOCK
  5
20
330
1F
100
AcDbEntity
  8
0
100
AcDbBlockBegin
  2
*Model_Space
 70
     0
 10
0.0
 20
0.0
 30
0.0
  3
*Model_Space
  1

  0
ENDBLK
  5
21
330
1F
100
AcDbEntity
  8
0
100
AcDbBlockEnd
  0
BLOCK
  5
1C
330
1B
100
AcDbEntity
 67
     1
  8
0
100
AcDbBlockBegin
  2
*Paper_Space
 70
     0
 10
0.0
 20
0.0
 30
0.0
  3
*Paper_Space
  1

  0
ENDBLK
  5
1D
330
1B
100
AcDbEntity
 67
     1
  8
0
100
AcDbBlockEnd
  0
BLOCK
  5
63
330
5E
100
AcDbEntity
  8
0
100
AcDbBlockBegin
  2
SEANNOT_GROUP
 70
     0
 10
0.0
 20
0.0
 30
0.0
  3
SEANNOT_GROUP
  1

  0
LINE
  5
61
330
5E
100
AcDbEntity
  8
Default
  6
CENTER2
 62
     7
100
AcDbLine
 10
97.6565826062
 20
349.1683783016
 30
0.0
 11
57.6565835002
 21
349.1683783016
 31
0.0
  0
LINE
  5
62
330
5E
100
AcDbEntity
  8
Default
  6
CENTER2
 62
     7
100
AcDbLine
 10
77.6565830532
 20
369.1683778545
 30
0.0
 11
77.6565830532
 21
329.1683787486
 31
0.0
  0
ENDBLK
  5
64
330
5E
100
AcDbEntity
  8
0
100
AcDbBlockEnd
  0
BLOCK
  5
69
330
65
100
AcDbEntity
  8
0
100
AcDbBlockBegin
  2
SEANNOT_GROUP1
 70
     0
 10
0.0
 20
0.0
 30
0.0
  3
SEANNOT_GROUP1
  1

  0
LINE
  5
67
330
65
100
AcDbEntity
  8
Default
  6
CENTER2
 62
     7
100
AcDbLine
 10
207.6207971426
 20
349.1683783016
 30
0.0
 11
167.6207980367
 21
349.1683783016
 31
0.0
  0
LINE
  5
68
330
65
100
AcDbEntity
  8
Default
  6
CENTER2
 62
     7
100
AcDbLine
 10
187.6207975897
 20
369.1683778545
 30
0.0
 11
187.6207975897
 21
329.1683787486
 31
0.0
  0
ENDBLK
  5
6A
330
65
100
AcDbEntity
  8
0
100
AcDbBlockEnd
  0
BLOCK
  5
73
330
6B
100
AcDbEntity
  8
0
100
AcDbBlockBegin
  2
SEANNOT_GROUP2
 70
     0
 10
0.0
 20
0.0
 30
0.0
  3
SEANNOT_GROUP2
  1

  0
LINE
  5
6D
330
6B
100
AcDbEntity
  8
Default
  6
CENTER2
 62
     7
100
AcDbLine
 10
97.6565826062
 20
217.1432085051
 30
0.0
 11
57.6565835002
 21
217.1432085051
 31
0.0
  0
LINE
  5
6E
330
6B
100
AcDbEntity
  8
Default
  6
CENTER2
 62
     7
100
AcDbLine
 10
77.6565830532
 20
237.143208058
 30
0.0
 11
77.6565830532
 21
197.1432089521
 31
0.0
  0
LINE
  5
6F
330
6B
100
AcDbEntity
  8
Default
  6
CENTER2
 62
     7
100
AcDbLine
 10
102.6565824944
 20
217.1432085051
 30
0.0
 11
105.9065830532
 21
217.1432085051
 31
0.0
  0
LINE
  5
70
330
6B
100
AcDbEntity
  8
Default
  6
CENTER2
 62
     7
100
AcDbLine
 10
77.6565830532
 20
242.1432079463
 30
0.0
 11
77.6565830532
 21
245.3932085051
 31
0.0
  0
LINE
  5
71
330
6B
100
AcDbEntity
  8
Default
  6
CENTER2
 62
     7
100
AcDbLine
 10
52.656583612
 20
217.1432085051
 30
0.0
 11
49.4065830532
 21
217.1432085051
 31
0.0
  0
LINE
  5
72
330
6B
100
AcDbEntity
  8
Default
  6
CENTER2
 62
     7
100
AcDbLine
 10
77.6565830532
 20
192.1432090639
 30
0.0
 11
77.6565830532
 21
188.8932085051
 31
0.0
  0
ENDBLK
  5
74
330
6B
100
AcDbEntity
  8
0
100
AcDbBlockEnd
  0
BLOCK
  5
187
330
75
100
AcDbEntity
  8
0
100
AcDbBlockBegin
  2
SE
 70
     0
 10
0.0
 20
0.0
 30
0.0
  3
SE
  1

  0
ARC
  5
78
330
75
100
AcDbEntity
  8
$DDT_AUDIT_GENERATED_(77)
  6
Continuous
 62
     7
100
AcDbCircle
 10
60.4820816912
 20
426.3780888035
 30
0.0
 40
16.67103215661398
100
AcDbArc
 50
86.7103921067
 51
90.9721823661
  0
ARC
  5
79
330
75
100
AcDbEntity
  8
$DDT_AUDIT_GENERATED_(77)
  6
Continuous
 62
     7
100
AcDbCircle
 10
67.7692937378
 20
865.6269015014
 30
0.0
 40
422.670795559195
100
AcDbArc
 50
268.6971884302
 51
269.1188707894
  0
LINE
  5
7A
330
75
100
AcDbEntity
  8
$DDT_AUDIT_GENERATED_(77)
  6
Continuous
 62
     7
100
AcDbLine
 10
60.9849339212
 20
442.5189414124
 30
0.0
 11
60.9849397183
 21
436.1871353842
 31
0.0
  0
SPLINE
  5
7B
330
75
100
AcDbEntity
  8
$DDT_AUDIT_GENERATED_(77)
  6
Continuous
 62
     7
100
AcDbSpline
210
0.0
220
0.0
230
1.0
 70
     8
 71
     3
 72
    30
 73
    26
 74
     0
 42
0.0000000004350897
 43
0.0000000001
 40
0.0
 40
0.0
 40
0.0
 40
0.0
 40
0.0312500000000003
 40
0.0312500000000003
 40
0.0625000000000006
 40
0.0625000000000006
 40
0.125000000000001
 40
0.125000000000001
 40
0.1562500000000011
 40
0.1562500000000011
 40
0.1875000000000012
 40
0.1875000000000012
 40
0.2187500000000013
 40
0.2187500000000013
 40
0.2500000000000014
 40
0.2500000000000014
 40
0.3750000000000013
 40
0.3750000000000013
 40
0.5000000000000012
 40
0.5000000000000012
 40
0.7500000000000008
 40
0.7500000000000008
 40
0.8750000000000004
 40
0.8750000000000004
 40
1.0
 40
1.0
 40
1.0
 40
1.0
 10
77.65658305319505
 20
433.6388320188894
 30
0.0
 10
76.53089692775659
 20
433.6388387969358
 30
0.0
 10
75.42228241694943
 20
433.6618011234659
 30
0.0
 10
73.2382006390606
 20
433.7516836928941
 30
0.0
 10
72.15415641100594
 20
433.8197299065103
 30
0.0
 10
69.09395348084335
 20
434.0792447002553
 30
0.0
 10
67.23405576897707
 20
434.3322372604336
 30
0.0
 10
64.9762945521948
 20
434.7762721472765
 30
0.0
 10
64.29961276275279
 20
434.9374258856817
 30
0.0
 10
63.14580072484802
 20
435.2710573837422
 30
0.0
 10
62.6669709798763
 20
435.4427186482464
 30
0.0
 10
61.89125156698879
 20
435.791865053917
 30
0.0
 10
61.58933274307094
 20
435.9669801896032
 30
0.0
 10
61.38677921863579
 20
436.308884995179
 30
0.0
 10
61.38234463978367
 20
436.4854576745385
 30
0.0
 10
61.27364918942263
 20
437.3339124357044
 30
0.0
 10
61.25497299005385
 20
437.9450329290832
 30
0.0
 10
61.19290399657583
 20
439.0389730726495
 30
0.0
 10
61.16741813705961
 20
439.5219419854938
 30
0.0
 10
61.09804973235719
 20
440.7964239132429
 30
0.0
 10
61.0618483893934
 20
441.4142479596061
 30
0.0
 10
61.02125925601204
 20
442.0464812029448
 30
0.0
 10
61.01017612325753
 20
442.2103318192797
 30
0.0
 10
60.99353412462704
 20
442.4354851162551
 30
0.0
 10
60.98794427523317
 20
442.4888925945176
 30
0.0
 10
60.9849339212093
 20
442.5189414123525
 30
0.0
  0
SPLINE
  5
7C
330
75
100
AcDbEntity
  8
$DDT_AUDIT_GENERATED_(77)
  6
Continuous
 62
     7
100
AcDbSpline
210
0.0
220
0.0
230
1.0
 70
     8
 71
     3
 72
    10
 73
     6
 74
     0
 42
0.0000000006889327
 43
0.0000000001
 40
0.2308986168193617
 40
0.2308986168193617
 40
0.2308986168193617
 40
0.2308986168193617
 40
0.2369934774322729
 40
0.2505433382164061
 40
0.26061736342565
 40
0.26061736342565
 40
0.26061736342565
 40
0.26061736342565
 10
61.55401332302174
 20
430.2258779391297
 30
0.0
 10
61.54102709094865
 20
430.2529634398953
 30
0.0
 10
61.50849048072225
 20
430.3425416609383
 30
0.0
 10
61.48155023549553
 20
430.4894159719966
 30
0.0
 10
61.46161397864272
 20
430.598317725004
 30
0.0
 10
61.45394448744676
 20
430.643669410798
 30
0.0
  0
LINE
  5
7D
330
75
100
AcDbEntity
  8
$DDT_AUDIT_GENERATED_(77)
  6
Continuous
 62
     7
100
AcDbLine
 10
94.3282321852
 20
442.5189414124
 30
0.0
 11
94.3282263881
 21
436.1871353842
 31
0.0
  0
SPLINE
  5
7E
330
75
100
AcDbEntity
  8
$DDT_AUDIT_GENERATED_(77)
  6
Continuous
 62
     7
100
AcDbSpline
210
0.0
220
0.0
230
1.0
 70
    12
 71
     3
 72
    10
 73
     6
 74
     0
 42
0.0000000006891985
 43
0.0000000001
 40
0.2173007241074771
 40
0.2173007241074771
 40
0.2173007241074771
 40
0.2173007241074771
 40
0.2325398005459884
 40
0.2325398005459884
 40
0.2464886583303966
 40
0.2464886583303966
 40
0.2464886583303966
 40
0.2464886583303966
 10
93.76021353446683
 20
430.2275605026315
 30
0.0
 41
1.0
 10
93.79210102069896
 20
430.2935379807668
 30
0.0
 41
1.0
 10
93.80825588335297
 20
430.3724977878059
 30
0.0
 41
1.0
 10
93.83765869025534
 20
430.5140821177056
 30
0.0
 41
1.0
 10
93.8488695310663
 20
430.5765961323514
 30
0.0
 41
1.0
 10
93.8585942527718
 20
430.6373369593325
 30
0.0
 41
1.0
  0
ARC
  5
7F
330
75
100
AcDbEntity
  8
$DDT_AUDIT_GENERATED_(77)
  6
Continuous
 62
     7
100
AcDbCircle
 10
94.8310844152
 20
426.3780888035
 30
0.0
 40
16.67103215661374
100
AcDbArc
 50
89.0278176339
 51
93.2972474203
  0
SPLINE
  5
80
330
75
100
AcDbEntity
  8
$DDT_AUDIT_GENERATED_(77)
  6
Continuous
 62
     7
100
AcDbSpline
210
0.0
220
0.0
230
1.0
 70
     8
 71
     3
 72
    30
 73
    26
 74
     0
 42
0.0000000004350897
 43
0.0000000001
 40
0.0
 40
0.0
 40
0.0
 40
0.0
 40
0.0312500000000001
 40
0.0312500000000001
 40
0.0625000000000001
 40
0.0625000000000001
 40
0.1250000000000001
 40
0.1250000000000001
 40
0.15625
 40
0.15625
 40
0.1874999999999999
 40
0.1874999999999999
 40
0.2187499999999997
 40
0.2187499999999997
 40
0.2499999999999996
 40
0.2499999999999996
 40
0.3749999999999998
 40
0.3749999999999998
 40
0.5
 40
0.5
 40
0.7500000000000001
 40
0.7500000000000001
 40
0.875
 40
0.875
 40
1.0
 40
1.0
 40
1.0
 40
1.0
 10
77.65658305319505
 20
433.6388320188894
 30
0.0
 10
78.78226917863351
 20
433.6388387969358
 30
0.0
 10
79.89088368944063
 20
433.6618011234659
 30
0.0
 10
82.0749654673295
 20
433.751683692894
 30
0.0
 10
83.15900969538416
 20
433.8197299065103
 30
0.0
 10
86.21921262554676
 20
434.0792447002553
 30
0.0
 10
88.07911033741303
 20
434.3322372604336
 30
0.0
 10
90.33687155419531
 20
434.7762721472765
 30
0.0
 10
91.01355334363733
 20
434.9374258856816
 30
0.0
 10
92.16736538154207
 20
435.2710573837422
 30
0.0
 10
92.64619512651377
 20
435.4427186482465
 30
0.0
 10
93.42191453940134
 20
435.791865053917
 30
0.0
 10
93.72383336331916
 20
435.9669801896032
 30
0.0
 10
93.92638688775432
 20
436.3088849951791
 30
0.0
 10
93.93082146660642
 20
436.4854576745385
 30
0.0
 10
94.0395169169675
 20
437.3339124357043
 30
0.0
 10
94.05819311633626
 20
437.9450329290833
 30
0.0
 10
94.12026210981426
 20
439.0389730726495
 30
0.0
 10
94.14574796933049
 20
439.5219419854938
 30
0.0
 10
94.2151163740329
 20
440.796423913243
 30
0.0
 10
94.2513177169967
 20
441.4142479596062
 30
0.0
 10
94.29190685037806
 20
442.0464812029448
 30
0.0
 10
94.30298998313255
 20
442.2103318192798
 30
0.0
 10
94.31963198176305
 20
442.4354851162551
 30
0.0
 10
94.32522183115691
 20
442.4888925945176
 30
0.0
 10
94.3282321851808
 20
442.5189414123525
 30
0.0
  0
ARC
  5
81
330
75
100
AcDbEntity
  8
$DDT_AUDIT_GENERATED_(77)
  6
Continuous
 62
     7
100
AcDbCircle
 10
87.5438723686
 20
865.6269015009
 30
0.0
 40
422.6707955586476
100
AcDbArc
 50
270.8646939055
 51
271.3028198968
  0
SPLINE
  5
82
330
75
100
AcDbEntity
  8
$DDT_AUDIT_GENERATED_(77)
  6
Continuous
 62
     7
100
AcDbSpline
210
0.0
220
0.0
230
1.0
 70
     8
 71
     3
 72
    20
 73
    16
 74
     0
 42
0.000000000428532
 43
0.0000000001
 40
0.4109667656642892
 40
0.4109667656642892
 40
0.4109667656642892
 40
0.4109667656642892
 40
0.4374999999999988
 40
0.4374999999999988
 40
0.4999999999999987
 40
0.4999999999999987
 40
0.5624999999999984
 40
0.5624999999999984
 40
0.6249999999999983
 40
0.6249999999999983
 40
0.7499999999999989
 40
0.7499999999999989
 40
0.8749999999999994
 40
0.8749999999999994
 40
1.0
 40
1.0
 40
1.0
 40
1.0
 10
65.85403287430393
 20
421.1017388235032
 30
0.0
 10
65.76142972214234
 20
421.2160966520877
 30
0.0
 10
65.6827122466672
 20
421.3270373063414
 30
0.0
 10
65.46870723489099
 20
421.6859253963887
 30
0.0
 10
65.39801895131578
 20
421.9344926892772
 30
0.0
 10
65.41678199400077
 20
422.3399143600843
 30
0.0
 10
65.50912612056464
 20
422.4957179697518
 30
0.0
 10
65.83839738729333
 20
422.6636121718678
 30
0.0
 10
66.07600290154843
 20
422.6782877754215
 30
0.0
 10
67.00145708801297
 20
422.7145999684599
 30
0.0
 10
67.90286729814784
 20
422.7202145336946
 30
0.0
 10
70.1229670674476
 20
422.62169030137
 30
0.0
 10
71.4654470062082
 20
422.5191398962692
 30
0.0
 10
74.39507429257603
 20
422.3726494922475
 30
0.0
 10
76.01976418207298
 20
422.3458959271825
 30
0.0
 10
77.65658305319506
 20
422.3458959271825
 30
0.0
  0
SPLINE
  5
83
330
75
100
AcDbEntity
  8
$DDT_AUDIT_GENERATED_(77)
  6
Continuous
 62
     7
100
AcDbSpline
210
0.0
220
0.0
230
1.0
 70
     8
 71
     3
 72
    20
 73
    16
 74
     0
 42
0.000000000428532
 43
0.0000000001
 40
0.4109667642578462
 40
0.4109667642578462
 40
0.4109667642578462
 40
0.4109667642578462
 40
0.4374999999999991
 40
0.4374999999999991
 40
0.4999999999999996
 40
0.4999999999999996
 40
0.5625
 40
0.5625
 40
0.6250000000000004
 40
0.6250000000000004
 40
0.7500000000000002
 40
0.7500000000000002
 40
0.8750000000000001
 40
0.8750000000000001
 40
1.0
 40
1.0
 40
1.0
 40
1.0
 10
89.45913321806597
 20
421.1017388062695
 30
0.0
 10
89.55173637665376
 20
421.2160966413987
 30
0.0
 10
89.63045385700546
 20
421.3270373016967
 30
0.0
 10
89.8444588712513
 20
421.6859253961792
 30
0.0
 10
89.91514715529097
 20
421.9344926892875
 30
0.0
 10
89.89638411209907
 20
422.3399143616656
 30
0.0
 10
89.80403998575605
 20
422.4957179696634
 30
0.0
 10
89.47476871972727
 20
422.6636121716702
 30
0.0
 10
89.23716320362676
 20
422.678287775481
 30
0.0
 10
88.31170901949805
 20
422.7145999683923
 30
0.0
 10
87.41029880679582
 20
422.7202145336262
 30
0.0
 10
85.19019904075235
 20
422.6216903014545
 30
0.0
 10
83.84771909981188
 20
422.519139896249
 30
0.0
 10
80.91809181399823
 20
422.3726494922584
 30
0.0
 10
79.29340191947239
 20
422.3458959271825
 30
0.0
 10
77.65658305319506
 20
422.3458959271825
 30
0.0
  0
ARC
  5
84
330
75
100
AcDbEntity
  8
$DDT_AUDIT_GENERATED_(77)
  6
Continuous
 62
     7
100
AcDbCircle
 10
77.656401371
 20
1103.1775706299
 30
0.0
 40
660.315856301833
100
AcDbArc
 50
268.5768371373
 51
271.423194201
  0
LINE
  5
85
330
75
100
AcDbEntity
  8
$DDT_AUDIT_GENERATED_(77)
  6
Continuous
 62
     7
100
AcDbLine
 10
57.6565830532
 20
442.5653462487
 30
0.0
 11
57.6565830532
 21
354.1683778426
 31
0.0
  0
SPLINE
  5
86
330
75
100
AcDbEntity
  8
$DDT_AUDIT_GENERATED_(77)
  6
Continuous
 62
     7
100
AcDbSpline
210
0.0
220
0.0
230
1.0
 70
     8
 71
     3
 72
    40
 73
    36
 74
     0
 42
0.000000000418184
 43
0.0000000001
 40
0.079157237343534
 40
0.079157237343534
 40
0.079157237343534
 40
0.079157237343534
 40
0.0886303244011229
 40
0.1024076415146338
 40
0.1207348860416171
 40
0.1441546445231484
 40
0.173210584792901
 40
0.2030133283504451
 40
0.2375321115651997
 40
0.2753489715915836
 40
0.30610147390408
 40
0.3284845365807735
 40
0.3501261852489916
 40
0.3671991315235342
 40
0.3814488892703207
 40
0.3998106005824579
 40
0.4216736265654926
 40
0.446853250515981
 40
0.4743188651608599
 40
0.5028050341016946
 40
0.5431804624573875
 40
0.5951351276109137
 40
0.6465981484279593
 40
0.7075861464102207
 40
0.7512239023550892
 40
0.7698522411738828
 40
0.7908699005552718
 40
0.813755978155363
 40
0.8403719872229217
 40
0.866147531169427
 40
0.8942430985381862
 40
0.9241075073983183
 40
0.9526831029567947
 40
0.9799039531522098
 40
1.0
 40
1.0
 40
1.0
 40
1.0
 10
61.01744124834263
 20
436.0852041714939
 30
0.0
 10
61.0176434360518
 20
436.0851650553841
 30
0.0
 10
61.01843742416048
 20
436.0825567490906
 30
0.0
 10
61.02052575949727
 20
436.0711900988359
 30
0.0
 10
61.02396845414371
 20
436.0476153948738
 30
0.0
 10
61.02912848290347
 20
436.0057816689579
 30
0.0
 10
61.03603762645047
 20
435.9415345537113
 30
0.0
 10
61.04479550263301
 20
435.8500269494349
 30
0.0
 10
61.05538233762096
 20
435.727607984003
 30
0.0
 10
61.06711574903378
 20
435.5788789397425
 30
0.0
 10
61.07828084913441
 20
435.4264927735755
 30
0.0
 10
61.08798019346911
 20
435.2875190797158
 30
0.0
 10
61.09621589314113
 20
435.1648244935663
 30
0.0
 10
61.10365858620164
 20
435.0511388410029
 30
0.0
 10
61.11087858617645
 20
434.9371883790881
 30
0.0
 10
61.11921417292487
 20
434.8048168189439
 30
0.0
 10
61.12936120824428
 20
434.6341207324629
 30
0.0
 10
61.14192617672575
 20
434.4261705214375
 30
0.0
 10
61.15530158871499
 20
434.1800281962422
 30
0.0
 10
61.17384132552773
 20
433.8665941680571
 30
0.0
 10
61.19496410612661
 20
433.4225297452806
 30
0.0
 10
61.23066062253138
 20
432.8333458755905
 30
0.0
 10
61.26230390030916
 20
432.0009978412246
 30
0.0
 10
61.3312367059005
 20
431.3169106241445
 30
0.0
 10
61.35932343136815
 20
430.78181386184
 30
0.0
 10
61.57914153594844
 20
430.4354267424927
 30
0.0
 10
62.17333336989893
 20
430.1150129573653
 30
0.0
 10
63.05950422064158
 20
429.8946259383859
 30
0.0
 10
64.3173145822388
 20
429.587528788713
 30
0.0
 10
65.98453198904738
 20
429.2587201924433
 30
0.0
 10
68.02836735414526
 20
428.9839906707883
 30
0.0
 10
70.45099973395477
 20
428.7321922438296
 30
0.0
 10
73.01941703698719
 20
428.5318230024851
 30
0.0
 10
75.50691640762639
 20
428.4983045176003
 30
0.0
 10
76.93871817721457
 20
428.5094030662864
 30
0.0
 10
77.65661422171323
 20
428.5086976531645
 30
0.0
  0
ARC
  5
87
330
75
100
AcDbEntity
  8
$DDT_AUDIT_GENERATED_(77)
  6
Continuous
 62
     7
100
AcDbCircle
 10
58.153841434
 20
442.5727268299
 30
0.0
 40
0.4926926538777059
100
AcDbArc
 50
92.8625649092
 51
180.930590108
  0
SPLINE
  5
88
330
75
100
AcDbEntity
  8
$DDT_AUDIT_GENERATED_(77)
  6
Continuous
 62
     7
100
AcDbSpline
210
0.0
220
0.0
230
1.0
 70
     8
 71
     3
 72
    40
 73
    36
 74
     0
 42
0.0000000004181932
 43
0.0000000001
 40
0.0
 40
0.0
 40
0.0
 40
0.0
 40
0.0200961227546505
 40
0.0473170757687673
 40
0.0758927792630934
 40
0.1057573009271867
 40
0.1338529744186288
 40
0.1596286157246207
 40
0.1862447253262728
 40
0.2091308893717458
 40
0.2325664632042155
 40
0.2554366798774287
 40
0.2771891724188743
 40
0.2993661691264644
 40
0.3629986422747506
 40
0.4108379665302215
 40
0.4587446474599247
 40
0.4992558081378257
 40
0.5310023207377267
 40
0.5575683130110584
 40
0.5795247222254196
 40
0.5993674651205684
 40
0.6166439203008282
 40
0.6302700239970186
 40
0.641466754847673
 40
0.662058765159446
 40
0.7071876755838788
 40
0.756726976997437
 40
0.7944610135553124
 40
0.8267892957664047
 40
0.855845345786366
 40
0.8792651927290986
 40
0.8975925064818192
 40
0.9113698756350648
 40
0.9208429985291139
 40
0.9208429985291139
 40
0.9208429985291139
 40
0.9208429985291139
 10
77.65655188467689
 20
428.5086976531645
 30
0.0
 10
78.37444792917536
 20
428.5094030662864
 30
0.0
 10
79.80617520932296
 20
428.4982909085784
 30
0.0
 10
82.29389045208976
 20
428.531848832976
 30
0.0
 10
84.86191325716868
 20
428.7321459981102
 30
0.0
 10
87.28526355490607
 20
428.9840756070417
 30
0.0
 10
89.32780971085994
 20
429.2585694334496
 30
0.0
 10
90.9974540452833
 20
429.5878226832037
 30
0.0
 10
92.25052633574451
 20
429.8940438845556
 30
0.0
 10
93.17620724998544
 20
430.1237342438755
 30
0.0
 10
93.80189032542705
 20
430.4815980165326
 30
0.0
 10
93.91555406894219
 20
430.7507538320886
 30
0.0
 10
93.95809683403843
 20
431.0664212026928
 30
0.0
 10
94.01351452566712
 20
431.4896042178094
 30
0.0
 10
94.04939261779612
 20
432.1280978401363
 30
0.0
 10
94.09019103963999
 20
432.9046019279219
 30
0.0
 10
94.118107444118
 20
433.4626308366933
 30
0.0
 10
94.14201877049817
 20
433.8982623496789
 30
0.0
 10
94.15948071071885
 20
434.2177274964797
 30
0.0
 10
94.17332104880349
 20
434.4571106465898
 30
0.0
 10
94.18442373430634
 20
434.6467579330838
 30
0.0
 10
94.19377936289581
 20
434.8006129172221
 30
0.0
 10
94.20146424046214
 20
434.9246298945189
 30
0.0
 10
94.20765774398267
 20
435.021963031228
 30
0.0
 10
94.21411183901259
 20
435.1217327264058
 30
0.0
 10
94.2246622150251
 20
435.2808413010861
 30
0.0
 10
94.23955237221637
 20
435.4935426996277
 30
0.0
 10
94.25503286362361
 20
435.6948596929149
 30
0.0
 10
94.26757939573216
 20
435.8415892886871
 30
0.0
 10
94.27691591275897
 20
435.9395587412642
 30
0.0
 10
94.28403789115826
 20
436.0057837701041
 30
0.0
 10
94.28919751545764
 20
436.0476143071775
 30
0.0
 10
94.29264041146541
 20
436.0711906300595
 30
0.0
 10
94.29472866388909
 20
436.0825565615335
 30
0.0
 10
94.29552265066108
 20
436.0851649548169
 30
0.0
 10
94.29572486334865
 20
436.0852042158528
 30
0.0
  0
SPLINE
  5
89
330
75
100
AcDbEntity
  8
$DDT_AUDIT_GENERATED_(77)
  6
Continuous
 62
     7
100
AcDbSpline
210
0.0
220
0.0
230
1.0
 70
     8
 71
     3
 72
    23
 73
    19
 74
     0
 42
0.0000000010422656
 43
0.0000000001
 40
0.0
 40
0.0
 40
0.0
 40
0.0
 40
0.084910919964747
 40
0.1888392160703148
 40
0.2822457231581604
 40
0.3648078927327824
 40
0.4195897611824426
 40
0.4703053373005261
 40
0.5241912369547631
 40
0.5823740761151935
 40
0.6131872229019723
 40
0.645163246921558
 40
0.6830816740207732
 40
0.7320714509856363
 40
0.7915521361551269
 40
0.8608241565797032
 40
0.9392135547890478
 40
1.0
 40
1.0
 40
1.0
 40
1.0
 10
89.80360823078911
 20
421.6534533167418
 30
0.0
 10
89.95292830297034
 20
421.9560328343475
 30
0.0
 10
90.23302876793674
 20
422.5244864986693
 30
0.0
 10
90.67310176231763
 20
423.4634892018828
 30
0.0
 10
91.08698564407715
 20
424.3681685538252
 30
0.0
 10
91.42152943277439
 20
425.114722072309
 30
0.0
 10
91.68746846110336
 20
425.7149398854744
 30
0.0
 10
91.90748272626492
 20
426.2151509653155
 30
0.0
 10
92.1155378483876
 20
426.6919022021839
 30
0.0
 10
92.28501258357811
 20
427.080996762843
 30
0.0
 10
92.42118034889477
 20
427.3925542517777
 30
0.0
 10
92.52912596388074
 20
427.6386096680197
 30
0.0
 10
92.65874090104889
 20
427.9310924451258
 30
0.0
 10
92.827042538286
 20
428.3050575749141
 30
0.0
 10
93.03715914709198
 20
428.7632002448919
 30
0.0
 10
93.28759160852258
 20
429.2973628291086
 30
0.0
 10
93.5539185470392
 20
429.8520206567669
 30
0.0
 10
93.7209783160434
 20
430.19439664871
 30
0.0
 10
93.80744412452992
 20
430.3713279045931
 30
0.0
  0
LINE
  5
8A
330
75
100
AcDbEntity
  8
$DDT_AUDIT_GENERATED_(77)
  6
Continuous
 62
     7
100
AcDbLine
 10
97.6565830532
 20
354.1683778426
 30
0.0
 11
97.6565830532
 21
442.5653462487
 31
0.0
  0
ARC
  5
8B
330
75
100
AcDbEntity
  8
$DDT_AUDIT_GENERATED_(77)
  6
Continuous
 62
     7
100
AcDbCircle
 10
97.1575065749
 20
442.5681222625
 30
0.0
 40
0.4974069145919959
100
AcDbArc
 50
359.9044602876
 51
86.9395035881
  0
SPLINE
  5
8C
330
75
100
AcDbEntity
  8
$DDT_AUDIT_GENERATED_(77)
  6
Continuous
 62
     7
100
AcDbSpline
210
0.0
220
0.0
230
1.0
 70
     8
 71
     3
 72
    25
 73
    21
 74
     0
 42
0.0000000010393284
 43
0.0000000001
 40
0.0
 40
0.0
 40
0.0
 40
0.0
 40
0.0454703236389495
 40
0.1078495878987195
 40
0.1614282829280904
 40
0.2058328851560945
 40
0.2406888476567481
 40
0.2657462912321328
 40
0.3216319015604651
 40
0.3708702986337543
 40
0.4133774644816551
 40
0.4539863374399231
 40
0.5004322325848126
 40
0.5531784877040058
 40
0.6214814228858198
 40
0.6985101020463297
 40
0.7835383826976183
 40
0.8730262981295324
 40
0.9662089711582543
 40
1.0
 40
1.0
 40
1.0
 40
1.0
 10
61.50637282524931
 20
430.3691740138547
 30
0.0
 10
61.5734630644355
 20
430.2310916258475
 30
0.0
 10
61.70786202277136
 20
429.9542086466767
 30
0.0
 10
61.92352144423742
 20
429.5072575827431
 30
0.0
 10
62.1262112713623
 20
429.080723318657
 30
0.0
 10
62.28934551956264
 20
428.7324165672953
 30
0.0
 10
62.41284356735611
 20
428.4650334046848
 30
0.0
 10
62.53621179239207
 20
428.1945325866575
 30
0.0
 10
62.65951173132051
 20
427.9187592582911
 30
0.0
 10
62.81675971834657
 20
427.5623744053789
 30
0.0
 10
62.9672151480253
 20
427.218763374543
 30
0.0
 10
63.12958610273736
 20
426.8477099339094
 30
0.0
 10
63.31348600705006
 20
426.4275998204711
 30
0.0
 10
63.54160317359106
 20
425.907848526207
 30
0.0
 10
63.81902556159082
 20
425.2794914443197
 30
0.0
 10
64.14965836606848
 20
424.538969173361
 30
0.0
 10
64.52035447486253
 20
423.7221743639238
 30
0.0
 10
64.92271226180556
 20
422.857975088691
 30
0.0
 10
65.26753294147528
 20
422.1332347462101
 30
0.0
 10
65.46070595480094
 20
421.7469461657059
 30
0.0
 10
65.52103233183914
 20
421.6263978527209
 30
0.0
  0
ELLIPSE
  5
8E
330
75
100
AcDbEntity
  8
02636038_GEHÄUSE
  6
Continuous
 62
     7
100
AcDbEllipse
 10
77.6565830532
 20
415.4717468068
 30
0.0
 11
10.05000000000001
 21
0.0
 31
0.0
210
0.0
220
0.0
230
1.0
 40
0.2923717047
 41
5.311724293266097
 42
6.283185307179586
  0
ELLIPSE
  5
8F
330
75
100
AcDbEntity
  8
02636038_GEHÄUSE
  6
Continuous
 62
     7
100
AcDbEllipse
 10
77.6565830532
 20
415.4717468068
 30
0.0
 11
10.05000000000001
 21
0.0
 31
0.0
210
0.0
220
0.0
230
1.0
 40
0.2923717047
 41
0.0
 42
4.113053667503282
  0
ELLIPSE
  5
90
330
75
100
AcDbEntity
  8
02636038_GEHÄUSE
  6
Continuous
 62
     7
100
AcDbEllipse
 10
77.6565830532
 20
415.4717468068
 30
0.0
 11
10.75000000000001
 21
0.0
 31
0.0
210
0.0
220
0.0
230
1.0
 40
0.2923717047
 41
0.0
 42
6.283185307179586
  0
LINE
  5
91
330
75
100
AcDbEntity
  8
02636038_GEHÄUSE
  6
Continuous
 62
     7
100
AcDbLine
 10
66.6565830532
 20
416.5316347689
 30
0.0
 11
66.6565830532
 21
415.0191939339
 31
0.0
  0
ELLIPSE
  5
92
330
75
100
AcDbEntity
  8
02636038_GEHÄUSE
  6
Continuous
 62
     7
100
AcDbEllipse
 10
77.6565830532
 20
416.6035985638
 30
0.0
 11
-11.80000000000004
 21
0.0
 31
0.0
210
0.0
220
0.0
230
1.0
 40
0.2923717047
 41
3.511935285681519
 42
5.912842675087867
  0
ELLIPSE
  5
93
330
75
100
AcDbEntity
  8
02636038_GEHÄUSE
  6
Continuous
 62
     7
100
AcDbEllipse
 10
77.6565830532
 20
418.3406610747
 30
0.0
 11
11.79999999999975
 21
0.0
 31
0.0
210
0.0
220
0.0
230
1.0
 40
0.2923717047
 41
2.771250021498072
 42
3.511935285681514
  0
LINE
  5
94
330
75
100
AcDbEntity
  8
02636038_GEHÄUSE
  6
Continuous
 62
     7
100
AcDbLine
 10
66.6565830532
 20
419.5893313027
 30
0.0
 11
66.6565830532
 21
417.8522687918
 31
0.0
  0
LINE
  5
95
330
75
100
AcDbEntity
  8
02636038_GEHÄUSE
  6
Continuous
 62
     7
100
AcDbLine
 10
66.6565830532
 20
417.8522687918
 30
0.0
 11
66.6565830532
 21
416.5316347689
 31
0.0
  0
LINE
  5
96
330
75
100
AcDbEntity
  8
02636038_GEHÄUSE
  6
Continuous
 62
     7
100
AcDbLine
 10
66.6565830532
 20
414.9393643953
 30
0.0
 11
66.6565830532
 21
415.0191939339
 31
0.0
  0
LINE
  5
97
330
75
100
AcDbEntity
  8
02636038_GEHÄUSE
  6
Continuous
 62
     7
100
AcDbLine
 10
88.6565830532
 20
415.0191939339
 30
0.0
 11
88.6565830532
 21
416.5316347689
 31
0.0
  0
ELLIPSE
  5
98
330
75
100
AcDbEntity
  8
02636038_GEHÄUSE
  6
Continuous
 62
     7
100
AcDbEllipse
 10
77.6565830532
 20
418.3406610747
 30
0.0
 11
-11.80000000000001
 21
0.0
 31
0.0
210
0.0
220
0.0
230
1.0
 40
0.2923717047
 41
2.771250021498072
 42
3.51193528568151
  0
LINE
  5
99
330
75
100
AcDbEntity
  8
02636038_GEHÄUSE
  6
Continuous
 62
     7
100
AcDbLine
 10
88.6565830532
 20
415.0191939339
 30
0.0
 11
88.6565830532
 21
414.939138959
 31
0.0
  0
LINE
  5
9A
330
75
100
AcDbEntity
  8
02636038_GEHÄUSE
  6
Continuous
 62
     7
100
AcDbLine
 10
88.6565830532
 20
416.5316347689
 30
0.0
 11
88.6565830532
 21
417.8522687918
 31
0.0
  0
LINE
  5
9B
330
75
100
AcDbEntity
  8
02636038_GEHÄUSE
  6
Continuous
 62
     7
100
AcDbLine
 10
88.6565830532
 20
417.8522687918
 30
0.0
 11
88.6565830532
 21
419.5893313027
 31
0.0
  0
LINE
  5
9C
330
75
100
AcDbEntity
  8
02636038_GEHÄUSE
  6
Continuous
 62
     7
100
AcDbLine
 10
68.0709704791
 20
414.0259164126
 30
0.0
 11
68.5375268433
 21
413.8074014226
 31
0.0
  0
LINE
  5
9D
330
75
100
AcDbEntity
  8
02636038_GEHÄUSE
  6
Continuous
 62
     7
100
AcDbLine
 10
86.7756392631
 20
413.8074014226
 30
0.0
 11
87.2421956273
 21
414.0259164126
 31
0.0
  0
ARC
  5
9E
330
75
100
AcDbEntity
  8
02636038_GEHÄUSE
  6
Continuous
 62
     7
100
AcDbCircle
 10
85.1334587191
 20
418.8160082962
 30
0.0
 40
5.234053398212254
100
AcDbArc
 50
292.9239549999
 51
312.2610642193
  0
ARC
  5
9F
330
75
100
AcDbEntity
  8
02636038_GEHÄUSE
  6
Continuous
 62
     7
100
AcDbCircle
 10
70.1800344859
 20
418.8452541641
 30
0.0
 40
5.259064205933164
100
AcDbArc
 50
227.9154780146
 51
246.8147251811
  0
LINE
  5
A0
330
75
100
AcDbEntity
  8
02636038_GEHÄUSE
  6
Continuous
 62
     7
100
AcDbLine
 10
65.8565830532
 20
422.6335318408
 30
0.0
 11
65.8565830532
 21
418.3406610747
 31
0.0
  0
LINE
  5
A1
330
75
100
AcDbEntity
  8
02636038_GEHÄUSE
  6
Continuous
 62
     7
100
AcDbLine
 10
89.4565830532
 20
418.3406610747
 30
0.0
 11
89.4565830532
 21
422.633531843
 31
0.0
  0
ELLIPSE
  5
A3
330
75
100
AcDbEntity
  8
$DDT_AUDIT_GENERATED_(A2)
  6
Continuous
 62
     7
100
AcDbEllipse
 10
77.6565830532
 20
415.0892249044
 30
0.0
 11
-9.0
 21
-1.387778780781446E-14
 31
0.0
210
0.0
220
0.0
230
1.0
 40
0.2923717047
 41
0.0
 42
6.283185307179586
  0
ELLIPSE
  5
A4
330
75
100
AcDbEntity
  8
$DDT_AUDIT_GENERATED_(A2)
  6
Continuous
 62
     7
100
AcDbEllipse
 10
77.6565830532
 20
415.0892249044
 30
0.0
 11
-5.250000000000001
 21
-1.387778780781446E-14
 31
0.0
210
0.0
220
0.0
230
1.0
 40
0.2923717047
 41
0.0
 42
6.283185307179586
  0
ELLIPSE
  5
A5
330
75
100
AcDbEntity
  8
$DDT_AUDIT_GENERATED_(A2)
  6
Continuous
 62
     7
100
AcDbEllipse
 10
77.6565830532
 20
415.0892249044
 30
0.0
 11
-6.249999999999998
 21
-1.387778780781446E-14
 31
0.0
210
0.0
220
0.0
230
1.0
 40
0.2923717047
 41
0.0
 42
6.283185307179586
  0
ELLIPSE
  5
A6
330
75
100
AcDbEntity
  8
$DDT_AUDIT_GENERATED_(A2)
  6
Continuous
 62
     7
100
AcDbEllipse
 10
77.6565830532
 20
415.0892249044
 30
0.0
 11
2.750000000000002
 21
0.0
 31
0.0
210
0.0
220
0.0
230
1.0
 40
0.2923717047
 41
0.0
 42
6.283185307179586
  0
ELLIPSE
  5
A7
330
75
100
AcDbEntity
  8
$DDT_AUDIT_GENERATED_(A2)
  6
Continuous
 62
     7
100
AcDbEllipse
 10
77.6565830532
 20
415.0892249044
 30
0.0
 11
2.15
 21
0.0
 31
0.0
210
0.0
220
0.0
230
1.0
 40
0.2923717047
 41
0.0
 42
6.283185307179586
  0
ELLIPSE
  5
A8
330
75
100
AcDbEntity
  8
$DDT_AUDIT_GENERATED_(A2)
  6
Continuous
 62
     7
100
AcDbEllipse
 10
77.6565830532
 20
415.2804858556
 30
0.0
 11
0.5196299438963559
 21
0.0
 31
0.0
210
0.0
220
0.0
230
1.0
 40
0.2923717047
 41
0.0
 42
6.283185307179586
  0
ELLIPSE
  5
A9
330
75
100
AcDbEntity
  8
$DDT_AUDIT_GENERATED_(A2)
  6
Continuous
 62
     7
100
AcDbEllipse
 10
77.6565830532
 20
415.0892249044
 30
0.0
 11
-8.699999999999999
 21
0.0
 31
0.0
210
0.0
220
0.0
230
1.0
 40
0.2923717047
 41
0.0
 42
6.283185307179586
  0
ARC
  5
AA
330
75
100
AcDbEntity
  8
$DDT_AUDIT_GENERATED_(A2)
  6
Continuous
 62
     7
100
AcDbCircle
 10
85.4294547657
 20
415.2804858556
 30
0.0
 40
0.7271280698718352
100
AcDbArc
 50
357.6955666204
 51
2.3044333796
  0
ARC
  5
AB
330
75
100
AcDbEntity
  8
$DDT_AUDIT_GENERATED_(A2)
  6
Continuous
 62
     7
100
AcDbCircle
 10
83.3715938056
 20
415.2804858556
 30
0.0
 40
0.5349887005406391
100
AcDbArc
 50
0.0
 51
3.1327791492
  0
ELLIPSE
  5
AC
330
75
100
AcDbEntity
  8
$DDT_AUDIT_GENERATED_(A2)
  6
Continuous
 62
     7
100
AcDbEllipse
 10
77.6565830532
 20
415.2804858556
 30
0.0
 11
8.49999999999774
 21
4.302114220422482E-13
 31
0.0
210
0.0
220
0.0
230
1.0
 40
0.2923717047
 41
0.0117649772880742
 42
0.2500344105110833
  0
LINE
  5
AD
330
75
100
AcDbEntity
  8
$DDT_AUDIT_GENERATED_(A2)
  6
Continuous
 62
     7
100
AcDbLine
 10
83.9065830532
 20
415.2512486852
 30
0.0
 11
86.1559947975
 21
415.2512486852
 31
0.0
  0
LINE
  5
AE
330
75
100
AcDbEntity
  8
$DDT_AUDIT_GENERATED_(A2)
  6
Continuous
 62
     7
100
AcDbLine
 10
83.905783002
 20
415.3097230261
 30
0.0
 11
86.1559947975
 21
415.3097230261
 31
0.0
  0
LINE
  5
AF
330
75
100
AcDbEntity
  8
$DDT_AUDIT_GENERATED_(A2)
  6
Continuous
 62
     7
100
AcDbLine
 10
83.905783002
 20
415.3097230261
 30
0.0
 11
83.905783002
 21
415.7397843964
 31
0.0
  0
ELLIPSE
  5
B0
330
75
100
AcDbEntity
  8
$DDT_AUDIT_GENERATED_(A2)
  6
Continuous
 62
     7
100
AcDbEllipse
 10
77.6565830532
 20
415.5169781409
 30
0.0
 11
-0.5196299438963525
 21
0.0
 31
0.0
210
0.0
220
0.0
230
1.0
 40
0.2923717047
 41
3.141592653589793
 42
3.64351493461408
  0
LINE
  5
B1
330
75
100
AcDbEntity
  8
$DDT_AUDIT_GENERATED_(A2)
  6
Continuous
 62
     7
100
AcDbLine
 10
78.1121215023
 20
415.5900710671
 30
0.0
 11
78.1121215023
 21
415.7035523843
 31
0.0
  0
LINE
  5
B2
330
75
100
AcDbEntity
  8
$DDT_AUDIT_GENERATED_(A2)
  6
Continuous
 62
     7
100
AcDbLine
 10
78.9558034335
 20
415.5900710671
 30
0.0
 11
78.1121215023
 21
415.5900710671
 31
0.0
  0
LINE
  5
B3
330
75
100
AcDbEntity
  8
$DDT_AUDIT_GENERATED_(A2)
  6
Continuous
 62
     7
100
AcDbLine
 10
79.4316941877
 20
415.4438852147
 30
0.0
 11
78.1762129971
 21
415.4438852147
 31
0.0
  0
LINE
  5
B4
330
75
100
AcDbEntity
  8
$DDT_AUDIT_GENERATED_(A2)
  6
Continuous
 62
     7
100
AcDbLine
 10
76.8053815789
 20
414.9397416086
 30
0.0
 11
77.2747613504
 21
415.1774367675
 31
0.0
  0
LINE
  5
B5
330
75
100
AcDbEntity
  8
$DDT_AUDIT_GENERATED_(A2)
  6
Continuous
 62
     7
100
AcDbLine
 10
76.372368877
 20
415.0128345348
 30
0.0
 11
77.1369531093
 21
415.4000220141
 31
0.0
  0
ELLIPSE
  5
B6
330
75
100
AcDbEntity
  8
$DDT_AUDIT_GENERATED_(A2)
  6
Continuous
 62
     7
100
AcDbEllipse
 10
77.6565830532
 20
415.5169781409
 30
0.0
 11
-2.14999999999764
 21
5.551115123125783E-13
 31
0.0
210
0.0
220
0.0
230
1.0
 40
0.2923717047
 41
0.930654842747625
 42
1.163740259646509
  0
LINE
  5
B7
330
75
100
AcDbEntity
  8
$DDT_AUDIT_GENERATED_(A2)
  6
Continuous
 62
     7
100
AcDbLine
 10
76.372368877
 20
415.5933685105
 30
0.0
 11
76.372368877
 21
415.0128345348
 31
0.0
  0
ELLIPSE
  5
B8
330
75
100
AcDbEntity
  8
$DDT_AUDIT_GENERATED_(A2)
  6
Continuous
 62
     7
100
AcDbEllipse
 10
77.6565830532
 20
415.5169781409
 30
0.0
 11
-0.5196299438963573
 21
0.0
 31
0.0
210
0.0
220
0.0
230
1.0
 40
0.2923717047
 41
4.734065474958729
 42
5.737910037007259
  0
LINE
  5
B9
330
75
100
AcDbEntity
  8
$DDT_AUDIT_GENERATED_(A2)
  6
Continuous
 62
     7
100
AcDbLine
 10
77.0259019977
 20
415.6901708447
 30
0.0
 11
77.2123074777
 21
415.5957746161
 31
0.0
  0
LINE
  5
BA
330
75
100
AcDbEntity
  8
$DDT_AUDIT_GENERATED_(A2)
  6
Continuous
 62
     7
100
AcDbLine
 10
77.55016652
 20
415.7170536074
 30
0.0
 11
77.6453201796
 21
415.6688675423
 31
0.0
  0
LINE
  5
BB
330
75
100
AcDbEntity
  8
$DDT_AUDIT_GENERATED_(A2)
  6
Continuous
 62
     7
100
AcDbLine
 10
77.6453201796
 20
415.6688675423
 30
0.0
 11
77.6453201796
 21
415.7178154444
 31
0.0
  0
ELLIPSE
  5
BC
330
75
100
AcDbEntity
  8
$DDT_AUDIT_GENERATED_(A2)
  6
Continuous
 62
     7
100
AcDbEllipse
 10
77.656583509
 20
415.2804858199
 30
0.0
 11
8.499999543926677
 21
3.778471979742903E-8
 31
0.0
210
0.0
220
0.0
230
1.0
 40
0.2923717117
 41
-0.273564373653322
 42
-0.2500344184240282
  0
ELLIPSE
  5
BD
330
75
100
AcDbEntity
  8
$DDT_AUDIT_GENERATED_(A2)
  6
Continuous
 62
     7
100
AcDbEllipse
 10
77.6565830532
 20
415.2804858556
 30
0.0
 11
8.499999999966999
 21
1.915134717478395E-12
 31
0.0
210
0.0
220
0.0
230
1.0
 40
0.2923717047
 41
6.033150896667969
 42
6.271420329891437
  0
LINE
  5
BE
330
75
100
AcDbEntity
  8
$DDT_AUDIT_GENERATED_(A2)
  6
Continuous
 62
     7
100
AcDbLine
 10
85.8922662698
 20
414.6655647016
 30
0.0
 11
85.8922662698
 21
415.2512486852
 31
0.0
  0
LINE
  5
BF
330
75
100
AcDbEntity
  8
$DDT_AUDIT_GENERATED_(A2)
  6
Continuous
 62
     7
100
AcDbLine
 10
83.8093799038
 20
414.7682025147
 30
0.0
 11
85.8405024608
 21
414.6090828255
 31
0.0
  0
LINE
  5
C0
330
75
100
AcDbEntity
  8
$DDT_AUDIT_GENERATED_(A2)
  6
Continuous
 62
     7
100
AcDbLine
 10
83.8415093766
 20
414.8262225597
 30
0.0
 11
85.8922662698
 21
414.6655647016
 31
0.0
  0
ELLIPSE
  5
C1
330
75
100
AcDbEntity
  8
$DDT_AUDIT_GENERATED_(A2)
  6
Continuous
 62
     7
100
AcDbEllipse
 10
77.6565834915
 20
415.2804857816
 30
0.0
 11
8.499999557134599
 21
7.011816127722170E-8
 31
0.0
210
0.0
220
0.0
230
1.0
 40
0.2923717091
 41
-0.535363768539419
 42
-0.5118338132626175
  0
ELLIPSE
  5
C2
330
75
100
AcDbEntity
  8
$DDT_AUDIT_GENERATED_(A2)
  6
Continuous
 62
     7
100
AcDbEllipse
 10
77.6565830531
 20
415.2804858556
 30
0.0
 11
8.500000000048828
 21
-6.633582572135310E-12
 31
0.0
210
0.0
220
0.0
230
1.0
 40
0.2923717047
 41
-0.5118337983085084
 42
-0.2735643650862798
  0
LINE
  5
C3
330
75
100
AcDbEntity
  8
$DDT_AUDIT_GENERATED_(A2)
  6
Continuous
 62
     7
100
AcDbLine
 10
85.067289541
 20
414.0633122376
 30
0.0
 11
85.067289541
 21
414.669656915
 31
0.0
  0
LINE
  5
C4
330
75
100
AcDbEntity
  8
$DDT_AUDIT_GENERATED_(A2)
  6
Continuous
 62
     7
100
AcDbLine
 10
83.287405769
 20
414.2962378359
 30
0.0
 11
84.967289541
 21
414.0126719729
 31
0.0
  0
LINE
  5
C5
330
75
100
AcDbEntity
  8
$DDT_AUDIT_GENERATED_(A2)
  6
Continuous
 62
     7
100
AcDbLine
 10
83.3716387249
 20
414.3495395916
 30
0.0
 11
85.067289541
 21
414.0633122376
 31
0.0
  0
ELLIPSE
  5
C6
330
75
100
AcDbEntity
  8
$DDT_AUDIT_GENERATED_(A2)
  6
Continuous
 62
     7
100
AcDbEllipse
 10
77.6565834111
 20
415.2804857509
 30
0.0
 11
8.499999620398233
 21
8.095250858541903E-8
 31
0.0
210
0.0
220
0.0
230
1.0
 40
0.2923717047
 41
-0.7971631587033468
 42
-0.773633203426523
  0
ELLIPSE
  5
C7
330
75
100
AcDbEntity
  8
$DDT_AUDIT_GENERATED_(A2)
  6
Continuous
 62
     7
100
AcDbEllipse
 10
77.6565830532
 20
415.2804858556
 30
0.0
 11
8.499999999994721
 21
1.956768080901838E-12
 31
0.0
210
0.0
220
0.0
230
1.0
 40
0.2923717047
 41
-0.7736331861096515
 42
-0.5353637528865942
  0
LINE
  5
C8
330
75
100
AcDbEntity
  8
$DDT_AUDIT_GENERATED_(A2)
  6
Continuous
 62
     7
100
AcDbLine
 10
83.7372854118
 20
413.5440081441
 30
0.0
 11
83.7372854118
 21
414.2202977552
 31
0.0
  0
LINE
  5
C9
330
75
100
AcDbEntity
  8
$DDT_AUDIT_GENERATED_(A2)
  6
Continuous
 62
     7
100
AcDbLine
 10
82.3249324864
 20
413.8742449706
 30
0.0
 11
83.5958640556
 21
413.5026605411
 31
0.0
  0
LINE
  5
CA
330
75
100
AcDbEntity
  8
$DDT_AUDIT_GENERATED_(A2)
  6
Continuous
 62
     7
100
AcDbLine
 10
82.4558569711
 20
413.9186615618
 30
0.0
 11
83.7372854118
 21
413.5440081441
 31
0.0
  0
ELLIPSE
  5
CB
330
75
100
AcDbEntity
  8
$DDT_AUDIT_GENERATED_(A2)
  6
Continuous
 62
     7
100
AcDbEllipse
 10
77.6565832722
 20
415.2804857448
 30
0.0
 11
8.499999726266942
 21
6.063392843369542E-8
 31
0.0
210
0.0
220
0.0
230
1.0
 40
0.292371701
 41
-1.058962542037595
 42
-1.035432586855297
  0
ELLIPSE
  5
CC
330
75
100
AcDbEntity
  8
$DDT_AUDIT_GENERATED_(A2)
  6
Continuous
 62
     7
100
AcDbEllipse
 10
77.6565830532
 20
415.2804858556
 30
0.0
 11
8.499999999981195
 21
4.427014310692812E-12
 31
0.0
210
0.0
220
0.0
230
1.0
 40
0.2923717047
 41
-1.035432573909635
 42
-0.7971631406862771
  0
LINE
  5
CD
330
75
100
AcDbEntity
  8
$DDT_AUDIT_GENERATED_(A2)
  6
Continuous
 62
     7
100
AcDbLine
 10
81.9928914657
 20
413.1430421371
 30
0.0
 11
81.9928914657
 21
413.7732621885
 31
0.0
  0
LINE
  5
CE
330
75
100
AcDbEntity
  8
$DDT_AUDIT_GENERATED_(A2)
  6
Continuous
 62
     7
100
AcDbLine
 10
80.9761812689
 20
413.5409581904
 30
0.0
 11
81.819686385
 21
413.1138049666
 31
0.0
  0
LINE
  5
CF
330
75
100
AcDbEntity
  8
$DDT_AUDIT_GENERATED_(A2)
  6
Continuous
 62
     7
100
AcDbLine
 10
81.1441451295
 20
413.5728495286
 30
0.0
 11
81.9928914657
 21
413.1430421371
 31
0.0
  0
ELLIPSE
  5
D0
330
75
100
AcDbEntity
  8
$DDT_AUDIT_GENERATED_(A2)
  6
Continuous
 62
     7
100
AcDbEllipse
 10
77.656583171
 20
415.2804857271
 30
0.0
 11
8.499999757280454
 21
3.637981582649275E-8
 31
0.0
210
0.0
220
0.0
230
1.0
 40
0.2923716979
 41
-1.320761924545968
 42
-1.297231969340082
  0
ELLIPSE
  5
D1
330
75
100
AcDbEntity
  8
$DDT_AUDIT_GENERATED_(A2)
  6
Continuous
 62
     7
100
AcDbEllipse
 10
77.6565830532
 20
415.2804858556
 30
0.0
 11
8.500000000018931
 21
-3.622102617839573E-12
 31
0.0
210
0.0
220
0.0
230
1.0
 40
0.2923717047
 41
-1.297231961706626
 42
-1.058962528484125
  0
LINE
  5
D2
330
75
100
AcDbEntity
  8
$DDT_AUDIT_GENERATED_(A2)
  6
Continuous
 62
     7
100
AcDbLine
 10
79.9529852674
 20
412.8877393871
 30
0.0
 11
79.9529852674
 21
413.389716775
 31
0.0
  0
LINE
  5
D3
330
75
100
AcDbEntity
  8
$DDT_AUDIT_GENERATED_(A2)
  6
Continuous
 62
     7
100
AcDbLine
 10
79.3410526584
 20
413.329519736
 30
0.0
 11
79.7598001022
 21
412.872605114
 31
0.0
  0
LINE
  5
D4
330
75
100
AcDbEntity
  8
$DDT_AUDIT_GENERATED_(A2)
  6
Continuous
 62
     7
100
AcDbLine
 10
79.5328348533
 20
413.3461848547
 30
0.0
 11
79.9529852674
 21
412.8877393871
 31
0.0
  0
ARC
  5
D5
330
75
100
AcDbEntity
  8
$DDT_AUDIT_GENERATED_(A2)
  6
Continuous
 62
     7
100
AcDbCircle
 10
77.6565830532
 20
441.8660671105
 30
0.0
 40
29.07074075041887
100
AcDbArc
 50
269.8029087287
 51
270.1970912713
  0
ELLIPSE
  5
D6
330
75
100
AcDbEntity
  8
$DDT_AUDIT_GENERATED_(A2)
  6
Continuous
 62
     7
100
AcDbEllipse
 10
77.6565830532
 20
415.2804858556
 30
0.0
 11
8.500000000003608
 21
-4.996003610813204E-13
 31
0.0
210
0.0
220
0.0
230
1.0
 40
0.2923717047
 41
4.724153957672913
 42
4.962423390895784
  0
LINE
  5
D7
330
75
100
AcDbEntity
  8
$DDT_AUDIT_GENERATED_(A2)
  6
Continuous
 62
     7
100
AcDbLine
 10
77.5565830532
 20
413.2621356623
 30
0.0
 11
77.5565830532
 21
412.7954983548
 31
0.0
  0
LINE
  5
D8
330
75
100
AcDbEntity
  8
$DDT_AUDIT_GENERATED_(A2)
  6
Continuous
 62
     7
100
AcDbLine
 10
77.7565830532
 20
413.2621356623
 30
0.0
 11
77.7565830532
 21
412.7954983548
 31
0.0
  0
ELLIPSE
  5
D9
330
75
100
AcDbEntity
  8
$DDT_AUDIT_GENERATED_(A2)
  6
Continuous
 62
     7
100
AcDbEllipse
 10
77.6565829335
 20
415.280485725
 30
0.0
 11
-8.499999753227794
 21
3.697531170132606E-8
 31
0.0
210
0.0
220
0.0
230
1.0
 40
0.2923716978
 41
1.297231969460907
 42
1.320761924677351
  0
ELLIPSE
  5
DA
330
75
100
AcDbEntity
  8
$DDT_AUDIT_GENERATED_(A2)
  6
Continuous
 62
     7
100
AcDbEllipse
 10
77.6565830532
 20
415.2804858556
 30
0.0
 11
-8.499999999993889
 21
7.077671781985373E-13
 31
0.0
210
0.0
220
0.0
230
1.0
 40
0.2923717047
 41
1.320761916283884
 42
1.559031349507019
  0
LINE
  5
DB
330
75
100
AcDbEntity
  8
$DDT_AUDIT_GENERATED_(A2)
  6
Continuous
 62
     7
100
AcDbLine
 10
75.360180839
 20
412.8877393871
 30
0.0
 11
75.360180839
 21
413.389716775
 31
0.0
  0
LINE
  5
DC
330
75
100
AcDbEntity
  8
$DDT_AUDIT_GENERATED_(A2)
  6
Continuous
 62
     7
100
AcDbLine
 10
75.7803312531
 20
413.3461848547
 30
0.0
 11
75.360180839
 21
412.8877393871
 31
0.0
  0
LINE
  5
DD
330
75
100
AcDbEntity
  8
$DDT_AUDIT_GENERATED_(A2)
  6
Continuous
 62
     7
100
AcDbLine
 10
75.972113448
 20
413.329519736
 30
0.0
 11
75.5533660042
 21
412.872605114
 31
0.0
  0
ELLIPSE
  5
DE
330
75
100
AcDbEntity
  8
$DDT_AUDIT_GENERATED_(A2)
  6
Continuous
 62
     7
100
AcDbEllipse
 10
77.6565828262
 20
415.2804857407
 30
0.0
 11
-8.499999716246446
 21
6.284008036150368E-8
 31
0.0
210
0.0
220
0.0
230
1.0
 40
0.2923717008
 41
1.035432587318539
 42
1.058962542523126
  0
ELLIPSE
  5
DF
330
75
100
AcDbEntity
  8
$DDT_AUDIT_GENERATED_(A2)
  6
Continuous
 62
     7
100
AcDbEllipse
 10
77.6565830532
 20
415.2804858556
 30
0.0
 11
-8.500000000005791
 21
-1.068589661201713E-12
 31
0.0
210
0.0
220
0.0
230
1.0
 40
0.2923717047
 41
1.058962528484517
 42
1.297231961707341
  0
LINE
  5
E0
330
75
100
AcDbEntity
  8
$DDT_AUDIT_GENERATED_(A2)
  6
Continuous
 62
     7
100
AcDbLine
 10
73.3202746406
 20
413.1430421371
 30
0.0
 11
73.3202746406
 21
413.7732621885
 31
0.0
  0
LINE
  5
E1
330
75
100
AcDbEntity
  8
$DDT_AUDIT_GENERATED_(A2)
  6
Continuous
 62
     7
100
AcDbLine
 10
74.1690209769
 20
413.5728495286
 30
0.0
 11
73.3202746406
 21
413.1430421371
 31
0.0
  0
LINE
  5
E2
330
75
100
AcDbEntity
  8
$DDT_AUDIT_GENERATED_(A2)
  6
Continuous
 62
     7
100
AcDbLine
 10
74.3369848375
 20
413.5409581904
 30
0.0
 11
73.4934797214
 21
413.1138049666
 31
0.0
  0
ELLIPSE
  5
E3
330
75
100
AcDbEntity
  8
$DDT_AUDIT_GENERATED_(A2)
  6
Continuous
 62
     7
100
AcDbEllipse
 10
77.6565827436
 20
415.280485765
 30
0.0
 11
-8.499999671604085
 21
7.003880808653662E-8
 31
0.0
210
0.0
220
0.0
230
1.0
 40
0.2923717047
 41
0.7736332010909696
 42
0.7971631562732756
  0
ELLIPSE
  5
E4
330
75
100
AcDbEntity
  8
$DDT_AUDIT_GENERATED_(A2)
  6
Continuous
 62
     7
100
AcDbEllipse
 10
77.6565830532
 20
415.2804858556
 30
0.0
 11
-8.500000000019652
 21
-4.302114220422482E-12
 31
0.0
210
0.0
220
0.0
230
1.0
 40
0.2923717047
 41
0.7971631406847637
 42
1.035432573907332
  0
LINE
  5
E5
330
75
100
AcDbEntity
  8
$DDT_AUDIT_GENERATED_(A2)
  6
Continuous
 62
     7
100
AcDbLine
 10
71.5758806945
 20
413.5440081441
 30
0.0
 11
71.5758806945
 21
414.2202977552
 31
0.0
  0
LINE
  5
E6
330
75
100
AcDbEntity
  8
$DDT_AUDIT_GENERATED_(A2)
  6
Continuous
 62
     7
100
AcDbLine
 10
72.8573091353
 20
413.9186615618
 30
0.0
 11
71.5758806945
 21
413.5440081441
 31
0.0
  0
LINE
  5
E7
330
75
100
AcDbEntity
  8
$DDT_AUDIT_GENERATED_(A2)
  6
Continuous
 62
     7
100
AcDbLine
 10
72.9882336199
 20
413.8742449706
 30
0.0
 11
71.7173020508
 21
413.5026605411
 31
0.0
  0
ELLIPSE
  5
E8
330
75
100
AcDbEntity
  8
$DDT_AUDIT_GENERATED_(A2)
  6
Continuous
 62
     7
100
AcDbEllipse
 10
77.6565826744
 20
415.2804857917
 30
0.0
 11
-8.499999617325811
 21
6.054731715998685E-8
 31
0.0
210
0.0
220
0.0
230
1.0
 40
0.2923717085
 41
0.5118338112293127
 42
0.5353637664108749
  0
ELLIPSE
  5
E9
330
75
100
AcDbEntity
  8
$DDT_AUDIT_GENERATED_(A2)
  6
Continuous
 62
     7
100
AcDbEllipse
 10
77.6565830532
 20
415.2804858556
 30
0.0
 11
-8.500000000021727
 21
-4.052314039881821E-12
 31
0.0
210
0.0
220
0.0
230
1.0
 40
0.2923717047
 41
0.5353637528856713
 42
0.7736331861082644
  0
LINE
  5
EA
330
75
100
AcDbEntity
  8
$DDT_AUDIT_GENERATED_(A2)
  6
Continuous
 62
     7
100
AcDbLine
 10
70.2458765654
 20
414.0633122376
 30
0.0
 11
70.2458765654
 21
414.669656915
 31
0.0
  0
LINE
  5
EB
330
75
100
AcDbEntity
  8
$DDT_AUDIT_GENERATED_(A2)
  6
Continuous
 62
     7
100
AcDbLine
 10
71.9415273814
 20
414.3495395916
 30
0.0
 11
70.2458765654
 21
414.0633122376
 31
0.0
  0
LINE
  5
EC
330
75
100
AcDbEntity
  8
$DDT_AUDIT_GENERATED_(A2)
  6
Continuous
 62
     7
100
AcDbLine
 10
72.0257603374
 20
414.2962378359
 30
0.0
 11
70.3458765654
 21
414.0126719729
 31
0.0
  0
ELLIPSE
  5
ED
330
75
100
AcDbEntity
  8
$DDT_AUDIT_GENERATED_(A2)
  6
Continuous
 62
     7
100
AcDbEllipse
 10
77.6565826304
 20
415.2804858224
 30
0.0
 11
-8.499999576953639
 21
3.505322421215595E-8
 31
0.0
210
0.0
220
0.0
230
1.0
 40
0.2923717112
 41
0.2500344178508561
 42
0.273564373032892
  0
ELLIPSE
  5
EE
330
75
100
AcDbEntity
  8
$DDT_AUDIT_GENERATED_(A2)
  6
Continuous
 62
     7
100
AcDbEllipse
 10
77.6565830532
 20
415.2804858556
 30
0.0
 11
-8.500000000023869
 21
-2.595146320061303E-12
 31
0.0
210
0.0
220
0.0
230
1.0
 40
0.2923717047
 41
0.2735643650867826
 42
0.5118337983093945
  0
LINE
  5
EF
330
75
100
AcDbEntity
  8
$DDT_AUDIT_GENERATED_(A2)
  6
Continuous
 62
     7
100
AcDbLine
 10
69.4208998366
 20
414.6655647016
 30
0.0
 11
69.4208998366
 21
415.2512486852
 31
0.0
  0
LINE
  5
F0
330
75
100
AcDbEntity
  8
$DDT_AUDIT_GENERATED_(A2)
  6
Continuous
 62
     7
100
AcDbLine
 10
71.4716567298
 20
414.8262225597
 30
0.0
 11
69.4208998366
 21
414.6655647016
 31
0.0
  0
LINE
  5
F1
330
75
100
AcDbEntity
  8
$DDT_AUDIT_GENERATED_(A2)
  6
Continuous
 62
     7
100
AcDbLine
 10
71.5037862026
 20
414.7682025147
 30
0.0
 11
69.4726636456
 21
414.6090828255
 31
0.0
  0
ARC
  5
F2
330
75
100
AcDbEntity
  8
$DDT_AUDIT_GENERATED_(A2)
  6
Continuous
 62
     7
100
AcDbCircle
 10
69.8837113407
 20
415.2804858556
 30
0.0
 40
0.7271280698707648
100
AcDbArc
 50
177.6955666204
 51
182.3044333796
  0
ELLIPSE
  5
F3
330
75
100
AcDbEntity
  8
$DDT_AUDIT_GENERATED_(A2)
  6
Continuous
 62
     7
100
AcDbEllipse
 10
77.6565830532
 20
415.2804858556
 30
0.0
 11
-8.499999999995673
 21
1.665334536937735E-13
 31
0.0
210
0.0
220
0.0
230
1.0
 40
0.2923717047
 41
0.011764977288027
 42
0.2500344105111246
  0
ARC
  5
F4
330
75
100
AcDbEntity
  8
$DDT_AUDIT_GENERATED_(A2)
  6
Continuous
 62
     7
100
AcDbCircle
 10
71.9415723008
 20
415.2804858556
 30
0.0
 40
0.5349887005404937
100
AcDbArc
 50
176.8672208508
 51
180.0
  0
LINE
  5
F5
330
75
100
AcDbEntity
  8
$DDT_AUDIT_GENERATED_(A2)
  6
Continuous
 62
     7
100
AcDbLine
 10
71.4073831044
 20
415.3097230261
 30
0.0
 11
71.4073831044
 21
415.7397843964
 31
0.0
  0
LINE
  5
F6
330
75
100
AcDbEntity
  8
$DDT_AUDIT_GENERATED_(A2)
  6
Continuous
 62
     7
100
AcDbLine
 10
71.4073831044
 20
415.3097230261
 30
0.0
 11
69.1571713088
 21
415.3097230261
 31
0.0
  0
LINE
  5
F7
330
75
100
AcDbEntity
  8
$DDT_AUDIT_GENERATED_(A2)
  6
Continuous
 62
     7
100
AcDbLine
 10
71.4065830532
 20
415.2512486852
 30
0.0
 11
69.1571713088
 21
415.2512486852
 31
0.0
  0
ELLIPSE
  5
F8
330
75
100
AcDbEntity
  8
$DDT_AUDIT_GENERATED_(A2)
  6
Continuous
 62
     7
100
AcDbEllipse
 10
77.6565826635
 20
415.2804858861
 30
0.0
 11
-8.499999610086929
 21
-3.220725075525621E-8
 31
0.0
210
0.0
220
0.0
230
1.0
 40
0.2923717107
 41
-0.2735643724082095
 42
-0.2500344172737172
  0
ELLIPSE
  5
F9
330
75
100
AcDbEntity
  8
$DDT_AUDIT_GENERATED_(A2)
  6
Continuous
 62
     7
100
AcDbEllipse
 10
77.6565830532
 20
415.2804858556
 30
0.0
 11
-8.50000000003406
 21
9.020562075079397E-13
 31
0.0
210
0.0
220
0.0
230
1.0
 40
0.2923717047
 41
6.033150896669057
 42
6.271420329891578
  0
ELLIPSE
  5
FA
330
75
100
AcDbEntity
  8
$DDT_AUDIT_GENERATED_(A2)
  6
Continuous
 62
     7
100
AcDbEllipse
 10
77.6565831091
 20
415.2804858513
 30
0.0
 11
-6.250000055905962
 21
4.619221671831042E-9
 31
0.0
210
0.0
220
0.0
230
1.0
 40
0.2923717036
 41
-0.2778000690972995
 42
-0.2457987037547449
  0
LINE
  5
FB
330
75
100
AcDbEntity
  8
$DDT_AUDIT_GENERATED_(A2)
  6
Continuous
 62
     7
100
AcDbLine
 10
71.6462013335
 20
415.7816122867
 30
0.0
 11
71.6462013335
 21
416.2612834171
 31
0.0
  0
LINE
  5
FC
330
75
100
AcDbEntity
  8
$DDT_AUDIT_GENERATED_(A2)
  6
Continuous
 62
     7
100
AcDbLine
 10
71.6462013335
 20
415.7816122867
 30
0.0
 11
69.4726636456
 21
415.9518888857
 31
0.0
  0
LINE
  5
FD
330
75
100
AcDbEntity
  8
$DDT_AUDIT_GENERATED_(A2)
  6
Continuous
 62
     7
100
AcDbLine
 10
71.5944375245
 20
415.7251304106
 30
0.0
 11
69.4208998366
 21
415.8954070096
 31
0.0
  0
ELLIPSE
  5
FE
330
75
100
AcDbEntity
  8
$DDT_AUDIT_GENERATED_(A2)
  6
Continuous
 62
     7
100
AcDbEllipse
 10
77.656583115
 20
415.2804858452
 30
0.0
 11
-6.250000062462799
 21
9.891379382231946E-9
 31
0.0
210
0.0
220
0.0
230
1.0
 40
0.2923717039
 41
-0.5395994553149466
 42
-0.5075980900069759
  0
LINE
  5
FF
330
75
100
AcDbEntity
  8
$DDT_AUDIT_GENERATED_(A2)
  6
Continuous
 62
     7
100
AcDbLine
 10
72.2946171442
 20
416.2193506091
 30
0.0
 11
72.2946171442
 21
416.8068253661
 31
0.0
  0
LINE
  5
100
330
75
100
AcDbEntity
  8
$DDT_AUDIT_GENERATED_(A2)
  6
Continuous
 62
     7
100
AcDbLine
 10
72.2946171442
 20
416.2193506091
 30
0.0
 11
70.4775702456
 21
416.526069729
 31
0.0
  0
LINE
  5
101
330
75
100
AcDbEntity
  8
$DDT_AUDIT_GENERATED_(A2)
  6
Continuous
 62
     7
100
AcDbLine
 10
72.1946171442
 20
416.1687103444
 30
0.0
 11
70.3662667008
 21
416.4773375126
 31
0.0
  0
ELLIPSE
  5
102
330
75
100
AcDbEntity
  8
$DDT_AUDIT_GENERATED_(A2)
  6
Continuous
 62
     7
100
AcDbEllipse
 10
77.6565830943
 20
415.2804858436
 30
0.0
 11
-6.250000043553837
 21
9.282977164737360E-9
 31
0.0
210
0.0
220
0.0
230
1.0
 40
0.2923717047
 41
-0.8013988433105004
 42
-0.7693974779685187
  0
LINE
  5
103
330
75
100
AcDbEntity
  8
$DDT_AUDIT_GENERATED_(A2)
  6
Continuous
 62
     7
100
AcDbLine
 10
73.3084420705
 20
416.5931068501
 30
0.0
 11
73.3084420705
 21
417.2923901345
 31
0.0
  0
LINE
  5
104
330
75
100
AcDbEntity
  8
$DDT_AUDIT_GENERATED_(A2)
  6
Continuous
 62
     7
100
AcDbLine
 10
73.3084420705
 20
416.5931068501
 30
0.0
 11
71.9154248159
 21
417.0003856796
 31
0.0
  0
LINE
  5
105
330
75
100
AcDbEntity
  8
$DDT_AUDIT_GENERATED_(A2)
  6
Continuous
 62
     7
100
AcDbLine
 10
73.1670207143
 20
416.5517592471
 30
0.0
 11
71.7664731073
 21
416.9612397385
 31
0.0
  0
ELLIPSE
  5
106
330
75
100
AcDbEntity
  8
$DDT_AUDIT_GENERATED_(A2)
  6
Continuous
 62
     7
100
AcDbEllipse
 10
77.6565830822
 20
415.2804858409
 30
0.0
 11
-6.250000036295491
 21
8.049477751015388E-9
 31
0.0
210
0.0
220
0.0
230
1.0
 40
0.2923717054
 41
-1.063198231478128
 42
-1.031196866136126
  0
LINE
  5
107
330
75
100
AcDbEntity
  8
$DDT_AUDIT_GENERATED_(A2)
  6
Continuous
 62
     7
100
AcDbLine
 10
74.6185856192
 20
416.8774101396
 30
0.0
 11
74.6185856192
 21
417.472737087
 31
0.0
  0
LINE
  5
108
330
75
100
AcDbEntity
  8
$DDT_AUDIT_GENERATED_(A2)
  6
Continuous
 62
     7
100
AcDbLine
 10
74.6185856192
 20
416.8774101396
 30
0.0
 11
73.6816943328
 21
417.3518543672
 31
0.0
  0
LINE
  5
109
330
75
100
AcDbEntity
  8
$DDT_AUDIT_GENERATED_(A2)
  6
Continuous
 62
     7
100
AcDbLine
 10
74.4453805384
 20
416.8481729691
 30
0.0
 11
73.5047267422
 21
417.3245225417
 31
0.0
  0
ELLIPSE
  5
10A
330
75
100
AcDbEntity
  8
$DDT_AUDIT_GENERATED_(A2)
  6
Continuous
 62
     7
100
AcDbEllipse
 10
77.6565830674
 20
415.2804858401
 30
0.0
 11
-6.250000029383704
 21
4.401659592367935E-9
 31
0.0
210
0.0
220
0.0
230
1.0
 40
0.2923717058
 41
-1.324997620363662
 42
-1.292996255014055
  0
LINE
  5
10B
330
75
100
AcDbEntity
  8
$DDT_AUDIT_GENERATED_(A2)
  6
Continuous
 62
     7
100
AcDbLine
 10
76.1357636724
 20
417.0528856781
 30
0.0
 11
76.1357636724
 21
417.5936937676
 31
0.0
  0
LINE
  5
10C
330
75
100
AcDbEntity
  8
$DDT_AUDIT_GENERATED_(A2)
  6
Continuous
 62
     7
100
AcDbLine
 10
76.1357636724
 20
417.0528856781
 30
0.0
 11
75.6660716746
 21
417.5653882494
 31
0.0
  0
LINE
  5
10D
330
75
100
AcDbEntity
  8
$DDT_AUDIT_GENERATED_(A2)
  6
Continuous
 62
     7
100
AcDbLine
 10
75.9425785072
 20
417.037751405
 30
0.0
 11
75.4718788699
 21
417.5513534581
 31
0.0
  0
ARC
  5
10E
330
75
100
AcDbEntity
  8
$DDT_AUDIT_GENERATED_(A2)
  6
Continuous
 62
     7
100
AcDbCircle
 10
77.6565830532
 20
395.7334138921
 30
0.0
 40
21.37439513178239
100
AcDbArc
 50
89.7319410061
 51
90.2680589939
  0
LINE
  5
10F
330
75
100
AcDbEntity
  8
$DDT_AUDIT_GENERATED_(A2)
  6
Continuous
 62
     7
100
AcDbLine
 10
77.7565830532
 20
417.1075750978
 30
0.0
 11
77.7565830532
 21
417.6326907003
 31
0.0
  0
LINE
  5
110
330
75
100
AcDbEntity
  8
$DDT_AUDIT_GENERATED_(A2)
  6
Continuous
 62
     7
100
AcDbLine
 10
77.5565830532
 20
417.1075750978
 30
0.0
 11
77.5565830532
 21
417.6326907003
 31
0.0
  0
ELLIPSE
  5
111
330
75
100
AcDbEntity
  8
$DDT_AUDIT_GENERATED_(A2)
  6
Continuous
 62
     7
100
AcDbEllipse
 10
77.6565830382
 20
415.2804858393
 30
0.0
 11
6.250000030926925
 21
4.633057826275433E-9
 31
0.0
210
0.0
220
0.0
230
1.0
 40
0.2923717059
 41
1.292996254949469
 42
1.324997620291678
  0
LINE
  5
112
330
75
100
AcDbEntity
  8
$DDT_AUDIT_GENERATED_(A2)
  6
Continuous
 62
     7
100
AcDbLine
 10
79.3705875992
 20
417.037751405
 30
0.0
 11
79.8412872365
 21
417.5513534581
 31
0.0
  0
LINE
  5
113
330
75
100
AcDbEntity
  8
$DDT_AUDIT_GENERATED_(A2)
  6
Continuous
 62
     7
100
AcDbLine
 10
79.177402434
 20
417.0528856781
 30
0.0
 11
79.6470944318
 21
417.5653882494
 31
0.0
  0
LINE
  5
114
330
75
100
AcDbEntity
  8
$DDT_AUDIT_GENERATED_(A2)
  6
Continuous
 62
     7
100
AcDbLine
 10
79.177402434
 20
417.0528856781
 30
0.0
 11
79.177402434
 21
417.5936937676
 31
0.0
  0
ELLIPSE
  5
115
330
75
100
AcDbEntity
  8
$DDT_AUDIT_GENERATED_(A2)
  6
Continuous
 62
     7
100
AcDbEllipse
 10
77.6565830244
 20
415.2804858411
 30
0.0
 11
6.250000035947906
 21
7.970665794054810E-9
 31
0.0
210
0.0
220
0.0
230
1.0
 40
0.2923717054
 41
1.031196866159442
 42
1.063198231502845
  0
LINE
  5
116
330
75
100
AcDbEntity
  8
$DDT_AUDIT_GENERATED_(A2)
  6
Continuous
 62
     7
100
AcDbLine
 10
80.867785568
 20
416.8481729691
 30
0.0
 11
81.8084393642
 21
417.3245225417
 31
0.0
  0
LINE
  5
117
330
75
100
AcDbEntity
  8
$DDT_AUDIT_GENERATED_(A2)
  6
Continuous
 62
     7
100
AcDbLine
 10
80.6945804872
 20
416.8774101396
 30
0.0
 11
81.6314717736
 21
417.3518543672
 31
0.0
  0
LINE
  5
118
330
75
100
AcDbEntity
  8
$DDT_AUDIT_GENERATED_(A2)
  6
Continuous
 62
     7
100
AcDbLine
 10
80.6945804872
 20
416.8774101396
 30
0.0
 11
80.6945804872
 21
417.472737087
 31
0.0
  0
ELLIPSE
  5
119
330
75
100
AcDbEntity
  8
$DDT_AUDIT_GENERATED_(A2)
  6
Continuous
 62
     7
100
AcDbEllipse
 10
77.6565830026
 20
415.2804858408
 30
0.0
 11
6.250000053658983
 21
1.147562600500862E-8
 31
0.0
210
0.0
220
0.0
230
1.0
 40
0.2923717047
 41
0.7693974773478491
 42
0.8013988426552275
  0
LINE
  5
11A
330
75
100
AcDbEntity
  8
$DDT_AUDIT_GENERATED_(A2)
  6
Continuous
 62
     7
100
AcDbLine
 10
82.1461453921
 20
416.5517592471
 30
0.0
 11
83.5466929991
 21
416.9612397385
 31
0.0
  0
LINE
  5
11B
330
75
100
AcDbEntity
  8
$DDT_AUDIT_GENERATED_(A2)
  6
Continuous
 62
     7
100
AcDbLine
 10
82.0047240359
 20
416.5931068501
 30
0.0
 11
83.3977412905
 21
417.0003856796
 31
0.0
  0
LINE
  5
11C
330
75
100
AcDbEntity
  8
$DDT_AUDIT_GENERATED_(A2)
  6
Continuous
 62
     7
100
AcDbLine
 10
82.0047240359
 20
416.5931068501
 30
0.0
 11
82.0047240359
 21
417.2923901345
 31
0.0
  0
ELLIPSE
  5
11D
330
75
100
AcDbEntity
  8
$DDT_AUDIT_GENERATED_(A2)
  6
Continuous
 62
     7
100
AcDbEllipse
 10
77.6565830033
 20
415.2804858472
 30
0.0
 11
6.250000050434213
 21
8.012604468810025E-9
 31
0.0
210
0.0
220
0.0
230
1.0
 40
0.2923717041
 41
0.5075980905550557
 42
0.5395994558981343
  0
LINE
  5
11E
330
75
100
AcDbEntity
  8
$DDT_AUDIT_GENERATED_(A2)
  6
Continuous
 62
     7
100
AcDbLine
 10
83.1185489622
 20
416.1687103444
 30
0.0
 11
84.9468994055
 21
416.4773375126
 31
0.0
  0
LINE
  5
11F
330
75
100
AcDbEntity
  8
$DDT_AUDIT_GENERATED_(A2)
  6
Continuous
 62
     7
100
AcDbLine
 10
83.0185489622
 20
416.2193506091
 30
0.0
 11
84.8355958608
 21
416.526069729
 31
0.0
  0
LINE
  5
120
330
75
100
AcDbEntity
  8
$DDT_AUDIT_GENERATED_(A2)
  6
Continuous
 62
     7
100
AcDbLine
 10
83.0185489622
 20
416.2193506091
 30
0.0
 11
83.0185489622
 21
416.8068253661
 31
0.0
  0
ELLIPSE
  5
121
330
75
100
AcDbEntity
  8
$DDT_AUDIT_GENERATED_(A2)
  6
Continuous
 62
     7
100
AcDbEllipse
 10
77.6565835421
 20
415.2804858939
 30
0.0
 11
8.499999510830508
 21
-4.041601775472969E-8
 31
0.0
210
0.0
220
0.0
230
1.0
 40
0.2923717123
 41
0.250034418995108
 42
0.2735643742717538
  0
ELLIPSE
  5
122
330
75
100
AcDbEntity
  8
$DDT_AUDIT_GENERATED_(A2)
  6
Continuous
 62
     7
100
AcDbEllipse
 10
77.6565829973
 20
415.2804858513
 30
0.0
 11
6.250000055887364
 21
4.617681237384375E-9
 31
0.0
210
0.0
220
0.0
230
1.0
 40
0.2923717036
 41
0.2457987037552616
 42
0.2778000690978737
  0
LINE
  5
123
330
75
100
AcDbEntity
  8
$DDT_AUDIT_GENERATED_(A2)
  6
Continuous
 62
     7
100
AcDbLine
 10
83.7187285819
 20
415.7251304106
 30
0.0
 11
85.8922662698
 21
415.8954070096
 31
0.0
  0
LINE
  5
124
330
75
100
AcDbEntity
  8
$DDT_AUDIT_GENERATED_(A2)
  6
Continuous
 62
     7
100
AcDbLine
 10
83.6669647729
 20
415.7816122867
 30
0.0
 11
85.8405024608
 21
415.9518888857
 31
0.0
  0
LINE
  5
125
330
75
100
AcDbEntity
  8
$DDT_AUDIT_GENERATED_(A2)
  6
Continuous
 62
     7
100
AcDbLine
 10
83.6669647729
 20
415.7816122867
 30
0.0
 11
83.6669647729
 21
416.2612834171
 31
0.0
  0
ELLIPSE
  5
126
330
75
100
AcDbEntity
  8
$DDT_AUDIT_GENERATED_(A2)
  6
Continuous
 62
     7
100
AcDbEllipse
 10
77.6565830532
 20
415.2804858556
 30
0.0
 11
-2.750000000002034
 21
1.873501354054952E-12
 31
0.0
210
0.0
220
0.0
230
1.0
 40
0.2923717047
 41
3.141592653589793
 42
3.205272045846895
  0
LINE
  5
127
330
75
100
AcDbEntity
  8
$DDT_AUDIT_GENERATED_(A2)
  6
Continuous
 62
     7
100
AcDbLine
 10
80.4010092227
 20
415.684667106
 30
0.0
 11
80.4010092227
 21
415.331650904
 31
0.0
  0
LINE
  5
128
330
75
100
AcDbEntity
  8
$DDT_AUDIT_GENERATED_(A2)
  6
Continuous
 62
     7
100
AcDbLine
 10
80.4065830532
 20
415.2293208073
 30
0.0
 11
82.8846702377
 21
415.2293208073
 31
0.0
  0
LINE
  5
129
330
75
100
AcDbEntity
  8
$DDT_AUDIT_GENERATED_(A2)
  6
Continuous
 62
     7
100
AcDbLine
 10
80.4010092227
 20
415.331650904
 30
0.0
 11
82.8406911002
 21
415.331650904
 31
0.0
  0
ELLIPSE
  5
12A
330
75
100
AcDbEntity
  8
$DDT_AUDIT_GENERATED_(A2)
  6
Continuous
 62
     7
100
AcDbEllipse
 10
77.6565830528
 20
415.2804858557
 30
0.0
 11
5.250000000370104
 21
-6.372680161348399E-11
 31
0.0
210
0.0
220
0.0
230
1.0
 40
0.2923717047
 41
-0.5569382848374493
 42
-0.4902592663175556
  0
LINE
  5
12B
330
75
100
AcDbEntity
  8
$DDT_AUDIT_GENERATED_(A2)
  6
Continuous
 62
     7
100
AcDbLine
 10
80.2096558759
 20
414.7904446014
 30
0.0
 11
82.1131898136
 21
414.469126393
 31
0.0
  0
LINE
  5
12C
330
75
100
AcDbEntity
  8
$DDT_AUDIT_GENERATED_(A2)
  6
Continuous
 62
     7
100
AcDbLine
 10
80.3207021312
 20
414.8898605132
 30
0.0
 11
82.2881898136
 21
414.5577468563
 31
0.0
  0
LINE
  5
12D
330
75
100
AcDbEntity
  8
$DDT_AUDIT_GENERATED_(A2)
  6
Continuous
 62
     7
100
AcDbLine
 10
82.2881898136
 20
415.2293208073
 30
0.0
 11
82.2881898136
 21
414.5577468563
 31
0.0
  0
ELLIPSE
  5
12E
330
75
100
AcDbEntity
  8
$DDT_AUDIT_GENERATED_(A2)
  6
Continuous
 62
     7
100
AcDbEllipse
 10
77.656583053
 20
415.2804858557
 30
0.0
 11
5.250000000283137
 21
-5.891120924417237E-11
 31
0.0
210
0.0
220
0.0
230
1.0
 40
0.2923717047
 41
-1.080537060435409
 42
-1.013858041915731
  0
LINE
  5
12F
330
75
100
AcDbEntity
  8
$DDT_AUDIT_GENERATED_(A2)
  6
Continuous
 62
     7
100
AcDbLine
 10
79.1611884226
 20
414.4162196168
 30
0.0
 11
80.1285698689
 21
413.9263350915
 31
0.0
  0
LINE
  5
130
330
75
100
AcDbEntity
  8
$DDT_AUDIT_GENERATED_(A2)
  6
Continuous
 62
     7
100
AcDbLine
 10
79.4432901748
 20
414.478022736
 30
0.0
 11
80.4316787602
 21
413.9775001398
 31
0.0
  0
LINE
  5
131
330
75
100
AcDbEntity
  8
$DDT_AUDIT_GENERATED_(A2)
  6
Continuous
 62
     7
100
AcDbLine
 10
80.4316787602
 20
414.7529669426
 30
0.0
 11
80.4316787602
 21
413.9775001398
 31
0.0
  0
ARC
  5
132
330
75
100
AcDbEntity
  8
$DDT_AUDIT_GENERATED_(A2)
  6
Continuous
 62
     7
100
AcDbCircle
 10
77.6565830532
 20
431.6930027396
 30
0.0
 40
17.94746855063326
100
AcDbArc
 50
269.4413184078
 51
270.5586815922
  0
LINE
  5
133
330
75
100
AcDbEntity
  8
$DDT_AUDIT_GENERATED_(A2)
  6
Continuous
 62
     7
100
AcDbLine
 10
77.4815830532
 20
414.2868323468
 30
0.0
 11
77.4815830532
 21
413.7463873937
 31
0.0
  0
LINE
  5
134
330
75
100
AcDbEntity
  8
$DDT_AUDIT_GENERATED_(A2)
  6
Continuous
 62
     7
100
AcDbLine
 10
77.8315830532
 20
414.2868323468
 30
0.0
 11
77.8315830532
 21
413.7463873937
 31
0.0
  0
ELLIPSE
  5
135
330
75
100
AcDbEntity
  8
$DDT_AUDIT_GENERATED_(A2)
  6
Continuous
 62
     7
100
AcDbEllipse
 10
77.6565830525
 20
415.2804858553
 30
0.0
 11
-5.249999999109587
 21
1.926653281358881E-10
 31
0.0
210
0.0
220
0.0
230
1.0
 40
0.2923717047
 41
1.013858041999748
 42
1.080537060531413
  0
LINE
  5
136
330
75
100
AcDbEntity
  8
$DDT_AUDIT_GENERATED_(A2)
  6
Continuous
 62
     7
100
AcDbLine
 10
75.8698759316
 20
414.478022736
 30
0.0
 11
74.8814873462
 21
413.9775001398
 31
0.0
  0
LINE
  5
137
330
75
100
AcDbEntity
  8
$DDT_AUDIT_GENERATED_(A2)
  6
Continuous
 62
     7
100
AcDbLine
 10
76.1519776838
 20
414.4162196168
 30
0.0
 11
75.1845962375
 21
413.9263350915
 31
0.0
  0
LINE
  5
138
330
75
100
AcDbEntity
  8
$DDT_AUDIT_GENERATED_(A2)
  6
Continuous
 62
     7
100
AcDbLine
 10
74.8814873462
 20
414.7529669426
 30
0.0
 11
74.8814873462
 21
413.9775001398
 31
0.0
  0
ELLIPSE
  5
139
330
75
100
AcDbEntity
  8
$DDT_AUDIT_GENERATED_(A2)
  6
Continuous
 62
     7
100
AcDbEllipse
 10
77.6565830513
 20
415.2804858553
 30
0.0
 11
-5.249999998048908
 21
3.037292639618272E-10
 31
0.0
210
0.0
220
0.0
230
1.0
 40
0.2923717048
 41
0.4902592664389331
 42
0.5569382849756803
  0
LINE
  5
13A
330
75
100
AcDbEntity
  8
$DDT_AUDIT_GENERATED_(A2)
  6
Continuous
 62
     7
100
AcDbLine
 10
74.9924639752
 20
414.8898605132
 30
0.0
 11
73.0249762928
 21
414.5577468563
 31
0.0
  0
LINE
  5
13B
330
75
100
AcDbEntity
  8
$DDT_AUDIT_GENERATED_(A2)
  6
Continuous
 62
     7
100
AcDbLine
 10
75.1035102305
 20
414.7904446014
 30
0.0
 11
73.1999762928
 21
414.469126393
 31
0.0
  0
LINE
  5
13C
330
75
100
AcDbEntity
  8
$DDT_AUDIT_GENERATED_(A2)
  6
Continuous
 62
     7
100
AcDbLine
 10
73.0249762928
 20
415.2293208073
 30
0.0
 11
73.0249762928
 21
414.5577468563
 31
0.0
  0
LINE
  5
13D
330
75
100
AcDbEntity
  8
$DDT_AUDIT_GENERATED_(A2)
  6
Continuous
 62
     7
100
AcDbLine
 10
74.9121568837
 20
415.684667106
 30
0.0
 11
74.9121568837
 21
415.331650904
 31
0.0
  0
ELLIPSE
  5
13E
330
75
100
AcDbEntity
  8
$DDT_AUDIT_GENERATED_(A2)
  6
Continuous
 62
     7
100
AcDbEllipse
 10
77.6565830532
 20
415.2804858556
 30
0.0
 11
2.750000000002371
 21
0.0
 31
0.0
210
0.0
220
0.0
230
1.0
 40
0.2923717047
 41
3.077913261332839
 42
3.141592653589793
  0
LINE
  5
13F
330
75
100
AcDbEntity
  8
$DDT_AUDIT_GENERATED_(A2)
  6
Continuous
 62
     7
100
AcDbLine
 10
74.9121568837
 20
415.331650904
 30
0.0
 11
72.4724750062
 21
415.331650904
 31
0.0
  0
LINE
  5
140
330
75
100
AcDbEntity
  8
$DDT_AUDIT_GENERATED_(A2)
  6
Continuous
 62
     7
100
AcDbLine
 10
74.9065830532
 20
415.2293208073
 30
0.0
 11
72.4284958686
 21
415.2293208073
 31
0.0
  0
LINE
  5
141
330
75
100
AcDbEntity
  8
$DDT_AUDIT_GENERATED_(A2)
  6
Continuous
 62
     7
100
AcDbLine
 10
75.3673402716
 20
416.3374343638
 30
0.0
 11
75.3673402716
 21
415.7259923661
 31
0.0
  0
ELLIPSE
  5
142
330
75
100
AcDbEntity
  8
$DDT_AUDIT_GENERATED_(A2)
  6
Continuous
 62
     7
100
AcDbEllipse
 10
77.6565830532
 20
415.2804858556
 30
0.0
 11
-2.750000000010368
 21
1.790234627208065E-12
 31
0.0
210
0.0
220
0.0
230
1.0
 40
0.2923717047
 41
-0.5872781678540466
 42
-0.4599193833403055
  0
LINE
  5
143
330
75
100
AcDbEntity
  8
$DDT_AUDIT_GENERATED_(A2)
  6
Continuous
 62
     7
100
AcDbLine
 10
75.3673402716
 20
415.7259923661
 30
0.0
 11
73.5262943396
 21
416.036762544
 31
0.0
  0
LINE
  5
144
330
75
100
AcDbEntity
  8
$DDT_AUDIT_GENERATED_(A2)
  6
Continuous
 62
     7
100
AcDbLine
 10
75.1923402716
 20
415.6373719028
 30
0.0
 11
73.3183749675
 21
415.9536988998
 31
0.0
  0
LINE
  5
145
330
75
100
AcDbEntity
  8
$DDT_AUDIT_GENERATED_(A2)
  6
Continuous
 62
     7
100
AcDbLine
 10
76.4359244141
 20
416.5821108018
 30
0.0
 11
76.4359244141
 21
416.0009607185
 31
0.0
  0
ELLIPSE
  5
146
330
75
100
AcDbEntity
  8
$DDT_AUDIT_GENERATED_(A2)
  6
Continuous
 62
     7
100
AcDbEllipse
 10
77.6565830533
 20
415.2804858556
 30
0.0
 11
-2.750000000091235
 21
1.969258089928871E-11
 31
0.0
210
0.0
220
0.0
230
1.0
 40
0.2923717047
 41
-1.110876943438396
 42
-0.9835181589277395
  0
LINE
  5
147
330
75
100
AcDbEntity
  8
$DDT_AUDIT_GENERATED_(A2)
  6
Continuous
 62
     7
100
AcDbLine
 10
76.4359244141
 20
416.0009607185
 30
0.0
 11
75.4784334863
 21
416.4858366591
 31
0.0
  0
LINE
  5
148
330
75
100
AcDbEntity
  8
$DDT_AUDIT_GENERATED_(A2)
  6
Continuous
 62
     7
100
AcDbLine
 10
76.1328155228
 20
415.9497956702
 30
0.0
 11
75.1643944098
 21
416.4402066855
 31
0.0
  0
ARC
  5
149
330
75
100
AcDbEntity
  8
$DDT_AUDIT_GENERATED_(A2)
  6
Continuous
 62
     7
100
AcDbCircle
 10
77.6565830532
 20
406.6961076513
 30
0.0
 40
9.388401905458476
100
AcDbArc
 50
88.9319436641
 51
91.0680563359
  0
LINE
  5
14A
330
75
100
AcDbEntity
  8
$DDT_AUDIT_GENERATED_(A2)
  6
Continuous
 62
     7
100
AcDbLine
 10
77.8315830532
 20
416.0828784133
 30
0.0
 11
77.8315830532
 21
416.6233233664
 31
0.0
  0
LINE
  5
14B
330
75
100
AcDbEntity
  8
$DDT_AUDIT_GENERATED_(A2)
  6
Continuous
 62
     7
100
AcDbLine
 10
77.4815830532
 20
416.0828784133
 30
0.0
 11
77.4815830532
 21
416.6233233664
 31
0.0
  0
ELLIPSE
  5
14C
330
75
100
AcDbEntity
  8
$DDT_AUDIT_GENERATED_(A2)
  6
Continuous
 62
     7
100
AcDbEllipse
 10
77.6565830533
 20
415.2804858557
 30
0.0
 11
2.749999999926631
 21
-1.497413304463180E-11
 31
0.0
210
0.0
220
0.0
230
1.0
 40
0.2923717047
 41
0.9835181589491474
 42
1.110876943465908
  0
LINE
  5
14D
330
75
100
AcDbEntity
  8
$DDT_AUDIT_GENERATED_(A2)
  6
Continuous
 62
     7
100
AcDbLine
 10
78.8772416923
 20
416.5821108018
 30
0.0
 11
78.8772416923
 21
416.0009607185
 31
0.0
  0
LINE
  5
14E
330
75
100
AcDbEntity
  8
$DDT_AUDIT_GENERATED_(A2)
  6
Continuous
 62
     7
100
AcDbLine
 10
79.1803505836
 20
415.9497956702
 30
0.0
 11
80.1487716966
 21
416.4402066855
 31
0.0
  0
LINE
  5
14F
330
75
100
AcDbEntity
  8
$DDT_AUDIT_GENERATED_(A2)
  6
Continuous
 62
     7
100
AcDbLine
 10
78.8772416923
 20
416.0009607185
 30
0.0
 11
79.8347326201
 21
416.4858366591
 31
0.0
  0
ELLIPSE
  5
150
330
75
100
AcDbEntity
  8
$DDT_AUDIT_GENERATED_(A2)
  6
Continuous
 62
     7
100
AcDbEllipse
 10
77.6565830532
 20
415.2804858556
 30
0.0
 11
2.750000000002139
 21
4.718447854656915E-13
 31
0.0
210
0.0
220
0.0
230
1.0
 40
0.2923717047
 41
0.459919383341052
 42
0.5872781678550534
  0
LINE
  5
151
330
75
100
AcDbEntity
  8
$DDT_AUDIT_GENERATED_(A2)
  6
Continuous
 62
     7
100
AcDbLine
 10
79.9458258348
 20
416.3374343638
 30
0.0
 11
79.9458258348
 21
415.7259923661
 31
0.0
  0
LINE
  5
152
330
75
100
AcDbEntity
  8
$DDT_AUDIT_GENERATED_(A2)
  6
Continuous
 62
     7
100
AcDbLine
 10
80.1208258348
 20
415.6373719028
 30
0.0
 11
81.9947911389
 21
415.9536988998
 31
0.0
  0
LINE
  5
153
330
75
100
AcDbEntity
  8
$DDT_AUDIT_GENERATED_(A2)
  6
Continuous
 62
     7
100
AcDbLine
 10
79.9458258348
 20
415.7259923661
 30
0.0
 11
81.7868717668
 21
416.036762544
 31
0.0
  0
LINE
  5
154
330
75
100
AcDbEntity
  8
$DDT_AUDIT_GENERATED_(A2)
  6
Continuous
 62
     7
100
AcDbLine
 10
68.6565830532
 20
416.7793545376
 30
0.0
 11
68.6565830532
 21
415.0892249044
 31
0.0
  0
LINE
  5
155
330
75
100
AcDbEntity
  8
$DDT_AUDIT_GENERATED_(A2)
  6
Continuous
 62
     7
100
AcDbLine
 10
86.6565830532
 20
415.0892249044
 30
0.0
 11
86.6565830532
 21
416.7793545376
 31
0.0
  0
LINE
  5
156
330
75
100
AcDbEntity
  8
$DDT_AUDIT_GENERATED_(A2)
  6
Continuous
 62
     7
100
AcDbLine
 10
71.4065830532
 20
415.2804858556
 30
0.0
 11
71.4065830532
 21
415.0892249044
 31
0.0
  0
LINE
  5
157
330
75
100
AcDbEntity
  8
$DDT_AUDIT_GENERATED_(A2)
  6
Continuous
 62
     7
100
AcDbLine
 10
83.9065830532
 20
415.0892249044
 30
0.0
 11
83.9065830532
 21
415.2804858556
 31
0.0
  0
LINE
  5
158
330
75
100
AcDbEntity
  8
$DDT_AUDIT_GENERATED_(A2)
  6
Continuous
 62
     7
100
AcDbLine
 10
74.9065830532
 20
415.2804858556
 30
0.0
 11
74.9065830532
 21
415.0892249044
 31
0.0
  0
LINE
  5
159
330
75
100
AcDbEntity
  8
$DDT_AUDIT_GENERATED_(A2)
  6
Continuous
 62
     7
100
AcDbLine
 10
80.4065830532
 20
415.0892249044
 30
0.0
 11
80.4065830532
 21
415.2804858556
 31
0.0
  0
LINE
  5
15A
330
75
100
AcDbEntity
  8
$DDT_AUDIT_GENERATED_(A2)
  6
Continuous
 62
     7
100
AcDbLine
 10
77.1369531093
 20
415.6339342678
 30
0.0
 11
77.1369531093
 21
415.2804858556
 31
0.0
  0
LINE
  5
15B
330
75
100
AcDbEntity
  8
$DDT_AUDIT_GENERATED_(A2)
  6
Continuous
 62
     7
100
AcDbLine
 10
78.1762129971
 20
415.2804858556
 30
0.0
 11
78.1762129971
 21
415.5169781409
 31
0.0
  0
LINE
  5
15D
330
75
100
AcDbEntity
  8
$DDT_AUDIT_GENERATED_(15C)
  6
Continuous
 62
     7
100
AcDbLine
 10
61.4065830532
 20
443.8717386308
 30
0.0
 11
61.4065830532
 21
443.0625412309
 31
0.0
  0
LINE
  5
15E
330
75
100
AcDbEntity
  8
$DDT_AUDIT_GENERATED_(15C)
  6
Continuous
 62
     7
100
AcDbLine
 10
93.9065830532
 20
443.0624917369
 30
0.0
 11
93.9065830532
 21
443.8717386308
 31
0.0
  0
LINE
  5
160
330
75
100
AcDbEntity
  8
$DDT_AUDIT_GENERATED_(15F)
  6
Continuous
 62
     7
100
AcDbLine
 10
102.4065830532
 20
349.1683783016
 30
0.0
 11
52.9065830532
 21
349.1683783016
 31
0.0
  0
LINE
  5
161
330
75
100
AcDbEntity
  8
$DDT_AUDIT_GENERATED_(15F)
  6
Continuous
 62
     7
100
AcDbLine
 10
53.6065830532
 20
354.1683783016
 30
0.0
 11
101.7065830532
 21
354.1683783016
 31
0.0
  0
LINE
  5
162
330
75
100
AcDbEntity
  8
$DDT_AUDIT_GENERATED_(15F)
  6
Continuous
 62
     7
100
AcDbLine
 10
102.4065830532
 20
349.1683783016
 30
0.0
 11
102.4065830532
 21
353.4683783016
 31
0.0
  0
LINE
  5
163
330
75
100
AcDbEntity
  8
$DDT_AUDIT_GENERATED_(15F)
  6
Continuous
 62
     7
100
AcDbLine
 10
52.9065830532
 20
353.4683783016
 30
0.0
 11
52.9065830532
 21
349.1683783016
 31
0.0
  0
ARC
  5
164
330
75
100
AcDbEntity
  8
$DDT_AUDIT_GENERATED_(15F)
  6
Continuous
 62
     7
100
AcDbCircle
 10
101.7065830532
 20
353.4683783016
 30
0.0
 40
0.6999999999999993
100
AcDbArc
 50
0.0
 51
90.0
  0
ARC
  5
165
330
75
100
AcDbEntity
  8
$DDT_AUDIT_GENERATED_(15F)
  6
Continuous
 62
     7
100
AcDbCircle
 10
53.6065830532
 20
353.4683783016
 30
0.0
 40
0.7000000000000001
100
AcDbArc
 50
90.0
 51
180.0
  0
LINE
  5
167
330
75
100
AcDbEntity
  8
$DDT_AUDIT_GENERATED_(166)
  6
Continuous
 62
     7
100
AcDbLine
 10
63.6738914159
 20
475.7481058935
 30
0.0
 11
63.6739521248
 21
477.5177820778
 31
0.0
  0
ARC
  5
168
330
75
100
AcDbEntity
  8
$DDT_AUDIT_GENERATED_(166)
  6
Continuous
 62
     7
100
AcDbCircle
 10
91.1924628661
 20
737.4875071744
 30
0.0
 40
263.1820395800606
100
AcDbArc
 50
263.9981267782
 51
264.380637119
  0
ARC
  5
169
330
75
100
AcDbEntity
  8
$DDT_AUDIT_GENERATED_(166)
  6
Continuous
 62
     7
100
AcDbCircle
 10
76.092868841
 20
622.0426905626
 30
0.0
 40
148.128253785578
100
AcDbArc
 50
274.9443024362
 51
275.0597030135
  0
ARC
  5
16A
330
75
100
AcDbEntity
  8
$DDT_AUDIT_GENERATED_(166)
  6
Continuous
 62
     7
100
AcDbCircle
 10
77.6636296368
 20
294.1202902221
 30
0.0
 40
180.719650583171
100
AcDbArc
 50
86.4558990263
 51
93.563152546
  0
ARC
  5
16B
330
75
100
AcDbEntity
  8
$DDT_AUDIT_GENERATED_(166)
  6
Continuous
 62
     7
100
AcDbCircle
 10
79.0261633033
 20
620.3237852374
 30
0.0
 40
146.4028485158514
100
AcDbArc
 50
264.9412930911
 51
265.0525206824
  0
ARC
  5
16C
330
75
100
AcDbEntity
  8
$DDT_AUDIT_GENERATED_(166)
  6
Continuous
 62
     7
100
AcDbCircle
 10
77.6260602426
 20
286.2721962919
 30
0.0
 40
189.682658783142
100
AcDbArc
 50
86.321671145
 51
93.6733520404
  0
ARC
  5
16D
330
75
100
AcDbEntity
  8
$DDT_AUDIT_GENERATED_(166)
  6
Continuous
 62
     7
100
AcDbCircle
 10
95.0688805423
 20
431.0063371872
 30
0.0
 40
44.86877260556245
100
AcDbArc
 50
94.4408826703
 51
96.6991297893
  0
ARC
  5
16E
330
75
100
AcDbEntity
  8
$DDT_AUDIT_GENERATED_(166)
  6
Continuous
 62
     7
100
AcDbCircle
 10
67.028462814
 20
479.2655953101
 30
0.0
 40
4.860646156704234
100
AcDbArc
 50
226.3580739356
 51
259.1905763284
  0
SPLINE
  5
16F
330
75
100
AcDbEntity
  8
$DDT_AUDIT_GENERATED_(166)
  6
Continuous
 62
     7
100
AcDbSpline
210
0.0
220
0.0
230
1.0
 70
     8
 71
     3
 72
    12
 73
     8
 74
     0
 42
0.0000000035954252
 43
0.0000000001
 40
0.0
 40
0.0
 40
0.0
 40
0.0
 40
0.1394344673902353
 40
0.3068051143362588
 40
0.4992498177820635
 40
0.7494359399405307
 40
1.0
 40
1.0
 40
1.0
 40
1.0
 10
89.15685416765427
 20
474.4916422540813
 30
0.0
 10
89.28596530999839
 20
474.50977599892
 30
0.0
 10
89.56981408816709
 20
474.5503739939077
 30
0.0
 10
90.00925020216204
 20
474.7086968930943
 30
0.0
 10
90.51655796220024
 20
474.9665198002621
 30
0.0
 10
91.05381100262666
 20
475.3224377098404
 30
0.0
 10
91.41429387569589
 20
475.6061539096342
 30
0.0
 10
91.59467161297599
 20
475.7404028133158
 30
0.0
  0
LINE
  5
170
330
75
100
AcDbEntity
  8
$DDT_AUDIT_GENERATED_(166)
  6
Continuous
 62
     7
100
AcDbLine
 10
97.0701045911
 20
478.0178097827
 30
0.0
 11
91.2445684929
 21
478.0178097827
 31
0.0
  0
LINE
  5
171
330
75
100
AcDbEntity
  8
$DDT_AUDIT_GENERATED_(166)
  6
Continuous
 62
     7
100
AcDbLine
 10
64.0239942717
 20
478.0178097827
 30
0.0
 11
58.1983224621
 21
478.0178097827
 31
0.0
  0
LINE
  5
172
330
75
100
AcDbEntity
  8
$DDT_AUDIT_GENERATED_(166)
  6
Continuous
 62
     7
100
AcDbLine
 10
89.295124917
 20
478.0178098269
 30
0.0
 11
91.2445684929
 21
478.0178098159
 31
0.0
  0
LINE
  5
173
330
75
100
AcDbEntity
  8
$DDT_AUDIT_GENERATED_(166)
  6
Continuous
 62
     7
100
AcDbLine
 10
64.0239942717
 20
478.0178098159
 30
0.0
 11
65.9408076556
 21
478.0178098267
 31
0.0
  0
LINE
  5
174
330
75
100
AcDbEntity
  8
$DDT_AUDIT_GENERATED_(166)
  6
Continuous
 62
     7
100
AcDbLine
 10
65.925397796
 20
478.0178098903
 30
0.0
 11
89.3345556798
 21
478.0178098896
 31
0.0
  0
LINE
  5
175
330
75
100
AcDbEntity
  8
$DDT_AUDIT_GENERATED_(166)
  6
Continuous
 62
     7
100
AcDbLine
 10
91.5946106399
 20
477.5177820778
 30
0.0
 11
91.594671613
 21
475.7404028133
 31
0.0
  0
LINE
  5
176
330
75
100
AcDbEntity
  8
$DDT_AUDIT_GENERATED_(166)
  6
Continuous
 62
     7
100
AcDbLine
 10
97.5696747576
 20
477.5178098029
 30
0.0
 11
97.5696880444
 21
477.5178098029
 31
0.0
  0
ARC
  5
177
330
75
100
AcDbEntity
  8
$DDT_AUDIT_GENERATED_(166)
  6
Continuous
 62
     7
100
AcDbCircle
 10
65.9734378498
 20
477.5178098269
 30
0.0
 40
0.4999999999980576
100
AcDbArc
 50
89.9999999998
 51
179.9999999933
  0
SPLINE
  5
178
330
75
100
AcDbEntity
  8
$DDT_AUDIT_GENERATED_(166)
  6
Continuous
 62
     7
100
AcDbSpline
210
0.0
220
0.0
230
1.0
 70
    24
 71
     3
 72
     8
 73
     4
 74
     0
 42
0.0000000020684552
 43
0.0000000001
 40
0.2501023651342161
 40
0.2501023651342161
 40
0.2501023651342161
 40
0.2501023651342161
 40
0.2503092106516819
 40
0.2503092106516819
 40
0.2503092106516819
 40
0.2503092106516819
 10
57.69654593254561
 20
444.1717386308353
 30
0.0
 10
57.69654597611773
 20
444.1717386308362
 30
0.0
 10
57.69655209088091
 20
444.1717386308381
 30
0.0
 10
57.69656427247635
 20
444.171738630841
 30
0.0
  0
LINE
  5
179
330
75
100
AcDbEntity
  8
$DDT_AUDIT_GENERATED_(166)
  6
Continuous
 62
     7
100
AcDbLine
 10
97.2720165887
 20
443.8717386308
 30
0.0
 11
57.9965623956
 21
443.8717386308
 31
0.0
  0
LINE
  5
17A
330
75
100
AcDbEntity
  8
$DDT_AUDIT_GENERATED_(166)
  6
Continuous
 62
     7
100
AcDbLine
 10
97.5720168596
 20
444.1717386317
 30
0.0
 11
97.5720168596
 21
477.5178097832
 31
0.0
  0
LINE
  5
17B
330
75
100
AcDbEntity
  8
$DDT_AUDIT_GENERATED_(166)
  6
Continuous
 62
     7
100
AcDbLine
 10
57.696545899
 20
477.5178097828
 30
0.0
 11
57.696545899
 21
444.1717386308
 31
0.0
  0
LINE
  5
17C
330
75
100
AcDbEntity
  8
$DDT_AUDIT_GENERATED_(166)
  6
Continuous
 62
     7
100
AcDbLine
 10
89.8344597111
 20
475.6036579551
 30
0.0
 11
89.8344597113
 21
477.5178098897
 31
0.0
  0
LINE
  5
17D
330
75
100
AcDbEntity
  8
$DDT_AUDIT_GENERATED_(166)
  6
Continuous
 62
     7
100
AcDbLine
 10
65.4341054512
 20
477.5178098896
 30
0.0
 11
65.4341054511
 21
475.6055055346
 31
0.0
  0
ARC
  5
17E
330
75
100
AcDbEntity
  8
$DDT_AUDIT_GENERATED_(166)
  6
Continuous
 62
     7
100
AcDbCircle
 10
77.6380455529
 20
586.9822209666
 30
0.0
 40
113.0695323170222
100
AcDbArc
 50
264.3275678695
 51
275.6686408644
  0
ARC
  5
17F
330
75
100
AcDbEntity
  8
$DDT_AUDIT_GENERATED_(166)
  6
Continuous
 62
     7
100
AcDbCircle
 10
66.5972959274
 20
475.6084643279
 30
0.0
 40
1.159660238217536
100
AcDbArc
 50
181.2029811341
 51
264.730084599
  0
ARC
  5
180
330
75
100
AcDbEntity
  8
$DDT_AUDIT_GENERATED_(166)
  6
Continuous
 62
     7
100
AcDbCircle
 10
88.6699582028
 20
475.6068265213
 30
0.0
 40
1.159374657037163
100
AcDbArc
 50
275.4008351243
 51
358.9123240226
  0
ARC
  5
181
330
75
100
AcDbEntity
  8
$DDT_AUDIT_GENERATED_(166)
  6
Continuous
 62
     7
100
AcDbCircle
 10
97.0719968207
 20
477.5178097846
 30
0.0
 40
0.4999999983030441
100
AcDbArc
 50
0.098252522
 51
90.0046007765
  0
ARC
  5
182
330
75
100
AcDbEntity
  8
$DDT_AUDIT_GENERATED_(166)
  6
Continuous
 62
     7
100
AcDbCircle
 10
58.1965678558
 20
477.5178097787
 30
0.0
 40
0.4999993773277123
100
AcDbArc
 50
89.9949585985
 51
180.1877658201
  0
ARC
  5
183
330
75
100
AcDbEntity
  8
$DDT_AUDIT_GENERATED_(166)
  6
Continuous
 62
     7
100
AcDbCircle
 10
65.9341963794
 20
477.5178098919
 30
0.0
 40
0.4999998018965854
100
AcDbArc
 50
90.3602416908
 51
179.6264129202
  0
ARC
  5
184
330
75
100
AcDbEntity
  8
$DDT_AUDIT_GENERATED_(166)
  6
Continuous
 62
     7
100
AcDbCircle
 10
89.3398000112
 20
477.5232987155
 30
0.0
 40
0.4935885266032531
100
AcDbArc
 50
359.3705865522
 51
81.6312058883
  0
ARC
  5
185
330
75
100
AcDbEntity
  8
$DDT_AUDIT_GENERATED_(166)
  6
Continuous
 62
     7
100
AcDbCircle
 10
97.2720113919
 20
444.1717386325
 30
0.0
 40
0.2999999112690478
100
AcDbArc
 50
269.8875398186
 51
0.5308446122
  0
ARC
  5
186
330
75
100
AcDbEntity
  8
$DDT_AUDIT_GENERATED_(166)
  6
Continuous
 62
     7
100
AcDbCircle
 10
57.9965636648
 20
444.1717386308
 30
0.0
 40
0.2999997109674763
100
AcDbArc
 50
180.0045479541
 51
270.0067882659
  0
ENDBLK
  5
188
330
75
100
AcDbEntity
  8
0
100
AcDbBlockEnd
  0
BLOCK
  5
1C4
330
189
100
AcDbEntity
  8
0
100
AcDbBlockBegin
  2
SE1
 70
     0
 10
0.0
 20
0.0
 30
0.0
  3
SE1
  1

  0
LINE
  5
18B
330
189
100
AcDbEntity
  8
$DDT_AUDIT_GENERATED_(77)
  6
Continuous
 62
     7
100
AcDbLine
 10
207.6207955297
 20
354.1683778426
 30
0.0
 11
207.6207955297
 21
407.7714797989
 31
0.0
  0
SPLINE
  5
18C
330
189
100
AcDbEntity
  8
$DDT_AUDIT_GENERATED_(77)
  6
Continuous
 62
     7
100
AcDbSpline
210
0.0
220
0.0
230
1.0
 70
     8
 71
     3
 72
    34
 73
    30
 74
     0
 42
0.0000000001037133
 43
0.0000000001
 40
0.0
 40
0.0
 40
0.0
 40
0.0
 40
0.0572878418978486
 40
0.1142086524751144
 40
0.1707698355513928
 40
0.226978919916105
 40
0.3583075017743534
 40
0.48376839468316
 40
0.5506617172027393
 40
0.6121657811868569
 40
0.6764651418321512
 40
0.7057481521518095
 40
0.7408513339699382
 40
0.757029176908843
 40
0.7674292233873291
 40
0.7735253937471754
 40
0.7828124884332288
 40
0.791733183543355
 40
0.8006941684513106
 40
0.8092783541408057
 40
0.8266039201903491
 40
0.8439412340811805
 40
0.8785635370541587
 40
0.9133258929521931
 40
0.9481572867838272
 40
0.9650632791169799
 40
0.9829538229137774
 40
0.9911825958642991
 40
1.0
 40
1.0
 40
1.0
 40
1.0
 10
201.7739807798766
 20
436.1871421957815
 30
0.0
 10
203.7912221648616
 20
436.2172292949224
 30
0.0
 10
207.8127805524391
 20
436.2772274379831
 30
0.0
 10
213.8267842677461
 20
436.2809184262358
 30
0.0
 10
219.802414842275
 20
436.2208955235499
 30
0.0
 10
228.3966486699172
 20
436.0326574030798
 30
0.0
 10
239.4112727784675
 20
435.5779027459562
 30
0.0
 10
250.7832539386112
 20
434.7669484361469
 30
0.0
 10
259.6806397380583
 20
433.8947044081807
 30
0.0
 10
266.4205247166066
 20
433.0964660598469
 30
0.0
 10
271.8181228017104
 20
432.2610934433909
 30
0.0
 10
276.3030795053321
 20
431.6123844740957
 30
0.0
 10
279.1168052077575
 20
431.249600173146
 30
0.0
 10
281.2700450990626
 20
430.966589467938
 30
0.0
 10
282.4080322194802
 20
430.7991072933394
 30
0.0
 10
283.3073646423293
 20
430.6816248408339
 30
0.0
 10
284.1554249914552
 20
430.5809405760928
 30
0.0
 10
285.0851096001476
 20
430.4363778757319
 30
0.0
 10
285.973102841678
 20
430.2952255074803
 30
0.0
 10
287.126185452364
 20
430.1388790462018
 30
0.0
 10
288.5205369906017
 20
429.9783178850978
 30
0.0
 10
290.6413318257387
 20
429.6982211094875
 30
0.0
 10
293.0325467530365
 20
429.2937166957993
 30
0.0
 10
295.3335077411717
 20
428.9476755450798
 30
0.0
 10
296.6672219738667
 20
428.6825978322839
 30
0.0
 10
297.352358075646
 20
428.5796326842722
 30
0.0
 10
297.6070267201104
 20
428.5692982223601
 30
0.0
 10
297.7142271636499
 20
428.5754739253472
 30
0.0
 10
297.7241922330076
 20
428.5753915836146
 30
0.0
 10
297.7294611064244
 20
428.5754027532498
 30
0.0
  0
LINE
  5
18D
330
189
100
AcDbEntity
  8
$DDT_AUDIT_GENERATED_(77)
  6
Continuous
 62
     7
100
AcDbLine
 10
201.7739807799
 20
436.1871421958
 30
0.0
 11
196.4814698114
 21
436.1871488061
 31
0.0
  0
ARC
  5
18E
330
189
100
AcDbEntity
  8
$DDT_AUDIT_GENERATED_(77)
  6
Continuous
 62
     7
100
AcDbCircle
 10
219.6207954031
 20
407.7714796907
 30
0.0
 40
11.99999987338775
100
AcDbArc
 50
92.4330503763
 51
97.6338024121
  0
LINE
  5
18F
330
189
100
AcDbEntity
  8
$DDT_AUDIT_GENERATED_(77)
  6
Continuous
 62
     7
100
AcDbLine
 10
167.6207955297
 20
442.5717655385
 30
0.0
 11
167.6207955297
 21
354.1683778426
 31
0.0
  0
ARC
  5
190
330
189
100
AcDbEntity
  8
$DDT_AUDIT_GENERATED_(77)
  6
Continuous
 62
     7
100
AcDbCircle
 10
190.4835611228
 20
-1250.8749105717
 30
0.0
 40
1693.931488718414
100
AcDbArc
 50
89.6180016961
 51
89.8045383022
  0
ARC
  5
191
330
189
100
AcDbEntity
  8
$DDT_AUDIT_GENERATED_(77)
  6
Continuous
 62
     7
100
AcDbCircle
 10
203.9331369776
 20
-51.7530357308
 30
0.0
 40
494.776663319376
100
AcDbArc
 50
79.1193503703
 51
90.2496685294
  0
ARC
  5
192
330
189
100
AcDbEntity
  8
$DDT_AUDIT_GENERATED_(77)
  6
Continuous
 62
     7
100
AcDbCircle
 10
174.8232261341
 20
-7836.48582477
 30
0.0
 40
8279.560303168715
100
AcDbArc
 50
89.8516381896
 51
90.046381812
  0
SPLINE
  5
193
330
189
100
AcDbEntity
  8
$DDT_AUDIT_GENERATED_(77)
  6
Continuous
 62
     7
100
AcDbSpline
210
0.0
220
0.0
230
1.0
 70
     8
 71
     3
 72
    10
 73
     6
 74
     0
 42
0.0000000124189076
 43
0.0000000001
 40
0.0
 40
0.0
 40
0.0
 40
0.0
 40
0.5
 40
0.5
 40
1.0
 40
1.0
 40
1.0
 40
1.0
 10
167.6207955297344
 20
442.5717655385026
 30
0.0
 10
167.6207955297344
 20
442.7026652877713
 30
0.0
 10
167.6746821254835
 20
442.8327589769378
 30
0.0
 10
167.8598023877101
 20
443.0178791161651
 30
0.0
 10
167.9898961126804
 20
443.0717656254761
 30
0.0
 10
168.120795861949
 20
443.0717655385025
 30
0.0
  0
SPLINE
  5
194
330
189
100
AcDbEntity
  8
$DDT_AUDIT_GENERATED_(77)
  6
Continuous
 62
     7
100
AcDbSpline
210
0.0
220
0.0
230
1.0
 70
     8
 71
     3
 72
    10
 73
     6
 74
     0
 42
0.0000000143170542
 43
0.0000000001
 40
0.0
 40
0.0
 40
0.0
 40
0.0
 40
0.5
 40
0.5
 40
1.0
 40
1.0
 40
1.0
 40
1.0
 10
297.3290589003807
 20
434.1287897511724
 30
0.0
 10
297.4420443156976
 20
434.1057967317437
 30
0.0
 10
297.5438572932447
 20
434.0442130757436
 30
0.0
 10
297.6894469424165
 20
433.8658990763904
 30
0.0
 10
297.7293505444767
 20
433.7541332895551
 30
0.0
 10
297.7293504616081
 20
433.6388320188894
 30
0.0
  0
LINE
  5
195
330
189
100
AcDbEntity
  8
$DDT_AUDIT_GENERATED_(77)
  6
Continuous
 62
     7
100
AcDbLine
 10
297.7293504616
 20
433.6388320189
 30
0.0
 11
297.7293468224
 21
428.5753489911
 31
0.0
  0
ARC
  5
196
330
189
100
AcDbEntity
  8
$DDT_AUDIT_GENERATED_(77)
  6
Continuous
 62
     7
100
AcDbCircle
 10
296.8498382453
 20
428.5723760809
 30
0.0
 40
0.8796280682971095
100
AcDbArc
 50
327.4338231867
 51
0.1971468419
  0
ARC
  5
197
330
189
100
AcDbEntity
  8
$DDT_AUDIT_GENERATED_(77)
  6
Continuous
 62
     7
100
AcDbCircle
 10
284.7902583571
 20
435.6889239591
 30
0.0
 40
14.88192459378855
100
AcDbArc
 50
296.2862276319
 51
329.3350660563
  0
ARC
  5
198
330
189
100
AcDbEntity
  8
$DDT_AUDIT_GENERATED_(77)
  6
Continuous
 62
     7
100
AcDbCircle
 10
219.6207954031
 20
407.7714796907
 30
0.0
 40
11.99999987338774
100
AcDbArc
 50
92.4330503763
 51
179.9999994831
  0
SPLINE
  5
199
330
189
100
AcDbEntity
  8
$DDT_AUDIT_GENERATED_(77)
  6
Continuous
 62
     7
100
AcDbSpline
210
0.0
220
0.0
230
1.0
 70
     8
 71
     3
 72
    14
 73
    10
 74
     0
 42
0.0000000002045448
 43
0.0000000001
 40
0.0
 40
0.0
 40
0.0
 40
0.0
 40
0.1250000000000001
 40
0.1250000000000001
 40
0.2500000000000002
 40
0.2500000000000002
 40
0.5000000000000003
 40
0.5000000000000003
 40
1.0
 40
1.0
 40
1.0
 40
1.0
 10
267.3846818458109
 20
417.0362339105998
 30
0.0
 10
265.7781462158952
 20
418.2702762571955
 30
0.0
 10
263.7885702567676
 20
418.9445196562577
 30
0.0
 10
259.8065352573815
 20
419.6892249741791
 30
0.0
 10
257.7592294933208
 20
419.7958754522677
 30
0.0
 10
251.658590502087
 20
420.0027338090162
 30
0.0
 10
247.5907116652485
 20
420.093479876291
 30
0.0
 10
235.3847899327644
 20
420.2286369001902
 30
0.0
 10
227.2410265576272
 20
420.106093821649
 30
0.0
 10
219.1113712810471
 20
419.7606623759889
 30
0.0
  0
ARC
  5
19A
330
189
100
AcDbEntity
  8
$DDT_AUDIT_GENERATED_(77)
  6
Continuous
 62
     7
100
AcDbCircle
 10
285.6845736829
 20
391.2110026726
 30
0.0
 40
31.65167625487734
100
AcDbArc
 50
79.6322131545
 51
125.3215827122
  0
LINE
  5
19B
330
189
100
AcDbEntity
  8
02636038_GEHÄUSE
  6
Continuous
 62
     7
100
AcDbLine
 10
270.3924414445
 20
412.3287509811
 30
0.0
 11
290.9529936978
 21
418.6147426326
 31
0.0
  0
SPLINE
  5
19C
330
189
100
AcDbEntity
  8
02636038_GEHÄUSE
  6
Continuous
 62
     7
100
AcDbSpline
210
0.0
220
0.0
230
1.0
 70
     8
 71
     3
 72
    10
 73
     6
 74
     0
 42
0.0000000019260148
 43
0.0000000001
 40
0.0
 40
0.0
 40
0.0
 40
0.0
 40
0.5
 40
0.5
 40
1.0
 40
1.0
 40
1.0
 40
1.0
 10
283.0533626184586
 20
416.5316347688539
 30
0.0
 10
282.2623143600687
 20
416.1706640988486
 30
0.0
 10
281.4552232801911
 20
415.8619259914889
 30
0.0
 10
279.8062388637129
 20
415.3577597114285
 30
0.0
 10
278.9643450583113
 20
415.1623330650599
 30
0.0
 10
278.1063915531714
 20
415.0191939339074
 30
0.0
  0
LINE
  5
19D
330
189
100
AcDbEntity
  8
02636038_GEHÄUSE
  6
Continuous
 62
     7
100
AcDbLine
 10
283.8798187419
 20
419.5893313027
 30
0.0
 11
275.7113861721
 21
417.0919908467
 31
0.0
  0
LINE
  5
19E
330
189
100
AcDbEntity
  8
02636038_GEHÄUSE
  6
Continuous
 62
     7
100
AcDbLine
 10
283.8798187419
 20
419.5893313027
 30
0.0
 11
284.4108920471
 21
417.8522687918
 31
0.0
  0
SPLINE
  5
19F
330
189
100
AcDbEntity
  8
02636038_GEHÄUSE
  6
Continuous
 62
     7
100
AcDbSpline
210
0.0
220
0.0
230
1.0
 70
     8
 71
     3
 72
    14
 73
    10
 74
     0
 42
0.0000000049321089
 43
0.0000000001
 40
0.0
 40
0.0
 40
0.0
 40
0.0
 40
0.1250000000000004
 40
0.1250000000000004
 40
0.2500000000000009
 40
0.2500000000000009
 40
0.5000000000000008
 40
0.5000000000000008
 40
1.0
 40
1.0
 40
1.0
 40
1.0
 10
284.4108920470601
 20
417.8522687918064
 30
0.0
 10
284.4355218192351
 20
417.7717084369954
 30
0.0
 10
284.4293936737781
 20
417.6818532416746
 30
0.0
 10
284.3784795017065
 20
417.5207291192916
 30
0.0
 10
284.3353654151175
 20
417.4458358998552
 30
0.0
 10
284.1860789247189
 20
417.2421685508961
 30
0.0
 10
284.057782038536
 20
417.12827692841
 30
0.0
 10
283.6576905506391
 20
416.8267542765451
 30
0.0
 10
283.3578381731179
 20
416.6705728725663
 30
0.0
 10
283.0533626184586
 20
416.5316347688539
 30
0.0
  0
SPLINE
  5
1A0
330
189
100
AcDbEntity
  8
02636038_GEHÄUSE
  6
Continuous
 62
     7
100
AcDbSpline
210
0.0
220
0.0
230
1.0
 70
     8
 71
     3
 72
    18
 73
    14
 74
     0
 42
0.0000000049401632
 43
0.0000000001
 40
0.0
 40
0.0
 40
0.0
 40
0.0
 40
0.2499999999999998
 40
0.2499999999999998
 40
0.4999999999999997
 40
0.4999999999999997
 40
0.6249999999999992
 40
0.6249999999999992
 40
0.7499999999999989
 40
0.7499999999999989
 40
0.8749999999999994
 40
0.8749999999999994
 40
1.0
 40
1.0
 40
1.0
 40
1.0
 10
278.1063915531714
 20
415.0191939339074
 30
0.0
 10
277.9408403405114
 20
414.9915737230223
 30
0.0
 10
277.7746058967901
 20
414.9690620812491
 30
0.0
 10
277.4399111106351
 20
414.9406820067944
 30
0.0
 10
277.2715490110397
 20
414.9346468089188
 30
0.0
 10
277.0212426584754
 20
414.9479764081001
 30
0.0
 10
276.9380404307066
 20
414.9561774211846
 30
0.0
 10
276.772343913579
 20
414.9839861243591
 30
0.0
 10
276.6893762661565
 20
415.0037273058048
 30
0.0
 10
276.5318894949023
 20
415.0604604481767
 30
0.0
 10
276.4552472736693
 20
415.0977928460167
 30
0.0
 10
276.3220010843181
 20
415.2036180374195
 30
0.0
 10
276.2675306384416
 20
415.2729242627161
 30
0.0
 10
276.2424594772945
 20
415.3549283358028
 30
0.0
  0
LINE
  5
1A1
330
189
100
AcDbEntity
  8
02636038_GEHÄUSE
  6
Continuous
 62
     7
100
AcDbLine
 10
276.2424594773
 20
415.3549283358
 30
0.0
 11
275.7113861721
 21
417.0919908467
 31
0.0
  0
LINE
  5
1A2
330
189
100
AcDbEntity
  8
02636038_GEHÄUSE
  6
Continuous
 62
     7
100
AcDbLine
 10
269.7736333434
 20
412.471614088
 30
0.0
 11
270.3924414445
 21
412.3287509811
 31
0.0
  0
LINE
  5
1A3
330
189
100
AcDbEntity
  8
02636038_GEHÄUSE
  6
Continuous
 62
     7
100
AcDbLine
 10
290.9529936978
 20
418.6147426326
 30
0.0
 11
291.3861208282
 21
419.0792146147
 31
0.0
  0
ARC
  5
1A4
330
189
100
AcDbEntity
  8
02636038_GEHÄUSE
  6
Continuous
 62
     7
100
AcDbCircle
 10
269.9985843978
 20
413.4459841528
 30
0.0
 40
0.9999999999999983
100
AcDbArc
 50
197.0
 51
257.0
  0
ARC
  5
1A5
330
189
100
AcDbEntity
  8
02636038_GEHÄUSE
  6
Continuous
 62
     7
100
AcDbCircle
 10
290.6547671266
 20
419.7612129748
 30
0.0
 40
0.9999999999999981
100
AcDbArc
 50
317.0
 51
17.0
  0
LINE
  5
1A6
330
189
100
AcDbEntity
  8
02636038_GEHÄUSE
  6
Continuous
 62
     7
100
AcDbLine
 10
267.7713405952
 20
417.3106667567
 30
0.0
 11
269.0422796418
 21
413.1536124481
 31
0.0
  0
LINE
  5
1A7
330
189
100
AcDbEntity
  8
02636038_GEHÄUSE
  6
Continuous
 62
     7
100
AcDbLine
 10
291.6110718825
 20
420.0535846795
 30
0.0
 11
290.8970278471
 21
422.3891174826
 31
0.0
  0
LINE
  5
1A8
330
189
100
AcDbEntity
  8
$DDT_AUDIT_GENERATED_(A2)
  6
Continuous
 62
     7
100
AcDbLine
 10
272.1829234494
 20
412.4578795619
 30
0.0
 11
289.3964090567
 21
417.7205702469
 31
0.0
  0
LINE
  5
1A9
330
189
100
AcDbEntity
  8
$DDT_AUDIT_GENERATED_(A2)
  6
Continuous
 62
     7
100
AcDbLine
 10
272.0659747675
 20
412.8404014643
 30
0.0
 11
272.1829234494
 21
412.4578795619
 31
0.0
  0
LINE
  5
1AA
330
189
100
AcDbEntity
  8
$DDT_AUDIT_GENERATED_(A2)
  6
Continuous
 62
     7
100
AcDbLine
 10
289.3964090567
 20
417.7205702469
 30
0.0
 11
289.2794603748
 21
418.1030921493
 31
0.0
  0
LINE
  5
1AB
330
189
100
AcDbEntity
  8
$DDT_AUDIT_GENERATED_(15C)
  6
Continuous
 62
     7
100
AcDbLine
 10
171.3707975897
 20
443.8717386308
 30
0.0
 11
171.3707975897
 21
443.0717345668
 31
0.0
  0
LINE
  5
1AC
330
189
100
AcDbEntity
  8
$DDT_AUDIT_GENERATED_(15C)
  6
Continuous
 62
     7
100
AcDbLine
 10
203.8707975897
 20
442.9876552476
 30
0.0
 11
203.8707975897
 21
443.8717386308
 31
0.0
  0
LINE
  5
1AD
330
189
100
AcDbEntity
  8
$DDT_AUDIT_GENERATED_(15F)
  6
Continuous
 62
     7
100
AcDbLine
 10
212.3707975897
 20
349.1683783016
 30
0.0
 11
162.8707975897
 21
349.1683783016
 31
0.0
  0
LINE
  5
1AE
330
189
100
AcDbEntity
  8
$DDT_AUDIT_GENERATED_(15F)
  6
Continuous
 62
     7
100
AcDbLine
 10
163.5707975897
 20
354.1683783016
 30
0.0
 11
211.6707975897
 21
354.1683783016
 31
0.0
  0
LINE
  5
1AF
330
189
100
AcDbEntity
  8
$DDT_AUDIT_GENERATED_(15F)
  6
Continuous
 62
     7
100
AcDbLine
 10
212.3707975897
 20
349.1683783016
 30
0.0
 11
212.3707975897
 21
353.4683783016
 31
0.0
  0
LINE
  5
1B0
330
189
100
AcDbEntity
  8
$DDT_AUDIT_GENERATED_(15F)
  6
Continuous
 62
     7
100
AcDbLine
 10
162.8707975897
 20
353.4683783016
 30
0.0
 11
162.8707975897
 21
349.1683783016
 31
0.0
  0
ARC
  5
1B1
330
189
100
AcDbEntity
  8
$DDT_AUDIT_GENERATED_(15F)
  6
Continuous
 62
     7
100
AcDbCircle
 10
211.6707975897
 20
353.4683783016
 30
0.0
 40
0.6999999999999993
100
AcDbArc
 50
0.0
 51
90.0
  0
ARC
  5
1B2
330
189
100
AcDbEntity
  8
$DDT_AUDIT_GENERATED_(15F)
  6
Continuous
 62
     7
100
AcDbCircle
 10
163.5707975897
 20
353.4683783016
 30
0.0
 40
0.7000000000000001
100
AcDbArc
 50
90.0
 51
180.0
  0
ARC
  5
1B3
330
189
100
AcDbEntity
  8
$DDT_AUDIT_GENERATED_(166)
  6
Continuous
 62
     7
100
AcDbCircle
 10
197.1185103786
 20
418.6667732011
 30
0.0
 40
56.23346800747261
100
AcDbArc
 50
79.2889270294
 51
83.0850300692
  0
ARC
  5
1B4
330
189
100
AcDbEntity
  8
$DDT_AUDIT_GENERATED_(166)
  6
Continuous
 62
     7
100
AcDbCircle
 10
219.713620158
 20
1755.7238477079
 30
0.0
 40
1281.336967648869
100
AcDbArc
 50
269.3926967891
 51
271.2022758403
  0
ARC
  5
1B5
330
189
100
AcDbEntity
  8
$DDT_AUDIT_GENERATED_(166)
  6
Continuous
 62
     7
100
AcDbCircle
 10
206.1063396157
 20
550.4986263877
 30
0.0
 40
76.03977356187039
100
AcDbArc
 50
268.3288579252
 51
270.0196510544
  0
SPLINE
  5
1B6
330
189
100
AcDbEntity
  8
$DDT_AUDIT_GENERATED_(166)
  6
Continuous
 62
     7
100
AcDbSpline
210
0.0
220
0.0
230
1.0
 70
     8
 71
     3
 72
    16
 73
    12
 74
     0
 42
0.0000000041408553
 43
0.0000000001
 40
0.0
 40
0.0
 40
0.0
 40
0.0
 40
0.1025133079130672
 40
0.2505105408538335
 40
0.3954700983346073
 40
0.5006898730837882
 40
0.6187128910924107
 40
0.7282953303001053
 40
0.8288078740005893
 40
0.9195813257482357
 40
1.0
 40
1.0
 40
1.0
 40
1.0
 10
201.8595190694534
 20
475.7481058934931
 30
0.0
 10
201.9309417490848
 20
475.6901300496585
 30
0.0
 10
202.1054764945529
 20
475.548455175526
 30
0.0
 10
202.3757053317204
 20
475.3290254576028
 30
0.0
 10
202.6451135500588
 20
475.1197889386155
 30
0.0
 10
202.8942718501915
 20
474.9421141233541
 30
0.0
 10
203.1174637221696
 20
474.7954197992506
 30
0.0
 10
203.3368712302164
 20
474.6711523494241
 30
0.0
 10
203.538582447157
 20
474.5804956985027
 30
0.0
 10
203.7216258551827
 20
474.5191721427185
 30
0.0
 10
203.8353528909107
 20
474.5001081305535
 30
0.0
 10
203.8888071949357
 20
474.4911944266761
 30
0.0
  0
LINE
  5
1B7
330
189
100
AcDbEntity
  8
$DDT_AUDIT_GENERATED_(166)
  6
Continuous
 62
     7
100
AcDbLine
 10
168.18470884
 20
478.0178097364
 30
0.0
 11
201.502685972
 21
478.0178098159
 31
0.0
  0
LINE
  5
1B8
330
189
100
AcDbEntity
  8
$DDT_AUDIT_GENERATED_(166)
  6
Continuous
 62
     7
100
AcDbLine
 10
201.502685972
 20
478.0178098159
 30
0.0
 11
206.1335576607
 21
478.0178098269
 31
0.0
  0
LINE
  5
1B9
330
189
100
AcDbEntity
  8
$DDT_AUDIT_GENERATED_(166)
  6
Continuous
 62
     7
100
AcDbLine
 10
247.0711876371
 20
478.0178099245
 30
0.0
 11
206.1335575642
 21
478.0178098269
 31
0.0
  0
LINE
  5
1BA
330
189
100
AcDbEntity
  8
$DDT_AUDIT_GENERATED_(166)
  6
Continuous
 62
     7
100
AcDbLine
 10
167.9847081432
 20
443.8717386308
 30
0.0
 11
207.2608740626
 21
443.8717386308
 31
0.0
  0
LINE
  5
1BB
330
189
100
AcDbEntity
  8
$DDT_AUDIT_GENERATED_(166)
  6
Continuous
 62
     7
100
AcDbLine
 10
207.5609573855
 20
444.1716487868
 30
0.0
 11
207.56986657
 21
473.9204796642
 31
0.0
  0
LINE
  5
1BC
330
189
100
AcDbEntity
  8
$DDT_AUDIT_GENERATED_(166)
  6
Continuous
 62
     7
100
AcDbLine
 10
167.6847088407
 20
477.5178097364
 30
0.0
 11
167.6847088407
 21
444.1717386308
 31
0.0
  0
LINE
  5
1BD
330
189
100
AcDbEntity
  8
$DDT_AUDIT_GENERATED_(166)
  6
Continuous
 62
     7
100
AcDbLine
 10
247.5715150327
 20
475.8119827145
 30
0.0
 11
247.5715149747
 21
477.5178099421
 31
0.0
  0
SPLINE
  5
1BE
330
189
100
AcDbEntity
  8
$DDT_AUDIT_GENERATED_(166)
  6
Continuous
 62
     7
100
AcDbSpline
210
0.0
220
0.0
230
1.0
 70
     8
 71
     3
 72
    28
 73
    24
 74
     0
 42
0.0000000002560916
 43
0.0000000001
 40
0.0
 40
0.0
 40
0.0
 40
0.0
 40
0.0419082746605451
 40
0.1209429203722313
 40
0.1994125397477415
 40
0.2737188282726968
 40
0.3414683187975138
 40
0.4024893739267441
 40
0.4619222146210812
 40
0.5133861512222361
 40
0.5569745064193187
 40
0.5932612727478802
 40
0.6238285729013787
 40
0.6648870299013758
 40
0.7026468101931037
 40
0.7423554429133427
 40
0.7869085150105269
 40
0.8130889502499653
 40
0.8417970942224633
 40
0.8742054348102445
 40
0.9119511300581331
 40
0.956717408718607
 40
1.0
 40
1.0
 40
1.0
 40
1.0
 10
207.5699052052395
 20
473.920479670739
 30
0.0
 10
208.1699220594088
 20
473.9204796742243
 30
0.0
 10
209.6405993056812
 20
473.9204796477241
 30
0.0
 10
212.3013303407769
 20
473.9204799414015
 30
0.0
 10
215.2981546591837
 20
473.9204788709386
 30
0.0
 10
218.1735476833146
 20
473.9204826083447
 30
0.0
 10
220.8155599122334
 20
473.9204685177612
 30
0.0
 10
223.2654571494282
 20
473.9203098169143
 30
0.0
 10
225.5030374802903
 20
473.9198684870102
 30
0.0
 10
227.5138008172746
 20
473.9189704410957
 30
0.0
 10
229.2232803848689
 20
473.9174489757667
 30
0.0
 10
230.6607763230329
 20
473.915226368241
 30
0.0
 10
232.065342111612
 20
473.9130012379166
 30
0.0
 10
233.4890856341109
 20
473.9123820143145
 30
0.0
 10
235.0317996419865
 20
473.919335715619
 30
0.0
 10
236.6199218202567
 20
473.9382671939082
 30
0.0
 10
238.0570928885752
 20
473.9678999431907
 30
0.0
 10
239.3510230615586
 20
474.0030193920173
 30
0.0
 10
240.4864293925742
 20
474.0364996924147
 30
0.0
 10
241.7734681449244
 20
474.0979206387728
 30
0.0
 10
243.2572748491479
 20
474.2172382565807
 30
0.0
 10
244.9174753696294
 20
474.4086492613961
 30
0.0
 10
245.9672228892778
 20
474.5734646279691
 30
0.0
 10
246.5791523851289
 20
474.6712517014834
 30
0.0
  0
ARC
  5
1BF
330
189
100
AcDbEntity
  8
$DDT_AUDIT_GENERATED_(166)
  6
Continuous
 62
     7
100
AcDbCircle
 10
246.4141672291
 20
475.8113824252
 30
0.0
 40
1.157133532024266
100
AcDbArc
 50
279.1952613419
 51
359.9995966025
  0
ARC
  5
1C0
330
189
100
AcDbEntity
  8
$DDT_AUDIT_GENERATED_(166)
  6
Continuous
 62
     7
100
AcDbCircle
 10
168.1847088407
 20
477.5178097364
 30
0.0
 40
0.4999999999999734
100
AcDbArc
 50
90.00000014
 51
179.9810666643
  0
ELLIPSE
  5
1C1
330
189
100
AcDbEntity
  8
$DDT_AUDIT_GENERATED_(166)
  6
Continuous
 62
     7
100
AcDbEllipse
 10
247.0711812914
 20
477.5178099245
 30
0.0
 11
7.528214163166069E-10
 21
-0.4999999999991123
 31
0.0
210
0.0
220
0.0
230
1.0
 40
0.9999695475
 41
1.576267924532913
 42
3.142927157314381
  0
ARC
  5
1C2
330
189
100
AcDbEntity
  8
$DDT_AUDIT_GENERATED_(166)
  6
Continuous
 62
     7
100
AcDbCircle
 10
207.2608785871
 20
444.17173863
 30
0.0
 40
0.2999983360222341
100
AcDbArc
 50
269.969665407
 51
359.9832392693
  0
ARC
  5
1C3
330
189
100
AcDbEntity
  8
$DDT_AUDIT_GENERATED_(166)
  6
Continuous
 62
     7
100
AcDbCircle
 10
167.9847471026
 20
444.17173863
 30
0.0
 40
0.2999992381631076
100
AcDbArc
 50
180.0344443911
 51
270.0146994809
  0
ENDBLK
  5
1C5
330
189
100
AcDbEntity
  8
0
100
AcDbBlockEnd
  0
BLOCK
  5
1D8
330
1C6
100
AcDbEntity
  8
0
100
AcDbBlockBegin
  2
SE2
 70
     0
 10
0.0
 20
0.0
 30
0.0
  3
SE2
  1

  0
ARC
  5
1C8
330
1C6
100
AcDbEntity
  8
$DDT_AUDIT_GENERATED_(77)
  6
Continuous
 62
     7
100
AcDbCircle
 10
48.9849364527
 20
202.9817205099
 30
0.0
 40
12.00000029067182
100
AcDbArc
 50
0.0392948266
 51
26.2149618216
  0
SPLINE
  5
1C9
330
1C6
100
AcDbEntity
  8
$DDT_AUDIT_GENERATED_(77)
  6
Continuous
 62
     7
100
AcDbSpline
210
0.0
220
0.0
230
1.0
 70
     8
 71
     3
 72
    30
 73
    26
 74
     0
 42
0.0000000000949289
 43
0.0000000001
 40
0.0
 40
0.0
 40
0.0
 40
0.0
 40
0.0312500000000003
 40
0.0312500000000003
 40
0.0625000000000006
 40
0.0625000000000006
 40
0.125000000000001
 40
0.125000000000001
 40
0.1562500000000011
 40
0.1562500000000011
 40
0.1875000000000012
 40
0.1875000000000012
 40
0.2187500000000013
 40
0.2187500000000013
 40
0.2500000000000014
 40
0.2500000000000014
 40
0.3750000000000013
 40
0.3750000000000013
 40
0.5000000000000012
 40
0.5000000000000012
 40
0.7500000000000008
 40
0.7500000000000008
 40
0.8750000000000004
 40
0.8750000000000004
 40
1.0
 40
1.0
 40
1.0
 40
1.0
 10
77.65658305319505
 20
107.0346556331352
 30
0.0
 10
76.53089692775659
 20
107.0346901622583
 30
0.0
 10
75.42228241694943
 20
107.150858747628
 30
0.0
 10
73.2382006390606
 20
107.6088089958111
 30
0.0
 10
72.15415641100594
 20
107.956465244382
 30
0.0
 10
69.09395348084335
 20
109.2983923923045
 30
0.0
 10
67.23405576897707
 20
110.6234462861313
 30
0.0
 10
64.9762945521948
 20
113.0516551082831
 30
0.0
 10
64.29961276275279
 20
113.94802452259
 30
0.0
 10
63.14580072484802
 20
115.8438325260917
 30
0.0
 10
62.6669709798763
 20
116.8372855981641
 30
0.0
 10
61.89125156698879
 20
118.9092324985301
 30
0.0
 10
61.58933274307094
 20
119.9965288015017
 30
0.0
 10
61.38677921863579
 20
122.158639735175
 30
0.0
 10
61.38234463978367
 20
123.242321988338
 30
0.0
 10
61.27364918942263
 20
128.6626784634252
 30
0.0
 10
61.25497299005385
 20
133.0112739316325
 30
0.0
 10
61.19290399657583
 20
141.7263235950569
 30
0.0
 10
61.16741813705961
 20
146.0880005289102
 30
0.0
 10
61.09804973235719
 20
159.1834235270547
 30
0.0
 10
61.0618483893934
 20
167.9279402829087
 30
0.0
 10
61.02125925601204
 20
181.0628018132386
 30
0.0
 10
61.01017612325753
 20
185.4439698502935
 30
0.0
 10
60.99353412462704
 20
194.2126064579703
 30
0.0
 10
60.98794427523317
 20
198.6005584500315
 30
0.0
 10
60.9849339212093
 20
202.9899503987099
 30
0.0
  0
ARC
  5
1CA
330
1C6
100
AcDbEntity
  8
$DDT_AUDIT_GENERATED_(77)
  6
Continuous
 62
     7
100
AcDbCircle
 10
106.3282296537
 20
202.9817205099
 30
0.0
 40
12.00000029067183
100
AcDbArc
 50
153.7850381784
 51
179.9607051734
  0
SPLINE
  5
1CB
330
1C6
100
AcDbEntity
  8
$DDT_AUDIT_GENERATED_(77)
  6
Continuous
 62
     7
100
AcDbSpline
210
0.0
220
0.0
230
1.0
 70
     8
 71
     3
 72
    30
 73
    26
 74
     0
 42
0.0000000000949289
 43
0.0000000001
 40
0.0
 40
0.0
 40
0.0
 40
0.0
 40
0.0312500000000001
 40
0.0312500000000001
 40
0.0625000000000001
 40
0.0625000000000001
 40
0.1250000000000001
 40
0.1250000000000001
 40
0.15625
 40
0.15625
 40
0.1874999999999999
 40
0.1874999999999999
 40
0.2187499999999997
 40
0.2187499999999997
 40
0.2499999999999996
 40
0.2499999999999996
 40
0.3749999999999998
 40
0.3749999999999998
 40
0.5
 40
0.5
 40
0.7500000000000001
 40
0.7500000000000001
 40
0.875
 40
0.875
 40
1.0
 40
1.0
 40
1.0
 40
1.0
 10
77.65658305319505
 20
107.0346556331352
 30
0.0
 10
78.78226917863351
 20
107.0346901622583
 30
0.0
 10
79.89088368944063
 20
107.1508587476281
 30
0.0
 10
82.0749654673295
 20
107.608808995811
 30
0.0
 10
83.15900969538416
 20
107.956465244382
 30
0.0
 10
86.21921262554676
 20
109.2983923923045
 30
0.0
 10
88.07911033741303
 20
110.6234462861313
 30
0.0
 10
90.33687155419531
 20
113.0516551082831
 30
0.0
 10
91.01355334363733
 20
113.94802452259
 30
0.0
 10
92.16736538154207
 20
115.8438325260917
 30
0.0
 10
92.64619512651377
 20
116.8372855981641
 30
0.0
 10
93.42191453940134
 20
118.9092324985301
 30
0.0
 10
93.72383336331916
 20
119.9965288015017
 30
0.0
 10
93.92638688775432
 20
122.1586397351749
 30
0.0
 10
93.93082146660642
 20
123.242321988338
 30
0.0
 10
94.0395169169675
 20
128.6626784634251
 30
0.0
 10
94.05819311633626
 20
133.0112739316325
 30
0.0
 10
94.12026210981426
 20
141.7263235950569
 30
0.0
 10
94.14574796933049
 20
146.0880005289102
 30
0.0
 10
94.2151163740329
 20
159.1834235270546
 30
0.0
 10
94.2513177169967
 20
167.9279402829087
 30
0.0
 10
94.29190685037806
 20
181.0628018132386
 30
0.0
 10
94.30298998313255
 20
185.4439698502935
 30
0.0
 10
94.31963198176305
 20
194.2126064579703
 30
0.0
 10
94.32522183115691
 20
198.6005584500315
 30
0.0
 10
94.3282321851808
 20
202.9899503987099
 30
0.0
  0
ARC
  5
1CC
330
1C6
100
AcDbEntity
  8
$DDT_AUDIT_GENERATED_(15F)
  6
Continuous
 62
     7
100
AcDbCircle
 10
77.6565830532
 20
217.1432085051
 30
0.0
 40
24.75
100
AcDbArc
 50
312.3698198631
 51
0.0
  0
ARC
  5
1CD
330
1C6
100
AcDbEntity
  8
$DDT_AUDIT_GENERATED_(15F)
  6
Continuous
 62
     7
100
AcDbCircle
 10
77.6565830532
 20
217.1432085051
 30
0.0
 40
24.75
100
AcDbArc
 50
0.0
 51
227.6476349645
  0
SPLINE
  5
1CE
330
1C6
100
AcDbEntity
  8
$DDT_AUDIT_GENERATED_(166)
  6
Continuous
 62
     7
100
AcDbSpline
210
0.0
220
0.0
230
1.0
 70
     8
 71
     3
 72
     8
 73
     4
 74
     0
 42
0.0000000001034715
 43
0.0000000001
 40
0.0
 40
0.0
 40
0.0
 40
0.0
 40
0.1543827983953329
 40
0.1543827983953329
 40
0.1543827983953329
 40
0.1543827983953329
 10
65.47343825842032
 20
198.6297912266748
 30
0.0
 10
65.48117949515199
 20
193.6562239116548
 30
0.0
 10
65.4889207320063
 20
188.682656520917
 30
0.0
 10
65.47838391856449
 20
183.7094921757487
 30
0.0
  0
SPLINE
  5
1CF
330
1C6
100
AcDbEntity
  8
$DDT_AUDIT_GENERATED_(166)
  6
Continuous
 62
     7
100
AcDbSpline
210
0.0
220
0.0
230
1.0
 70
     8
 71
     3
 72
    25
 73
    21
 74
     0
 42
0.0000000001025839
 43
0.0000000001
 40
0.2678248354451923
 40
0.2678248354451923
 40
0.2678248354451923
 40
0.2678248354451923
 40
0.2704864875830468
 40
0.297848239039978
 40
0.3293831775620286
 40
0.3439732766463564
 40
0.3631808007561286
 40
0.3848859300394176
 40
0.4296445307976128
 40
0.4628405163883126
 40
0.4960490712504603
 40
0.5295199561211873
 40
0.5627822194346663
 40
0.5959020955471824
 40
0.6290172776565208
 40
0.6627294743941511
 40
0.6790672242175916
 40
0.6954737474693369
 40
0.7212299414048821
 40
0.7234945834272163
 40
0.7234945834272163
 40
0.7234945834272163
 40
0.7234945834272163
 10
65.43466288987189
 20
172.7460501169518
 30
0.0
 10
65.43448436206556
 20
172.6603375399765
 30
0.0
 10
65.43277447107756
 20
171.6935522341996
 30
0.0
 10
65.43698717845712
 20
169.7126222388719
 30
0.0
 10
65.56821693116768
 20
167.3373661580491
 30
0.0
 10
66.07823920433196
 20
165.2891799123105
 30
0.0
 10
66.7873996255365
 20
163.6368808357503
 30
0.0
 10
68.31878651002168
 20
161.3257169014802
 30
0.0
 10
70.77300147799426
 20
159.149756477692
 30
0.0
 10
74.04460189835113
 20
157.6128503340701
 30
0.0
 10
77.25446844644425
 20
157.0440825541384
 30
0.0
 10
80.49777993841172
 20
157.4014283010941
 30
0.0
 10
83.51688762824685
 20
158.6115933217575
 30
0.0
 10
86.13457218828103
 20
160.5146793114189
 30
0.0
 10
88.22601202401654
 20
163.0083500925247
 30
0.0
 10
89.31913883012663
 20
165.5063053007508
 30
0.0
 10
89.69211800298284
 20
167.619585713358
 30
0.0
 10
89.82016342970395
 20
169.5005120489282
 30
0.0
 10
89.83204742039882
 20
170.9316922812917
 30
0.0
 10
89.83388040050912
 20
171.8343409574256
 30
0.0
 10
89.83399394194697
 20
171.9072928886853
 30
0.0
  0
LINE
  5
1D0
330
1C6
100
AcDbEntity
  8
$DDT_AUDIT_GENERATED_(166)
  6
Continuous
 62
     7
100
AcDbLine
 10
65.4734385047
 20
198.6296392265
 30
0.0
 11
65.4734382584
 21
198.6297912267
 31
0.0
  0
SPLINE
  5
1D1
330
1C6
100
AcDbEntity
  8
$DDT_AUDIT_GENERATED_(166)
  6
Continuous
 62
     7
100
AcDbSpline
210
0.0
220
0.0
230
1.0
 70
     8
 71
     3
 72
    42
 73
    38
 74
     0
 42
0.0000000001032677
 43
0.0000000001
 40
0.0
 40
0.0
 40
0.0
 40
0.0
 40
0.2500000000000001
 40
0.2500000000000001
 40
0.2812500000000001
 40
0.2812500000000001
 40
0.3125000000000001
 40
0.3125000000000001
 40
0.3437500000000002
 40
0.3437500000000002
 40
0.3750000000000002
 40
0.3750000000000002
 40
0.4062500000000002
 40
0.4062500000000002
 40
0.4375000000000002
 40
0.4375000000000002
 40
0.4687500000000002
 40
0.4687500000000002
 40
0.5000000000000002
 40
0.5000000000000002
 40
0.5312500000000002
 40
0.5312500000000002
 40
0.5625000000000002
 40
0.5625000000000002
 40
0.5937500000000002
 40
0.5937500000000002
 40
0.6250000000000002
 40
0.6250000000000002
 40
0.6562500000000003
 40
0.6562500000000003
 40
0.6875000000000003
 40
0.6875000000000003
 40
0.7187500000000003
 40
0.7187500000000003
 40
0.7500000000000003
 40
0.7500000000000003
 40
1.0
 40
1.0
 40
1.0
 40
1.0
 10
89.79512426221636
 20
198.6296393162299
 30
0.0
 10
89.78205372655354
 20
190.5535723279147
 30
0.0
 10
89.78880367564791
 20
182.477494820342
 30
0.0
 10
89.83270257309529
 20
173.3919605421626
 30
0.0
 10
89.83770966187964
 20
172.3824567261003
 30
0.0
 10
89.8266422570069
 20
170.3634502953149
 30
0.0
 10
89.81540689656745
 20
169.3517460143792
 30
0.0
 10
89.65643732712115
 20
167.3396096973205
 30
0.0
 10
89.49473724705133
 20
166.3521366673398
 30
0.0
 10
88.86615018651209
 20
164.4462165668468
 30
0.0
 10
88.40461764666608
 20
163.5316700207434
 30
0.0
 10
87.28241380493279
 20
161.8776706418075
 30
0.0
 10
86.60693195911954
 20
161.1120232760365
 30
0.0
 10
85.11139769674175
 20
159.7690132922557
 30
0.0
 10
84.29015243374967
 20
159.1863754584265
 30
0.0
 10
82.51464679102743
 20
158.2151541321123
 30
0.0
 10
81.58766215228337
 20
157.8417780300617
 30
0.0
 10
79.65216720363719
 20
157.3282548357719
 30
0.0
 10
78.63554335939841
 20
157.1926985490473
 30
0.0
 10
76.63785930518577
 20
157.1922841856025
 30
0.0
 10
75.63012940057077
 20
157.3252495550038
 30
0.0
 10
73.68190511036612
 20
157.8407059281144
 30
0.0
 10
72.7526956926503
 20
158.2159257955341
 30
0.0
 10
70.97835669642328
 20
159.186367347856
 30
0.0
 10
70.15623911137278
 20
159.7699834421675
 30
0.0
 10
68.6645180476906
 20
161.1092911135098
 30
0.0
 10
67.98649559158594
 20
161.8774219972181
 30
0.0
 10
66.8655111082235
 20
163.5290980220672
 30
0.0
 10
66.40990206204123
 20
164.4267494175921
 30
0.0
 10
65.77316353890686
 20
166.3510040982966
 30
0.0
 10
65.61197102013357
 20
167.3413048897989
 30
0.0
 10
65.45321643967847
 20
169.3512367325328
 30
0.0
 10
65.44190886128744
 20
170.3639647477331
 30
0.0
 10
65.43085853357854
 20
172.38293172489
 30
0.0
 10
65.4358637953458
 20
173.3924229185509
 30
0.0
 10
65.47975437669726
 20
182.4778428150907
 30
0.0
 10
65.4865086458958
 20
190.5537479760573
 30
0.0
 10
65.47343850465647
 20
198.6296392265211
 30
0.0
  0
ARC
  5
1D2
330
1C6
100
AcDbEntity
  8
$DDT_AUDIT_GENERATED_(166)
  6
Continuous
 62
     7
100
AcDbCircle
 10
59.4734463308
 20
198.6199287528
 30
0.0
 40
6.000000031626828
100
AcDbArc
 50
0.092728234
 51
45.5662325831
  0
ARC
  5
1D3
330
1C6
100
AcDbEntity
  8
$DDT_AUDIT_GENERATED_(166)
  6
Continuous
 62
     7
100
AcDbCircle
 10
95.7951164359
 20
198.6199287607
 30
0.0
 40
6.000000031615449
100
AcDbArc
 50
134.433767443
 51
179.9072709855
  0
ARC
  5
1D4
330
1C6
100
AcDbEntity
  8
$DDT_AUDIT_GENERATED_(166)
  6
Continuous
 62
     7
100
AcDbCircle
 10
77.6342813793
 20
217.1385813282
 30
0.0
 40
19.93754854509594
100
AcDbArc
 50
314.4432847642
 51
225.5567152606
  0
ARC
  5
1D5
330
1C6
100
AcDbEntity
  8
$DDT_AUDIT_GENERATED_(166)
  6
Continuous
 62
     7
100
AcDbCircle
 10
77.635609277
 20
217.1417406054
 30
0.0
 40
19.92691131530096
100
AcDbArc
 50
0.0
 51
70.561639259
  0
ARC
  5
1D6
330
1C6
100
AcDbEntity
  8
$DDT_AUDIT_GENERATED_(166)
  6
Continuous
 62
     7
100
AcDbCircle
 10
77.635609277
 20
217.1417406054
 30
0.0
 40
19.92691131530096
100
AcDbArc
 50
90.003816061
 51
225.5701086035
  0
ARC
  5
1D7
330
1C6
100
AcDbEntity
  8
$DDT_AUDIT_GENERATED_(166)
  6
Continuous
 62
     7
100
AcDbCircle
 10
77.635609277
 20
217.1417406054
 30
0.0
 40
19.92691131530096
100
AcDbArc
 50
314.4295870445
 51
0.0
  0
ENDBLK
  5
1D9
330
1C6
100
AcDbEntity
  8
0
100
AcDbBlockEnd
  0
ENDSEC
  0
SECTION
  2
ENTITIES
  0
INSERT
  5
5F
330
1F
100
AcDbEntity
  8
Default
100
AcDbBlockReference
  2
SEANNOT_GROUP
 10
0.0
 20
0.0
 30
0.0
  0
INSERT
  5
66
330
1F
100
AcDbEntity
  8
Default
100
AcDbBlockReference
  2
SEANNOT_GROUP1
 10
0.0
 20
0.0
 30
0.0
  0
INSERT
  5
6C
330
1F
100
AcDbEntity
  8
Default
100
AcDbBlockReference
  2
SEANNOT_GROUP2
 10
0.0
 20
0.0
 30
0.0
  0
INSERT
  5
76
330
1F
100
AcDbEntity
  8
Default
100
AcDbBlockReference
  2
SE
 10
0.0
 20
0.0
 30
0.0
  0
INSERT
  5
18A
330
1F
100
AcDbEntity
  8
Default
100
AcDbBlockReference
  2
SE1
 10
0.0
 20
0.0
 30
0.0
  0
INSERT
  5
1C7
330
1F
100
AcDbEntity
  8
Default
100
AcDbBlockReference
  2
SE2
 10
0.0
 20
0.0
 30
0.0
  0
TEXT
  5
1DB
330
1F
100
AcDbEntity
  8
Default
  6
Continuous
 62
     7
100
AcDbText
 10
5.9362635081
 20
53.4225120485
 30
0.0
 40
10.0
  1
Grohe AG^J
  7
SEACAD_seiso_ttf
 11
5.9362635081
 21
63.4225120485
 31
0.0
100
AcDbText
 73
     3
  0
TEXT
  5
1DC
330
1F
100
AcDbEntity
  8
Default
  6
Continuous
 62
     7
100
AcDbText
 10
5.9362635081
 20
37.0588756849
 30
0.0
 40
10.0
  1
 
  7
SEACAD_seiso_ttf
 11
5.9362635081
 21
47.0588756849
 31
0.0
100
AcDbText
 73
     3
  0
TEXT
  5
1DD
330
1F
100
AcDbEntity
  8
Default
  6
Continuous
 62
     7
100
AcDbText
 10
5.9362635081
 20
20.6952393213
 30
0.0
 40
10.0
  1
ecn: 
  7
SEACAD_seiso_ttf
 11
5.9362635081
 21
30.6952393213
 31
0.0
100
AcDbText
 73
     3
  0
TEXT
  5
1DE
330
1F
100
AcDbEntity
  8
Default
  6
Continuous
 62
     7
100
AcDbText
 10
5.9362635081
 20
4.3316029576
 30
0.0
 40
10.0
  1
unit: mm
  7
SEACAD_seiso_ttf
 11
5.9362635081
 21
14.3316029576
 31
0.0
100
AcDbText
 73
     3
  0
LINE
  5
1DF
330
1F
100
AcDbEntity
  8
Default
  6
Continuous
 62
     7
100
AcDbLine
 10
0.0
 20
0.0
 30
0.0
 11
100.0
 21
0.0
 31
0.0
  0
LINE
  5
1E0
330
1F
100
AcDbEntity
  8
Default
  6
Continuous
 62
     7
100
AcDbLine
 10
0.0
 20
0.0
 30
0.0
 11
0.0
 21
100.0
 31
0.0
  0
TEXT
  5
1E1
330
1F
100
AcDbEntity
  8
Default
  6
Continuous
 62
     7
100
AcDbText
 10
24.3923665681
 20
-18.2375342018
 30
0.0
 40
10.0
  1
100 mm
  7
SEACAD_seiso_ttf
 11
24.3923665681
 21
-8.2375342018
 31
0.0
100
AcDbText
 73
     3
  0
TEXT
  5
1E2
330
1F
100
AcDbEntity
  8
Default
  6
Continuous
 62
     7
100
AcDbText
 10
-7.6150308803
 20
24.6231930421
 30
0.0
 40
10.0
  1
100 mm
 50
90.0
  7
SEACAD_seiso_ttf
 11
-17.6150308803
 21
24.6231930421
 31
0.0
100
AcDbText
 73
     3
  0
TEXT
  5
1E3
330
1F
100
AcDbEntity
  8
Default
  6
Continuous
 62
     7
100
AcDbText
 10
28.4878128572
 20
20.0907663715
 30
0.0
 40
10.0
  1
218774
  7
SEACAD_seiso_ttf
 11
28.4878128572
 21
30.0907663715
 31
0.0
100
AcDbText
 73
     3
  0
TEXT
  5
1E4
330
1F
100
AcDbEntity
  8
Default
  6
Continuous
 62
     7
100
AcDbText
 10
5.9012241913
 20
36.7242780188
 30
0.0
 40
10.0
  1
23039002
  7
SEACAD_seiso_ttf
 11
5.9012241913
 21
46.7242780188
 31
0.0
100
AcDbText
 73
     3
  0
ENDSEC
  0
SECTION
  2
OBJECTS
  0
DICTIONARY
  5
C
330
0
100
AcDbDictionary
281
     1
  3
ACAD_GROUP
350
D
  3
ACAD_LAYOUT
350
1A
  3
ACAD_MLEADERSTYLE
350
1E8
  3
ACAD_MLINESTYLE
350
17
  3
ACAD_PLOTSETTINGS
350
19
  3
ACAD_PLOTSTYLENAME
350
E
  3
ACAD_SCALELIST
350
3B
  3
ACAD_TABLESTYLE
350
1E7
  3
ACAD_VISUALSTYLE
350
2A
  3
AcDbVariableDictionary
350
1E5
  0
DICTIONARY
  5
D
102
{ACAD_REACTORS
330
C
102
}
330
C
100
AcDbDictionary
281
     1
  0
DICTIONARY
  5
1A
102
{ACAD_REACTORS
330
C
102
}
330
C
100
AcDbDictionary
281
     1
  3
Layout1
350
1E
  3
Model
350
22
  0
DICTIONARY
  5
1E8
102
{ACAD_REACTORS
330
C
102
}
330
C
100
AcDbDictionary
281
     1
  0
DICTIONARY
  5
17
102
{ACAD_REACTORS
330
C
102
}
330
C
100
AcDbDictionary
281
     1
  3
Standard
350
18
  0
DICTIONARY
  5
19
102
{ACAD_REACTORS
330
C
102
}
330
C
100
AcDbDictionary
281
     1
  0
ACDBDICTIONARYWDFLT
  5
E
102
{ACAD_REACTORS
330
C
102
}
330
C
100
AcDbDictionary
281
     1
  3
Normal
350
F
100
AcDbDictionaryWithDefault
340
F
  0
DICTIONARY
  5
3B
102
{ACAD_REACTORS
330
C
102
}
330
C
100
AcDbDictionary
281
     1
  3
A0
350
3C
  3
A1
350
3D
  3
A2
350
3E
  3
A3
350
3F
  3
A4
350
40
  3
A5
350
41
  3
A6
350
42
  3
A7
350
43
  3
A8
350
44
  3
A9
350
45
  3
B0
350
46
  3
B1
350
47
  3
B2
350
48
  3
B3
350
49
  3
B4
350
4A
  3
B5
350
4B
  3
B6
350
4C
  3
B7
350
4D
  3
B8
350
4E
  3
B9
350
4F
  3
C0
350
50
  3
C1
350
51
  3
C2
350
52
  3
C3
350
53
  3
C4
350
54
  3
C5
350
55
  3
C6
350
56
  3
C7
350
57
  3
C8
350
58
  3
C9
350
59
  3
D0
350
5A
  3
D1
350
5B
  3
D2
350
5C
  0
DICTIONARY
  5
1E7
102
{ACAD_REACTORS
330
C
102
}
330
C
100
AcDbDictionary
281
     1
  0
DICTIONARY
  5
2A
102
{ACAD_REACTORS
330
C
102
}
330
C
100
AcDbDictionary
281
     1
  3
2dWireframe
350
2F
  3
3D Hidden
350
31
  3
3dWireframe
350
30
  3
Basic
350
32
  3
Brighten
350
36
  3
ColorChange
350
3A
  3
Conceptual
350
34
  3
Dim
350
35
  3
Facepattern
350
39
  3
Flat
350
2B
  3
FlatWithEdges
350
2C
  3
Gouraud
350
2D
  3
GouraudWithEdges
350
2E
  3
Linepattern
350
38
  3
Realistic
350
33
  3
Thicken
350
37
  0
DICTIONARY
  5
1E5
102
{ACAD_REACTORS
330
C
102
}
330
C
100
AcDbDictionary
281
     1
  3
CANNOSCALE
350
1E6
  3
PSOLHEIGHT
350
1EA
  3
PSOLWIDTH
350
1E9
  0
LAYOUT
  5
1E
102
{ACAD_REACTORS
330
1A
102
}
330
1A
100
AcDbPlotSettings
  1

  2
none_device
  4

  6

 40
0.0
 41
0.0
 42
0.0
 43
0.0
 44
0.0
 45
0.0
 46
0.0
 47
0.0
 48
0.0
 49
0.0
140
0.0
141
0.0
142
1.0
143
1.0
 70
   688
 72
     0
 73
     0
 74
     5
  7

 75
    16
147
1.0
148
0.0
149
0.0
100
AcDbLayout
  1
Layout1
 70
     1
 71
     1
 10
0.0
 20
0.0
 11
1682.0
 21
2378.0
 12
0.0
 22
0.0
 32
0.0
 14
0.0
 24
0.0
 34
0.0
 15
1682.0
 25
2378.0
 35
0.0
146
0.0
 13
0.0
 23
0.0
 33
0.0
 16
1.0
 26
0.0
 36
0.0
 17
0.0
 27
1.0
 37
0.0
 76
     0
330
1B
  0
LAYOUT
  5
22
102
{ACAD_REACTORS
330
1A
102
}
330
1A
100
AcDbPlotSettings
  1

  2
none_device
  4

  6

 40
0.0
 41
0.0
 42
0.0
 43
0.0
 44
0.0
 45
0.0
 46
0.0
 47
0.0
 48
0.0
 49
0.0
140
0.0
141
0.0
142
1.0
143
1.0
 70
  1712
 72
     0
 73
     0
 74
     0
  7

 75
     0
147
1.0
148
0.0
149
0.0
100
AcDbLayout
  1
Model
 70
     1
 71
     0
 10
0.0
 20
0.0
 11
1682.0
 21
2378.0
 12
0.0
 22
0.0
 32
0.0
 14
0.0
 24
0.0
 34
0.0
 15
1682.0
 25
2378.0
 35
0.0
146
0.0
 13
0.0
 23
0.0
 33
0.0
 16
1.0
 26
0.0
 36
0.0
 17
0.0
 27
1.0
 37
0.0
 76
     0
330
1F
331
29
  0
MLINESTYLE
  5
18
102
{ACAD_REACTORS
330
17
102
}
330
17
100
AcDbMlineStyle
  2
Standard
 70
     0
  3

 62
   256
 51
90.0
 52
90.0
 71
     2
 49
0.5
 62
   256
  6
BYLAYER
 49
-0.5
 62
   256
  6
BYLAYER
  0
ACDBPLACEHOLDER
  5
F
102
{ACAD_REACTORS
330
E
102
}
330
E
  0
SCALE
  5
3C
102
{ACAD_REACTORS
330
3B
102
}
330
3B
100
AcDbScale
 70
     0
300
1:1
140
1.0
141
1.0
290
     1
  0
SCALE
  5
3D
102
{ACAD_REACTORS
330
3B
102
}
330
3B
100
AcDbScale
 70
     0
300
1:2
140
1.0
141
2.0
290
     0
  0
SCALE
  5
3E
102
{ACAD_REACTORS
330
3B
102
}
330
3B
100
AcDbScale
 70
     0
300
1:4
140
1.0
141
4.0
290
     0
  0
SCALE
  5
3F
102
{ACAD_REACTORS
330
3B
102
}
330
3B
100
AcDbScale
 70
     0
300
1:5
140
1.0
141
5.0
290
     0
  0
SCALE
  5
40
102
{ACAD_REACTORS
330
3B
102
}
330
3B
100
AcDbScale
 70
     0
300
1:8
140
1.0
141
8.0
290
     0
  0
SCALE
  5
41
102
{ACAD_REACTORS
330
3B
102
}
330
3B
100
AcDbScale
 70
     0
300
1:10
140
1.0
141
10.0
290
     0
  0
SCALE
  5
42
102
{ACAD_REACTORS
330
3B
102
}
330
3B
100
AcDbScale
 70
     0
300
1:16
140
1.0
141
16.0
290
     0
  0
SCALE
  5
43
102
{ACAD_REACTORS
330
3B
102
}
330
3B
100
AcDbScale
 70
     0
300
1:20
140
1.0
141
20.0
290
     0
  0
SCALE
  5
44
102
{ACAD_REACTORS
330
3B
102
}
330
3B
100
AcDbScale
 70
     0
300
1:30
140
1.0
141
30.0
290
     0
  0
SCALE
  5
45
102
{ACAD_REACTORS
330
3B
102
}
330
3B
100
AcDbScale
 70
     0
300
1:40
140
1.0
141
40.0
290
     0
  0
SCALE
  5
46
102
{ACAD_REACTORS
330
3B
102
}
330
3B
100
AcDbScale
 70
     0
300
1:50
140
1.0
141
50.0
290
     0
  0
SCALE
  5
47
102
{ACAD_REACTORS
330
3B
102
}
330
3B
100
AcDbScale
 70
     0
300
1:100
140
1.0
141
100.0
290
     0
  0
SCALE
  5
48
102
{ACAD_REACTORS
330
3B
102
}
330
3B
100
AcDbScale
 70
     0
300
2:1
140
2.0
141
1.0
290
     0
  0
SCALE
  5
49
102
{ACAD_REACTORS
330
3B
102
}
330
3B
100
AcDbScale
 70
     0
300
4:1
140
4.0
141
1.0
290
     0
  0
SCALE
  5
4A
102
{ACAD_REACTORS
330
3B
102
}
330
3B
100
AcDbScale
 70
     0
300
8:1
140
8.0
141
1.0
290
     0
  0
SCALE
  5
4B
102
{ACAD_REACTORS
330
3B
102
}
330
3B
100
AcDbScale
 70
     0
300
10:1
140
10.0
141
1.0
290
     0
  0
SCALE
  5
4C
102
{ACAD_REACTORS
330
3B
102
}
330
3B
100
AcDbScale
 70
     0
300
100:1
140
100.0
141
1.0
290
     0
  0
SCALE
  5
4D
102
{ACAD_REACTORS
330
3B
102
}
330
3B
100
AcDbScale
 70
     0
300
1/128" = 1'-0"
140
0.0078125
141
12.0
290
     0
  0
SCALE
  5
4E
102
{ACAD_REACTORS
330
3B
102
}
330
3B
100
AcDbScale
 70
     0
300
1/64" = 1'-0"
140
0.015625
141
12.0
290
     0
  0
SCALE
  5
4F
102
{ACAD_REACTORS
330
3B
102
}
330
3B
100
AcDbScale
 70
     0
300
1/32" = 1'-0"
140
0.03125
141
12.0
290
     0
  0
SCALE
  5
50
102
{ACAD_REACTORS
330
3B
102
}
330
3B
100
AcDbScale
 70
     0
300
1/16" = 1'-0"
140
0.0625
141
12.0
290
     0
  0
SCALE
  5
51
102
{ACAD_REACTORS
330
3B
102
}
330
3B
100
AcDbScale
 70
     0
300
3/32" = 1'-0"
140
0.09375
141
12.0
290
     0
  0
SCALE
  5
52
102
{ACAD_REACTORS
330
3B
102
}
330
3B
100
AcDbScale
 70
     0
300
1/8" = 1'-0"
140
0.125
141
12.0
290
     0
  0
SCALE
  5
53
102
{ACAD_REACTORS
330
3B
102
}
330
3B
100
AcDbScale
 70
     0
300
3/16" = 1'-0"
140
0.1875
141
12.0
290
     0
  0
SCALE
  5
54
102
{ACAD_REACTORS
330
3B
102
}
330
3B
100
AcDbScale
 70
     0
300
1/4" = 1'-0"
140
0.25
141
12.0
290
     0
  0
SCALE
  5
55
102
{ACAD_REACTORS
330
3B
102
}
330
3B
100
AcDbScale
 70
     0
300
3/8" = 1'-0"
140
0.375
141
12.0
290
     0
  0
SCALE
  5
56
102
{ACAD_REACTORS
330
3B
102
}
330
3B
100
AcDbScale
 70
     0
300
1/2" = 1'-0"
140
0.5
141
12.0
290
     0
  0
SCALE
  5
57
102
{ACAD_REACTORS
330
3B
102
}
330
3B
100
AcDbScale
 70
     0
300
3/4" = 1'-0"
140
0.75
141
12.0
290
     0
  0
SCALE
  5
58
102
{ACAD_REACTORS
330
3B
102
}
330
3B
100
AcDbScale
 70
     0
300
1" = 1'-0"
140
1.0
141
12.0
290
     0
  0
SCALE
  5
59
102
{ACAD_REACTORS
330
3B
102
}
330
3B
100
AcDbScale
 70
     0
300
1-1/2" = 1'-0"
140
1.5
141
12.0
290
     0
  0
SCALE
  5
5A
102
{ACAD_REACTORS
330
3B
102
}
330
3B
100
AcDbScale
 70
     0
300
3" = 1'-0"
140
3.0
141
12.0
290
     0
  0
SCALE
  5
5B
102
{ACAD_REACTORS
330
3B
102
}
330
3B
100
AcDbScale
 70
     0
300
6" = 1'-0"
140
6.0
141
12.0
290
     0
  0
SCALE
  5
5C
102
{ACAD_REACTORS
330
3B
102
}
330
3B
100
AcDbScale
 70
     0
300
1'-0" = 1'-0"
140
12.0
141
12.0
290
     0
  0
VISUALSTYLE
  5
2F
102
{ACAD_REACTORS
330
2A
102
}
330
2A
100
AcDbVisualStyle
  2
2dWireframe
 70
     4
 71
     0
 72
     2
 73
     0
 90
        0
 40
-0.6
 41
-30.0
 62
     5
 63
     7
 74
     1
 91
        4
 64
     7
 65
   257
 75
     1
175
     1
 42
1.0
 92
        0
 66
   257
 43
1.0
 76
     1
 77
     6
 78
     2
 67
     7
 79
     5
170
     0
171
     0
290
     0
174
     0
 93
        1
 44
0.0
173
     0
291
     0
 45
0.0
1001
ACAD
1000
AcDbSavedByObjectVersion
1070
     0
  0
VISUALSTYLE
  5
31
102
{ACAD_REACTORS
330
2A
102
}
330
2A
100
AcDbVisualStyle
  2
3D Hidden
 70
     6
 71
     1
 72
     2
 73
     2
 90
        0
 40
-0.6
 41
-30.0
 62
     5
 63
     7
 74
     2
 91
        2
 64
     7
 65
   257
 75
     2
175
     1
 42
40.0
 92
        0
 66
   257
 43
1.0
 76
     1
 77
     6
 78
     2
 67
     7
 79
     3
170
     0
171
     0
290
     0
174
     0
 93
        1
 44
0.0
173
     0
291
     0
 45
0.0
1001
ACAD
1000
AcDbSavedByObjectVersion
1070
     0
  0
VISUALSTYLE
  5
30
102
{ACAD_REACTORS
330
2A
102
}
330
2A
100
AcDbVisualStyle
  2
3dWireframe
 70
     5
 71
     0
 72
     2
 73
     0
 90
        0
 40
-0.6
 41
-30.0
 62
     5
 63
     7
 74
     1
 91
        4
 64
     7
 65
   257
 75
     1
175
     1
 42
1.0
 92
        0
 66
   257
 43
1.0
 76
     1
 77
     6
 78
     2
 67
     7
 79
     5
170
     0
171
     0
290
     0
174
     0
 93
        1
 44
0.0
173
     0
291
     0
 45
0.0
1001
ACAD
1000
AcDbSavedByObjectVersion
1070
     0
  0
VISUALSTYLE
  5
32
102
{ACAD_REACTORS
330
2A
102
}
330
2A
100
AcDbVisualStyle
  2
Basic
 70
     7
 71
     1
 72
     0
 73
     1
 90
        0
 40
-0.6
 41
-30.0
 62
     5
 63
     7
 74
     0
 91
        4
 64
     7
 65
   257
 75
     1
175
     1
 42
1.0
 92
        8
 66
     7
 43
1.0
 76
     1
 77
     6
 78
     2
 67
     7
 79
     5
170
     0
171
     0
290
     0
174
     0
 93
        1
 44
0.0
173
     0
291
     1
 45
0.0
1001
ACAD
1000
AcDbSavedByObjectVersion
1070
     0
  0
VISUALSTYLE
  5
36
102
{ACAD_REACTORS
330
2A
102
}
330
2A
100
AcDbVisualStyle
  2
Brighten
 70
    12
 71
     2
 72
     2
 73
     0
 90
        0
 40
-0.6
 41
-30.0
 62
     5
 63
     7
 74
     1
 91
        4
 64
     7
 65
   257
 75
     1
175
     1
 42
1.0
 92
        8
 66
     7
 43
1.0
 76
     1
 77
     6
 78
     2
 67
     7
 79
     5
170
     0
171
     0
290
     0
174
     0
 93
        1
 44
50.0
173
     0
291
     1
 45
0.0
1001
ACAD
1000
AcDbSavedByObjectVersion
1070
     0
  0
VISUALSTYLE
  5
3A
102
{ACAD_REACTORS
330
2A
102
}
330
2A
100
AcDbVisualStyle
  2
ColorChange
 70
    16
 71
     2
 72
     2
 73
     3
 90
        0
 40
-0.6
 41
-30.0
 62
     5
 63
     8
 74
     1
 91
        4
 64
     7
 65
   257
 75
     1
175
     1
 42
1.0
 92
        8
 66
     8
 43
1.0
 76
     1
 77
     6
 78
     2
 67
     7
 79
     5
170
     0
171
     0
290
     0
174
     0
 93
        1
 44
0.0
173
     0
291
     1
 45
0.0
1001
ACAD
1000
AcDbSavedByObjectVersion
1070
     0
  0
VISUALSTYLE
  5
34
102
{ACAD_REACTORS
330
2A
102
}
330
2A
100
AcDbVisualStyle
  2
Conceptual
 70
     9
 71
     3
 72
     2
 73
     0
 90
        0
 40
-0.6
 41
-30.0
 62
     5
 63
     7
 74
     2
 91
        2
 64
     7
 65
   257
 75
     1
175
     1
 42
40.0
 92
        8
 66
     7
 43
1.0
 76
     1
 77
     6
 78
     2
 67
     7
 79
     3
170
     0
171
     0
290
     0
174
     0
 93
        1
 44
0.0
173
     0
291
     0
 45
0.0
1001
ACAD
1000
AcDbSavedByObjectVersion
1070
     0
  0
VISUALSTYLE
  5
35
102
{ACAD_REACTORS
330
2A
102
}
330
2A
100
AcDbVisualStyle
  2
Dim
 70
    11
 71
     2
 72
     2
 73
     0
 90
        0
 40
-0.6
 41
-30.0
 62
     5
 63
     7
 74
     1
 91
        4
 64
     7
 65
   257
 75
     1
175
     1
 42
1.0
 92
        8
 66
     7
 43
1.0
 76
     1
 77
     6
 78
     2
 67
     7
 79
     5
170
     0
171
     0
290
     0
174
     0
 93
        1
 44
-50.0
173
     0
291
     1
 45
0.0
1001
ACAD
1000
AcDbSavedByObjectVersion
1070
     0
  0
VISUALSTYLE
  5
39
102
{ACAD_REACTORS
330
2A
102
}
330
2A
100
AcDbVisualStyle
  2
Facepattern
 70
    15
 71
     2
 72
     2
 73
     0
 90
        0
 40
-0.6
 41
-30.0
 62
     5
 63
     7
 74
     1
 91
        4
 64
     7
 65
   257
 75
     1
175
     1
 42
1.0
 92
        8
 66
     7
 43
1.0
 76
     1
 77
     6
 78
     2
 67
     7
 79
     5
170
     0
171
     0
290
     0
174
     0
 93
        1
 44
0.0
173
     0
291
     1
 45
0.0
1001
ACAD
1000
AcDbSavedByObjectVersion
1070
     0
  0
VISUALSTYLE
  5
2B
102
{ACAD_REACTORS
330
2A
102
}
330
2A
100
AcDbVisualStyle
  2
Flat
 70
     0
 71
     2
 72
     1
 73
     1
 90
        2
 40
-0.6
 41
30.0
 62
     5
 63
     7
 74
     0
 91
        4
 64
     7
 65
   257
 75
     1
175
     1
 42
1.0
 92
        8
 66
     7
 43
1.0
 76
     1
 77
     6
 78
     2
 67
     7
 79
     5
170
     0
171
     0
290
     0
174
     0
 93
       13
 44
0.0
173
     0
291
     1
 45
0.0
1001
ACAD
1000
AcDbSavedByObjectVersion
1070
     0
  0
VISUALSTYLE
  5
2C
102
{ACAD_REACTORS
330
2A
102
}
330
2A
100
AcDbVisualStyle
  2
FlatWithEdges
 70
     1
 71
     2
 72
     1
 73
     1
 90
        2
 40
-0.6
 41
30.0
 62
     5
 63
     7
 74
     1
 91
        4
 64
     7
 65
   257
 75
     1
175
     1
 42
1.0
 92
        0
 66
   257
 43
1.0
 76
     1
 77
     6
 78
     2
 67
     7
 79
     5
170
     0
171
     0
290
     0
174
     0
 93
       13
 44
0.0
173
     0
291
     1
 45
0.0
1001
ACAD
1000
AcDbSavedByObjectVersion
1070
     0
  0
VISUALSTYLE
  5
2D
102
{ACAD_REACTORS
330
2A
102
}
330
2A
100
AcDbVisualStyle
  2
Gouraud
 70
     2
 71
     2
 72
     2
 73
     1
 90
        2
 40
-0.6
 41
30.0
 62
     5
 63
     7
 74
     0
 91
        4
 64
     7
 65
   257
 75
     1
175
     1
 42
1.0
 92
        0
 66
     7
 43
1.0
 76
     1
 77
     6
 78
     2
 67
     7
 79
     5
170
     0
171
     0
290
     0
174
     0
 93
       13
 44
0.0
173
     0
291
     1
 45
0.0
1001
ACAD
1000
AcDbSavedByObjectVersion
1070
     0
  0
VISUALSTYLE
  5
2E
102
{ACAD_REACTORS
330
2A
102
}
330
2A
100
AcDbVisualStyle
  2
GouraudWithEdges
 70
     3
 71
     2
 72
     2
 73
     1
 90
        2
 40
-0.6
 41
30.0
 62
     5
 63
     7
 74
     1
 91
        4
 64
     7
 65
   257
 75
     1
175
     1
 42
1.0
 92
        0
 66
   257
 43
1.0
 76
     1
 77
     6
 78
     2
 67
     7
 79
     5
170
     0
171
     0
290
     0
174
     0
 93
       13
 44
0.0
173
     0
291
     1
 45
0.0
1001
ACAD
1000
AcDbSavedByObjectVersion
1070
     0
  0
VISUALSTYLE
  5
38
102
{ACAD_REACTORS
330
2A
102
}
330
2A
100
AcDbVisualStyle
  2
Linepattern
 70
    14
 71
     2
 72
     2
 73
     0
 90
        0
 40
-0.6
 41
-30.0
 62
     5
 63
     7
 74
     1
 91
        4
 64
     7
 65
   257
 75
     7
175
     7
 42
1.0
 92
        8
 66
     7
 43
1.0
 76
     1
 77
     6
 78
     2
 67
     7
 79
     5
170
     0
171
     0
290
     0
174
     0
 93
        1
 44
0.0
173
     0
291
     1
 45
0.0
1001
ACAD
1000
AcDbSavedByObjectVersion
1070
     0
  0
VISUALSTYLE
  5
33
102
{ACAD_REACTORS
330
2A
102
}
330
2A
100
AcDbVisualStyle
  2
Realistic
 70
     8
 71
     2
 72
     2
 73
     0
 90
        0
 40
-0.6
 41
-30.0
 62
     5
 63
     7
 74
     1
 91
        0
 64
     7
 65
   257
 75
     1
175
     1
 42
1.0
 92
        8
 66
     8
 43
1.0
 76
     1
 77
     6
 78
     2
 67
     7
 79
     5
170
     0
171
     0
290
     0
174
     0
 93
       13
 44
0.0
173
     0
291
     0
 45
0.0
1001
ACAD
1000
AcDbSavedByObjectVersion
1070
     0
  0
VISUALSTYLE
  5
37
102
{ACAD_REACTORS
330
2A
102
}
330
2A
100
AcDbVisualStyle
  2
Thicken
 70
    13
 71
     2
 72
     2
 73
     0
 90
        0
 40
-0.6
 41
-30.0
 62
     5
 63
     7
 74
     1
 91
        4
 64
     7
 65
   257
 75
     1
175
     1
 42
1.0
 92
       12
 66
     7
 43
1.0
 76
     1
 77
     6
 78
     2
 67
     7
 79
     5
170
     0
171
     0
290
     0
174
     0
 93
        1
 44
0.0
173
     0
291
     1
 45
0.0
1001
ACAD
1000
AcDbSavedByObjectVersion
1070
     0
  0
DICTIONARYVAR
  5
1E6
102
{ACAD_REACTORS
330
1E5
102
}
330
1E5
100
DictionaryVariables
280
     0
  1
1:1
  0
DICTIONARYVAR
  5
1EA
102
{ACAD_REACTORS
330
1E5
102
}
330
1E5
100
DictionaryVariables
280
     0
  1
80.000000
  0
DICTIONARYVAR
  5
1E9
102
{ACAD_REACTORS
330
1E5
102
}
330
1E5
100
DictionaryVariables
280
     0
  1
5.000000
  0
ENDSEC
  0
EOF
