  0
SECTION
  2
HEADER
  9
$ACADVER
  1
AC1015
  9
$ACADMAINTVER
 70
     6
  9
$DWGCODEPAGE
  3
ANSI_1252
  9
$INSBASE
 10
0.0
 20
0.0
 30
0.0
  9
$EXTMIN
 10
0.0
 20
0.0
 30
0.0
  9
$EXTMAX
 10
1682.0
 20
2378.0
 30
0.0
  9
$LIMMIN
 10
0.0
 20
0.0
  9
$LIMMAX
 10
1682.0
 20
2378.0
  9
$ORTHOMODE
 70
     0
  9
$REGENMODE
 70
     1
  9
$FILLMODE
 70
     1
  9
$QTEXTMODE
 70
     0
  9
$MIRRTEXT
 70
     1
  9
$LTSCALE
 40
1.0
  9
$ATTMODE
 70
     1
  9
$TEXTSIZE
 40
2.5
  9
$TRACEWID
 40
1.0
  9
$TEXTSTYLE
  7
Standard
  9
$CLAYER
  8
0
  9
$CELTYPE
  6
ByLayer
  9
$CECOLOR
 62
   256
  9
$CELTSCALE
 40
1.0
  9
$DISPSILH
 70
     0
  9
$DIMSCALE
 40
1.0
  9
$DIMASZ
 40
2.5
  9
$DIMEXO
 40
0.625
  9
$DIMDLI
 40
3.75
  9
$DIMRND
 40
0.0
  9
$DIMDLE
 40
0.0
  9
$DIMEXE
 40
1.25
  9
$DIMTP
 40
0.0
  9
$DIMTM
 40
0.0
  9
$DIMTXT
 40
2.5
  9
$DIMCEN
 40
2.5
  9
$DIMTSZ
 40
0.0
  9
$DIMTOL
 70
     0
  9
$DIMLIM
 70
     0
  9
$DIMTIH
 70
     0
  9
$DIMTOH
 70
     0
  9
$DIMSE1
 70
     0
  9
$DIMSE2
 70
     0
  9
$DIMTAD
 70
     1
  9
$DIMZIN
 70
     8
  9
$DIMBLK
  1

  9
$DIMASO
 70
     1
  9
$DIMSHO
 70
     1
  9
$DIMPOST
  1

  9
$DIMAPOST
  1

  9
$DIMALT
 70
     0
  9
$DIMALTD
 70
     3
  9
$DIMALTF
 40
0.0393700787
  9
$DIMLFAC
 40
1.0
  9
$DIMTOFL
 70
     1
  9
$DIMTVP
 40
0.0
  9
$DIMTIX
 70
     0
  9
$DIMSOXD
 70
     0
  9
$DIMSAH
 70
     0
  9
$DIMBLK1
  1

  9
$DIMBLK2
  1

  9
$DIMSTYLE
  2
ISO-25
  9
$DIMCLRD
 70
     0
  9
$DIMCLRE
 70
     0
  9
$DIMCLRT
 70
     0
  9
$DIMTFAC
 40
1.0
  9
$DIMGAP
 40
0.625
  9
$DIMJUST
 70
     0
  9
$DIMSD1
 70
     0
  9
$DIMSD2
 70
     0
  9
$DIMTOLJ
 70
     0
  9
$DIMTZIN
 70
     8
  9
$DIMALTZ
 70
     0
  9
$DIMALTTZ
 70
     0
  9
$DIMUPT
 70
     0
  9
$DIMDEC
 70
     2
  9
$DIMTDEC
 70
     2
  9
$DIMALTU
 70
     2
  9
$DIMALTTD
 70
     3
  9
$DIMTXSTY
  7
Standard
  9
$DIMAUNIT
 70
     0
  9
$DIMADEC
 70
     0
  9
$DIMALTRND
 40
0.0
  9
$DIMAZIN
 70
     0
  9
$DIMDSEP
 70
    44
  9
$DIMATFIT
 70
     3
  9
$DIMFRAC
 70
     0
  9
$DIMLDRBLK
  1

  9
$DIMLUNIT
 70
     2
  9
$DIMLWD
 70
    -2
  9
$DIMLWE
 70
    -2
  9
$DIMTMOVE
 70
     0
  9
$LUNITS
 70
     2
  9
$LUPREC
 70
     4
  9
$SKETCHINC
 40
1.0
  9
$FILLETRAD
 40
10.0
  9
$AUNITS
 70
     0
  9
$AUPREC
 70
     0
  9
$MENU
  1
.
  9
$ELEVATION
 40
0.0
  9
$PELEVATION
 40
0.0
  9
$THICKNESS
 40
0.0
  9
$LIMCHECK
 70
     0
  9
$CHAMFERA
 40
10.0
  9
$CHAMFERB
 40
10.0
  9
$CHAMFERC
 40
20.0
  9
$CHAMFERD
 40
0.0
  9
$SKPOLY
 70
     0
  9
$TDCREATE
 40
2455439.368983646
  9
$TDUCREATE
 40
2455439.285650312
  9
$TDUPDATE
 40
2455439.368983658
  9
$TDUUPDATE
 40
2455439.285650324
  9
$TDINDWG
 40
0.0000000116
  9
$TDUSRTIMER
 40
0.0000000116
  9
$USRTIMER
 70
     1
  9
$ANGBASE
 50
0.0
  9
$ANGDIR
 70
     0
  9
$PDMODE
 70
     0
  9
$PDSIZE
 40
0.0
  9
$PLINEWID
 40
0.0
  9
$SPLFRAME
 70
     0
  9
$SPLINETYPE
 70
     6
  9
$SPLINESEGS
 70
     8
  9
$HANDSEED
  5
21E
  9
$SURFTAB1
 70
     6
  9
$SURFTAB2
 70
     6
  9
$SURFTYPE
 70
     6
  9
$SURFU
 70
     6
  9
$SURFV
 70
     6
  9
$UCSBASE
  2

  9
$UCSNAME
  2

  9
$UCSORG
 10
0.0
 20
0.0
 30
0.0
  9
$UCSXDIR
 10
1.0
 20
0.0
 30
0.0
  9
$UCSYDIR
 10
0.0
 20
1.0
 30
0.0
  9
$UCSORTHOREF
  2

  9
$UCSORTHOVIEW
 70
     0
  9
$UCSORGTOP
 10
0.0
 20
0.0
 30
0.0
  9
$UCSORGBOTTOM
 10
0.0
 20
0.0
 30
0.0
  9
$UCSORGLEFT
 10
0.0
 20
0.0
 30
0.0
  9
$UCSORGRIGHT
 10
0.0
 20
0.0
 30
0.0
  9
$UCSORGFRONT
 10
0.0
 20
0.0
 30
0.0
  9
$UCSORGBACK
 10
0.0
 20
0.0
 30
0.0
  9
$PUCSBASE
  2

  9
$PUCSNAME
  2

  9
$PUCSORG
 10
0.0
 20
0.0
 30
0.0
  9
$PUCSXDIR
 10
1.0
 20
0.0
 30
0.0
  9
$PUCSYDIR
 10
0.0
 20
1.0
 30
0.0
  9
$PUCSORTHOREF
  2

  9
$PUCSORTHOVIEW
 70
     0
  9
$PUCSORGTOP
 10
0.0
 20
0.0
 30
0.0
  9
$PUCSORGBOTTOM
 10
0.0
 20
0.0
 30
0.0
  9
$PUCSORGLEFT
 10
0.0
 20
0.0
 30
0.0
  9
$PUCSORGRIGHT
 10
0.0
 20
0.0
 30
0.0
  9
$PUCSORGFRONT
 10
0.0
 20
0.0
 30
0.0
  9
$PUCSORGBACK
 10
0.0
 20
0.0
 30
0.0
  9
$USERI1
 70
     0
  9
$USERI2
 70
     0
  9
$USERI3
 70
     0
  9
$USERI4
 70
     0
  9
$USERI5
 70
     0
  9
$USERR1
 40
0.0
  9
$USERR2
 40
0.0
  9
$USERR3
 40
0.0
  9
$USERR4
 40
0.0
  9
$USERR5
 40
0.0
  9
$WORLDVIEW
 70
     1
  9
$SHADEDGE
 70
     3
  9
$SHADEDIF
 70
    70
  9
$TILEMODE
 70
     1
  9
$MAXACTVP
 70
    64
  9
$PINSBASE
 10
0.0
 20
0.0
 30
0.0
  9
$PLIMCHECK
 70
     0
  9
$PEXTMIN
 10
0.0
 20
0.0
 30
0.0
  9
$PEXTMAX
 10
1682.0
 20
2378.0
 30
0.0
  9
$PLIMMIN
 10
0.0
 20
0.0
  9
$PLIMMAX
 10
1682.0
 20
2378.0
  9
$UNITMODE
 70
     0
  9
$VISRETAIN
 70
     1
  9
$PLINEGEN
 70
     0
  9
$PSLTSCALE
 70
     1
  9
$TREEDEPTH
 70
  3020
  9
$CMLSTYLE
  2
Standard
  9
$CMLJUST
 70
     0
  9
$CMLSCALE
 40
20.0
  9
$PROXYGRAPHICS
 70
     1
  9
$MEASUREMENT
 70
     1
  9
$CELWEIGHT
370
    -1
  9
$ENDCAPS
280
     0
  9
$JOINSTYLE
280
     0
  9
$LWDISPLAY
290
     0
  9
$INSUNITS
 70
     4
  9
$HYPERLINKBASE
  1

  9
$STYLESHEET
  1

  9
$XEDIT
290
     1
  9
$CEPSNTYPE
380
     0
  9
$PSTYLEMODE
290
     1
  9
$FINGERPRINTGUID
  2
{307D5AAC-1A49-4FC4-9D9C-6215FB09320B}
  9
$VERSIONGUID
  2
{FAEB1C32-E019-11D5-929B-00C0DF256EC4}
  9
$EXTNAMES
290
     1
  9
$PSVPSCALE
 40
0.0
  9
$OLESTARTUP
290
     0
  0
ENDSEC
  0
SECTION
  2
CLASSES
  0
CLASS
  1
ACDBDICTIONARYWDFLT
  2
AcDbDictionaryWithDefault
  3
ObjectDBX Classes
 90
        0
280
     0
281
     0
  0
CLASS
  1
VISUALSTYLE
  2
AcDbVisualStyle
  3
ObjectDBX Classes
 90
     4095
280
     0
281
     0
  0
CLASS
  1
SCALE
  2
AcDbScale
  3
ObjectDBX Classes
 90
     1153
280
     0
281
     0
  0
CLASS
  1
DICTIONARYVAR
  2
AcDbDictionaryVar
  3
ObjectDBX Classes
 90
        0
280
     0
281
     0
  0
CLASS
  1
ACDBPLACEHOLDER
  2
AcDbPlaceHolder
  3
ObjectDBX Classes
 90
        0
280
     0
281
     0
  0
CLASS
  1
LAYOUT
  2
AcDbLayout
  3
ObjectDBX Classes
 90
        0
280
     0
281
     0
  0
ENDSEC
  0
SECTION
  2
TABLES
  0
TABLE
  2
VPORT
  5
8
330
0
100
AcDbSymbolTable
 70
     1
  0
VPORT
  5
29
330
8
100
AcDbSymbolTableRecord
100
AcDbViewportTableRecord
  2
*Active
 70
     0
 10
0.0
 20
0.0
 11
1.0
 21
1.0
 12
344.1869158879
 22
148.5
 13
0.0
 23
0.0
 14
10.0
 24
10.0
 15
10.0
 25
10.0
 16
0.0
 26
0.0
 36
1.0
 17
0.0
 27
0.0
 37
0.0
 40
297.0
 41
1.9729729729
 42
50.0
 43
0.0
 44
0.0
 50
0.0
 51
0.0
 71
     0
 72
   100
 73
     1
 74
     3
 75
     0
 76
     0
 77
     0
 78
     0
281
     0
 65
     1
110
0.0
120
0.0
130
0.0
111
1.0
121
0.0
131
0.0
112
0.0
122
1.0
132
0.0
 79
     0
146
0.0
  0
ENDTAB
  0
TABLE
  2
LTYPE
  5
5
330
0
100
AcDbSymbolTable
 70
     2
  0
LTYPE
  5
14
330
5
100
AcDbSymbolTableRecord
100
AcDbLinetypeTableRecord
  2
ByBlock
 70
     0
  3

 72
    65
 73
     0
 40
0.0
  0
LTYPE
  5
15
330
5
100
AcDbSymbolTableRecord
100
AcDbLinetypeTableRecord
  2
ByLayer
 70
     0
  3

 72
    65
 73
     0
 40
0.0
  0
LTYPE
  5
16
330
5
100
AcDbSymbolTableRecord
100
AcDbLinetypeTableRecord
  2
Continuous
 70
     0
  3
Solid line
 72
    65
 73
     0
 40
0.0
  0
LTYPE
  5
61
330
5
100
AcDbSymbolTableRecord
100
AcDbLinetypeTableRecord
  2
CENTER2
 70
     0
  3
Center (.5x) ___ _ ___ _ ___ _ ___ _ ___ _ ___
 72
    65
 73
     4
 40
28.575
 49
19.05
 74
     4
 75
     0
340
0
 46
0.0
 50
0.0
 44
0.0
 45
0.0
 49
-3.175
 74
     4
 75
     0
340
0
 46
0.0
 50
0.0
 44
0.0
 45
0.0
 49
3.175
 74
     4
 75
     0
340
0
 46
0.0
 50
0.0
 44
0.0
 45
0.0
 49
-3.175
 74
     4
 75
     0
340
0
 46
0.0
 50
0.0
 44
0.0
 45
0.0
  0
ENDTAB
  0
TABLE
  2
LAYER
  5
2
330
0
100
AcDbSymbolTable
 70
     8
  0
LAYER
  5
10
330
2
100
AcDbSymbolTableRecord
100
AcDbLayerTableRecord
  2
0
 70
     0
 62
     7
  6
Continuous
370
    -3
390
F
  0
LAYER
  5
5D
330
2
100
AcDbSymbolTableRecord
100
AcDbLayerTableRecord
  2
Default
 70
     0
 62
     7
  6
Continuous
370
    -3
390
F
  0
LAYER
  5
78
330
2
100
AcDbSymbolTableRecord
100
AcDbLayerTableRecord
  2
$DDT_AUDIT_GENERATED_(78)
 70
     0
 62
     7
  6
Continuous
370
    -3
390
F
  0
LAYER
  5
9B
330
2
100
AcDbSymbolTableRecord
100
AcDbLayerTableRecord
  2
02636038_GEHÄUSE
 70
     0
 62
     7
  6
Continuous
370
    -3
390
F
  0
LAYER
  5
B3
330
2
100
AcDbSymbolTableRecord
100
AcDbLayerTableRecord
  2
$DDT_AUDIT_GENERATED_(B3)
 70
     0
 62
     7
  6
Continuous
370
    -3
390
F
  0
LAYER
  5
141
330
2
100
AcDbSymbolTableRecord
100
AcDbLayerTableRecord
  2
$DDT_AUDIT_GENERATED_(141)
 70
     0
 62
     7
  6
Continuous
370
    -3
390
F
  0
LAYER
  5
16E
330
2
100
AcDbSymbolTableRecord
100
AcDbLayerTableRecord
  2
$DDT_AUDIT_GENERATED_(16E)
 70
     0
 62
     7
  6
Continuous
370
    -3
390
F
  0
LAYER
  5
1D5
330
2
100
AcDbSymbolTableRecord
100
AcDbLayerTableRecord
  2
$DDT_AUDIT_GENERATED_(1D5)
 70
     0
 62
     7
  6
Continuous
370
    -3
390
F
  0
ENDTAB
  0
TABLE
  2
STYLE
  5
3
330
0
100
AcDbSymbolTable
 70
     2
  0
STYLE
  5
11
330
3
100
AcDbSymbolTableRecord
100
AcDbTextStyleTableRecord
  2
Standard
 70
     0
 40
0.0
 41
1.0
 50
0.0
 71
     0
 42
2.5
  3
txt
  4

  0
STYLE
  5
20D
330
3
100
AcDbSymbolTableRecord
100
AcDbTextStyleTableRecord
  2
SEACAD_seiso_ttf
 70
     0
 40
0.0
 41
1.0
 50
0.0
 71
     0
 42
0.2
  3
seiso.ttf
  4

  0
ENDTAB
  0
TABLE
  2
VIEW
  5
6
330
0
100
AcDbSymbolTable
 70
     0
  0
ENDTAB
  0
TABLE
  2
UCS
  5
7
330
0
100
AcDbSymbolTable
 70
     0
  0
ENDTAB
  0
TABLE
  2
APPID
  5
9
330
0
100
AcDbSymbolTable
 70
     1
  0
APPID
  5
12
330
9
100
AcDbSymbolTableRecord
100
AcDbRegAppTableRecord
  2
ACAD
 70
     0
  0
ENDTAB
  0
TABLE
  2
DIMSTYLE
  5
A
330
0
100
AcDbSymbolTable
 70
     1
100
AcDbDimStyleTable
  0
DIMSTYLE
105
27
330
A
100
AcDbSymbolTableRecord
100
AcDbDimStyleTableRecord
  2
ISO-25
 70
     0
 41
2.5
 42
0.625
 43
3.75
 44
1.25
 73
     0
 74
     0
 77
     1
 78
     8
140
2.5
141
2.5
143
0.0393700787
147
0.625
171
     3
172
     1
271
     2
272
     2
274
     3
278
    44
283
     0
284
     8
340
11
  0
ENDTAB
  0
TABLE
  2
BLOCK_RECORD
  5
1
330
0
100
AcDbSymbolTable
 70
     7
  0
BLOCK_RECORD
  5
1F
330
1
100
AcDbSymbolTableRecord
100
AcDbBlockTableRecord
  2
*Model_Space
340
22
  0
BLOCK_RECORD
  5
1B
330
1
100
AcDbSymbolTableRecord
100
AcDbBlockTableRecord
  2
*Paper_Space
340
1E
  0
BLOCK_RECORD
  5
5F
330
1
100
AcDbSymbolTableRecord
100
AcDbBlockTableRecord
  2
SEANNOT_GROUP
340
0
102
{BLKREFS
331
60
102
}
  0
BLOCK_RECORD
  5
66
330
1
100
AcDbSymbolTableRecord
100
AcDbBlockTableRecord
  2
SEANNOT_GROUP1
340
0
102
{BLKREFS
331
67
102
}
  0
BLOCK_RECORD
  5
6C
330
1
100
AcDbSymbolTableRecord
100
AcDbBlockTableRecord
  2
SEANNOT_GROUP2
340
0
102
{BLKREFS
331
6D
102
}
  0
BLOCK_RECORD
  5
76
330
1
100
AcDbSymbolTableRecord
100
AcDbBlockTableRecord
  2
SE
340
0
102
{BLKREFS
331
77
102
}
  0
BLOCK_RECORD
  5
176
330
1
100
AcDbSymbolTableRecord
100
AcDbBlockTableRecord
  2
SE1
340
0
102
{BLKREFS
331
177
102
}
  0
BLOCK_RECORD
  5
1E5
330
1
100
AcDbSymbolTableRecord
100
AcDbBlockTableRecord
  2
SE2
340
0
102
{BLKREFS
331
1E6
102
}
  0
ENDTAB
  0
ENDSEC
  0
SECTION
  2
BLOCKS
  0
BLOCK
  5
20
330
1F
100
AcDbEntity
  8
0
100
AcDbBlockBegin
  2
*Model_Space
 70
     0
 10
0.0
 20
0.0
 30
0.0
  3
*Model_Space
  1

  0
ENDBLK
  5
21
330
1F
100
AcDbEntity
  8
0
100
AcDbBlockEnd
  0
BLOCK
  5
1C
330
1B
100
AcDbEntity
 67
     1
  8
0
100
AcDbBlockBegin
  2
*Paper_Space
 70
     0
 10
0.0
 20
0.0
 30
0.0
  3
*Paper_Space
  1

  0
ENDBLK
  5
1D
330
1B
100
AcDbEntity
 67
     1
  8
0
100
AcDbBlockEnd
  0
BLOCK
  5
64
330
5F
100
AcDbEntity
  8
0
100
AcDbBlockBegin
  2
SEANNOT_GROUP
 70
     0
 10
0.0
 20
0.0
 30
0.0
  3
SEANNOT_GROUP
  1

  0
LINE
  5
62
330
5F
100
AcDbEntity
  8
Default
  6
CENTER2
 62
     7
100
AcDbLine
 10
120.5392423861
 20
461.7334994154
 30
0.0
 11
80.5392432802
 21
461.7334994154
 31
0.0
  0
LINE
  5
63
330
5F
100
AcDbEntity
  8
Default
  6
CENTER2
 62
     7
100
AcDbLine
 10
100.5392428331
 20
481.7334989684
 30
0.0
 11
100.5392428331
 21
441.7334998625
 31
0.0
  0
ENDBLK
  5
65
330
5F
100
AcDbEntity
  8
0
100
AcDbBlockEnd
  0
BLOCK
  5
6A
330
66
100
AcDbEntity
  8
0
100
AcDbBlockBegin
  2
SEANNOT_GROUP1
 70
     0
 10
0.0
 20
0.0
 30
0.0
  3
SEANNOT_GROUP1
  1

  0
LINE
  5
68
330
66
100
AcDbEntity
  8
Default
  6
CENTER2
 62
     7
100
AcDbLine
 10
269.8479852591
 20
461.7334998216
 30
0.0
 11
229.8479861532
 21
461.7334998216
 31
0.0
  0
LINE
  5
69
330
66
100
AcDbEntity
  8
Default
  6
CENTER2
 62
     7
100
AcDbLine
 10
249.8479857062
 20
481.7334993745
 30
0.0
 11
249.8479857062
 21
441.7335002686
 31
0.0
  0
ENDBLK
  5
6B
330
66
100
AcDbEntity
  8
0
100
AcDbBlockEnd
  0
BLOCK
  5
74
330
6C
100
AcDbEntity
  8
0
100
AcDbBlockBegin
  2
SEANNOT_GROUP2
 70
     0
 10
0.0
 20
0.0
 30
0.0
  3
SEANNOT_GROUP2
  1

  0
LINE
  5
6E
330
6C
100
AcDbEntity
  8
Default
  6
CENTER2
 62
     7
100
AcDbLine
 10
120.539242386
 20
220.80653191
 30
0.0
 11
80.5392432801
 21
220.80653191
 31
0.0
  0
LINE
  5
6F
330
6C
100
AcDbEntity
  8
Default
  6
CENTER2
 62
     7
100
AcDbLine
 10
100.5392428331
 20
240.8065314629
 30
0.0
 11
100.5392428331
 21
200.806532357
 31
0.0
  0
LINE
  5
70
330
6C
100
AcDbEntity
  8
Default
  6
CENTER2
 62
     7
100
AcDbLine
 10
125.5392422743
 20
220.80653191
 30
0.0
 11
129.040161415
 21
220.80653191
 31
0.0
  0
LINE
  5
71
330
6C
100
AcDbEntity
  8
Default
  6
CENTER2
 62
     7
100
AcDbLine
 10
100.5392428331
 20
245.8065313512
 30
0.0
 11
100.5392428331
 21
249.3074504919
 31
0.0
  0
LINE
  5
72
330
6C
100
AcDbEntity
  8
Default
  6
CENTER2
 62
     7
100
AcDbLine
 10
75.5392433919
 20
220.80653191
 30
0.0
 11
72.0383242512
 21
220.80653191
 31
0.0
  0
LINE
  5
73
330
6C
100
AcDbEntity
  8
Default
  6
CENTER2
 62
     7
100
AcDbLine
 10
100.5392428331
 20
195.8065324688
 30
0.0
 11
100.5392428331
 21
192.3056133281
 31
0.0
  0
ENDBLK
  5
75
330
6C
100
AcDbEntity
  8
0
100
AcDbBlockEnd
  0
BLOCK
  5
174
330
76
100
AcDbEntity
  8
0
100
AcDbBlockBegin
  2
SE
 70
     0
 10
0.0
 20
0.0
 30
0.0
  3
SE
  1

  0
LINE
  5
79
330
76
100
AcDbEntity
  8
$DDT_AUDIT_GENERATED_(78)
  6
Continuous
 62
     7
100
AcDbLine
 10
100.5392428331
 20
461.7334998216
 30
0.0
 11
75.5392428331
 21
461.7334998207
 31
0.0
  0
LINE
  5
7A
330
76
100
AcDbEntity
  8
$DDT_AUDIT_GENERATED_(78)
  6
Continuous
 62
     7
100
AcDbLine
 10
125.5392428331
 20
461.7334990102
 30
0.0
 11
100.5392428331
 21
461.7334998216
 31
0.0
  0
SPLINE
  5
7B
330
76
100
AcDbEntity
  8
$DDT_AUDIT_GENERATED_(78)
  6
Continuous
 62
     7
100
AcDbSpline
210
0.0
220
0.0
230
1.0
 70
     8
 71
     3
 72
    19
 73
    15
 74
     0
 42
0.0000000001242844
 43
0.0000000001
 40
0.0
 40
0.0
 40
0.0
 40
0.0
 40
0.0115866844587369
 40
0.0228664154380244
 40
0.0340263353227238
 40
0.0517297637462827
 40
0.0678589427218355
 40
0.1016882696251547
 40
0.1355394296928353
 40
0.1518271117032411
 40
0.1693319946767756
 40
0.1851922173916891
 40
0.2031487734314397
 40
0.2133102149612028
 40
0.2133102149612028
 40
0.2133102149612028
 40
0.2133102149612028
 10
100.5392428331156
 20
557.5381264265696
 30
0.0
 10
100.1350097911895
 20
557.5390732682384
 30
0.0
 10
99.33725396824656
 20
557.5409418596839
 30
0.0
 10
98.15543850348983
 20
557.5594031706875
 30
0.0
 10
96.77392802676191
 20
557.6015576975731
 30
0.0
 10
95.25133801453272
 20
557.6812233885638
 30
0.0
 10
93.03326683831074
 20
557.8399852394125
 30
0.0
 10
90.44652781659616
 20
558.0557411618587
 30
0.0
 10
88.18066234163393
 20
558.3265152842048
 30
0.0
 10
86.60496489986846
 20
558.5819495868702
 30
0.0
 10
85.5759170386727
 20
558.7809872018843
 30
0.0
 10
84.65763716035019
 20
558.9672758773161
 30
0.0
 10
83.98914880614252
 20
559.1124854429678
 30
0.0
 10
83.6285478274527
 20
559.2223384345197
 30
0.0
 10
83.50771562010861
 20
559.2658553711514
 30
0.0
  0
SPLINE
  5
7C
330
76
100
AcDbEntity
  8
$DDT_AUDIT_GENERATED_(78)
  6
Continuous
 62
     7
100
AcDbSpline
210
0.0
220
0.0
230
1.0
 70
     8
 71
     3
 72
    11
 73
     7
 74
     0
 42
0.0000000003996073
 43
0.0000000001
 40
0.2133102149612028
 40
0.2133102149612028
 40
0.2133102149612028
 40
0.2133102149612028
 40
0.2219749194251051
 40
0.2374128564176843
 40
0.2507038333569974
 40
0.2586613131476033
 40
0.2586613131476033
 40
0.2586613131476033
 40
0.2586613131476033
 10
83.50771562010861
 20
559.2658553711514
 30
0.0
 10
83.40468148235455
 20
559.3029624483299
 30
0.0
 10
83.13725290464811
 20
559.4139048633067
 30
0.0
 10
82.81078746034851
 20
559.6312263250044
 30
0.0
 10
82.66899900369971
 20
559.7809466741015
 30
0.0
 10
82.62687298199596
 20
559.8722455295324
 30
0.0
 10
82.61461036183707
 20
559.907063879107
 30
0.0
  0
SPLINE
  5
7D
330
76
100
AcDbEntity
  8
$DDT_AUDIT_GENERATED_(78)
  6
Continuous
 62
     7
100
AcDbSpline
210
0.0
220
0.0
230
1.0
 70
     8
 71
     3
 72
    12
 73
     8
 74
     0
 42
0.0000000009957503
 43
0.0000000001
 40
0.368949622004884
 40
0.368949622004884
 40
0.368949622004884
 40
0.368949622004884
 40
0.3969209005629887
 40
0.4610838968968655
 40
0.5252074754995153
 40
0.6554064442912163
 40
0.6585539529527381
 40
0.6585539529527381
 40
0.6585539529527381
 40
0.6585539529527381
 10
118.7597815092032
 20
561.9684106055843
 30
0.0
 10
118.7682330954085
 20
562.0970820788023
 30
0.0
 10
118.7948076441004
 20
562.5168819540702
 30
0.0
 10
118.8314029485436
 20
563.1592517906189
 30
0.0
 10
118.8854981681534
 20
564.0572506570226
 30
0.0
 10
118.9199447677005
 20
564.5744369204104
 30
0.0
 10
118.9407986272491
 20
564.8643049447306
 30
0.0
 10
118.9412895216083
 20
564.8711139365586
 30
0.0
  0
SPLINE
  5
7E
330
76
100
AcDbEntity
  8
$DDT_AUDIT_GENERATED_(78)
  6
Continuous
 62
     7
100
AcDbSpline
210
0.0
220
0.0
230
1.0
 70
     8
 71
     3
 72
    12
 73
     8
 74
     0
 42
0.0000000010055258
 43
0.0000000001
 40
0.3428901085369357
 40
0.3428901085369357
 40
0.3428901085369357
 40
0.3428901085369357
 40
0.3449872901505214
 40
0.4753502952417657
 40
0.539578313091922
 40
0.6038170280628055
 40
0.6227534841585868
 40
0.6227534841585868
 40
0.6227534841585868
 40
0.6227534841585868
 10
82.13785897847062
 20
564.8618694422303
 30
0.0
 10
82.13818767292172
 20
564.8573005719413
 30
0.0
 10
82.15898548150402
 20
564.5678172339047
 30
0.0
 10
82.19334516360317
 20
564.0528377700605
 30
0.0
 10
82.24734488586324
 20
563.1525807364377
 30
0.0
 10
82.2824556385095
 20
562.5442954220072
 30
0.0
 10
82.30542878687903
 20
562.1701694602197
 30
0.0
 10
82.31086772480161
 20
562.0840250093199
 30
0.0
  0
SPLINE
  5
7F
330
76
100
AcDbEntity
  8
$DDT_AUDIT_GENERATED_(78)
  6
Continuous
 62
     7
100
AcDbSpline
210
0.0
220
0.0
230
1.0
 70
     8
 71
     3
 72
    11
 73
     7
 74
     0
 42
0.0000000003880823
 43
0.0000000001
 40
0.7416140766480606
 40
0.7416140766480606
 40
0.7416140766480606
 40
0.7416140766480606
 40
0.7484079123223877
 40
0.7617331309793736
 40
0.7769865917070525
 40
0.7889270981014436
 40
0.7889270981014436
 40
0.7889270981014436
 40
0.7889270981014436
 10
118.4636536304312
 20
559.9052659752368
 30
0.0
 10
118.4529533079218
 20
559.8755866250266
 30
0.0
 10
118.4135160237697
 20
559.7890753854615
 30
0.0
 10
118.2853148944361
 20
559.6466012436077
 30
0.0
 10
117.9420935196933
 20
559.4102565013214
 30
0.0
 10
117.6368704333711
 20
559.287112145375
 30
0.0
 10
117.4899370329366
 20
559.2377363749597
 30
0.0
  0
SPLINE
  5
80
330
76
100
AcDbEntity
  8
$DDT_AUDIT_GENERATED_(78)
  6
Continuous
 62
     7
100
AcDbSpline
210
0.0
220
0.0
230
1.0
 70
     8
 71
     3
 72
    18
 73
    14
 74
     0
 42
0.0000000001235968
 43
0.0000000001
 40
0.7889270981014436
 40
0.7889270981014436
 40
0.7889270981014436
 40
0.7889270981014436
 40
0.7961778901913842
 40
0.8141956055201214
 40
0.8300340532754564
 40
0.8475912422316533
 40
0.8639334374485342
 40
0.8979996486762372
 40
0.9318391030329651
 40
0.9480977530614155
 40
0.9659636526680497
 40
0.982739598441757
 40
1.0
 40
1.0
 40
1.0
 40
1.0
 10
117.4899370329366
 20
559.2377363749597
 30
0.0
 10
117.4007127151038
 20
559.2077532709156
 30
0.0
 10
117.073176994608
 20
559.1092978775334
 30
0.0
 10
116.4529879177596
 20
558.9738502190306
 30
0.0
 10
115.5384207723429
 20
558.7883659229149
 30
0.0
 10
114.512543914919
 20
558.5888239787309
 30
0.0
 10
112.9351903092
 20
558.3318477449151
 30
0.0
 10
110.6656645690717
 20
558.0572871389138
 30
0.0
 10
108.0711545136079
 20
557.8422871656808
 30
0.0
 10
105.8441805183363
 20
557.6821043816129
 30
0.0
 10
104.1221055251648
 20
557.5919886278969
 30
0.0
 10
102.3293753247031
 20
557.5440840538035
 30
0.0
 10
101.1415895636125
 20
557.5401310600553
 30
0.0
 10
100.5392428331156
 20
557.5381264265696
 30
0.0
  0
LINE
  5
81
330
76
100
AcDbEntity
  8
$DDT_AUDIT_GENERATED_(78)
  6
Continuous
 62
     7
100
AcDbLine
 10
119.051567726
 20
565.9513131883
 30
0.0
 11
119.0515993495
 21
572.0187222747
 31
0.0
  0
LINE
  5
82
330
76
100
AcDbEntity
  8
$DDT_AUDIT_GENERATED_(78)
  6
Continuous
 62
     7
100
AcDbLine
 10
82.0268863167
 20
572.0187222747
 30
0.0
 11
82.0269179403
 21
565.9513116184
 31
0.0
  0
ARC
  5
83
330
76
100
AcDbEntity
  8
$DDT_AUDIT_GENERATED_(78)
  6
Continuous
 62
     7
100
AcDbCircle
 10
120.3769709291
 20
554.3311607045
 30
0.0
 40
18.27886364061986
100
AcDbArc
 50
88.9313585239
 51
95.291229078
  0
ARC
  5
84
330
76
100
AcDbEntity
  8
$DDT_AUDIT_GENERATED_(78)
  6
Continuous
 62
     7
100
AcDbCircle
 10
113.0696453853
 20
1054.2886117476
 30
0.0
 40
481.7657913929219
100
AcDbArc
 50
270.9096763498
 51
271.4231801714
  0
ARC
  5
85
330
76
100
AcDbEntity
  8
$DDT_AUDIT_GENERATED_(78)
  6
Continuous
 62
     7
100
AcDbCircle
 10
88.0086609693
 20
1055.7534572501
 30
0.0
 40
483.2301474903466
100
AcDbArc
 50
268.5809906418
 51
269.0931024829
  0
SPLINE
  5
86
330
76
100
AcDbEntity
  8
$DDT_AUDIT_GENERATED_(78)
  6
Continuous
 62
     7
100
AcDbSpline
210
0.0
220
0.0
230
1.0
 70
     8
 71
     3
 72
    14
 73
    10
 74
     0
 42
0.0000000038016112
 43
0.0000000001
 40
0.0
 40
0.0
 40
0.0
 40
0.0
 40
0.4999999999999998
 40
0.4999999999999998
 40
0.6249999999999998
 40
0.6249999999999998
 40
0.7499999999999999
 40
0.7499999999999999
 40
0.7834234842509411
 40
0.7834234842509411
 40
0.7834234842509411
 40
0.7834234842509411
 10
80.360609709234
 20
572.6068450899046
 30
0.0
 10
81.06495454176459
 20
572.5977095931912
 30
0.0
 10
81.59953934101222
 20
572.5865167246699
 30
0.0
 10
82.05950980383828
 20
572.568377296522
 30
0.0
 10
82.1410431445564
 20
572.5645242093109
 30
0.0
 10
82.28034546736039
 20
572.5564539071843
 30
0.0
 10
82.33840447116798
 20
572.5522293406267
 30
0.0
 10
82.39748621188991
 20
572.546616199912
 30
0.0
 10
82.4091364139807
 20
572.54541735495
 30
0.0
 10
82.41996935277896
 20
572.5442036092094
 30
0.0
  0
SPLINE
  5
87
330
76
100
AcDbEntity
  8
$DDT_AUDIT_GENERATED_(78)
  6
Continuous
 62
     7
100
AcDbSpline
210
0.0
220
0.0
230
1.0
 70
     8
 71
     3
 72
    32
 73
    28
 74
     0
 42
0.0000000004059628
 43
0.0000000001
 40
0.0
 40
0.0
 40
0.0
 40
0.0
 40
0.0312500000000002
 40
0.0312500000000002
 40
0.0625000000000005
 40
0.0625000000000005
 40
0.0937500000000007
 40
0.0937500000000007
 40
0.125000000000001
 40
0.125000000000001
 40
0.1875000000000015
 40
0.1875000000000015
 40
0.2187500000000016
 40
0.2187500000000016
 40
0.2500000000000016
 40
0.2500000000000016
 40
0.2812500000000017
 40
0.2812500000000017
 40
0.3125000000000017
 40
0.3125000000000017
 40
0.3750000000000018
 40
0.3750000000000018
 40
0.5000000000000017
 40
0.5000000000000017
 40
0.7500000000000009
 40
0.7500000000000009
 40
1.0
 40
1.0
 40
1.0
 40
1.0
 10
100.5392428331156
 20
563.2446371073956
 30
0.0
 10
99.42237828900181
 20
563.2446368682829
 30
0.0
 10
98.3217294497377
 20
563.2630488956792
 30
0.0
 10
96.1516312837399
 20
563.3348948793555
 30
0.0
 10
95.07201249513508
 20
563.3891583408583
 30
0.0
 10
93.01114987505933
 20
563.5287261555326
 30
0.0
 10
92.02719500487
 20
563.6136980698836
 30
0.0
 10
90.15075794869709
 20
563.811827716316
 30
0.0
 10
89.25453283361777
 20
563.9259253049785
 30
0.0
 10
86.80858448092474
 20
564.2947502939066
 30
0.0
 10
85.4468856564939
 20
564.5850479326757
 30
0.0
 10
83.93218071679121
 20
565.0404372790819
 30
0.0
 10
83.50750176480327
 20
565.1956011416688
 30
0.0
 10
82.83038830952852
 20
565.5099750474643
 30
0.0
 10
82.60549020636424
 20
565.6646865602797
 30
0.0
 10
82.46665848145702
 20
565.9824942579328
 30
0.0
 10
82.45000706966832
 20
566.142609820229
 30
0.0
 10
82.40751623379693
 20
566.4528983179435
 30
0.0
 10
82.39238119037935
 20
566.6045583913759
 30
0.0
 10
82.35178389473565
 20
567.0487877980435
 30
0.0
 10
82.33199092897122
 20
567.3306066063075
 30
0.0
 10
82.27750811257627
 20
568.1347082797752
 30
0.0
 10
82.24924985616543
 20
568.6157628009308
 30
0.0
 10
82.1714916232928
 20
569.9078698982438
 30
0.0
 10
82.13074968980128
 20
570.5680302577974
 30
0.0
 10
82.06495226843614
 20
571.5434500046116
 30
0.0
 10
82.0407339433892
 20
571.8674681573633
 30
0.0
 10
82.02688631668393
 20
572.0187222747204
 30
0.0
  0
SPLINE
  5
88
330
76
100
AcDbEntity
  8
$DDT_AUDIT_GENERATED_(78)
  6
Continuous
 62
     7
100
AcDbSpline
210
0.0
220
0.0
230
1.0
 70
     8
 71
     3
 72
    26
 73
    22
 74
     0
 42
0.0000000004059251
 43
0.0000000001
 40
0.0
 40
0.0
 40
0.0
 40
0.0
 40
0.4999999999999996
 40
0.4999999999999996
 40
0.6249999999999992
 40
0.6249999999999992
 40
0.6874999999999991
 40
0.6874999999999991
 40
0.7187499999999991
 40
0.7187499999999991
 40
0.7499999999999992
 40
0.7499999999999992
 40
0.7812499999999993
 40
0.7812499999999993
 40
0.8124999999999993
 40
0.8124999999999993
 40
0.8749999999999996
 40
0.8749999999999996
 40
0.9374999999999997
 40
0.9374999999999997
 40
1.0
 40
1.0
 40
1.0
 40
1.0
 10
119.0515993495473
 20
572.0187222747202
 30
0.0
 10
119.0239016292538
 20
571.7161870948692
 30
0.0
 10
118.9587863313925
 20
570.7684886540001
 30
0.0
 10
118.8291590685959
 20
568.6144907773137
 30
0.0
 10
118.8008824879488
 20
568.1331124485789
 30
0.0
 10
118.7463554280087
 20
567.3286474504531
 30
0.0
 10
118.7265461442284
 20
567.0467017851898
 30
0.0
 10
118.6858852059902
 20
566.6023527159198
 30
0.0
 10
118.670724806416
 20
566.4506486617248
 30
0.0
 10
118.6280920943393
 20
566.1402575860066
 30
0.0
 10
118.6115684285869
 20
565.9799952083678
 30
0.0
 10
118.4712265652581
 20
565.6625718172547
 30
0.0
 10
118.2438710922549
 20
565.5077591145028
 30
0.0
 10
117.5693788941117
 20
565.1951119056354
 30
0.0
 10
117.1445229326202
 20
565.0396322225702
 30
0.0
 10
115.613739640987
 20
564.5802225910181
 30
0.0
 10
114.2718311361402
 20
564.2945625828866
 30
0.0
 10
110.9784091090918
 20
563.7989084773901
 30
0.0
 10
109.0920884989805
 20
563.5978196419526
 30
0.0
 10
104.9561228969586
 20
563.3183332092615
 30
0.0
 10
102.7720287096827
 20
563.2446366293722
 30
0.0
 10
100.5392428331156
 20
563.2446371073956
 30
0.0
  0
ARC
  5
89
330
76
100
AcDbEntity
  8
$DDT_AUDIT_GENERATED_(78)
  6
Continuous
 62
     7
100
AcDbCircle
 10
100.5383367714
 20
1192.1635358301
 30
0.0
 40
619.9314521037286
100
AcDbArc
 50
267.8426815376
 51
272.1187298076
  0
SPLINE
  5
8A
330
76
100
AcDbEntity
  8
$DDT_AUDIT_GENERATED_(78)
  6
Continuous
 62
     7
100
AcDbSpline
210
0.0
220
0.0
230
1.0
 70
     8
 71
     3
 72
     8
 73
     4
 74
     0
 42
0.0000000010968832
 43
0.0000000001
 40
0.6193614539204305
 40
0.6193614539204305
 40
0.6193614539204305
 40
0.6193614539204305
 40
0.6215772381794893
 40
0.6215772381794893
 40
0.6215772381794893
 40
0.6215772381794893
 10
87.65926252588565
 20
551.8915098840746
 30
0.0
 10
87.65496580369769
 20
551.896763955052
 30
0.0
 10
87.65072464881683
 20
551.9019939807174
 30
0.0
 10
87.64653921057611
 20
551.9072000736301
 30
0.0
  0
SPLINE
  5
8B
330
76
100
AcDbEntity
  8
$DDT_AUDIT_GENERATED_(78)
  6
Continuous
 62
     7
100
AcDbSpline
210
0.0
220
0.0
230
1.0
 70
     8
 71
     3
 72
     8
 73
     4
 74
     0
 42
0.0000000005808356
 43
0.0000000001
 40
0.6623607448270301
 40
0.6623607448270301
 40
0.6623607448270301
 40
0.6623607448270301
 40
0.6664653036011621
 40
0.6664653036011621
 40
0.6664653036011621
 40
0.6664653036011621
 10
113.4206673906679
 20
551.8945083610779
 30
0.0
 10
113.4061712628651
 20
551.8766701346304
 30
0.0
 10
113.3910633357246
 20
551.8586030326726
 30
0.0
 10
113.3753459015209
 20
551.840294863668
 30
0.0
  0
LINE
  5
8C
330
76
100
AcDbEntity
  8
$DDT_AUDIT_GENERATED_(78)
  6
Continuous
 62
     7
100
AcDbLine
 10
75.5392428331
 20
572.1715430445
 30
0.0
 11
75.5392428331
 21
461.7334998207
 31
0.0
  0
ARC
  5
8D
330
76
100
AcDbEntity
  8
$DDT_AUDIT_GENERATED_(78)
  6
Continuous
 62
     7
100
AcDbCircle
 10
134.9278480409
 20
587.2186614672
 30
0.0
 40
59.01075682160084
100
AcDbArc
 50
207.5763074425
 51
216.7586732346
  0
ARC
  5
8E
330
76
100
AcDbEntity
  8
$DDT_AUDIT_GENERATED_(78)
  6
Continuous
 62
     7
100
AcDbCircle
 10
66.3100269489
 20
587.1257083344
 30
0.0
 40
58.82719385111261
100
AcDbArc
 50
323.2058087519
 51
332.428906213
  0
LINE
  5
8F
330
76
100
AcDbEntity
  8
$DDT_AUDIT_GENERATED_(78)
  6
Continuous
 62
     7
100
AcDbLine
 10
125.5392428331
 20
461.7334998207
 30
0.0
 11
125.5392428331
 21
572.1714247303
 31
0.0
  0
SPLINE
  5
90
330
76
100
AcDbEntity
  8
$DDT_AUDIT_GENERATED_(78)
  6
Continuous
 62
     7
100
AcDbSpline
210
0.0
220
0.0
230
1.0
 70
     8
 71
     3
 72
    30
 73
    26
 74
     0
 42
0.0000000090886979
 43
0.0000000001
 40
0.0
 40
0.0
 40
0.0
 40
0.0
 40
0.0447230010009423
 40
0.0946242689790937
 40
0.1406987684897721
 40
0.1834858910813314
 40
0.2233915516181501
 40
0.2783681651886913
 40
0.3281740961481774
 40
0.3735818441949223
 40
0.4152052469047702
 40
0.4533339892578573
 40
0.488223261009025
 40
0.5201286183742302
 40
0.549305583226414
 40
0.5909271721274677
 40
0.62699685755799
 40
0.6582007220103632
 40
0.685223668198201
 40
0.7087505163730619
 40
0.7342858493307316
 40
0.7567656941914218
 40
0.7773544364302786
 40
0.7963752882501842
 40
0.8292548900965322
 40
0.8292548900965322
 40
0.8292548900965322
 40
0.8292548900965322
 10
118.9389957253636
 20
564.8079311843077
 30
0.0
 10
118.9413656760178
 20
564.8406156316455
 30
0.0
 10
118.9455876402658
 20
564.8987575514615
 30
0.0
 10
118.9522124431352
 20
564.9871283404486
 30
0.0
 10
118.9583889499521
 20
565.0675895576419
 30
0.0
 10
118.9639819412609
 20
565.1386277244512
 30
0.0
 10
118.9697769306902
 20
565.2104426019362
 30
0.0
 10
118.9756577253869
 20
565.281153035153
 30
0.0
 10
118.981514142943
 20
565.3490980669878
 30
0.0
 10
118.9866423880692
 20
565.406545460401
 30
0.0
 10
118.9911567218004
 20
565.4554050207607
 30
0.0
 10
118.9951227863339
 20
565.4969896407043
 30
0.0
 10
118.9986049793053
 20
565.5323565261202
 30
0.0
 10
119.0016580484701
 20
565.562408166847
 30
0.0
 10
119.0047867252787
 20
565.592266532438
 30
0.0
 10
119.007863042303
 20
565.6204952882348
 30
0.0
 10
119.0107665149011
 20
565.645904435625
 30
0.0
 10
119.0130743313995
 20
565.6651974147215
 30
0.0
 10
119.0148877270721
 20
565.6797065315156
 30
0.0
 10
119.0163913951232
 20
565.6912455057923
 30
0.0
 10
119.0176058001464
 20
565.7001546912712
 30
0.0
 10
119.0185542927849
 20
565.7067936122282
 30
0.0
 10
119.0192514048006
 20
565.7114478273251
 30
0.0
 10
119.0198688314727
 20
565.7153519848516
 30
0.0
 10
119.0200934693973
 20
565.7165781680644
 30
0.0
 10
119.0201103608264
 20
565.7165782634598
 30
0.0
  0
SPLINE
  5
91
330
76
100
AcDbEntity
  8
$DDT_AUDIT_GENERATED_(78)
  6
Continuous
 62
     7
100
AcDbSpline
210
0.0
220
0.0
230
1.0
 70
     8
 71
     3
 72
    91
 73
    87
 74
     0
 42
0.0000000012184602
 43
0.0000000001
 40
0.15718376739163
 40
0.15718376739163
 40
0.15718376739163
 40
0.15718376739163
 40
0.1572646999309054
 40
0.1573016868759973
 40
0.1573155926591135
 40
0.1573278492489269
 40
0.1573401876832452
 40
0.157354320577616
 40
0.1573921119394875
 40
0.1575176961342414
 40
0.1579931482687299
 40
0.1598896304578035
 40
0.1676638836268305
 40
0.1736444434604097
 40
0.1810900582983369
 40
0.1961890052464519
 40
0.215351011726486
 40
0.2386608153835677
 40
0.2663064391030511
 40
0.298525090623474
 40
0.3245356696632941
 40
0.3533353826475434
 40
0.3853116043749901
 40
0.4201114748928346
 40
0.4564718378176345
 40
0.4946030470456818
 40
0.5352056946636747
 40
0.572075895550669
 40
0.6089478365090963
 40
0.644602256700584
 40
0.6778078469374229
 40
0.6979724493446012
 40
0.7161313401737371
 40
0.731918346420372
 40
0.7419816821254263
 40
0.7503501997853942
 40
0.7568693396999078
 40
0.7613846166082223
 40
0.763741989338349
 40
0.7639766392607802
 40
0.7640395368551252
 40
0.7640575691747465
 40
0.7640634216128851
 40
0.764065647448227
 40
0.7640674899790644
 40
0.7640690758709594
 40
0.7640705979782084
 40
0.7640722719740219
 40
0.7640742653329236
 40
0.764086862097428
 40
0.7641386646891951
 40
0.7643549447623232
 40
0.7652513223242152
 40
0.7677943346600813
 40
0.7718342917018091
 40
0.7796627855375826
 40
0.7904242494161464
 40
0.80427386068024
 40
0.8213669008631975
 40
0.8346409351324068
 40
0.849254210661296
 40
0.8629257568648856
 40
0.8704765971396237
 40
0.8728635265576381
 40
0.8736296391647022
 40
0.8740803225364429
 40
0.8741802923896581
 40
0.8741917853461487
 40
0.8741978614070216
 40
0.8741985769295693
 40
0.8741990390187793
 40
0.8741994357664675
 40
0.8741996980704486
 40
0.8742000260351532
 40
0.8742055275285201
 40
0.8742332451637669
 40
0.8744551679428498
 40
0.8761297093965358
 40
0.8795247948413258
 40
0.8848239909850587
 40
0.8951688905631491
 40
0.90965968287969
 40
0.9287302933257402
 40
0.9486064270525035
 40
0.9722774129844974
 40
1.0
 40
1.0
 40
1.0
 40
1.0
 10
114.7230043569086
 20
558.7858105975878
 30
0.0
 10
114.7224990723209
 20
558.7860248413915
 30
0.0
 10
114.7218058129583
 20
558.7864262018718
 30
0.0
 10
114.7212014963612
 20
558.7872052201697
 30
0.0
 10
114.7210911833237
 20
558.7877866065238
 30
0.0
 10
114.7211363978746
 20
558.7882220058837
 30
0.0
 10
114.7213064907451
 20
558.7886791486039
 30
0.0
 10
114.7217205405488
 20
558.7893556157188
 30
0.0
 10
114.7231134319773
 20
558.7907789624045
 30
0.0
 10
114.7282841578031
 20
558.7940077830583
 30
0.0
 10
114.7480848134654
 20
558.8022063977762
 30
0.0
 10
114.8267790089355
 20
558.8257370825364
 30
0.0
 10
114.9451976353147
 20
558.8545423103099
 30
0.0
 10
115.1023270913768
 20
558.8917131213625
 30
0.0
 10
115.3094594588679
 20
558.9393790549726
 30
0.0
 10
115.6023275985328
 20
559.0065094338155
 30
0.0
 10
115.9861570928518
 20
559.0941113797396
 30
0.0
 10
116.4228411330379
 20
559.1927608570004
 30
0.0
 10
116.8963210064556
 20
559.3051259718947
 30
0.0
 10
117.3311107699121
 20
559.4193492380671
 30
0.0
 10
117.7184944744359
 20
559.5478177827579
 30
0.0
 10
118.0503088740687
 20
559.6981952974791
 30
0.0
 10
118.3443222068445
 20
559.9025971254988
 30
0.0
 10
118.5171116544964
 20
560.0765591539405
 30
0.0
 10
118.5768288199985
 20
560.2245662633479
 30
0.0
 10
118.6178115893043
 20
560.442152968796
 30
0.0
 10
118.6485088982537
 20
560.639799041068
 30
0.0
 10
118.6718865879097
 20
560.8312026487774
 30
0.0
 10
118.6896178269133
 20
561.0100670360932
 30
0.0
 10
118.7041468081505
 20
561.1822496611119
 30
0.0
 10
118.7159817909133
 20
561.3288562049411
 30
0.0
 10
118.7253512510078
 20
561.4483061830074
 30
0.0
 10
118.7321799907935
 20
561.5393299622589
 30
0.0
 10
118.7376321929688
 20
561.6140292193397
 30
0.0
 10
118.7418331250065
 20
561.6726619886301
 30
0.0
 10
118.744921428186
 20
561.716082353408
 30
0.0
 10
118.7473327864757
 20
561.75019089428
 30
0.0
 10
118.7491500012169
 20
561.7753183637171
 30
0.0
 10
118.7501033373672
 20
561.7885868495966
 30
0.0
 10
118.7506673756774
 20
561.7955439031687
 30
0.0
 10
118.7507657930915
 20
561.7966712540014
 30
0.0
 10
118.7508073643444
 20
561.7971194495843
 30
0.0
 10
118.7508260163523
 20
561.7973122533576
 30
0.0
 10
118.7508352389735
 20
561.7974053005219
 30
0.0
 10
118.7508414520122
 20
561.7974670363506
 30
0.0
 10
118.750847711523
 20
561.797528190074
 30
0.0
 10
118.7508538601456
 20
561.7975871193555
 30
0.0
 10
118.7508596075395
 20
561.7976410807548
 30
0.0
 10
118.7508738402378
 20
561.7977717024767
 30
0.0
 10
118.7509002358822
 20
561.7979891132766
 30
0.0
 10
118.750936759885
 20
561.7981823248962
 30
0.0
 10
118.7509461474646
 20
561.7976000607393
 30
0.0
 10
118.7507599077799
 20
561.7937051975214
 30
0.0
 10
118.7502052297559
 20
561.7840735391688
 30
0.0
 10
118.7489747029131
 20
561.7640406672513
 30
0.0
 10
118.7468659831494
 20
561.7311043463815
 30
0.0
 10
118.7436630931665
 20
561.6826998167958
 30
0.0
 10
118.739338434919
 20
561.6194915851152
 30
0.0
 10
118.7345305502981
 20
561.5518409940665
 30
0.0
 10
118.7294342252916
 20
561.4827641173861
 30
0.0
 10
118.7245512118821
 20
561.418807482177
 30
0.0
 10
118.7202034437108
 20
561.364013292345
 30
0.0
 10
118.7173860626016
 20
561.3283710257801
 30
0.0
 10
118.7161397927652
 20
561.3127916615167
 30
0.0
 10
118.7157297435195
 20
561.3077046270619
 30
0.0
 10
118.7155953886482
 20
561.3060836254397
 30
0.0
 10
118.7155398666575
 20
561.3054217305342
 30
0.0
 10
118.71553764125
 20
561.3054266037805
 30
0.0
 10
118.7155377295276
 20
561.305434227368
 30
0.0
 10
118.7155397015846
 20
561.3054666395701
 30
0.0
 10
118.7155406096811
 20
561.3054809665579
 30
0.0
 10
118.7155416246967
 20
561.3054964346926
 30
0.0
 10
118.7155422656325
 20
561.3055060391596
 30
0.0
 10
118.7155456628669
 20
561.3055565104215
 30
0.0
 10
118.7155539763252
 20
561.3056725604973
 30
0.0
 10
118.715605489554
 20
561.3063791221937
 30
0.0
 10
118.7158731307354
 20
561.3098342685348
 30
0.0
 10
118.7165934037454
 20
561.3191241417207
 30
0.0
 10
118.7179250084428
 20
561.3361173957603
 30
0.0
 10
118.7203588501267
 20
561.3672852759687
 30
0.0
 10
118.7241998803997
 20
561.416073373239
 30
0.0
 10
118.729664516775
 20
561.4870926394342
 30
0.0
 10
118.7360575492601
 20
561.5735601037835
 30
0.0
 10
118.743211319188
 20
561.6743077919601
 30
0.0
 10
118.7511929875142
 20
561.7915299542926
 30
0.0
 10
118.7561354972865
 20
561.8678670756918
 30
0.0
 10
118.7592941451263
 20
561.9168493712733
 30
0.0
  0
SPLINE
  5
92
330
76
100
AcDbEntity
  8
$DDT_AUDIT_GENERATED_(78)
  6
Continuous
 62
     7
100
AcDbSpline
210
0.0
220
0.0
230
1.0
 70
     8
 71
     3
 72
    91
 73
    87
 74
     0
 42
0.0000000012809147
 43
0.0000000001
 40
0.0
 40
0.0
 40
0.0
 40
0.0
 40
0.0269145512541009
 40
0.0510996432477157
 40
0.072174557252175
 40
0.0903120993216915
 40
0.1102250050542301
 40
0.1256329819510164
 40
0.1369457783947867
 40
0.1429892299882337
 40
0.1471327692967742
 40
0.1495496967504706
 40
0.1501648541050776
 40
0.1503336143246347
 40
0.1503844985453564
 40
0.1504135496850794
 40
0.1504200710453464
 40
0.1504209119835921
 40
0.1504212267714415
 40
0.1504214811994433
 40
0.1504218774470518
 40
0.15042234088857
 40
0.1504230428040789
 40
0.1504269579121921
 40
0.1504366702560459
 40
0.1505270355755898
 40
0.1509473774778674
 40
0.1526715260939893
 40
0.1590481464549397
 40
0.1681748673132639
 40
0.178665815819595
 40
0.1891513947779328
 40
0.1988559932138754
 40
0.2208221331693777
 40
0.2373675003475966
 40
0.2488332512991352
 40
0.2543041457016467
 40
0.2572535724032801
 40
0.2576140802851186
 40
0.2578287318052791
 40
0.2578825592175464
 40
0.2578967286823143
 40
0.2579010479683656
 40
0.2579027269025051
 40
0.2579042634444723
 40
0.2579058504872963
 40
0.2579076643864676
 40
0.2579123947705369
 40
0.2579275243685986
 40
0.2579829340550881
 40
0.2585476681223142
 40
0.2596522272344737
 40
0.2634113330981325
 40
0.2691183420695668
 40
0.2816458516008132
 40
0.298058248843638
 40
0.317803263050017
 40
0.3403289508818021
 40
0.3650832643139554
 40
0.3999454632558584
 40
0.4364404620390578
 40
0.4733405522371461
 40
0.5134088570730865
 40
0.5511470029572909
 40
0.5867846662065235
 40
0.6211336375692058
 40
0.6530548657156362
 40
0.6817517196442145
 40
0.7076808616862835
 40
0.7398629999882484
 40
0.7675794846048194
 40
0.7909621662827077
 40
0.8101630345673807
 40
0.8253694422726814
 40
0.8390802820650757
 40
0.8472827320043784
 40
0.84943815374374
 40
0.8500519330322364
 40
0.8503693956163858
 40
0.85040706251662
 40
0.8504213158190872
 40
0.8504338061011385
 40
0.8504461176485473
 40
0.8504598852109476
 40
0.8504959570036532
 40
0.8506238819442028
 40
0.8506238819442028
 40
0.8506238819442028
 40
0.8506238819442028
 10
82.31239725981042
 20
562.0247426148055
 30
0.0
 10
82.31532406266446
 20
561.9779311379831
 30
0.0
 10
82.32001575977203
 20
561.9031520366648
 30
0.0
 10
82.32768675275804
 20
561.7858781003885
 30
0.0
 10
82.33454057587707
 20
561.6849993289123
 30
0.0
 10
82.34122162617238
 20
561.5902359918163
 30
0.0
 10
82.34750042554961
 20
561.5046524540603
 30
0.0
 10
82.35319087020632
 20
561.4299486022896
 30
0.0
 10
82.35734359074851
 20
561.3773433633767
 30
0.0
 10
82.36006639721077
 20
561.3426791001245
 30
0.0
 10
82.36167869025407
 20
561.3221240067267
 30
0.0
 10
82.3626122748517
 20
561.3102022840762
 30
0.0
 10
82.36305049470214
 20
561.3045579209228
 30
0.0
 10
82.3631746885558
 20
561.3029346907026
 30
0.0
 10
82.36321631840838
 20
561.3023804848053
 30
0.0
 10
82.36323315988103
 20
561.3021514234019
 30
0.0
 10
82.36324242162975
 20
561.3020218908922
 30
0.0
 10
82.3632458887644
 20
561.3019712413037
 30
0.0
 10
82.36324671055148
 20
561.3019590614712
 30
0.0
 10
82.36324735543043
 20
561.301949431037
 30
0.0
 10
82.36324835590791
 20
561.3019342495123
 30
0.0
 10
82.36324925832716
 20
561.3019201135074
 30
0.0
 10
82.36325073028983
 20
561.3018962079905
 30
0.0
 10
82.36325158303107
 20
561.301878522345
 30
0.0
 10
82.3632506997568
 20
561.3018584867327
 30
0.0
 10
82.3632017405993
 20
561.3024350314588
 30
0.0
 10
82.36297620669704
 20
561.3051502745545
 30
0.0
 10
82.3619881378041
 20
561.3174654026773
 30
0.0
 10
82.35997303689183
 20
561.3427639145507
 30
0.0
 10
82.35685249953077
 20
561.3819576982781
 30
0.0
 10
82.35326069423854
 20
561.4276082055889
 30
0.0
 10
82.3497026041867
 20
561.4742659941816
 30
0.0
 10
82.3449395204119
 20
561.5382576289976
 30
0.0
 10
82.33971625171965
 20
561.6112579843815
 30
0.0
 10
82.33464855759657
 20
561.6856948540869
 30
0.0
 10
82.33142959737835
 20
561.7347724942696
 30
0.0
 10
82.32976436105888
 20
561.7618476077429
 30
0.0
 10
82.32906557290768
 20
561.7735168546909
 30
0.0
 10
82.32897562699125
 20
561.7763830452116
 30
0.0
 10
82.32898305769022
 20
561.7766698989116
 30
0.0
 10
82.32902024876019
 20
561.7764729966128
 30
0.0
 10
82.32904641458691
 20
561.7762616738579
 30
0.0
 10
82.32906195184304
 20
561.7761219633757
 30
0.0
 10
82.32907031711802
 20
561.7760438494391
 30
0.0
 10
82.32907644597188
 20
561.7759854936595
 30
0.0
 10
82.3290826994921
 20
561.7759248775875
 30
0.0
 10
82.3290918040986
 20
561.7758351845321
 30
0.0
 10
82.32911044710761
 20
561.775646829955
 30
0.0
 10
82.3291511954681
 20
561.775216445199
 30
0.0
 10
82.32936222597317
 20
561.7728406596684
 30
0.0
 10
82.32964392436092
 20
561.7691604026977
 30
0.0
 10
82.33053673279133
 20
561.7575357510369
 30
0.0
 10
82.33191617611395
 20
561.7383587628336
 30
0.0
 10
82.334755927261
 20
561.6989234914413
 30
0.0
 10
82.33900801106792
 20
561.639448053682
 30
0.0
 10
82.3450191289296
 20
561.55689399325
 30
0.0
 10
82.352369060749
 20
561.4586765902772
 30
0.0
 10
82.36106134979518
 20
561.3474713692463
 30
0.0
 10
82.37203810583105
 20
561.2127228394118
 30
0.0
 10
82.38479771462474
 20
561.0572020175082
 30
0.0
 10
82.40121514791632
 20
560.882115874096
 30
0.0
 10
82.42247356965824
 20
560.695282479318
 30
0.0
 10
82.45064785380107
 20
560.5026563083532
 30
0.0
 10
82.48674256195507
 20
560.2951473517735
 30
0.0
 10
82.53417727595884
 20
560.1219099299275
 30
0.0
 10
82.64244013863637
 20
559.9858015635186
 30
0.0
 10
82.88070857370806
 20
559.7874740626773
 30
0.0
 10
83.17840516434511
 20
559.62037183149
 30
0.0
 10
83.53070847776802
 20
559.4813306694285
 30
0.0
 10
83.93339978903262
 20
559.3637200153871
 30
0.0
 10
84.37541473846797
 20
559.2522958758799
 30
0.0
 10
84.78542527073107
 20
559.1558263702443
 30
0.0
 10
85.14764650156702
 20
559.072460247781
 30
0.0
 10
85.46627817338371
 20
558.9978020235684
 30
0.0
 10
85.72358755670385
 20
558.9360677259527
 30
0.0
 10
85.89608810957232
 20
558.8915100814113
 30
0.0
 10
85.97705694604645
 20
558.8678541978275
 30
0.0
 10
86.00012512253085
 20
558.8581131122068
 30
0.0
 10
86.00768658030371
 20
558.8547081583447
 30
0.0
 10
86.0104782319248
 20
558.8517675897984
 30
0.0
 10
86.01088217250765
 20
558.8510942502985
 30
0.0
 10
86.01105614324615
 20
558.8506392727303
 30
0.0
 10
86.01111662445891
 20
558.8502036752737
 30
0.0
 10
86.01104303750917
 20
558.8496191839263
 30
0.0
 10
86.01031439617631
 20
558.8485441752985
 30
0.0
 10
86.00943251645982
 20
558.8479637091771
 30
0.0
 10
86.00867073978557
 20
558.8476592680859
 30
0.0
  0
SPLINE
  5
93
330
76
100
AcDbEntity
  8
$DDT_AUDIT_GENERATED_(78)
  6
Continuous
 62
     7
100
AcDbSpline
210
0.0
220
0.0
230
1.0
 70
     8
 71
     3
 72
    30
 73
    26
 74
     0
 42
0.0000000090029191
 43
0.0000000001
 40
0.1698861928209211
 40
0.1698861928209211
 40
0.1698861928209211
 40
0.1698861928209211
 40
0.2028771901168743
 40
0.2218508878122014
 40
0.2423915697313296
 40
0.2648166472287581
 40
0.2902849998070932
 40
0.3137485019540447
 40
0.3406985009894447
 40
0.3718188168669491
 40
0.4077931665043091
 40
0.4493061828287159
 40
0.48207680275439
 40
0.5182965852259794
 40
0.558320884276029
 40
0.6025049278901233
 40
0.640370183205903
 40
0.6812813558808425
 40
0.7257227333893139
 40
0.7742141476044078
 40
0.8189216101745225
 40
0.8672664819501442
 40
0.9198616396740931
 40
0.9774602103403761
 40
1.0
 40
1.0
 40
1.0
 40
1.0
 10
82.05837115981208
 20
565.7165949473679
 30
0.0
 10
82.05838824368456
 20
565.7165955065226
 30
0.0
 10
82.05861590109835
 20
565.7153527806689
 30
0.0
 10
82.05923972569421
 20
565.7114063457497
 30
0.0
 10
82.0599412791104
 20
565.7067201181076
 30
0.0
 10
82.06089459438225
 20
565.7000437285484
 30
0.0
 10
82.06211387582519
 20
565.6910936162108
 30
0.0
 10
82.06362278273625
 20
565.6795076676337
 30
0.0
 10
82.06544197619596
 20
565.6649434789533
 30
0.0
 10
82.06775681122808
 20
565.6455800179428
 30
0.0
 10
82.0706688629871
 20
565.6200797931814
 30
0.0
 10
82.07386032686775
 20
565.5907755051928
 30
0.0
 10
82.07725476106292
 20
565.558298058675
 30
0.0
 10
82.08076938380279
 20
565.5234834923258
 30
0.0
 10
82.0848391550578
 20
565.4817218678747
 30
0.0
 10
82.08916140529293
 20
565.4357619982005
 30
0.0
 10
82.09369344926198
 20
565.3859804182187
 30
0.0
 10
82.09838976293167
 20
565.3327794518494
 30
0.0
 10
82.10367465871768
 20
565.2710333690536
 30
0.0
 10
82.10931212336666
 20
565.2030591414565
 30
0.0
 10
82.11531237340755
 20
565.1285326069199
 30
0.0
 10
82.12170802355077
 20
565.0469001944894
 30
0.0
 10
82.12886644862009
 20
564.9527795977655
 30
0.0
 10
82.13525079325149
 20
564.8669556455573
 30
0.0
 10
82.13894514495813
 20
564.8153803804198
 30
0.0
 10
82.14016590234255
 20
564.7983256079842
 30
0.0
  0
ARC
  5
94
330
76
100
AcDbEntity
  8
$DDT_AUDIT_GENERATED_(78)
  6
Continuous
 62
     7
100
AcDbCircle
 10
83.7241822707
 20
565.9476652481
 30
0.0
 40
1.695142156807882
100
AcDbArc
 50
183.1959595072
 51
183.8054972962
  0
ARC
  5
95
330
76
100
AcDbEntity
  8
$DDT_AUDIT_GENERATED_(78)
  6
Continuous
 62
     7
100
AcDbCircle
 10
125.0405703892
 20
572.1806255996
 30
0.0
 40
0.4912994388187137
100
AcDbArc
 50
358.8626726011
 51
87.1709694536
  0
ARC
  5
96
330
76
100
AcDbEntity
  8
$DDT_AUDIT_GENERATED_(78)
  6
Continuous
 62
     7
100
AcDbCircle
 10
76.0374792291
 20
572.1812556541
 30
0.0
 40
0.4907678851017511
100
AcDbArc
 50
92.5808356423
 51
181.1492147542
  0
ARC
  5
97
330
76
100
AcDbEntity
  8
$DDT_AUDIT_GENERATED_(78)
  6
Continuous
 62
     7
100
AcDbCircle
 10
99.7733932094
 20
498.2423563276
 30
0.0
 40
56.07330197070905
100
AcDbArc
 50
76.5822275623
 51
99.6312507471
  0
ARC
  5
98
330
76
100
AcDbEntity
  8
$DDT_AUDIT_GENERATED_(78)
  6
Continuous
 62
     7
100
AcDbCircle
 10
100.0199934351
 20
564.6668479501
 30
0.0
 40
18.50978588272621
100
AcDbArc
 50
311.7529920108
 51
316.0969240985
  0
SPLINE
  5
99
330
76
100
AcDbEntity
  8
$DDT_AUDIT_GENERATED_(78)
  6
Continuous
 62
     7
100
AcDbSpline
210
0.0
220
0.0
230
1.0
 70
     8
 71
     3
 72
    18
 73
    14
 74
     0
 42
0.0000000038980952
 43
0.0000000001
 40
0.1236723875418686
 40
0.1236723875418686
 40
0.1236723875418686
 40
0.1236723875418686
 40
0.2030682102474062
 40
0.2810423509367131
 40
0.363500833352613
 40
0.4452991106381843
 40
0.530430538121007
 40
0.6198251852204495
 40
0.7118377452780114
 40
0.8059945326212842
 40
0.9017848088990363
 40
0.9987587040764435
 40
1.0
 40
1.0
 40
1.0
 40
1.0
 10
88.29573243813587
 20
552.7810112698793
 30
0.0
 10
88.29584632819285
 20
552.7806710105195
 30
0.0
 10
88.29913503867301
 20
552.7899444970983
 30
0.0
 10
88.33681459133861
 20
552.8319489046627
 30
0.0
 10
88.41847420525777
 20
552.8965619254752
 30
0.0
 10
88.54974474313443
 20
552.9762624752616
 30
0.0
 10
88.72707002829839
 20
553.0627448063373
 30
0.0
 10
88.95621785242761
 20
553.1545597635084
 30
0.0
 10
89.23740602761927
 20
553.2484372030249
 30
0.0
 10
89.56920531646428
 20
553.3424006246498
 30
0.0
 10
89.94883170849161
 20
553.4328087171194
 30
0.0
 10
90.23577732331955
 20
553.4950924417934
 30
0.0
 10
90.38561397364654
 20
553.5219434916314
 30
0.0
 10
90.3878081085423
 20
553.5223366348467
 30
0.0
  0
ARC
  5
9A
330
76
100
AcDbEntity
  8
$DDT_AUDIT_GENERATED_(78)
  6
Continuous
 62
     7
100
AcDbCircle
 10
101.0067415035
 20
564.5587173392
 30
0.0
 40
18.38578384301921
100
AcDbArc
 50
223.5293084229
 51
228.1387194376
  0
ELLIPSE
  5
9C
330
76
100
AcDbEntity
  8
02636038_GEHÄUSE
  6
Continuous
 62
     7
100
AcDbEllipse
 10
100.5392428331
 20
545.2136696434
 30
0.0
 11
-10.05000000000001
 21
0.0
 31
0.0
210
0.0
220
0.0
230
1.0
 40
0.3420201433
 41
2.945129793824133
 42
6.283185307179586
  0
ELLIPSE
  5
9D
330
76
100
AcDbEntity
  8
02636038_GEHÄUSE
  6
Continuous
 62
     7
100
AcDbEllipse
 10
100.5392428331
 20
545.2136696434
 30
0.0
 11
-10.05000000000001
 21
0.0
 31
0.0
210
0.0
220
0.0
230
1.0
 40
0.3420201433
 41
0.0
 42
0.1964628597658409
  0
ELLIPSE
  5
9E
330
76
100
AcDbEntity
  8
02636038_GEHÄUSE
  6
Continuous
 62
     7
100
AcDbEllipse
 10
100.5392428331
 20
545.2136696434
 30
0.0
 11
-10.75000000000001
 21
1.387778780781446E-14
 31
0.0
210
0.0
220
0.0
230
1.0
 40
0.3420201433
 41
2.569043801526387
 42
6.283185307179586
  0
ELLIPSE
  5
9F
330
76
100
AcDbEntity
  8
02636038_GEHÄUSE
  6
Continuous
 62
     7
100
AcDbEllipse
 10
100.5392428331
 20
545.2136696434
 30
0.0
 11
-10.75000000000001
 21
1.387778780781446E-14
 31
0.0
210
0.0
220
0.0
230
1.0
 40
0.3420201433
 41
-4.095843813003929
 42
-4.06332692173172
  0
ELLIPSE
  5
A0
330
76
100
AcDbEntity
  8
02636038_GEHÄUSE
  6
Continuous
 62
     7
100
AcDbEllipse
 10
100.5392428331
 20
545.2136696434
 30
0.0
 11
-10.75000000000001
 21
1.387778780781446E-14
 31
0.0
210
0.0
220
0.0
230
1.0
 40
0.3420201433
 41
1.47837692780481
 42
1.663954267829565
  0
ELLIPSE
  5
A1
330
76
100
AcDbEntity
  8
02636038_GEHÄUSE
  6
Continuous
 62
     7
100
AcDbEllipse
 10
100.5392428331
 20
545.2136696434
 30
0.0
 11
-10.75000000000001
 21
1.387778780781446E-14
 31
0.0
210
0.0
220
0.0
230
1.0
 40
0.3420201433
 41
0.9217342681419373
 42
0.9553894965242269
  0
ELLIPSE
  5
A2
330
76
100
AcDbEntity
  8
02636038_GEHÄUSE
  6
Continuous
 62
     7
100
AcDbEllipse
 10
100.5392428331
 20
545.2136696434
 30
0.0
 11
-10.75000000000001
 21
1.387778780781446E-14
 31
0.0
210
0.0
220
0.0
230
1.0
 40
0.3420201433
 41
0.0000000000000038
 42
0.5725488520634193
  0
ELLIPSE
  5
A3
330
76
100
AcDbEntity
  8
02636038_GEHÄUSE
  6
Continuous
 62
     7
100
AcDbEllipse
 10
100.5392428331
 20
545.5120621265
 30
0.0
 11
11.30000000000001
 21
0.0
 31
0.0
210
0.0
220
0.0
230
1.0
 40
0.3420201433
 41
-0.6480926369582303
 42
-0.6125073104169312
  0
ELLIPSE
  5
A4
330
76
100
AcDbEntity
  8
02636038_GEHÄUSE
  6
Continuous
 62
     7
100
AcDbEllipse
 10
100.5392428331
 20
545.5120621265
 30
0.0
 11
11.30000000000001
 21
0.0
 31
0.0
210
0.0
220
0.0
230
1.0
 40
0.3420201433
 41
3.760484447486584
 42
3.789685290548034
  0
LINE
  5
A5
330
76
100
AcDbEntity
  8
02636038_GEHÄUSE
  6
Continuous
 62
     7
100
AcDbLine
 10
111.5392428331
 20
544.6274258522
 30
0.0
 11
111.5392428331
 21
546.3966984008
 31
0.0
  0
ELLIPSE
  5
A6
330
76
100
AcDbEntity
  8
02636038_GEHÄUSE
  6
Continuous
 62
     7
100
AcDbEllipse
 10
100.5392428331
 20
548.0327475057
 30
0.0
 11
-11.80000000000007
 21
5.551115123125783E-14
 31
0.0
210
0.0
220
0.0
230
1.0
 40
0.3420201433
 41
2.771250021498074
 42
3.511935285681509
  0
LINE
  5
A7
330
76
100
AcDbEntity
  8
02636038_GEHÄUSE
  6
Continuous
 62
     7
100
AcDbLine
 10
111.5392428331
 20
544.6274258522
 30
0.0
 11
111.5392428331
 21
544.4994653894
 31
0.0
  0
LINE
  5
A8
330
76
100
AcDbEntity
  8
02636038_GEHÄUSE
  6
Continuous
 62
     7
100
AcDbLine
 10
111.5392428331
 20
546.3966984008
 30
0.0
 11
111.5392428331
 21
547.7865701415
 31
0.0
  0
LINE
  5
A9
330
76
100
AcDbEntity
  8
02636038_GEHÄUSE
  6
Continuous
 62
     7
100
AcDbLine
 10
111.5392428331
 20
547.7865701415
 30
0.0
 11
111.5392428331
 21
549.4934578393
 31
0.0
  0
LINE
  5
AA
330
76
100
AcDbEntity
  8
02636038_GEHÄUSE
  6
Continuous
 62
     7
100
AcDbLine
 10
89.5392428331
 20
546.3966984008
 30
0.0
 11
89.5392428331
 21
544.6274258522
 31
0.0
  0
ELLIPSE
  5
AB
330
76
100
AcDbEntity
  8
02636038_GEHÄUSE
  6
Continuous
 62
     7
100
AcDbEllipse
 10
100.5392428331
 20
548.0327475057
 30
0.0
 11
11.80000000000026
 21
0.0
 31
0.0
210
0.0
220
0.0
230
1.0
 40
0.3420201433
 41
2.771250021498079
 42
3.511935285681508
  0
LINE
  5
AC
330
76
100
AcDbEntity
  8
02636038_GEHÄUSE
  6
Continuous
 62
     7
100
AcDbLine
 10
89.5392428331
 20
549.4934578393
 30
0.0
 11
89.5392428331
 21
547.7865701415
 31
0.0
  0
LINE
  5
AD
330
76
100
AcDbEntity
  8
02636038_GEHÄUSE
  6
Continuous
 62
     7
100
AcDbLine
 10
89.5392428331
 20
547.7865701415
 30
0.0
 11
89.5392428331
 21
546.3966984008
 31
0.0
  0
LINE
  5
AE
330
76
100
AcDbEntity
  8
02636038_GEHÄUSE
  6
Continuous
 62
     7
100
AcDbLine
 10
89.5392428331
 20
544.4994544125
 30
0.0
 11
89.5392428331
 21
544.6274258522
 31
0.0
  0
ARC
  5
AF
330
76
100
AcDbEntity
  8
02636038_GEHÄUSE
  6
Continuous
 62
     7
100
AcDbCircle
 10
107.5094921459
 20
548.4679989287
 30
0.0
 40
5.651734758201684
100
AcDbArc
 50
294.011156153
 51
315.5031182834
  0
ARC
  5
B0
330
76
100
AcDbEntity
  8
02636038_GEHÄUSE
  6
Continuous
 62
     7
100
AcDbCircle
 10
93.6689920411
 20
548.6213777135
 30
0.0
 40
5.8341504951792
100
AcDbArc
 50
224.8895059501
 51
246.1948148716
  0
LINE
  5
B1
330
76
100
AcDbEntity
  8
02636038_GEHÄUSE
  6
Continuous
 62
     7
100
AcDbLine
 10
88.7392428331
 20
553.0648567839
 30
0.0
 11
88.7392428331
 21
548.0327475057
 31
0.0
  0
LINE
  5
B2
330
76
100
AcDbEntity
  8
02636038_GEHÄUSE
  6
Continuous
 62
     7
100
AcDbLine
 10
112.3392428331
 20
548.0327475057
 30
0.0
 11
112.3392428331
 21
553.0653505145
 31
0.0
  0
ELLIPSE
  5
B4
330
76
100
AcDbEntity
  8
$DDT_AUDIT_GENERATED_(B3)
  6
Continuous
 62
     7
100
AcDbEllipse
 10
100.5392428331
 20
545.1197003813
 30
0.0
 11
10.0
 21
4.163336342344337E-14
 31
0.0
210
0.0
220
0.0
230
1.0
 40
0.3420201433
 41
6.07146887801735
 42
6.283185307179586
  0
ELLIPSE
  5
B5
330
76
100
AcDbEntity
  8
$DDT_AUDIT_GENERATED_(B3)
  6
Continuous
 62
     7
100
AcDbEllipse
 10
100.5392428331
 20
545.1197003813
 30
0.0
 11
10.0
 21
4.163336342344337E-14
 31
0.0
210
0.0
220
0.0
230
1.0
 40
0.3420201433
 41
0.0
 42
3.353309082752027
  0
ELLIPSE
  5
B6
330
76
100
AcDbEntity
  8
$DDT_AUDIT_GENERATED_(B3)
  6
Continuous
 62
     7
100
AcDbEllipse
 10
100.5392428326
 20
545.0727157503
 30
0.0
 11
-9.971132486056929
 21
-9.339751194659129E-12
 31
0.0
210
0.0
220
0.0
230
1.0
 40
0.3420201433
 41
6.182726912373697
 42
6.283185307179586
  0
LINE
  5
B7
330
76
100
AcDbEntity
  8
$DDT_AUDIT_GENERATED_(B3)
  6
Continuous
 62
     7
100
AcDbLine
 10
90.6183818289
 20
545.4147358936
 30
0.0
 11
92.0412536666
 21
543.1124889726
 31
0.0
  0
ELLIPSE
  5
B8
330
76
100
AcDbEntity
  8
$DDT_AUDIT_GENERATED_(B3)
  6
Continuous
 62
     7
100
AcDbEllipse
 10
100.5392428331
 20
542.7704688293
 30
0.0
 11
-8.556624327026011
 21
0.0
 31
0.0
210
0.0
220
0.0
230
1.0
 40
0.3420201433
 41
5.614923346407997
 42
6.166049104553738
  0
LINE
  5
B9
330
76
100
AcDbEntity
  8
$DDT_AUDIT_GENERATED_(B3)
  6
Continuous
 62
     7
100
AcDbLine
 10
93.8231502859
 20
544.5838182396
 30
0.0
 11
92.8170279607
 21
547.2301792624
 31
0.0
  0
ELLIPSE
  5
BA
330
76
100
AcDbEntity
  8
$DDT_AUDIT_GENERATED_(B3)
  6
Continuous
 62
     7
100
AcDbEllipse
 10
100.5392428331
 20
545.0727157502
 30
0.0
 11
-9.9711324865763
 21
9.575673587391975E-12
 31
0.0
210
0.0
220
0.0
230
1.0
 40
0.3420201433
 41
-0.885856558198812
 42
-0.6849397685930372
  0
LINE
  5
BB
330
76
100
AcDbEntity
  8
$DDT_AUDIT_GENERATED_(B3)
  6
Continuous
 62
     7
100
AcDbLine
 10
94.231241523
 20
547.7138687877
 30
0.0
 11
95.2373638482
 21
545.0675077649
 31
0.0
  0
ELLIPSE
  5
BC
330
76
100
AcDbEntity
  8
$DDT_AUDIT_GENERATED_(B3)
  6
Continuous
 62
     7
100
AcDbEllipse
 10
100.5392428331
 20
542.7704688293
 30
0.0
 11
-8.556624327026009
 21
-2.775557561562891E-14
 31
0.0
210
0.0
220
0.0
230
1.0
 40
0.3420201433
 41
4.829525183010546
 42
5.380650941156289
  0
LINE
  5
BD
330
76
100
AcDbEntity
  8
$DDT_AUDIT_GENERATED_(B3)
  6
Continuous
 62
     7
100
AcDbLine
 10
99.5392428331
 20
545.676952302
 30
0.0
 11
99.5392428331
 21
548.4658500528
 31
0.0
  0
ELLIPSE
  5
BE
330
76
100
AcDbEntity
  8
$DDT_AUDIT_GENERATED_(B3)
  6
Continuous
 62
     7
100
AcDbEllipse
 10
100.5392428331
 20
545.0727157502
 30
0.0
 11
-9.971132486553193
 21
-4.163336342344337E-14
 31
0.0
210
0.0
220
0.0
230
1.0
 40
0.3420201433
 41
4.6119305855817
 42
4.812847375187689
  0
LINE
  5
BF
330
76
100
AcDbEntity
  8
$DDT_AUDIT_GENERATED_(B3)
  6
Continuous
 62
     7
100
AcDbLine
 10
101.5392428331
 20
548.4658500528
 30
0.0
 11
101.5392428331
 21
545.676952302
 31
0.0
  0
ELLIPSE
  5
C0
330
76
100
AcDbEntity
  8
$DDT_AUDIT_GENERATED_(B3)
  6
Continuous
 62
     7
100
AcDbEllipse
 10
100.5392428331
 20
542.7704688293
 30
0.0
 11
8.556624327025437
 21
-1.387778780781446E-13
 31
0.0
210
0.0
220
0.0
230
1.0
 40
0.3420201433
 41
0.9025343660233077
 42
1.453660124169082
  0
LINE
  5
C1
330
76
100
AcDbEntity
  8
$DDT_AUDIT_GENERATED_(B3)
  6
Continuous
 62
     7
100
AcDbLine
 10
105.841121818
 20
545.0675077649
 30
0.0
 11
106.8472441432
 21
547.7138687877
 31
0.0
  0
ELLIPSE
  5
C2
330
76
100
AcDbEntity
  8
$DDT_AUDIT_GENERATED_(B3)
  6
Continuous
 62
     7
100
AcDbEllipse
 10
100.5392428331
 20
545.0727157502
 30
0.0
 11
9.971132486543908
 21
6.245004513516506E-13
 31
0.0
210
0.0
220
0.0
230
1.0
 40
0.3420201433
 41
0.6849397685942312
 42
0.8858565582004289
  0
LINE
  5
C3
330
76
100
AcDbEntity
  8
$DDT_AUDIT_GENERATED_(B3)
  6
Continuous
 62
     7
100
AcDbLine
 10
108.2614577056
 20
547.2301792624
 30
0.0
 11
107.2553353804
 21
544.5838182396
 31
0.0
  0
ELLIPSE
  5
C4
330
76
100
AcDbEntity
  8
$DDT_AUDIT_GENERATED_(B3)
  6
Continuous
 62
     7
100
AcDbEllipse
 10
100.5392428331
 20
542.7704688293
 30
0.0
 11
8.556624327026201
 21
1.387778780781446E-13
 31
0.0
210
0.0
220
0.0
230
1.0
 40
0.3420201433
 41
0.1171362026258315
 42
0.6682619607715773
  0
LINE
  5
C5
330
76
100
AcDbEntity
  8
$DDT_AUDIT_GENERATED_(B3)
  6
Continuous
 62
     7
100
AcDbLine
 10
109.0372319996
 20
543.1124889726
 30
0.0
 11
110.4601038373
 21
545.4147358936
 31
0.0
  0
ELLIPSE
  5
C6
330
76
100
AcDbEntity
  8
$DDT_AUDIT_GENERATED_(B3)
  6
Continuous
 62
     7
100
AcDbEllipse
 10
100.5392428331
 20
545.0727157502
 30
0.0
 11
-9.971132486540101
 21
0.0
 31
0.0
210
0.0
220
0.0
230
1.0
 40
0.3420201433
 41
3.041134258786673
 42
3.242051048392927
  0
LINE
  5
C7
330
76
100
AcDbEntity
  8
$DDT_AUDIT_GENERATED_(B3)
  6
Continuous
 62
     7
100
AcDbLine
 10
110.4601038373
 20
544.7306956069
 30
0.0
 11
109.0372319996
 21
542.428448686
 31
0.0
  0
ELLIPSE
  5
C8
330
76
100
AcDbEntity
  8
$DDT_AUDIT_GENERATED_(B3)
  6
Continuous
 62
     7
100
AcDbEllipse
 10
100.5392428331
 20
542.7704688293
 30
0.0
 11
8.556624327025895
 21
1.387778780781446E-13
 31
0.0
210
0.0
220
0.0
230
1.0
 40
0.3420201433
 41
5.614923346407982
 42
6.16604910455372
  0
ELLIPSE
  5
C9
330
76
100
AcDbEntity
  8
$DDT_AUDIT_GENERATED_(B3)
  6
Continuous
 62
     7
100
AcDbEllipse
 10
100.5392428331
 20
545.0727157503
 30
0.0
 11
9.971132486599151
 21
-1.551536676913656E-11
 31
0.0
210
0.0
220
0.0
230
1.0
 40
0.3420201433
 41
-0.885856558197661
 42
-0.8610339067217945
  0
LINE
  5
CA
330
76
100
AcDbEntity
  8
$DDT_AUDIT_GENERATED_(B3)
  6
Continuous
 62
     7
100
AcDbLine
 10
106.8472441432
 20
542.4315627128
 30
0.0
 11
105.841121818
 21
540.4734298937
 31
0.0
  0
ELLIPSE
  5
CB
330
76
100
AcDbEntity
  8
$DDT_AUDIT_GENERATED_(B3)
  6
Continuous
 62
     7
100
AcDbEllipse
 10
100.5392428331
 20
542.7704688293
 30
0.0
 11
8.556624327026244
 21
-2.775557561562891E-14
 31
0.0
210
0.0
220
0.0
230
1.0
 40
0.3420201433
 41
4.829525183010558
 42
5.380650941156289
  0
ELLIPSE
  5
CC
330
76
100
AcDbEntity
  8
$DDT_AUDIT_GENERATED_(B3)
  6
Continuous
 62
     7
100
AcDbEllipse
 10
100.5392428331
 20
545.0727157503
 30
0.0
 11
9.971132486554612
 21
-1.387778780781446E-13
 31
0.0
210
0.0
220
0.0
230
1.0
 40
0.3420201433
 41
4.611930585581718
 42
4.812847375187688
  0
ELLIPSE
  5
CD
330
76
100
AcDbEntity
  8
$DDT_AUDIT_GENERATED_(B3)
  6
Continuous
 62
     7
100
AcDbEllipse
 10
100.5392428331
 20
542.7704688293
 30
0.0
 11
-8.556624327025594
 21
9.714451465470120E-14
 31
0.0
210
0.0
220
0.0
230
1.0
 40
0.3420201433
 41
0.9025343660233014
 42
1.453660124169074
  0
LINE
  5
CE
330
76
100
AcDbEntity
  8
$DDT_AUDIT_GENERATED_(B3)
  6
Continuous
 62
     7
100
AcDbLine
 10
95.2373638482
 20
540.4734298937
 30
0.0
 11
94.231241523
 21
542.4315627128
 31
0.0
  0
ELLIPSE
  5
CF
330
76
100
AcDbEntity
  8
$DDT_AUDIT_GENERATED_(B3)
  6
Continuous
 62
     7
100
AcDbEllipse
 10
100.5392428331
 20
545.0727157502
 30
0.0
 11
-9.971132486499446
 21
1.086630785351872E-11
 31
0.0
210
0.0
220
0.0
230
1.0
 40
0.3420201433
 41
0.8610339067265679
 42
0.8858565582026093
  0
ELLIPSE
  5
D0
330
76
100
AcDbEntity
  8
$DDT_AUDIT_GENERATED_(B3)
  6
Continuous
 62
     7
100
AcDbEllipse
 10
100.5392428331
 20
542.7704688293
 30
0.0
 11
-8.556624327026396
 21
-6.938893903907228E-14
 31
0.0
210
0.0
220
0.0
230
1.0
 40
0.3420201433
 41
0.1171362026258419
 42
0.6682619607715848
  0
LINE
  5
D1
330
76
100
AcDbEntity
  8
$DDT_AUDIT_GENERATED_(B3)
  6
Continuous
 62
     7
100
AcDbLine
 10
92.0412536666
 20
542.428448686
 30
0.0
 11
90.6183818289
 21
544.7306956069
 31
0.0
  0
ELLIPSE
  5
D2
330
76
100
AcDbEntity
  8
$DDT_AUDIT_GENERATED_(B3)
  6
Continuous
 62
     7
100
AcDbEllipse
 10
100.5392428333
 20
545.0727157502
 30
0.0
 11
9.971132486694875
 21
3.108624468950438E-12
 31
0.0
210
0.0
220
0.0
230
1.0
 40
0.3420201433
 41
3.141592653589793
 42
3.242051048392015
  0
LINE
  5
D3
330
76
100
AcDbEntity
  8
$DDT_AUDIT_GENERATED_(B3)
  6
Continuous
 62
     7
100
AcDbLine
 10
107.0369670253
 20
541.0318057951
 30
0.0
 11
107.2553353804
 21
540.957119419
 31
0.0
  0
LINE
  5
D4
330
76
100
AcDbEntity
  8
$DDT_AUDIT_GENERATED_(B3)
  6
Continuous
 62
     7
100
AcDbLine
 10
109.0372319996
 20
542.428448686
 30
0.0
 11
108.7284125102
 21
542.428448686
 31
0.0
  0
ELLIPSE
  5
D5
330
76
100
AcDbEntity
  8
$DDT_AUDIT_GENERATED_(B3)
  6
Continuous
 62
     7
100
AcDbEllipse
 10
100.5392428331
 20
542.7704688293
 30
0.0
 11
8.249999999999151
 21
2.081668171172169E-13
 31
0.0
210
0.0
220
0.0
230
1.0
 40
0.3420201433
 41
5.619298060471769
 42
6.161674390489877
  0
LINE
  5
D6
330
76
100
AcDbEntity
  8
$DDT_AUDIT_GENERATED_(B3)
  6
Continuous
 62
     7
100
AcDbLine
 10
105.841121818
 20
540.4734298937
 30
0.0
 11
105.6227534629
 21
540.5481162698
 31
0.0
  0
ELLIPSE
  5
D7
330
76
100
AcDbEntity
  8
$DDT_AUDIT_GENERATED_(B3)
  6
Continuous
 62
     7
100
AcDbEllipse
 10
100.5392428331
 20
542.7704688293
 30
0.0
 11
8.249999999999631
 21
9.714451465470120E-14
 31
0.0
210
0.0
220
0.0
230
1.0
 40
0.3420201433
 41
4.833899897074341
 42
5.376276227092455
  0
LINE
  5
D8
330
76
100
AcDbEntity
  8
$DDT_AUDIT_GENERATED_(B3)
  6
Continuous
 62
     7
100
AcDbLine
 10
101.5392428331
 20
539.9696078426
 30
0.0
 11
101.5392428331
 21
539.8639853566
 31
0.0
  0
LINE
  5
D9
330
76
100
AcDbEntity
  8
$DDT_AUDIT_GENERATED_(B3)
  6
Continuous
 62
     7
100
AcDbLine
 10
108.7284125102
 20
543.1124889726
 30
0.0
 11
109.0372319996
 21
543.1124889726
 31
0.0
  0
LINE
  5
DA
330
76
100
AcDbEntity
  8
$DDT_AUDIT_GENERATED_(B3)
  6
Continuous
 62
     7
100
AcDbLine
 10
107.2553353804
 20
544.5838182396
 30
0.0
 11
107.0369670253
 21
544.5091318635
 31
0.0
  0
ELLIPSE
  5
DB
330
76
100
AcDbEntity
  8
$DDT_AUDIT_GENERATED_(B3)
  6
Continuous
 62
     7
100
AcDbEllipse
 10
100.5392428331
 20
542.7704688293
 30
0.0
 11
8.25000000000038
 21
9.714451465470120E-14
 31
0.0
210
0.0
220
0.0
230
1.0
 40
0.3420201433
 41
0.1215109166896511
 42
0.6638872467077519
  0
LINE
  5
DC
330
76
100
AcDbEntity
  8
$DDT_AUDIT_GENERATED_(B3)
  6
Continuous
 62
     7
100
AcDbLine
 10
105.6227534629
 20
544.9928213888
 30
0.0
 11
105.841121818
 21
545.0675077649
 31
0.0
  0
LINE
  5
DD
330
76
100
AcDbEntity
  8
$DDT_AUDIT_GENERATED_(B3)
  6
Continuous
 62
     7
100
AcDbLine
 10
101.5392428331
 20
545.676952302
 30
0.0
 11
101.5392428331
 21
545.571329816
 31
0.0
  0
ELLIPSE
  5
DE
330
76
100
AcDbEntity
  8
$DDT_AUDIT_GENERATED_(B3)
  6
Continuous
 62
     7
100
AcDbEllipse
 10
100.5392428331
 20
542.7704688293
 30
0.0
 11
8.25000000000065
 21
2.220446049250313E-13
 31
0.0
210
0.0
220
0.0
230
1.0
 40
0.3420201433
 41
0.9069090800871169
 42
1.449285410105163
  0
LINE
  5
DF
330
76
100
AcDbEntity
  8
$DDT_AUDIT_GENERATED_(B3)
  6
Continuous
 62
     7
100
AcDbLine
 10
99.5392428331
 20
545.571329816
 30
0.0
 11
99.5392428331
 21
545.676952302
 31
0.0
  0
LINE
  5
E0
330
76
100
AcDbEntity
  8
$DDT_AUDIT_GENERATED_(B3)
  6
Continuous
 62
     7
100
AcDbLine
 10
95.2373638482
 20
545.0675077649
 30
0.0
 11
95.4557322034
 21
544.9928213888
 31
0.0
  0
ELLIPSE
  5
E1
330
76
100
AcDbEntity
  8
$DDT_AUDIT_GENERATED_(B3)
  6
Continuous
 62
     7
100
AcDbEllipse
 10
100.5392428331
 20
542.7704688293
 30
0.0
 11
-8.249999999999535
 21
-1.249000902703301E-13
 31
0.0
210
0.0
220
0.0
230
1.0
 40
0.3420201433
 41
4.833899897074332
 42
5.376276227092445
  0
LINE
  5
E2
330
76
100
AcDbEntity
  8
$DDT_AUDIT_GENERATED_(B3)
  6
Continuous
 62
     7
100
AcDbLine
 10
94.041518641
 20
544.5091318635
 30
0.0
 11
93.8231502859
 21
544.5838182396
 31
0.0
  0
LINE
  5
E3
330
76
100
AcDbEntity
  8
$DDT_AUDIT_GENERATED_(B3)
  6
Continuous
 62
     7
100
AcDbLine
 10
92.0412536666
 20
543.1124889726
 30
0.0
 11
92.350073156
 21
543.1124889726
 31
0.0
  0
ELLIPSE
  5
E4
330
76
100
AcDbEntity
  8
$DDT_AUDIT_GENERATED_(B3)
  6
Continuous
 62
     7
100
AcDbEllipse
 10
100.5392428331
 20
542.7704688293
 30
0.0
 11
-8.249999999999158
 21
-1.942890293094024E-13
 31
0.0
210
0.0
220
0.0
230
1.0
 40
0.3420201433
 41
5.619298060471788
 42
6.161674390489901
  0
LINE
  5
E5
330
76
100
AcDbEntity
  8
$DDT_AUDIT_GENERATED_(B3)
  6
Continuous
 62
     7
100
AcDbLine
 10
92.350073156
 20
542.428448686
 30
0.0
 11
92.0412536666
 21
542.428448686
 31
0.0
  0
LINE
  5
E6
330
76
100
AcDbEntity
  8
$DDT_AUDIT_GENERATED_(B3)
  6
Continuous
 62
     7
100
AcDbLine
 10
93.8231502859
 20
540.957119419
 30
0.0
 11
94.041518641
 21
541.0318057951
 31
0.0
  0
ELLIPSE
  5
E7
330
76
100
AcDbEntity
  8
$DDT_AUDIT_GENERATED_(B3)
  6
Continuous
 62
     7
100
AcDbEllipse
 10
100.5392428331
 20
542.7704688293
 30
0.0
 11
-8.25000000000038
 21
-9.714451465470120E-14
 31
0.0
210
0.0
220
0.0
230
1.0
 40
0.3420201433
 41
0.1215109166896657
 42
0.663887246707749
  0
LINE
  5
E8
330
76
100
AcDbEntity
  8
$DDT_AUDIT_GENERATED_(B3)
  6
Continuous
 62
     7
100
AcDbLine
 10
95.4557322034
 20
540.5481162698
 30
0.0
 11
95.2373638482
 21
540.4734298937
 31
0.0
  0
LINE
  5
E9
330
76
100
AcDbEntity
  8
$DDT_AUDIT_GENERATED_(B3)
  6
Continuous
 62
     7
100
AcDbLine
 10
99.5392428331
 20
539.8639853566
 30
0.0
 11
99.5392428331
 21
539.9696078426
 31
0.0
  0
ELLIPSE
  5
EA
330
76
100
AcDbEntity
  8
$DDT_AUDIT_GENERATED_(B3)
  6
Continuous
 62
     7
100
AcDbEllipse
 10
100.5392428331
 20
542.7704688293
 30
0.0
 11
-8.250000000000433
 21
-1.665334536937735E-13
 31
0.0
210
0.0
220
0.0
230
1.0
 40
0.3420201433
 41
0.9069090800871138
 42
1.449285410105183
  0
ELLIPSE
  5
EB
330
76
100
AcDbEntity
  8
$DDT_AUDIT_GENERATED_(B3)
  6
Continuous
 62
     7
100
AcDbEllipse
 10
100.5392428331
 20
545.1197003813
 30
0.0
 11
8.250000000000005
 21
2.775557561562891E-14
 31
0.0
210
0.0
220
0.0
230
1.0
 40
0.3420201433
 41
5.022278210681271
 42
5.853830280073289
  0
ELLIPSE
  5
EC
330
76
100
AcDbEntity
  8
$DDT_AUDIT_GENERATED_(B3)
  6
Continuous
 62
     7
100
AcDbEllipse
 10
100.5392428331
 20
545.1197003813
 30
0.0
 11
8.250000000000005
 21
2.775557561562891E-14
 31
0.0
210
0.0
220
0.0
230
1.0
 40
0.3420201433
 41
3.570947680696092
 42
4.40249975008811
  0
LINE
  5
ED
330
76
100
AcDbEntity
  8
$DDT_AUDIT_GENERATED_(B3)
  6
Continuous
 62
     7
100
AcDbLine
 10
92.350073156
 20
543.1124889726
 30
0.0
 11
92.350073156
 21
542.428448686
 31
0.0
  0
LINE
  5
EE
330
76
100
AcDbEntity
  8
$DDT_AUDIT_GENERATED_(B3)
  6
Continuous
 62
     7
100
AcDbLine
 10
94.041518641
 20
541.0318057951
 30
0.0
 11
94.041518641
 21
543.3340527161
 31
0.0
  0
ELLIPSE
  5
EF
330
76
100
AcDbEntity
  8
$DDT_AUDIT_GENERATED_(B3)
  6
Continuous
 62
     7
100
AcDbEllipse
 10
100.5392428331
 20
545.0727157502
 30
0.0
 11
-8.249999999989273
 21
2.775557561562891E-12
 31
0.0
210
0.0
220
0.0
230
1.0
 40
0.3420201433
 41
0.6638872467082216
 42
0.9069090800877959
  0
LINE
  5
F0
330
76
100
AcDbEntity
  8
$DDT_AUDIT_GENERATED_(B3)
  6
Continuous
 62
     7
100
AcDbLine
 10
95.4557322034
 20
542.8503631908
 30
0.0
 11
95.4557322034
 21
540.5481162698
 31
0.0
  0
LINE
  5
F1
330
76
100
AcDbEntity
  8
$DDT_AUDIT_GENERATED_(B3)
  6
Continuous
 62
     7
100
AcDbLine
 10
99.5392428331
 20
539.9696078426
 30
0.0
 11
99.5392428331
 21
541.9115705674
 31
0.0
  0
LINE
  5
F2
330
76
100
AcDbEntity
  8
$DDT_AUDIT_GENERATED_(B3)
  6
Continuous
 62
     7
100
AcDbLine
 10
101.5392428331
 20
541.9115705674
 30
0.0
 11
101.5392428331
 21
539.9696078426
 31
0.0
  0
LINE
  5
F3
330
76
100
AcDbEntity
  8
$DDT_AUDIT_GENERATED_(B3)
  6
Continuous
 62
     7
100
AcDbLine
 10
105.6227534629
 20
540.5481162698
 30
0.0
 11
105.6227534629
 21
542.8503631908
 31
0.0
  0
ELLIPSE
  5
F4
330
76
100
AcDbEntity
  8
$DDT_AUDIT_GENERATED_(B3)
  6
Continuous
 62
     7
100
AcDbEllipse
 10
100.5392428331
 20
545.0727157502
 30
0.0
 11
8.249999999993131
 21
1.748601263784622E-12
 31
0.0
210
0.0
220
0.0
230
1.0
 40
0.3420201433
 41
-0.9069090800875523
 42
-0.6638872467080557
  0
LINE
  5
F5
330
76
100
AcDbEntity
  8
$DDT_AUDIT_GENERATED_(B3)
  6
Continuous
 62
     7
100
AcDbLine
 10
107.0369670253
 20
543.3340527161
 30
0.0
 11
107.0369670253
 21
541.0318057951
 31
0.0
  0
LINE
  5
F6
330
76
100
AcDbEntity
  8
$DDT_AUDIT_GENERATED_(B3)
  6
Continuous
 62
     7
100
AcDbLine
 10
108.7284125102
 20
542.428448686
 30
0.0
 11
108.7284125102
 21
543.1124889726
 31
0.0
  0
LINE
  5
F7
330
76
100
AcDbEntity
  8
$DDT_AUDIT_GENERATED_(B3)
  6
Continuous
 62
     7
100
AcDbLine
 10
107.0369670253
 20
544.5091318635
 30
0.0
 11
107.0369670253
 21
546.8113787844
 31
0.0
  0
ELLIPSE
  5
F8
330
76
100
AcDbEntity
  8
$DDT_AUDIT_GENERATED_(B3)
  6
Continuous
 62
     7
100
AcDbEllipse
 10
100.5392428331
 20
545.0727157502
 30
0.0
 11
8.249999999983764
 21
-3.760880495917718E-12
 31
0.0
210
0.0
220
0.0
230
1.0
 40
0.3420201433
 41
0.6638872467084181
 42
0.7442929875391073
  0
ELLIPSE
  5
F9
330
76
100
AcDbEntity
  8
$DDT_AUDIT_GENERATED_(B3)
  6
Continuous
 62
     7
100
AcDbEllipse
 10
100.5392428331
 20
545.0727157502
 30
0.0
 11
8.250000000021327
 21
9.714451465470118E-14
 31
0.0
210
0.0
220
0.0
230
1.0
 40
0.3420201433
 41
1.449285410105517
 42
1.692307243484251
  0
ELLIPSE
  5
FA
330
76
100
AcDbEntity
  8
$DDT_AUDIT_GENERATED_(B3)
  6
Continuous
 62
     7
100
AcDbEllipse
 10
100.5392428331
 20
545.0727157502
 30
0.0
 11
-8.250000000001808
 21
5.134781488891349E-13
 31
0.0
210
0.0
220
0.0
230
1.0
 40
0.3420201433
 41
-0.7498066400190151
 42
-0.663887246707688
  0
LINE
  5
FB
330
76
100
AcDbEntity
  8
$DDT_AUDIT_GENERATED_(B3)
  6
Continuous
 62
     7
100
AcDbLine
 10
94.041518641
 20
546.8113787844
 30
0.0
 11
94.041518641
 21
544.5091318635
 31
0.0
  0
ELLIPSE
  5
FC
330
76
100
AcDbEntity
  8
$DDT_AUDIT_GENERATED_(B3)
  6
Continuous
 62
     7
100
AcDbEllipse
 10
100.5392428331
 20
545.1197003813
 30
0.0
 11
6.999999999996724
 21
-3.747002708109903E-13
 31
0.0
210
0.0
220
0.0
230
1.0
 40
0.3420201433
 41
1.426871887923143
 42
1.513622325714407
  0
LINE
  5
FD
330
76
100
AcDbEntity
  8
$DDT_AUDIT_GENERATED_(B3)
  6
Continuous
 62
     7
100
AcDbLine
 10
101.5392428331
 20
546.3029067319
 30
0.0
 11
101.2108783357
 21
546.0317729916
 31
0.0
  0
ELLIPSE
  5
FE
330
76
100
AcDbEntity
  8
$DDT_AUDIT_GENERATED_(B3)
  6
Continuous
 62
     7
100
AcDbEllipse
 10
100.5392428331
 20
545.1197003813
 30
0.0
 11
2.750000000049019
 21
6.550315845288424E-12
 31
0.0
210
0.0
220
0.0
230
1.0
 40
0.3420201433
 41
1.324069633637017
 42
1.424823938245623
  0
LINE
  5
FF
330
76
100
AcDbEntity
  8
$DDT_AUDIT_GENERATED_(B3)
  6
Continuous
 62
     7
100
AcDbLine
 10
100.9392428331
 20
546.050252908
 30
0.0
 11
100.9392428331
 21
547.5099293868
 31
0.0
  0
LINE
  5
100
330
76
100
AcDbEntity
  8
$DDT_AUDIT_GENERATED_(B3)
  6
Continuous
 62
     7
100
AcDbLine
 10
94.041518641
 20
545.8921489776
 30
0.0
 11
94.9740713829
 21
545.760034807
 31
0.0
  0
LINE
  5
101
330
76
100
AcDbEntity
  8
$DDT_AUDIT_GENERATED_(B3)
  6
Continuous
 62
     7
100
AcDbLine
 10
97.5307534752
 20
545.3978312351
 30
0.0
 11
97.8725209219
 21
545.3494132521
 31
0.0
  0
ELLIPSE
  5
102
330
76
100
AcDbEntity
  8
$DDT_AUDIT_GENERATED_(B3)
  6
Continuous
 62
     7
100
AcDbEllipse
 10
100.539242833
 20
545.1197003813
 30
0.0
 11
-2.749999999934282
 21
-1.415534356397074E-12
 31
0.0
210
0.0
220
0.0
230
1.0
 40
0.3420201433
 41
-0.2467266931576031
 42
-0.1459723885460402
  0
LINE
  5
103
330
76
100
AcDbEntity
  8
$DDT_AUDIT_GENERATED_(B3)
  6
Continuous
 62
     7
100
AcDbLine
 10
97.818489261
 20
545.2565084386
 30
0.0
 11
96.6368597028
 21
545.2565084386
 31
0.0
  0
LINE
  5
104
330
76
100
AcDbEntity
  8
$DDT_AUDIT_GENERATED_(B3)
  6
Continuous
 62
     7
100
AcDbLine
 10
95.1655075158
 20
545.2565084386
 30
0.0
 11
94.041518641
 21
545.2565084386
 31
0.0
  0
ELLIPSE
  5
105
330
76
100
AcDbEntity
  8
$DDT_AUDIT_GENERATED_(B3)
  6
Continuous
 62
     7
100
AcDbEllipse
 10
100.5392428331
 20
545.1197003813
 30
0.0
 11
-7.000000000004037
 21
5.828670879282072E-13
 31
0.0
210
0.0
220
0.0
230
1.0
 40
0.3420201433
 41
-0.584061130659431
 42
-0.4498730827792503
  0
LINE
  5
106
330
76
100
AcDbEntity
  8
$DDT_AUDIT_GENERATED_(B3)
  6
Continuous
 62
     7
100
AcDbLine
 10
94.855064176
 20
546.0730544328
 30
0.0
 11
94.2357267351
 21
546.1607955853
 31
0.0
  0
ELLIPSE
  5
107
330
76
100
AcDbEntity
  8
$DDT_AUDIT_GENERATED_(B3)
  6
Continuous
 62
     7
100
AcDbEllipse
 10
100.5392428331
 20
545.1197003813
 30
0.0
 11
-7.000000000004817
 21
6.522560269672795E-13
 31
0.0
210
0.0
220
0.0
230
1.0
 40
0.3420201433
 41
-1.513622325713974
 42
-1.427373995866069
  0
LINE
  5
108
330
76
100
AcDbEntity
  8
$DDT_AUDIT_GENERATED_(B3)
  6
Continuous
 62
     7
100
AcDbLine
 10
100.1392428331
 20
547.5099293868
 30
0.0
 11
100.1392428331
 21
546.050252908
 31
0.0
  0
ELLIPSE
  5
109
330
76
100
AcDbEntity
  8
$DDT_AUDIT_GENERATED_(B3)
  6
Continuous
 62
     7
100
AcDbEllipse
 10
100.5392428332
 20
545.1197003812
 30
0.0
 11
-2.750000000193826
 21
2.815803146205553E-11
 31
0.0
210
0.0
220
0.0
230
1.0
 40
0.3420201433
 41
-1.424823938230871
 42
-1.324069633627405
  0
LINE
  5
10A
330
76
100
AcDbEntity
  8
$DDT_AUDIT_GENERATED_(B3)
  6
Continuous
 62
     7
100
AcDbLine
 10
99.8676073305
 20
546.0317729916
 30
0.0
 11
99.5392428331
 21
546.3029067319
 31
0.0
  0
ELLIPSE
  5
10B
330
76
100
AcDbEntity
  8
$DDT_AUDIT_GENERATED_(B3)
  6
Continuous
 62
     7
100
AcDbEllipse
 10
100.5392428331
 20
545.1197003813
 30
0.0
 11
-6.999999999984246
 21
9.853229343548264E-13
 31
0.0
210
0.0
220
0.0
230
1.0
 40
0.3420201433
 41
0.296722154678299
 42
0.335525080618477
  0
LINE
  5
10C
330
76
100
AcDbEntity
  8
$DDT_AUDIT_GENERATED_(B3)
  6
Continuous
 62
     7
100
AcDbLine
 10
94.041518641
 20
544.982892324
 30
0.0
 11
97.818489261
 21
544.982892324
 31
0.0
  0
ELLIPSE
  5
10D
330
76
100
AcDbEntity
  8
$DDT_AUDIT_GENERATED_(B3)
  6
Continuous
 62
     7
100
AcDbEllipse
 10
100.539242833
 20
545.1197003813
 30
0.0
 11
-2.749999999930809
 21
7.771561172376096E-12
 31
0.0
210
0.0
220
0.0
230
1.0
 40
0.3420201433
 41
0.1459723885469446
 42
0.1850854062731022
  0
LINE
  5
10E
330
76
100
AcDbEntity
  8
$DDT_AUDIT_GENERATED_(B3)
  6
Continuous
 62
     7
100
AcDbLine
 10
97.8362113568
 20
544.8848435568
 30
0.0
 11
93.9295799892
 21
544.3313935053
 31
0.0
  0
ELLIPSE
  5
10F
330
76
100
AcDbEntity
  8
$DDT_AUDIT_GENERATED_(B3)
  6
Continuous
 62
     7
100
AcDbEllipse
 10
100.5392428331
 20
545.1197003813
 30
0.0
 11
-7.000000000000754
 21
-1.942890293094024E-13
 31
0.0
210
0.0
220
0.0
230
1.0
 40
0.3420201433
 41
0.4498730827793486
 42
0.7282241623167443
  0
LINE
  5
110
330
76
100
AcDbEntity
  8
$DDT_AUDIT_GENERATED_(B3)
  6
Continuous
 62
     7
100
AcDbLine
 10
94.2357267351
 20
544.0786051772
 30
0.0
 11
97.8362113568
 21
544.5886836084
 31
0.0
  0
LINE
  5
111
330
76
100
AcDbEntity
  8
$DDT_AUDIT_GENERATED_(B3)
  6
Continuous
 62
     7
100
AcDbLine
 10
97.8362113568
 20
544.3886849784
 30
0.0
 11
95.3147404804
 21
543.5262911479
 31
0.0
  0
ELLIPSE
  5
112
330
76
100
AcDbEntity
  8
$DDT_AUDIT_GENERATED_(B3)
  6
Continuous
 62
     7
100
AcDbEllipse
 10
100.5392428331
 20
545.1197003813
 30
0.0
 11
-7.000000000001006
 21
-1.110223024625157E-13
 31
0.0
210
0.0
220
0.0
230
1.0
 40
0.3420201433
 41
0.8425721644780625
 42
1.12092324401542
  0
LINE
  5
113
330
76
100
AcDbEntity
  8
$DDT_AUDIT_GENERATED_(B3)
  6
Continuous
 62
     7
100
AcDbLine
 10
95.8804259053
 20
543.3328153378
 30
0.0
 11
97.8362113568
 21
544.0017333582
 31
0.0
  0
LINE
  5
114
330
76
100
AcDbEntity
  8
$DDT_AUDIT_GENERATED_(B3)
  6
Continuous
 62
     7
100
AcDbLine
 10
97.8362113568
 20
543.2452778387
 30
0.0
 11
97.4952840946
 21
542.963770902
 31
0.0
  0
ELLIPSE
  5
115
330
76
100
AcDbEntity
  8
$DDT_AUDIT_GENERATED_(B3)
  6
Continuous
 62
     7
100
AcDbEllipse
 10
100.5392428331
 20
545.1197003813
 30
0.0
 11
6.999999999990431
 21
2.678413046908190E-12
 31
0.0
210
0.0
220
0.0
230
1.0
 40
0.3420201433
 41
-1.120923244016279
 42
-0.8425721644785895
  0
LINE
  5
116
330
76
100
AcDbEntity
  8
$DDT_AUDIT_GENERATED_(B3)
  6
Continuous
 62
     7
100
AcDbLine
 10
103.5832015717
 20
542.963770902
 30
0.0
 11
103.2422743095
 21
543.2452778387
 31
0.0
  0
LINE
  5
117
330
76
100
AcDbEntity
  8
$DDT_AUDIT_GENERATED_(B3)
  6
Continuous
 62
     7
100
AcDbLine
 10
103.2422743095
 20
544.0017333582
 30
0.0
 11
105.1980597609
 21
543.3328153378
 31
0.0
  0
ELLIPSE
  5
118
330
76
100
AcDbEntity
  8
$DDT_AUDIT_GENERATED_(B3)
  6
Continuous
 62
     7
100
AcDbEllipse
 10
100.5392428331
 20
545.1197003813
 30
0.0
 11
6.999999999993707
 21
1.207367539279858E-12
 31
0.0
210
0.0
220
0.0
230
1.0
 40
0.3420201433
 41
-0.728224162317157
 42
-0.4498730827796198
  0
LINE
  5
119
330
76
100
AcDbEntity
  8
$DDT_AUDIT_GENERATED_(B3)
  6
Continuous
 62
     7
100
AcDbLine
 10
105.7637451858
 20
543.5262911479
 30
0.0
 11
103.2422743095
 21
544.3886849784
 31
0.0
  0
LINE
  5
11A
330
76
100
AcDbEntity
  8
$DDT_AUDIT_GENERATED_(B3)
  6
Continuous
 62
     7
100
AcDbLine
 10
103.2422743095
 20
544.5886836084
 30
0.0
 11
106.8427589311
 21
544.0786051772
 31
0.0
  0
ELLIPSE
  5
11B
330
76
100
AcDbEntity
  8
$DDT_AUDIT_GENERATED_(B3)
  6
Continuous
 62
     7
100
AcDbEllipse
 10
100.5392428331
 20
545.1197003813
 30
0.0
 11
6.999999999988063
 21
7.355227538141662E-13
 31
0.0
210
0.0
220
0.0
230
1.0
 40
0.3420201433
 41
-0.3355250806183889
 42
-0.2967221546783128
  0
LINE
  5
11C
330
76
100
AcDbEntity
  8
$DDT_AUDIT_GENERATED_(B3)
  6
Continuous
 62
     7
100
AcDbLine
 10
107.148905677
 20
544.3313935053
 30
0.0
 11
103.2422743095
 21
544.8848435568
 31
0.0
  0
ELLIPSE
  5
11D
330
76
100
AcDbEntity
  8
$DDT_AUDIT_GENERATED_(B3)
  6
Continuous
 62
     7
100
AcDbEllipse
 10
100.5392428333
 20
545.1197003813
 30
0.0
 11
2.749999999855539
 21
7.369105325949477E-12
 31
0.0
210
0.0
220
0.0
230
1.0
 40
0.3420201433
 41
-0.1850854062755456
 42
-0.1459723885488726
  0
LINE
  5
11E
330
76
100
AcDbEntity
  8
$DDT_AUDIT_GENERATED_(B3)
  6
Continuous
 62
     7
100
AcDbLine
 10
103.2599964052
 20
544.982892324
 30
0.0
 11
107.0369670253
 21
544.982892324
 31
0.0
  0
LINE
  5
11F
330
76
100
AcDbEntity
  8
$DDT_AUDIT_GENERATED_(B3)
  6
Continuous
 62
     7
100
AcDbLine
 10
107.0369670253
 20
545.2565084386
 30
0.0
 11
105.9129781504
 21
545.2565084386
 31
0.0
  0
LINE
  5
120
330
76
100
AcDbEntity
  8
$DDT_AUDIT_GENERATED_(B3)
  6
Continuous
 62
     7
100
AcDbLine
 10
104.4416259635
 20
545.2565084386
 30
0.0
 11
103.2599964052
 21
545.2565084386
 31
0.0
  0
ELLIPSE
  5
121
330
76
100
AcDbEntity
  8
$DDT_AUDIT_GENERATED_(B3)
  6
Continuous
 62
     7
100
AcDbEllipse
 10
100.5392428331
 20
545.1197003813
 30
0.0
 11
2.750000000059126
 21
5.023759186428834E-12
 31
0.0
210
0.0
220
0.0
230
1.0
 40
0.3420201433
 41
0.1459723885421016
 42
0.2467266931512397
  0
LINE
  5
122
330
76
100
AcDbEntity
  8
$DDT_AUDIT_GENERATED_(B3)
  6
Continuous
 62
     7
100
AcDbLine
 10
103.2059647443
 20
545.3494132521
 30
0.0
 11
103.547732191
 21
545.3978312351
 31
0.0
  0
LINE
  5
123
330
76
100
AcDbEntity
  8
$DDT_AUDIT_GENERATED_(B3)
  6
Continuous
 62
     7
100
AcDbLine
 10
106.1044142833
 20
545.760034807
 30
0.0
 11
107.0369670253
 21
545.8921489776
 31
0.0
  0
ELLIPSE
  5
124
330
76
100
AcDbEntity
  8
$DDT_AUDIT_GENERATED_(B3)
  6
Continuous
 62
     7
100
AcDbEllipse
 10
100.5392428331
 20
545.1197003813
 30
0.0
 11
6.999999999995669
 21
-9.020562075079397E-13
 31
0.0
210
0.0
220
0.0
230
1.0
 40
0.3420201433
 41
0.4498730827795503
 42
0.584774903811562
  0
LINE
  5
125
330
76
100
AcDbEntity
  8
$DDT_AUDIT_GENERATED_(B3)
  6
Continuous
 62
     7
100
AcDbLine
 10
106.8427589311
 20
546.1607955853
 30
0.0
 11
106.2234214902
 21
546.0730544328
 31
0.0
  0
ELLIPSE
  5
126
330
76
100
AcDbEntity
  8
$DDT_AUDIT_GENERATED_(B3)
  6
Continuous
 62
     7
100
AcDbEllipse
 10
100.5392428331
 20
545.1197003813
 30
0.0
 11
2.703031476359756
 21
1.387778780781446E-14
 31
0.0
210
0.0
220
0.0
230
1.0
 40
0.3420201433
 41
2.767272050838983
 42
3.141592653589793
  0
ELLIPSE
  5
127
330
76
100
AcDbEntity
  8
$DDT_AUDIT_GENERATED_(B3)
  6
Continuous
 62
     7
100
AcDbEllipse
 10
100.5392428331
 20
545.1197003813
 30
0.0
 11
2.703031476359756
 21
1.387778780781446E-14
 31
0.0
210
0.0
220
0.0
230
1.0
 40
0.3420201433
 41
1.189809406075
 42
1.95158495625006
  0
ELLIPSE
  5
128
330
76
100
AcDbEntity
  8
$DDT_AUDIT_GENERATED_(B3)
  6
Continuous
 62
     7
100
AcDbEllipse
 10
100.5392428331
 20
545.1197003813
 30
0.0
 11
2.703031476359756
 21
1.387778780781446E-14
 31
0.0
210
0.0
220
0.0
230
1.0
 40
0.3420201433
 41
0.0
 42
0.3743206027507921
  0
ELLIPSE
  5
129
330
76
100
AcDbEntity
  8
$DDT_AUDIT_GENERATED_(B3)
  6
Continuous
 62
     7
100
AcDbEllipse
 10
100.5392428331
 20
542.7704688293
 30
0.0
 11
2.703031476359757
 21
1.387778780781446E-14
 31
0.0
210
0.0
220
0.0
230
1.0
 40
0.3420201433
 41
0.0
 42
6.283185307179586
  0
ELLIPSE
  5
12A
330
76
100
AcDbEntity
  8
$DDT_AUDIT_GENERATED_(B3)
  6
Continuous
 62
     7
100
AcDbEllipse
 10
100.5392428331
 20
542.7704688293
 30
0.0
 11
-1.750000000000002
 21
0.0
 31
0.0
210
0.0
220
0.0
230
1.0
 40
0.3420201433
 41
0.0
 42
6.283185307179586
  0
LINE
  5
12B
330
76
100
AcDbEntity
  8
$DDT_AUDIT_GENERATED_(B3)
  6
Continuous
 62
     7
100
AcDbLine
 10
103.2599964052
 20
545.3570678841
 30
0.0
 11
103.2599964052
 21
545.2565084386
 31
0.0
  0
LINE
  5
12C
330
76
100
AcDbEntity
  8
$DDT_AUDIT_GENERATED_(B3)
  6
Continuous
 62
     7
100
AcDbLine
 10
107.148905677
 20
544.3313935053
 30
0.0
 11
107.148905677
 21
544.4590530387
 31
0.0
  0
LINE
  5
12D
330
76
100
AcDbEntity
  8
$DDT_AUDIT_GENERATED_(B3)
  6
Continuous
 62
     7
100
AcDbLine
 10
105.7637451858
 20
543.5262911479
 30
0.0
 11
105.7637451858
 21
544.2314683877
 31
0.0
  0
LINE
  5
12E
330
76
100
AcDbEntity
  8
$DDT_AUDIT_GENERATED_(B3)
  6
Continuous
 62
     7
100
AcDbLine
 10
103.5832015717
 20
542.963770902
 30
0.0
 11
103.5832015717
 21
543.8851293671
 31
0.0
  0
LINE
  5
12F
330
76
100
AcDbEntity
  8
$DDT_AUDIT_GENERATED_(B3)
  6
Continuous
 62
     7
100
AcDbLine
 10
97.4952840946
 20
543.8851293671
 30
0.0
 11
97.4952840946
 21
542.963770902
 31
0.0
  0
LINE
  5
130
330
76
100
AcDbEntity
  8
$DDT_AUDIT_GENERATED_(B3)
  6
Continuous
 62
     7
100
AcDbLine
 10
95.3147404804
 20
544.2314683877
 30
0.0
 11
95.3147404804
 21
543.5262911479
 31
0.0
  0
LINE
  5
131
330
76
100
AcDbEntity
  8
$DDT_AUDIT_GENERATED_(B3)
  6
Continuous
 62
     7
100
AcDbLine
 10
93.9295799892
 20
544.4590530387
 30
0.0
 11
93.9295799892
 21
544.3313935053
 31
0.0
  0
LINE
  5
132
330
76
100
AcDbEntity
  8
$DDT_AUDIT_GENERATED_(B3)
  6
Continuous
 62
     7
100
AcDbLine
 10
99.8676073305
 20
547.5027956669
 30
0.0
 11
99.8676073305
 21
546.0317729916
 31
0.0
  0
LINE
  5
133
330
76
100
AcDbEntity
  8
$DDT_AUDIT_GENERATED_(B3)
  6
Continuous
 62
     7
100
AcDbLine
 10
97.818489261
 20
545.3570678841
 30
0.0
 11
97.818489261
 21
545.2565084386
 31
0.0
  0
LINE
  5
134
330
76
100
AcDbEntity
  8
$DDT_AUDIT_GENERATED_(B3)
  6
Continuous
 62
     7
100
AcDbLine
 10
101.2108783357
 20
547.5027956669
 30
0.0
 11
101.2108783357
 21
546.0317729916
 31
0.0
  0
LINE
  5
135
330
76
100
AcDbEntity
  8
$DDT_AUDIT_GENERATED_(B3)
  6
Continuous
 62
     7
100
AcDbLine
 10
94.231241523
 20
542.4315627128
 30
0.0
 11
95.4557322034
 21
542.8503631908
 31
0.0
  0
LINE
  5
136
330
76
100
AcDbEntity
  8
$DDT_AUDIT_GENERATED_(B3)
  6
Continuous
 62
     7
100
AcDbLine
 10
90.6183818289
 20
544.7306956069
 30
0.0
 11
91.0411434584
 21
544.7306956069
 31
0.0
  0
LINE
  5
137
330
76
100
AcDbEntity
  8
$DDT_AUDIT_GENERATED_(B3)
  6
Continuous
 62
     7
100
AcDbLine
 10
92.8170279607
 20
547.2301792624
 30
0.0
 11
94.041518641
 21
546.8113787844
 31
0.0
  0
LINE
  5
138
330
76
100
AcDbEntity
  8
$DDT_AUDIT_GENERATED_(B3)
  6
Continuous
 62
     7
100
AcDbLine
 10
107.0369670253
 20
546.8113787844
 30
0.0
 11
108.2614577056
 21
547.2301792624
 31
0.0
  0
LINE
  5
139
330
76
100
AcDbEntity
  8
$DDT_AUDIT_GENERATED_(B3)
  6
Continuous
 62
     7
100
AcDbLine
 10
110.0373422078
 20
544.7306956069
 30
0.0
 11
110.4601038373
 21
544.7306956069
 31
0.0
  0
LINE
  5
13A
330
76
100
AcDbEntity
  8
$DDT_AUDIT_GENERATED_(B3)
  6
Continuous
 62
     7
100
AcDbLine
 10
105.6227534629
 20
542.8503631908
 30
0.0
 11
106.8472441432
 21
542.4315627128
 31
0.0
  0
LINE
  5
13B
330
76
100
AcDbEntity
  8
$DDT_AUDIT_GENERATED_(B3)
  6
Continuous
 62
     7
100
AcDbLine
 10
110.5392428331
 20
545.1197003813
 30
0.0
 11
110.5392428331
 21
545.556117045
 31
0.0
  0
LINE
  5
13C
330
76
100
AcDbEntity
  8
$DDT_AUDIT_GENERATED_(B3)
  6
Continuous
 62
     7
100
AcDbLine
 10
90.5392428331
 20
545.556117045
 30
0.0
 11
90.5392428331
 21
545.1197003813
 31
0.0
  0
LINE
  5
13D
330
76
100
AcDbEntity
  8
$DDT_AUDIT_GENERATED_(B3)
  6
Continuous
 62
     7
100
AcDbLine
 10
90.7625261577
 20
544.4009850229
 30
0.0
 11
92.1736736587
 21
542.1554910973
 31
0.0
  0
LINE
  5
13E
330
76
100
AcDbEntity
  8
$DDT_AUDIT_GENERATED_(B3)
  6
Continuous
 62
     7
100
AcDbLine
 10
108.9048120075
 20
542.1554910973
 30
0.0
 11
110.3159595086
 21
544.4009850229
 31
0.0
  0
LINE
  5
13F
330
76
100
AcDbEntity
  8
$DDT_AUDIT_GENERATED_(B3)
  6
Continuous
 62
     7
100
AcDbLine
 10
103.2422743095
 20
542.7704688293
 30
0.0
 11
103.2422743095
 21
545.1197003813
 31
0.0
  0
LINE
  5
140
330
76
100
AcDbEntity
  8
$DDT_AUDIT_GENERATED_(B3)
  6
Continuous
 62
     7
100
AcDbLine
 10
97.8362113568
 20
545.1197003813
 30
0.0
 11
97.8362113568
 21
542.7704688293
 31
0.0
  0
SPLINE
  5
142
330
76
100
AcDbEntity
  8
$DDT_AUDIT_GENERATED_(141)
  6
Continuous
 62
     7
100
AcDbSpline
210
0.0
220
0.0
230
1.0
 70
     8
 71
     3
 72
    42
 73
    38
 74
     0
 42
0.0000000002640835
 43
0.0000000001
 40
0.0
 40
0.0
 40
0.0
 40
0.0
 40
0.2500000000000032
 40
0.2500000000000032
 40
0.3125000000000039
 40
0.3125000000000039
 40
0.3437500000000042
 40
0.3437500000000042
 40
0.3750000000000046
 40
0.3750000000000046
 40
0.3906250000000046
 40
0.3906250000000046
 40
0.4062500000000047
 40
0.4062500000000047
 40
0.4375000000000046
 40
0.4375000000000046
 40
0.4687500000000044
 40
0.4687500000000044
 40
0.4843750000000043
 40
0.4843750000000043
 40
0.5000000000000042
 40
0.5000000000000042
 40
0.562500000000004
 40
0.562500000000004
 40
0.5937500000000039
 40
0.5937500000000039
 40
0.6093750000000039
 40
0.6093750000000039
 40
0.625000000000004
 40
0.625000000000004
 40
0.6562500000000039
 40
0.6562500000000039
 40
0.6875000000000037
 40
0.6875000000000037
 40
0.7500000000000031
 40
0.7500000000000031
 40
1.0
 40
1.0
 40
1.0
 40
1.0
 10
114.8864560863731
 20
610.5598973078994
 30
0.0
 10
114.8749914074526
 20
612.1664900664048
 30
0.0
 10
114.8369068328926
 20
613.4574454948876
 30
0.0
 10
114.8715649820021
 20
614.4989064581243
 30
0.0
 10
114.8850083692716
 20
614.6801315663215
 30
0.0
 10
114.9212163392964
 20
614.8836782451854
 30
0.0
 10
114.9392860510725
 20
614.9390943096594
 30
0.0
 10
114.9513610816793
 20
615.0122607305053
 30
0.0
 10
114.9689244590195
 20
615.0376410690802
 30
0.0
 10
114.6848545710356
 20
615.1110944947349
 30
0.0
 10
114.5265282315628
 20
615.136348210374
 30
0.0
 10
114.0286066623283
 20
615.1707154195451
 30
0.0
 10
113.68812163434
 20
615.1793742770648
 30
0.0
 10
112.4329800615376
 20
615.1903436356494
 30
0.0
 10
111.3094699148239
 20
615.1804281395441
 30
0.0
 10
108.6871937864897
 20
615.1561868863035
 30
0.0
 10
107.1825836041142
 20
615.1429326369581
 30
0.0
 10
104.7777064271506
 20
615.1375337915478
 30
0.0
 10
103.9545281572345
 20
615.1378637259887
 30
0.0
 10
102.2613675048481
 20
615.1401246943519
 30
0.0
 10
101.3831250701469
 20
615.1417379690733
 30
0.0
 10
97.06916143205866
 20
615.1416518308074
 30
0.0
 10
93.64916305330476
 20
615.1445740462425
 30
0.0
 10
89.74507576877906
 20
615.1806096340041
 30
0.0
 10
88.61394296473826
 20
615.1903009646392
 30
0.0
 10
87.38326362948594
 20
615.1791968408411
 30
0.0
 10
87.04599815297153
 20
615.1706898614835
 30
0.0
 10
86.54223017264866
 20
615.135501207289
 30
0.0
 10
86.38864058077684
 20
615.1100981632908
 30
0.0
 10
86.11090556938046
 20
615.0373964450527
 30
0.0
 10
86.12699354407786
 20
615.011990132722
 30
0.0
 10
86.13942817824984
 20
614.9386906116159
 30
0.0
 10
86.15736743935345
 20
614.8832282352176
 30
0.0
 10
86.19355741023213
 20
614.6796098970113
 30
0.0
 10
86.20695619893937
 20
614.4983894724829
 30
0.0
 10
86.2415598007264
 20
613.4571101166883
 30
0.0
 10
86.20349372415617
 20
612.1660669073513
 30
0.0
 10
86.19203201619685
 20
610.5599200360876
 30
0.0
  0
SPLINE
  5
143
330
76
100
AcDbEntity
  8
$DDT_AUDIT_GENERATED_(141)
  6
Continuous
 62
     7
100
AcDbSpline
210
0.0
220
0.0
230
1.0
 70
     8
 71
     3
 72
    10
 73
     6
 74
     0
 42
0.0000000006820096
 43
0.0000000001
 40
0.0
 40
0.0
 40
0.0
 40
0.0
 40
0.2500000000000004
 40
0.2500000000000004
 40
0.2707807871026182
 40
0.2707807871026182
 40
0.2707807871026182
 40
0.2707807871026182
 10
85.27129585859805
 20
611.5501560304898
 30
0.0
 10
85.2829562971064
 20
613.1825385642775
 30
0.0
 10
85.32250422588109
 20
614.4901246866342
 30
0.0
 10
85.2936170464788
 20
615.3910800854427
 30
0.0
 10
85.29055778105885
 20
615.4571033473369
 30
0.0
 10
85.2867890026358
 20
615.5192051414128
 30
0.0
  0
SPLINE
  5
144
330
76
100
AcDbEntity
  8
$DDT_AUDIT_GENERATED_(141)
  6
Continuous
 62
     7
100
AcDbSpline
210
0.0
220
0.0
230
1.0
 70
     8
 71
     3
 72
     8
 73
     4
 74
     0
 42
0.0000000024517249
 43
0.0000000001
 40
0.3321873246071907
 40
0.3321873246071907
 40
0.3321873246071907
 40
0.3321873246071907
 40
0.3367258452974295
 40
0.3367258452974295
 40
0.3367258452974295
 40
0.3367258452974295
 10
85.24137933190475
 20
615.9428451725261
 30
0.0
 10
85.24089728615685
 20
615.9493422437374
 30
0.0
 10
85.24069493573427
 20
615.9555046383418
 30
0.0
 10
85.2408562606976
 20
615.9613333024643
 30
0.0
  0
SPLINE
  5
145
330
76
100
AcDbEntity
  8
$DDT_AUDIT_GENERATED_(141)
  6
Continuous
 62
     7
100
AcDbSpline
210
0.0
220
0.0
230
1.0
 70
     8
 71
     3
 72
    32
 73
    28
 74
     0
 42
0.000000000106217
 43
0.0000000001
 40
0.3367258452974295
 40
0.3367258452974295
 40
0.3367258452974295
 40
0.3367258452974295
 40
0.3437500000000008
 40
0.3437500000000008
 40
0.375000000000001
 40
0.375000000000001
 40
0.3906250000000009
 40
0.3906250000000009
 40
0.4062500000000009
 40
0.4062500000000009
 40
0.4375000000000009
 40
0.4375000000000009
 40
0.4687500000000009
 40
0.4687500000000009
 40
0.5000000000000009
 40
0.5000000000000009
 40
0.5312500000000008
 40
0.5312500000000008
 40
0.5625000000000008
 40
0.5625000000000008
 40
0.5937500000000007
 40
0.5937500000000007
 40
0.6250000000000007
 40
0.6250000000000007
 40
0.6562500000000006
 40
0.6562500000000006
 40
0.6636655773700028
 40
0.6636655773700028
 40
0.6636655773700028
 40
0.6636655773700028
 10
85.2408562606976
 20
615.9613333024643
 30
0.0
 10
85.24110593929927
 20
615.9703541798162
 30
0.0
 10
85.24222672871507
 20
615.9785756733138
 30
0.0
 10
85.25477685635182
 20
616.0190373698865
 30
0.0
 10
85.26401714349356
 20
616.0588780849057
 30
0.0
 10
85.67329076072049
 20
616.1482643099814
 30
0.0
 10
85.88842894477078
 20
616.1774588045251
 30
0.0
 10
86.48578297765152
 20
616.2182035375869
 30
0.0
 10
86.86542624948994
 20
616.2305047623785
 30
0.0
 10
88.22997773031615
 20
616.2553763085253
 30
0.0
 10
89.40570424263304
 20
616.2551185879169
 30
0.0
 10
92.14371071482583
 20
616.2477986011822
 30
0.0
 10
93.66434662438644
 20
616.2421164971738
 30
0.0
 10
96.98689920218749
 20
616.2435181855078
 30
0.0
 10
98.71788741098818
 20
616.249963915585
 30
0.0
 10
102.266247481269
 20
616.250146176242
 30
0.0
 10
104.0109955535535
 20
616.243675819069
 30
0.0
 10
107.3473667171325
 20
616.2420109772987
 30
0.0
 10
108.8778669021873
 20
616.2475811527211
 30
0.0
 10
111.6241949779009
 20
616.2550921936765
 30
0.0
 10
112.794048530284
 20
616.2556531311059
 30
0.0
 10
114.6407160942329
 20
616.2233955970033
 30
0.0
 10
115.2424049600623
 20
616.1814998021121
 30
0.0
 10
115.8124106220425
 20
616.0614856448805
 30
0.0
 10
115.8224753212856
 20
616.0202681987719
 30
0.0
 10
115.8361511986661
 20
615.9795894038599
 30
0.0
 10
115.8374072342961
 20
615.9709255594609
 30
0.0
 10
115.8376753929376
 20
615.9613849618615
 30
0.0
  0
SPLINE
  5
146
330
76
100
AcDbEntity
  8
$DDT_AUDIT_GENERATED_(141)
  6
Continuous
 62
     7
100
AcDbSpline
210
0.0
220
0.0
230
1.0
 70
     8
 71
     3
 72
     8
 73
     4
 74
     0
 42
0.0000000025519812
 43
0.0000000001
 40
0.6636655773700028
 40
0.6636655773700028
 40
0.6636655773700028
 40
0.6636655773700028
 40
0.6648820579496291
 40
0.6648820579496291
 40
0.6648820579496291
 40
0.6648820579496291
 10
115.8376753929376
 20
615.9613849618615
 30
0.0
 10
115.8377193827395
 20
615.9598198845765
 30
0.0
 10
115.8377367883602
 20
615.9582312134977
 30
0.0
 10
115.8377292826744
 20
615.9566188841899
 30
0.0
  0
SPLINE
  5
147
330
76
100
AcDbEntity
  8
$DDT_AUDIT_GENERATED_(141)
  6
Continuous
 62
     7
100
AcDbSpline
210
0.0
220
0.0
230
1.0
 70
     8
 71
     3
 72
    10
 73
     6
 74
     0
 42
0.0000000006784875
 43
0.0000000001
 40
0.7323131241126404
 40
0.7323131241126404
 40
0.7323131241126404
 40
0.7323131241126404
 40
0.7500000000000004
 40
0.7500000000000004
 40
1.0
 40
1.0
 40
1.0
 40
1.0
 10
115.790239878768
 20
615.4942276783812
 30
0.0
 10
115.7871842905977
 20
615.4404241031017
 30
0.0
 10
115.7846593124543
 20
615.3838538858112
 30
0.0
 10
115.7558305501581
 20
614.4934112413872
 30
0.0
 10
115.7955142287416
 20
613.1845474891616
 30
0.0
 10
115.8071897660731
 20
611.5501330840721
 30
0.0
  0
ELLIPSE
  5
148
330
76
100
AcDbEntity
  8
$DDT_AUDIT_GENERATED_(141)
  6
Continuous
 62
     7
100
AcDbEllipse
 10
86.2712955162
 20
611.5500551852
 30
0.0
 11
-0.9999744882057994
 21
0.007143034197965026
 31
0.0
210
0.0
220
0.0
230
1.0
 40
0.9932675285
 41
0.0070899811567874
 42
1.498544571718145
  0
ELLIPSE
  5
149
330
76
100
AcDbEntity
  8
$DDT_AUDIT_GENERATED_(141)
  6
Continuous
 62
     7
100
AcDbEllipse
 10
114.8071901085
 20
611.5500322336
 30
0.0
 11
0.9999744856503626
 21
0.007143391930808374
 31
0.0
210
0.0
220
0.0
230
1.0
 40
0.9932675013
 41
4.784642866009706
 42
6.276094970883745
  0
ARC
  5
14A
330
76
100
AcDbEntity
  8
$DDT_AUDIT_GENERATED_(141)
  6
Continuous
 62
     7
100
AcDbCircle
 10
100.5439776377
 20
6160.437848303
 30
0.0
 40
5551.890574331751
100
AcDbArc
 50
269.8612734156
 51
270.1386289289
  0
SPLINE
  5
14B
330
76
100
AcDbEntity
  8
$DDT_AUDIT_GENERATED_(141)
  6
Continuous
 62
     7
100
AcDbSpline
210
0.0
220
0.0
230
1.0
 70
     8
 71
     3
 72
    16
 73
    12
 74
     0
 42
0.0000000021250212
 43
0.0000000001
 40
0.0
 40
0.0
 40
0.0
 40
0.0
 40
0.2500000000000011
 40
0.2500000000000011
 40
0.5000000000000022
 40
0.5000000000000022
 40
0.7500000000000033
 40
0.7500000000000033
 40
0.8750000000000017
 40
0.8750000000000017
 40
1.0
 40
1.0
 40
1.0
 40
1.0
 10
87.10155534933148
 20
608.563547615311
 30
0.0
 10
86.70932843172577
 20
608.5661087918033
 30
0.0
 10
86.33646053796414
 20
608.6529487394237
 30
0.0
 10
85.6218620544249
 20
608.9500140599533
 30
0.0
 10
85.295671652951
 20
609.1539104888172
 30
0.0
 10
84.68471352595422
 20
609.6340159326699
 30
0.0
 10
84.39972293812932
 20
609.9119145410068
 30
0.0
 10
84.00162992160456
 20
610.355526401951
 30
0.0
 10
83.87339959529442
 20
610.5082627125587
 30
0.0
 10
83.62388722210257
 20
610.8208814928394
 30
0.0
 10
83.50203568259028
 20
610.9816246974657
 30
0.0
 10
83.38397135675912
 20
611.142994119869
 30
0.0
  0
SPLINE
  5
14C
330
76
100
AcDbEntity
  8
$DDT_AUDIT_GENERATED_(141)
  6
Continuous
 62
     7
100
AcDbSpline
210
0.0
220
0.0
230
1.0
 70
     8
 71
     3
 72
    20
 73
    16
 74
     0
 42
0.0000000021288157
 43
0.0000000001
 40
0.0
 40
0.0
 40
0.0
 40
0.0
 40
0.1250000000000002
 40
0.1250000000000002
 40
0.2500000000000004
 40
0.2500000000000004
 40
0.5000000000000009
 40
0.5000000000000009
 40
0.6250000000000007
 40
0.6250000000000007
 40
0.7500000000000004
 40
0.7500000000000004
 40
0.8750000000000002
 40
0.8750000000000002
 40
1.0
 40
1.0
 40
1.0
 40
1.0
 10
117.6945142771915
 20
611.1429832141384
 30
0.0
 10
117.5768171679509
 20
610.982113292316
 30
0.0
 10
117.4551372365945
 20
610.8215838963964
 30
0.0
 10
117.206543185537
 20
610.5100284367645
 30
0.0
 10
117.0789197667662
 20
610.3579521533957
 30
0.0
 10
116.6833413294872
 20
609.9167110940112
 30
0.0
 10
116.4029844535599
 20
609.6421835845607
 30
0.0
 10
115.9428896365051
 20
609.2792223660093
 30
0.0
 10
115.7822777396098
 20
609.1662346885092
 30
0.0
 10
115.4517713663153
 20
608.9656449130152
 30
0.0
 10
115.2812157119037
 20
608.8774037098151
 30
0.0
 10
114.9275614664167
 20
608.7297330434025
 30
0.0
 10
114.7432463609797
 20
608.6700118076285
 30
0.0
 10
114.3654377293513
 20
608.5875550916903
 30
0.0
 10
114.1730949661997
 20
608.5648060772089
 30
0.0
 10
113.9769372644216
 20
608.5635247119964
 30
0.0
  0
ARC
  5
14D
330
76
100
AcDbEntity
  8
$DDT_AUDIT_GENERATED_(141)
  6
Continuous
 62
     7
100
AcDbCircle
 10
100.5448079144
 20
7448.2840519505
 30
0.0
 40
6837.755639136181
100
AcDbArc
 50
269.8797201489
 51
270.120186609
  0
SPLINE
  5
14E
330
76
100
AcDbEntity
  8
$DDT_AUDIT_GENERATED_(141)
  6
Continuous
 62
     7
100
AcDbSpline
210
0.0
220
0.0
230
1.0
 70
     8
 71
     3
 72
    26
 73
    22
 74
     0
 42
0.0000000000879998
 43
0.0000000001
 40
0.372688024126259
 40
0.372688024126259
 40
0.372688024126259
 40
0.372688024126259
 40
0.3749999999999993
 40
0.3749999999999993
 40
0.3906249999999993
 40
0.3906249999999993
 40
0.4062499999999993
 40
0.4062499999999993
 40
0.4374999999999993
 40
0.4374999999999993
 40
0.4999999999999994
 40
0.4999999999999994
 40
0.5312499999999994
 40
0.5312499999999994
 40
0.5624999999999994
 40
0.5624999999999994
 40
0.5937499999999996
 40
0.5937499999999996
 40
0.6249999999999996
 40
0.6249999999999996
 40
0.6302552664669011
 40
0.6302552664669011
 40
0.6302552664669011
 40
0.6302552664669011
 10
85.93198105996817
 20
618.9470178126714
 30
0.0
 10
85.94658346238768
 20
618.9480469276912
 30
0.0
 10
85.96234846662544
 20
618.9490180137956
 30
0.0
 10
86.09441856574124
 20
618.9561006772016
 30
0.0
 10
86.28111664472783
 20
618.9596217977725
 30
0.0
 10
86.83256989670649
 20
618.9615374654799
 30
0.0
 10
87.19058891524354
 20
618.9600207761648
 30
0.0
 10
88.48873867466692
 20
618.9497941778237
 30
0.0
 10
89.63958977179448
 20
618.9353569931968
 30
0.0
 10
93.6461557065776
 20
618.8869620239195
 30
0.0
 10
97.04901016365844
 20
618.8509752479472
 30
0.0
 10
102.2912860648356
 20
618.8510165968802
 30
0.0
 10
104.0187138561264
 20
618.8592718862732
 30
0.0
 10
107.2950895043658
 20
618.8858584313051
 30
0.0
 10
108.7963041899846
 20
618.9034284951578
 30
0.0
 10
111.4675070133668
 20
618.9357116667318
 30
0.0
 10
112.5986035349165
 20
618.9499188904133
 30
0.0
 10
114.3386346003112
 20
618.963515731576
 30
0.0
 10
114.8703617003275
 20
618.9623408521265
 30
0.0
 10
115.1399348282435
 20
618.9477181164316
 30
0.0
 10
115.1721579533963
 20
618.9453132563557
 30
0.0
 10
115.1989418339924
 20
618.9426104350941
 30
0.0
  0
SPLINE
  5
14F
330
76
100
AcDbEntity
  8
$DDT_AUDIT_GENERATED_(141)
  6
Continuous
 62
     7
100
AcDbSpline
210
0.0
220
0.0
230
1.0
 70
     8
 71
     3
 72
     8
 73
     4
 74
     0
 42
0.0000000005557045
 43
0.0000000001
 40
0.1708802473592043
 40
0.1708802473592043
 40
0.1708802473592043
 40
0.1708802473592043
 40
0.17119797306786
 40
0.17119797306786
 40
0.17119797306786
 40
0.17119797306786
 10
75.53944711369633
 20
610.8640948857178
 30
0.0
 10
75.53944750105663
 20
610.8621892938104
 30
0.0
 10
75.53945769987169
 20
610.860283494818
 30
0.0
 10
75.53947770808907
 20
610.858377488597
 30
0.0
  0
SPLINE
  5
150
330
76
100
AcDbEntity
  8
$DDT_AUDIT_GENERATED_(141)
  6
Continuous
 62
     7
100
AcDbSpline
210
0.0
220
0.0
230
1.0
 70
     8
 71
     3
 72
     8
 73
     4
 74
     0
 42
0.000000000527955
 43
0.0000000001
 40
0.0
 40
0.0
 40
0.0
 40
0.0
 40
0.0776630635182535
 40
0.0776630635182535
 40
0.0776630635182535
 40
0.0776630635182535
 10
115.8069359511563
 20
614.046005821774
 30
0.0
 10
115.8033465588543
 20
614.5778124794181
 30
0.0
 10
115.7972956002377
 20
615.0696091006889
 30
0.0
 10
115.7913506499608
 20
615.5169337228484
 30
0.0
  0
SPLINE
  5
151
330
76
100
AcDbEntity
  8
$DDT_AUDIT_GENERATED_(141)
  6
Continuous
 62
     7
100
AcDbSpline
210
0.0
220
0.0
230
1.0
 70
     8
 71
     3
 72
     8
 73
     4
 74
     0
 42
0.0000000022484713
 43
0.0000000001
 40
0.3431912543250624
 40
0.3431912543250624
 40
0.3431912543250624
 40
0.3431912543250624
 40
0.3434161014507837
 40
0.3434161014507837
 40
0.3434161014507837
 40
0.3434161014507837
 10
115.836998331958
 20
618.3651323954671
 30
0.0
 10
115.8369973349547
 20
618.3653933265185
 30
0.0
 10
115.8369957073778
 20
618.3656537647644
 30
0.0
 10
115.8369934434179
 20
618.3659137102242
 30
0.0
  0
SPLINE
  5
152
330
76
100
AcDbEntity
  8
$DDT_AUDIT_GENERATED_(141)
  6
Continuous
 62
     7
100
AcDbSpline
210
0.0
220
0.0
230
1.0
 70
     8
 71
     3
 72
     8
 73
     4
 74
     0
 42
0.0000000028638015
 43
0.0000000001
 40
0.659729187673353
 40
0.659729187673353
 40
0.659729187673353
 40
0.659729187673353
 40
0.6690357751630592
 40
0.6690357751630592
 40
0.6690357751630592
 40
0.6690357751630592
 10
85.24716597049544
 20
618.3959566567718
 30
0.0
 10
85.24199491084674
 20
618.3865036580431
 30
0.0
 10
85.23992674980744
 20
618.3761889057629
 30
0.0
 10
85.23975846581986
 20
618.3649878240033
 30
0.0
  0
SPLINE
  5
153
330
76
100
AcDbEntity
  8
$DDT_AUDIT_GENERATED_(141)
  6
Continuous
 62
     7
100
AcDbSpline
210
0.0
220
0.0
230
1.0
 70
     8
 71
     3
 72
     8
 73
     4
 74
     0
 42
0.0000000005101957
 43
0.0000000001
 40
0.9238213890083605
 40
0.9238213890083605
 40
0.9238213890083605
 40
0.9238213890083605
 40
1.0
 40
1.0
 40
1.0
 40
1.0
 10
85.28780267934654
 20
615.5390352961098
 30
0.0
 10
85.2815705374316
 20
615.0857117097204
 30
0.0
 10
85.27519711583881
 20
614.5864434503114
 30
0.0
 10
85.27154965816024
 20
614.0460058475002
 30
0.0
  0
ELLIPSE
  5
154
330
76
100
AcDbEntity
  8
$DDT_AUDIT_GENERATED_(141)
  6
Continuous
 62
     7
100
AcDbEllipse
 10
117.3515156577
 20
613.4371185859
 30
0.0
 11
-0.06176886116015384
 21
-0.4961699384192497
 31
0.0
210
0.0
220
0.0
230
1.0
 40
0.6826645142
 41
3.127673594350141
 42
3.155865431650054
  0
ELLIPSE
  5
155
330
76
100
AcDbEntity
  8
$DDT_AUDIT_GENERATED_(141)
  6
Continuous
 62
     7
100
AcDbEllipse
 10
83.7269699663
 20
613.4371185806
 30
0.0
 11
0.06176886148797842
 21
-0.496169938378449
 31
0.0
210
0.0
220
0.0
230
0.9999999999999999
 40
0.6826645159
 41
3.125835098537538
 42
3.148739894655502
  0
SPLINE
  5
156
330
76
100
AcDbEntity
  8
$DDT_AUDIT_GENERATED_(141)
  6
Continuous
 62
     7
100
AcDbSpline
210
0.0
220
0.0
230
1.0
 70
     8
 71
     3
 72
     8
 73
     4
 74
     0
 42
0.0000000002061565
 43
0.0000000001
 40
0.0199019139356008
 40
0.0199019139356008
 40
0.0199019139356008
 40
0.0199019139356008
 40
0.0373804238227746
 40
0.0373804238227746
 40
0.0373804238227746
 40
0.0373804238227746
 10
125.4985338423621
 20
576.8534798827433
 30
0.0
 10
125.5250781807204
 20
577.1354775807047
 30
0.0
 10
125.5384121715158
 20
577.4177008567353
 30
0.0
 10
125.5385016445225
 20
577.6997459307382
 30
0.0
  0
SPLINE
  5
157
330
76
100
AcDbEntity
  8
$DDT_AUDIT_GENERATED_(141)
  6
Continuous
 62
     7
100
AcDbSpline
210
0.0
220
0.0
230
1.0
 70
     8
 71
     3
 72
     8
 73
     4
 74
     0
 42
0.0000000002056432
 43
0.0000000001
 40
0.9627177825251456
 40
0.9627177825251456
 40
0.9627177825251456
 40
0.9627177825251456
 40
0.9801316751173024
 40
0.9801316751173024
 40
0.9801316751173024
 40
0.9801316751173024
 10
75.53999210550356
 20
577.6998888703686
 30
0.0
 10
75.54007627803959
 20
577.4182356549455
 30
0.0
 10
75.55336702312253
 20
577.136352769219
 30
0.0
 10
75.579846243991
 20
576.8546423066405
 30
0.0
  0
ELLIPSE
  5
158
330
76
100
AcDbEntity
  8
$DDT_AUDIT_GENERATED_(141)
  6
Continuous
 62
     7
100
AcDbEllipse
 10
124.8602848607
 20
575.8916629448
 30
0.0
 11
-0.4905427592082519
 21
0.09678740304584765
 31
0.0
210
0.0
220
0.0
230
0.9999999999999998
 40
0.8434502891
 41
3.140022975922546
 42
3.371388568431936
  0
LINE
  5
159
330
76
100
AcDbEntity
  8
$DDT_AUDIT_GENERATED_(141)
  6
Continuous
 62
     7
100
AcDbLine
 10
123.6926339924
 20
575.0117831852
 30
0.0
 11
77.3858516739
 21
575.0117831852
 31
0.0
  0
SPLINE
  5
15A
330
76
100
AcDbEntity
  8
$DDT_AUDIT_GENERATED_(141)
  6
Continuous
 62
     7
100
AcDbSpline
210
0.0
220
0.0
230
1.0
 70
     8
 71
     3
 72
     8
 73
     4
 74
     0
 42
0.0000000102529456
 43
0.0000000001
 40
0.0
 40
0.0
 40
0.0
 40
0.0
 40
1.0
 40
1.0
 40
1.0
 40
1.0
 10
123.6926339924316
 20
575.0117831852093
 30
0.0
 10
124.1154541176654
 20
575.0117831852094
 30
0.0
 10
124.4407573926939
 20
575.0118393227903
 30
0.0
 10
124.6679634582087
 20
575.0118541254834
 30
0.0
  0
SPLINE
  5
15B
330
76
100
AcDbEntity
  8
$DDT_AUDIT_GENERATED_(141)
  6
Continuous
 62
     7
100
AcDbSpline
210
0.0
220
0.0
230
1.0
 70
     8
 71
     3
 72
     8
 73
     4
 74
     0
 42
0.0000000102529456
 43
0.0000000001
 40
0.0
 40
0.0
 40
0.0
 40
0.0
 40
1.0
 40
1.0
 40
1.0
 40
1.0
 10
76.41052220802244
 20
575.0118541254834
 30
0.0
 10
76.63773102281296
 20
575.0118393226111
 30
0.0
 10
76.96302775371014
 20
575.0117831852093
 30
0.0
 10
77.3858516739257
 20
575.0117831852093
 30
0.0
  0
SPLINE
  5
15C
330
76
100
AcDbEntity
  8
$DDT_AUDIT_GENERATED_(141)
  6
Continuous
 62
     7
100
AcDbSpline
210
0.0
220
0.0
230
1.0
 70
    11
 71
     3
 72
    22
 73
    18
 74
     0
 42
0.0000000004266663
 43
0.0000000001
 40
0.0
 40
0.0
 40
0.0
 40
0.0
 40
0.1249999999999999
 40
0.1249999999999999
 40
0.2499999999999998
 40
0.2499999999999998
 40
0.3749999999999999
 40
0.3749999999999999
 40
0.5
 40
0.5
 40
0.6250000000000001
 40
0.6250000000000001
 40
0.7500000000000002
 40
0.7500000000000002
 40
0.8750000000000002
 40
0.8750000000000002
 40
1.0
 40
1.0
 40
1.0
 40
1.0
 10
100.5392428331156
 20
592.0042069089664
 30
0.0
 10
101.5015164281777
 20
592.0042069089665
 30
0.0
 10
102.4369841397078
 20
591.5769605978412
 30
0.0
 10
103.7051697951395
 20
590.1710660619799
 30
0.0
 10
104.0350632975013
 20
589.2066153781982
 30
0.0
 10
103.9994730240378
 20
587.2951034132712
 30
0.0
 10
103.6571069366158
 20
586.3591743206396
 30
0.0
 10
102.4134284265572
 20
584.9045471366431
 30
0.0
 10
101.5047893671811
 20
584.426145995665
 30
0.0
 10
99.59548523287297
 20
584.4192351038325
 30
0.0
 10
98.67569665512698
 20
584.8967632762549
 30
0.0
 10
97.42649469511396
 20
586.3485889262632
 30
0.0
 10
97.08007483741412
 20
587.2914662706604
 30
0.0
 10
97.04252498242873
 20
589.2016410824674
 30
0.0
 10
97.36781793469757
 20
590.1625457350805
 30
0.0
 10
98.63903439064897
 20
591.5766358110124
 30
0.0
 10
99.5769692380535
 20
592.0042069089664
 30
0.0
 10
100.5392428331156
 20
592.0042069089664
 30
0.0
  0
LINE
  5
15D
330
76
100
AcDbEntity
  8
$DDT_AUDIT_GENERATED_(141)
  6
Continuous
 62
     7
100
AcDbLine
 10
114.3394607892
 20
618.9608613193
 30
0.0
 11
86.7367983584
 21
618.9608613193
 31
0.0
  0
LINE
  5
15E
330
76
100
AcDbEntity
  8
$DDT_AUDIT_GENERATED_(141)
  6
Continuous
 62
     7
100
AcDbLine
 10
85.2414989966
 20
618.3630521988
 30
0.0
 11
85.2414989965
 21
615.958980451
 31
0.0
  0
LINE
  5
15F
330
76
100
AcDbEntity
  8
$DDT_AUDIT_GENERATED_(141)
  6
Continuous
 62
     7
100
AcDbLine
 10
115.8369945698
 20
615.9615780422
 30
0.0
 11
115.8369945699
 21
618.3638017411
 31
0.0
  0
SPLINE
  5
160
330
76
100
AcDbEntity
  8
$DDT_AUDIT_GENERATED_(141)
  6
Continuous
 62
     7
100
AcDbSpline
210
0.0
220
0.0
230
1.0
 70
     8
 71
     3
 72
    17
 73
    13
 74
     0
 42
0.0000000170964005
 43
0.0000000001
 40
0.0
 40
0.0
 40
0.0
 40
0.0
 40
0.0530108077522464
 40
0.1310857516496176
 40
0.2177588124177614
 40
0.3169357977928256
 40
0.4320866545695283
 40
0.5660348177641052
 40
0.6613987929827578
 40
0.7071975388324626
 40
0.7510231277809774
 40
1.0
 40
1.0
 40
1.0
 40
1.0
 10
85.23073616955315
 20
615.9413997329408
 30
0.0
 10
85.2309726570794
 20
615.9024897342007
 30
0.0
 10
85.2313930941344
 20
615.8218637006372
 30
0.0
 10
85.24739472223291
 20
615.7229849387345
 30
0.0
 10
85.26386896131972
 20
615.6422997923626
 30
0.0
 10
85.27768413307776
 20
615.5876460964596
 30
0.0
 10
85.28372849208583
 20
615.5642111390555
 30
0.0
 10
85.2830950822772
 20
615.5590219246625
 30
0.0
 10
85.27759754016878
 20
615.6061105187578
 30
0.0
 10
85.28006499219586
 20
615.581083149972
 30
0.0
 10
85.28353763092895
 20
615.5412529632247
 30
0.0
 10
85.28601251354661
 20
615.4993061496986
 30
0.0
 10
85.28843512520791
 20
615.4568701738998
 30
0.0
  0
SPLINE
  5
161
330
76
100
AcDbEntity
  8
$DDT_AUDIT_GENERATED_(141)
  6
Continuous
 62
     7
100
AcDbSpline
210
0.0
220
0.0
230
1.0
 70
     8
 71
     3
 72
    15
 73
    11
 74
     0
 42
0.0000000191053136
 43
0.0000000001
 40
0.0
 40
0.0
 40
0.0
 40
0.0
 40
0.3089182622097235
 40
0.4978482492019425
 40
0.662807404600517
 40
0.7684978474450392
 40
0.855869561396369
 40
0.92887520120734
 40
0.9913514274004777
 40
1.0
 40
1.0
 40
1.0
 40
1.0
 10
115.7889157648695
 20
615.4352665025314
 30
0.0
 10
115.792491717342
 20
615.4932148816333
 30
0.0
 10
115.7975084470317
 20
615.5715151233849
 30
0.0
 10
115.8056463933027
 20
615.6515524489799
 30
0.0
 10
115.813019614124
 20
615.7068822424659
 30
0.0
 10
115.8129740583692
 20
615.7072911874668
 30
0.0
 10
115.8215584878429
 20
615.7535959346959
 30
0.0
 10
115.8304786620017
 20
615.8278048502855
 30
0.0
 10
115.8393736631818
 20
615.8972534795073
 30
0.0
 10
115.8372644625763
 20
615.9483198750592
 30
0.0
 10
115.8369692117329
 20
615.9555659411984
 30
0.0
  0
SPLINE
  5
162
330
76
100
AcDbEntity
  8
$DDT_AUDIT_GENERATED_(141)
  6
Continuous
 62
     7
100
AcDbSpline
210
0.0
220
0.0
230
1.0
 70
     8
 71
     3
 72
    16
 73
    12
 74
     0
 42
0.0000000109881696
 43
0.0000000001
 40
0.0
 40
0.0
 40
0.0
 40
0.0
 40
0.0446156001889607
 40
0.3014934304600675
 40
0.4673599720952145
 40
0.5778364768226678
 40
0.678985563587024
 40
0.7785733556206664
 40
0.8842488169728092
 40
0.9743975178512356
 40
1.0
 40
1.0
 40
1.0
 40
1.0
 10
85.89321507624406
 20
618.9455452917889
 30
0.0
 10
85.88264232324654
 20
618.9449941207824
 30
0.0
 10
85.82110993129643
 20
618.9416632627689
 30
0.0
 10
85.74639263234279
 20
618.9325341887302
 30
0.0
 10
85.64595602398813
 20
618.9120025842492
 30
0.0
 10
85.5505619219603
 20
618.8773518791503
 30
0.0
 10
85.44905155219394
 20
618.8195079476753
 30
0.0
 10
85.34000919902518
 20
618.7139145350291
 30
0.0
 10
85.2678975884666
 20
618.5785441525811
 30
0.0
 10
85.24682212880899
 20
618.4769061736897
 30
0.0
 10
85.24541237873358
 20
618.4508862905183
 30
0.0
 10
85.24516934088942
 20
618.44417148247
 30
0.0
  0
SPLINE
  5
163
330
76
100
AcDbEntity
  8
$DDT_AUDIT_GENERATED_(141)
  6
Continuous
 62
     7
100
AcDbSpline
210
0.0
220
0.0
230
1.0
 70
     8
 71
     3
 72
    15
 73
    11
 74
     0
 42
0.0000000108139226
 43
0.0000000001
 40
0.0
 40
0.0
 40
0.0
 40
0.0
 40
0.0366798514648429
 40
0.1628961500372193
 40
0.2968409179363784
 40
0.4309853907992493
 40
0.5648745349968642
 40
0.7071619742450072
 40
0.896254125343412
 40
1.0
 40
1.0
 40
1.0
 40
1.0
 10
115.8428578375122
 20
618.3645250974845
 30
0.0
 10
115.8435983071198
 20
618.374454376826
 30
0.0
 10
115.8458597478297
 20
618.4121807944232
 30
0.0
 10
115.8291423318099
 20
618.5260059539202
 30
0.0
 10
115.7607832051958
 20
618.6758294926109
 30
0.0
 10
115.650888168425
 20
618.7947933674774
 30
0.0
 10
115.541298522213
 20
618.8639888511516
 30
0.0
 10
115.4354321749605
 20
618.9073354944654
 30
0.0
 10
115.333005247577
 20
618.9309681706532
 30
0.0
 10
115.272440115659
 20
618.9364654642882
 30
0.0
 10
115.2471565670082
 20
618.9384926414103
 30
0.0
  0
SPLINE
  5
164
330
76
100
AcDbEntity
  8
$DDT_AUDIT_GENERATED_(141)
  6
Continuous
 62
     7
100
AcDbSpline
210
0.0
220
0.0
230
1.0
 70
     8
 71
     3
 72
    14
 73
    10
 74
     0
 42
0.0000000037269787
 43
0.0000000001
 40
0.0
 40
0.0
 40
0.0
 40
0.0
 40
0.0210527910966891
 40
0.1271616245225291
 40
0.2327767779206367
 40
0.3372360562946457
 40
0.4396707854450792
 40
0.5388545472265684
 40
0.6153461181877242
 40
0.6153461181877242
 40
0.6153461181877242
 40
0.6153461181877242
 10
117.4181403283997
 20
613.9338980081144
 30
0.0
 10
117.3880122599085
 20
613.9374175477117
 30
0.0
 10
117.2322120758111
 20
613.955663053756
 30
0.0
 10
116.9537782184635
 20
613.9961373649292
 30
0.0
 10
116.6193379326382
 20
614.0511329112572
 30
0.0
 10
116.3288683340046
 20
614.1087192900341
 30
0.0
 10
116.0889849485468
 20
614.1660231308563
 30
0.0
 10
115.9153514413933
 20
614.2173025241382
 30
0.0
 10
115.8331612407099
 20
614.247378858111
 30
0.0
 10
115.8032547099581
 20
614.259435476739
 30
0.0
  0
SPLINE
  5
165
330
76
100
AcDbEntity
  8
$DDT_AUDIT_GENERATED_(141)
  6
Continuous
 62
     7
100
AcDbSpline
210
0.0
220
0.0
230
1.0
 70
     8
 71
     3
 72
    15
 73
    11
 74
     0
 42
0.0000000037470254
 43
0.0000000001
 40
0.381125896219478
 40
0.381125896219478
 40
0.381125896219478
 40
0.381125896219478
 40
0.4100106262477834
 40
0.4970666834333923
 40
0.5902571644242786
 40
0.6874853091116658
 40
0.7883075036760777
 40
0.8919015102507662
 40
0.9972829683889555
 40
1.0
 40
1.0
 40
1.0
 40
1.0
 10
85.27782853899951
 20
614.260457117023
 30
0.0
 10
85.26665170227172
 20
614.2559265955833
 30
0.0
 10
85.21841380035558
 20
614.2371045594916
 30
0.0
 10
85.10837985833756
 20
614.2000197858811
 30
0.0
 10
84.92016914640452
 20
614.1484908352237
 30
0.0
 10
84.68056214953747
 20
614.0942720370207
 30
0.0
 10
84.39165750497209
 20
614.0392244887394
 30
0.0
 10
84.05695478575433
 20
613.9861938921538
 30
0.0
 10
83.80068786063039
 20
613.9494936234554
 30
0.0
 10
83.66648387959545
 20
613.9340831759531
 30
0.0
 10
83.66257318091807
 20
613.9336342444644
 30
0.0
  0
SPLINE
  5
166
330
76
100
AcDbEntity
  8
$DDT_AUDIT_GENERATED_(141)
  6
Continuous
 62
     7
100
AcDbSpline
210
0.0
220
0.0
230
1.0
 70
     8
 71
     3
 72
    27
 73
    23
 74
     0
 42
0.0000000010956063
 43
0.0000000001
 40
0.0
 40
0.0
 40
0.0
 40
0.0
 40
0.0180387738806343
 40
0.0581272723385925
 40
0.0987686711324077
 40
0.1419228328179356
 40
0.1893773902316174
 40
0.2422083673519331
 40
0.2996586224410214
 40
0.3592212831505249
 40
0.4186521290251064
 40
0.4773784861816661
 40
0.5354184416074348
 40
0.5928528059619917
 40
0.649739112462987
 40
0.7061053548390279
 40
0.7619589798310055
 40
0.8172963460364473
 40
0.8721100447865909
 40
0.9263980083389997
 40
0.9798718118995041
 40
1.0
 40
1.0
 40
1.0
 40
1.0
 10
125.5323596012783
 20
610.8643962752553
 30
0.0
 10
125.5340056832772
 20
610.90247411811
 30
0.0
 10
125.5378890176938
 20
611.0065597535404
 30
0.0
 10
125.491917065957
 20
611.1959363512133
 30
0.0
 10
125.4018628942749
 20
611.4061959931328
 30
0.0
 10
125.2674755037373
 20
611.6070917980898
 30
0.0
 10
125.0884910309667
 20
611.8016848447729
 30
0.0
 10
124.8564651138416
 20
611.9944360211452
 30
0.0
 10
124.5666810299974
 20
612.1848360927739
 30
0.0
 10
124.2206985337867
 20
612.3699038539331
 30
0.0
 10
123.825108337192
 20
612.5467844137027
 30
0.0
 10
123.3857714539952
 20
612.7146212996136
 30
0.0
 10
122.9049922078813
 20
612.8741219192831
 30
0.0
 10
122.383787782449
 20
613.0260700630423
 30
0.0
 10
121.8231365123973
 20
613.170945816912
 30
0.0
 10
121.2242842182728
 20
613.3089698923504
 30
0.0
 10
120.5885415960198
 20
613.4402465110525
 30
0.0
 10
119.9180491567167
 20
613.564632384766
 30
0.0
 10
119.212722938806
 20
613.6825150671079
 30
0.0
 10
118.4824671192007
 20
613.7919559158643
 30
0.0
 10
117.8626791039857
 20
613.8773202042207
 30
0.0
 10
117.5187769992622
 20
613.9191265167788
 30
0.0
 10
117.4083280730624
 20
613.9325112000863
 30
0.0
  0
SPLINE
  5
167
330
76
100
AcDbEntity
  8
$DDT_AUDIT_GENERATED_(141)
  6
Continuous
 62
     7
100
AcDbSpline
210
0.0
220
0.0
230
1.0
 70
     8
 71
     3
 72
    27
 73
    23
 74
     0
 42
0.0000000010944385
 43
0.0000000001
 40
0.0
 40
0.0
 40
0.0
 40
0.0
 40
0.0262951564766896
 40
0.0800607822824429
 40
0.1335079262348944
 40
0.1869188536942569
 40
0.2412609466441246
 40
0.2961371080361878
 40
0.3515352710771861
 40
0.4074411741309228
 40
0.4638460199190255
 40
0.5207538207450977
 40
0.5781908234522876
 40
0.6362146941497678
 40
0.6949110177394989
 40
0.7543244310174466
 40
0.8139985429358408
 40
0.8627614933793845
 40
0.9064227127235914
 40
0.9465471894592408
 40
0.9848221772375135
 40
1.0
 40
1.0
 40
1.0
 40
1.0
 10
83.67064233320968
 20
613.9324305871223
 30
0.0
 10
83.52660388702266
 20
613.9148376669691
 30
0.0
 10
83.15433936296091
 20
613.8691835047167
 30
0.0
 10
82.51014512850662
 20
613.7796712054115
 30
0.0
 10
81.79168429188634
 20
613.670614878847
 30
0.0
 10
81.10285046901225
 20
613.5543700789259
 30
0.0
 10
80.44788453318193
 20
613.4319108111572
 30
0.0
 10
79.8246619854095
 20
613.3024307939734
 30
0.0
 10
79.23696165205718
 20
613.1663647835322
 30
0.0
 10
78.68628723080018
 20
613.0236624748918
 30
0.0
 10
78.17413858549416
 20
612.8742060204277
 30
0.0
 10
77.70172418081611
 20
612.7176747655789
 30
0.0
 10
77.26995067205362
 20
612.5534143719927
 30
0.0
 10
76.87938559503174
 20
612.3801997291121
 30
0.0
 10
76.5303759083608
 20
612.195868698161
 30
0.0
 10
76.22404391346238
 20
611.9971557870468
 30
0.0
 10
75.97753082828129
 20
611.791539702058
 30
0.0
 10
75.7912132308547
 20
611.5822799520589
 30
0.0
 10
75.66001516578032
 20
611.3754764434625
 30
0.0
 10
75.57741074764932
 20
611.1647059364119
 30
0.0
 10
75.53817549445087
 20
610.9834139403995
 30
0.0
 10
75.54368910853806
 20
610.8875339796253
 30
0.0
 10
75.54569500171557
 20
610.8555012387716
 30
0.0
  0
LINE
  5
168
330
76
100
AcDbEntity
  8
$DDT_AUDIT_GENERATED_(141)
  6
Continuous
 62
     7
100
AcDbLine
 10
125.5392428331
 20
577.699806922
 30
0.0
 11
125.5392428331
 21
610.8638425457
 31
0.0
  0
LINE
  5
169
330
76
100
AcDbEntity
  8
$DDT_AUDIT_GENERATED_(141)
  6
Continuous
 62
     7
100
AcDbLine
 10
75.5392428331
 20
610.8635199144
 30
0.0
 11
75.5392428331
 21
577.6999276596
 31
0.0
  0
ARC
  5
16A
330
76
100
AcDbEntity
  8
$DDT_AUDIT_GENERATED_(141)
  6
Continuous
 62
     7
100
AcDbCircle
 10
82.3599135223
 20
577.3007306965
 30
0.0
 40
6.794896478204349
100
AcDbArc
 50
184.1576058372
 51
192.8010805349
  0
ARC
  5
16B
330
76
100
AcDbEntity
  8
$DDT_AUDIT_GENERATED_(141)
  6
Continuous
 62
     7
100
AcDbCircle
 10
119.3631182539
 20
577.1771942177
 30
0.0
 40
6.140860304640525
100
AcDbArc
 50
346.992728941
 51
356.5449746631
  0
SPLINE
  5
16C
330
76
100
AcDbEntity
  8
$DDT_AUDIT_GENERATED_(141)
  6
Continuous
 62
     7
100
AcDbSpline
210
0.0
220
0.0
230
1.0
 70
     8
 71
     3
 72
    15
 73
    11
 74
     0
 42
0.0000000087565884
 43
0.0000000001
 40
0.0
 40
0.0
 40
0.0
 40
0.0
 40
0.0288816107474766
 40
0.1512166204534047
 40
0.2650538024933757
 40
0.3786798958198214
 40
0.5009741463409051
 40
0.6443912164579916
 40
0.8313629192844831
 40
1.0
 40
1.0
 40
1.0
 40
1.0
 10
124.6694288763362
 20
575.0160063788667
 30
0.0
 10
124.6840501605053
 20
575.0148457960927
 30
0.0
 10
124.7495713081176
 20
575.0099219837379
 30
0.0
 10
124.8756752621628
 20
575.0471066859308
 30
0.0
 10
125.0101820332348
 20
575.1216003436194
 30
0.0
 10
125.1148575980671
 20
575.2196713103996
 30
0.0
 10
125.1953511094178
 20
575.3315950057478
 30
0.0
 10
125.2617448656717
 20
575.4667371504931
 30
0.0
 10
125.3134083387271
 20
575.6192325208411
 30
0.0
 10
125.3365137440108
 20
575.7345914385542
 30
0.0
 10
125.348792454748
 20
575.7992991444963
 30
0.0
  0
SPLINE
  5
16D
330
76
100
AcDbEntity
  8
$DDT_AUDIT_GENERATED_(141)
  6
Continuous
 62
     7
100
AcDbSpline
210
0.0
220
0.0
230
1.0
 70
     8
 71
     3
 72
    14
 73
    10
 74
     0
 42
0.0000000088174576
 43
0.0000000001
 40
0.0
 40
0.0
 40
0.0
 40
0.0
 40
0.2174878887598563
 40
0.414832801793777
 40
0.5511791784988577
 40
0.6765737840348476
 40
0.7948285432610713
 40
0.9106366627434768
 40
0.964436798981128
 40
0.964436798981128
 40
0.964436798981128
 40
0.964436798981128
 10
75.7286007161236
 20
575.7964753661648
 30
0.0
 10
75.7453830866208
 20
575.7151247510102
 30
0.0
 10
75.7746246980501
 20
575.5840245264214
 30
0.0
 10
75.83678477709205
 20
575.4182677869744
 30
0.0
 10
75.91560075767066
 20
575.280054643653
 30
0.0
 10
76.01237798384092
 20
575.1673885285587
 30
0.0
 10
76.13763418870357
 20
575.0770601400867
 30
0.0
 10
76.2654784634669
 20
575.0256388950188
 30
0.0
 10
76.33966436417852
 20
575.019295071175
 30
0.0
 10
76.36469825821247
 20
575.0183321611222
 30
0.0
  0
LINE
  5
16F
330
76
100
AcDbEntity
  8
$DDT_AUDIT_GENERATED_(16E)
  6
Continuous
 62
     7
100
AcDbLine
 10
124.1885557195
 20
572.9334998207
 30
0.0
 11
76.8899299467
 21
572.9334998207
 31
0.0
  0
LINE
  5
170
330
76
100
AcDbEntity
  8
$DDT_AUDIT_GENERATED_(16E)
  6
Continuous
 62
     7
100
AcDbLine
 10
123.4392428331
 20
572.6599913198
 30
0.0
 11
123.4392428331
 21
572.9334998207
 31
0.0
  0
LINE
  5
171
330
76
100
AcDbEntity
  8
$DDT_AUDIT_GENERATED_(16E)
  6
Continuous
 62
     7
100
AcDbLine
 10
77.6392428331
 20
572.9334998207
 30
0.0
 11
77.6392428331
 21
572.6599651854
 31
0.0
  0
ARC
  5
172
330
76
100
AcDbEntity
  8
$DDT_AUDIT_GENERATED_(16E)
  6
Continuous
 62
     7
100
AcDbCircle
 10
100.5392428331
 20
566.5334998207
 30
0.0
 40
24.5
100
AcDbArc
 50
159.7325936429
 51
164.8572685595
  0
ARC
  5
173
330
76
100
AcDbEntity
  8
$DDT_AUDIT_GENERATED_(16E)
  6
Continuous
 62
     7
100
AcDbCircle
 10
100.5392428331
 20
566.5334998207
 30
0.0
 40
24.5
100
AcDbArc
 50
15.1427314405
 51
20.2643559535
  0
ENDBLK
  5
175
330
76
100
AcDbEntity
  8
0
100
AcDbBlockEnd
  0
BLOCK
  5
1E3
330
176
100
AcDbEntity
  8
0
100
AcDbBlockBegin
  2
SE1
 70
     0
 10
0.0
 20
0.0
 30
0.0
  3
SE1
  1

  0
LINE
  5
178
330
176
100
AcDbEntity
  8
$DDT_AUDIT_GENERATED_(78)
  6
Continuous
 62
     7
100
AcDbLine
 10
274.8479856261
 20
461.7334998207
 30
0.0
 11
274.8479856261
 21
537.1467641104
 31
0.0
  0
LINE
  5
179
330
176
100
AcDbEntity
  8
$DDT_AUDIT_GENERATED_(78)
  6
Continuous
 62
     7
100
AcDbLine
 10
274.8479856261
 20
461.7334998216
 30
0.0
 11
224.8479857863
 21
461.7334998216
 31
0.0
  0
LINE
  5
17A
330
176
100
AcDbEntity
  8
$DDT_AUDIT_GENERATED_(78)
  6
Continuous
 62
     7
100
AcDbLine
 10
366.8140172586
 20
558.001653523
 30
0.0
 11
366.8140179256
 21
563.2446371074
 31
0.0
  0
SPLINE
  5
17B
330
176
100
AcDbEntity
  8
$DDT_AUDIT_GENERATED_(78)
  6
Continuous
 62
     7
100
AcDbSpline
210
0.0
220
0.0
230
1.0
 70
    12
 71
     2
 72
     6
 73
     3
 74
     0
 42
0.0000000185410844
 43
0.0000000001
 40
0.0
 40
0.0
 40
0.0
 40
1.0
 40
1.0
 40
1.0
 10
366.8140172585579
 20
558.0016535230019
 30
0.0
 41
1.0
 10
366.8140172242471
 20
557.7319821366824
 30
0.0
 41
0.9270542322225428
 10
366.6265535653928
 20
557.5381264265696
 30
0.0
 41
1.0
  0
ARC
  5
17C
330
176
100
AcDbEntity
  8
$DDT_AUDIT_GENERATED_(78)
  6
Continuous
 62
     7
100
AcDbCircle
 10
270.4315693876
 20
-22.2793628684
 30
0.0
 40
588.2309361482162
100
AcDbArc
 50
80.5694849708
 51
89.9707555854
  0
SPLINE
  5
17D
330
176
100
AcDbEntity
  8
$DDT_AUDIT_GENERATED_(78)
  6
Continuous
 62
     7
100
AcDbSpline
210
0.0
220
0.0
230
1.0
 70
     8
 71
     3
 72
    11
 73
     7
 74
     0
 42
0.0000000001927501
 43
0.0000000001
 40
0.0
 40
0.0
 40
0.0
 40
0.0
 40
0.4132184010677707
 40
0.5624614387361929
 40
0.8609475140730374
 40
1.0
 40
1.0
 40
1.0
 40
1.0
 10
286.6231695768683
 20
549.1446579982008
 30
0.0
 10
295.1161668756546
 20
549.3037994372467
 30
0.0
 10
306.0508418975951
 20
549.1954111434529
 30
0.0
 10
321.1711966970154
 20
548.4738881878928
 30
0.0
 10
331.2601596444215
 20
548.0477030613741
 30
0.0
 10
336.6412134655102
 20
546.6570606028321
 30
0.0
 10
338.2288900272017
 20
546.180781149575
 30
0.0
  0
ARC
  5
17E
330
176
100
AcDbEntity
  8
$DDT_AUDIT_GENERATED_(78)
  6
Continuous
 62
     7
100
AcDbCircle
 10
267.460530916
 20
5435.5128694123
 30
0.0
 40
4869.562471546253
100
AcDbArc
 50
269.959267836
 51
270.038490203
  0
SPLINE
  5
17F
330
176
100
AcDbEntity
  8
$DDT_AUDIT_GENERATED_(78)
  6
Continuous
 62
     7
100
AcDbSpline
210
0.0
220
0.0
230
1.0
 70
     8
 71
     3
 72
    14
 73
    10
 74
     0
 42
0.000000000533588
 43
0.0000000001
 40
0.0
 40
0.0
 40
0.0
 40
0.0
 40
0.25
 40
0.25
 40
0.5
 40
0.5
 40
0.75
 40
0.75
 40
1.0
 40
1.0
 40
1.0
 40
1.0
 10
286.6231695768683
 20
549.1446579982008
 30
0.0
 10
285.0713814180902
 20
549.1155806545971
 30
0.0
 10
283.5258862506181
 20
548.781735005079
 30
0.0
 10
280.6750269629798
 20
547.5536595804302
 30
0.0
 10
279.3707321542834
 20
546.659890436641
 30
0.0
 10
277.1964450603417
 20
544.4444799645933
 30
0.0
 10
276.3272683152173
 20
543.1236696011736
 30
0.0
 10
275.1528183394465
 20
540.2503030772243
 30
0.0
 10
274.8479856260977
 20
538.6988246702672
 30
0.0
 10
274.8479856260977
 20
537.146764110355
 30
0.0
  0
ARC
  5
180
330
176
100
AcDbEntity
  8
$DDT_AUDIT_GENERATED_(78)
  6
Continuous
 62
     7
100
AcDbCircle
 10
234.871958317
 20
-4123.6391758321
 30
0.0
 40
4696.334634514234
100
AcDbArc
 50
89.6480273103
 51
90.1161934813
  0
ARC
  5
181
330
176
100
AcDbEntity
  8
$DDT_AUDIT_GENERATED_(78)
  6
Continuous
 62
     7
100
AcDbCircle
 10
265.5586615446
 20
-9.3452765619
 30
0.0
 40
581.8869939393725
100
AcDbArc
 50
80.0198919889
 51
89.4898587949
  0
ARC
  5
182
330
176
100
AcDbEntity
  8
$DDT_AUDIT_GENERATED_(78)
  6
Continuous
 62
     7
100
AcDbCircle
 10
256.5281693213
 20
-279.0703747141
 30
0.0
 40
851.7075990586604
100
AcDbArc
 50
89.0439353951
 51
89.5160703666
  0
LINE
  5
183
330
176
100
AcDbEntity
  8
$DDT_AUDIT_GENERATED_(78)
  6
Continuous
 62
     7
100
AcDbLine
 10
224.8479856261
 20
572.1858015727
 30
0.0
 11
224.8479856261
 21
514.9683788042
 31
0.0
  0
ARC
  5
184
330
176
100
AcDbEntity
  8
$DDT_AUDIT_GENERATED_(78)
  6
Continuous
 62
     7
100
AcDbCircle
 10
366.3140179256
 20
563.244637171
 30
0.0
 40
0.5000000000007816
100
AcDbArc
 50
0.0
 51
79.6163539117
  0
SPLINE
  5
185
330
176
100
AcDbEntity
  8
$DDT_AUDIT_GENERATED_(78)
  6
Continuous
 62
     7
100
AcDbSpline
210
0.0
220
0.0
230
1.0
 70
     8
 71
     3
 72
    10
 73
     6
 74
     0
 42
0.0000000124188139
 43
0.0000000001
 40
0.0
 40
0.0
 40
0.0
 40
0.0
 40
0.5
 40
0.5
 40
1.0
 40
1.0
 40
1.0
 40
1.0
 10
225.3479916088995
 20
572.6858015726917
 30
0.0
 10
225.2170909178757
 20
572.6858031389976
 30
0.0
 10
225.0869956708133
 20
572.6319172910717
 30
0.0
 10
224.901873030688
 20
572.4467968660372
 30
0.0
 10
224.8479856260978
 20
572.3167022637607
 30
0.0
 10
224.8479856260978
 20
572.1858015727275
 30
0.0
  0
SPLINE
  5
186
330
176
100
AcDbEntity
  8
$DDT_AUDIT_GENERATED_(78)
  6
Continuous
 62
     7
100
AcDbSpline
210
0.0
220
0.0
230
1.0
 70
     8
 71
     3
 72
     9
 73
     5
 74
     0
 42
0.0000000020762021
 43
0.0000000001
 40
0.0
 40
0.0
 40
0.0
 40
0.0
 40
0.319233959994293
 40
1.0
 40
1.0
 40
1.0
 40
1.0
 10
362.9362157924615
 20
554.4595629475457
 30
0.0
 10
363.32721671397
 20
554.7376080564328
 30
0.0
 10
364.5662128447218
 20
555.651224760767
 30
0.0
 10
365.8431325089605
 20
556.7279926329945
 30
0.0
 10
366.6265535653928
 20
557.5381264265696
 30
0.0
  0
LINE
  5
187
330
176
100
AcDbEntity
  8
$DDT_AUDIT_GENERATED_(78)
  6
Continuous
 62
     7
100
AcDbLine
 10
224.8479856261
 20
494.2890337891
 30
0.0
 11
224.8479856261
 21
461.7334998207
 31
0.0
  0
ARC
  5
188
330
176
100
AcDbEntity
  8
$DDT_AUDIT_GENERATED_(78)
  6
Continuous
 62
     7
100
AcDbCircle
 10
-83.2296189331
 20
504.6287062966
 30
0.0
 40
308.251065299808
100
AcDbArc
 50
358.0777657852
 51
1.9222342148
  0
ARC
  5
189
330
176
100
AcDbEntity
  8
$DDT_AUDIT_GENERATED_(78)
  6
Continuous
 62
     7
100
AcDbCircle
 10
352.6056608579
 20
605.8195807822
 30
0.0
 40
52.38866096048996
100
AcDbArc
 50
275.4296703467
 51
281.3727246879
  0
SPLINE
  5
18A
330
176
100
AcDbEntity
  8
$DDT_AUDIT_GENERATED_(78)
  6
Continuous
 62
     7
100
AcDbSpline
210
0.0
220
0.0
230
1.0
 70
     8
 71
     3
 72
    14
 73
    10
 74
     0
 42
0.0000000004260284
 43
0.0000000001
 40
0.0
 40
0.0
 40
0.0
 40
0.0
 40
0.0625000000000001
 40
0.0625000000000001
 40
0.1250000000000002
 40
0.1250000000000002
 40
0.1875000000000003
 40
0.1875000000000003
 40
0.226869395697434
 40
0.226869395697434
 40
0.226869395697434
 40
0.226869395697434
 10
357.5628775338558
 20
553.6659826315445
 30
0.0
 10
358.4501979480911
 20
553.7826449298686
 30
0.0
 10
359.2716931773281
 20
553.8688241975797
 30
0.0
 10
360.6696696562923
 20
554.0291221556599
 30
0.0
 10
361.2576784338319
 20
554.1034029735099
 30
0.0
 10
362.1736250595077
 20
554.2416612170036
 30
0.0
 10
362.4888332819713
 20
554.3036405688487
 30
0.0
 10
362.7791224789083
 20
554.3710455969967
 30
0.0
 10
362.8351387638597
 20
554.385944752376
 30
0.0
 10
362.8356692077249
 20
554.3866671382959
 30
0.0
  0
ARC
  5
18B
330
176
100
AcDbEntity
  8
$DDT_AUDIT_GENERATED_(78)
  6
Continuous
 62
     7
100
AcDbCircle
 10
338.3725574624
 20
546.6596962444
 30
0.0
 40
0.4999999999999984
100
AcDbArc
 50
253.3015343142
 51
326.1037806792
  0
SPLINE
  5
18C
330
176
100
AcDbEntity
  8
$DDT_AUDIT_GENERATED_(78)
  6
Continuous
 62
     7
100
AcDbSpline
210
0.0
220
0.0
230
1.0
 70
     8
 71
     3
 72
     8
 73
     4
 74
     0
 42
0.0000000141369565
 43
0.0000000001
 40
0.0
 40
0.0
 40
0.0
 40
0.0
 40
0.1238436856762809
 40
0.1238436856762809
 40
0.1238436856762809
 40
0.1238436856762809
 10
366.7648904617691
 20
563.2469921854739
 30
0.0
 10
366.7681425299665
 20
563.2788342284701
 30
0.0
 10
366.7705977955466
 20
563.3062708087136
 30
0.0
 10
366.7682329729836
 20
563.3342198313251
 30
0.0
  0
SPLINE
  5
18D
330
176
100
AcDbEntity
  8
$DDT_AUDIT_GENERATED_(78)
  6
Continuous
 62
     7
100
AcDbSpline
210
0.0
220
0.0
230
1.0
 70
     8
 71
     3
 72
    11
 73
     7
 74
     0
 42
0.0000000241605241
 43
0.0000000001
 40
0.8735121436733074
 40
0.8735121436733074
 40
0.8735121436733074
 40
0.8735121436733074
 40
0.8769238494565663
 40
0.9293185279899407
 40
0.9715021212740901
 40
1.0
 40
1.0
 40
1.0
 40
1.0
 10
366.4518520380731
 20
563.7231411113979
 30
0.0
 10
366.4512035019659
 20
563.723388367155
 30
0.0
 10
366.4406432690945
 20
563.7273874258489
 30
0.0
 10
366.4235508605497
 20
563.7330873247262
 30
0.0
 10
366.4085062349511
 20
563.7374226934595
 30
0.0
 10
366.4040359346696
 20
563.7385908856434
 30
0.0
 10
366.4020274223541
 20
563.7390997462061
 30
0.0
  0
SPLINE
  5
18E
330
176
100
AcDbEntity
  8
$DDT_AUDIT_GENERATED_(78)
  6
Continuous
 62
     7
100
AcDbSpline
210
0.0
220
0.0
230
1.0
 70
     8
 71
     3
 72
    16
 73
    12
 74
     0
 42
0.0000000149295362
 43
0.0000000001
 40
0.0
 40
0.0
 40
0.0
 40
0.0
 40
0.1229908341123055
 40
0.3368615680552218
 40
0.5139157887472259
 40
0.663537136281401
 40
0.7862296431916461
 40
0.8768040469875218
 40
0.929249726561757
 40
0.9714743814049798
 40
1.0
 40
1.0
 40
1.0
 40
1.0
 10
366.7649167080831
 20
563.2476771208725
 30
0.0
 10
366.7681331282993
 20
563.2792701588107
 30
0.0
 10
366.7747894227646
 20
563.3538283303986
 30
0.0
 10
366.7304604365875
 20
563.4733664332608
 30
0.0
 10
366.6615011271382
 20
563.5794435837654
 30
0.0
 10
366.583738014329
 20
563.6523586058715
 30
0.0
 10
366.5121934815787
 20
563.6977121778956
 30
0.0
 10
366.4558316997113
 20
563.7223224546195
 30
0.0
 10
366.4235508621771
 20
563.7330873245551
 30
0.0
 10
366.4085062346733
 20
563.7374226934891
 30
0.0
 10
366.4040359346685
 20
563.7385908856436
 30
0.0
 10
366.4020274223531
 20
563.7390997462063
 30
0.0
  0
SPLINE
  5
18F
330
176
100
AcDbEntity
  8
$DDT_AUDIT_GENERATED_(78)
  6
Continuous
 62
     7
100
AcDbSpline
210
0.0
220
0.0
230
1.0
 70
     8
 71
     3
 72
    23
 73
    19
 74
     0
 42
0.0000000018062687
 43
0.0000000001
 40
0.0
 40
0.0
 40
0.0
 40
0.0
 40
0.0703965288884602
 40
0.1792604181953257
 40
0.2881300418033145
 40
0.3965737565726069
 40
0.5044937137094365
 40
0.5997336765743397
 40
0.6987975305946612
 40
0.8031736589140884
 40
0.9087739804737036
 40
0.9622732935750161
 40
0.9769837629216228
 40
0.9808656694117707
 40
0.9825599425366772
 40
0.9845690893458436
 40
0.9898866183164357
 40
1.0
 40
1.0
 40
1.0
 40
1.0
 10
357.393435746294
 20
553.5198633458966
 30
0.0
 10
357.6451984457397
 20
553.5545129842337
 30
0.0
 10
358.1870431245928
 20
553.6290932218956
 30
0.0
 10
359.0533841332133
 20
553.7430612282541
 30
0.0
 10
359.9203166972241
 20
553.8567142006306
 30
0.0
 10
360.6867491191721
 20
553.959280293546
 30
0.0
 10
361.3126868119223
 20
554.0480095815544
 30
0.0
 10
361.8123812946152
 20
554.1293654126184
 30
0.0
 10
362.1890774898155
 20
554.1911222466733
 30
0.0
 10
362.4641766198538
 20
554.236435278467
 30
0.0
 10
362.5914369074536
 20
554.2574960809259
 30
0.0
 10
362.6291033243441
 20
554.2640246654871
 30
0.0
 10
362.6355747664232
 20
554.2650695432126
 30
0.0
 10
362.651477778335
 20
554.2681461176903
 30
0.0
 10
362.6683253311888
 20
554.2719838342633
 30
0.0
 10
362.6990074290998
 20
554.2801285069932
 30
0.0
 10
362.7681069846323
 20
554.3036575256231
 30
0.0
 10
362.8146239403083
 20
554.3378864764782
 30
0.0
 10
362.8507526836913
 20
554.364746664681
 30
0.0
  0
SPLINE
  5
190
330
176
100
AcDbEntity
  8
$DDT_AUDIT_GENERATED_(78)
  6
Continuous
 62
     7
100
AcDbSpline
210
0.0
220
0.0
230
1.0
 70
     8
 71
     3
 72
    13
 73
     9
 74
     0
 42
0.0000000012765575
 43
0.0000000001
 40
0.8697160779132277
 40
0.8697160779132277
 40
0.8697160779132277
 40
0.8697160779132277
 40
0.8766452075665182
 40
0.9060440089342815
 40
0.9371485425813814
 40
0.9685897726055355
 40
0.9763214063490767
 40
0.9771964302898365
 40
0.9771964302898365
 40
0.9771964302898365
 40
0.9771964302898365
 10
361.7907981279926
 20
554.1261920565157
 30
0.0
 10
361.8249501424191
 20
554.1318617092006
 30
0.0
 10
361.9983740118614
 20
554.1607609514775
 30
0.0
 10
362.2646327598356
 20
554.2045440696999
 30
0.0
 10
362.5086559602784
 20
554.2447330391371
 30
0.0
 10
362.6065293140211
 20
554.2604535810343
 30
0.0
 10
362.6186108840734
 20
554.2624925853527
 30
0.0
 10
362.6213594685327
 20
554.2628603517456
 30
0.0
 10
362.6215792032856
 20
554.2628889715357
 30
0.0
  0
SPLINE
  5
191
330
176
100
AcDbEntity
  8
$DDT_AUDIT_GENERATED_(78)
  6
Continuous
 62
     7
100
AcDbSpline
210
0.0
220
0.0
230
1.0
 70
     8
 71
     3
 72
     9
 73
     5
 74
     0
 42
0.0000000002444595
 43
0.0000000001
 40
0.988209141110036
 40
0.988209141110036
 40
0.988209141110036
 40
0.988209141110036
 40
0.9889157295997394
 40
0.9903371166871076
 40
0.9903371166871076
 40
0.9903371166871076
 40
0.9903371166871076
 10
362.3879550891073
 20
554.2839138675741
 30
0.0
 10
362.3788303521947
 20
554.2870113658367
 30
0.0
 10
362.351638644262
 20
554.2971312767653
 30
0.0
 10
362.3254424455668
 20
554.309583419957
 30
0.0
 10
362.3084374417779
 20
554.3189066535417
 30
0.0
  0
SPLINE
  5
192
330
176
100
AcDbEntity
  8
$DDT_AUDIT_GENERATED_(78)
  6
Continuous
 62
     7
100
AcDbSpline
210
0.0
220
0.0
230
1.0
 70
     8
 71
     3
 72
    31
 73
    27
 74
     0
 42
0.0000000004774736
 43
0.0000000001
 40
0.0203724307611605
 40
0.0203724307611605
 40
0.0203724307611605
 40
0.0203724307611605
 40
0.028523727841401
 40
0.0527340898964242
 40
0.0911290535752823
 40
0.1342894083260546
 40
0.1781942778907699
 40
0.2218548219684523
 40
0.2670583611527247
 40
0.3140061838677341
 40
0.3611982518355638
 40
0.4076790516272408
 40
0.4527302792768158
 40
0.4959673805026368
 40
0.5374136022302386
 40
0.5773847571465555
 40
0.6182834766512179
 40
0.6607635754034722
 40
0.7047324017115584
 40
0.7499159022588755
 40
0.7958658256734601
 40
0.8419646734286423
 40
0.887516805577882
 40
0.9336923348367598
 40
0.9800709393547998
 40
1.0
 40
1.0
 40
1.0
 40
1.0
 10
338.7581004602145
 20
546.3528563215409
 30
0.0
 10
338.7580146921906
 20
546.3527498674201
 30
0.0
 10
338.7640402578332
 20
546.3594586436333
 30
0.0
 10
338.8016152817254
 20
546.3995045773231
 30
0.0
 10
338.9130915022365
 20
546.5156282633865
 30
0.0
 10
339.1256357795455
 20
546.7337612779751
 30
0.0
 10
339.4358237187693
 20
547.0480284128046
 30
0.0
 10
339.8371559184791
 20
547.4518663576995
 30
0.0
 10
340.3292902176183
 20
547.9272830402354
 30
0.0
 10
340.9268852742127
 20
548.4645994106347
 30
0.0
 10
341.6280383560405
 20
549.0365722716854
 30
0.0
 10
342.4200940154113
 20
549.6092309392186
 30
0.0
 10
343.2884020383082
 20
550.1522527338407
 30
0.0
 10
344.2170551315756
 20
550.6423362112292
 30
0.0
 10
345.194549338767
 20
551.0606830196912
 30
0.0
 10
346.2221116099839
 20
551.4198601051044
 30
0.0
 10
347.3070640490458
 20
551.7365512069696
 30
0.0
 10
348.462492470784
 20
552.0213086472934
 30
0.0
 10
349.6784040195307
 20
552.278406480946
 30
0.0
 10
350.93387265299
 20
552.5117106575578
 30
0.0
 10
352.202573462295
 20
552.725575433521
 30
0.0
 10
353.4511962033376
 20
552.9275447377091
 30
0.0
 10
354.6696992846259
 20
553.1182074813145
 30
0.0
 10
355.8303784738659
 20
553.292303106228
 30
0.0
 10
356.769109215578
 20
553.4287214554286
 30
0.0
 10
357.2330394861922
 20
553.4935962556692
 30
0.0
 10
357.3962834224483
 20
553.5163858054018
 30
0.0
  0
LINE
  5
193
330
176
100
AcDbEntity
  8
02636038_GEHÄUSE
  6
Continuous
 62
     7
100
AcDbLine
 10
362.5688303756
 20
548.8903861841
 30
0.0
 11
342.3654390288
 21
541.5369531026
 31
0.0
  0
SPLINE
  5
194
330
176
100
AcDbEntity
  8
02636038_GEHÄUSE
  6
Continuous
 62
     7
100
AcDbSpline
210
0.0
220
0.0
230
1.0
 70
     8
 71
     3
 72
    10
 73
     6
 74
     0
 42
0.0000000019260148
 43
0.0000000001
 40
0.0
 40
0.0
 40
0.0
 40
0.0
 40
0.5
 40
0.5
 40
1.0
 40
1.0
 40
1.0
 40
1.0
 10
354.7890469082069
 20
546.3966984007994
 30
0.0
 10
354.0177114935042
 20
545.9946850852559
 30
0.0
 10
353.2277345131128
 20
545.644095404666
 30
0.0
 10
351.6073821610916
 20
545.0543569041105
 30
0.0
 10
350.7770073336305
 20
544.8152065830304
 30
0.0
 10
349.9280105321927
 20
544.627425852245
 30
0.0
  0
LINE
  5
195
330
176
100
AcDbEntity
  8
02636038_GEHÄUSE
  6
Continuous
 62
     7
100
AcDbLine
 10
355.4543429302
 20
549.4934578393
 30
0.0
 11
347.4278056142
 21
546.5720371721
 31
0.0
  0
LINE
  5
196
330
176
100
AcDbEntity
  8
02636038_GEHÄUSE
  6
Continuous
 62
     7
100
AcDbLine
 10
355.4543429302
 20
549.4934578393
 30
0.0
 11
356.0755992455
 21
547.7865701415
 31
0.0
  0
SPLINE
  5
197
330
176
100
AcDbEntity
  8
02636038_GEHÄUSE
  6
Continuous
 62
     7
100
AcDbSpline
210
0.0
220
0.0
230
1.0
 70
     8
 71
     3
 72
    14
 73
    10
 74
     0
 42
0.0000000049320844
 43
0.0000000001
 40
0.0
 40
0.0
 40
0.0
 40
0.0
 40
0.1249999999999997
 40
0.1249999999999997
 40
0.2499999999999994
 40
0.2499999999999994
 40
0.4999999999999996
 40
0.4999999999999996
 40
1.0
 40
1.0
 40
1.0
 40
1.0
 10
356.0755992454688
 20
547.7865701414952
 30
0.0
 10
356.104474361383
 20
547.7072364125369
 30
0.0
 10
356.1029837867364
 20
547.6172581290487
 30
0.0
 10
356.0605446560309
 20
547.4536998179011
 30
0.0
 10
356.0213927379409
 20
547.3766413539316
 30
0.0
 10
355.882933703134
 20
547.1654360287374
 30
0.0
 10
355.7607698996367
 20
547.0450002300098
 30
0.0
 10
355.37697594962
 20
546.7229583103879
 30
0.0
 10
355.0852867718383
 20
546.551096043517
 30
0.0
 10
354.7890469082069
 20
546.3966984007994
 30
0.0
  0
SPLINE
  5
198
330
176
100
AcDbEntity
  8
02636038_GEHÄUSE
  6
Continuous
 62
     7
100
AcDbSpline
210
0.0
220
0.0
230
1.0
 70
     8
 71
     3
 72
    14
 73
    10
 74
     0
 42
0.0000000049319876
 43
0.0000000001
 40
0.0
 40
0.0
 40
0.0
 40
0.0
 40
0.4999999999999996
 40
0.4999999999999996
 40
0.7499999999999993
 40
0.7499999999999993
 40
0.8749999999999997
 40
0.8749999999999997
 40
1.0
 40
1.0
 40
1.0
 40
1.0
 10
349.9280105321927
 20
544.627425852245
 30
0.0
 10
349.6004331320215
 20
544.5549724301723
 30
0.0
 10
349.2691691661943
 20
544.499387837151
 30
0.0
 10
348.7656242563492
 20
544.4994694717924
 30
0.0
 10
348.5960569791097
 20
544.5133238775692
 30
0.0
 10
348.3557285093552
 20
544.5853789455914
 30
0.0
 10
348.2757433884094
 20
544.6191633129664
 30
0.0
 10
348.1372601176965
 20
544.7174296987196
 30
0.0
 10
348.0780739568723
 20
544.7854395840848
 30
0.0
 10
348.0490619294787
 20
544.8651494742479
 30
0.0
  0
LINE
  5
199
330
176
100
AcDbEntity
  8
02636038_GEHÄUSE
  6
Continuous
 62
     7
100
AcDbLine
 10
348.0490619295
 20
544.8651494742
 30
0.0
 11
347.4278056142
 21
546.5720371721
 31
0.0
  0
LINE
  5
19A
330
176
100
AcDbEntity
  8
02636038_GEHÄUSE
  6
Continuous
 62
     7
100
AcDbLine
 10
341.7400021053
 20
541.6472345069
 30
0.0
 11
342.3654390288
 21
541.5369531026
 31
0.0
  0
LINE
  5
19B
330
176
100
AcDbEntity
  8
02636038_GEHÄUSE
  6
Continuous
 62
     7
100
AcDbLine
 10
362.5688303756
 20
548.8903861841
 30
0.0
 11
362.9770553351
 21
549.3768897461
 31
0.0
  0
ARC
  5
19C
330
176
100
AcDbEntity
  8
02636038_GEHÄUSE
  6
Continuous
 62
     7
100
AcDbCircle
 10
362.211010892
 20
550.0196773558
 30
0.0
 40
1.000000000000005
100
AcDbArc
 50
320.0
 51
20.0
  0
ARC
  5
19D
330
176
100
AcDbEntity
  8
02636038_GEHÄUSE
  6
Continuous
 62
     7
100
AcDbCircle
 10
341.913650283
 20
542.63204226
 30
0.0
 40
0.9999999999999931
100
AcDbArc
 50
200.0
 51
260.0
  0
LINE
  5
19E
330
176
100
AcDbEntity
  8
02636038_GEHÄUSE
  6
Continuous
 62
     7
100
AcDbLine
 10
339.2944798646
 20
546.9043494421
 30
0.0
 11
340.9739576622
 21
542.2900221166
 31
0.0
  0
LINE
  5
19F
330
176
100
AcDbEntity
  8
02636038_GEHÄUSE
  6
Continuous
 62
     7
100
AcDbLine
 10
363.1507035127
 20
550.3616974991
 30
0.0
 11
361.7811988551
 21
554.1243806218
 31
0.0
  0
LINE
  5
1A0
330
176
100
AcDbEntity
  8
$DDT_AUDIT_GENERATED_(B3)
  6
Continuous
 62
     7
100
AcDbLine
 10
361.8982629244
 20
548.5399018145
 30
0.0
 11
343.1044105087
 21
541.699498948
 31
0.0
  0
LINE
  5
1A1
330
176
100
AcDbEntity
  8
$DDT_AUDIT_GENERATED_(B3)
  6
Continuous
 62
     7
100
AcDbLine
 10
352.5184377237
 20
545.0727157502
 30
0.0
 11
353.4581303445
 21
545.4147358936
 31
0.0
  0
LINE
  5
1A2
330
176
100
AcDbEntity
  8
$DDT_AUDIT_GENERATED_(B3)
  6
Continuous
 62
     7
100
AcDbLine
 10
353.4581303445
 20
545.4147358936
 30
0.0
 11
354.2960796956
 21
543.1124889726
 31
0.0
  0
LINE
  5
1A3
330
176
100
AcDbEntity
  8
$DDT_AUDIT_GENERATED_(B3)
  6
Continuous
 62
     7
100
AcDbLine
 10
354.2960796956
 20
543.1124889726
 30
0.0
 11
358.3385236332
 21
544.5838182396
 31
0.0
  0
LINE
  5
1A4
330
176
100
AcDbEntity
  8
$DDT_AUDIT_GENERATED_(B3)
  6
Continuous
 62
     7
100
AcDbLine
 10
358.3385236332
 20
544.5838182396
 30
0.0
 11
358.4460200067
 21
547.2301792624
 31
0.0
  0
LINE
  5
1A5
330
176
100
AcDbEntity
  8
$DDT_AUDIT_GENERATED_(B3)
  6
Continuous
 62
     7
100
AcDbLine
 10
358.4460200067
 20
547.2301792624
 30
0.0
 11
359.7749460555
 21
547.7138687877
 31
0.0
  0
LINE
  5
1A6
330
176
100
AcDbEntity
  8
$DDT_AUDIT_GENERATED_(B3)
  6
Continuous
 62
     7
100
AcDbLine
 10
359.7749460555
 20
547.7138687877
 30
0.0
 11
359.667449682
 21
545.0675077649
 31
0.0
  0
LINE
  5
1A7
330
176
100
AcDbEntity
  8
$DDT_AUDIT_GENERATED_(B3)
  6
Continuous
 62
     7
100
AcDbLine
 10
359.667449682
 20
545.0675077649
 30
0.0
 11
361.3418847861
 21
545.676952302
 31
0.0
  0
LINE
  5
1A8
330
176
100
AcDbEntity
  8
$DDT_AUDIT_GENERATED_(B3)
  6
Continuous
 62
     7
100
AcDbLine
 10
361.3418847861
 20
545.676952302
 30
0.0
 11
361.8409976012
 21
548.4658500528
 31
0.0
  0
LINE
  5
1A9
330
176
100
AcDbEntity
  8
$DDT_AUDIT_GENERATED_(B3)
  6
Continuous
 62
     7
100
AcDbLine
 10
361.8409976012
 20
548.4658500528
 30
0.0
 11
361.8882373422
 21
548.4830439124
 31
0.0
  0
LINE
  5
1AA
330
176
100
AcDbEntity
  8
$DDT_AUDIT_GENERATED_(B3)
  6
Continuous
 62
     7
100
AcDbLine
 10
343.1958778462
 20
541.6795814477
 30
0.0
 11
343.1486381052
 21
541.6623875881
 31
0.0
  0
LINE
  5
1AB
330
176
100
AcDbEntity
  8
$DDT_AUDIT_GENERATED_(B3)
  6
Continuous
 62
     7
100
AcDbLine
 10
343.1958778462
 20
541.6795814477
 30
0.0
 11
345.3708893636
 21
539.8639853566
 31
0.0
  0
LINE
  5
1AC
330
176
100
AcDbEntity
  8
$DDT_AUDIT_GENERATED_(B3)
  6
Continuous
 62
     7
100
AcDbLine
 10
345.3708893636
 20
539.8639853566
 30
0.0
 11
347.0453244677
 21
540.4734298937
 31
0.0
  0
LINE
  5
1AD
330
176
100
AcDbEntity
  8
$DDT_AUDIT_GENERATED_(B3)
  6
Continuous
 62
     7
100
AcDbLine
 10
347.0453244677
 20
540.4734298937
 30
0.0
 11
345.2619293919
 21
542.4315627128
 31
0.0
  0
LINE
  5
1AE
330
176
100
AcDbEntity
  8
$DDT_AUDIT_GENERATED_(B3)
  6
Continuous
 62
     7
100
AcDbLine
 10
345.2619293919
 20
542.4315627128
 30
0.0
 11
346.5908554407
 21
542.9152522381
 31
0.0
  0
LINE
  5
1AF
330
176
100
AcDbEntity
  8
$DDT_AUDIT_GENERATED_(B3)
  6
Continuous
 62
     7
100
AcDbLine
 10
346.5908554407
 20
542.9152522381
 30
0.0
 11
348.3742505164
 21
540.957119419
 31
0.0
  0
LINE
  5
1B0
330
176
100
AcDbEntity
  8
$DDT_AUDIT_GENERATED_(B3)
  6
Continuous
 62
     7
100
AcDbLine
 10
348.3742505164
 20
540.957119419
 30
0.0
 11
352.4166944541
 21
542.428448686
 31
0.0
  0
LINE
  5
1B1
330
176
100
AcDbEntity
  8
$DDT_AUDIT_GENERATED_(B3)
  6
Continuous
 62
     7
100
AcDbLine
 10
352.4166944541
 20
542.428448686
 30
0.0
 11
351.5787451029
 21
544.7306956069
 31
0.0
  0
LINE
  5
1B2
330
176
100
AcDbEntity
  8
$DDT_AUDIT_GENERATED_(B3)
  6
Continuous
 62
     7
100
AcDbLine
 10
351.5787451029
 20
544.7306956069
 30
0.0
 11
352.5184377237
 21
545.0727157502
 31
0.0
  0
LINE
  5
1B3
330
176
100
AcDbEntity
  8
$DDT_AUDIT_GENERATED_(B3)
  6
Continuous
 62
     7
100
AcDbLine
 10
359.667449682
 20
545.0675077649
 30
0.0
 11
359.4622505501
 21
544.9928213888
 31
0.0
  0
LINE
  5
1B4
330
176
100
AcDbEntity
  8
$DDT_AUDIT_GENERATED_(B3)
  6
Continuous
 62
     7
100
AcDbLine
 10
347.2505235996
 20
540.5481162698
 30
0.0
 11
347.0453244677
 21
540.4734298937
 31
0.0
  0
LINE
  5
1B5
330
176
100
AcDbEntity
  8
$DDT_AUDIT_GENERATED_(B3)
  6
Continuous
 62
     7
100
AcDbLine
 10
346.4125742484
 20
542.8503631908
 30
0.0
 11
347.2505235996
 21
540.5481162698
 31
0.0
  0
LINE
  5
1B6
330
176
100
AcDbEntity
  8
$DDT_AUDIT_GENERATED_(B3)
  6
Continuous
 62
     7
100
AcDbLine
 10
359.4622505501
 20
544.9928213888
 30
0.0
 11
358.624301199
 21
547.2950683097
 31
0.0
  0
LINE
  5
1B7
330
176
100
AcDbEntity
  8
$DDT_AUDIT_GENERATED_(B3)
  6
Continuous
 62
     7
100
AcDbLine
 10
354.2960796956
 20
543.1124889726
 30
0.0
 11
352.4166944541
 21
542.428448686
 31
0.0
  0
LINE
  5
1B8
330
176
100
AcDbEntity
  8
$DDT_AUDIT_GENERATED_(B3)
  6
Continuous
 62
     7
100
AcDbLine
 10
361.8982629244
 20
548.5399018145
 30
0.0
 11
361.8640609101
 21
548.6338710766
 31
0.0
  0
LINE
  5
1B9
330
176
100
AcDbEntity
  8
$DDT_AUDIT_GENERATED_(B3)
  6
Continuous
 62
     7
100
AcDbLine
 10
343.0702084943
 20
541.7934682101
 30
0.0
 11
343.1044105087
 21
541.699498948
 31
0.0
  0
LINE
  5
1BA
330
176
100
AcDbEntity
  8
$DDT_AUDIT_GENERATED_(B3)
  6
Continuous
 62
     7
100
AcDbLine
 10
343.1044105087
 20
541.699498948
 30
0.0
 11
343.1486381052
 21
541.6623875881
 31
0.0
  0
LINE
  5
1BB
330
176
100
AcDbEntity
  8
$DDT_AUDIT_GENERATED_(B3)
  6
Continuous
 62
     7
100
AcDbLine
 10
361.8882373422
 20
548.4830439124
 30
0.0
 11
361.8982629244
 21
548.5399018145
 31
0.0
  0
ARC
  5
1BC
330
176
100
AcDbEntity
  8
$DDT_AUDIT_GENERATED_(141)
  6
Continuous
 62
     7
100
AcDbCircle
 10
344.5309760201
 20
48.3678868826
 30
0.0
 40
566.7809805239682
100
AcDbArc
 50
89.7122744161
 51
97.2959369104
  0
ARC
  5
1BD
330
176
100
AcDbEntity
  8
$DDT_AUDIT_GENERATED_(141)
  6
Continuous
 62
     7
100
AcDbCircle
 10
266.6756109126
 20
649.7244605009
 30
0.0
 40
38.60681730028129
100
AcDbArc
 50
272.0764728332
 51
278.5844290082
  0
ARC
  5
1BE
330
176
100
AcDbEntity
  8
$DDT_AUDIT_GENERATED_(141)
  6
Continuous
 62
     7
100
AcDbCircle
 10
348.0333824362
 20
5.9556761626
 30
0.0
 40
610.2944041168956
100
AcDbArc
 50
89.983838432
 51
97.1153051899
  0
ARC
  5
1BF
330
176
100
AcDbEntity
  8
$DDT_AUDIT_GENERATED_(141)
  6
Continuous
 62
     7
100
AcDbCircle
 10
348.0333824362
 20
5.9556761626
 30
0.0
 40
610.2944041168956
100
AcDbArc
 50
89.9838147646
 51
89.983838432
  0
ARC
  5
1C0
330
176
100
AcDbEntity
  8
$DDT_AUDIT_GENERATED_(141)
  6
Continuous
 62
     7
100
AcDbCircle
 10
272.370582471
 20
626.2348379664
 30
0.0
 40
15.69141078308127
100
AcDbArc
 50
254.1102112234
 51
270.1482574982
  0
ARC
  5
1C1
330
176
100
AcDbEntity
  8
$DDT_AUDIT_GENERATED_(141)
  6
Continuous
 62
     7
100
AcDbCircle
 10
338.504494036
 20
118.5641592429
 30
0.0
 40
500.366916105466
100
AcDbArc
 50
88.9749597567
 51
97.5944106051
  0
ARC
  5
1C2
330
176
100
AcDbEntity
  8
$DDT_AUDIT_GENERATED_(141)
  6
Continuous
 62
     7
100
AcDbCircle
 10
359.2721879114
 20
-78.8510433204
 30
0.0
 40
698.8168128381402
100
AcDbArc
 50
97.143068712
 51
97.534151279
  0
ARC
  5
1C3
330
176
100
AcDbEntity
  8
$DDT_AUDIT_GENERATED_(141)
  6
Continuous
 62
     7
100
AcDbCircle
 10
393.1631921884
 20
-317.3769805547
 30
0.0
 40
939.7300917880057
100
AcDbArc
 50
97.6758214719
 51
100.2900000817
  0
LINE
  5
1C4
330
176
100
AcDbEntity
  8
$DDT_AUDIT_GENERATED_(141)
  6
Continuous
 62
     7
100
AcDbLine
 10
252.5149415868
 20
575.4676388967
 30
0.0
 11
225.1211470429
 21
592.5851815397
 31
0.0
  0
LINE
  5
1C5
330
176
100
AcDbEntity
  8
$DDT_AUDIT_GENERATED_(141)
  6
Continuous
 62
     7
100
AcDbLine
 10
257.8128745693
 20
575.0117831852
 30
0.0
 11
274.3882919106
 21
575.0117831852
 31
0.0
  0
SPLINE
  5
1C6
330
176
100
AcDbEntity
  8
$DDT_AUDIT_GENERATED_(141)
  6
Continuous
 62
     7
100
AcDbSpline
210
0.0
220
0.0
230
1.0
 70
     8
 71
     3
 72
     8
 73
     4
 74
     0
 42
0.0000000026978277
 43
0.0000000001
 40
0.0
 40
0.0
 40
0.0
 40
0.0
 40
1.0
 40
1.0
 40
1.0
 40
1.0
 10
254.1061886180736
 20
575.0118541254834
 30
0.0
 10
255.3659391060126
 20
575.0118393226111
 30
0.0
 10
256.6046268649119
 20
575.0117831852093
 30
0.0
 10
257.812874569649
 20
575.0117831852093
 30
0.0
  0
ARC
  5
1C7
330
176
100
AcDbEntity
  8
$DDT_AUDIT_GENERATED_(141)
  6
Continuous
 62
     7
100
AcDbCircle
 10
254.1080252856
 20
578.0207516619
 30
0.0
 40
3.009368781478151
100
AcDbArc
 50
238.036784378
 51
261.2692185896
  0
LINE
  5
1C8
330
176
100
AcDbEntity
  8
$DDT_AUDIT_GENERATED_(141)
  6
Continuous
 62
     7
100
AcDbLine
 10
253.6512276194
 20
575.0462539976
 30
0.0
 11
254.1061886181
 21
575.0118541255
 31
0.0
  0
ARC
  5
1C9
330
176
100
AcDbEntity
  8
$DDT_AUDIT_GENERATED_(141)
  6
Continuous
 62
     7
100
AcDbCircle
 10
302.9964182217
 20
588.2036431573
 30
0.0
 40
28.35820530819487
100
AcDbArc
 50
172.2980508954
 51
187.6620053076
  0
LINE
  5
1CA
330
176
100
AcDbEntity
  8
$DDT_AUDIT_GENERATED_(141)
  6
Continuous
 62
     7
100
AcDbLine
 10
348.2053690015
 20
616.2534169902
 30
0.0
 11
347.9392378811
 21
618.4208805103
 31
0.0
  0
SPLINE
  5
1CB
330
176
100
AcDbEntity
  8
$DDT_AUDIT_GENERATED_(141)
  6
Continuous
 62
     7
100
AcDbSpline
210
0.0
220
0.0
230
1.0
 70
     8
 71
     3
 72
    33
 73
    29
 74
     0
 42
0.0000000001411287
 43
0.0000000001
 40
0.0
 40
0.0
 40
0.0
 40
0.0
 40
0.0169151372584811
 40
0.1051717963623164
 40
0.1870452719308863
 40
0.2619180388671946
 40
0.3302488807242754
 40
0.3925257467249996
 40
0.4492354590092247
 40
0.5090028977456532
 40
0.5623453233242912
 40
0.6093726723531169
 40
0.6501650307081044
 40
0.6848033218346578
 40
0.7134779563197446
 40
0.7397939861248903
 40
0.7618836214810041
 40
0.7817103842686549
 40
0.801186735148402
 40
0.8215783215885976
 40
0.8436809213263071
 40
0.8599272356374651
 40
0.8775496487046255
 40
0.8968612575505999
 40
0.9186555058324704
 40
0.9439306436988147
 40
0.9736926384193489
 40
1.0
 40
1.0
 40
1.0
 40
1.0
 10
276.6825401024431
 20
610.5389862883574
 30
0.0
 10
277.1192295892565
 20
610.5882577225638
 30
0.0
 10
279.4465214732564
 20
610.8506050941988
 30
0.0
 10
283.9811978643218
 20
611.314350100188
 30
0.0
 10
289.6932498568522
 20
611.8704043746495
 30
0.0
 10
294.9992468466194
 20
612.3454078826607
 30
0.0
 10
299.8335078363494
 20
612.7427292581342
 30
0.0
 10
304.2459941594267
 20
613.0725566457539
 30
0.0
 10
308.4581897203426
 20
613.35688752275
 30
0.0
 10
312.4618537555395
 20
613.598550276591
 30
0.0
 10
316.2387527739992
 20
613.7991223590908
 30
0.0
 10
319.5695364936211
 20
613.947411420936
 30
0.0
 10
322.460161908105
 20
614.0465403318407
 30
0.0
 10
324.9184704855141
 20
614.1002318474975
 30
0.0
 10
327.0354619057185
 20
614.1106039420781
 30
0.0
 10
328.8559023909879
 20
614.08301609293
 30
0.0
 10
330.4666047396871
 20
614.0297524106463
 30
0.0
 10
331.9154734390487
 20
613.972493445074
 30
0.0
 10
333.3249858251332
 20
613.9359734404565
 30
0.0
 10
334.7887784837347
 20
613.9323351925457
 30
0.0
 10
336.1759422156877
 20
613.9637871265875
 30
0.0
 10
337.496696172201
 20
614.0207927858755
 30
0.0
 10
338.7507006373085
 20
614.0947467171994
 30
0.0
 10
340.1337041302505
 20
614.1957347770528
 30
0.0
 10
341.6968152657333
 20
614.3423984392142
 30
0.0
 10
343.4897359406432
 20
614.5537320470331
 30
0.0
 10
345.4330055729939
 20
614.8257799080869
 30
0.0
 10
346.6459760694131
 20
615.0249139848823
 30
0.0
 10
347.3202400797805
 20
615.1367333171262
 30
0.0
  0
ARC
  5
1CC
330
176
100
AcDbEntity
  8
$DDT_AUDIT_GENERATED_(141)
  6
Continuous
 62
     7
100
AcDbCircle
 10
347.2194204473
 20
616.1242216823
 30
0.0
 40
0.9857992657057485
100
AcDbArc
 50
284.3299401873
 51
7.8024753466
  0
ARC
  5
1CD
330
176
100
AcDbEntity
  8
$DDT_AUDIT_GENERATED_(141)
  6
Continuous
 62
     7
100
AcDbCircle
 10
276.8998110748
 20
608.5549088079
 30
0.0
 40
2.000000000000804
100
AcDbArc
 50
96.2192249063
 51
180.0053963686
  0
SPLINE
  5
1CE
330
176
100
AcDbEntity
  8
$DDT_AUDIT_GENERATED_(141)
  6
Continuous
 62
     7
100
AcDbSpline
210
0.0
220
0.0
230
1.0
 70
     8
 71
     3
 72
    13
 73
     9
 74
     0
 42
0.0000000166430782
 43
0.0000000001
 40
0.0
 40
0.0
 40
0.0
 40
0.0
 40
0.0947816879231541
 40
0.3586139303317357
 40
0.575117519634417
 40
0.7582305966604777
 40
0.9098829168855763
 40
1.0
 40
1.0
 40
1.0
 40
1.0
 10
347.9228477712018
 20
618.4159341090448
 30
0.0
 10
347.922492791696
 20
618.4366226701487
 30
0.0
 10
347.9207981214489
 20
618.5039453773243
 30
0.0
 10
347.866963363479
 20
618.6130306567483
 30
0.0
 10
347.7845667693172
 20
618.7154420123611
 30
0.0
 10
347.6967225305507
 20
618.7811847446981
 30
0.0
 10
347.6184628190112
 20
618.8191971177866
 30
0.0
 10
347.5761679707963
 20
618.8307300530754
 30
0.0
 10
347.557633310652
 20
618.8355945858394
 30
0.0
  0
ARC
  5
1CF
330
176
100
AcDbEntity
  8
$DDT_AUDIT_GENERATED_(141)
  6
Continuous
 62
     7
100
AcDbCircle
 10
225.3861013399
 20
606.7463983414
 30
0.0
 40
0.4999999999974536
100
AcDbArc
 50
100.1871401966
 51
179.8800542621
  0
LINE
  5
1D0
330
176
100
AcDbEntity
  8
$DDT_AUDIT_GENERATED_(141)
  6
Continuous
 62
     7
100
AcDbLine
 10
274.8940424597
 20
592.004206909
 30
0.0
 11
274.8998111962
 21
608.5556057701
 31
0.0
  0
LINE
  5
1D1
330
176
100
AcDbEntity
  8
$DDT_AUDIT_GENERATED_(141)
  6
Continuous
 62
     7
100
AcDbLine
 10
274.8882942148
 20
575.5116020223
 30
0.0
 11
274.8914108642
 21
584.4537517377
 31
0.0
  0
LINE
  5
1D2
330
176
100
AcDbEntity
  8
$DDT_AUDIT_GENERATED_(141)
  6
Continuous
 62
     7
100
AcDbLine
 10
224.8861013398
 20
606.747317976
 30
0.0
 11
224.8861013398
 21
593.0071209006
 31
0.0
  0
ARC
  5
1D3
330
176
100
AcDbEntity
  8
$DDT_AUDIT_GENERATED_(141)
  6
Continuous
 62
     7
100
AcDbCircle
 10
225.3861015575
 20
593.0092087772
 30
0.0
 40
0.4999999929009562
100
AcDbArc
 50
180.249722699
 51
238.0008525829
  0
ARC
  5
1D4
330
176
100
AcDbEntity
  8
$DDT_AUDIT_GENERATED_(141)
  6
Continuous
 62
     7
100
AcDbCircle
 10
274.3882942476
 20
575.5117831852
 30
0.0
 40
0.4999999999999036
100
AcDbArc
 50
270.0000000805
 51
0.3922396828
  0
LINE
  5
1D6
330
176
100
AcDbEntity
  8
$DDT_AUDIT_GENERATED_(1D5)
  6
Continuous
 62
     7
100
AcDbLine
 10
217.511018434
 20
522.4097102648
 30
0.0
 11
206.140646018
 21
522.4097102648
 31
0.0
  0
LINE
  5
1D7
330
176
100
AcDbEntity
  8
$DDT_AUDIT_GENERATED_(1D5)
  6
Continuous
 62
     7
100
AcDbLine
 10
206.140646018
 20
518.4097102648
 30
0.0
 11
217.511018434
 21
518.4097102648
 31
0.0
  0
ARC
  5
1D8
330
176
100
AcDbEntity
  8
$DDT_AUDIT_GENERATED_(1D5)
  6
Continuous
 62
     7
100
AcDbCircle
 10
217.511018434
 20
517.4097102648
 30
0.0
 40
1.000000000000001
100
AcDbArc
 50
18.0
 51
90.0
  0
ARC
  5
1D9
330
176
100
AcDbEntity
  8
$DDT_AUDIT_GENERATED_(1D5)
  6
Continuous
 62
     7
100
AcDbCircle
 10
217.511018434
 20
517.4097102648
 30
0.0
 40
5.000000000000004
100
AcDbArc
 50
18.0
 51
90.0
  0
LINE
  5
1DA
330
176
100
AcDbEntity
  8
$DDT_AUDIT_GENERATED_(1D5)
  6
Continuous
 62
     7
100
AcDbLine
 10
224.9532755136
 20
510.6851380589
 30
0.0
 11
222.2663010154
 21
518.9547952366
 31
0.0
  0
LINE
  5
1DB
330
176
100
AcDbEntity
  8
$DDT_AUDIT_GENERATED_(1D5)
  6
Continuous
 62
     7
100
AcDbLine
 10
218.4620749503
 20
517.7187272591
 30
0.0
 11
224.9520706785
 21
497.74457425
 31
0.0
  0
ARC
  5
1DC
330
176
100
AcDbEntity
  8
$DDT_AUDIT_GENERATED_(1D5)
  6
Continuous
 62
     7
100
AcDbCircle
 10
206.140646018
 20
520.4097102648
 30
0.0
 40
2.000000000000002
100
AcDbArc
 50
90.0
 51
270.0
  0
LINE
  5
1DD
330
176
100
AcDbEntity
  8
$DDT_AUDIT_GENERATED_(16E)
  6
Continuous
 62
     7
100
AcDbLine
 10
273.4973010875
 20
572.9334998207
 30
0.0
 11
226.1986753146
 21
572.9334998207
 31
0.0
  0
LINE
  5
1DE
330
176
100
AcDbEntity
  8
$DDT_AUDIT_GENERATED_(16E)
  6
Continuous
 62
     7
100
AcDbLine
 10
235.7915487696
 20
585.9048704485
 30
0.0
 11
234.847988201
 21
585.9048704485
 31
0.0
  0
LINE
  5
1DF
330
176
100
AcDbEntity
  8
$DDT_AUDIT_GENERATED_(16E)
  6
Continuous
 62
     7
100
AcDbLine
 10
272.747988201
 20
572.4622981253
 30
0.0
 11
272.747988201
 21
572.9334998207
 31
0.0
  0
LINE
  5
1E0
330
176
100
AcDbEntity
  8
$DDT_AUDIT_GENERATED_(16E)
  6
Continuous
 62
     7
100
AcDbLine
 10
226.947988201
 20
572.9334998207
 30
0.0
 11
226.947988201
 21
572.6857703104
 31
0.0
  0
ARC
  5
1E1
330
176
100
AcDbEntity
  8
$DDT_AUDIT_GENERATED_(16E)
  6
Continuous
 62
     7
100
AcDbCircle
 10
249.847988201
 20
566.5334998207
 30
0.0
 40
24.5
100
AcDbArc
 50
127.7520013062
 51
164.8572685595
  0
ARC
  5
1E2
330
176
100
AcDbEntity
  8
$DDT_AUDIT_GENERATED_(16E)
  6
Continuous
 62
     7
100
AcDbCircle
 10
249.847988201
 20
566.5334998207
 30
0.0
 40
24.5
100
AcDbArc
 50
15.1427314405
 51
20.3094293616
  0
ENDBLK
  5
1E4
330
176
100
AcDbEntity
  8
0
100
AcDbBlockEnd
  0
BLOCK
  5
20B
330
1E5
100
AcDbEntity
  8
0
100
AcDbBlockBegin
  2
SE2
 70
     0
 10
0.0
 20
0.0
 30
0.0
  3
SE2
  1

  0
SPLINE
  5
1E7
330
1E5
100
AcDbEntity
  8
$DDT_AUDIT_GENERATED_(78)
  6
Continuous
 62
     7
100
AcDbSpline
210
0.0
220
0.0
230
1.0
 70
     8
 71
     3
 72
    15
 73
    11
 74
     0
 42
0.0000000000940327
 43
0.0000000001
 40
0.1085630792078813
 40
0.1085630792078813
 40
0.1085630792078813
 40
0.1085630792078813
 40
0.1342805422302321
 40
0.1514345142070704
 40
0.1677643703770246
 40
0.20119112318427
 40
0.2145250949264329
 40
0.2280947477262487
 40
0.2350241699461213
 40
0.2391009269859239
 40
0.2391009269859239
 40
0.2391009269859239
 40
0.2391009269859239
 10
111.3426647708841
 20
107.4707415629099
 30
0.0
 10
112.0749731585604
 20
108.0162400394778
 30
0.0
 10
113.2259118178457
 20
109.0168657432796
 30
0.0
 10
114.6246513348423
 20
110.5817112389187
 30
0.0
 10
116.0231967401861
 20
112.4931238905052
 30
0.0
 10
117.0800587602492
 20
114.4822032827144
 30
0.0
 10
117.8414883405352
 20
116.4768668673378
 30
0.0
 10
118.1834665968053
 20
117.6211006399287
 30
0.0
 10
118.3665515671866
 20
118.4640748983162
 30
0.0
 10
118.4271913103333
 20
118.8476182678762
 30
0.0
 10
118.4469053299785
 20
118.9902529047659
 30
0.0
  0
SPLINE
  5
1E8
330
1E5
100
AcDbEntity
  8
$DDT_AUDIT_GENERATED_(78)
  6
Continuous
 62
     7
100
AcDbSpline
210
0.0
220
0.0
230
1.0
 70
     8
 71
     3
 72
    14
 73
    10
 74
     0
 42
0.0000000000939553
 43
0.0000000001
 40
0.7609599856946878
 40
0.7609599856946878
 40
0.7609599856946878
 40
0.7609599856946878
 40
0.7708451321101746
 40
0.781308252185556
 40
0.8090416832531294
 40
0.8267808883109697
 40
0.8472140195882374
 40
0.8853856312640955
 40
0.8914502711714182
 40
0.8914502711714182
 40
0.8914502711714182
 40
0.8914502711714182
 10
82.63123243184495
 20
118.9894066858563
 30
0.0
 10
82.67879361839265
 20
118.6438088071115
 30
0.0
 10
82.81508670637697
 20
117.9399949042127
 30
0.0
 10
83.27106268011558
 20
116.310405887379
 30
0.0
 10
84.01272812078284
 20
114.4629287446057
 30
0.0
 10
85.13772160363676
 20
112.4146134146557
 30
0.0
 10
86.69062024095908
 20
110.1980984863976
 30
0.0
 10
88.32036929962071
 20
108.5600855617935
 30
0.0
 10
89.5629409872329
 20
107.5994766634641
 30
0.0
 10
89.73558978428068
 20
107.4708514628979
 30
0.0
  0
ARC
  5
1E9
330
1E5
100
AcDbEntity
  8
$DDT_AUDIT_GENERATED_(78)
  6
Continuous
 62
     7
100
AcDbCircle
 10
70.0268977149
 20
199.944456185
 30
0.0
 40
12.00000305802546
100
AcDbArc
 50
0.0889355572
 51
33.460941363
  0
SPLINE
  5
1EA
330
1E5
100
AcDbEntity
  8
$DDT_AUDIT_GENERATED_(78)
  6
Continuous
 62
     7
100
AcDbSpline
210
0.0
220
0.0
230
1.0
 70
     8
 71
     3
 72
    32
 73
    28
 74
     0
 42
0.0000000000939081
 43
0.0000000001
 40
0.0
 40
0.0
 40
0.0
 40
0.0
 40
0.0312500000000002
 40
0.0312500000000002
 40
0.0625000000000005
 40
0.0625000000000005
 40
0.0937500000000007
 40
0.0937500000000007
 40
0.125000000000001
 40
0.125000000000001
 40
0.1875000000000015
 40
0.1875000000000015
 40
0.2187500000000016
 40
0.2187500000000016
 40
0.2500000000000016
 40
0.2500000000000016
 40
0.2812500000000017
 40
0.2812500000000017
 40
0.3125000000000017
 40
0.3125000000000017
 40
0.3750000000000018
 40
0.3750000000000018
 40
0.5000000000000017
 40
0.5000000000000017
 40
0.7500000000000009
 40
0.7500000000000009
 40
1.0
 40
1.0
 40
1.0
 40
1.0
 10
100.5392428331156
 20
103.8808721039872
 30
0.0
 10
99.4223782890018
 20
103.8808708406471
 30
0.0
 10
98.32172944973769
 20
103.9840301165815
 30
0.0
 10
96.1516312837399
 20
104.3889042704292
 30
0.0
 10
95.07201249513507
 20
104.6953440651097
 30
0.0
 10
93.01114987505932
 20
105.4911329615825
 30
0.0
 10
92.02719500486998
 20
105.9785684238091
 30
0.0
 10
90.15075794869708
 20
107.1299652914191
 30
0.0
 10
89.25453283361776
 20
107.79966644984
 30
0.0
 10
86.80858448092472
 20
109.9997614656815
 30
0.0
 10
85.44688565649389
 20
111.7777903465663
 30
0.0
 10
83.9321807167912
 20
114.6841449994387
 30
0.0
 10
83.50750176480324
 20
115.690794174844
 30
0.0
 10
82.8303883095285
 20
117.7858840480681
 30
0.0
 10
82.60549020636422
 20
118.877583617056
 30
0.0
 10
82.466658481457
 20
121.0809260741206
 30
0.0
 10
82.4500070696683
 20
122.1855196338626
 30
0.0
 10
82.40751623379691
 20
124.3941076106984
 30
0.0
 10
82.39238119037934
 20
125.4990224727336
 30
0.0
 10
82.35178389473563
 20
128.8153761637761
 30
0.0
 10
82.33199092897121
 20
131.0279351432515
 30
0.0
 10
82.27750811257626
 20
137.6701468349117
 30
0.0
 10
82.24924985616542
 20
142.1043892651633
 30
0.0
 10
82.1714916232928
 20
155.4237595101977
 30
0.0
 10
82.13074968980128
 20
164.3221097211124
 30
0.0
 10
82.06495226843613
 20
182.1297316444588
 30
0.0
 10
82.04073394338918
 20
191.0419620814457
 30
0.0
 10
82.02688631668391
 20
199.963082801821
 30
0.0
  0
SPLINE
  5
1EB
330
1E5
100
AcDbEntity
  8
$DDT_AUDIT_GENERATED_(78)
  6
Continuous
 62
     7
100
AcDbSpline
210
0.0
220
0.0
230
1.0
 70
     8
 71
     3
 72
    26
 73
    22
 74
     0
 42
0.0000000000938581
 43
0.0000000001
 40
0.0
 40
0.0
 40
0.0
 40
0.0
 40
0.4999999999999996
 40
0.4999999999999996
 40
0.6249999999999992
 40
0.6249999999999992
 40
0.6874999999999991
 40
0.6874999999999991
 40
0.7187499999999991
 40
0.7187499999999991
 40
0.7499999999999992
 40
0.7499999999999992
 40
0.7812499999999993
 40
0.7812499999999993
 40
0.8124999999999993
 40
0.8124999999999993
 40
0.8749999999999996
 40
0.8749999999999996
 40
0.9374999999999997
 40
0.9374999999999997
 40
1.0
 40
1.0
 40
1.0
 40
1.0
 10
119.0515993495473
 20
199.9630828018209
 30
0.0
 10
119.0239016292538
 20
182.1192521096418
 30
0.0
 10
118.9587863313925
 20
164.2914184149961
 30
0.0
 10
118.8291590685959
 20
142.0922333534628
 30
0.0
 10
118.8008824879487
 20
137.6559124399523
 30
0.0
 10
118.7463554280086
 20
131.0122805020579
 30
0.0
 10
118.7265461442284
 20
128.7992766269393
 30
0.0
 10
118.6858852059902
 20
125.4828224044214
 30
0.0
 10
118.670724806416
 20
124.3778483668024
 30
0.0
 10
118.6280920943393
 20
122.169026980162
 30
0.0
 10
118.6115684285868
 20
121.0638690682605
 30
0.0
 10
118.4712265652581
 20
118.8626495482851
 30
0.0
 10
118.2438710922549
 20
117.7709462910411
 30
0.0
 10
117.5693788941116
 20
115.6877052851259
 30
0.0
 10
117.1445229326202
 20
114.6788385524623
 30
0.0
 10
115.613739640987
 20
111.7473348882523
 30
0.0
 10
114.2718311361402
 20
109.9983928092253
 30
0.0
 10
110.9784091090918
 20
107.0422435745797
 30
0.0
 10
109.0920884989805
 20
105.885039851752
 30
0.0
 10
104.9561228969586
 20
104.2915639828603
 30
0.0
 10
102.7720287096827
 20
103.880869578374
 30
0.0
 10
100.5392428331156
 20
103.8808721039872
 30
0.0
  0
ARC
  5
1EC
330
1E5
100
AcDbEntity
  8
$DDT_AUDIT_GENERATED_(78)
  6
Continuous
 62
     7
100
AcDbCircle
 10
100.5249100197
 20
220.8486725663
 30
0.0
 40
24.99823594608674
100
AcDbArc
 50
348.6065428589
 51
350.4869822087
  0
ARC
  5
1ED
330
1E5
100
AcDbEntity
  8
$DDT_AUDIT_GENERATED_(78)
  6
Continuous
 62
     7
100
AcDbCircle
 10
131.0515881159
 20
199.9444561342
 30
0.0
 40
12.00000322270666
100
AcDbArc
 50
146.1929278458
 51
179.9110642013
  0
ARC
  5
1EE
330
1E5
100
AcDbEntity
  8
$DDT_AUDIT_GENERATED_(78)
  6
Continuous
 62
     7
100
AcDbCircle
 10
100.5472017425
 20
221.7295614565
 30
0.0
 40
24.11734426026879
100
AcDbArc
 50
96.8622503342
 51
96.8636366425
  0
ARC
  5
1EF
330
1E5
100
AcDbEntity
  8
$DDT_AUDIT_GENERATED_(78)
  6
Continuous
 62
     7
100
AcDbCircle
 10
100.531273463
 20
221.7295182191
 30
0.0
 40
24.11738750110031
100
AcDbArc
 50
83.1363358548
 51
83.1380785704
  0
LINE
  5
1F0
330
1E5
100
AcDbEntity
  8
$DDT_AUDIT_GENERATED_(78)
  6
Continuous
 62
     7
100
AcDbLine
 10
82.354793589
 20
128.7535442509
 30
0.0
 11
82.3566628675
 21
128.571451007
 31
0.0
  0
ARC
  5
1F1
330
1E5
100
AcDbEntity
  8
$DDT_AUDIT_GENERATED_(141)
  6
Continuous
 62
     7
100
AcDbCircle
 10
121.8074199592
 20
198.2515810088
 30
0.0
 40
6.000232267162281
100
AcDbArc
 50
152.3597254136
 51
179.9523616075
  0
ARC
  5
1F2
330
1E5
100
AcDbEntity
  8
$DDT_AUDIT_GENERATED_(141)
  6
Continuous
 62
     7
100
AcDbCircle
 10
79.2710774593
 20
198.2515861479
 30
0.0
 40
6.000220468855083
100
AcDbArc
 50
0.0475873158
 51
27.6471715016
  0
SPLINE
  5
1F3
330
1E5
100
AcDbEntity
  8
$DDT_AUDIT_GENERATED_(141)
  6
Continuous
 62
     7
100
AcDbSpline
210
0.0
220
0.0
230
1.0
 70
     8
 71
     3
 72
     8
 73
     4
 74
     0
 42
0.0000000000594145
 43
0.0000000001
 40
0.0
 40
0.0
 40
0.0
 40
0.0
 40
0.201784604463393
 40
0.201784604463393
 40
0.201784604463393
 40
0.201784604463393
 10
85.27129585859804
 20
198.2565696624521
 30
0.0
 10
85.28070744648714
 20
186.9592259597917
 30
0.0
 10
85.30828696530327
 20
175.6379588110877
 30
0.0
 10
85.30455097259329
 20
164.2944224292094
 30
0.0
  0
SPLINE
  5
1F4
330
1E5
100
AcDbEntity
  8
$DDT_AUDIT_GENERATED_(141)
  6
Continuous
 62
     7
100
AcDbSpline
210
0.0
220
0.0
230
1.0
 70
     8
 71
     3
 72
    14
 73
    10
 74
     0
 42
0.0000000000590547
 43
0.0000000001
 40
0.3367485416832223
 40
0.3367485416832223
 40
0.3367485416832223
 40
0.3367485416832223
 40
0.3437500000000008
 40
0.3437500000000008
 40
0.375000000000001
 40
0.375000000000001
 40
0.3906250000000009
 40
0.3906250000000009
 40
0.4001559568165588
 40
0.4001559568165588
 40
0.4001559568165588
 40
0.4001559568165588
 10
85.24085870827061
 20
141.5049506639519
 30
0.0
 10
85.24111319461406
 20
141.1104598633493
 30
0.0
 10
85.24223417087912
 20
140.7159926286168
 30
0.0
 10
85.25477685635181
 20
138.5611371365715
 30
0.0
 10
85.26401714349355
 20
136.8008184831525
 30
0.0
 10
85.67329076072048
 20
134.1831180675282
 30
0.0
 10
85.88842894477077
 20
133.311453727395
 30
0.0
 10
86.36929333694181
 20
131.9810676149367
 30
0.0
 10
86.58160640287424
 20
131.4900080817114
 30
0.0
 10
86.82273808842139
 20
131.0113912106682
 30
0.0
  0
SPLINE
  5
1F5
330
1E5
100
AcDbEntity
  8
$DDT_AUDIT_GENERATED_(141)
  6
Continuous
 62
     7
100
AcDbSpline
210
0.0
220
0.0
230
1.0
 70
     8
 71
     3
 72
    12
 73
     8
 74
     0
 42
0.0000000000589778
 43
0.0000000001
 40
0.6023671642346213
 40
0.6023671642346213
 40
0.6023671642346213
 40
0.6023671642346213
 40
0.6250000000000007
 40
0.6250000000000007
 40
0.6562500000000006
 40
0.6562500000000006
 40
0.6636655412573267
 40
0.6636655412573267
 40
0.6636655412573267
 40
0.6636655412573267
 10
114.4079407231126
 20
131.3276763372583
 30
0.0
 10
114.9484665453497
 20
132.4787793170774
 30
0.0
 10
115.3209942785254
 20
133.6933311637047
 30
0.0
 10
115.8124106220425
 20
136.7242061881447
 30
0.0
 10
115.8224753212856
 20
138.4869666168735
 30
0.0
 10
115.8361511858932
 20
140.6683573238893
 30
0.0
 10
115.8374072220626
 20
141.0867114906311
 30
0.0
 10
115.8376753890198
 20
141.5050513714438
 30
0.0
  0
SPLINE
  5
1F6
330
1E5
100
AcDbEntity
  8
$DDT_AUDIT_GENERATED_(141)
  6
Continuous
 62
     7
100
AcDbSpline
210
0.0
220
0.0
230
1.0
 70
     8
 71
     3
 72
     8
 73
     4
 74
     0
 42
0.000000000059238
 43
0.0000000001
 40
0.798507422334339
 40
0.798507422334339
 40
0.798507422334339
 40
0.798507422334339
 40
0.8260446037603141
 40
0.8260446037603141
 40
0.8260446037603141
 40
0.8260446037603141
 10
115.7739140609809
 20
164.301305164362
 30
0.0
 10
115.7734031592201
 20
165.851237248977
 30
0.0
 10
115.7734776545786
 20
167.4007622701856
 30
0.0
 10
115.7740111019571
 20
168.949874045682
 30
0.0
  0
SPLINE
  5
1F7
330
1E5
100
AcDbEntity
  8
$DDT_AUDIT_GENERATED_(141)
  6
Continuous
 62
     7
100
AcDbSpline
210
0.0
220
0.0
230
1.0
 70
     8
 71
     3
 72
     8
 73
     4
 74
     0
 42
0.0000000000593669
 43
0.0000000001
 40
0.8429611982938369
 40
0.8429611982938369
 40
0.8429611982938369
 40
0.8429611982938369
 40
1.0
 40
1.0
 40
1.0
 40
1.0
 10
115.7754845144738
 20
171.8043478980182
 30
0.0
 10
115.7814702435837
 20
180.6357004484703
 30
0.0
 10
115.7998557165058
 20
189.4534899773959
 30
0.0
 10
115.8071897660731
 20
198.2565698821071
 30
0.0
  0
ARC
  5
1F8
330
1E5
100
AcDbEntity
  8
$DDT_AUDIT_GENERATED_(141)
  6
Continuous
 62
     7
100
AcDbCircle
 10
100.5392428331
 20
220.80653191
 30
0.0
 40
25.00091858191452
100
AcDbArc
 50
313.3280743304
 51
226.671925534
  0
ARC
  5
1F9
330
1E5
100
AcDbEntity
  8
$DDT_AUDIT_GENERATED_(141)
  6
Continuous
 62
     7
100
AcDbCircle
 10
121.8072575779
 20
198.2510794911
 30
0.0
 40
6.000323775204197
100
AcDbArc
 50
133.2721970621
 51
179.9515141509
  0
ARC
  5
1FA
330
1E5
100
AcDbEntity
  8
$DDT_AUDIT_GENERATED_(141)
  6
Continuous
 62
     7
100
AcDbCircle
 10
79.271226858
 20
198.2510790375
 30
0.0
 40
6.000324948843891
100
AcDbArc
 50
0.0484882172
 51
46.7277979187
  0
SPLINE
  5
1FB
330
1E5
100
AcDbEntity
  8
$DDT_AUDIT_GENERATED_(141)
  6
Continuous
 62
     7
100
AcDbSpline
210
0.0
220
0.0
230
1.0
 70
     8
 71
     3
 72
    40
 73
    36
 74
     0
 42
0.0000000000593307
 43
0.0000000001
 40
0.0
 40
0.0
 40
0.0
 40
0.0
 40
0.2500000000000024
 40
0.2500000000000024
 40
0.3125000000000028
 40
0.3125000000000028
 40
0.3437500000000029
 40
0.3437500000000029
 40
0.3750000000000029
 40
0.3750000000000029
 40
0.390625000000003
 40
0.390625000000003
 40
0.4062500000000031
 40
0.4062500000000031
 40
0.4375000000000029
 40
0.4375000000000029
 40
0.4687500000000028
 40
0.4687500000000028
 40
0.5000000000000026
 40
0.5000000000000026
 40
0.5312500000000026
 40
0.5312500000000026
 40
0.5625000000000023
 40
0.5625000000000023
 40
0.5937500000000022
 40
0.5937500000000022
 40
0.6250000000000021
 40
0.6250000000000021
 40
0.6562500000000019
 40
0.6562500000000019
 40
0.6875000000000018
 40
0.6875000000000018
 40
0.7500000000000014
 40
0.7500000000000014
 40
1.0
 40
1.0
 40
1.0
 40
1.0
 10
115.8069359511563
 20
198.2561571907022
 30
0.0
 10
115.7953815772385
 20
184.5929573663176
 30
0.0
 10
115.7583200189216
 20
170.9017689496752
 30
0.0
 10
115.7871647338054
 20
153.7388811993324
 30
0.0
 10
115.7994485613506
 20
150.3038146726171
 30
0.0
 10
115.8256781221345
 20
145.1472323638198
 30
0.0
 10
115.8375582484125
 20
143.4276827789023
 30
0.0
 10
115.8364000082227
 20
139.9875704023387
 30
0.0
 10
115.8447703021261
 20
138.2667415649159
 30
0.0
 10
115.6096357031994
 20
135.6876895202931
 30
0.0
 10
115.4812100257124
 20
134.8284883199117
 30
0.0
 10
115.0418101549548
 20
133.1118959452804
 30
0.0
 10
114.7290897926816
 20
132.2611907287248
 30
0.0
 10
113.5700692025383
 20
129.872430991147
 30
0.0
 10
112.4785257938092
 20
128.4167107837438
 30
0.0
 10
109.9194020474983
 20
125.9594430910539
 30
0.0
 10
108.4225263593961
 20
124.9287654314317
 30
0.0
 10
105.2186307034627
 20
123.4300170268522
 30
0.0
 10
103.4601780896664
 20
122.9459484326974
 30
0.0
 10
99.94036444251326
 20
122.6580783571464
 30
0.0
 10
98.12608511083867
 20
122.853197248133
 30
0.0
 10
94.72558049332898
 20
123.8581546178717
 30
0.0
 10
93.09911760923615
 20
124.6701220246796
 30
0.0
 10
90.21823354533473
 20
126.7435351680289
 30
0.0
 10
88.93265267917447
 20
128.0244462060404
 30
0.0
 10
86.89658316052967
 20
130.9167212480835
 30
0.0
 10
86.13328416877259
 20
132.5754806225696
 30
0.0
 10
85.34082526385315
 20
136.0223442432017
 30
0.0
 10
85.28004750949674
 20
137.8329334571002
 30
0.0
 10
85.22861099533543
 20
141.3987357715828
 30
0.0
 10
85.24294896671518
 20
143.1816225567252
 30
0.0
 10
85.26949298742566
 20
148.529233180856
 30
0.0
 10
85.28653088814123
 20
152.0932388277585
 30
0.0
 10
85.32484833806721
 20
169.9055316852502
 30
0.0
 10
85.28351974277808
 20
184.1006418553738
 30
0.0
 10
85.27154965816023
 20
198.2561569860806
 30
0.0
  0
ARC
  5
1FC
330
1E5
100
AcDbEntity
  8
$DDT_AUDIT_GENERATED_(141)
  6
Continuous
 62
     7
100
AcDbCircle
 10
100.5392428331
 20
220.8031162542
 30
0.0
 40
24.99191958765207
100
AcDbArc
 50
353.2227015655
 51
186.7772984345
  0
ARC
  5
1FD
330
1E5
100
AcDbEntity
  8
$DDT_AUDIT_GENERATED_(141)
  6
Continuous
 62
     7
100
AcDbCircle
 10
100.3620139831
 20
220.8934402694
 30
0.0
 40
24.82683472599669
100
AcDbArc
 50
187.0325616321
 51
190.1887598434
  0
ARC
  5
1FE
330
1E5
100
AcDbEntity
  8
$DDT_AUDIT_GENERATED_(141)
  6
Continuous
 62
     7
100
AcDbCircle
 10
100.7160431056
 20
220.8935051673
 30
0.0
 40
24.82726802486954
100
AcDbArc
 50
349.8112677054
 51
352.9674108191
  0
ARC
  5
1FF
330
1E5
100
AcDbEntity
  8
$DDT_AUDIT_GENERATED_(141)
  6
Continuous
 62
     7
100
AcDbCircle
 10
100.5392428331
 20
220.8033234691
 30
0.0
 40
24.9856162134158
100
AcDbArc
 50
189.9134752486
 51
226.6753205825
  0
ARC
  5
200
330
1E5
100
AcDbEntity
  8
$DDT_AUDIT_GENERATED_(141)
  6
Continuous
 62
     7
100
AcDbCircle
 10
100.5392428331
 20
220.8033234691
 30
0.0
 40
24.9856162134158
100
AcDbArc
 50
313.3248956765
 51
350.0865247514
  0
LINE
  5
201
330
1E5
100
AcDbEntity
  8
$DDT_AUDIT_GENERATED_(141)
  6
Continuous
 62
     7
100
AcDbLine
 10
115.8369945698
 20
141.5049019131
 30
0.0
 11
115.8369945699
 21
141.7998579676
 31
0.0
  0
LINE
  5
202
330
1E5
100
AcDbEntity
  8
$DDT_AUDIT_GENERATED_(141)
  6
Continuous
 62
     7
100
AcDbLine
 10
85.2414989711
 20
141.8000816954
 30
0.0
 11
85.241498971
 21
141.5048991703
 31
0.0
  0
ARC
  5
203
330
1E5
100
AcDbEntity
  8
$DDT_AUDIT_GENERATED_(141)
  6
Continuous
 62
     7
100
AcDbCircle
 10
100.5313359055
 20
137.8045519335
 30
0.0
 40
15.29728039212056
100
AcDbArc
 50
206.3626996839
 51
322.1599162002
  0
LINE
  5
204
330
1E5
100
AcDbEntity
  8
$DDT_AUDIT_GENERATED_(1D5)
  6
Continuous
 62
     7
100
AcDbLine
 10
102.5392428331
 20
253.1838715957
 30
0.0
 11
102.5392428331
 21
264.5542440116
 31
0.0
  0
LINE
  5
205
330
1E5
100
AcDbEntity
  8
$DDT_AUDIT_GENERATED_(1D5)
  6
Continuous
 62
     7
100
AcDbLine
 10
98.5392428331
 20
264.5542440116
 30
0.0
 11
98.5392428331
 21
253.1838715957
 31
0.0
  0
LINE
  5
206
330
1E5
100
AcDbEntity
  8
$DDT_AUDIT_GENERATED_(1D5)
  6
Continuous
 62
     7
100
AcDbLine
 10
98.5392428331
 20
253.1838715957
 30
0.0
 11
98.5392428331
 21
250.3307020468
 31
0.0
  0
LINE
  5
207
330
1E5
100
AcDbEntity
  8
$DDT_AUDIT_GENERATED_(1D5)
  6
Continuous
 62
     7
100
AcDbLine
 10
102.5392428331
 20
250.3307020468
 30
0.0
 11
102.5392428331
 21
253.1838715957
 31
0.0
  0
LINE
  5
208
330
1E5
100
AcDbEntity
  8
$DDT_AUDIT_GENERATED_(1D5)
  6
Continuous
 62
     7
100
AcDbLine
 10
102.5392428331
 20
245.7573788756
 30
0.0
 11
102.5392428331
 21
250.3307020468
 31
0.0
  0
LINE
  5
209
330
1E5
100
AcDbEntity
  8
$DDT_AUDIT_GENERATED_(1D5)
  6
Continuous
 62
     7
100
AcDbLine
 10
98.5392428331
 20
250.3307020468
 30
0.0
 11
98.5392428331
 21
245.7557467074
 31
0.0
  0
ARC
  5
20A
330
1E5
100
AcDbEntity
  8
$DDT_AUDIT_GENERATED_(1D5)
  6
Continuous
 62
     7
100
AcDbCircle
 10
100.5392428331
 20
264.5542440116
 30
0.0
 40
2.000000000000001
100
AcDbArc
 50
0.0
 51
180.0
  0
ENDBLK
  5
20C
330
1E5
100
AcDbEntity
  8
0
100
AcDbBlockEnd
  0
ENDSEC
  0
SECTION
  2
ENTITIES
  0
LINE
  5
5E
330
1F
100
AcDbEntity
  8
Default
  6
Continuous
 62
     7
100
AcDbLine
 10
75.5392428331
 20
461.7334998207
 30
0.0
 11
125.5392428331
 21
461.7334990102
 31
0.0
  0
INSERT
  5
60
330
1F
100
AcDbEntity
  8
Default
100
AcDbBlockReference
  2
SEANNOT_GROUP
 10
0.0
 20
0.0
 30
0.0
  0
INSERT
  5
67
330
1F
100
AcDbEntity
  8
Default
100
AcDbBlockReference
  2
SEANNOT_GROUP1
 10
0.0
 20
0.0
 30
0.0
  0
INSERT
  5
6D
330
1F
100
AcDbEntity
  8
Default
100
AcDbBlockReference
  2
SEANNOT_GROUP2
 10
0.0
 20
0.0
 30
0.0
  0
INSERT
  5
77
330
1F
100
AcDbEntity
  8
Default
100
AcDbBlockReference
  2
SE
 10
0.0
 20
0.0
 30
0.0
  0
INSERT
  5
177
330
1F
100
AcDbEntity
  8
Default
100
AcDbBlockReference
  2
SE1
 10
0.0
 20
0.0
 30
0.0
  0
INSERT
  5
1E6
330
1F
100
AcDbEntity
  8
Default
100
AcDbBlockReference
  2
SE2
 10
0.0
 20
0.0
 30
0.0
  0
TEXT
  5
20E
330
1F
100
AcDbEntity
  8
Default
  6
Continuous
 62
     7
100
AcDbText
 10
5.9362635081
 20
53.4225120485
 30
0.0
 40
10.0
  1
Grohe AG^J
  7
SEACAD_seiso_ttf
 11
5.9362635081
 21
63.4225120485
 31
0.0
100
AcDbText
 73
     3
  0
TEXT
  5
20F
330
1F
100
AcDbEntity
  8
Default
  6
Continuous
 62
     7
100
AcDbText
 10
5.9362635081
 20
37.0588756849
 30
0.0
 40
10.0
  1
 
  7
SEACAD_seiso_ttf
 11
5.9362635081
 21
47.0588756849
 31
0.0
100
AcDbText
 73
     3
  0
TEXT
  5
210
330
1F
100
AcDbEntity
  8
Default
  6
Continuous
 62
     7
100
AcDbText
 10
5.9362635081
 20
20.6952393213
 30
0.0
 40
10.0
  1
ecn: 
  7
SEACAD_seiso_ttf
 11
5.9362635081
 21
30.6952393213
 31
0.0
100
AcDbText
 73
     3
  0
TEXT
  5
211
330
1F
100
AcDbEntity
  8
Default
  6
Continuous
 62
     7
100
AcDbText
 10
5.9362635081
 20
4.3316029576
 30
0.0
 40
10.0
  1
unit: mm
  7
SEACAD_seiso_ttf
 11
5.9362635081
 21
14.3316029576
 31
0.0
100
AcDbText
 73
     3
  0
LINE
  5
212
330
1F
100
AcDbEntity
  8
Default
  6
Continuous
 62
     7
100
AcDbLine
 10
0.0
 20
0.0
 30
0.0
 11
100.0
 21
0.0
 31
0.0
  0
LINE
  5
213
330
1F
100
AcDbEntity
  8
Default
  6
Continuous
 62
     7
100
AcDbLine
 10
0.0
 20
0.0
 30
0.0
 11
0.0
 21
100.0
 31
0.0
  0
TEXT
  5
214
330
1F
100
AcDbEntity
  8
Default
  6
Continuous
 62
     7
100
AcDbText
 10
24.3923665681
 20
-18.2375342018
 30
0.0
 40
10.0
  1
100 mm
  7
SEACAD_seiso_ttf
 11
24.3923665681
 21
-8.2375342018
 31
0.0
100
AcDbText
 73
     3
  0
TEXT
  5
215
330
1F
100
AcDbEntity
  8
Default
  6
Continuous
 62
     7
100
AcDbText
 10
-7.6150308803
 20
24.6231930421
 30
0.0
 40
10.0
  1
100 mm
 50
90.0
  7
SEACAD_seiso_ttf
 11
-17.6150308803
 21
24.6231930421
 31
0.0
100
AcDbText
 73
     3
  0
TEXT
  5
216
330
1F
100
AcDbEntity
  8
Default
  6
Continuous
 62
     7
100
AcDbText
 10
28.4878128572
 20
20.0907663715
 30
0.0
 40
10.0
  1
218774
  7
SEACAD_seiso_ttf
 11
28.4878128572
 21
30.0907663715
 31
0.0
100
AcDbText
 73
     3
  0
TEXT
  5
217
330
1F
100
AcDbEntity
  8
Default
  6
Continuous
 62
     7
100
AcDbText
 10
5.9012241913
 20
36.7242780188
 30
0.0
 40
10.0
  1
33561002
  7
SEACAD_seiso_ttf
 11
5.9012241913
 21
46.7242780188
 31
0.0
100
AcDbText
 73
     3
  0
ENDSEC
  0
SECTION
  2
OBJECTS
  0
DICTIONARY
  5
C
330
0
100
AcDbDictionary
281
     1
  3
ACAD_GROUP
350
D
  3
ACAD_LAYOUT
350
1A
  3
ACAD_MLEADERSTYLE
350
21B
  3
ACAD_MLINESTYLE
350
17
  3
ACAD_PLOTSETTINGS
350
19
  3
ACAD_PLOTSTYLENAME
350
E
  3
ACAD_SCALELIST
350
3B
  3
ACAD_TABLESTYLE
350
21A
  3
ACAD_VISUALSTYLE
350
2A
  3
AcDbVariableDictionary
350
218
  0
DICTIONARY
  5
D
102
{ACAD_REACTORS
330
C
102
}
330
C
100
AcDbDictionary
281
     1
  0
DICTIONARY
  5
1A
102
{ACAD_REACTORS
330
C
102
}
330
C
100
AcDbDictionary
281
     1
  3
Layout1
350
1E
  3
Model
350
22
  0
DICTIONARY
  5
21B
102
{ACAD_REACTORS
330
C
102
}
330
C
100
AcDbDictionary
281
     1
  0
DICTIONARY
  5
17
102
{ACAD_REACTORS
330
C
102
}
330
C
100
AcDbDictionary
281
     1
  3
Standard
350
18
  0
DICTIONARY
  5
19
102
{ACAD_REACTORS
330
C
102
}
330
C
100
AcDbDictionary
281
     1
  0
ACDBDICTIONARYWDFLT
  5
E
102
{ACAD_REACTORS
330
C
102
}
330
C
100
AcDbDictionary
281
     1
  3
Normal
350
F
100
AcDbDictionaryWithDefault
340
F
  0
DICTIONARY
  5
3B
102
{ACAD_REACTORS
330
C
102
}
330
C
100
AcDbDictionary
281
     1
  3
A0
350
3C
  3
A1
350
3D
  3
A2
350
3E
  3
A3
350
3F
  3
A4
350
40
  3
A5
350
41
  3
A6
350
42
  3
A7
350
43
  3
A8
350
44
  3
A9
350
45
  3
B0
350
46
  3
B1
350
47
  3
B2
350
48
  3
B3
350
49
  3
B4
350
4A
  3
B5
350
4B
  3
B6
350
4C
  3
B7
350
4D
  3
B8
350
4E
  3
B9
350
4F
  3
C0
350
50
  3
C1
350
51
  3
C2
350
52
  3
C3
350
53
  3
C4
350
54
  3
C5
350
55
  3
C6
350
56
  3
C7
350
57
  3
C8
350
58
  3
C9
350
59
  3
D0
350
5A
  3
D1
350
5B
  3
D2
350
5C
  0
DICTIONARY
  5
21A
102
{ACAD_REACTORS
330
C
102
}
330
C
100
AcDbDictionary
281
     1
  0
DICTIONARY
  5
2A
102
{ACAD_REACTORS
330
C
102
}
330
C
100
AcDbDictionary
281
     1
  3
2dWireframe
350
2F
  3
3D Hidden
350
31
  3
3dWireframe
350
30
  3
Basic
350
32
  3
Brighten
350
36
  3
ColorChange
350
3A
  3
Conceptual
350
34
  3
Dim
350
35
  3
Facepattern
350
39
  3
Flat
350
2B
  3
FlatWithEdges
350
2C
  3
Gouraud
350
2D
  3
GouraudWithEdges
350
2E
  3
Linepattern
350
38
  3
Realistic
350
33
  3
Thicken
350
37
  0
DICTIONARY
  5
218
102
{ACAD_REACTORS
330
C
102
}
330
C
100
AcDbDictionary
281
     1
  3
CANNOSCALE
350
219
  3
PSOLHEIGHT
350
21D
  3
PSOLWIDTH
350
21C
  0
LAYOUT
  5
1E
102
{ACAD_REACTORS
330
1A
102
}
330
1A
100
AcDbPlotSettings
  1

  2
none_device
  4

  6

 40
0.0
 41
0.0
 42
0.0
 43
0.0
 44
0.0
 45
0.0
 46
0.0
 47
0.0
 48
0.0
 49
0.0
140
0.0
141
0.0
142
1.0
143
1.0
 70
   688
 72
     0
 73
     0
 74
     5
  7

 75
    16
147
1.0
148
0.0
149
0.0
100
AcDbLayout
  1
Layout1
 70
     1
 71
     1
 10
0.0
 20
0.0
 11
1682.0
 21
2378.0
 12
0.0
 22
0.0
 32
0.0
 14
0.0
 24
0.0
 34
0.0
 15
1682.0
 25
2378.0
 35
0.0
146
0.0
 13
0.0
 23
0.0
 33
0.0
 16
1.0
 26
0.0
 36
0.0
 17
0.0
 27
1.0
 37
0.0
 76
     0
330
1B
  0
LAYOUT
  5
22
102
{ACAD_REACTORS
330
1A
102
}
330
1A
100
AcDbPlotSettings
  1

  2
none_device
  4

  6

 40
0.0
 41
0.0
 42
0.0
 43
0.0
 44
0.0
 45
0.0
 46
0.0
 47
0.0
 48
0.0
 49
0.0
140
0.0
141
0.0
142
1.0
143
1.0
 70
  1712
 72
     0
 73
     0
 74
     0
  7

 75
     0
147
1.0
148
0.0
149
0.0
100
AcDbLayout
  1
Model
 70
     1
 71
     0
 10
0.0
 20
0.0
 11
1682.0
 21
2378.0
 12
0.0
 22
0.0
 32
0.0
 14
0.0
 24
0.0
 34
0.0
 15
1682.0
 25
2378.0
 35
0.0
146
0.0
 13
0.0
 23
0.0
 33
0.0
 16
1.0
 26
0.0
 36
0.0
 17
0.0
 27
1.0
 37
0.0
 76
     0
330
1F
331
29
  0
MLINESTYLE
  5
18
102
{ACAD_REACTORS
330
17
102
}
330
17
100
AcDbMlineStyle
  2
Standard
 70
     0
  3

 62
   256
 51
90.0
 52
90.0
 71
     2
 49
0.5
 62
   256
  6
BYLAYER
 49
-0.5
 62
   256
  6
BYLAYER
  0
ACDBPLACEHOLDER
  5
F
102
{ACAD_REACTORS
330
E
102
}
330
E
  0
SCALE
  5
3C
102
{ACAD_REACTORS
330
3B
102
}
330
3B
100
AcDbScale
 70
     0
300
1:1
140
1.0
141
1.0
290
     1
  0
SCALE
  5
3D
102
{ACAD_REACTORS
330
3B
102
}
330
3B
100
AcDbScale
 70
     0
300
1:2
140
1.0
141
2.0
290
     0
  0
SCALE
  5
3E
102
{ACAD_REACTORS
330
3B
102
}
330
3B
100
AcDbScale
 70
     0
300
1:4
140
1.0
141
4.0
290
     0
  0
SCALE
  5
3F
102
{ACAD_REACTORS
330
3B
102
}
330
3B
100
AcDbScale
 70
     0
300
1:5
140
1.0
141
5.0
290
     0
  0
SCALE
  5
40
102
{ACAD_REACTORS
330
3B
102
}
330
3B
100
AcDbScale
 70
     0
300
1:8
140
1.0
141
8.0
290
     0
  0
SCALE
  5
41
102
{ACAD_REACTORS
330
3B
102
}
330
3B
100
AcDbScale
 70
     0
300
1:10
140
1.0
141
10.0
290
     0
  0
SCALE
  5
42
102
{ACAD_REACTORS
330
3B
102
}
330
3B
100
AcDbScale
 70
     0
300
1:16
140
1.0
141
16.0
290
     0
  0
SCALE
  5
43
102
{ACAD_REACTORS
330
3B
102
}
330
3B
100
AcDbScale
 70
     0
300
1:20
140
1.0
141
20.0
290
     0
  0
SCALE
  5
44
102
{ACAD_REACTORS
330
3B
102
}
330
3B
100
AcDbScale
 70
     0
300
1:30
140
1.0
141
30.0
290
     0
  0
SCALE
  5
45
102
{ACAD_REACTORS
330
3B
102
}
330
3B
100
AcDbScale
 70
     0
300
1:40
140
1.0
141
40.0
290
     0
  0
SCALE
  5
46
102
{ACAD_REACTORS
330
3B
102
}
330
3B
100
AcDbScale
 70
     0
300
1:50
140
1.0
141
50.0
290
     0
  0
SCALE
  5
47
102
{ACAD_REACTORS
330
3B
102
}
330
3B
100
AcDbScale
 70
     0
300
1:100
140
1.0
141
100.0
290
     0
  0
SCALE
  5
48
102
{ACAD_REACTORS
330
3B
102
}
330
3B
100
AcDbScale
 70
     0
300
2:1
140
2.0
141
1.0
290
     0
  0
SCALE
  5
49
102
{ACAD_REACTORS
330
3B
102
}
330
3B
100
AcDbScale
 70
     0
300
4:1
140
4.0
141
1.0
290
     0
  0
SCALE
  5
4A
102
{ACAD_REACTORS
330
3B
102
}
330
3B
100
AcDbScale
 70
     0
300
8:1
140
8.0
141
1.0
290
     0
  0
SCALE
  5
4B
102
{ACAD_REACTORS
330
3B
102
}
330
3B
100
AcDbScale
 70
     0
300
10:1
140
10.0
141
1.0
290
     0
  0
SCALE
  5
4C
102
{ACAD_REACTORS
330
3B
102
}
330
3B
100
AcDbScale
 70
     0
300
100:1
140
100.0
141
1.0
290
     0
  0
SCALE
  5
4D
102
{ACAD_REACTORS
330
3B
102
}
330
3B
100
AcDbScale
 70
     0
300
1/128" = 1'-0"
140
0.0078125
141
12.0
290
     0
  0
SCALE
  5
4E
102
{ACAD_REACTORS
330
3B
102
}
330
3B
100
AcDbScale
 70
     0
300
1/64" = 1'-0"
140
0.015625
141
12.0
290
     0
  0
SCALE
  5
4F
102
{ACAD_REACTORS
330
3B
102
}
330
3B
100
AcDbScale
 70
     0
300
1/32" = 1'-0"
140
0.03125
141
12.0
290
     0
  0
SCALE
  5
50
102
{ACAD_REACTORS
330
3B
102
}
330
3B
100
AcDbScale
 70
     0
300
1/16" = 1'-0"
140
0.0625
141
12.0
290
     0
  0
SCALE
  5
51
102
{ACAD_REACTORS
330
3B
102
}
330
3B
100
AcDbScale
 70
     0
300
3/32" = 1'-0"
140
0.09375
141
12.0
290
     0
  0
SCALE
  5
52
102
{ACAD_REACTORS
330
3B
102
}
330
3B
100
AcDbScale
 70
     0
300
1/8" = 1'-0"
140
0.125
141
12.0
290
     0
  0
SCALE
  5
53
102
{ACAD_REACTORS
330
3B
102
}
330
3B
100
AcDbScale
 70
     0
300
3/16" = 1'-0"
140
0.1875
141
12.0
290
     0
  0
SCALE
  5
54
102
{ACAD_REACTORS
330
3B
102
}
330
3B
100
AcDbScale
 70
     0
300
1/4" = 1'-0"
140
0.25
141
12.0
290
     0
  0
SCALE
  5
55
102
{ACAD_REACTORS
330
3B
102
}
330
3B
100
AcDbScale
 70
     0
300
3/8" = 1'-0"
140
0.375
141
12.0
290
     0
  0
SCALE
  5
56
102
{ACAD_REACTORS
330
3B
102
}
330
3B
100
AcDbScale
 70
     0
300
1/2" = 1'-0"
140
0.5
141
12.0
290
     0
  0
SCALE
  5
57
102
{ACAD_REACTORS
330
3B
102
}
330
3B
100
AcDbScale
 70
     0
300
3/4" = 1'-0"
140
0.75
141
12.0
290
     0
  0
SCALE
  5
58
102
{ACAD_REACTORS
330
3B
102
}
330
3B
100
AcDbScale
 70
     0
300
1" = 1'-0"
140
1.0
141
12.0
290
     0
  0
SCALE
  5
59
102
{ACAD_REACTORS
330
3B
102
}
330
3B
100
AcDbScale
 70
     0
300
1-1/2" = 1'-0"
140
1.5
141
12.0
290
     0
  0
SCALE
  5
5A
102
{ACAD_REACTORS
330
3B
102
}
330
3B
100
AcDbScale
 70
     0
300
3" = 1'-0"
140
3.0
141
12.0
290
     0
  0
SCALE
  5
5B
102
{ACAD_REACTORS
330
3B
102
}
330
3B
100
AcDbScale
 70
     0
300
6" = 1'-0"
140
6.0
141
12.0
290
     0
  0
SCALE
  5
5C
102
{ACAD_REACTORS
330
3B
102
}
330
3B
100
AcDbScale
 70
     0
300
1'-0" = 1'-0"
140
12.0
141
12.0
290
     0
  0
VISUALSTYLE
  5
2F
102
{ACAD_REACTORS
330
2A
102
}
330
2A
100
AcDbVisualStyle
  2
2dWireframe
 70
     4
 71
     0
 72
     2
 73
     0
 90
        0
 40
-0.6
 41
-30.0
 62
     5
 63
     7
 74
     1
 91
        4
 64
     7
 65
   257
 75
     1
175
     1
 42
1.0
 92
        0
 66
   257
 43
1.0
 76
     1
 77
     6
 78
     2
 67
     7
 79
     5
170
     0
171
     0
290
     0
174
     0
 93
        1
 44
0.0
173
     0
291
     0
 45
0.0
1001
ACAD
1000
AcDbSavedByObjectVersion
1070
     0
  0
VISUALSTYLE
  5
31
102
{ACAD_REACTORS
330
2A
102
}
330
2A
100
AcDbVisualStyle
  2
3D Hidden
 70
     6
 71
     1
 72
     2
 73
     2
 90
        0
 40
-0.6
 41
-30.0
 62
     5
 63
     7
 74
     2
 91
        2
 64
     7
 65
   257
 75
     2
175
     1
 42
40.0
 92
        0
 66
   257
 43
1.0
 76
     1
 77
     6
 78
     2
 67
     7
 79
     3
170
     0
171
     0
290
     0
174
     0
 93
        1
 44
0.0
173
     0
291
     0
 45
0.0
1001
ACAD
1000
AcDbSavedByObjectVersion
1070
     0
  0
VISUALSTYLE
  5
30
102
{ACAD_REACTORS
330
2A
102
}
330
2A
100
AcDbVisualStyle
  2
3dWireframe
 70
     5
 71
     0
 72
     2
 73
     0
 90
        0
 40
-0.6
 41
-30.0
 62
     5
 63
     7
 74
     1
 91
        4
 64
     7
 65
   257
 75
     1
175
     1
 42
1.0
 92
        0
 66
   257
 43
1.0
 76
     1
 77
     6
 78
     2
 67
     7
 79
     5
170
     0
171
     0
290
     0
174
     0
 93
        1
 44
0.0
173
     0
291
     0
 45
0.0
1001
ACAD
1000
AcDbSavedByObjectVersion
1070
     0
  0
VISUALSTYLE
  5
32
102
{ACAD_REACTORS
330
2A
102
}
330
2A
100
AcDbVisualStyle
  2
Basic
 70
     7
 71
     1
 72
     0
 73
     1
 90
        0
 40
-0.6
 41
-30.0
 62
     5
 63
     7
 74
     0
 91
        4
 64
     7
 65
   257
 75
     1
175
     1
 42
1.0
 92
        8
 66
     7
 43
1.0
 76
     1
 77
     6
 78
     2
 67
     7
 79
     5
170
     0
171
     0
290
     0
174
     0
 93
        1
 44
0.0
173
     0
291
     1
 45
0.0
1001
ACAD
1000
AcDbSavedByObjectVersion
1070
     0
  0
VISUALSTYLE
  5
36
102
{ACAD_REACTORS
330
2A
102
}
330
2A
100
AcDbVisualStyle
  2
Brighten
 70
    12
 71
     2
 72
     2
 73
     0
 90
        0
 40
-0.6
 41
-30.0
 62
     5
 63
     7
 74
     1
 91
        4
 64
     7
 65
   257
 75
     1
175
     1
 42
1.0
 92
        8
 66
     7
 43
1.0
 76
     1
 77
     6
 78
     2
 67
     7
 79
     5
170
     0
171
     0
290
     0
174
     0
 93
        1
 44
50.0
173
     0
291
     1
 45
0.0
1001
ACAD
1000
AcDbSavedByObjectVersion
1070
     0
  0
VISUALSTYLE
  5
3A
102
{ACAD_REACTORS
330
2A
102
}
330
2A
100
AcDbVisualStyle
  2
ColorChange
 70
    16
 71
     2
 72
     2
 73
     3
 90
        0
 40
-0.6
 41
-30.0
 62
     5
 63
     8
 74
     1
 91
        4
 64
     7
 65
   257
 75
     1
175
     1
 42
1.0
 92
        8
 66
     8
 43
1.0
 76
     1
 77
     6
 78
     2
 67
     7
 79
     5
170
     0
171
     0
290
     0
174
     0
 93
        1
 44
0.0
173
     0
291
     1
 45
0.0
1001
ACAD
1000
AcDbSavedByObjectVersion
1070
     0
  0
VISUALSTYLE
  5
34
102
{ACAD_REACTORS
330
2A
102
}
330
2A
100
AcDbVisualStyle
  2
Conceptual
 70
     9
 71
     3
 72
     2
 73
     0
 90
        0
 40
-0.6
 41
-30.0
 62
     5
 63
     7
 74
     2
 91
        2
 64
     7
 65
   257
 75
     1
175
     1
 42
40.0
 92
        8
 66
     7
 43
1.0
 76
     1
 77
     6
 78
     2
 67
     7
 79
     3
170
     0
171
     0
290
     0
174
     0
 93
        1
 44
0.0
173
     0
291
     0
 45
0.0
1001
ACAD
1000
AcDbSavedByObjectVersion
1070
     0
  0
VISUALSTYLE
  5
35
102
{ACAD_REACTORS
330
2A
102
}
330
2A
100
AcDbVisualStyle
  2
Dim
 70
    11
 71
     2
 72
     2
 73
     0
 90
        0
 40
-0.6
 41
-30.0
 62
     5
 63
     7
 74
     1
 91
        4
 64
     7
 65
   257
 75
     1
175
     1
 42
1.0
 92
        8
 66
     7
 43
1.0
 76
     1
 77
     6
 78
     2
 67
     7
 79
     5
170
     0
171
     0
290
     0
174
     0
 93
        1
 44
-50.0
173
     0
291
     1
 45
0.0
1001
ACAD
1000
AcDbSavedByObjectVersion
1070
     0
  0
VISUALSTYLE
  5
39
102
{ACAD_REACTORS
330
2A
102
}
330
2A
100
AcDbVisualStyle
  2
Facepattern
 70
    15
 71
     2
 72
     2
 73
     0
 90
        0
 40
-0.6
 41
-30.0
 62
     5
 63
     7
 74
     1
 91
        4
 64
     7
 65
   257
 75
     1
175
     1
 42
1.0
 92
        8
 66
     7
 43
1.0
 76
     1
 77
     6
 78
     2
 67
     7
 79
     5
170
     0
171
     0
290
     0
174
     0
 93
        1
 44
0.0
173
     0
291
     1
 45
0.0
1001
ACAD
1000
AcDbSavedByObjectVersion
1070
     0
  0
VISUALSTYLE
  5
2B
102
{ACAD_REACTORS
330
2A
102
}
330
2A
100
AcDbVisualStyle
  2
Flat
 70
     0
 71
     2
 72
     1
 73
     1
 90
        2
 40
-0.6
 41
30.0
 62
     5
 63
     7
 74
     0
 91
        4
 64
     7
 65
   257
 75
     1
175
     1
 42
1.0
 92
        8
 66
     7
 43
1.0
 76
     1
 77
     6
 78
     2
 67
     7
 79
     5
170
     0
171
     0
290
     0
174
     0
 93
       13
 44
0.0
173
     0
291
     1
 45
0.0
1001
ACAD
1000
AcDbSavedByObjectVersion
1070
     0
  0
VISUALSTYLE
  5
2C
102
{ACAD_REACTORS
330
2A
102
}
330
2A
100
AcDbVisualStyle
  2
FlatWithEdges
 70
     1
 71
     2
 72
     1
 73
     1
 90
        2
 40
-0.6
 41
30.0
 62
     5
 63
     7
 74
     1
 91
        4
 64
     7
 65
   257
 75
     1
175
     1
 42
1.0
 92
        0
 66
   257
 43
1.0
 76
     1
 77
     6
 78
     2
 67
     7
 79
     5
170
     0
171
     0
290
     0
174
     0
 93
       13
 44
0.0
173
     0
291
     1
 45
0.0
1001
ACAD
1000
AcDbSavedByObjectVersion
1070
     0
  0
VISUALSTYLE
  5
2D
102
{ACAD_REACTORS
330
2A
102
}
330
2A
100
AcDbVisualStyle
  2
Gouraud
 70
     2
 71
     2
 72
     2
 73
     1
 90
        2
 40
-0.6
 41
30.0
 62
     5
 63
     7
 74
     0
 91
        4
 64
     7
 65
   257
 75
     1
175
     1
 42
1.0
 92
        0
 66
     7
 43
1.0
 76
     1
 77
     6
 78
     2
 67
     7
 79
     5
170
     0
171
     0
290
     0
174
     0
 93
       13
 44
0.0
173
     0
291
     1
 45
0.0
1001
ACAD
1000
AcDbSavedByObjectVersion
1070
     0
  0
VISUALSTYLE
  5
2E
102
{ACAD_REACTORS
330
2A
102
}
330
2A
100
AcDbVisualStyle
  2
GouraudWithEdges
 70
     3
 71
     2
 72
     2
 73
     1
 90
        2
 40
-0.6
 41
30.0
 62
     5
 63
     7
 74
     1
 91
        4
 64
     7
 65
   257
 75
     1
175
     1
 42
1.0
 92
        0
 66
   257
 43
1.0
 76
     1
 77
     6
 78
     2
 67
     7
 79
     5
170
     0
171
     0
290
     0
174
     0
 93
       13
 44
0.0
173
     0
291
     1
 45
0.0
1001
ACAD
1000
AcDbSavedByObjectVersion
1070
     0
  0
VISUALSTYLE
  5
38
102
{ACAD_REACTORS
330
2A
102
}
330
2A
100
AcDbVisualStyle
  2
Linepattern
 70
    14
 71
     2
 72
     2
 73
     0
 90
        0
 40
-0.6
 41
-30.0
 62
     5
 63
     7
 74
     1
 91
        4
 64
     7
 65
   257
 75
     7
175
     7
 42
1.0
 92
        8
 66
     7
 43
1.0
 76
     1
 77
     6
 78
     2
 67
     7
 79
     5
170
     0
171
     0
290
     0
174
     0
 93
        1
 44
0.0
173
     0
291
     1
 45
0.0
1001
ACAD
1000
AcDbSavedByObjectVersion
1070
     0
  0
VISUALSTYLE
  5
33
102
{ACAD_REACTORS
330
2A
102
}
330
2A
100
AcDbVisualStyle
  2
Realistic
 70
     8
 71
     2
 72
     2
 73
     0
 90
        0
 40
-0.6
 41
-30.0
 62
     5
 63
     7
 74
     1
 91
        0
 64
     7
 65
   257
 75
     1
175
     1
 42
1.0
 92
        8
 66
     8
 43
1.0
 76
     1
 77
     6
 78
     2
 67
     7
 79
     5
170
     0
171
     0
290
     0
174
     0
 93
       13
 44
0.0
173
     0
291
     0
 45
0.0
1001
ACAD
1000
AcDbSavedByObjectVersion
1070
     0
  0
VISUALSTYLE
  5
37
102
{ACAD_REACTORS
330
2A
102
}
330
2A
100
AcDbVisualStyle
  2
Thicken
 70
    13
 71
     2
 72
     2
 73
     0
 90
        0
 40
-0.6
 41
-30.0
 62
     5
 63
     7
 74
     1
 91
        4
 64
     7
 65
   257
 75
     1
175
     1
 42
1.0
 92
       12
 66
     7
 43
1.0
 76
     1
 77
     6
 78
     2
 67
     7
 79
     5
170
     0
171
     0
290
     0
174
     0
 93
        1
 44
0.0
173
     0
291
     1
 45
0.0
1001
ACAD
1000
AcDbSavedByObjectVersion
1070
     0
  0
DICTIONARYVAR
  5
219
102
{ACAD_REACTORS
330
218
102
}
330
218
100
DictionaryVariables
280
     0
  1
1:1
  0
DICTIONARYVAR
  5
21D
102
{ACAD_REACTORS
330
218
102
}
330
218
100
DictionaryVariables
280
     0
  1
80.000000
  0
DICTIONARYVAR
  5
21C
102
{ACAD_REACTORS
330
218
102
}
330
218
100
DictionaryVariables
280
     0
  1
5.000000
  0
ENDSEC
  0
EOF
