  0
SECTION
  2
HEADER
  9
$ACADVER
  1
AC1009
  9
$DWGCODEPAGE
  3
ansi_1252
  9
$INSBASE
 10
0.0
 20
0.0
 30
0.0
  9
$EXTMIN
 10
1.000000000000000E+20
 20
1.000000000000000E+20
 30
1.000000000000000E+20
  9
$EXTMAX
 10
-1.000000000000000E+20
 20
-1.000000000000000E+20
 30
-1.000000000000000E+20
  9
$LIMMIN
 10
0.0
 20
0.0
  9
$LIMMAX
 10
12.0
 20
9.0
  9
$ORTHOMODE
 70
     0
  9
$REGENMODE
 70
     1
  9
$FILLMODE
 70
     1
  9
$QTEXTMODE
 70
     0
  9
$MIRRTEXT
 70
     1
  9
$DRAGMODE
 70
     2
  9
$LTSCALE
 40
1.0
  9
$OSMODE
 70
    37
  9
$ATTMODE
 70
     1
  9
$TEXTSIZE
 40
0.2
  9
$TRACEWID
 40
0.05
  9
$TEXTSTYLE
  7
STANDARD
  9
$CLAYER
  8
0
  9
$CELTYPE
  6
BYLAYER
  9
$CECOLOR
 62
   256
  9
$DIMSCALE
 40
1.0
  9
$DIMASZ
 40
0.18
  9
$DIMEXO
 40
0.0625
  9
$DIMDLI
 40
0.38
  9
$DIMRND
 40
0.0
  9
$DIMDLE
 40
0.0
  9
$DIMEXE
 40
0.18
  9
$DIMTP
 40
0.0
  9
$DIMTM
 40
0.0
  9
$DIMTXT
 40
0.18
  9
$DIMCEN
 40
0.09
  9
$DIMTSZ
 40
0.0
  9
$DIMTOL
 70
     0
  9
$DIMLIM
 70
     0
  9
$DIMTIH
 70
     1
  9
$DIMTOH
 70
     1
  9
$DIMSE1
 70
     0
  9
$DIMSE2
 70
     0
  9
$DIMTAD
 70
     0
  9
$DIMZIN
 70
     0
  9
$DIMBLK
  1

  9
$DIMASO
 70
     1
  9
$DIMSHO
 70
     1
  9
$DIMPOST
  1

  9
$DIMAPOST
  1

  9
$DIMALT
 70
     0
  9
$DIMALTD
 70
     2
  9
$DIMALTF
 40
25.4
  9
$DIMLFAC
 40
1.0
  9
$DIMTOFL
 70
     0
  9
$DIMTVP
 40
0.0
  9
$DIMTIX
 70
     0
  9
$DIMSOXD
 70
     0
  9
$DIMSAH
 70
     0
  9
$DIMBLK1
  1

  9
$DIMBLK2
  1

  9
$DIMSTYLE
  2
STANDARD
  9
$DIMCLRD
 70
     0
  9
$DIMCLRE
 70
     0
  9
$DIMCLRT
 70
     0
  9
$DIMTFAC
 40
1.0
  9
$DIMGAP
 40
0.09
  9
$LUNITS
 70
     2
  9
$LUPREC
 70
     4
  9
$SKETCHINC
 40
0.1
  9
$FILLETRAD
 40
0.5
  9
$AUNITS
 70
     0
  9
$AUPREC
 70
     0
  9
$MENU
  1
.
  9
$ELEVATION
 40
0.0
  9
$PELEVATION
 40
0.0
  9
$THICKNESS
 40
0.0
  9
$LIMCHECK
 70
     0
  9
$CHAMFERA
 40
0.5
  9
$CHAMFERB
 40
0.5
  9
$SKPOLY
 70
     0
  9
$TDCREATE
 40
2455359.746848229
  9
$TDUPDATE
 40
2455359.746848229
  9
$TDINDWG
 40
0.0000000116
  9
$TDUSRTIMER
 40
0.0000000116
  9
$USRTIMER
 70
     1
  9
$ANGBASE
 50
0.0
  9
$ANGDIR
 70
     0
  9
$PDMODE
 70
     0
  9
$PDSIZE
 40
0.0
  9
$PLINEWID
 40
0.0
  9
$COORDS
 70
     1
  9
$SPLFRAME
 70
     0
  9
$SPLINETYPE
 70
     6
  9
$SPLINESEGS
 70
     8
  9
$ATTDIA
 70
     0
  9
$ATTREQ
 70
     1
  9
$HANDLING
 70
     1
  9
$HANDSEED
  5
9DA
  9
$SURFTAB1
 70
     6
  9
$SURFTAB2
 70
     6
  9
$SURFTYPE
 70
     6
  9
$SURFU
 70
     6
  9
$SURFV
 70
     6
  9
$UCSNAME
  2

  9
$UCSORG
 10
0.0
 20
0.0
 30
0.0
  9
$UCSXDIR
 10
1.0
 20
0.0
 30
0.0
  9
$UCSYDIR
 10
0.0
 20
1.0
 30
0.0
  9
$PUCSNAME
  2

  9
$PUCSORG
 10
0.0
 20
0.0
 30
0.0
  9
$PUCSXDIR
 10
1.0
 20
0.0
 30
0.0
  9
$PUCSYDIR
 10
0.0
 20
1.0
 30
0.0
  9
$USERI1
 70
     0
  9
$USERI2
 70
     0
  9
$USERI3
 70
     0
  9
$USERI4
 70
     0
  9
$USERI5
 70
     0
  9
$USERR1
 40
0.0
  9
$USERR2
 40
0.0
  9
$USERR3
 40
0.0
  9
$USERR4
 40
0.0
  9
$USERR5
 40
0.0
  9
$WORLDVIEW
 70
     1
  9
$SHADEDGE
 70
     3
  9
$SHADEDIF
 70
    70
  9
$TILEMODE
 70
     1
  9
$MAXACTVP
 70
    64
  9
$PLIMCHECK
 70
     0
  9
$PEXTMIN
 10
1.000000000000000E+20
 20
1.000000000000000E+20
 30
1.000000000000000E+20
  9
$PEXTMAX
 10
-1.000000000000000E+20
 20
-1.000000000000000E+20
 30
-1.000000000000000E+20
  9
$PLIMMIN
 10
0.0
 20
0.0
  9
$PLIMMAX
 10
12.0
 20
9.0
  9
$UNITMODE
 70
     0
  9
$VISRETAIN
 70
     1
  9
$PLINEGEN
 70
     0
  9
$PSLTSCALE
 70
     1
  0
ENDSEC
  0
SECTION
  2
TABLES
  0
TABLE
  2
VPORT
 70
     1
  0
VPORT
  2
*ACTIVE
 70
     0
 10
0.0
 20
0.0
 11
1.0
 21
1.0
 12
0.0
 22
0.0
 13
0.0
 23
0.0
 14
0.5
 24
0.5
 15
0.5
 25
0.5
 16
340.7879028320312
 26
194.7191619873047
 36
340.7879028320312
 17
89.74349975585938
 27
0.0
 37
9.0
 40
195.687300184735
 41
1.972972972850329
 42
50.0
 43
0.0
 44
0.0
 50
0.0
 51
0.0
 71
     0
 72
   100
 73
     1
 74
     3
 75
     0
 76
     0
 77
     0
 78
     0
  0
ENDTAB
  0
TABLE
  2
LTYPE
 70
     1
  0
LTYPE
  2
CONTINUOUS
 70
     0
  3
Solid line
 72
    65
 73
     0
 40
0.0
  0
ENDTAB
  0
TABLE
  2
LAYER
 70
     2
  0
LAYER
  2
0
 70
     0
 62
     7
  6
CONTINUOUS
  0
LAYER
  2
LAYER_1
 70
     0
 62
     7
  6
CONTINUOUS
  0
ENDTAB
  0
TABLE
  2
STYLE
 70
     1
  0
STYLE
  2
STANDARD
 70
     0
 40
0.0
 41
1.0
 50
0.0
 71
     0
 42
0.2
  3
txt
  4

  0
ENDTAB
  0
TABLE
  2
VIEW
 70
     0
  0
ENDTAB
  0
TABLE
  2
UCS
 70
     0
  0
ENDTAB
  0
TABLE
  2
APPID
 70
     1
  0
APPID
  2
ACAD
 70
     0
  0
ENDTAB
  0
TABLE
  2
DIMSTYLE
 70
     1
  0
DIMSTYLE
  2
STANDARD
 70
     0
  3

  4

  5

  6

  7

 40
1.0
 41
0.18
 42
0.0625
 43
0.38
 44
0.18
 45
0.0
 46
0.0
 47
0.0
 48
0.0
140
0.18
141
0.09
142
0.0
143
25.4
144
1.0
145
0.0
146
1.0
147
0.09
 71
     0
 72
     0
 73
     1
 74
     1
 75
     0
 76
     0
 77
     0
 78
     0
170
     0
171
     2
172
     0
173
     0
174
     0
175
     0
176
     0
177
     0
178
     0
  0
ENDTAB
  0
ENDSEC
  0
SECTION
  2
BLOCKS
  0
BLOCK
  8
0
  2
$MODEL_SPACE
 70
     0
 10
0.0
 20
0.0
 30
0.0
  3
$MODEL_SPACE
  1

  0
ENDBLK
  5
21
  8
0
  0
BLOCK
 67
     1
  8
0
  2
$PAPER_SPACE
 70
     0
 10
0.0
 20
0.0
 30
0.0
  3
$PAPER_SPACE
  1

  0
ENDBLK
  5
1D
 67
     1
  8
0
  0
BLOCK
  8
0
  2
E3_NODE
 70
     0
 10
0.0
 20
0.0
 30
0.0
  3
E3_NODE
  1

  0
POLYLINE
  5
3C
  8
0
 62
     9
 66
     1
 10
0.0
 20
0.0
 30
0.0
 70
    64
 71
    43
 72
    70
  0
VERTEX
  5
3D
  8
0
 10
86.66899871826172
 20
0.0020000000949949
 30
-10.78899955749512
 70
   192
  0
VERTEX
  5
3E
  8
0
 10
87.1719970703125
 20
7.995999813079834
 30
-9.03499984741211
 70
   192
  0
VERTEX
  5
3F
  8
0
 10
94.14900207519531
 20
6.03000020980835
 30
-6.788000106811523
 70
   192
  0
VERTEX
  5
40
  8
0
 10
93.76899719238281
 20
0.0020000000949949
 30
-8.111000061035156
 70
   192
  0
VERTEX
  5
41
  8
0
 10
88.58100128173828
 20
14.4069995880127
 30
-4.119999885559082
 70
   192
  0
VERTEX
  5
42
  8
0
 10
95.21099853515625
 20
10.86400032043457
 30
-3.082000017166138
 70
   192
  0
VERTEX
  5
43
  8
0
 10
90.61699676513672
 20
17.96500015258789
 30
2.980999946594238
 70
   192
  0
VERTEX
  5
44
  8
0
 10
96.74700164794922
 20
13.54699993133545
 30
2.273000001907349
 70
   192
  0
VERTEX
  5
45
  8
0
 10
92.87799835205078
 20
17.96500015258789
 30
10.86400032043457
 70
   192
  0
VERTEX
  5
46
  8
0
 10
98.45099639892578
 20
13.54699993133545
 30
8.217000007629395
 70
   192
  0
VERTEX
  5
47
  8
0
 10
94.91400146484375
 20
14.4069995880127
 30
17.96599960327148
 70
   192
  0
VERTEX
  5
48
  8
0
 10
99.98699951171875
 20
10.86400032043457
 30
13.57199954986572
 70
   192
  0
VERTEX
  5
49
  8
0
 10
96.322998046875
 20
7.995999813079834
 30
22.8799991607666
 70
   192
  0
VERTEX
  5
4A
  8
0
 10
101.0490036010742
 20
6.03000020980835
 30
17.27700042724609
 70
   192
  0
VERTEX
  5
4B
  8
0
 10
96.82599639892578
 20
0.0020000000949949
 30
24.63400077819824
 70
   192
  0
VERTEX
  5
4C
  8
0
 10
101.4280014038086
 20
0.0020000000949949
 30
18.60000038146973
 70
   192
  0
VERTEX
  5
4D
  8
0
 10
96.322998046875
 20
-7.993000030517578
 30
22.8799991607666
 70
   192
  0
VERTEX
  5
4E
  8
0
 10
101.0490036010742
 20
-6.026000022888184
 30
17.27700042724609
 70
   192
  0
VERTEX
  5
4F
  8
0
 10
94.91400146484375
 20
-14.4040002822876
 30
17.96599960327148
 70
   192
  0
VERTEX
  5
50
  8
0
 10
99.98699951171875
 20
-10.86100006103516
 30
13.57199954986572
 70
   192
  0
VERTEX
  5
51
  8
0
 10
92.87799835205078
 20
-17.96199989318848
 30
10.86400032043457
 70
   192
  0
VERTEX
  5
52
  8
0
 10
98.45099639892578
 20
-13.54300022125244
 30
8.217000007629395
 70
   192
  0
VERTEX
  5
53
  8
0
 10
90.61699676513672
 20
-17.96199989318848
 30
2.980999946594238
 70
   192
  0
VERTEX
  5
54
  8
0
 10
96.74700164794922
 20
-13.54300022125244
 30
2.273000001907349
 70
   192
  0
VERTEX
  5
55
  8
0
 10
88.58100128173828
 20
-14.4040002822876
 30
-4.119999885559082
 70
   192
  0
VERTEX
  5
56
  8
0
 10
95.21099853515625
 20
-10.86100006103516
 30
-3.082000017166138
 70
   192
  0
VERTEX
  5
57
  8
0
 10
87.1719970703125
 20
-7.993000030517578
 30
-9.03499984741211
 70
   192
  0
VERTEX
  5
58
  8
0
 10
94.14900207519531
 20
-6.026000022888184
 30
-6.788000106811523
 70
   192
  0
VERTEX
  5
59
  8
0
 10
99.61199951171875
 20
3.23799991607666
 30
-2.322999954223633
 70
   192
  0
VERTEX
  5
5A
  8
0
 10
99.40899658203125
 20
0.0020000000949949
 30
-3.032999992370605
 70
   192
  0
VERTEX
  5
5B
  8
0
 10
100.1829986572266
 20
5.831999778747559
 30
-0.3330000042915344
 70
   192
  0
VERTEX
  5
5C
  8
0
 10
101.0070037841797
 20
7.27299976348877
 30
2.540999889373779
 70
   192
  0
VERTEX
  5
5D
  8
0
 10
101.9219970703125
 20
7.27299976348877
 30
5.73199987411499
 70
   192
  0
VERTEX
  5
5E
  8
0
 10
102.7460021972656
 20
5.831999778747559
 30
8.605999946594238
 70
   192
  0
VERTEX
  5
5F
  8
0
 10
103.3170013427734
 20
3.23799991607666
 30
10.59500026702881
 70
   192
  0
VERTEX
  5
60
  8
0
 10
103.5199966430664
 20
0.0020000000949949
 30
11.30500030517578
 70
   192
  0
VERTEX
  5
61
  8
0
 10
103.3170013427734
 20
-3.233999967575073
 30
10.59500026702881
 70
   192
  0
VERTEX
  5
62
  8
0
 10
102.7460021972656
 20
-5.828999996185303
 30
8.605999946594238
 70
   192
  0
VERTEX
  5
63
  8
0
 10
101.9219970703125
 20
-7.269000053405762
 30
5.73199987411499
 70
   192
  0
VERTEX
  5
64
  8
0
 10
101.0070037841797
 20
-7.269000053405762
 30
2.540999889373779
 70
   192
  0
VERTEX
  5
65
  8
0
 10
100.1829986572266
 20
-5.828999996185303
 30
-0.3330000042915344
 70
   192
  0
VERTEX
  5
66
  8
0
 10
99.61199951171875
 20
-3.233999967575073
 30
-2.322999954223633
 70
   192
  0
VERTEX
  5
67
  8
0
 10
102.8150024414062
 20
0.0020000000949949
 30
3.749000072479248
 70
   192
  0
VERTEX
  5
68
  8
0
 62
     9
 10
0.0
 20
0.0
 30
0.0
 70
   128
 71
     3
 72
     2
 73
     1
  0
VERTEX
  5
69
  8
0
 62
     9
 10
0.0
 20
0.0
 30
0.0
 70
   128
 71
     4
 72
     3
 73
     1
  0
VERTEX
  5
6A
  8
0
 62
     9
 10
0.0
 20
0.0
 30
0.0
 70
   128
 71
     6
 72
     5
 73
     2
  0
VERTEX
  5
6B
  8
0
 62
     9
 10
0.0
 20
0.0
 30
0.0
 70
   128
 71
     3
 72
     6
 73
     2
  0
VERTEX
  5
6C
  8
0
 62
     9
 10
0.0
 20
0.0
 30
0.0
 70
   128
 71
     8
 72
     7
 73
     5
  0
VERTEX
  5
6D
  8
0
 62
     9
 10
0.0
 20
0.0
 30
0.0
 70
   128
 71
     6
 72
     8
 73
     5
  0
VERTEX
  5
6E
  8
0
 62
     9
 10
0.0
 20
0.0
 30
0.0
 70
   128
 71
    10
 72
     9
 73
     7
  0
VERTEX
  5
6F
  8
0
 62
     9
 10
0.0
 20
0.0
 30
0.0
 70
   128
 71
     8
 72
    10
 73
     7
  0
VERTEX
  5
70
  8
0
 62
     9
 10
0.0
 20
0.0
 30
0.0
 70
   128
 71
    12
 72
    11
 73
     9
  0
VERTEX
  5
71
  8
0
 62
     9
 10
0.0
 20
0.0
 30
0.0
 70
   128
 71
    10
 72
    12
 73
     9
  0
VERTEX
  5
72
  8
0
 62
     9
 10
0.0
 20
0.0
 30
0.0
 70
   128
 71
    14
 72
    13
 73
    11
  0
VERTEX
  5
73
  8
0
 62
     9
 10
0.0
 20
0.0
 30
0.0
 70
   128
 71
    12
 72
    14
 73
    11
  0
VERTEX
  5
74
  8
0
 62
     9
 10
0.0
 20
0.0
 30
0.0
 70
   128
 71
    16
 72
    15
 73
    13
  0
VERTEX
  5
75
  8
0
 62
     9
 10
0.0
 20
0.0
 30
0.0
 70
   128
 71
    14
 72
    16
 73
    13
  0
VERTEX
  5
76
  8
0
 62
     9
 10
0.0
 20
0.0
 30
0.0
 70
   128
 71
    18
 72
    17
 73
    15
  0
VERTEX
  5
77
  8
0
 62
     9
 10
0.0
 20
0.0
 30
0.0
 70
   128
 71
    16
 72
    18
 73
    15
  0
VERTEX
  5
78
  8
0
 62
     9
 10
0.0
 20
0.0
 30
0.0
 70
   128
 71
    20
 72
    19
 73
    17
  0
VERTEX
  5
79
  8
0
 62
     9
 10
0.0
 20
0.0
 30
0.0
 70
   128
 71
    18
 72
    20
 73
    17
  0
VERTEX
  5
7A
  8
0
 62
     9
 10
0.0
 20
0.0
 30
0.0
 70
   128
 71
    22
 72
    21
 73
    19
  0
VERTEX
  5
7B
  8
0
 62
     9
 10
0.0
 20
0.0
 30
0.0
 70
   128
 71
    20
 72
    22
 73
    19
  0
VERTEX
  5
7C
  8
0
 62
     9
 10
0.0
 20
0.0
 30
0.0
 70
   128
 71
    24
 72
    23
 73
    21
  0
VERTEX
  5
7D
  8
0
 62
     9
 10
0.0
 20
0.0
 30
0.0
 70
   128
 71
    22
 72
    24
 73
    21
  0
VERTEX
  5
7E
  8
0
 62
     9
 10
0.0
 20
0.0
 30
0.0
 70
   128
 71
    26
 72
    25
 73
    23
  0
VERTEX
  5
7F
  8
0
 62
     9
 10
0.0
 20
0.0
 30
0.0
 70
   128
 71
    24
 72
    26
 73
    23
  0
VERTEX
  5
80
  8
0
 62
     9
 10
0.0
 20
0.0
 30
0.0
 70
   128
 71
    28
 72
    27
 73
    25
  0
VERTEX
  5
81
  8
0
 62
     9
 10
0.0
 20
0.0
 30
0.0
 70
   128
 71
    26
 72
    28
 73
    25
  0
VERTEX
  5
82
  8
0
 62
     9
 10
0.0
 20
0.0
 30
0.0
 70
   128
 71
     4
 72
     1
 73
    27
  0
VERTEX
  5
83
  8
0
 62
     9
 10
0.0
 20
0.0
 30
0.0
 70
   128
 71
    28
 72
     4
 73
    27
  0
VERTEX
  5
84
  8
0
 62
     9
 10
0.0
 20
0.0
 30
0.0
 70
   128
 71
    29
 72
     3
 73
     4
  0
VERTEX
  5
85
  8
0
 62
     9
 10
0.0
 20
0.0
 30
0.0
 70
   128
 71
    30
 72
    29
 73
     4
  0
VERTEX
  5
86
  8
0
 62
     9
 10
0.0
 20
0.0
 30
0.0
 70
   128
 71
    31
 72
     6
 73
     3
  0
VERTEX
  5
87
  8
0
 62
     9
 10
0.0
 20
0.0
 30
0.0
 70
   128
 71
    29
 72
    31
 73
     3
  0
VERTEX
  5
88
  8
0
 62
     9
 10
0.0
 20
0.0
 30
0.0
 70
   128
 71
    32
 72
     8
 73
     6
  0
VERTEX
  5
89
  8
0
 62
     9
 10
0.0
 20
0.0
 30
0.0
 70
   128
 71
    31
 72
    32
 73
     6
  0
VERTEX
  5
8A
  8
0
 62
     9
 10
0.0
 20
0.0
 30
0.0
 70
   128
 71
    33
 72
    10
 73
     8
  0
VERTEX
  5
8B
  8
0
 62
     9
 10
0.0
 20
0.0
 30
0.0
 70
   128
 71
    32
 72
    33
 73
     8
  0
VERTEX
  5
8C
  8
0
 62
     9
 10
0.0
 20
0.0
 30
0.0
 70
   128
 71
    34
 72
    12
 73
    10
  0
VERTEX
  5
8D
  8
0
 62
     9
 10
0.0
 20
0.0
 30
0.0
 70
   128
 71
    33
 72
    34
 73
    10
  0
VERTEX
  5
8E
  8
0
 62
     9
 10
0.0
 20
0.0
 30
0.0
 70
   128
 71
    35
 72
    14
 73
    12
  0
VERTEX
  5
8F
  8
0
 62
     9
 10
0.0
 20
0.0
 30
0.0
 70
   128
 71
    34
 72
    35
 73
    12
  0
VERTEX
  5
90
  8
0
 62
     9
 10
0.0
 20
0.0
 30
0.0
 70
   128
 71
    36
 72
    16
 73
    14
  0
VERTEX
  5
91
  8
0
 62
     9
 10
0.0
 20
0.0
 30
0.0
 70
   128
 71
    35
 72
    36
 73
    14
  0
VERTEX
  5
92
  8
0
 62
     9
 10
0.0
 20
0.0
 30
0.0
 70
   128
 71
    37
 72
    18
 73
    16
  0
VERTEX
  5
93
  8
0
 62
     9
 10
0.0
 20
0.0
 30
0.0
 70
   128
 71
    36
 72
    37
 73
    16
  0
VERTEX
  5
94
  8
0
 62
     9
 10
0.0
 20
0.0
 30
0.0
 70
   128
 71
    38
 72
    20
 73
    18
  0
VERTEX
  5
95
  8
0
 62
     9
 10
0.0
 20
0.0
 30
0.0
 70
   128
 71
    37
 72
    38
 73
    18
  0
VERTEX
  5
96
  8
0
 62
     9
 10
0.0
 20
0.0
 30
0.0
 70
   128
 71
    39
 72
    22
 73
    20
  0
VERTEX
  5
97
  8
0
 62
     9
 10
0.0
 20
0.0
 30
0.0
 70
   128
 71
    38
 72
    39
 73
    20
  0
VERTEX
  5
98
  8
0
 62
     9
 10
0.0
 20
0.0
 30
0.0
 70
   128
 71
    40
 72
    24
 73
    22
  0
VERTEX
  5
99
  8
0
 62
     9
 10
0.0
 20
0.0
 30
0.0
 70
   128
 71
    39
 72
    40
 73
    22
  0
VERTEX
  5
9A
  8
0
 62
     9
 10
0.0
 20
0.0
 30
0.0
 70
   128
 71
    41
 72
    26
 73
    24
  0
VERTEX
  5
9B
  8
0
 62
     9
 10
0.0
 20
0.0
 30
0.0
 70
   128
 71
    40
 72
    41
 73
    24
  0
VERTEX
  5
9C
  8
0
 62
     9
 10
0.0
 20
0.0
 30
0.0
 70
   128
 71
    42
 72
    28
 73
    26
  0
VERTEX
  5
9D
  8
0
 62
     9
 10
0.0
 20
0.0
 30
0.0
 70
   128
 71
    41
 72
    42
 73
    26
  0
VERTEX
  5
9E
  8
0
 62
     9
 10
0.0
 20
0.0
 30
0.0
 70
   128
 71
    30
 72
     4
 73
    28
  0
VERTEX
  5
9F
  8
0
 62
     9
 10
0.0
 20
0.0
 30
0.0
 70
   128
 71
    42
 72
    30
 73
    28
  0
VERTEX
  5
A0
  8
0
 62
     9
 10
0.0
 20
0.0
 30
0.0
 70
   128
 71
    43
 72
    29
 73
    30
  0
VERTEX
  5
A1
  8
0
 62
     9
 10
0.0
 20
0.0
 30
0.0
 70
   128
 71
    43
 72
    31
 73
    29
  0
VERTEX
  5
A2
  8
0
 62
     9
 10
0.0
 20
0.0
 30
0.0
 70
   128
 71
    43
 72
    32
 73
    31
  0
VERTEX
  5
A3
  8
0
 62
     9
 10
0.0
 20
0.0
 30
0.0
 70
   128
 71
    43
 72
    33
 73
    32
  0
VERTEX
  5
A4
  8
0
 62
     9
 10
0.0
 20
0.0
 30
0.0
 70
   128
 71
    43
 72
    34
 73
    33
  0
VERTEX
  5
A5
  8
0
 62
     9
 10
0.0
 20
0.0
 30
0.0
 70
   128
 71
    43
 72
    35
 73
    34
  0
VERTEX
  5
A6
  8
0
 62
     9
 10
0.0
 20
0.0
 30
0.0
 70
   128
 71
    43
 72
    36
 73
    35
  0
VERTEX
  5
A7
  8
0
 62
     9
 10
0.0
 20
0.0
 30
0.0
 70
   128
 71
    43
 72
    37
 73
    36
  0
VERTEX
  5
A8
  8
0
 62
     9
 10
0.0
 20
0.0
 30
0.0
 70
   128
 71
    43
 72
    38
 73
    37
  0
VERTEX
  5
A9
  8
0
 62
     9
 10
0.0
 20
0.0
 30
0.0
 70
   128
 71
    43
 72
    39
 73
    38
  0
VERTEX
  5
AA
  8
0
 62
     9
 10
0.0
 20
0.0
 30
0.0
 70
   128
 71
    43
 72
    40
 73
    39
  0
VERTEX
  5
AB
  8
0
 62
     9
 10
0.0
 20
0.0
 30
0.0
 70
   128
 71
    43
 72
    41
 73
    40
  0
VERTEX
  5
AC
  8
0
 62
     9
 10
0.0
 20
0.0
 30
0.0
 70
   128
 71
    43
 72
    42
 73
    41
  0
VERTEX
  5
AD
  8
0
 62
     9
 10
0.0
 20
0.0
 30
0.0
 70
   128
 71
    43
 72
    30
 73
    42
  0
SEQEND
  5
AE
  8
0
 62
     9
  0
ENDBLK
  5
B2
  8
0
  0
BLOCK
  8
0
  2
E3_NODE_1_
 70
     0
 10
0.0
 20
0.0
 30
0.0
  3
E3_NODE_1_
  1

  0
POLYLINE
  5
B4
  8
0
 62
     9
 66
     1
 10
0.0
 20
0.0
 30
0.0
 70
    64
 71
    49
 72
    48
  0
VERTEX
  5
B5
  8
0
 10
72.8030014038086
 20
0.0
 30
9.0
 70
   192
  0
VERTEX
  5
B6
  8
0
 10
72.06199645996094
 20
85.53900146484375
 30
-30.57500076293945
 70
   192
  0
VERTEX
  5
B7
  8
0
 10
72.06199645996094
 20
89.11900329589844
 30
-19.95000076293945
 70
   192
  0
VERTEX
  5
B8
  8
0
 10
72.06199645996094
 20
75.03199768066406
 30
-48.03799819946289
 70
   192
  0
VERTEX
  5
B9
  8
0
 10
72.06199645996094
 20
76.08000183105469
 30
-46.29600143432617
 70
   192
  0
VERTEX
  5
BA
  8
0
 10
72.06199645996094
 20
44.14699935913086
 30
-74.27100372314453
 70
   192
  0
VERTEX
  5
BB
  8
0
 10
72.06199645996094
 20
55.11700057983398
 30
-66.83399963378906
 70
   192
  0
VERTEX
  5
BC
  8
0
 10
72.06199645996094
 20
25.21500015258789
 30
-81.81500244140625
 70
   192
  0
VERTEX
  5
BD
  8
0
 10
72.06199645996094
 20
28.99399948120117
 30
-80.30899810791016
 70
   192
  0
VERTEX
  5
BE
  8
0
 10
72.06199645996094
 20
-15.2480001449585
 30
-84.00800323486328
 70
   192
  0
VERTEX
  5
BF
  8
0
 10
72.06199645996094
 20
0.0219999998807907
 30
-84.83599853515625
 70
   192
  0
VERTEX
  5
C0
  8
0
 10
72.06199645996094
 20
-34.88600158691406
 30
-78.55599975585938
 70
   192
  0
VERTEX
  5
C1
  8
0
 10
72.06199645996094
 20
-29.00099945068359
 30
-80.19000244140625
 70
   192
  0
VERTEX
  5
C2
  8
0
 10
72.06199645996094
 20
-68.42500305175781
 30
-55.81600189208984
 70
   192
  0
VERTEX
  5
C3
  8
0
 10
72.06199645996094
 20
-55.21599960327148
 30
-67.03500366210938
 70
   192
  0
VERTEX
  5
C4
  8
0
 10
72.06199645996094
 20
-80.75900268554688
 30
-39.59099960327148
 70
   192
  0
VERTEX
  5
C5
  8
0
 10
72.06199645996094
 20
-75.8280029296875
 30
-46.07799911499023
 70
   192
  0
VERTEX
  5
C6
  8
0
 10
72.06199645996094
 20
-93.697998046875
 30
-1.190000057220459
 70
   192
  0
VERTEX
  5
C7
  8
0
 10
72.06199645996094
 20
-89.53500366210938
 30
-20.10199928283691
 70
   192
  0
VERTEX
  5
C8
  8
0
 10
72.06199645996094
 20
-93.697998046875
 30
19.19000053405762
 70
   192
  0
VERTEX
  5
C9
  8
0
 10
72.06199645996094
 20
-93.697998046875
 30
9.0
 70
   192
  0
VERTEX
  5
CA
  8
0
 10
72.06199645996094
 20
-89.31600189208984
 30
39.09400177001953
 70
   192
  0
VERTEX
  5
CB
  8
0
 10
72.06199645996094
 20
-89.53500366210938
 30
38.10200119018555
 70
   192
  0
VERTEX
  5
CC
  8
0
 10
72.06199645996094
 20
-68.42500305175781
 30
73.81600189208984
 70
   192
  0
VERTEX
  5
CD
  8
0
 10
72.06199645996094
 20
-75.8280029296875
 30
64.0780029296875
 70
   192
  0
VERTEX
  5
CE
  8
0
 10
72.06199645996094
 20
-52.89199829101562
 30
87.01000213623047
 70
   192
  0
VERTEX
  5
CF
  8
0
 10
72.06199645996094
 20
-55.21599960327148
 30
85.03500366210938
 70
   192
  0
VERTEX
  5
D0
  8
0
 10
72.06199645996094
 20
-15.2480001449585
 30
102.0080032348633
 70
   192
  0
VERTEX
  5
D1
  8
0
 10
72.06199645996094
 20
-29.00099945068359
 30
98.19000244140625
 70
   192
  0
VERTEX
  5
D2
  8
0
 10
72.06199645996094
 20
5.103000164031982
 30
103.1119995117188
 70
   192
  0
VERTEX
  5
D3
  8
0
 10
72.06199645996094
 20
0.0
 30
103.25
 70
   192
  0
VERTEX
  5
D4
  8
0
 10
72.06199645996094
 20
44.14699935913086
 30
92.27100372314453
 70
   192
  0
VERTEX
  5
D5
  8
0
 10
72.06199645996094
 20
28.99399948120117
 30
98.30899810791016
 70
   192
  0
VERTEX
  5
D6
  8
0
 10
72.06199645996094
 20
61.01599884033203
 30
80.83399963378906
 70
   192
  0
VERTEX
  5
D7
  8
0
 10
72.06199645996094
 20
55.11700057983398
 30
84.83399963378906
 70
   192
  0
VERTEX
  5
D8
  8
0
 10
72.06199645996094
 20
85.53900146484375
 30
48.57500076293945
 70
   192
  0
VERTEX
  5
D9
  8
0
 10
72.06199645996094
 20
76.08000183105469
 30
64.2959976196289
 70
   192
  0
VERTEX
  5
DA
  8
0
 10
72.06199645996094
 20
92.0459976196289
 30
29.26099967956543
 70
   192
  0
VERTEX
  5
DB
  8
0
 10
72.06199645996094
 20
89.11900329589844
 30
37.95000076293945
 70
   192
  0
VERTEX
  5
DC
  8
0
 10
72.06199645996094
 20
94.25
 30
9.0
 70
   192
  0
VERTEX
  5
DD
  8
0
 10
72.06199645996094
 20
75.03199768066406
 30
66.03800201416016
 70
   192
  0
VERTEX
  5
DE
  8
0
 10
72.06199645996094
 20
25.21500015258789
 30
99.81500244140625
 70
   192
  0
VERTEX
  5
DF
  8
0
 10
72.06199645996094
 20
-34.88600158691406
 30
96.55599975585938
 70
   192
  0
VERTEX
  5
E0
  8
0
 10
72.06199645996094
 20
-80.75900268554688
 30
57.59099960327148
 70
   192
  0
VERTEX
  5
E1
  8
0
 10
72.06199645996094
 20
-89.31600189208984
 30
-21.0939998626709
 70
   192
  0
VERTEX
  5
E2
  8
0
 10
72.06199645996094
 20
-52.89199829101562
 30
-69.01000213623047
 70
   192
  0
VERTEX
  5
E3
  8
0
 10
72.06199645996094
 20
5.103000164031982
 30
-85.11199951171875
 70
   192
  0
VERTEX
  5
E4
  8
0
 10
72.06199645996094
 20
61.01599884033203
 30
-62.83399963378906
 70
   192
  0
VERTEX
  5
E5
  8
0
 10
72.06199645996094
 20
92.0459976196289
 30
-11.26099967956543
 70
   192
  0
VERTEX
  5
E6
  8
0
 62
     9
 10
0.0
 20
0.0
 30
0.0
 70
   128
 71
     3
 72
     2
 73
     1
  0
VERTEX
  5
E7
  8
0
 62
     9
 10
0.0
 20
0.0
 30
0.0
 70
   128
 71
     5
 72
     4
 73
     1
  0
VERTEX
  5
E8
  8
0
 62
     9
 10
0.0
 20
0.0
 30
0.0
 70
   128
 71
     7
 72
     6
 73
     1
  0
VERTEX
  5
E9
  8
0
 62
     9
 10
0.0
 20
0.0
 30
0.0
 70
   128
 71
     9
 72
     8
 73
     1
  0
VERTEX
  5
EA
  8
0
 62
     9
 10
0.0
 20
0.0
 30
0.0
 70
   128
 71
    11
 72
    10
 73
     1
  0
VERTEX
  5
EB
  8
0
 62
     9
 10
0.0
 20
0.0
 30
0.0
 70
   128
 71
    13
 72
    12
 73
     1
  0
VERTEX
  5
EC
  8
0
 62
     9
 10
0.0
 20
0.0
 30
0.0
 70
   128
 71
    15
 72
    14
 73
     1
  0
VERTEX
  5
ED
  8
0
 62
     9
 10
0.0
 20
0.0
 30
0.0
 70
   128
 71
    17
 72
    16
 73
     1
  0
VERTEX
  5
EE
  8
0
 62
     9
 10
0.0
 20
0.0
 30
0.0
 70
   128
 71
    19
 72
    18
 73
     1
  0
VERTEX
  5
EF
  8
0
 62
     9
 10
0.0
 20
0.0
 30
0.0
 70
   128
 71
    21
 72
    20
 73
     1
  0
VERTEX
  5
F0
  8
0
 62
     9
 10
0.0
 20
0.0
 30
0.0
 70
   128
 71
    23
 72
    22
 73
     1
  0
VERTEX
  5
F1
  8
0
 62
     9
 10
0.0
 20
0.0
 30
0.0
 70
   128
 71
    25
 72
    24
 73
     1
  0
VERTEX
  5
F2
  8
0
 62
     9
 10
0.0
 20
0.0
 30
0.0
 70
   128
 71
    27
 72
    26
 73
     1
  0
VERTEX
  5
F3
  8
0
 62
     9
 10
0.0
 20
0.0
 30
0.0
 70
   128
 71
    29
 72
    28
 73
     1
  0
VERTEX
  5
F4
  8
0
 62
     9
 10
0.0
 20
0.0
 30
0.0
 70
   128
 71
    31
 72
    30
 73
     1
  0
VERTEX
  5
F5
  8
0
 62
     9
 10
0.0
 20
0.0
 30
0.0
 70
   128
 71
    33
 72
    32
 73
     1
  0
VERTEX
  5
F6
  8
0
 62
     9
 10
0.0
 20
0.0
 30
0.0
 70
   128
 71
    35
 72
    34
 73
     1
  0
VERTEX
  5
F7
  8
0
 62
     9
 10
0.0
 20
0.0
 30
0.0
 70
   128
 71
    37
 72
    36
 73
     1
  0
VERTEX
  5
F8
  8
0
 62
     9
 10
0.0
 20
0.0
 30
0.0
 70
   128
 71
    39
 72
    38
 73
     1
  0
VERTEX
  5
F9
  8
0
 62
     9
 10
0.0
 20
0.0
 30
0.0
 70
   128
 71
     1
 72
    38
 73
    40
  0
VERTEX
  5
FA
  8
0
 62
     9
 10
0.0
 20
0.0
 30
0.0
 70
   128
 71
     1
 72
    36
 73
    39
  0
VERTEX
  5
FB
  8
0
 62
     9
 10
0.0
 20
0.0
 30
0.0
 70
   128
 71
     1
 72
    41
 73
    37
  0
VERTEX
  5
FC
  8
0
 62
     9
 10
0.0
 20
0.0
 30
0.0
 70
   128
 71
     1
 72
    34
 73
    41
  0
VERTEX
  5
FD
  8
0
 62
     9
 10
0.0
 20
0.0
 30
0.0
 70
   128
 71
     1
 72
    32
 73
    35
  0
VERTEX
  5
FE
  8
0
 62
     9
 10
0.0
 20
0.0
 30
0.0
 70
   128
 71
     1
 72
    42
 73
    33
  0
VERTEX
  5
FF
  8
0
 62
     9
 10
0.0
 20
0.0
 30
0.0
 70
   128
 71
     1
 72
    30
 73
    42
  0
VERTEX
  5
100
  8
0
 62
     9
 10
0.0
 20
0.0
 30
0.0
 70
   128
 71
     1
 72
    28
 73
    31
  0
VERTEX
  5
101
  8
0
 62
     9
 10
0.0
 20
0.0
 30
0.0
 70
   128
 71
     1
 72
    43
 73
    29
  0
VERTEX
  5
102
  8
0
 62
     9
 10
0.0
 20
0.0
 30
0.0
 70
   128
 71
     1
 72
    26
 73
    43
  0
VERTEX
  5
103
  8
0
 62
     9
 10
0.0
 20
0.0
 30
0.0
 70
   128
 71
     1
 72
    24
 73
    27
  0
VERTEX
  5
104
  8
0
 62
     9
 10
0.0
 20
0.0
 30
0.0
 70
   128
 71
     1
 72
    44
 73
    25
  0
VERTEX
  5
105
  8
0
 62
     9
 10
0.0
 20
0.0
 30
0.0
 70
   128
 71
     1
 72
    22
 73
    44
  0
VERTEX
  5
106
  8
0
 62
     9
 10
0.0
 20
0.0
 30
0.0
 70
   128
 71
     1
 72
    20
 73
    23
  0
VERTEX
  5
107
  8
0
 62
     9
 10
0.0
 20
0.0
 30
0.0
 70
   128
 71
     1
 72
    18
 73
    21
  0
VERTEX
  5
108
  8
0
 62
     9
 10
0.0
 20
0.0
 30
0.0
 70
   128
 71
     1
 72
    45
 73
    19
  0
VERTEX
  5
109
  8
0
 62
     9
 10
0.0
 20
0.0
 30
0.0
 70
   128
 71
     1
 72
    16
 73
    45
  0
VERTEX
  5
10A
  8
0
 62
     9
 10
0.0
 20
0.0
 30
0.0
 70
   128
 71
     1
 72
    14
 73
    17
  0
VERTEX
  5
10B
  8
0
 62
     9
 10
0.0
 20
0.0
 30
0.0
 70
   128
 71
     1
 72
    46
 73
    15
  0
VERTEX
  5
10C
  8
0
 62
     9
 10
0.0
 20
0.0
 30
0.0
 70
   128
 71
     1
 72
    12
 73
    46
  0
VERTEX
  5
10D
  8
0
 62
     9
 10
0.0
 20
0.0
 30
0.0
 70
   128
 71
     1
 72
    10
 73
    13
  0
VERTEX
  5
10E
  8
0
 62
     9
 10
0.0
 20
0.0
 30
0.0
 70
   128
 71
     1
 72
    47
 73
    11
  0
VERTEX
  5
10F
  8
0
 62
     9
 10
0.0
 20
0.0
 30
0.0
 70
   128
 71
     1
 72
     8
 73
    47
  0
VERTEX
  5
110
  8
0
 62
     9
 10
0.0
 20
0.0
 30
0.0
 70
   128
 71
     1
 72
     6
 73
     9
  0
VERTEX
  5
111
  8
0
 62
     9
 10
0.0
 20
0.0
 30
0.0
 70
   128
 71
     1
 72
    48
 73
     7
  0
VERTEX
  5
112
  8
0
 62
     9
 10
0.0
 20
0.0
 30
0.0
 70
   128
 71
     1
 72
     4
 73
    48
  0
VERTEX
  5
113
  8
0
 62
     9
 10
0.0
 20
0.0
 30
0.0
 70
   128
 71
     1
 72
     2
 73
     5
  0
VERTEX
  5
114
  8
0
 62
     9
 10
0.0
 20
0.0
 30
0.0
 70
   128
 71
     1
 72
    49
 73
     3
  0
VERTEX
  5
115
  8
0
 62
     9
 10
0.0
 20
0.0
 30
0.0
 70
   128
 71
     1
 72
    40
 73
    49
  0
SEQEND
  5
116
  8
0
 62
     9
  0
ENDBLK
  5
119
  8
0
  0
BLOCK
  8
0
  2
E3_NODE_2_
 70
     0
 10
0.0
 20
0.0
 30
0.0
  3
E3_NODE_2_
  1

  0
POLYLINE
  5
11B
  8
0
 62
     9
 66
     1
 10
0.0
 20
0.0
 30
0.0
 70
    64
 71
    68
 72
    68
  0
VERTEX
  5
11C
  8
0
 10
59.00299835205078
 20
29.125
 30
98.63700103759766
 70
   192
  0
VERTEX
  5
11D
  8
0
 10
59.00299835205078
 20
0.0
 30
103.25
 70
   192
  0
VERTEX
  5
11E
  8
0
 10
72.06199645996094
 20
5.103000164031982
 30
103.1119995117188
 70
   192
  0
VERTEX
  5
11F
  8
0
 10
72.06199645996094
 20
25.21500015258789
 30
99.81500244140625
 70
   192
  0
VERTEX
  5
120
  8
0
 10
72.06199645996094
 20
0.0
 30
103.25
 70
   192
  0
VERTEX
  5
121
  8
0
 10
72.06199645996094
 20
28.99399948120117
 30
98.30899810791016
 70
   192
  0
VERTEX
  5
122
  8
0
 10
72.06199645996094
 20
44.14699935913086
 30
92.27100372314453
 70
   192
  0
VERTEX
  5
123
  8
0
 10
59.00299835205078
 20
55.39899826049805
 30
85.25
 70
   192
  0
VERTEX
  5
124
  8
0
 10
59.00299835205078
 20
76.25
 30
64.39900207519531
 70
   192
  0
VERTEX
  5
125
  8
0
 10
72.06199645996094
 20
61.01599884033203
 30
80.83399963378906
 70
   192
  0
VERTEX
  5
126
  8
0
 10
72.06199645996094
 20
75.03199768066406
 30
66.03800201416016
 70
   192
  0
VERTEX
  5
127
  8
0
 10
72.06199645996094
 20
55.11700057983398
 30
84.83399963378906
 70
   192
  0
VERTEX
  5
128
  8
0
 10
72.06199645996094
 20
76.08000183105469
 30
64.2959976196289
 70
   192
  0
VERTEX
  5
129
  8
0
 10
72.06199645996094
 20
85.53900146484375
 30
48.57500076293945
 70
   192
  0
VERTEX
  5
12A
  8
0
 10
59.00299835205078
 20
89.63700103759766
 30
38.125
 70
   192
  0
VERTEX
  5
12B
  8
0
 10
59.00299835205078
 20
94.25
 30
9.0
 70
   192
  0
VERTEX
  5
12C
  8
0
 10
72.06199645996094
 20
92.0459976196289
 30
29.26099967956543
 70
   192
  0
VERTEX
  5
12D
  8
0
 10
72.06199645996094
 20
89.11900329589844
 30
37.95000076293945
 70
   192
  0
VERTEX
  5
12E
  8
0
 10
72.06199645996094
 20
94.25
 30
9.0
 70
   192
  0
VERTEX
  5
12F
  8
0
 10
72.06199645996094
 20
92.0459976196289
 30
-11.26099967956543
 70
   192
  0
VERTEX
  5
130
  8
0
 10
59.00299835205078
 20
89.63700103759766
 30
-20.125
 70
   192
  0
VERTEX
  5
131
  8
0
 10
59.00299835205078
 20
76.25
 30
-46.39899826049805
 70
   192
  0
VERTEX
  5
132
  8
0
 10
72.06199645996094
 20
85.53900146484375
 30
-30.57500076293945
 70
   192
  0
VERTEX
  5
133
  8
0
 10
72.06199645996094
 20
89.11900329589844
 30
-19.95000076293945
 70
   192
  0
VERTEX
  5
134
  8
0
 10
72.06199645996094
 20
75.03199768066406
 30
-48.03799819946289
 70
   192
  0
VERTEX
  5
135
  8
0
 10
72.06199645996094
 20
61.01599884033203
 30
-62.83399963378906
 70
   192
  0
VERTEX
  5
136
  8
0
 10
72.06199645996094
 20
76.08000183105469
 30
-46.29600143432617
 70
   192
  0
VERTEX
  5
137
  8
0
 10
59.00299835205078
 20
55.39899826049805
 30
-67.25
 70
   192
  0
VERTEX
  5
138
  8
0
 10
59.00299835205078
 20
29.125
 30
-80.63700103759766
 70
   192
  0
VERTEX
  5
139
  8
0
 10
72.06199645996094
 20
44.14699935913086
 30
-74.27100372314453
 70
   192
  0
VERTEX
  5
13A
  8
0
 10
72.06199645996094
 20
55.11700057983398
 30
-66.83399963378906
 70
   192
  0
VERTEX
  5
13B
  8
0
 10
72.06199645996094
 20
25.21500015258789
 30
-81.81500244140625
 70
   192
  0
VERTEX
  5
13C
  8
0
 10
72.06199645996094
 20
5.103000164031982
 30
-85.11199951171875
 70
   192
  0
VERTEX
  5
13D
  8
0
 10
72.06199645996094
 20
28.99399948120117
 30
-80.30899810791016
 70
   192
  0
VERTEX
  5
13E
  8
0
 10
59.00299835205078
 20
0.0
 30
-85.25
 70
   192
  0
VERTEX
  5
13F
  8
0
 10
72.06199645996094
 20
0.0219999998807907
 30
-84.83599853515625
 70
   192
  0
VERTEX
  5
140
  8
0
 10
72.06199645996094
 20
-15.2480001449585
 30
-84.00800323486328
 70
   192
  0
VERTEX
  5
141
  8
0
 10
59.00299835205078
 20
-29.125
 30
-80.63700103759766
 70
   192
  0
VERTEX
  5
142
  8
0
 10
59.00299835205078
 20
-55.39899826049805
 30
-67.25
 70
   192
  0
VERTEX
  5
143
  8
0
 10
72.06199645996094
 20
-34.88600158691406
 30
-78.55599975585938
 70
   192
  0
VERTEX
  5
144
  8
0
 10
72.06199645996094
 20
-52.89199829101562
 30
-69.01000213623047
 70
   192
  0
VERTEX
  5
145
  8
0
 10
72.06199645996094
 20
-29.00099945068359
 30
-80.19000244140625
 70
   192
  0
VERTEX
  5
146
  8
0
 10
72.06199645996094
 20
-55.21599960327148
 30
-67.03500366210938
 70
   192
  0
VERTEX
  5
147
  8
0
 10
72.06199645996094
 20
-68.42500305175781
 30
-55.81600189208984
 70
   192
  0
VERTEX
  5
148
  8
0
 10
59.00299835205078
 20
-76.25
 30
-46.39899826049805
 70
   192
  0
VERTEX
  5
149
  8
0
 10
59.00299835205078
 20
-89.63700103759766
 30
-20.125
 70
   192
  0
VERTEX
  5
14A
  8
0
 10
72.06199645996094
 20
-80.75900268554688
 30
-39.59099960327148
 70
   192
  0
VERTEX
  5
14B
  8
0
 10
72.06199645996094
 20
-89.31600189208984
 30
-21.0939998626709
 70
   192
  0
VERTEX
  5
14C
  8
0
 10
72.06199645996094
 20
-75.8280029296875
 30
-46.07799911499023
 70
   192
  0
VERTEX
  5
14D
  8
0
 10
72.06199645996094
 20
-89.53500366210938
 30
-20.10199928283691
 70
   192
  0
VERTEX
  5
14E
  8
0
 10
72.06199645996094
 20
-93.697998046875
 30
-1.190000057220459
 70
   192
  0
VERTEX
  5
14F
  8
0
 10
59.00299835205078
 20
-94.25
 30
9.0
 70
   192
  0
VERTEX
  5
150
  8
0
 10
59.00299835205078
 20
-89.63700103759766
 30
38.125
 70
   192
  0
VERTEX
  5
151
  8
0
 10
72.06199645996094
 20
-93.697998046875
 30
19.19000053405762
 70
   192
  0
VERTEX
  5
152
  8
0
 10
72.06199645996094
 20
-93.697998046875
 30
9.0
 70
   192
  0
VERTEX
  5
153
  8
0
 10
72.06199645996094
 20
-89.31600189208984
 30
39.09400177001953
 70
   192
  0
VERTEX
  5
154
  8
0
 10
72.06199645996094
 20
-80.75900268554688
 30
57.59099960327148
 70
   192
  0
VERTEX
  5
155
  8
0
 10
59.00299835205078
 20
-76.25
 30
64.39900207519531
 70
   192
  0
VERTEX
  5
156
  8
0
 10
72.06199645996094
 20
-89.53500366210938
 30
38.10200119018555
 70
   192
  0
VERTEX
  5
157
  8
0
 10
59.00299835205078
 20
-55.39899826049805
 30
85.25
 70
   192
  0
VERTEX
  5
158
  8
0
 10
72.06199645996094
 20
-68.42500305175781
 30
73.81600189208984
 70
   192
  0
VERTEX
  5
159
  8
0
 10
72.06199645996094
 20
-75.8280029296875
 30
64.0780029296875
 70
   192
  0
VERTEX
  5
15A
  8
0
 10
72.06199645996094
 20
-52.89199829101562
 30
87.01000213623047
 70
   192
  0
VERTEX
  5
15B
  8
0
 10
72.06199645996094
 20
-34.88600158691406
 30
96.55599975585938
 70
   192
  0
VERTEX
  5
15C
  8
0
 10
59.00299835205078
 20
-29.125
 30
98.63700103759766
 70
   192
  0
VERTEX
  5
15D
  8
0
 10
72.06199645996094
 20
-55.21599960327148
 30
85.03500366210938
 70
   192
  0
VERTEX
  5
15E
  8
0
 10
72.06199645996094
 20
-15.2480001449585
 30
102.0080032348633
 70
   192
  0
VERTEX
  5
15F
  8
0
 10
72.06199645996094
 20
-29.00099945068359
 30
98.19000244140625
 70
   192
  0
VERTEX
  5
160
  8
0
 62
     9
 10
0.0
 20
0.0
 30
0.0
 70
   128
 71
     3
 72
     2
 73
     1
  0
VERTEX
  5
161
  8
0
 62
     9
 10
0.0
 20
0.0
 30
0.0
 70
   128
 71
     1
 72
     4
 73
     3
  0
VERTEX
  5
162
  8
0
 62
     9
 10
0.0
 20
0.0
 30
0.0
 70
   128
 71
     3
 72
     5
 73
     2
  0
VERTEX
  5
163
  8
0
 62
     9
 10
0.0
 20
0.0
 30
0.0
 70
   128
 71
     7
 72
     6
 73
     1
  0
VERTEX
  5
164
  8
0
 62
     9
 10
0.0
 20
0.0
 30
0.0
 70
   128
 71
     1
 72
     8
 73
     7
  0
VERTEX
  5
165
  8
0
 62
     9
 10
0.0
 20
0.0
 30
0.0
 70
   128
 71
    10
 72
     8
 73
     9
  0
VERTEX
  5
166
  8
0
 62
     9
 10
0.0
 20
0.0
 30
0.0
 70
   128
 71
     9
 72
    11
 73
    10
  0
VERTEX
  5
167
  8
0
 62
     9
 10
0.0
 20
0.0
 30
0.0
 70
   128
 71
    10
 72
    12
 73
     8
  0
VERTEX
  5
168
  8
0
 62
     9
 10
0.0
 20
0.0
 30
0.0
 70
   128
 71
    14
 72
    13
 73
     9
  0
VERTEX
  5
169
  8
0
 62
     9
 10
0.0
 20
0.0
 30
0.0
 70
   128
 71
     9
 72
    15
 73
    14
  0
VERTEX
  5
16A
  8
0
 62
     9
 10
0.0
 20
0.0
 30
0.0
 70
   128
 71
    17
 72
    15
 73
    16
  0
VERTEX
  5
16B
  8
0
 62
     9
 10
0.0
 20
0.0
 30
0.0
 70
   128
 71
    17
 72
    18
 73
    15
  0
VERTEX
  5
16C
  8
0
 62
     9
 10
0.0
 20
0.0
 30
0.0
 70
   128
 71
    20
 72
    19
 73
    16
  0
VERTEX
  5
16D
  8
0
 62
     9
 10
0.0
 20
0.0
 30
0.0
 70
   128
 71
    16
 72
    21
 73
    20
  0
VERTEX
  5
16E
  8
0
 62
     9
 10
0.0
 20
0.0
 30
0.0
 70
   128
 71
    23
 72
    21
 73
    22
  0
VERTEX
  5
16F
  8
0
 62
     9
 10
0.0
 20
0.0
 30
0.0
 70
   128
 71
    23
 72
    24
 73
    21
  0
VERTEX
  5
170
  8
0
 62
     9
 10
0.0
 20
0.0
 30
0.0
 70
   128
 71
    26
 72
    25
 73
    22
  0
VERTEX
  5
171
  8
0
 62
     9
 10
0.0
 20
0.0
 30
0.0
 70
   128
 71
    25
 72
    27
 73
    22
  0
VERTEX
  5
172
  8
0
 62
     9
 10
0.0
 20
0.0
 30
0.0
 70
   128
 71
    22
 72
    28
 73
    26
  0
VERTEX
  5
173
  8
0
 62
     9
 10
0.0
 20
0.0
 30
0.0
 70
   128
 71
    30
 72
    28
 73
    29
  0
VERTEX
  5
174
  8
0
 62
     9
 10
0.0
 20
0.0
 30
0.0
 70
   128
 71
    30
 72
    31
 73
    28
  0
VERTEX
  5
175
  8
0
 62
     9
 10
0.0
 20
0.0
 30
0.0
 70
   128
 71
    33
 72
    32
 73
    29
  0
VERTEX
  5
176
  8
0
 62
     9
 10
0.0
 20
0.0
 30
0.0
 70
   128
 71
    32
 72
    34
 73
    29
  0
VERTEX
  5
177
  8
0
 62
     9
 10
0.0
 20
0.0
 30
0.0
 70
   128
 71
    29
 72
    35
 73
    33
  0
VERTEX
  5
178
  8
0
 62
     9
 10
0.0
 20
0.0
 30
0.0
 70
   128
 71
    37
 72
    36
 73
    35
  0
VERTEX
  5
179
  8
0
 62
     9
 10
0.0
 20
0.0
 30
0.0
 70
   128
 71
    35
 72
    38
 73
    37
  0
VERTEX
  5
17A
  8
0
 62
     9
 10
0.0
 20
0.0
 30
0.0
 70
   128
 71
    40
 72
    38
 73
    39
  0
VERTEX
  5
17B
  8
0
 62
     9
 10
0.0
 20
0.0
 30
0.0
 70
   128
 71
    39
 72
    41
 73
    40
  0
VERTEX
  5
17C
  8
0
 62
     9
 10
0.0
 20
0.0
 30
0.0
 70
   128
 71
    40
 72
    42
 73
    38
  0
VERTEX
  5
17D
  8
0
 62
     9
 10
0.0
 20
0.0
 30
0.0
 70
   128
 71
    44
 72
    43
 73
    39
  0
VERTEX
  5
17E
  8
0
 62
     9
 10
0.0
 20
0.0
 30
0.0
 70
   128
 71
    39
 72
    45
 73
    44
  0
VERTEX
  5
17F
  8
0
 62
     9
 10
0.0
 20
0.0
 30
0.0
 70
   128
 71
    47
 72
    45
 73
    46
  0
VERTEX
  5
180
  8
0
 62
     9
 10
0.0
 20
0.0
 30
0.0
 70
   128
 71
    46
 72
    48
 73
    47
  0
VERTEX
  5
181
  8
0
 62
     9
 10
0.0
 20
0.0
 30
0.0
 70
   128
 71
    47
 72
    49
 73
    45
  0
VERTEX
  5
182
  8
0
 62
     9
 10
0.0
 20
0.0
 30
0.0
 70
   128
 71
    51
 72
    50
 73
    46
  0
VERTEX
  5
183
  8
0
 62
     9
 10
0.0
 20
0.0
 30
0.0
 70
   128
 71
    46
 72
    52
 73
    51
  0
VERTEX
  5
184
  8
0
 62
     9
 10
0.0
 20
0.0
 30
0.0
 70
   128
 71
    54
 72
    52
 73
    53
  0
VERTEX
  5
185
  8
0
 62
     9
 10
0.0
 20
0.0
 30
0.0
 70
   128
 71
    54
 72
    55
 73
    52
  0
VERTEX
  5
186
  8
0
 62
     9
 10
0.0
 20
0.0
 30
0.0
 70
   128
 71
    57
 72
    56
 73
    53
  0
VERTEX
  5
187
  8
0
 62
     9
 10
0.0
 20
0.0
 30
0.0
 70
   128
 71
    53
 72
    58
 73
    57
  0
VERTEX
  5
188
  8
0
 62
     9
 10
0.0
 20
0.0
 30
0.0
 70
   128
 71
    56
 72
    59
 73
    53
  0
VERTEX
  5
189
  8
0
 62
     9
 10
0.0
 20
0.0
 30
0.0
 70
   128
 71
    61
 72
    58
 73
    60
  0
VERTEX
  5
18A
  8
0
 62
     9
 10
0.0
 20
0.0
 30
0.0
 70
   128
 71
    61
 72
    62
 73
    58
  0
VERTEX
  5
18B
  8
0
 62
     9
 10
0.0
 20
0.0
 30
0.0
 70
   128
 71
    64
 72
    63
 73
    60
  0
VERTEX
  5
18C
  8
0
 62
     9
 10
0.0
 20
0.0
 30
0.0
 70
   128
 71
    60
 72
    65
 73
    64
  0
VERTEX
  5
18D
  8
0
 62
     9
 10
0.0
 20
0.0
 30
0.0
 70
   128
 71
    63
 72
    66
 73
    60
  0
VERTEX
  5
18E
  8
0
 62
     9
 10
0.0
 20
0.0
 30
0.0
 70
   128
 71
    67
 72
    65
 73
     2
  0
VERTEX
  5
18F
  8
0
 62
     9
 10
0.0
 20
0.0
 30
0.0
 70
   128
 71
    67
 72
    68
 73
    65
  0
VERTEX
  5
190
  8
0
 62
     9
 10
0.0
 20
0.0
 30
0.0
 70
   128
 71
     2
 72
     5
 73
    67
  0
VERTEX
  5
191
  8
0
 62
     9
 10
0.0
 20
0.0
 30
0.0
 70
   128
 71
    65
 72
    68
 73
    64
  0
VERTEX
  5
192
  8
0
 62
     9
 10
0.0
 20
0.0
 30
0.0
 70
   128
 71
    60
 72
    66
 73
    61
  0
VERTEX
  5
193
  8
0
 62
     9
 10
0.0
 20
0.0
 30
0.0
 70
   128
 71
    58
 72
    62
 73
    57
  0
VERTEX
  5
194
  8
0
 62
     9
 10
0.0
 20
0.0
 30
0.0
 70
   128
 71
    53
 72
    59
 73
    54
  0
VERTEX
  5
195
  8
0
 62
     9
 10
0.0
 20
0.0
 30
0.0
 70
   128
 71
    52
 72
    55
 73
    51
  0
VERTEX
  5
196
  8
0
 62
     9
 10
0.0
 20
0.0
 30
0.0
 70
   128
 71
    46
 72
    50
 73
    48
  0
VERTEX
  5
197
  8
0
 62
     9
 10
0.0
 20
0.0
 30
0.0
 70
   128
 71
    45
 72
    49
 73
    44
  0
VERTEX
  5
198
  8
0
 62
     9
 10
0.0
 20
0.0
 30
0.0
 70
   128
 71
    39
 72
    43
 73
    41
  0
VERTEX
  5
199
  8
0
 62
     9
 10
0.0
 20
0.0
 30
0.0
 70
   128
 71
    38
 72
    42
 73
    37
  0
VERTEX
  5
19A
  8
0
 62
     9
 10
0.0
 20
0.0
 30
0.0
 70
   128
 71
    35
 72
    36
 73
    33
  0
VERTEX
  5
19B
  8
0
 62
     9
 10
0.0
 20
0.0
 30
0.0
 70
   128
 71
    29
 72
    34
 73
    30
  0
VERTEX
  5
19C
  8
0
 62
     9
 10
0.0
 20
0.0
 30
0.0
 70
   128
 71
    28
 72
    31
 73
    26
  0
VERTEX
  5
19D
  8
0
 62
     9
 10
0.0
 20
0.0
 30
0.0
 70
   128
 71
    22
 72
    27
 73
    23
  0
VERTEX
  5
19E
  8
0
 62
     9
 10
0.0
 20
0.0
 30
0.0
 70
   128
 71
    21
 72
    24
 73
    20
  0
VERTEX
  5
19F
  8
0
 62
     9
 10
0.0
 20
0.0
 30
0.0
 70
   128
 71
    16
 72
    19
 73
    17
  0
VERTEX
  5
1A0
  8
0
 62
     9
 10
0.0
 20
0.0
 30
0.0
 70
   128
 71
    15
 72
    18
 73
    14
  0
VERTEX
  5
1A1
  8
0
 62
     9
 10
0.0
 20
0.0
 30
0.0
 70
   128
 71
     9
 72
    13
 73
    11
  0
VERTEX
  5
1A2
  8
0
 62
     9
 10
0.0
 20
0.0
 30
0.0
 70
   128
 71
     8
 72
    12
 73
     7
  0
VERTEX
  5
1A3
  8
0
 62
     9
 10
0.0
 20
0.0
 30
0.0
 70
   128
 71
     1
 72
     6
 73
     4
  0
SEQEND
  5
1A4
  8
0
 62
     9
  0
ENDBLK
  5
1A7
  8
0
  0
BLOCK
  8
0
  2
E3_NODE_3_
 70
     0
 10
0.0
 20
0.0
 30
0.0
  3
E3_NODE_3_
  1

  0
POLYLINE
  5
1A9
  8
0
 62
     9
 66
     1
 10
0.0
 20
0.0
 30
0.0
 70
    64
 71
    20
 72
    18
  0
VERTEX
  5
1AA
  8
0
 10
59.00299835205078
 20
-29.125
 30
98.63700103759766
 70
   192
  0
VERTEX
  5
1AB
  8
0
 10
59.00299835205078
 20
29.125
 30
98.63700103759766
 70
   192
  0
VERTEX
  5
1AC
  8
0
 10
59.00299835205078
 20
55.39899826049805
 30
85.25
 70
   192
  0
VERTEX
  5
1AD
  8
0
 10
59.00299835205078
 20
0.0
 30
103.25
 70
   192
  0
VERTEX
  5
1AE
  8
0
 10
59.00299835205078
 20
-89.63700103759766
 30
-20.125
 70
   192
  0
VERTEX
  5
1AF
  8
0
 10
59.00299835205078
 20
76.25
 30
-46.39899826049805
 70
   192
  0
VERTEX
  5
1B0
  8
0
 10
59.00299835205078
 20
55.39899826049805
 30
-67.25
 70
   192
  0
VERTEX
  5
1B1
  8
0
 10
59.00299835205078
 20
76.25
 30
64.39900207519531
 70
   192
  0
VERTEX
  5
1B2
  8
0
 10
59.00299835205078
 20
89.63700103759766
 30
38.125
 70
   192
  0
VERTEX
  5
1B3
  8
0
 10
59.00299835205078
 20
-76.25
 30
64.39900207519531
 70
   192
  0
VERTEX
  5
1B4
  8
0
 10
59.00299835205078
 20
-55.39899826049805
 30
85.25
 70
   192
  0
VERTEX
  5
1B5
  8
0
 10
59.00299835205078
 20
-29.125
 30
-80.63700103759766
 70
   192
  0
VERTEX
  5
1B6
  8
0
 10
59.00299835205078
 20
-55.39899826049805
 30
-67.25
 70
   192
  0
VERTEX
  5
1B7
  8
0
 10
59.00299835205078
 20
29.125
 30
-80.63700103759766
 70
   192
  0
VERTEX
  5
1B8
  8
0
 10
59.00299835205078
 20
0.0
 30
-85.25
 70
   192
  0
VERTEX
  5
1B9
  8
0
 10
59.00299835205078
 20
89.63700103759766
 30
-20.125
 70
   192
  0
VERTEX
  5
1BA
  8
0
 10
59.00299835205078
 20
94.25
 30
9.0
 70
   192
  0
VERTEX
  5
1BB
  8
0
 10
59.00299835205078
 20
-89.63700103759766
 30
38.125
 70
   192
  0
VERTEX
  5
1BC
  8
0
 10
59.00299835205078
 20
-94.25
 30
9.0
 70
   192
  0
VERTEX
  5
1BD
  8
0
 10
59.00299835205078
 20
-76.25
 30
-46.39899826049805
 70
   192
  0
VERTEX
  5
1BE
  8
0
 62
     9
 10
0.0
 20
0.0
 30
0.0
 70
   128
 71
     3
 72
     2
 73
     1
  0
VERTEX
  5
1BF
  8
0
 62
     9
 10
0.0
 20
0.0
 30
0.0
 70
   128
 71
     2
 72
     4
 73
     1
  0
VERTEX
  5
1C0
  8
0
 62
     9
 10
0.0
 20
0.0
 30
0.0
 70
   128
 71
     7
 72
     6
 73
     5
  0
VERTEX
  5
1C1
  8
0
 62
     9
 10
0.0
 20
0.0
 30
0.0
 70
   128
 71
     1
 72
     8
 73
     3
  0
VERTEX
  5
1C2
  8
0
 62
     9
 10
0.0
 20
0.0
 30
0.0
 70
   128
 71
    11
 72
    10
 73
     9
  0
VERTEX
  5
1C3
  8
0
 62
     9
 10
0.0
 20
0.0
 30
0.0
 70
   128
 71
    13
 72
    12
 73
     5
  0
VERTEX
  5
1C4
  8
0
 62
     9
 10
0.0
 20
0.0
 30
0.0
 70
   128
 71
    15
 72
    14
 73
     5
  0
VERTEX
  5
1C5
  8
0
 62
     9
 10
0.0
 20
0.0
 30
0.0
 70
   128
 71
     6
 72
    16
 73
     5
  0
VERTEX
  5
1C6
  8
0
 62
     9
 10
0.0
 20
0.0
 30
0.0
 70
   128
 71
     9
 72
     1
 73
    11
  0
VERTEX
  5
1C7
  8
0
 62
     9
 10
0.0
 20
0.0
 30
0.0
 70
   128
 71
     5
 72
    12
 73
    15
  0
VERTEX
  5
1C8
  8
0
 62
     9
 10
0.0
 20
0.0
 30
0.0
 70
   128
 71
    16
 72
    17
 73
     5
  0
VERTEX
  5
1C9
  8
0
 62
     9
 10
0.0
 20
0.0
 30
0.0
 70
   128
 71
    10
 72
    18
 73
     9
  0
VERTEX
  5
1CA
  8
0
 62
     9
 10
0.0
 20
0.0
 30
0.0
 70
   128
 71
    19
 72
     5
 73
     9
  0
VERTEX
  5
1CB
  8
0
 62
     9
 10
0.0
 20
0.0
 30
0.0
 70
   128
 71
     5
 72
    14
 73
     7
  0
VERTEX
  5
1CC
  8
0
 62
     9
 10
0.0
 20
0.0
 30
0.0
 70
   128
 71
     9
 72
    18
 73
    19
  0
VERTEX
  5
1CD
  8
0
 62
     9
 10
0.0
 20
0.0
 30
0.0
 70
   128
 71
    17
 72
     9
 73
     5
  0
VERTEX
  5
1CE
  8
0
 62
     9
 10
0.0
 20
0.0
 30
0.0
 70
   128
 71
     5
 72
    20
 73
    13
  0
VERTEX
  5
1CF
  8
0
 62
     9
 10
0.0
 20
0.0
 30
0.0
 70
   128
 71
     1
 72
     9
 73
     8
  0
SEQEND
  5
1D0
  8
0
 62
     9
  0
ENDBLK
  5
1D3
  8
0
  0
BLOCK
  8
0
  2
E3_NODE_4_
 70
     0
 10
0.0
 20
0.0
 30
0.0
  3
E3_NODE_4_
  1

  0
POLYLINE
  5
1D5
  8
0
 62
     9
 66
     1
 10
0.0
 20
0.0
 30
0.0
 70
    64
 71
    29
 72
    27
  0
VERTEX
  5
1D6
  8
0
 10
101.0999984741211
 20
13.21100044250488
 30
22.15500068664551
 70
   192
  0
VERTEX
  5
1D7
  8
0
 10
101.0999984741211
 20
7.23799991607666
 30
26.36499977111816
 70
   192
  0
VERTEX
  5
1D8
  8
0
 10
101.0999984741211
 20
0.0
 30
28.10000038146973
 70
   192
  0
VERTEX
  5
1D9
  8
0
 10
101.0999984741211
 20
-13.24600028991699
 30
-4.296999931335449
 70
   192
  0
VERTEX
  5
1DA
  8
0
 10
101.0999984741211
 20
7.109000205993652
 30
-8.260000228881836
 70
   192
  0
VERTEX
  5
1DB
  8
0
 10
101.0999984741211
 20
12.51599979400635
 30
-5.425000190734863
 70
   192
  0
VERTEX
  5
1DC
  8
0
 10
101.0999984741211
 20
-0.0120000001043081
 30
-9.57699966430664
 70
   192
  0
VERTEX
  5
1DD
  8
0
 10
101.0999984741211
 20
-11.98799991607666
 30
-5.863999843597412
 70
   192
  0
VERTEX
  5
1DE
  8
0
 10
101.0999984741211
 20
-7.092999935150146
 30
-8.189000129699707
 70
   192
  0
VERTEX
  5
1DF
  8
0
 10
101.0999984741211
 20
-3.16100001335144
 30
27.82699966430664
 70
   192
  0
VERTEX
  5
1E0
  8
0
 10
101.0999984741211
 20
4.802999973297119
 30
-9.468999862670898
 70
   192
  0
VERTEX
  5
1E1
  8
0
 10
101.0999984741211
 20
13.49400043487549
 30
-4.49399995803833
 70
   192
  0
VERTEX
  5
1E2
  8
0
 10
101.0999984741211
 20
-17.36899948120117
 30
1.759999990463257
 70
   192
  0
VERTEX
  5
1E3
  8
0
 10
101.0999984741211
 20
-17.05500030517578
 30
0.4480000138282776
 70
   192
  0
VERTEX
  5
1E4
  8
0
 10
101.0999984741211
 20
-17.34900093078613
 30
16.23399925231934
 70
   192
  0
VERTEX
  5
1E5
  8
0
 10
101.0999984741211
 20
-19.10000038146973
 30
9.0
 70
   192
  0
VERTEX
  5
1E6
  8
0
 10
101.0999984741211
 20
-7.104000091552734
 30
26.15999984741211
 70
   192
  0
VERTEX
  5
1E7
  8
0
 10
101.0999984741211
 20
-11.30700016021729
 30
24.38299942016602
 70
   192
  0
VERTEX
  5
1E8
  8
0
 10
101.0999984741211
 20
8.571000099182129
 30
26.04599952697754
 70
   192
  0
VERTEX
  5
1E9
  8
0
 10
101.0999984741211
 20
-13.15100002288818
 30
22.20499992370605
 70
   192
  0
VERTEX
  5
1EA
  8
0
 10
101.0999984741211
 20
17.16200065612793
 30
16.10199928283691
 70
   192
  0
VERTEX
  5
1EB
  8
0
 10
101.0999984741211
 20
15.33199977874756
 30
20.37599945068359
 70
   192
  0
VERTEX
  5
1EC
  8
0
 10
101.0999984741211
 20
18.61000061035156
 30
9.031000137329102
 70
   192
  0
VERTEX
  5
1ED
  8
0
 10
101.0999984741211
 20
18.8120002746582
 30
12.24600028991699
 70
   192
  0
VERTEX
  5
1EE
  8
0
 10
101.0999984741211
 20
17.33399963378906
 30
1.86899995803833
 70
   192
  0
VERTEX
  5
1EF
  8
0
 10
101.0999984741211
 20
18.26000022888184
 30
3.463000059127808
 70
   192
  0
VERTEX
  5
1F0
  8
0
 10
101.0999984741211
 20
13.81999969482422
 30
-4.183000087738037
 70
   192
  0
VERTEX
  5
1F1
  8
0
 10
101.0999984741211
 20
-3.984999895095825
 30
-9.666000366210938
 70
   192
  0
VERTEX
  5
1F2
  8
0
 10
101.0999984741211
 20
-17.00600051879883
 30
17.64999961853027
 70
   192
  0
VERTEX
  5
1F3
  8
0
 62
     9
 10
0.0
 20
0.0
 30
0.0
 70
   128
 71
     3
 72
     2
 73
     1
  0
VERTEX
  5
1F4
  8
0
 62
     9
 10
0.0
 20
0.0
 30
0.0
 70
   128
 71
     6
 72
     5
 73
     4
  0
VERTEX
  5
1F5
  8
0
 62
     9
 10
0.0
 20
0.0
 30
0.0
 70
   128
 71
     7
 72
     4
 73
     5
  0
VERTEX
  5
1F6
  8
0
 62
     9
 10
0.0
 20
0.0
 30
0.0
 70
   128
 71
     9
 72
     8
 73
     4
  0
VERTEX
  5
1F7
  8
0
 62
     9
 10
0.0
 20
0.0
 30
0.0
 70
   128
 71
     1
 72
    10
 73
     3
  0
VERTEX
  5
1F8
  8
0
 62
     9
 10
0.0
 20
0.0
 30
0.0
 70
   128
 71
     5
 72
    11
 73
     7
  0
VERTEX
  5
1F9
  8
0
 62
     9
 10
0.0
 20
0.0
 30
0.0
 70
   128
 71
     4
 72
     7
 73
     9
  0
VERTEX
  5
1FA
  8
0
 62
     9
 10
0.0
 20
0.0
 30
0.0
 70
   128
 71
    14
 72
    13
 73
    12
  0
VERTEX
  5
1FB
  8
0
 62
     9
 10
0.0
 20
0.0
 30
0.0
 70
   128
 71
    16
 72
    15
 73
    12
  0
VERTEX
  5
1FC
  8
0
 62
     9
 10
0.0
 20
0.0
 30
0.0
 70
   128
 71
    18
 72
    17
 73
     1
  0
VERTEX
  5
1FD
  8
0
 62
     9
 10
0.0
 20
0.0
 30
0.0
 70
   128
 71
     2
 72
    19
 73
     1
  0
VERTEX
  5
1FE
  8
0
 62
     9
 10
0.0
 20
0.0
 30
0.0
 70
   128
 71
    22
 72
    21
 73
    20
  0
VERTEX
  5
1FF
  8
0
 62
     9
 10
0.0
 20
0.0
 30
0.0
 70
   128
 71
    24
 72
    23
 73
    20
  0
VERTEX
  5
200
  8
0
 62
     9
 10
0.0
 20
0.0
 30
0.0
 70
   128
 71
    26
 72
    25
 73
    15
  0
VERTEX
  5
201
  8
0
 62
     9
 10
0.0
 20
0.0
 30
0.0
 70
   128
 71
    27
 72
    12
 73
    15
  0
VERTEX
  5
202
  8
0
 62
     9
 10
0.0
 20
0.0
 30
0.0
 70
   128
 71
     7
 72
    28
 73
     9
  0
VERTEX
  5
203
  8
0
 62
     9
 10
0.0
 20
0.0
 30
0.0
 70
   128
 71
    12
 72
    13
 73
    16
  0
VERTEX
  5
204
  8
0
 62
     9
 10
0.0
 20
0.0
 30
0.0
 70
   128
 71
     1
 72
    17
 73
    10
  0
VERTEX
  5
205
  8
0
 62
     9
 10
0.0
 20
0.0
 30
0.0
 70
   128
 71
    20
 72
    21
 73
    24
  0
VERTEX
  5
206
  8
0
 62
     9
 10
0.0
 20
0.0
 30
0.0
 70
   128
 71
    15
 72
    25
 73
    27
  0
VERTEX
  5
207
  8
0
 62
     9
 10
0.0
 20
0.0
 30
0.0
 70
   128
 71
    12
 72
     4
 73
    14
  0
VERTEX
  5
208
  8
0
 62
     9
 10
0.0
 20
0.0
 30
0.0
 70
   128
 71
    29
 72
    20
 73
    23
  0
VERTEX
  5
209
  8
0
 62
     9
 10
0.0
 20
0.0
 30
0.0
 70
   128
 71
    20
 72
     1
 73
    22
  0
VERTEX
  5
20A
  8
0
 62
     9
 10
0.0
 20
0.0
 30
0.0
 70
   128
 71
     4
 72
    12
 73
     6
  0
VERTEX
  5
20B
  8
0
 62
     9
 10
0.0
 20
0.0
 30
0.0
 70
   128
 71
     1
 72
    20
 73
    18
  0
VERTEX
  5
20C
  8
0
 62
     9
 10
0.0
 20
0.0
 30
0.0
 70
   128
 71
    23
 72
    15
 73
    29
  0
VERTEX
  5
20D
  8
0
 62
     9
 10
0.0
 20
0.0
 30
0.0
 70
   128
 71
    15
 72
    23
 73
    26
  0
SEQEND
  5
20E
  8
0
 62
     9
  0
ENDBLK
  5
211
  8
0
  0
BLOCK
  8
0
  2
E3_NODE_5_
 70
     0
 10
0.0
 20
0.0
 30
0.0
  3
E3_NODE_5_
  1

  0
POLYLINE
  5
213
  8
0
 62
     9
 66
     1
 10
0.0
 20
0.0
 30
0.0
 70
    64
 71
   103
 72
   119
  0
VERTEX
  5
214
  8
0
 10
100.4329986572266
 20
0.0
 30
-13.45400047302246
 70
   192
  0
VERTEX
  5
215
  8
0
 10
100.4329986572266
 20
8.583000183105469
 30
-11.7209997177124
 70
   192
  0
VERTEX
  5
216
  8
0
 10
101.0999984741211
 20
4.802999973297119
 30
-9.468999862670898
 70
   192
  0
VERTEX
  5
217
  8
0
 10
101.0999984741211
 20
7.109000205993652
 30
-8.260000228881836
 70
   192
  0
VERTEX
  5
218
  8
0
 10
100.4329986572266
 20
-8.583000183105469
 30
29.72100067138672
 70
   192
  0
VERTEX
  5
219
  8
0
 10
101.0999984741211
 20
-7.104000091552734
 30
26.15999984741211
 70
   192
  0
VERTEX
  5
21A
  8
0
 10
101.0999984741211
 20
-3.16100001335144
 30
27.82699966430664
 70
   192
  0
VERTEX
  5
21B
  8
0
 10
100.4329986572266
 20
0.0
 30
31.45400047302246
 70
   192
  0
VERTEX
  5
21C
  8
0
 10
100.4329986572266
 20
20.72100067138672
 30
17.58300018310547
 70
   192
  0
VERTEX
  5
21D
  8
0
 10
101.0999984741211
 20
17.16200065612793
 30
16.10199928283691
 70
   192
  0
VERTEX
  5
21E
  8
0
 10
101.0999984741211
 20
18.8120002746582
 30
12.24600028991699
 70
   192
  0
VERTEX
  5
21F
  8
0
 10
100.4329986572266
 20
22.45400047302246
 30
9.0
 70
   192
  0
VERTEX
  5
220
  8
0
 10
100.4329986572266
 20
20.72100067138672
 30
0.4169999957084656
 70
   192
  0
VERTEX
  5
221
  8
0
 10
101.0999984741211
 20
17.33399963378906
 30
1.86899995803833
 70
   192
  0
VERTEX
  5
222
  8
0
 10
101.0999984741211
 20
13.81999969482422
 30
-4.183000087738037
 70
   192
  0
VERTEX
  5
223
  8
0
 10
100.4329986572266
 20
15.8769998550415
 30
-6.876999855041504
 70
   192
  0
VERTEX
  5
224
  8
0
 10
101.0999984741211
 20
12.51599979400635
 30
-5.425000190734863
 70
   192
  0
VERTEX
  5
225
  8
0
 10
101.0999984741211
 20
13.49400043487549
 30
-4.49399995803833
 70
   192
  0
VERTEX
  5
226
  8
0
 10
101.0999984741211
 20
18.61000061035156
 30
9.031000137329102
 70
   192
  0
VERTEX
  5
227
  8
0
 10
101.0999984741211
 20
18.26000022888184
 30
3.463000059127808
 70
   192
  0
VERTEX
  5
228
  8
0
 10
100.4329986572266
 20
15.8769998550415
 30
24.87700080871582
 70
   192
  0
VERTEX
  5
229
  8
0
 10
100.4329986572266
 20
8.583000183105469
 30
29.72100067138672
 70
   192
  0
VERTEX
  5
22A
  8
0
 10
101.0999984741211
 20
8.571000099182129
 30
26.04599952697754
 70
   192
  0
VERTEX
  5
22B
  8
0
 10
101.0999984741211
 20
7.23799991607666
 30
26.36499977111816
 70
   192
  0
VERTEX
  5
22C
  8
0
 10
101.0999984741211
 20
15.33199977874756
 30
20.37599945068359
 70
   192
  0
VERTEX
  5
22D
  8
0
 10
101.0999984741211
 20
13.21100044250488
 30
22.15500068664551
 70
   192
  0
VERTEX
  5
22E
  8
0
 10
101.0999984741211
 20
0.0
 30
28.10000038146973
 70
   192
  0
VERTEX
  5
22F
  8
0
 10
100.4329986572266
 20
-20.72100067138672
 30
0.4169999957084656
 70
   192
  0
VERTEX
  5
230
  8
0
 10
101.0999984741211
 20
-17.36899948120117
 30
1.759999990463257
 70
   192
  0
VERTEX
  5
231
  8
0
 10
101.0999984741211
 20
-19.10000038146973
 30
9.0
 70
   192
  0
VERTEX
  5
232
  8
0
 10
100.4329986572266
 20
-15.8769998550415
 30
24.87700080871582
 70
   192
  0
VERTEX
  5
233
  8
0
 10
100.4329986572266
 20
-20.72100067138672
 30
17.58300018310547
 70
   192
  0
VERTEX
  5
234
  8
0
 10
101.0999984741211
 20
-17.00600051879883
 30
17.64999961853027
 70
   192
  0
VERTEX
  5
235
  8
0
 10
101.0999984741211
 20
-17.34900093078613
 30
16.23399925231934
 70
   192
  0
VERTEX
  5
236
  8
0
 10
101.0999984741211
 20
-11.30700016021729
 30
24.38299942016602
 70
   192
  0
VERTEX
  5
237
  8
0
 10
101.0999984741211
 20
-13.15100002288818
 30
22.20499992370605
 70
   192
  0
VERTEX
  5
238
  8
0
 10
100.4329986572266
 20
-22.45400047302246
 30
9.0
 70
   192
  0
VERTEX
  5
239
  8
0
 10
100.4329986572266
 20
-8.583000183105469
 30
-11.7209997177124
 70
   192
  0
VERTEX
  5
23A
  8
0
 10
101.0999984741211
 20
-7.092999935150146
 30
-8.189000129699707
 70
   192
  0
VERTEX
  5
23B
  8
0
 10
101.0999984741211
 20
-11.98799991607666
 30
-5.863999843597412
 70
   192
  0
VERTEX
  5
23C
  8
0
 10
100.4329986572266
 20
-15.8769998550415
 30
-6.876999855041504
 70
   192
  0
VERTEX
  5
23D
  8
0
 10
101.0999984741211
 20
-13.24600028991699
 30
-4.296999931335449
 70
   192
  0
VERTEX
  5
23E
  8
0
 10
101.0999984741211
 20
-17.05500030517578
 30
0.4480000138282776
 70
   192
  0
VERTEX
  5
23F
  8
0
 10
101.0999984741211
 20
-0.0120000001043081
 30
-9.57699966430664
 70
   192
  0
VERTEX
  5
240
  8
0
 10
101.0999984741211
 20
-3.984999895095825
 30
-9.666000366210938
 70
   192
  0
VERTEX
  5
241
  8
0
 10
99.4010009765625
 20
-25.27799987792969
 30
3.594000101089478
 70
   192
  0
VERTEX
  5
242
  8
0
 10
99.39800262451172
 20
-24.48699951171875
 30
0.7160000205039978
 70
   192
  0
VERTEX
  5
243
  8
0
 10
99.40699768066406
 20
-25.85000038146973
 30
9.0
 70
   192
  0
VERTEX
  5
244
  8
0
 10
99.4010009765625
 20
-21.72400093078613
 30
-4.960000038146973
 70
   192
  0
VERTEX
  5
245
  8
0
 10
99.40499877929688
 20
-20.36400032043457
 30
-6.921999931335449
 70
   192
  0
VERTEX
  5
246
  8
0
 10
99.39900207519531
 20
-23.76099967956543
 30
-0.8360000252723694
 70
   192
  0
VERTEX
  5
247
  8
0
 10
99.4010009765625
 20
-22.06399917602539
 30
-4.467999935150146
 70
   192
  0
VERTEX
  5
248
  8
0
 10
99.40599822998047
 20
-16.36199951171875
 30
-11.01200008392334
 70
   192
  0
VERTEX
  5
249
  8
0
 10
99.4010009765625
 20
-13.94600009918213
 30
-12.76500034332275
 70
   192
  0
VERTEX
  5
24A
  8
0
 10
99.40499877929688
 20
-18.16600036621094
 30
-9.168999671936035
 70
   192
  0
VERTEX
  5
24B
  8
0
 10
99.39900207519531
 20
-10.67300033569336
 30
-14.38199996948242
 70
   192
  0
VERTEX
  5
24C
  8
0
 10
99.4010009765625
 20
-5.955999851226807
 30
-16.15500068664551
 70
   192
  0
VERTEX
  5
24D
  8
0
 10
99.39900207519531
 20
-9.847000122070312
 30
-14.79100036621094
 70
   192
  0
VERTEX
  5
24E
  8
0
 10
99.39800262451172
 20
-8.815999984741211
 30
-15.30000019073486
 70
   192
  0
VERTEX
  5
24F
  8
0
 10
99.40399932861328
 20
3.660000085830688
 30
-16.49900054931641
 70
   192
  0
VERTEX
  5
250
  8
0
 10
99.39800262451172
 20
8.295999526977539
 30
-15.48299980163574
 70
   192
  0
VERTEX
  5
251
  8
0
 10
99.40699768066406
 20
-0.2759999930858612
 30
-16.84900093078613
 70
   192
  0
VERTEX
  5
252
  8
0
 10
99.40499877929688
 20
2.706000089645386
 30
-16.70800018310547
 70
   192
  0
VERTEX
  5
253
  8
0
 10
99.39800262451172
 20
11.0629997253418
 30
-14.36299991607666
 70
   192
  0
VERTEX
  5
254
  8
0
 10
99.40499877929688
 20
15.93200016021729
 30
-11.35700035095215
 70
   192
  0
VERTEX
  5
255
  8
0
 10
99.39800262451172
 20
9.876999855041504
 30
-14.8430004119873
 70
   192
  0
VERTEX
  5
256
  8
0
 10
99.40599822998047
 20
16.89999961853027
 30
-10.50399971008301
 70
   192
  0
VERTEX
  5
257
  8
0
 10
99.4010009765625
 20
21.77199935913086
 30
-4.935999870300293
 70
   192
  0
VERTEX
  5
258
  8
0
 10
99.39800262451172
 20
23.23299980163574
 30
-2.33299994468689
 70
   192
  0
VERTEX
  5
259
  8
0
 10
99.40699768066406
 20
18.17200088500977
 30
-9.385000228881836
 70
   192
  0
VERTEX
  5
25A
  8
0
 10
99.4010009765625
 20
25.1569995880127
 30
3.055999994277954
 70
   192
  0
VERTEX
  5
25B
  8
0
 10
99.4000015258789
 20
24.69300079345703
 30
1.75600004196167
 70
   192
  0
VERTEX
  5
25C
  8
0
 10
99.40499877929688
 20
25.67499923706055
 30
5.995999813079834
 70
   192
  0
VERTEX
  5
25D
  8
0
 10
99.39900207519531
 20
23.76300048828125
 30
-0.8500000238418579
 70
   192
  0
VERTEX
  5
25E
  8
0
 10
99.40499877929688
 20
25.70700073242188
 30
11.7180004119873
 70
   192
  0
VERTEX
  5
25F
  8
0
 10
99.4010009765625
 20
25.22200012207031
 30
14.66300010681152
 70
   192
  0
VERTEX
  5
260
  8
0
 10
99.40499877929688
 20
25.6919994354248
 30
9.00100040435791
 70
   192
  0
VERTEX
  5
261
  8
0
 10
99.4000015258789
 20
24.67900085449219
 30
16.23999977111816
 70
   192
  0
VERTEX
  5
262
  8
0
 10
99.4010009765625
 20
21.92600059509277
 30
22.69300079345703
 70
   192
  0
VERTEX
  5
263
  8
0
 10
99.39900207519531
 20
23.77700042724609
 30
18.85600090026855
 70
   192
  0
VERTEX
  5
264
  8
0
 10
99.39800262451172
 20
23.35799980163574
 30
20.07399940490723
 70
   192
  0
VERTEX
  5
265
  8
0
 10
99.40499877929688
 20
16.15800094604492
 30
29.17799949645996
 70
   192
  0
VERTEX
  5
266
  8
0
 10
99.39800262451172
 20
11.32199954986572
 30
32.23899841308594
 70
   192
  0
VERTEX
  5
267
  8
0
 10
99.40599822998047
 20
16.90200042724609
 30
28.50799942016602
 70
   192
  0
VERTEX
  5
268
  8
0
 10
99.40699768066406
 20
18.37599945068359
 30
27.18099975585938
 70
   192
  0
VERTEX
  5
269
  8
0
 10
99.40399932861328
 20
3.664000034332275
 30
34.52099990844727
 70
   192
  0
VERTEX
  5
26A
  8
0
 10
99.40499877929688
 20
2.992000102996826
 30
34.67599868774414
 70
   192
  0
VERTEX
  5
26B
  8
0
 10
99.39800262451172
 20
8.567999839782715
 30
33.38899993896484
 70
   192
  0
VERTEX
  5
26C
  8
0
 10
99.39800262451172
 20
9.87600040435791
 30
32.84299850463867
 70
   192
  0
VERTEX
  5
26D
  8
0
 10
99.4010009765625
 20
-5.675000190734863
 30
34.21900177001953
 70
   192
  0
VERTEX
  5
26E
  8
0
 10
99.39800262451172
 20
-8.543999671936035
 30
33.39699935913086
 70
   192
  0
VERTEX
  5
26F
  8
0
 10
99.40699768066406
 20
0.0120000001043081
 30
34.84999847412109
 70
   192
  0
VERTEX
  5
270
  8
0
 10
99.4010009765625
 20
-13.70300006866455
 30
30.91900062561035
 70
   192
  0
VERTEX
  5
271
  8
0
 10
99.39900207519531
 20
-10.67199993133545
 30
32.375
 70
   192
  0
VERTEX
  5
272
  8
0
 10
99.40499877929688
 20
-16.13800048828125
 30
29.19400024414062
 70
   192
  0
VERTEX
  5
273
  8
0
 10
99.39900207519531
 20
-9.840999603271484
 30
32.77399826049805
 70
   192
  0
VERTEX
  5
274
  8
0
 10
99.4010009765625
 20
-21.73299980163574
 30
22.96599960327148
 70
   192
  0
VERTEX
  5
275
  8
0
 10
99.4010009765625
 20
-21.91300010681152
 30
22.71299934387207
 70
   192
  0
VERTEX
  5
276
  8
0
 10
99.40499877929688
 20
-20.18600082397461
 30
25.14800071716309
 70
   192
  0
VERTEX
  5
277
  8
0
 10
99.40499877929688
 20
-18.16600036621094
 30
27.16600036621094
 70
   192
  0
VERTEX
  5
278
  8
0
 10
99.4010009765625
 20
-25.21699905395508
 30
14.6870002746582
 70
   192
  0
VERTEX
  5
279
  8
0
 10
99.39900207519531
 20
-23.77499961853027
 30
18.84099960327148
 70
   192
  0
VERTEX
  5
27A
  8
0
 10
99.39800262451172
 20
-24.39299964904785
 30
17.55599975585938
 70
   192
  0
VERTEX
  5
27B
  8
0
 62
     9
 10
0.0
 20
0.0
 30
0.0
 70
   128
 71
     3
 72
     2
 73
     1
  0
VERTEX
  5
27C
  8
0
 62
     9
 10
0.0
 20
0.0
 30
0.0
 70
   128
 71
     3
 72
     4
 73
     2
  0
VERTEX
  5
27D
  8
0
 62
     9
 10
0.0
 20
0.0
 30
0.0
 70
   128
 71
     7
 72
     6
 73
     5
  0
VERTEX
  5
27E
  8
0
 62
     9
 10
0.0
 20
0.0
 30
0.0
 70
   128
 71
     5
 72
     8
 73
     7
  0
VERTEX
  5
27F
  8
0
 62
     9
 10
0.0
 20
0.0
 30
0.0
 70
   128
 71
    11
 72
    10
 73
     9
  0
VERTEX
  5
280
  8
0
 62
     9
 10
0.0
 20
0.0
 30
0.0
 70
   128
 71
     9
 72
    12
 73
    11
  0
VERTEX
  5
281
  8
0
 62
     9
 10
0.0
 20
0.0
 30
0.0
 70
   128
 71
    15
 72
    14
 73
    13
  0
VERTEX
  5
282
  8
0
 62
     9
 10
0.0
 20
0.0
 30
0.0
 70
   128
 71
    13
 72
    16
 73
    15
  0
VERTEX
  5
283
  8
0
 62
     9
 10
0.0
 20
0.0
 30
0.0
 70
   128
 71
    17
 72
    16
 73
     2
  0
VERTEX
  5
284
  8
0
 62
     9
 10
0.0
 20
0.0
 30
0.0
 70
   128
 71
    17
 72
    18
 73
    16
  0
VERTEX
  5
285
  8
0
 62
     9
 10
0.0
 20
0.0
 30
0.0
 70
   128
 71
    20
 72
    19
 73
    12
  0
VERTEX
  5
286
  8
0
 62
     9
 10
0.0
 20
0.0
 30
0.0
 70
   128
 71
    12
 72
    13
 73
    20
  0
VERTEX
  5
287
  8
0
 62
     9
 10
0.0
 20
0.0
 30
0.0
 70
   128
 71
    23
 72
    22
 73
    21
  0
VERTEX
  5
288
  8
0
 62
     9
 10
0.0
 20
0.0
 30
0.0
 70
   128
 71
    23
 72
    24
 73
    22
  0
VERTEX
  5
289
  8
0
 62
     9
 10
0.0
 20
0.0
 30
0.0
 70
   128
 71
    25
 72
    21
 73
     9
  0
VERTEX
  5
28A
  8
0
 62
     9
 10
0.0
 20
0.0
 30
0.0
 70
   128
 71
    25
 72
    26
 73
    21
  0
VERTEX
  5
28B
  8
0
 62
     9
 10
0.0
 20
0.0
 30
0.0
 70
   128
 71
    27
 72
     8
 73
    22
  0
VERTEX
  5
28C
  8
0
 62
     9
 10
0.0
 20
0.0
 30
0.0
 70
   128
 71
    30
 72
    29
 73
    28
  0
VERTEX
  5
28D
  8
0
 62
     9
 10
0.0
 20
0.0
 30
0.0
 70
   128
 71
    33
 72
    32
 73
    31
  0
VERTEX
  5
28E
  8
0
 62
     9
 10
0.0
 20
0.0
 30
0.0
 70
   128
 71
    33
 72
    34
 73
    32
  0
VERTEX
  5
28F
  8
0
 62
     9
 10
0.0
 20
0.0
 30
0.0
 70
   128
 71
    35
 72
    31
 73
     5
  0
VERTEX
  5
290
  8
0
 62
     9
 10
0.0
 20
0.0
 30
0.0
 70
   128
 71
    35
 72
    36
 73
    31
  0
VERTEX
  5
291
  8
0
 62
     9
 10
0.0
 20
0.0
 30
0.0
 70
   128
 71
    30
 72
    37
 73
    32
  0
VERTEX
  5
292
  8
0
 62
     9
 10
0.0
 20
0.0
 30
0.0
 70
   128
 71
    40
 72
    39
 73
    38
  0
VERTEX
  5
293
  8
0
 62
     9
 10
0.0
 20
0.0
 30
0.0
 70
   128
 71
    38
 72
    41
 73
    40
  0
VERTEX
  5
294
  8
0
 62
     9
 10
0.0
 20
0.0
 30
0.0
 70
   128
 71
    43
 72
    42
 73
    41
  0
VERTEX
  5
295
  8
0
 62
     9
 10
0.0
 20
0.0
 30
0.0
 70
   128
 71
    41
 72
    28
 73
    43
  0
VERTEX
  5
296
  8
0
 62
     9
 10
0.0
 20
0.0
 30
0.0
 70
   128
 71
    45
 72
    44
 73
     1
  0
VERTEX
  5
297
  8
0
 62
     9
 10
0.0
 20
0.0
 30
0.0
 70
   128
 71
     1
 72
    38
 73
    45
  0
VERTEX
  5
298
  8
0
 62
     9
 10
0.0
 20
0.0
 30
0.0
 70
   128
 71
    47
 72
    46
 73
    28
  0
VERTEX
  5
299
  8
0
 62
     9
 10
0.0
 20
0.0
 30
0.0
 70
   128
 71
    46
 72
    48
 73
    37
  0
VERTEX
  5
29A
  8
0
 62
     9
 10
0.0
 20
0.0
 30
0.0
 70
   128
 71
    37
 72
    28
 73
    46
  0
VERTEX
  5
29B
  8
0
 62
     9
 10
0.0
 20
0.0
 30
0.0
 70
   128
 71
    49
 72
    28
 73
    41
  0
VERTEX
  5
29C
  8
0
 62
     9
 10
0.0
 20
0.0
 30
0.0
 70
   128
 71
    41
 72
    50
 73
    49
  0
VERTEX
  5
29D
  8
0
 62
     9
 10
0.0
 20
0.0
 30
0.0
 70
   128
 71
    52
 72
    51
 73
    28
  0
VERTEX
  5
29E
  8
0
 62
     9
 10
0.0
 20
0.0
 30
0.0
 70
   128
 71
    28
 72
    49
 73
    52
  0
VERTEX
  5
29F
  8
0
 62
     9
 10
0.0
 20
0.0
 30
0.0
 70
   128
 71
    54
 72
    53
 73
    41
  0
VERTEX
  5
2A0
  8
0
 62
     9
 10
0.0
 20
0.0
 30
0.0
 70
   128
 71
    41
 72
    38
 73
    54
  0
VERTEX
  5
2A1
  8
0
 62
     9
 10
0.0
 20
0.0
 30
0.0
 70
   128
 71
    53
 72
    55
 73
    41
  0
VERTEX
  5
2A2
  8
0
 62
     9
 10
0.0
 20
0.0
 30
0.0
 70
   128
 71
    38
 72
    56
 73
    54
  0
VERTEX
  5
2A3
  8
0
 62
     9
 10
0.0
 20
0.0
 30
0.0
 70
   128
 71
    57
 72
    38
 73
     1
  0
VERTEX
  5
2A4
  8
0
 62
     9
 10
0.0
 20
0.0
 30
0.0
 70
   128
 71
    59
 72
    58
 73
    38
  0
VERTEX
  5
2A5
  8
0
 62
     9
 10
0.0
 20
0.0
 30
0.0
 70
   128
 71
    38
 72
    57
 73
    59
  0
VERTEX
  5
2A6
  8
0
 62
     9
 10
0.0
 20
0.0
 30
0.0
 70
   128
 71
    60
 72
     1
 73
     2
  0
VERTEX
  5
2A7
  8
0
 62
     9
 10
0.0
 20
0.0
 30
0.0
 70
   128
 71
     2
 72
    61
 73
    60
  0
VERTEX
  5
2A8
  8
0
 62
     9
 10
0.0
 20
0.0
 30
0.0
 70
   128
 71
    63
 72
    62
 73
     1
  0
VERTEX
  5
2A9
  8
0
 62
     9
 10
0.0
 20
0.0
 30
0.0
 70
   128
 71
     1
 72
    60
 73
    63
  0
VERTEX
  5
2AA
  8
0
 62
     9
 10
0.0
 20
0.0
 30
0.0
 70
   128
 71
    65
 72
    64
 73
     2
  0
VERTEX
  5
2AB
  8
0
 62
     9
 10
0.0
 20
0.0
 30
0.0
 70
   128
 71
    64
 72
    66
 73
     2
  0
VERTEX
  5
2AC
  8
0
 62
     9
 10
0.0
 20
0.0
 30
0.0
 70
   128
 71
     2
 72
    16
 73
    65
  0
VERTEX
  5
2AD
  8
0
 62
     9
 10
0.0
 20
0.0
 30
0.0
 70
   128
 71
    16
 72
    67
 73
    65
  0
VERTEX
  5
2AE
  8
0
 62
     9
 10
0.0
 20
0.0
 30
0.0
 70
   128
 71
    69
 72
    68
 73
    13
  0
VERTEX
  5
2AF
  8
0
 62
     9
 10
0.0
 20
0.0
 30
0.0
 70
   128
 71
    68
 72
    70
 73
    16
  0
VERTEX
  5
2B0
  8
0
 62
     9
 10
0.0
 20
0.0
 30
0.0
 70
   128
 71
    16
 72
    13
 73
    68
  0
VERTEX
  5
2B1
  8
0
 62
     9
 10
0.0
 20
0.0
 30
0.0
 70
   128
 71
    71
 72
    13
 73
    12
  0
VERTEX
  5
2B2
  8
0
 62
     9
 10
0.0
 20
0.0
 30
0.0
 70
   128
 71
    71
 72
    72
 73
    13
  0
VERTEX
  5
2B3
  8
0
 62
     9
 10
0.0
 20
0.0
 30
0.0
 70
   128
 71
    12
 72
    73
 73
    71
  0
VERTEX
  5
2B4
  8
0
 62
     9
 10
0.0
 20
0.0
 30
0.0
 70
   128
 71
    72
 72
    74
 73
    13
  0
VERTEX
  5
2B5
  8
0
 62
     9
 10
0.0
 20
0.0
 30
0.0
 70
   128
 71
    76
 72
    75
 73
    12
  0
VERTEX
  5
2B6
  8
0
 62
     9
 10
0.0
 20
0.0
 30
0.0
 70
   128
 71
    12
 72
     9
 73
    76
  0
VERTEX
  5
2B7
  8
0
 62
     9
 10
0.0
 20
0.0
 30
0.0
 70
   128
 71
    75
 72
    77
 73
    12
  0
VERTEX
  5
2B8
  8
0
 62
     9
 10
0.0
 20
0.0
 30
0.0
 70
   128
 71
     9
 72
    78
 73
    76
  0
VERTEX
  5
2B9
  8
0
 62
     9
 10
0.0
 20
0.0
 30
0.0
 70
   128
 71
    79
 72
     9
 73
    21
  0
VERTEX
  5
2BA
  8
0
 62
     9
 10
0.0
 20
0.0
 30
0.0
 70
   128
 71
    81
 72
    80
 73
     9
  0
VERTEX
  5
2BB
  8
0
 62
     9
 10
0.0
 20
0.0
 30
0.0
 70
   128
 71
     9
 72
    79
 73
    81
  0
VERTEX
  5
2BC
  8
0
 62
     9
 10
0.0
 20
0.0
 30
0.0
 70
   128
 71
    82
 72
    21
 73
    22
  0
VERTEX
  5
2BD
  8
0
 62
     9
 10
0.0
 20
0.0
 30
0.0
 70
   128
 71
    22
 72
    83
 73
    82
  0
VERTEX
  5
2BE
  8
0
 62
     9
 10
0.0
 20
0.0
 30
0.0
 70
   128
 71
    82
 72
    84
 73
    21
  0
VERTEX
  5
2BF
  8
0
 62
     9
 10
0.0
 20
0.0
 30
0.0
 70
   128
 71
    84
 72
    85
 73
    21
  0
VERTEX
  5
2C0
  8
0
 62
     9
 10
0.0
 20
0.0
 30
0.0
 70
   128
 71
    87
 72
    86
 73
     8
  0
VERTEX
  5
2C1
  8
0
 62
     9
 10
0.0
 20
0.0
 30
0.0
 70
   128
 71
    86
 72
    88
 73
    22
  0
VERTEX
  5
2C2
  8
0
 62
     9
 10
0.0
 20
0.0
 30
0.0
 70
   128
 71
    88
 72
    89
 73
    22
  0
VERTEX
  5
2C3
  8
0
 62
     9
 10
0.0
 20
0.0
 30
0.0
 70
   128
 71
    22
 72
     8
 73
    86
  0
VERTEX
  5
2C4
  8
0
 62
     9
 10
0.0
 20
0.0
 30
0.0
 70
   128
 71
    91
 72
    90
 73
     5
  0
VERTEX
  5
2C5
  8
0
 62
     9
 10
0.0
 20
0.0
 30
0.0
 70
   128
 71
    90
 72
    92
 73
     8
  0
VERTEX
  5
2C6
  8
0
 62
     9
 10
0.0
 20
0.0
 30
0.0
 70
   128
 71
     8
 72
     5
 73
    90
  0
VERTEX
  5
2C7
  8
0
 62
     9
 10
0.0
 20
0.0
 30
0.0
 70
   128
 71
    93
 72
     5
 73
    31
  0
VERTEX
  5
2C8
  8
0
 62
     9
 10
0.0
 20
0.0
 30
0.0
 70
   128
 71
    93
 72
    94
 73
     5
  0
VERTEX
  5
2C9
  8
0
 62
     9
 10
0.0
 20
0.0
 30
0.0
 70
   128
 71
    31
 72
    95
 73
    93
  0
VERTEX
  5
2CA
  8
0
 62
     9
 10
0.0
 20
0.0
 30
0.0
 70
   128
 71
    94
 72
    96
 73
     5
  0
VERTEX
  5
2CB
  8
0
 62
     9
 10
0.0
 20
0.0
 30
0.0
 70
   128
 71
    98
 72
    97
 73
    32
  0
VERTEX
  5
2CC
  8
0
 62
     9
 10
0.0
 20
0.0
 30
0.0
 70
   128
 71
    97
 72
    99
 73
    31
  0
VERTEX
  5
2CD
  8
0
 62
     9
 10
0.0
 20
0.0
 30
0.0
 70
   128
 71
    99
 72
   100
 73
    31
  0
VERTEX
  5
2CE
  8
0
 62
     9
 10
0.0
 20
0.0
 30
0.0
 70
   128
 71
    31
 72
    32
 73
    97
  0
VERTEX
  5
2CF
  8
0
 62
     9
 10
0.0
 20
0.0
 30
0.0
 70
   128
 71
   101
 72
    32
 73
    37
  0
VERTEX
  5
2D0
  8
0
 62
     9
 10
0.0
 20
0.0
 30
0.0
 70
   128
 71
   103
 72
   102
 73
    32
  0
VERTEX
  5
2D1
  8
0
 62
     9
 10
0.0
 20
0.0
 30
0.0
 70
   128
 71
    32
 72
   101
 73
   103
  0
VERTEX
  5
2D2
  8
0
 62
     9
 10
0.0
 20
0.0
 30
0.0
 70
   128
 71
    37
 72
    48
 73
   101
  0
VERTEX
  5
2D3
  8
0
 62
     9
 10
0.0
 20
0.0
 30
0.0
 70
   128
 71
    32
 72
   102
 73
    98
  0
VERTEX
  5
2D4
  8
0
 62
     9
 10
0.0
 20
0.0
 30
0.0
 70
   128
 71
    31
 72
   100
 73
    95
  0
VERTEX
  5
2D5
  8
0
 62
     9
 10
0.0
 20
0.0
 30
0.0
 70
   128
 71
     5
 72
    96
 73
    91
  0
VERTEX
  5
2D6
  8
0
 62
     9
 10
0.0
 20
0.0
 30
0.0
 70
   128
 71
     8
 72
    92
 73
    87
  0
VERTEX
  5
2D7
  8
0
 62
     9
 10
0.0
 20
0.0
 30
0.0
 70
   128
 71
    22
 72
    89
 73
    83
  0
VERTEX
  5
2D8
  8
0
 62
     9
 10
0.0
 20
0.0
 30
0.0
 70
   128
 71
    21
 72
    85
 73
    79
  0
VERTEX
  5
2D9
  8
0
 62
     9
 10
0.0
 20
0.0
 30
0.0
 70
   128
 71
     9
 72
    80
 73
    78
  0
VERTEX
  5
2DA
  8
0
 62
     9
 10
0.0
 20
0.0
 30
0.0
 70
   128
 71
    12
 72
    77
 73
    73
  0
VERTEX
  5
2DB
  8
0
 62
     9
 10
0.0
 20
0.0
 30
0.0
 70
   128
 71
    13
 72
    74
 73
    69
  0
VERTEX
  5
2DC
  8
0
 62
     9
 10
0.0
 20
0.0
 30
0.0
 70
   128
 71
    16
 72
    70
 73
    67
  0
VERTEX
  5
2DD
  8
0
 62
     9
 10
0.0
 20
0.0
 30
0.0
 70
   128
 71
     2
 72
    66
 73
    61
  0
VERTEX
  5
2DE
  8
0
 62
     9
 10
0.0
 20
0.0
 30
0.0
 70
   128
 71
     1
 72
    62
 73
    57
  0
VERTEX
  5
2DF
  8
0
 62
     9
 10
0.0
 20
0.0
 30
0.0
 70
   128
 71
    38
 72
    58
 73
    56
  0
VERTEX
  5
2E0
  8
0
 62
     9
 10
0.0
 20
0.0
 30
0.0
 70
   128
 71
    41
 72
    55
 73
    50
  0
VERTEX
  5
2E1
  8
0
 62
     9
 10
0.0
 20
0.0
 30
0.0
 70
   128
 71
    28
 72
    51
 73
    47
  0
VERTEX
  5
2E2
  8
0
 62
     9
 10
0.0
 20
0.0
 30
0.0
 70
   128
 71
    38
 72
    39
 73
    45
  0
VERTEX
  5
2E3
  8
0
 62
     9
 10
0.0
 20
0.0
 30
0.0
 70
   128
 71
    28
 72
    29
 73
    43
  0
VERTEX
  5
2E4
  8
0
 62
     9
 10
0.0
 20
0.0
 30
0.0
 70
   128
 71
    41
 72
    42
 73
    40
  0
VERTEX
  5
2E5
  8
0
 62
     9
 10
0.0
 20
0.0
 30
0.0
 70
   128
 71
    32
 72
    34
 73
    30
  0
VERTEX
  5
2E6
  8
0
 62
     9
 10
0.0
 20
0.0
 30
0.0
 70
   128
 71
     5
 72
     6
 73
    35
  0
VERTEX
  5
2E7
  8
0
 62
     9
 10
0.0
 20
0.0
 30
0.0
 70
   128
 71
    31
 72
    36
 73
    33
  0
VERTEX
  5
2E8
  8
0
 62
     9
 10
0.0
 20
0.0
 30
0.0
 70
   128
 71
    28
 72
    37
 73
    30
  0
VERTEX
  5
2E9
  8
0
 62
     9
 10
0.0
 20
0.0
 30
0.0
 70
   128
 71
    22
 72
    24
 73
    27
  0
VERTEX
  5
2EA
  8
0
 62
     9
 10
0.0
 20
0.0
 30
0.0
 70
   128
 71
     9
 72
    10
 73
    25
  0
VERTEX
  5
2EB
  8
0
 62
     9
 10
0.0
 20
0.0
 30
0.0
 70
   128
 71
    21
 72
    26
 73
    23
  0
VERTEX
  5
2EC
  8
0
 62
     9
 10
0.0
 20
0.0
 30
0.0
 70
   128
 71
    13
 72
    14
 73
    20
  0
VERTEX
  5
2ED
  8
0
 62
     9
 10
0.0
 20
0.0
 30
0.0
 70
   128
 71
     2
 72
     4
 73
    17
  0
VERTEX
  5
2EE
  8
0
 62
     9
 10
0.0
 20
0.0
 30
0.0
 70
   128
 71
    16
 72
    18
 73
    15
  0
VERTEX
  5
2EF
  8
0
 62
     9
 10
0.0
 20
0.0
 30
0.0
 70
   128
 71
    12
 72
    19
 73
    11
  0
VERTEX
  5
2F0
  8
0
 62
     9
 10
0.0
 20
0.0
 30
0.0
 70
   128
 71
     8
 72
    27
 73
     7
  0
VERTEX
  5
2F1
  8
0
 62
     9
 10
0.0
 20
0.0
 30
0.0
 70
   128
 71
     1
 72
    44
 73
     3
  0
SEQEND
  5
2F2
  8
0
 62
     9
  0
ENDBLK
  5
2F5
  8
0
  0
BLOCK
  8
0
  2
E3_NODE_6_
 70
     0
 10
0.0
 20
0.0
 30
0.0
  3
E3_NODE_6_
  1

  0
POLYLINE
  5
2F7
  8
0
 62
     9
 66
     1
 10
0.0
 20
0.0
 30
0.0
 70
    64
 71
    69
 72
    69
  0
VERTEX
  5
2F8
  8
0
 10
64.83300018310547
 20
-21.74600028991699
 30
22.97599983215332
 70
   192
  0
VERTEX
  5
2F9
  8
0
 10
99.39800262451172
 20
-24.39299964904785
 30
17.55599975585938
 70
   192
  0
VERTEX
  5
2FA
  8
0
 10
99.39900207519531
 20
-23.77499961853027
 30
18.84099960327148
 70
   192
  0
VERTEX
  5
2FB
  8
0
 10
99.4010009765625
 20
-21.91300010681152
 30
22.71299934387207
 70
   192
  0
VERTEX
  5
2FC
  8
0
 10
64.83300018310547
 20
-25.85000038146973
 30
9.0
 70
   192
  0
VERTEX
  5
2FD
  8
0
 10
99.4010009765625
 20
-25.21699905395508
 30
14.6870002746582
 70
   192
  0
VERTEX
  5
2FE
  8
0
 10
99.40699768066406
 20
-25.85000038146973
 30
9.0
 70
   192
  0
VERTEX
  5
2FF
  8
0
 10
99.40499877929688
 20
-18.16600036621094
 30
27.16600036621094
 70
   192
  0
VERTEX
  5
300
  8
0
 10
99.40499877929688
 20
-16.13800048828125
 30
29.19400024414062
 70
   192
  0
VERTEX
  5
301
  8
0
 10
64.83300018310547
 20
-10.73799991607666
 30
32.51399993896484
 70
   192
  0
VERTEX
  5
302
  8
0
 10
99.4010009765625
 20
-21.73299980163574
 30
22.96599960327148
 70
   192
  0
VERTEX
  5
303
  8
0
 10
99.40499877929688
 20
-20.18600082397461
 30
25.14800071716309
 70
   192
  0
VERTEX
  5
304
  8
0
 10
99.4010009765625
 20
-13.70300006866455
 30
30.91900062561035
 70
   192
  0
VERTEX
  5
305
  8
0
 10
64.83300018310547
 20
3.678999900817871
 30
34.58700180053711
 70
   192
  0
VERTEX
  5
306
  8
0
 10
99.4010009765625
 20
-5.675000190734863
 30
34.21900177001953
 70
   192
  0
VERTEX
  5
307
  8
0
 10
99.40699768066406
 20
0.0120000001043081
 30
34.84999847412109
 70
   192
  0
VERTEX
  5
308
  8
0
 10
99.40499877929688
 20
2.992000102996826
 30
34.67599868774414
 70
   192
  0
VERTEX
  5
309
  8
0
 10
99.39800262451172
 20
-8.543999671936035
 30
33.39699935913086
 70
   192
  0
VERTEX
  5
30A
  8
0
 10
99.39900207519531
 20
-10.67199993133545
 30
32.375
 70
   192
  0
VERTEX
  5
30B
  8
0
 10
99.39900207519531
 20
-9.840999603271484
 30
32.77399826049805
 70
   192
  0
VERTEX
  5
30C
  8
0
 10
64.83300018310547
 20
16.92799949645996
 30
28.5359992980957
 70
   192
  0
VERTEX
  5
30D
  8
0
 10
99.39800262451172
 20
11.32199954986572
 30
32.23899841308594
 70
   192
  0
VERTEX
  5
30E
  8
0
 10
99.40499877929688
 20
16.15800094604492
 30
29.17799949645996
 70
   192
  0
VERTEX
  5
30F
  8
0
 10
99.39800262451172
 20
9.87600040435791
 30
32.84299850463867
 70
   192
  0
VERTEX
  5
310
  8
0
 10
99.39800262451172
 20
8.567999839782715
 30
33.38899993896484
 70
   192
  0
VERTEX
  5
311
  8
0
 10
99.40399932861328
 20
3.664000034332275
 30
34.52099990844727
 70
   192
  0
VERTEX
  5
312
  8
0
 10
64.83300018310547
 20
24.80299949645996
 30
16.28300094604492
 70
   192
  0
VERTEX
  5
313
  8
0
 10
99.39800262451172
 20
23.35799980163574
 30
20.07399940490723
 70
   192
  0
VERTEX
  5
314
  8
0
 10
99.39900207519531
 20
23.77700042724609
 30
18.85600090026855
 70
   192
  0
VERTEX
  5
315
  8
0
 10
99.40699768066406
 20
18.37599945068359
 30
27.18099975585938
 70
   192
  0
VERTEX
  5
316
  8
0
 10
99.4010009765625
 20
21.92600059509277
 30
22.69300079345703
 70
   192
  0
VERTEX
  5
317
  8
0
 10
99.40599822998047
 20
16.90200042724609
 30
28.50799942016602
 70
   192
  0
VERTEX
  5
318
  8
0
 10
64.83300018310547
 20
24.80299949645996
 30
1.717000007629395
 70
   192
  0
VERTEX
  5
319
  8
0
 10
99.40499877929688
 20
25.6919994354248
 30
9.00100040435791
 70
   192
  0
VERTEX
  5
31A
  8
0
 10
99.40499877929688
 20
25.67499923706055
 30
5.995999813079834
 70
   192
  0
VERTEX
  5
31B
  8
0
 10
99.40499877929688
 20
25.70700073242188
 30
11.7180004119873
 70
   192
  0
VERTEX
  5
31C
  8
0
 10
99.4010009765625
 20
25.22200012207031
 30
14.66300010681152
 70
   192
  0
VERTEX
  5
31D
  8
0
 10
99.4000015258789
 20
24.67900085449219
 30
16.23999977111816
 70
   192
  0
VERTEX
  5
31E
  8
0
 10
99.4010009765625
 20
25.1569995880127
 30
3.055999994277954
 70
   192
  0
VERTEX
  5
31F
  8
0
 10
64.83300018310547
 20
16.92799949645996
 30
-10.53600025177002
 70
   192
  0
VERTEX
  5
320
  8
0
 10
99.4010009765625
 20
21.77199935913086
 30
-4.935999870300293
 70
   192
  0
VERTEX
  5
321
  8
0
 10
99.40699768066406
 20
18.17200088500977
 30
-9.385000228881836
 70
   192
  0
VERTEX
  5
322
  8
0
 10
99.39800262451172
 20
23.23299980163574
 30
-2.33299994468689
 70
   192
  0
VERTEX
  5
323
  8
0
 10
99.4000015258789
 20
24.69300079345703
 30
1.75600004196167
 70
   192
  0
VERTEX
  5
324
  8
0
 10
99.39900207519531
 20
23.76300048828125
 30
-0.8500000238418579
 70
   192
  0
VERTEX
  5
325
  8
0
 10
64.83300018310547
 20
3.678999900817871
 30
-16.58699989318848
 70
   192
  0
VERTEX
  5
326
  8
0
 10
99.39800262451172
 20
11.0629997253418
 30
-14.36299991607666
 70
   192
  0
VERTEX
  5
327
  8
0
 10
99.39800262451172
 20
9.876999855041504
 30
-14.8430004119873
 70
   192
  0
VERTEX
  5
328
  8
0
 10
99.39800262451172
 20
8.295999526977539
 30
-15.48299980163574
 70
   192
  0
VERTEX
  5
329
  8
0
 10
99.40599822998047
 20
16.89999961853027
 30
-10.50399971008301
 70
   192
  0
VERTEX
  5
32A
  8
0
 10
99.40499877929688
 20
15.93200016021729
 30
-11.35700035095215
 70
   192
  0
VERTEX
  5
32B
  8
0
 10
64.83300018310547
 20
-10.73799991607666
 30
-14.51399993896484
 70
   192
  0
VERTEX
  5
32C
  8
0
 10
99.39800262451172
 20
-8.815999984741211
 30
-15.30000019073486
 70
   192
  0
VERTEX
  5
32D
  8
0
 10
99.39900207519531
 20
-9.847000122070312
 30
-14.79100036621094
 70
   192
  0
VERTEX
  5
32E
  8
0
 10
99.40699768066406
 20
-0.2759999930858612
 30
-16.84900093078613
 70
   192
  0
VERTEX
  5
32F
  8
0
 10
99.4010009765625
 20
-5.955999851226807
 30
-16.15500068664551
 70
   192
  0
VERTEX
  5
330
  8
0
 10
99.40499877929688
 20
2.706000089645386
 30
-16.70800018310547
 70
   192
  0
VERTEX
  5
331
  8
0
 10
99.40399932861328
 20
3.660000085830688
 30
-16.49900054931641
 70
   192
  0
VERTEX
  5
332
  8
0
 10
64.83300018310547
 20
-21.74600028991699
 30
-4.97599983215332
 70
   192
  0
VERTEX
  5
333
  8
0
 10
99.40499877929688
 20
-18.16600036621094
 30
-9.168999671936035
 70
   192
  0
VERTEX
  5
334
  8
0
 10
99.40499877929688
 20
-20.36400032043457
 30
-6.921999931335449
 70
   192
  0
VERTEX
  5
335
  8
0
 10
99.40599822998047
 20
-16.36199951171875
 30
-11.01200008392334
 70
   192
  0
VERTEX
  5
336
  8
0
 10
99.4010009765625
 20
-13.94600009918213
 30
-12.76500034332275
 70
   192
  0
VERTEX
  5
337
  8
0
 10
99.39900207519531
 20
-10.67300033569336
 30
-14.38199996948242
 70
   192
  0
VERTEX
  5
338
  8
0
 10
99.39800262451172
 20
-24.48699951171875
 30
0.7160000205039978
 70
   192
  0
VERTEX
  5
339
  8
0
 10
99.4010009765625
 20
-25.27799987792969
 30
3.594000101089478
 70
   192
  0
VERTEX
  5
33A
  8
0
 10
99.4010009765625
 20
-22.06399917602539
 30
-4.467999935150146
 70
   192
  0
VERTEX
  5
33B
  8
0
 10
99.39900207519531
 20
-23.76099967956543
 30
-0.8360000252723694
 70
   192
  0
VERTEX
  5
33C
  8
0
 10
99.4010009765625
 20
-21.72400093078613
 30
-4.960000038146973
 70
   192
  0
VERTEX
  5
33D
  8
0
 62
     9
 10
0.0
 20
0.0
 30
0.0
 70
   128
 71
     3
 72
     2
 73
     1
  0
VERTEX
  5
33E
  8
0
 62
     9
 10
0.0
 20
0.0
 30
0.0
 70
   128
 71
     1
 72
     4
 73
     3
  0
VERTEX
  5
33F
  8
0
 62
     9
 10
0.0
 20
0.0
 30
0.0
 70
   128
 71
     2
 72
     6
 73
     5
  0
VERTEX
  5
340
  8
0
 62
     9
 10
0.0
 20
0.0
 30
0.0
 70
   128
 71
     6
 72
     7
 73
     5
  0
VERTEX
  5
341
  8
0
 62
     9
 10
0.0
 20
0.0
 30
0.0
 70
   128
 71
     5
 72
     1
 73
     2
  0
VERTEX
  5
342
  8
0
 62
     9
 10
0.0
 20
0.0
 30
0.0
 70
   128
 71
     9
 72
     8
 73
     1
  0
VERTEX
  5
343
  8
0
 62
     9
 10
0.0
 20
0.0
 30
0.0
 70
   128
 71
     1
 72
    10
 73
     9
  0
VERTEX
  5
344
  8
0
 62
     9
 10
0.0
 20
0.0
 30
0.0
 70
   128
 71
    12
 72
    11
 73
     1
  0
VERTEX
  5
345
  8
0
 62
     9
 10
0.0
 20
0.0
 30
0.0
 70
   128
 71
     1
 72
     8
 73
    12
  0
VERTEX
  5
346
  8
0
 62
     9
 10
0.0
 20
0.0
 30
0.0
 70
   128
 71
    10
 72
    13
 73
     9
  0
VERTEX
  5
347
  8
0
 62
     9
 10
0.0
 20
0.0
 30
0.0
 70
   128
 71
    15
 72
    10
 73
    14
  0
VERTEX
  5
348
  8
0
 62
     9
 10
0.0
 20
0.0
 30
0.0
 70
   128
 71
    14
 72
    16
 73
    15
  0
VERTEX
  5
349
  8
0
 62
     9
 10
0.0
 20
0.0
 30
0.0
 70
   128
 71
    14
 72
    17
 73
    16
  0
VERTEX
  5
34A
  8
0
 62
     9
 10
0.0
 20
0.0
 30
0.0
 70
   128
 71
    15
 72
    18
 73
    10
  0
VERTEX
  5
34B
  8
0
 62
     9
 10
0.0
 20
0.0
 30
0.0
 70
   128
 71
    20
 72
    19
 73
    10
  0
VERTEX
  5
34C
  8
0
 62
     9
 10
0.0
 20
0.0
 30
0.0
 70
   128
 71
    10
 72
    18
 73
    20
  0
VERTEX
  5
34D
  8
0
 62
     9
 10
0.0
 20
0.0
 30
0.0
 70
   128
 71
    23
 72
    22
 73
    21
  0
VERTEX
  5
34E
  8
0
 62
     9
 10
0.0
 20
0.0
 30
0.0
 70
   128
 71
    22
 72
    24
 73
    14
  0
VERTEX
  5
34F
  8
0
 62
     9
 10
0.0
 20
0.0
 30
0.0
 70
   128
 71
    24
 72
    25
 73
    14
  0
VERTEX
  5
350
  8
0
 62
     9
 10
0.0
 20
0.0
 30
0.0
 70
   128
 71
    14
 72
    21
 73
    22
  0
VERTEX
  5
351
  8
0
 62
     9
 10
0.0
 20
0.0
 30
0.0
 70
   128
 71
    25
 72
    26
 73
    14
  0
VERTEX
  5
352
  8
0
 62
     9
 10
0.0
 20
0.0
 30
0.0
 70
   128
 71
    29
 72
    28
 73
    27
  0
VERTEX
  5
353
  8
0
 62
     9
 10
0.0
 20
0.0
 30
0.0
 70
   128
 71
    31
 72
    30
 73
    21
  0
VERTEX
  5
354
  8
0
 62
     9
 10
0.0
 20
0.0
 30
0.0
 70
   128
 71
    30
 72
    32
 73
    21
  0
VERTEX
  5
355
  8
0
 62
     9
 10
0.0
 20
0.0
 30
0.0
 70
   128
 71
    21
 72
    27
 73
    31
  0
VERTEX
  5
356
  8
0
 62
     9
 10
0.0
 20
0.0
 30
0.0
 70
   128
 71
    27
 72
    28
 73
    31
  0
VERTEX
  5
357
  8
0
 62
     9
 10
0.0
 20
0.0
 30
0.0
 70
   128
 71
    35
 72
    34
 73
    33
  0
VERTEX
  5
358
  8
0
 62
     9
 10
0.0
 20
0.0
 30
0.0
 70
   128
 71
    34
 72
    36
 73
    27
  0
VERTEX
  5
359
  8
0
 62
     9
 10
0.0
 20
0.0
 30
0.0
 70
   128
 71
    36
 72
    37
 73
    27
  0
VERTEX
  5
35A
  8
0
 62
     9
 10
0.0
 20
0.0
 30
0.0
 70
   128
 71
    27
 72
    33
 73
    34
  0
VERTEX
  5
35B
  8
0
 62
     9
 10
0.0
 20
0.0
 30
0.0
 70
   128
 71
    37
 72
    38
 73
    27
  0
VERTEX
  5
35C
  8
0
 62
     9
 10
0.0
 20
0.0
 30
0.0
 70
   128
 71
    33
 72
    39
 73
    35
  0
VERTEX
  5
35D
  8
0
 62
     9
 10
0.0
 20
0.0
 30
0.0
 70
   128
 71
    41
 72
    33
 73
    40
  0
VERTEX
  5
35E
  8
0
 62
     9
 10
0.0
 20
0.0
 30
0.0
 70
   128
 71
    40
 72
    42
 73
    41
  0
VERTEX
  5
35F
  8
0
 62
     9
 10
0.0
 20
0.0
 30
0.0
 70
   128
 71
    41
 72
    43
 73
    33
  0
VERTEX
  5
360
  8
0
 62
     9
 10
0.0
 20
0.0
 30
0.0
 70
   128
 71
    45
 72
    44
 73
    33
  0
VERTEX
  5
361
  8
0
 62
     9
 10
0.0
 20
0.0
 30
0.0
 70
   128
 71
    33
 72
    43
 73
    45
  0
VERTEX
  5
362
  8
0
 62
     9
 10
0.0
 20
0.0
 30
0.0
 70
   128
 71
    47
 72
    40
 73
    46
  0
VERTEX
  5
363
  8
0
 62
     9
 10
0.0
 20
0.0
 30
0.0
 70
   128
 71
    46
 72
    48
 73
    47
  0
VERTEX
  5
364
  8
0
 62
     9
 10
0.0
 20
0.0
 30
0.0
 70
   128
 71
    46
 72
    49
 73
    48
  0
VERTEX
  5
365
  8
0
 62
     9
 10
0.0
 20
0.0
 30
0.0
 70
   128
 71
    51
 72
    50
 73
    40
  0
VERTEX
  5
366
  8
0
 62
     9
 10
0.0
 20
0.0
 30
0.0
 70
   128
 71
    40
 72
    47
 73
    51
  0
VERTEX
  5
367
  8
0
 62
     9
 10
0.0
 20
0.0
 30
0.0
 70
   128
 71
    54
 72
    53
 73
    52
  0
VERTEX
  5
368
  8
0
 62
     9
 10
0.0
 20
0.0
 30
0.0
 70
   128
 71
    56
 72
    55
 73
    46
  0
VERTEX
  5
369
  8
0
 62
     9
 10
0.0
 20
0.0
 30
0.0
 70
   128
 71
    55
 72
    57
 73
    46
  0
VERTEX
  5
36A
  8
0
 62
     9
 10
0.0
 20
0.0
 30
0.0
 70
   128
 71
    57
 72
    58
 73
    46
  0
VERTEX
  5
36B
  8
0
 62
     9
 10
0.0
 20
0.0
 30
0.0
 70
   128
 71
    46
 72
    52
 73
    56
  0
VERTEX
  5
36C
  8
0
 62
     9
 10
0.0
 20
0.0
 30
0.0
 70
   128
 71
    52
 72
    53
 73
    56
  0
VERTEX
  5
36D
  8
0
 62
     9
 10
0.0
 20
0.0
 30
0.0
 70
   128
 71
    61
 72
    60
 73
    59
  0
VERTEX
  5
36E
  8
0
 62
     9
 10
0.0
 20
0.0
 30
0.0
 70
   128
 71
    62
 72
    52
 73
    59
  0
VERTEX
  5
36F
  8
0
 62
     9
 10
0.0
 20
0.0
 30
0.0
 70
   128
 71
    62
 72
    63
 73
    52
  0
VERTEX
  5
370
  8
0
 62
     9
 10
0.0
 20
0.0
 30
0.0
 70
   128
 71
    59
 72
    60
 73
    62
  0
VERTEX
  5
371
  8
0
 62
     9
 10
0.0
 20
0.0
 30
0.0
 70
   128
 71
    63
 72
    64
 73
    52
  0
VERTEX
  5
372
  8
0
 62
     9
 10
0.0
 20
0.0
 30
0.0
 70
   128
 71
    65
 72
    59
 73
     5
  0
VERTEX
  5
373
  8
0
 62
     9
 10
0.0
 20
0.0
 30
0.0
 70
   128
 71
     5
 72
    66
 73
    65
  0
VERTEX
  5
374
  8
0
 62
     9
 10
0.0
 20
0.0
 30
0.0
 70
   128
 71
    68
 72
    67
 73
    59
  0
VERTEX
  5
375
  8
0
 62
     9
 10
0.0
 20
0.0
 30
0.0
 70
   128
 71
    67
 72
    69
 73
    59
  0
VERTEX
  5
376
  8
0
 62
     9
 10
0.0
 20
0.0
 30
0.0
 70
   128
 71
    59
 72
    65
 73
    68
  0
VERTEX
  5
377
  8
0
 62
     9
 10
0.0
 20
0.0
 30
0.0
 70
   128
 71
     5
 72
     7
 73
    66
  0
VERTEX
  5
378
  8
0
 62
     9
 10
0.0
 20
0.0
 30
0.0
 70
   128
 71
    59
 72
    69
 73
    61
  0
VERTEX
  5
379
  8
0
 62
     9
 10
0.0
 20
0.0
 30
0.0
 70
   128
 71
    52
 72
    64
 73
    54
  0
VERTEX
  5
37A
  8
0
 62
     9
 10
0.0
 20
0.0
 30
0.0
 70
   128
 71
    46
 72
    58
 73
    49
  0
VERTEX
  5
37B
  8
0
 62
     9
 10
0.0
 20
0.0
 30
0.0
 70
   128
 71
    40
 72
    50
 73
    42
  0
VERTEX
  5
37C
  8
0
 62
     9
 10
0.0
 20
0.0
 30
0.0
 70
   128
 71
    33
 72
    44
 73
    39
  0
VERTEX
  5
37D
  8
0
 62
     9
 10
0.0
 20
0.0
 30
0.0
 70
   128
 71
    27
 72
    38
 73
    29
  0
VERTEX
  5
37E
  8
0
 62
     9
 10
0.0
 20
0.0
 30
0.0
 70
   128
 71
    21
 72
    32
 73
    23
  0
VERTEX
  5
37F
  8
0
 62
     9
 10
0.0
 20
0.0
 30
0.0
 70
   128
 71
    14
 72
    26
 73
    17
  0
VERTEX
  5
380
  8
0
 62
     9
 10
0.0
 20
0.0
 30
0.0
 70
   128
 71
    10
 72
    19
 73
    13
  0
VERTEX
  5
381
  8
0
 62
     9
 10
0.0
 20
0.0
 30
0.0
 70
   128
 71
     1
 72
    11
 73
     4
  0
SEQEND
  5
382
  8
0
 62
     9
  0
ENDBLK
  5
385
  8
0
  0
BLOCK
  8
0
  2
E3_NODE_7_
 70
     0
 10
0.0
 20
0.0
 30
0.0
  3
E3_NODE_7_
  1

  0
POLYLINE
  5
387
  8
0
 62
     9
 66
     1
 10
0.0
 20
0.0
 30
0.0
 70
    64
 71
    31
 72
    41
  0
VERTEX
  5
388
  8
0
 10
112.6959991455078
 20
-13.12800025939941
 30
-66.5
 70
   192
  0
VERTEX
  5
389
  8
0
 10
112.6959991455078
 20
-9.383999824523926
 30
-72.1729965209961
 70
   192
  0
VERTEX
  5
38A
  8
0
 10
115.745002746582
 20
-13.71500015258789
 30
-71.9000015258789
 70
   192
  0
VERTEX
  5
38B
  8
0
 10
115.745002746582
 20
-11.79399967193604
 30
-74.80999755859375
 70
   192
  0
VERTEX
  5
38C
  8
0
 10
115.745002746582
 20
-5.282999992370605
 30
-78.31400299072266
 70
   192
  0
VERTEX
  5
38D
  8
0
 10
112.6959991455078
 20
-3.397000074386597
 30
-75.3949966430664
 70
   192
  0
VERTEX
  5
38E
  8
0
 10
115.745002746582
 20
-4.269999980926514
 30
-78.85900115966797
 70
   192
  0
VERTEX
  5
38F
  8
0
 10
112.6959991455078
 20
3.401000022888184
 30
-75.3949966430664
 70
   192
  0
VERTEX
  5
390
  8
0
 10
115.745002746582
 20
5.285999774932861
 30
-78.31400299072266
 70
   192
  0
VERTEX
  5
391
  8
0
 10
112.6959991455078
 20
9.38700008392334
 30
-72.1729965209961
 70
   192
  0
VERTEX
  5
392
  8
0
 10
115.745002746582
 20
11.79699993133545
 30
-74.80999755859375
 70
   192
  0
VERTEX
  5
393
  8
0
 10
112.6959991455078
 20
13.13199996948242
 30
-66.5
 70
   192
  0
VERTEX
  5
394
  8
0
 10
115.745002746582
 20
16.50399971008301
 30
-67.68000030517578
 70
   192
  0
VERTEX
  5
395
  8
0
 10
115.745002746582
 20
13.7180004119873
 30
-71.9000015258789
 70
   192
  0
VERTEX
  5
396
  8
0
 10
111.2200012207031
 20
-5.64300012588501
 30
-63.88100051879883
 70
   192
  0
VERTEX
  5
397
  8
0
 10
111.2200012207031
 20
-4.032999992370605
 30
-66.31999969482422
 70
   192
  0
VERTEX
  5
398
  8
0
 10
111.2200012207031
 20
-1.460000038146973
 30
-67.70500183105469
 70
   192
  0
VERTEX
  5
399
  8
0
 10
111.2200012207031
 20
1.463000059127808
 30
-67.70500183105469
 70
   192
  0
VERTEX
  5
39A
  8
0
 10
111.2200012207031
 20
4.037000179290771
 30
-66.31999969482422
 70
   192
  0
VERTEX
  5
39B
  8
0
 10
111.2200012207031
 20
5.646999835968018
 30
-63.88100051879883
 70
   192
  0
VERTEX
  5
39C
  8
0
 10
115.745002746582
 20
-16.5
 30
-67.68000030517578
 70
   192
  0
VERTEX
  5
39D
  8
0
 10
115.7620010375977
 20
-17.47800064086914
 30
-61.90499877929688
 70
   192
  0
VERTEX
  5
39E
  8
0
 10
113.2929992675781
 20
-13.53600025177002
 30
-61.90499877929688
 70
   192
  0
VERTEX
  5
39F
  8
0
 10
111.8659973144531
 20
-11.25800037384033
 30
-61.90499877929688
 70
   192
  0
VERTEX
  5
3A0
  8
0
 10
111.2200012207031
 20
5.982999801635742
 30
-61.90499877929688
 70
   192
  0
VERTEX
  5
3A1
  8
0
 10
112.1760025024414
 20
11.11999988555908
 30
-61.90499877929688
 70
   192
  0
VERTEX
  5
3A2
  8
0
 10
115.7620010375977
 20
17.48200035095215
 30
-61.90499877929688
 70
   192
  0
VERTEX
  5
3A3
  8
0
 10
112.6959991455078
 20
13.91300010681152
 30
-61.90499877929688
 70
   192
  0
VERTEX
  5
3A4
  8
0
 10
111.109001159668
 20
0.0020000000949949
 30
-61.90499877929688
 70
   192
  0
VERTEX
  5
3A5
  8
0
 10
111.5100021362305
 20
-5.960000038146973
 30
-61.90499877929688
 70
   192
  0
VERTEX
  5
3A6
  8
0
 10
115.745002746582
 20
4.27400016784668
 30
-78.85900115966797
 70
   192
  0
VERTEX
  5
3A7
  8
0
 62
     9
 10
0.0
 20
0.0
 30
0.0
 70
   128
 71
     3
 72
     2
 73
     1
  0
VERTEX
  5
3A8
  8
0
 62
     9
 10
0.0
 20
0.0
 30
0.0
 70
   128
 71
     3
 72
     4
 73
     2
  0
VERTEX
  5
3A9
  8
0
 62
     9
 10
0.0
 20
0.0
 30
0.0
 70
   128
 71
     2
 72
     4
 73
     5
  0
VERTEX
  5
3AA
  8
0
 62
     9
 10
0.0
 20
0.0
 30
0.0
 70
   128
 71
     5
 72
     7
 73
     6
  0
VERTEX
  5
3AB
  8
0
 62
     9
 10
0.0
 20
0.0
 30
0.0
 70
   128
 71
     8
 72
     6
 73
     7
  0
VERTEX
  5
3AC
  8
0
 62
     9
 10
0.0
 20
0.0
 30
0.0
 70
   128
 71
    10
 72
     8
 73
     9
  0
VERTEX
  5
3AD
  8
0
 62
     9
 10
0.0
 20
0.0
 30
0.0
 70
   128
 71
     9
 72
    11
 73
    10
  0
VERTEX
  5
3AE
  8
0
 62
     9
 10
0.0
 20
0.0
 30
0.0
 70
   128
 71
    14
 72
    13
 73
    12
  0
VERTEX
  5
3AF
  8
0
 62
     9
 10
0.0
 20
0.0
 30
0.0
 70
   128
 71
    12
 72
    10
 73
    14
  0
VERTEX
  5
3B0
  8
0
 62
     9
 10
0.0
 20
0.0
 30
0.0
 70
   128
 71
     2
 72
    16
 73
    15
  0
VERTEX
  5
3B1
  8
0
 62
     9
 10
0.0
 20
0.0
 30
0.0
 70
   128
 71
     6
 72
    17
 73
    16
  0
VERTEX
  5
3B2
  8
0
 62
     9
 10
0.0
 20
0.0
 30
0.0
 70
   128
 71
     8
 72
    18
 73
    17
  0
VERTEX
  5
3B3
  8
0
 62
     9
 10
0.0
 20
0.0
 30
0.0
 70
   128
 71
    10
 72
    19
 73
    18
  0
VERTEX
  5
3B4
  8
0
 62
     9
 10
0.0
 20
0.0
 30
0.0
 70
   128
 71
    12
 72
    20
 73
    19
  0
VERTEX
  5
3B5
  8
0
 62
     9
 10
0.0
 20
0.0
 30
0.0
 70
   128
 71
    23
 72
    22
 73
    21
  0
VERTEX
  5
3B6
  8
0
 62
     9
 10
0.0
 20
0.0
 30
0.0
 70
   128
 71
    24
 72
     1
 73
    15
  0
VERTEX
  5
3B7
  8
0
 62
     9
 10
0.0
 20
0.0
 30
0.0
 70
   128
 71
    24
 72
    23
 73
     1
  0
VERTEX
  5
3B8
  8
0
 62
     9
 10
0.0
 20
0.0
 30
0.0
 70
   128
 71
    26
 72
    25
 73
    20
  0
VERTEX
  5
3B9
  8
0
 62
     9
 10
0.0
 20
0.0
 30
0.0
 70
   128
 71
    20
 72
    12
 73
    26
  0
VERTEX
  5
3BA
  8
0
 62
     9
 10
0.0
 20
0.0
 30
0.0
 70
   128
 71
    12
 72
    13
 73
    27
  0
VERTEX
  5
3BB
  8
0
 62
     9
 10
0.0
 20
0.0
 30
0.0
 70
   128
 71
    27
 72
    28
 73
    12
  0
VERTEX
  5
3BC
  8
0
 62
     9
 10
0.0
 20
0.0
 30
0.0
 70
   128
 71
    12
 72
    28
 73
    26
  0
VERTEX
  5
3BD
  8
0
 62
     9
 10
0.0
 20
0.0
 30
0.0
 70
   128
 71
    29
 72
    20
 73
    25
  0
VERTEX
  5
3BE
  8
0
 62
     9
 10
0.0
 20
0.0
 30
0.0
 70
   128
 71
    30
 72
    15
 73
    29
  0
VERTEX
  5
3BF
  8
0
 62
     9
 10
0.0
 20
0.0
 30
0.0
 70
   128
 71
    15
 72
    30
 73
    24
  0
VERTEX
  5
3C0
  8
0
 62
     9
 10
0.0
 20
0.0
 30
0.0
 70
   128
 71
    21
 72
     1
 73
    23
  0
VERTEX
  5
3C1
  8
0
 62
     9
 10
0.0
 20
0.0
 30
0.0
 70
   128
 71
    29
 72
    19
 73
    20
  0
VERTEX
  5
3C2
  8
0
 62
     9
 10
0.0
 20
0.0
 30
0.0
 70
   128
 71
    29
 72
    18
 73
    19
  0
VERTEX
  5
3C3
  8
0
 62
     9
 10
0.0
 20
0.0
 30
0.0
 70
   128
 71
    29
 72
    17
 73
    18
  0
VERTEX
  5
3C4
  8
0
 62
     9
 10
0.0
 20
0.0
 30
0.0
 70
   128
 71
    29
 72
    16
 73
    17
  0
VERTEX
  5
3C5
  8
0
 62
     9
 10
0.0
 20
0.0
 30
0.0
 70
   128
 71
    29
 72
    15
 73
    16
  0
VERTEX
  5
3C6
  8
0
 62
     9
 10
0.0
 20
0.0
 30
0.0
 70
   128
 71
    19
 72
    10
 73
    12
  0
VERTEX
  5
3C7
  8
0
 62
     9
 10
0.0
 20
0.0
 30
0.0
 70
   128
 71
    18
 72
     8
 73
    10
  0
VERTEX
  5
3C8
  8
0
 62
     9
 10
0.0
 20
0.0
 30
0.0
 70
   128
 71
    17
 72
     6
 73
     8
  0
VERTEX
  5
3C9
  8
0
 62
     9
 10
0.0
 20
0.0
 30
0.0
 70
   128
 71
    16
 72
     2
 73
     6
  0
VERTEX
  5
3CA
  8
0
 62
     9
 10
0.0
 20
0.0
 30
0.0
 70
   128
 71
    15
 72
     1
 73
     2
  0
VERTEX
  5
3CB
  8
0
 62
     9
 10
0.0
 20
0.0
 30
0.0
 70
   128
 71
    10
 72
    11
 73
    14
  0
VERTEX
  5
3CC
  8
0
 62
     9
 10
0.0
 20
0.0
 30
0.0
 70
   128
 71
     8
 72
    31
 73
     9
  0
VERTEX
  5
3CD
  8
0
 62
     9
 10
0.0
 20
0.0
 30
0.0
 70
   128
 71
     7
 72
    31
 73
     8
  0
VERTEX
  5
3CE
  8
0
 62
     9
 10
0.0
 20
0.0
 30
0.0
 70
   128
 71
     5
 72
     6
 73
     2
  0
VERTEX
  5
3CF
  8
0
 62
     9
 10
0.0
 20
0.0
 30
0.0
 70
   128
 71
     1
 72
    21
 73
     3
  0
SEQEND
  5
3D0
  8
0
 62
     9
  0
ENDBLK
  5
3D3
  8
0
  0
BLOCK
  8
0
  2
E3_NODE_8_
 70
     0
 10
0.0
 20
0.0
 30
0.0
  3
E3_NODE_8_
  1

  0
POLYLINE
  5
3D5
  8
0
 62
     9
 66
     1
 10
0.0
 20
0.0
 30
0.0
 70
    64
 71
    24
 72
    22
  0
VERTEX
  5
3D6
  8
0
 10
115.745002746582
 20
5.285999774932861
 30
-78.31400299072266
 70
   192
  0
VERTEX
  5
3D7
  8
0
 10
115.745002746582
 20
11.79699993133545
 30
-74.80999755859375
 70
   192
  0
VERTEX
  5
3D8
  8
0
 10
117.6399993896484
 20
11.77499961853027
 30
-74.78600311279297
 70
   192
  0
VERTEX
  5
3D9
  8
0
 10
115.745002746582
 20
13.7180004119873
 30
-71.9000015258789
 70
   192
  0
VERTEX
  5
3DA
  8
0
 10
117.6399993896484
 20
13.69200038909912
 30
-71.88099670410156
 70
   192
  0
VERTEX
  5
3DB
  8
0
 10
115.745002746582
 20
-5.282999992370605
 30
-78.31400299072266
 70
   192
  0
VERTEX
  5
3DC
  8
0
 10
115.745002746582
 20
-4.269999980926514
 30
-78.85900115966797
 70
   192
  0
VERTEX
  5
3DD
  8
0
 10
117.6399993896484
 20
-4.26200008392334
 30
-78.8270034790039
 70
   192
  0
VERTEX
  5
3DE
  8
0
 10
115.745002746582
 20
4.27400016784668
 30
-78.85900115966797
 70
   192
  0
VERTEX
  5
3DF
  8
0
 10
117.6399993896484
 20
4.264999866485596
 30
-78.8270034790039
 70
   192
  0
VERTEX
  5
3E0
  8
0
 10
117.6399993896484
 20
5.276000022888184
 30
-78.28299713134766
 70
   192
  0
VERTEX
  5
3E1
  8
0
 10
115.745002746582
 20
-13.71500015258789
 30
-71.9000015258789
 70
   192
  0
VERTEX
  5
3E2
  8
0
 10
115.745002746582
 20
-11.79399967193604
 30
-74.80999755859375
 70
   192
  0
VERTEX
  5
3E3
  8
0
 10
117.6399993896484
 20
-11.77099990844727
 30
-74.78600311279297
 70
   192
  0
VERTEX
  5
3E4
  8
0
 10
117.6399993896484
 20
-5.27299976348877
 30
-78.28299713134766
 70
   192
  0
VERTEX
  5
3E5
  8
0
 10
115.7620010375977
 20
-17.47800064086914
 30
-61.90499877929688
 70
   192
  0
VERTEX
  5
3E6
  8
0
 10
115.745002746582
 20
-16.5
 30
-67.68000030517578
 70
   192
  0
VERTEX
  5
3E7
  8
0
 10
117.6399993896484
 20
-16.4689998626709
 30
-67.66899871826172
 70
   192
  0
VERTEX
  5
3E8
  8
0
 10
117.6399993896484
 20
-13.68900012969971
 30
-71.88099670410156
 70
   192
  0
VERTEX
  5
3E9
  8
0
 10
115.745002746582
 20
16.50399971008301
 30
-67.68000030517578
 70
   192
  0
VERTEX
  5
3EA
  8
0
 10
117.6399993896484
 20
16.47200012207031
 30
-67.66899871826172
 70
   192
  0
VERTEX
  5
3EB
  8
0
 10
115.7620010375977
 20
17.48200035095215
 30
-61.90499877929688
 70
   192
  0
VERTEX
  5
3EC
  8
0
 10
117.6399993896484
 20
17.45199966430664
 30
-61.90499877929688
 70
   192
  0
VERTEX
  5
3ED
  8
0
 10
117.6399993896484
 20
-17.44799995422363
 30
-61.90499877929688
 70
   192
  0
VERTEX
  5
3EE
  8
0
 62
     9
 10
0.0
 20
0.0
 30
0.0
 70
   128
 71
     3
 72
     2
 73
     1
  0
VERTEX
  5
3EF
  8
0
 62
     9
 10
0.0
 20
0.0
 30
0.0
 70
   128
 71
     3
 72
     5
 73
     4
  0
VERTEX
  5
3F0
  8
0
 62
     9
 10
0.0
 20
0.0
 30
0.0
 70
   128
 71
     4
 72
     2
 73
     3
  0
VERTEX
  5
3F1
  8
0
 62
     9
 10
0.0
 20
0.0
 30
0.0
 70
   128
 71
     8
 72
     7
 73
     6
  0
VERTEX
  5
3F2
  8
0
 62
     9
 10
0.0
 20
0.0
 30
0.0
 70
   128
 71
     8
 72
    10
 73
     9
  0
VERTEX
  5
3F3
  8
0
 62
     9
 10
0.0
 20
0.0
 30
0.0
 70
   128
 71
     9
 72
     7
 73
     8
  0
VERTEX
  5
3F4
  8
0
 62
     9
 10
0.0
 20
0.0
 30
0.0
 70
   128
 71
    10
 72
    11
 73
     1
  0
VERTEX
  5
3F5
  8
0
 62
     9
 10
0.0
 20
0.0
 30
0.0
 70
   128
 71
     1
 72
     9
 73
    10
  0
VERTEX
  5
3F6
  8
0
 62
     9
 10
0.0
 20
0.0
 30
0.0
 70
   128
 71
    14
 72
    13
 73
    12
  0
VERTEX
  5
3F7
  8
0
 62
     9
 10
0.0
 20
0.0
 30
0.0
 70
   128
 71
    14
 72
    15
 73
     6
  0
VERTEX
  5
3F8
  8
0
 62
     9
 10
0.0
 20
0.0
 30
0.0
 70
   128
 71
     6
 72
    13
 73
    14
  0
VERTEX
  5
3F9
  8
0
 62
     9
 10
0.0
 20
0.0
 30
0.0
 70
   128
 71
    18
 72
    17
 73
    16
  0
VERTEX
  5
3FA
  8
0
 62
     9
 10
0.0
 20
0.0
 30
0.0
 70
   128
 71
    18
 72
    19
 73
    12
  0
VERTEX
  5
3FB
  8
0
 62
     9
 10
0.0
 20
0.0
 30
0.0
 70
   128
 71
    12
 72
    17
 73
    18
  0
VERTEX
  5
3FC
  8
0
 62
     9
 10
0.0
 20
0.0
 30
0.0
 70
   128
 71
    21
 72
    20
 73
     4
  0
VERTEX
  5
3FD
  8
0
 62
     9
 10
0.0
 20
0.0
 30
0.0
 70
   128
 71
    21
 72
    23
 73
    22
  0
VERTEX
  5
3FE
  8
0
 62
     9
 10
0.0
 20
0.0
 30
0.0
 70
   128
 71
    22
 72
    20
 73
    21
  0
VERTEX
  5
3FF
  8
0
 62
     9
 10
0.0
 20
0.0
 30
0.0
 70
   128
 71
     4
 72
     5
 73
    21
  0
VERTEX
  5
400
  8
0
 62
     9
 10
0.0
 20
0.0
 30
0.0
 70
   128
 71
    16
 72
    24
 73
    18
  0
VERTEX
  5
401
  8
0
 62
     9
 10
0.0
 20
0.0
 30
0.0
 70
   128
 71
    12
 72
    19
 73
    14
  0
VERTEX
  5
402
  8
0
 62
     9
 10
0.0
 20
0.0
 30
0.0
 70
   128
 71
     6
 72
    15
 73
     8
  0
VERTEX
  5
403
  8
0
 62
     9
 10
0.0
 20
0.0
 30
0.0
 70
   128
 71
     1
 72
    11
 73
     3
  0
SEQEND
  5
404
  8
0
 62
     9
  0
ENDBLK
  5
407
  8
0
  0
BLOCK
  8
0
  2
E3_NODE_9_
 70
     0
 10
0.0
 20
0.0
 30
0.0
  3
E3_NODE_9_
  1

  0
POLYLINE
  5
409
  8
0
 62
     9
 66
     1
 10
0.0
 20
0.0
 30
0.0
 70
    64
 71
     4
 72
     2
  0
VERTEX
  5
40A
  8
0
 10
117.6399993896484
 20
-17.44799995422363
 30
-61.90499877929688
 70
   192
  0
VERTEX
  5
40B
  8
0
 10
117.6399993896484
 20
-17.44799995422363
 30
3.164999961853027
 70
   192
  0
VERTEX
  5
40C
  8
0
 10
115.7750015258789
 20
-17.48100090026855
 30
3.164999961853027
 70
   192
  0
VERTEX
  5
40D
  8
0
 10
115.7620010375977
 20
-17.47800064086914
 30
-61.90499877929688
 70
   192
  0
VERTEX
  5
40E
  8
0
 62
     9
 10
0.0
 20
0.0
 30
0.0
 70
   128
 71
     3
 72
     2
 73
     1
  0
VERTEX
  5
40F
  8
0
 62
     9
 10
0.0
 20
0.0
 30
0.0
 70
   128
 71
     1
 72
     4
 73
     3
  0
SEQEND
  5
410
  8
0
 62
     9
  0
ENDBLK
  5
413
  8
0
  0
BLOCK
  8
0
  2
E3_NODE_10_
 70
     0
 10
0.0
 20
0.0
 30
0.0
  3
E3_NODE_10_
  1

  0
POLYLINE
  5
415
  8
0
 62
     9
 66
     1
 10
0.0
 20
0.0
 30
0.0
 70
    64
 71
     4
 72
     2
  0
VERTEX
  5
416
  8
0
 10
117.6399993896484
 20
17.45199966430664
 30
-61.90499877929688
 70
   192
  0
VERTEX
  5
417
  8
0
 10
115.7620010375977
 20
17.48200035095215
 30
-61.90499877929688
 70
   192
  0
VERTEX
  5
418
  8
0
 10
115.7850036621094
 20
17.48399925231934
 30
3.164999961853027
 70
   192
  0
VERTEX
  5
419
  8
0
 10
117.6399993896484
 20
17.45199966430664
 30
3.164999961853027
 70
   192
  0
VERTEX
  5
41A
  8
0
 62
     9
 10
0.0
 20
0.0
 30
0.0
 70
   128
 71
     3
 72
     2
 73
     1
  0
VERTEX
  5
41B
  8
0
 62
     9
 10
0.0
 20
0.0
 30
0.0
 70
   128
 71
     1
 72
     4
 73
     3
  0
SEQEND
  5
41C
  8
0
 62
     9
  0
ENDBLK
  5
41F
  8
0
  0
BLOCK
  8
0
  2
E3_NODE_11_
 70
     0
 10
0.0
 20
0.0
 30
0.0
  3
E3_NODE_11_
  1

  0
POLYLINE
  5
421
  8
0
 62
     9
 66
     1
 10
0.0
 20
0.0
 30
0.0
 70
    64
 71
    28
 72
    32
  0
VERTEX
  5
422
  8
0
 10
118.8059997558594
 20
-13.97999954223633
 30
-66.7979965209961
 70
   192
  0
VERTEX
  5
423
  8
0
 10
118.8059997558594
 20
-9.991999626159668
 30
-72.83999633789062
 70
   192
  0
VERTEX
  5
424
  8
0
 10
118.9889984130859
 20
-8.060999870300293
 30
-70.72599792480469
 70
   192
  0
VERTEX
  5
425
  8
0
 10
118.8059997558594
 20
-3.618000030517578
 30
-76.2699966430664
 70
   192
  0
VERTEX
  5
426
  8
0
 10
118.9889984130859
 20
-2.917999982833862
 30
-73.49299621582031
 70
   192
  0
VERTEX
  5
427
  8
0
 10
118.8059997558594
 20
3.621000051498413
 30
-76.2699966430664
 70
   192
  0
VERTEX
  5
428
  8
0
 10
118.9889984130859
 20
2.921999931335449
 30
-73.49299621582031
 70
   192
  0
VERTEX
  5
429
  8
0
 10
118.8059997558594
 20
9.996000289916992
 30
-72.83999633789062
 70
   192
  0
VERTEX
  5
42A
  8
0
 10
118.9889984130859
 20
8.064000129699707
 30
-70.72599792480469
 70
   192
  0
VERTEX
  5
42B
  8
0
 10
118.8059997558594
 20
13.98400020599365
 30
-66.7979965209961
 70
   192
  0
VERTEX
  5
42C
  8
0
 10
118.9889984130859
 20
11.2810001373291
 30
-65.85199737548828
 70
   192
  0
VERTEX
  5
42D
  8
0
 10
117.6399993896484
 20
-16.4689998626709
 30
-67.66899871826172
 70
   192
  0
VERTEX
  5
42E
  8
0
 10
117.6399993896484
 20
-13.68900012969971
 30
-71.88099670410156
 70
   192
  0
VERTEX
  5
42F
  8
0
 10
117.6399993896484
 20
-5.27299976348877
 30
-78.28299713134766
 70
   192
  0
VERTEX
  5
430
  8
0
 10
117.6399993896484
 20
-11.77099990844727
 30
-74.78600311279297
 70
   192
  0
VERTEX
  5
431
  8
0
 10
117.6399993896484
 20
-4.26200008392334
 30
-78.8270034790039
 70
   192
  0
VERTEX
  5
432
  8
0
 10
117.6399993896484
 20
4.264999866485596
 30
-78.8270034790039
 70
   192
  0
VERTEX
  5
433
  8
0
 10
117.6399993896484
 20
5.276000022888184
 30
-78.28299713134766
 70
   192
  0
VERTEX
  5
434
  8
0
 10
117.6399993896484
 20
11.77499961853027
 30
-74.78600311279297
 70
   192
  0
VERTEX
  5
435
  8
0
 10
117.6399993896484
 20
13.69200038909912
 30
-71.88099670410156
 70
   192
  0
VERTEX
  5
436
  8
0
 10
117.6399993896484
 20
16.47200012207031
 30
-67.66899871826172
 70
   192
  0
VERTEX
  5
437
  8
0
 10
117.6399993896484
 20
17.45199966430664
 30
-61.90499877929688
 70
   192
  0
VERTEX
  5
438
  8
0
 10
118.8059997558594
 20
14.8149995803833
 30
-61.90499877929688
 70
   192
  0
VERTEX
  5
439
  8
0
 10
118.9889984130859
 20
11.95199966430664
 30
-61.90499877929688
 70
   192
  0
VERTEX
  5
43A
  8
0
 10
118.8059997558594
 20
-14.8120002746582
 30
-61.90499877929688
 70
   192
  0
VERTEX
  5
43B
  8
0
 10
118.9889984130859
 20
-11.27799987792969
 30
-65.85199737548828
 70
   192
  0
VERTEX
  5
43C
  8
0
 10
117.6399993896484
 20
-17.44799995422363
 30
-61.90499877929688
 70
   192
  0
VERTEX
  5
43D
  8
0
 10
118.9889984130859
 20
-11.94799995422363
 30
-61.90499877929688
 70
   192
  0
VERTEX
  5
43E
  8
0
 62
     9
 10
0.0
 20
0.0
 30
0.0
 70
   128
 71
     3
 72
     2
 73
     1
  0
VERTEX
  5
43F
  8
0
 62
     9
 10
0.0
 20
0.0
 30
0.0
 70
   128
 71
     5
 72
     4
 73
     2
  0
VERTEX
  5
440
  8
0
 62
     9
 10
0.0
 20
0.0
 30
0.0
 70
   128
 71
     7
 72
     6
 73
     4
  0
VERTEX
  5
441
  8
0
 62
     9
 10
0.0
 20
0.0
 30
0.0
 70
   128
 71
     7
 72
     9
 73
     8
  0
VERTEX
  5
442
  8
0
 62
     9
 10
0.0
 20
0.0
 30
0.0
 70
   128
 71
    11
 72
    10
 73
     8
  0
VERTEX
  5
443
  8
0
 62
     9
 10
0.0
 20
0.0
 30
0.0
 70
   128
 71
    13
 72
    12
 73
     1
  0
VERTEX
  5
444
  8
0
 62
     9
 10
0.0
 20
0.0
 30
0.0
 70
   128
 71
     1
 72
     2
 73
    13
  0
VERTEX
  5
445
  8
0
 62
     9
 10
0.0
 20
0.0
 30
0.0
 70
   128
 71
     2
 72
     4
 73
    14
  0
VERTEX
  5
446
  8
0
 62
     9
 10
0.0
 20
0.0
 30
0.0
 70
   128
 71
    14
 72
    15
 73
     2
  0
VERTEX
  5
447
  8
0
 62
     9
 10
0.0
 20
0.0
 30
0.0
 70
   128
 71
     6
 72
    17
 73
    16
  0
VERTEX
  5
448
  8
0
 62
     9
 10
0.0
 20
0.0
 30
0.0
 70
   128
 71
     8
 72
    19
 73
    18
  0
VERTEX
  5
449
  8
0
 62
     9
 10
0.0
 20
0.0
 30
0.0
 70
   128
 71
    18
 72
    17
 73
     6
  0
VERTEX
  5
44A
  8
0
 62
     9
 10
0.0
 20
0.0
 30
0.0
 70
   128
 71
    20
 72
     8
 73
    10
  0
VERTEX
  5
44B
  8
0
 62
     9
 10
0.0
 20
0.0
 30
0.0
 70
   128
 71
    20
 72
    19
 73
     8
  0
VERTEX
  5
44C
  8
0
 62
     9
 10
0.0
 20
0.0
 30
0.0
 70
   128
 71
    23
 72
    22
 73
    21
  0
VERTEX
  5
44D
  8
0
 62
     9
 10
0.0
 20
0.0
 30
0.0
 70
   128
 71
    21
 72
    10
 73
    23
  0
VERTEX
  5
44E
  8
0
 62
     9
 10
0.0
 20
0.0
 30
0.0
 70
   128
 71
    24
 72
    23
 73
    10
  0
VERTEX
  5
44F
  8
0
 62
     9
 10
0.0
 20
0.0
 30
0.0
 70
   128
 71
    26
 72
     1
 73
    25
  0
VERTEX
  5
450
  8
0
 62
     9
 10
0.0
 20
0.0
 30
0.0
 70
   128
 71
    25
 72
     1
 73
    12
  0
VERTEX
  5
451
  8
0
 62
     9
 10
0.0
 20
0.0
 30
0.0
 70
   128
 71
    12
 72
    27
 73
    25
  0
VERTEX
  5
452
  8
0
 62
     9
 10
0.0
 20
0.0
 30
0.0
 70
   128
 71
    25
 72
    28
 73
    26
  0
VERTEX
  5
453
  8
0
 62
     9
 10
0.0
 20
0.0
 30
0.0
 70
   128
 71
    10
 72
    11
 73
    24
  0
VERTEX
  5
454
  8
0
 62
     9
 10
0.0
 20
0.0
 30
0.0
 70
   128
 71
    10
 72
    21
 73
    20
  0
VERTEX
  5
455
  8
0
 62
     9
 10
0.0
 20
0.0
 30
0.0
 70
   128
 71
    18
 72
     6
 73
     8
  0
VERTEX
  5
456
  8
0
 62
     9
 10
0.0
 20
0.0
 30
0.0
 70
   128
 71
    16
 72
     4
 73
     6
  0
VERTEX
  5
457
  8
0
 62
     9
 10
0.0
 20
0.0
 30
0.0
 70
   128
 71
     4
 72
    16
 73
    14
  0
VERTEX
  5
458
  8
0
 62
     9
 10
0.0
 20
0.0
 30
0.0
 70
   128
 71
     2
 72
    15
 73
    13
  0
VERTEX
  5
459
  8
0
 62
     9
 10
0.0
 20
0.0
 30
0.0
 70
   128
 71
     8
 72
     9
 73
    11
  0
VERTEX
  5
45A
  8
0
 62
     9
 10
0.0
 20
0.0
 30
0.0
 70
   128
 71
     8
 72
     6
 73
     7
  0
VERTEX
  5
45B
  8
0
 62
     9
 10
0.0
 20
0.0
 30
0.0
 70
   128
 71
     4
 72
     5
 73
     7
  0
VERTEX
  5
45C
  8
0
 62
     9
 10
0.0
 20
0.0
 30
0.0
 70
   128
 71
     2
 72
     3
 73
     5
  0
VERTEX
  5
45D
  8
0
 62
     9
 10
0.0
 20
0.0
 30
0.0
 70
   128
 71
     1
 72
    26
 73
     3
  0
SEQEND
  5
45E
  8
0
 62
     9
  0
ENDBLK
  5
461
  8
0
  0
BLOCK
  8
0
  2
E3_NODE_12_
 70
     0
 10
0.0
 20
0.0
 30
0.0
  3
E3_NODE_12_
  1

  0
POLYLINE
  5
463
  8
0
 62
     9
 66
     1
 10
0.0
 20
0.0
 30
0.0
 70
    64
 71
    16
 72
    14
  0
VERTEX
  5
464
  8
0
 10
118.9889984130859
 20
11.2810001373291
 30
-65.85199737548828
 70
   192
  0
VERTEX
  5
465
  8
0
 10
118.9889984130859
 20
-2.917999982833862
 30
-73.49299621582031
 70
   192
  0
VERTEX
  5
466
  8
0
 10
118.9889984130859
 20
2.921999931335449
 30
-73.49299621582031
 70
   192
  0
VERTEX
  5
467
  8
0
 10
118.9889984130859
 20
-11.27799987792969
 30
-65.85199737548828
 70
   192
  0
VERTEX
  5
468
  8
0
 10
118.9889984130859
 20
-8.060999870300293
 30
-70.72599792480469
 70
   192
  0
VERTEX
  5
469
  8
0
 10
118.9889984130859
 20
2.921999931335449
 30
14.7519998550415
 70
   192
  0
VERTEX
  5
46A
  8
0
 10
118.9889984130859
 20
-2.917999982833862
 30
14.7519998550415
 70
   192
  0
VERTEX
  5
46B
  8
0
 10
118.9889984130859
 20
-8.060999870300293
 30
11.98499965667725
 70
   192
  0
VERTEX
  5
46C
  8
0
 10
118.9889984130859
 20
-11.27799987792969
 30
7.111000061035156
 70
   192
  0
VERTEX
  5
46D
  8
0
 10
118.9889984130859
 20
11.2810001373291
 30
7.111000061035156
 70
   192
  0
VERTEX
  5
46E
  8
0
 10
118.9889984130859
 20
8.064000129699707
 30
11.98499965667725
 70
   192
  0
VERTEX
  5
46F
  8
0
 10
118.9889984130859
 20
-11.94799995422363
 30
-61.90499877929688
 70
   192
  0
VERTEX
  5
470
  8
0
 10
118.9889984130859
 20
-11.94799995422363
 30
3.164999961853027
 70
   192
  0
VERTEX
  5
471
  8
0
 10
118.9889984130859
 20
11.95199966430664
 30
-61.90499877929688
 70
   192
  0
VERTEX
  5
472
  8
0
 10
118.9889984130859
 20
8.064000129699707
 30
-70.72599792480469
 70
   192
  0
VERTEX
  5
473
  8
0
 10
118.9889984130859
 20
11.95199966430664
 30
3.164999961853027
 70
   192
  0
VERTEX
  5
474
  8
0
 62
     9
 10
0.0
 20
0.0
 30
0.0
 70
   128
 71
     3
 72
     2
 73
     1
  0
VERTEX
  5
475
  8
0
 62
     9
 10
0.0
 20
0.0
 30
0.0
 70
   128
 71
     5
 72
     4
 73
     1
  0
VERTEX
  5
476
  8
0
 62
     9
 10
0.0
 20
0.0
 30
0.0
 70
   128
 71
     1
 72
     2
 73
     5
  0
VERTEX
  5
477
  8
0
 62
     9
 10
0.0
 20
0.0
 30
0.0
 70
   128
 71
     8
 72
     7
 73
     6
  0
VERTEX
  5
478
  8
0
 62
     9
 10
0.0
 20
0.0
 30
0.0
 70
   128
 71
    11
 72
    10
 73
     9
  0
VERTEX
  5
479
  8
0
 62
     9
 10
0.0
 20
0.0
 30
0.0
 70
   128
 71
     4
 72
    12
 73
     1
  0
VERTEX
  5
47A
  8
0
 62
     9
 10
0.0
 20
0.0
 30
0.0
 70
   128
 71
     9
 72
     6
 73
    11
  0
VERTEX
  5
47B
  8
0
 62
     9
 10
0.0
 20
0.0
 30
0.0
 70
   128
 71
    14
 72
    12
 73
    13
  0
VERTEX
  5
47C
  8
0
 62
     9
 10
0.0
 20
0.0
 30
0.0
 70
   128
 71
     1
 72
    15
 73
     3
  0
VERTEX
  5
47D
  8
0
 62
     9
 10
0.0
 20
0.0
 30
0.0
 70
   128
 71
     6
 72
     9
 73
     8
  0
VERTEX
  5
47E
  8
0
 62
     9
 10
0.0
 20
0.0
 30
0.0
 70
   128
 71
    12
 72
    14
 73
     1
  0
VERTEX
  5
47F
  8
0
 62
     9
 10
0.0
 20
0.0
 30
0.0
 70
   128
 71
    10
 72
    16
 73
    13
  0
VERTEX
  5
480
  8
0
 62
     9
 10
0.0
 20
0.0
 30
0.0
 70
   128
 71
    10
 72
    13
 73
     9
  0
VERTEX
  5
481
  8
0
 62
     9
 10
0.0
 20
0.0
 30
0.0
 70
   128
 71
    13
 72
    16
 73
    14
  0
SEQEND
  5
482
  8
0
 62
     9
  0
ENDBLK
  5
485
  8
0
  0
BLOCK
  8
0
  2
E3_NODE_13_
 70
     0
 10
0.0
 20
0.0
 30
0.0
  3
E3_NODE_13_
  1

  0
POLYLINE
  5
487
  8
0
 62
     9
 66
     1
 10
0.0
 20
0.0
 30
0.0
 70
    64
 71
    28
 72
    32
  0
VERTEX
  5
488
  8
0
 10
118.8059997558594
 20
13.98400020599365
 30
8.057000160217285
 70
   192
  0
VERTEX
  5
489
  8
0
 10
118.8059997558594
 20
9.996000289916992
 30
14.09899997711182
 70
   192
  0
VERTEX
  5
48A
  8
0
 10
118.9889984130859
 20
8.064000129699707
 30
11.98499965667725
 70
   192
  0
VERTEX
  5
48B
  8
0
 10
118.8059997558594
 20
3.621000051498413
 30
17.52899932861328
 70
   192
  0
VERTEX
  5
48C
  8
0
 10
118.9889984130859
 20
2.921999931335449
 30
14.7519998550415
 70
   192
  0
VERTEX
  5
48D
  8
0
 10
118.8059997558594
 20
-3.618000030517578
 30
17.52899932861328
 70
   192
  0
VERTEX
  5
48E
  8
0
 10
118.9889984130859
 20
-2.917999982833862
 30
14.7519998550415
 70
   192
  0
VERTEX
  5
48F
  8
0
 10
118.8059997558594
 20
-9.991999626159668
 30
14.09899997711182
 70
   192
  0
VERTEX
  5
490
  8
0
 10
118.9889984130859
 20
-8.060999870300293
 30
11.98499965667725
 70
   192
  0
VERTEX
  5
491
  8
0
 10
118.8059997558594
 20
-13.97999954223633
 30
8.057000160217285
 70
   192
  0
VERTEX
  5
492
  8
0
 10
118.9889984130859
 20
-11.27799987792969
 30
7.111000061035156
 70
   192
  0
VERTEX
  5
493
  8
0
 10
117.6399993896484
 20
16.47200012207031
 30
8.928000450134277
 70
   192
  0
VERTEX
  5
494
  8
0
 10
117.6399993896484
 20
13.69200038909912
 30
13.14000034332275
 70
   192
  0
VERTEX
  5
495
  8
0
 10
117.6399993896484
 20
5.276000022888184
 30
19.54199981689453
 70
   192
  0
VERTEX
  5
496
  8
0
 10
117.6399993896484
 20
11.77499961853027
 30
16.04500007629395
 70
   192
  0
VERTEX
  5
497
  8
0
 10
117.6399993896484
 20
-4.26200008392334
 30
20.08600044250488
 70
   192
  0
VERTEX
  5
498
  8
0
 10
117.6399993896484
 20
-5.27299976348877
 30
19.54199981689453
 70
   192
  0
VERTEX
  5
499
  8
0
 10
117.6399993896484
 20
-11.77099990844727
 30
16.04500007629395
 70
   192
  0
VERTEX
  5
49A
  8
0
 10
117.6399993896484
 20
-13.68900012969971
 30
13.14000034332275
 70
   192
  0
VERTEX
  5
49B
  8
0
 10
117.6399993896484
 20
-16.4689998626709
 30
8.928000450134277
 70
   192
  0
VERTEX
  5
49C
  8
0
 10
117.6399993896484
 20
-17.44799995422363
 30
3.164999961853027
 70
   192
  0
VERTEX
  5
49D
  8
0
 10
118.8059997558594
 20
-14.8120002746582
 30
3.164999961853027
 70
   192
  0
VERTEX
  5
49E
  8
0
 10
118.9889984130859
 20
-11.94799995422363
 30
3.164999961853027
 70
   192
  0
VERTEX
  5
49F
  8
0
 10
118.8059997558594
 20
14.8149995803833
 30
3.164999961853027
 70
   192
  0
VERTEX
  5
4A0
  8
0
 10
118.9889984130859
 20
11.2810001373291
 30
7.111000061035156
 70
   192
  0
VERTEX
  5
4A1
  8
0
 10
117.6399993896484
 20
17.45199966430664
 30
3.164999961853027
 70
   192
  0
VERTEX
  5
4A2
  8
0
 10
118.9889984130859
 20
11.95199966430664
 30
3.164999961853027
 70
   192
  0
VERTEX
  5
4A3
  8
0
 10
117.6399993896484
 20
4.264999866485596
 30
20.08600044250488
 70
   192
  0
VERTEX
  5
4A4
  8
0
 62
     9
 10
0.0
 20
0.0
 30
0.0
 70
   128
 71
     3
 72
     2
 73
     1
  0
VERTEX
  5
4A5
  8
0
 62
     9
 10
0.0
 20
0.0
 30
0.0
 70
   128
 71
     5
 72
     4
 73
     2
  0
VERTEX
  5
4A6
  8
0
 62
     9
 10
0.0
 20
0.0
 30
0.0
 70
   128
 71
     7
 72
     6
 73
     4
  0
VERTEX
  5
4A7
  8
0
 62
     9
 10
0.0
 20
0.0
 30
0.0
 70
   128
 71
     9
 72
     8
 73
     6
  0
VERTEX
  5
4A8
  8
0
 62
     9
 10
0.0
 20
0.0
 30
0.0
 70
   128
 71
    11
 72
    10
 73
     8
  0
VERTEX
  5
4A9
  8
0
 62
     9
 10
0.0
 20
0.0
 30
0.0
 70
   128
 71
    13
 72
    12
 73
     1
  0
VERTEX
  5
4AA
  8
0
 62
     9
 10
0.0
 20
0.0
 30
0.0
 70
   128
 71
     1
 72
     2
 73
    13
  0
VERTEX
  5
4AB
  8
0
 62
     9
 10
0.0
 20
0.0
 30
0.0
 70
   128
 71
     2
 72
     4
 73
    14
  0
VERTEX
  5
4AC
  8
0
 62
     9
 10
0.0
 20
0.0
 30
0.0
 70
   128
 71
    14
 72
    15
 73
     2
  0
VERTEX
  5
4AD
  8
0
 62
     9
 10
0.0
 20
0.0
 30
0.0
 70
   128
 71
     4
 72
     6
 73
    16
  0
VERTEX
  5
4AE
  8
0
 62
     9
 10
0.0
 20
0.0
 30
0.0
 70
   128
 71
     8
 72
    18
 73
    17
  0
VERTEX
  5
4AF
  8
0
 62
     9
 10
0.0
 20
0.0
 30
0.0
 70
   128
 71
    17
 72
    16
 73
     6
  0
VERTEX
  5
4B0
  8
0
 62
     9
 10
0.0
 20
0.0
 30
0.0
 70
   128
 71
    19
 72
     8
 73
    10
  0
VERTEX
  5
4B1
  8
0
 62
     9
 10
0.0
 20
0.0
 30
0.0
 70
   128
 71
    19
 72
    18
 73
     8
  0
VERTEX
  5
4B2
  8
0
 62
     9
 10
0.0
 20
0.0
 30
0.0
 70
   128
 71
    22
 72
    21
 73
    20
  0
VERTEX
  5
4B3
  8
0
 62
     9
 10
0.0
 20
0.0
 30
0.0
 70
   128
 71
    20
 72
    10
 73
    22
  0
VERTEX
  5
4B4
  8
0
 62
     9
 10
0.0
 20
0.0
 30
0.0
 70
   128
 71
    23
 72
    22
 73
    10
  0
VERTEX
  5
4B5
  8
0
 62
     9
 10
0.0
 20
0.0
 30
0.0
 70
   128
 71
    25
 72
     1
 73
    24
  0
VERTEX
  5
4B6
  8
0
 62
     9
 10
0.0
 20
0.0
 30
0.0
 70
   128
 71
    24
 72
     1
 73
    12
  0
VERTEX
  5
4B7
  8
0
 62
     9
 10
0.0
 20
0.0
 30
0.0
 70
   128
 71
    12
 72
    26
 73
    24
  0
VERTEX
  5
4B8
  8
0
 62
     9
 10
0.0
 20
0.0
 30
0.0
 70
   128
 71
    24
 72
    27
 73
    25
  0
VERTEX
  5
4B9
  8
0
 62
     9
 10
0.0
 20
0.0
 30
0.0
 70
   128
 71
    10
 72
    11
 73
    23
  0
VERTEX
  5
4BA
  8
0
 62
     9
 10
0.0
 20
0.0
 30
0.0
 70
   128
 71
    10
 72
    20
 73
    19
  0
VERTEX
  5
4BB
  8
0
 62
     9
 10
0.0
 20
0.0
 30
0.0
 70
   128
 71
    17
 72
     6
 73
     8
  0
VERTEX
  5
4BC
  8
0
 62
     9
 10
0.0
 20
0.0
 30
0.0
 70
   128
 71
    16
 72
    28
 73
     4
  0
VERTEX
  5
4BD
  8
0
 62
     9
 10
0.0
 20
0.0
 30
0.0
 70
   128
 71
     4
 72
    28
 73
    14
  0
VERTEX
  5
4BE
  8
0
 62
     9
 10
0.0
 20
0.0
 30
0.0
 70
   128
 71
     2
 72
    15
 73
    13
  0
VERTEX
  5
4BF
  8
0
 62
     9
 10
0.0
 20
0.0
 30
0.0
 70
   128
 71
     8
 72
     9
 73
    11
  0
VERTEX
  5
4C0
  8
0
 62
     9
 10
0.0
 20
0.0
 30
0.0
 70
   128
 71
     6
 72
     7
 73
     9
  0
VERTEX
  5
4C1
  8
0
 62
     9
 10
0.0
 20
0.0
 30
0.0
 70
   128
 71
     4
 72
     5
 73
     7
  0
VERTEX
  5
4C2
  8
0
 62
     9
 10
0.0
 20
0.0
 30
0.0
 70
   128
 71
     2
 72
     3
 73
     5
  0
VERTEX
  5
4C3
  8
0
 62
     9
 10
0.0
 20
0.0
 30
0.0
 70
   128
 71
     1
 72
    25
 73
     3
  0
SEQEND
  5
4C4
  8
0
 62
     9
  0
ENDBLK
  5
4C7
  8
0
  0
BLOCK
  8
0
  2
E3_NODE_14_
 70
     0
 10
0.0
 20
0.0
 30
0.0
  3
E3_NODE_14_
  1

  0
POLYLINE
  5
4C9
  8
0
 62
     9
 66
     1
 10
0.0
 20
0.0
 30
0.0
 70
    64
 71
     6
 72
     4
  0
VERTEX
  5
4CA
  8
0
 10
118.9889984130859
 20
-11.94799995422363
 30
-61.90499877929688
 70
   192
  0
VERTEX
  5
4CB
  8
0
 10
118.9889984130859
 20
-11.94799995422363
 30
3.164999961853027
 70
   192
  0
VERTEX
  5
4CC
  8
0
 10
118.8059997558594
 20
-14.8120002746582
 30
3.164999961853027
 70
   192
  0
VERTEX
  5
4CD
  8
0
 10
118.8059997558594
 20
-14.8120002746582
 30
-61.90499877929688
 70
   192
  0
VERTEX
  5
4CE
  8
0
 10
117.6399993896484
 20
-17.44799995422363
 30
3.164999961853027
 70
   192
  0
VERTEX
  5
4CF
  8
0
 10
117.6399993896484
 20
-17.44799995422363
 30
-61.90499877929688
 70
   192
  0
VERTEX
  5
4D0
  8
0
 62
     9
 10
0.0
 20
0.0
 30
0.0
 70
   128
 71
     3
 72
     2
 73
     1
  0
VERTEX
  5
4D1
  8
0
 62
     9
 10
0.0
 20
0.0
 30
0.0
 70
   128
 71
     1
 72
     4
 73
     3
  0
VERTEX
  5
4D2
  8
0
 62
     9
 10
0.0
 20
0.0
 30
0.0
 70
   128
 71
     4
 72
     6
 73
     5
  0
VERTEX
  5
4D3
  8
0
 62
     9
 10
0.0
 20
0.0
 30
0.0
 70
   128
 71
     5
 72
     3
 73
     4
  0
SEQEND
  5
4D4
  8
0
 62
     9
  0
ENDBLK
  5
4D7
  8
0
  0
BLOCK
  8
0
  2
E3_NODE_15_
 70
     0
 10
0.0
 20
0.0
 30
0.0
  3
E3_NODE_15_
  1

  0
POLYLINE
  5
4D9
  8
0
 62
     9
 66
     1
 10
0.0
 20
0.0
 30
0.0
 70
    64
 71
     6
 72
     4
  0
VERTEX
  5
4DA
  8
0
 10
118.9889984130859
 20
11.95199966430664
 30
3.164999961853027
 70
   192
  0
VERTEX
  5
4DB
  8
0
 10
118.9889984130859
 20
11.95199966430664
 30
-61.90499877929688
 70
   192
  0
VERTEX
  5
4DC
  8
0
 10
118.8059997558594
 20
14.8149995803833
 30
-61.90499877929688
 70
   192
  0
VERTEX
  5
4DD
  8
0
 10
118.8059997558594
 20
14.8149995803833
 30
3.164999961853027
 70
   192
  0
VERTEX
  5
4DE
  8
0
 10
117.6399993896484
 20
17.45199966430664
 30
-61.90499877929688
 70
   192
  0
VERTEX
  5
4DF
  8
0
 10
117.6399993896484
 20
17.45199966430664
 30
3.164999961853027
 70
   192
  0
VERTEX
  5
4E0
  8
0
 62
     9
 10
0.0
 20
0.0
 30
0.0
 70
   128
 71
     3
 72
     2
 73
     1
  0
VERTEX
  5
4E1
  8
0
 62
     9
 10
0.0
 20
0.0
 30
0.0
 70
   128
 71
     1
 72
     4
 73
     3
  0
VERTEX
  5
4E2
  8
0
 62
     9
 10
0.0
 20
0.0
 30
0.0
 70
   128
 71
     4
 72
     6
 73
     5
  0
VERTEX
  5
4E3
  8
0
 62
     9
 10
0.0
 20
0.0
 30
0.0
 70
   128
 71
     5
 72
     3
 73
     4
  0
SEQEND
  5
4E4
  8
0
 62
     9
  0
ENDBLK
  5
4E7
  8
0
  0
BLOCK
  8
0
  2
E3_NODE_16_
 70
     0
 10
0.0
 20
0.0
 30
0.0
  3
E3_NODE_16_
  1

  0
POLYLINE
  5
4E9
  8
0
 62
     9
 66
     1
 10
0.0
 20
0.0
 30
0.0
 70
    64
 71
    24
 72
    22
  0
VERTEX
  5
4EA
  8
0
 10
117.6399993896484
 20
-5.27299976348877
 30
19.54199981689453
 70
   192
  0
VERTEX
  5
4EB
  8
0
 10
115.765998840332
 20
-5.271999835968018
 30
19.54800033569336
 70
   192
  0
VERTEX
  5
4EC
  8
0
 10
115.765998840332
 20
-11.72900009155273
 30
16.12700080871582
 70
   192
  0
VERTEX
  5
4ED
  8
0
 10
115.765998840332
 20
-13.70800018310547
 30
13.15200042724609
 70
   192
  0
VERTEX
  5
4EE
  8
0
 10
117.6399993896484
 20
-13.68900012969971
 30
13.14000034332275
 70
   192
  0
VERTEX
  5
4EF
  8
0
 10
117.6399993896484
 20
-11.77099990844727
 30
16.04500007629395
 70
   192
  0
VERTEX
  5
4F0
  8
0
 10
117.6399993896484
 20
5.276000022888184
 30
19.54199981689453
 70
   192
  0
VERTEX
  5
4F1
  8
0
 10
115.765998840332
 20
5.300000190734863
 30
19.60300064086914
 70
   192
  0
VERTEX
  5
4F2
  8
0
 10
115.765998840332
 20
4.458000183105469
 30
20.06999969482422
 70
   192
  0
VERTEX
  5
4F3
  8
0
 10
115.765998840332
 20
-4.135000228881836
 30
20.15099906921387
 70
   192
  0
VERTEX
  5
4F4
  8
0
 10
117.6399993896484
 20
-4.26200008392334
 30
20.08600044250488
 70
   192
  0
VERTEX
  5
4F5
  8
0
 10
117.6399993896484
 20
4.264999866485596
 30
20.08600044250488
 70
   192
  0
VERTEX
  5
4F6
  8
0
 10
117.6399993896484
 20
13.69200038909912
 30
13.14000034332275
 70
   192
  0
VERTEX
  5
4F7
  8
0
 10
115.765998840332
 20
13.72000026702881
 30
13.16899967193604
 70
   192
  0
VERTEX
  5
4F8
  8
0
 10
115.765998840332
 20
11.97500038146973
 30
15.9040002822876
 70
   192
  0
VERTEX
  5
4F9
  8
0
 10
117.6399993896484
 20
11.77499961853027
 30
16.04500007629395
 70
   192
  0
VERTEX
  5
4FA
  8
0
 10
117.6399993896484
 20
17.45199966430664
 30
3.164999961853027
 70
   192
  0
VERTEX
  5
4FB
  8
0
 10
115.7850036621094
 20
17.48399925231934
 30
3.164999961853027
 70
   192
  0
VERTEX
  5
4FC
  8
0
 10
115.765998840332
 20
16.59799957275391
 30
8.65999984741211
 70
   192
  0
VERTEX
  5
4FD
  8
0
 10
117.6399993896484
 20
16.47200012207031
 30
8.928000450134277
 70
   192
  0
VERTEX
  5
4FE
  8
0
 10
115.765998840332
 20
-16.48800086975098
 30
8.972000122070312
 70
   192
  0
VERTEX
  5
4FF
  8
0
 10
115.7750015258789
 20
-17.48100090026855
 30
3.164999961853027
 70
   192
  0
VERTEX
  5
500
  8
0
 10
117.6399993896484
 20
-17.44799995422363
 30
3.164999961853027
 70
   192
  0
VERTEX
  5
501
  8
0
 10
117.6399993896484
 20
-16.4689998626709
 30
8.928000450134277
 70
   192
  0
VERTEX
  5
502
  8
0
 62
     9
 10
0.0
 20
0.0
 30
0.0
 70
   128
 71
     3
 72
     2
 73
     1
  0
VERTEX
  5
503
  8
0
 62
     9
 10
0.0
 20
0.0
 30
0.0
 70
   128
 71
     6
 72
     5
 73
     4
  0
VERTEX
  5
504
  8
0
 62
     9
 10
0.0
 20
0.0
 30
0.0
 70
   128
 71
     4
 72
     3
 73
     6
  0
VERTEX
  5
505
  8
0
 62
     9
 10
0.0
 20
0.0
 30
0.0
 70
   128
 71
     9
 72
     8
 73
     7
  0
VERTEX
  5
506
  8
0
 62
     9
 10
0.0
 20
0.0
 30
0.0
 70
   128
 71
    12
 72
    11
 73
    10
  0
VERTEX
  5
507
  8
0
 62
     9
 10
0.0
 20
0.0
 30
0.0
 70
   128
 71
    10
 72
     9
 73
    12
  0
VERTEX
  5
508
  8
0
 62
     9
 10
0.0
 20
0.0
 30
0.0
 70
   128
 71
    11
 72
     1
 73
     2
  0
VERTEX
  5
509
  8
0
 62
     9
 10
0.0
 20
0.0
 30
0.0
 70
   128
 71
     2
 72
    10
 73
    11
  0
VERTEX
  5
50A
  8
0
 62
     9
 10
0.0
 20
0.0
 30
0.0
 70
   128
 71
    15
 72
    14
 73
    13
  0
VERTEX
  5
50B
  8
0
 62
     9
 10
0.0
 20
0.0
 30
0.0
 70
   128
 71
    16
 72
     7
 73
     8
  0
VERTEX
  5
50C
  8
0
 62
     9
 10
0.0
 20
0.0
 30
0.0
 70
   128
 71
     8
 72
    15
 73
    16
  0
VERTEX
  5
50D
  8
0
 62
     9
 10
0.0
 20
0.0
 30
0.0
 70
   128
 71
    19
 72
    18
 73
    17
  0
VERTEX
  5
50E
  8
0
 62
     9
 10
0.0
 20
0.0
 30
0.0
 70
   128
 71
    20
 72
    13
 73
    14
  0
VERTEX
  5
50F
  8
0
 62
     9
 10
0.0
 20
0.0
 30
0.0
 70
   128
 71
    14
 72
    19
 73
    20
  0
VERTEX
  5
510
  8
0
 62
     9
 10
0.0
 20
0.0
 30
0.0
 70
   128
 71
    21
 72
     4
 73
     5
  0
VERTEX
  5
511
  8
0
 62
     9
 10
0.0
 20
0.0
 30
0.0
 70
   128
 71
    24
 72
    23
 73
    22
  0
VERTEX
  5
512
  8
0
 62
     9
 10
0.0
 20
0.0
 30
0.0
 70
   128
 71
    22
 72
    21
 73
    24
  0
VERTEX
  5
513
  8
0
 62
     9
 10
0.0
 20
0.0
 30
0.0
 70
   128
 71
     5
 72
    24
 73
    21
  0
VERTEX
  5
514
  8
0
 62
     9
 10
0.0
 20
0.0
 30
0.0
 70
   128
 71
    17
 72
    20
 73
    19
  0
VERTEX
  5
515
  8
0
 62
     9
 10
0.0
 20
0.0
 30
0.0
 70
   128
 71
    13
 72
    16
 73
    15
  0
VERTEX
  5
516
  8
0
 62
     9
 10
0.0
 20
0.0
 30
0.0
 70
   128
 71
     7
 72
    12
 73
     9
  0
VERTEX
  5
517
  8
0
 62
     9
 10
0.0
 20
0.0
 30
0.0
 70
   128
 71
     1
 72
     6
 73
     3
  0
SEQEND
  5
518
  8
0
 62
     9
  0
ENDBLK
  5
51B
  8
0
  0
BLOCK
  8
0
  2
E3_NODE_17_
 70
     0
 10
0.0
 20
0.0
 30
0.0
  3
E3_NODE_17_
  1

  0
POLYLINE
  5
51D
  8
0
 62
     9
 66
     1
 10
0.0
 20
0.0
 30
0.0
 70
    64
 71
    28
 72
    26
  0
VERTEX
  5
51E
  8
0
 10
111.5100021362305
 20
-5.960000038146973
 30
-61.90499877929688
 70
   192
  0
VERTEX
  5
51F
  8
0
 10
111.1159973144531
 20
-1.970999956130981
 30
-26.13599967956543
 70
   192
  0
VERTEX
  5
520
  8
0
 10
111.109001159668
 20
0.0020000000949949
 30
-26.31500053405762
 70
   192
  0
VERTEX
  5
521
  8
0
 10
111.109001159668
 20
0.0020000000949949
 30
-61.90499877929688
 70
   192
  0
VERTEX
  5
522
  8
0
 10
111.8659973144531
 20
-11.25800037384033
 30
-61.90499877929688
 70
   192
  0
VERTEX
  5
523
  8
0
 10
111.1999969482422
 20
-5.564000129699707
 30
-24.80299949645996
 70
   192
  0
VERTEX
  5
524
  8
0
 10
111.1569976806641
 20
-3.736999988555908
 30
-25.48100090026855
 70
   192
  0
VERTEX
  5
525
  8
0
 10
111.431999206543
 20
-8.623000144958496
 30
-22.14399909973145
 70
   192
  0
VERTEX
  5
526
  8
0
 10
111.3119964599609
 20
-7.046999931335449
 30
-23.51499938964844
 70
   192
  0
VERTEX
  5
527
  8
0
 10
111.7409973144531
 20
-10.66300010681152
 30
-18.33300018310547
 70
   192
  0
VERTEX
  5
528
  8
0
 10
111.556999206543
 20
-9.45199966430664
 30
-20.59600067138672
 70
   192
  0
VERTEX
  5
529
  8
0
 10
111.8759994506836
 20
-11.24600028991699
 30
-16.14399909973145
 70
   192
  0
VERTEX
  5
52A
  8
0
 10
111.818000793457
 20
-10.99600028991699
 30
-17.08499908447266
 70
   192
  0
VERTEX
  5
52B
  8
0
 10
113.2929992675781
 20
-13.53600025177002
 30
-61.90499877929688
 70
   192
  0
VERTEX
  5
52C
  8
0
 10
112.0579986572266
 20
-12.03499984741211
 30
-13.1850004196167
 70
   192
  0
VERTEX
  5
52D
  8
0
 10
115.7750015258789
 20
-17.48100090026855
 30
3.164999961853027
 70
   192
  0
VERTEX
  5
52E
  8
0
 10
112.213996887207
 20
-12.55599975585938
 30
-9.230999946594238
 70
   192
  0
VERTEX
  5
52F
  8
0
 10
112.318000793457
 20
-12.9040002822876
 30
-6.591000080108643
 70
   192
  0
VERTEX
  5
530
  8
0
 10
112.4189987182617
 20
-13.19699954986572
 30
-0.7749999761581421
 70
   192
  0
VERTEX
  5
531
  8
0
 10
112.3870010375977
 20
-13.10499954223633
 30
-2.473999977111816
 70
   192
  0
VERTEX
  5
532
  8
0
 10
112.3830032348633
 20
-13.09500026702881
 30
-2.750999927520752
 70
   192
  0
VERTEX
  5
533
  8
0
 10
112.3830032348633
 20
-13.0939998626709
 30
-2.786999940872192
 70
   192
  0
VERTEX
  5
534
  8
0
 10
112.4209976196289
 20
-13.20300006866455
 30
-0.640999972820282
 70
   192
  0
VERTEX
  5
535
  8
0
 10
112.3820037841797
 20
-13.09200000762939
 30
-2.851000070571899
 70
   192
  0
VERTEX
  5
536
  8
0
 10
113.8249969482422
 20
-15.88399982452393
 30
3.164999961853027
 70
   192
  0
VERTEX
  5
537
  8
0
 10
112.4260025024414
 20
-13.22000026702881
 30
3.164999961853027
 70
   192
  0
VERTEX
  5
538
  8
0
 10
112.4240036010742
 20
-13.21399974822998
 30
1.779999971389771
 70
   192
  0
VERTEX
  5
539
  8
0
 10
115.7620010375977
 20
-17.47800064086914
 30
-61.90499877929688
 70
   192
  0
VERTEX
  5
53A
  8
0
 62
     9
 10
0.0
 20
0.0
 30
0.0
 70
   128
 71
     3
 72
     2
 73
     1
  0
VERTEX
  5
53B
  8
0
 62
     9
 10
0.0
 20
0.0
 30
0.0
 70
   128
 71
     1
 72
     4
 73
     3
  0
VERTEX
  5
53C
  8
0
 62
     9
 10
0.0
 20
0.0
 30
0.0
 70
   128
 71
     7
 72
     6
 73
     5
  0
VERTEX
  5
53D
  8
0
 62
     9
 10
0.0
 20
0.0
 30
0.0
 70
   128
 71
     5
 72
     2
 73
     7
  0
VERTEX
  5
53E
  8
0
 62
     9
 10
0.0
 20
0.0
 30
0.0
 70
   128
 71
     9
 72
     8
 73
     5
  0
VERTEX
  5
53F
  8
0
 62
     9
 10
0.0
 20
0.0
 30
0.0
 70
   128
 71
     5
 72
     6
 73
     9
  0
VERTEX
  5
540
  8
0
 62
     9
 10
0.0
 20
0.0
 30
0.0
 70
   128
 71
    11
 72
    10
 73
     5
  0
VERTEX
  5
541
  8
0
 62
     9
 10
0.0
 20
0.0
 30
0.0
 70
   128
 71
    13
 72
    12
 73
     5
  0
VERTEX
  5
542
  8
0
 62
     9
 10
0.0
 20
0.0
 30
0.0
 70
   128
 71
     5
 72
    10
 73
    13
  0
VERTEX
  5
543
  8
0
 62
     9
 10
0.0
 20
0.0
 30
0.0
 70
   128
 71
     5
 72
     8
 73
    11
  0
VERTEX
  5
544
  8
0
 62
     9
 10
0.0
 20
0.0
 30
0.0
 70
   128
 71
    12
 72
    15
 73
    14
  0
VERTEX
  5
545
  8
0
 62
     9
 10
0.0
 20
0.0
 30
0.0
 70
   128
 71
    14
 72
     5
 73
    12
  0
VERTEX
  5
546
  8
0
 62
     9
 10
0.0
 20
0.0
 30
0.0
 70
   128
 71
    15
 72
    17
 73
    16
  0
VERTEX
  5
547
  8
0
 62
     9
 10
0.0
 20
0.0
 30
0.0
 70
   128
 71
    17
 72
    18
 73
    16
  0
VERTEX
  5
548
  8
0
 62
     9
 10
0.0
 20
0.0
 30
0.0
 70
   128
 71
    20
 72
    19
 73
    16
  0
VERTEX
  5
549
  8
0
 62
     9
 10
0.0
 20
0.0
 30
0.0
 70
   128
 71
    16
 72
    21
 73
    20
  0
VERTEX
  5
54A
  8
0
 62
     9
 10
0.0
 20
0.0
 30
0.0
 70
   128
 71
    16
 72
    22
 73
    21
  0
VERTEX
  5
54B
  8
0
 62
     9
 10
0.0
 20
0.0
 30
0.0
 70
   128
 71
    19
 72
    23
 73
    16
  0
VERTEX
  5
54C
  8
0
 62
     9
 10
0.0
 20
0.0
 30
0.0
 70
   128
 71
    16
 72
    24
 73
    22
  0
VERTEX
  5
54D
  8
0
 62
     9
 10
0.0
 20
0.0
 30
0.0
 70
   128
 71
    27
 72
    26
 73
    25
  0
VERTEX
  5
54E
  8
0
 62
     9
 10
0.0
 20
0.0
 30
0.0
 70
   128
 71
    25
 72
    16
 73
    23
  0
VERTEX
  5
54F
  8
0
 62
     9
 10
0.0
 20
0.0
 30
0.0
 70
   128
 71
    25
 72
    23
 73
    27
  0
VERTEX
  5
550
  8
0
 62
     9
 10
0.0
 20
0.0
 30
0.0
 70
   128
 71
    16
 72
    18
 73
    24
  0
VERTEX
  5
551
  8
0
 62
     9
 10
0.0
 20
0.0
 30
0.0
 70
   128
 71
    16
 72
    28
 73
    15
  0
VERTEX
  5
552
  8
0
 62
     9
 10
0.0
 20
0.0
 30
0.0
 70
   128
 71
    15
 72
    28
 73
    14
  0
VERTEX
  5
553
  8
0
 62
     9
 10
0.0
 20
0.0
 30
0.0
 70
   128
 71
     2
 72
     5
 73
     1
  0
SEQEND
  5
554
  8
0
 62
     9
  0
ENDBLK
  5
557
  8
0
  0
BLOCK
  8
0
  2
E3_NODE_18_
 70
     0
 10
0.0
 20
0.0
 30
0.0
  3
E3_NODE_18_
  1

  0
POLYLINE
  5
559
  8
0
 62
     9
 66
     1
 10
0.0
 20
0.0
 30
0.0
 70
    64
 71
    72
 72
    83
  0
VERTEX
  5
55A
  8
0
 10
109.4059982299805
 20
-6.999000072479248
 30
-7.25
 70
   192
  0
VERTEX
  5
55B
  8
0
 10
107.4219970703125
 20
-6.585999965667725
 30
-4.894999980926514
 70
   192
  0
VERTEX
  5
55C
  8
0
 10
107.4520034790039
 20
-4.033999919891357
 30
-6.967999935150146
 70
   192
  0
VERTEX
  5
55D
  8
0
 10
104.5619964599609
 20
-3.680000066757202
 30
-5.153999805450439
 70
   192
  0
VERTEX
  5
55E
  8
0
 10
109.4240036010742
 20
-4.355999946594238
 30
-10.01099967956543
 70
   192
  0
VERTEX
  5
55F
  8
0
 10
111.0970001220703
 20
-7.451000213623047
 30
-15.21000003814697
 70
   192
  0
VERTEX
  5
560
  8
0
 10
111.1780014038086
 20
-8.657999992370605
 30
-12.51399993896484
 70
   192
  0
VERTEX
  5
561
  8
0
 10
110.9899978637695
 20
-5.528999805450439
 30
-17.40800094604492
 70
   192
  0
VERTEX
  5
562
  8
0
 10
111.2740020751953
 20
-10.10499954223633
 30
-6.434999942779541
 70
   192
  0
VERTEX
  5
563
  8
0
 10
109.1149978637695
 20
-8.534000396728516
 30
-3.378000020980835
 70
   192
  0
VERTEX
  5
564
  8
0
 10
104.4509963989258
 20
0.0020000000949949
 30
-6.019000053405762
 70
   192
  0
VERTEX
  5
565
  8
0
 10
106.6110000610352
 20
0.0020000000949949
 30
-7.126999855041504
 70
   192
  0
VERTEX
  5
566
  8
0
 10
107.0179977416992
 20
0.0020000000949949
 30
-7.639999866485596
 70
   192
  0
VERTEX
  5
567
  8
0
 10
107.0199966430664
 20
0.0020000000949949
 30
-7.642000198364258
 70
   192
  0
VERTEX
  5
568
  8
0
 10
108.7789993286133
 20
0.0020000000949949
 30
-9.859999656677246
 70
   192
  0
VERTEX
  5
569
  8
0
 10
110.1259994506836
 20
0.0020000000949949
 30
-13.88099956512451
 70
   192
  0
VERTEX
  5
56A
  8
0
 10
110.7630004882812
 20
0.0020000000949949
 30
-19.12100028991699
 70
   192
  0
VERTEX
  5
56B
  8
0
 10
110.9079971313477
 20
-2.910000085830688
 30
-18.79199981689453
 70
   192
  0
VERTEX
  5
56C
  8
0
 10
109.0009994506836
 20
0.0020000000949949
 30
-10.52299976348877
 70
   192
  0
VERTEX
  5
56D
  8
0
 10
109.0019989013672
 20
0.0020000000949949
 30
-10.52600002288818
 70
   192
  0
VERTEX
  5
56E
  8
0
 10
111.1569976806641
 20
-3.736999988555908
 30
-25.48100090026855
 70
   192
  0
VERTEX
  5
56F
  8
0
 10
111.0070037841797
 20
0.0020000000949949
 30
-21.12899971008301
 70
   192
  0
VERTEX
  5
570
  8
0
 10
111.109001159668
 20
0.0020000000949949
 30
-26.31500053405762
 70
   192
  0
VERTEX
  5
571
  8
0
 10
111.1159973144531
 20
-1.970999956130981
 30
-26.13599967956543
 70
   192
  0
VERTEX
  5
572
  8
0
 10
110.7630004882812
 20
0.0020000000949949
 30
-19.12700080871582
 70
   192
  0
VERTEX
  5
573
  8
0
 10
111.1999969482422
 20
-5.564000129699707
 30
-24.80299949645996
 70
   192
  0
VERTEX
  5
574
  8
0
 10
111.3119964599609
 20
-7.046999931335449
 30
-23.51499938964844
 70
   192
  0
VERTEX
  5
575
  8
0
 10
111.431999206543
 20
-8.623000144958496
 30
-22.14399909973145
 70
   192
  0
VERTEX
  5
576
  8
0
 10
111.556999206543
 20
-9.45199966430664
 30
-20.59600067138672
 70
   192
  0
VERTEX
  5
577
  8
0
 10
111.7409973144531
 20
-10.66300010681152
 30
-18.33300018310547
 70
   192
  0
VERTEX
  5
578
  8
0
 10
111.818000793457
 20
-10.99600028991699
 30
-17.08499908447266
 70
   192
  0
VERTEX
  5
579
  8
0
 10
112.0579986572266
 20
-12.03499984741211
 30
-13.1850004196167
 70
   192
  0
VERTEX
  5
57A
  8
0
 10
112.213996887207
 20
-12.55599975585938
 30
-9.230999946594238
 70
   192
  0
VERTEX
  5
57B
  8
0
 10
111.8759994506836
 20
-11.24600028991699
 30
-16.14399909973145
 70
   192
  0
VERTEX
  5
57C
  8
0
 10
112.4189987182617
 20
-13.19699954986572
 30
-0.7749999761581421
 70
   192
  0
VERTEX
  5
57D
  8
0
 10
112.4209976196289
 20
-13.20300006866455
 30
-0.640999972820282
 70
   192
  0
VERTEX
  5
57E
  8
0
 10
111.8330001831055
 20
-11.60000038146973
 30
-0.0590000003576279
 70
   192
  0
VERTEX
  5
57F
  8
0
 10
111.1849975585938
 20
-10.88899993896484
 30
0.2010000050067902
 70
   192
  0
VERTEX
  5
580
  8
0
 10
112.3870010375977
 20
-13.10499954223633
 30
-2.473999977111816
 70
   192
  0
VERTEX
  5
581
  8
0
 10
112.318000793457
 20
-12.9040002822876
 30
-6.591000080108643
 70
   192
  0
VERTEX
  5
582
  8
0
 10
112.3820037841797
 20
-13.09200000762939
 30
-2.851000070571899
 70
   192
  0
VERTEX
  5
583
  8
0
 10
112.3830032348633
 20
-13.0939998626709
 30
-2.786999940872192
 70
   192
  0
VERTEX
  5
584
  8
0
 10
112.3830032348633
 20
-13.09500026702881
 30
-2.750999927520752
 70
   192
  0
VERTEX
  5
585
  8
0
 10
110.7689971923828
 20
-10.43099975585938
 30
0.3680000007152557
 70
   192
  0
VERTEX
  5
586
  8
0
 10
110.3320007324219
 20
-9.951000213623047
 30
0.5429999828338623
 70
   192
  0
VERTEX
  5
587
  8
0
 10
107.5479965209961
 20
-9.105999946594238
 30
0.8479999899864197
 70
   192
  0
VERTEX
  5
588
  8
0
 10
107.4509963989258
 20
-9.090999603271484
 30
0.8539999723434448
 70
   192
  0
VERTEX
  5
589
  8
0
 10
107.6340026855469
 20
-9.130000114440918
 30
0.8389999866485596
 70
   192
  0
VERTEX
  5
58A
  8
0
 10
107.5599975585938
 20
-9.107999801635742
 30
0.847000002861023
 70
   192
  0
VERTEX
  5
58B
  8
0
 10
108.8320007324219
 20
-9.494999885559082
 30
0.7080000042915344
 70
   192
  0
VERTEX
  5
58C
  8
0
 10
106.9509963989258
 20
-9.020000457763672
 30
0.8799999952316284
 70
   192
  0
VERTEX
  5
58D
  8
0
 10
104.6039962768555
 20
-7.995999813079834
 30
-1.029000043869019
 70
   192
  0
VERTEX
  5
58E
  8
0
 10
105.6330032348633
 20
-8.861000061035156
 30
0.9380000233650208
 70
   192
  0
VERTEX
  5
58F
  8
0
 10
105.5279998779297
 20
-8.850000381469727
 30
0.9419999718666077
 70
   192
  0
VERTEX
  5
590
  8
0
 10
106.765998840332
 20
-8.994000434875488
 30
0.8889999985694885
 70
   192
  0
VERTEX
  5
591
  8
0
 10
105.8079986572266
 20
-8.880000114440918
 30
0.9309999942779541
 70
   192
  0
VERTEX
  5
592
  8
0
 10
105.6470031738281
 20
-8.86299991607666
 30
0.9369999766349792
 70
   192
  0
VERTEX
  5
593
  8
0
 10
104.8820037841797
 20
-8.78600025177002
 30
0.9649999737739563
 70
   192
  0
VERTEX
  5
594
  8
0
 10
104.677001953125
 20
-8.767000198364258
 30
0.972000002861023
 70
   192
  0
VERTEX
  5
595
  8
0
 10
104.2699966430664
 20
-8.729999542236328
 30
0.9879999756813049
 70
   192
  0
VERTEX
  5
596
  8
0
 10
100.6740036010742
 20
-8.472000122070312
 30
1.069000005722046
 70
   192
  0
VERTEX
  5
597
  8
0
 10
104.5299987792969
 20
-8.753000259399414
 30
0.9779999852180481
 70
   192
  0
VERTEX
  5
598
  8
0
 10
104.5619964599609
 20
-8.755999565124512
 30
0.9760000109672546
 70
   192
  0
VERTEX
  5
599
  8
0
 10
104.588996887207
 20
-6.215000152587891
 30
-3.467000007629395
 70
   192
  0
VERTEX
  5
59A
  8
0
 10
100.2979965209961
 20
-7.716000080108643
 30
-0.1959999948740005
 70
   192
  0
VERTEX
  5
59B
  8
0
 10
99.802001953125
 20
-6.71999979019165
 30
-1.858000040054321
 70
   192
  0
VERTEX
  5
59C
  8
0
 10
99.56500244140625
 20
-5.693999767303467
 30
-2.619999885559082
 70
   192
  0
VERTEX
  5
59D
  8
0
 10
99.13200378417969
 20
-3.819000005722046
 30
-4.013000011444092
 70
   192
  0
VERTEX
  5
59E
  8
0
 10
99.06600189208984
 20
-3.055000066757202
 30
-4.222000122070312
 70
   192
  0
VERTEX
  5
59F
  8
0
 10
98.87699890136719
 20
-0.8769999742507935
 30
-4.816999912261963
 70
   192
  0
VERTEX
  5
5A0
  8
0
 10
103.3440017700195
 20
0.0020000000949949
 30
-5.452000141143799
 70
   192
  0
VERTEX
  5
5A1
  8
0
 10
98.86299896240234
 20
0.0020000000949949
 30
-4.860000133514404
 70
   192
  0
VERTEX
  5
5A2
  8
0
 62
     9
 10
0.0
 20
0.0
 30
0.0
 70
   128
 71
     3
 72
     2
 73
     1
  0
VERTEX
  5
5A3
  8
0
 62
     9
 10
0.0
 20
0.0
 30
0.0
 70
   128
 71
     2
 72
     3
 73
     4
  0
VERTEX
  5
5A4
  8
0
 62
     9
 10
0.0
 20
0.0
 30
0.0
 70
   128
 71
     7
 72
     6
 73
     5
  0
VERTEX
  5
5A5
  8
0
 62
     9
 10
0.0
 20
0.0
 30
0.0
 70
   128
 71
     6
 72
     8
 73
     5
  0
VERTEX
  5
5A6
  8
0
 62
     9
 10
0.0
 20
0.0
 30
0.0
 70
   128
 71
     1
 72
    10
 73
     9
  0
VERTEX
  5
5A7
  8
0
 62
     9
 10
0.0
 20
0.0
 30
0.0
 70
   128
 71
     4
 72
     3
 73
    11
  0
VERTEX
  5
5A8
  8
0
 62
     9
 10
0.0
 20
0.0
 30
0.0
 70
   128
 71
     3
 72
    12
 73
    11
  0
VERTEX
  5
5A9
  8
0
 62
     9
 10
0.0
 20
0.0
 30
0.0
 70
   128
 71
    14
 72
    13
 73
     3
  0
VERTEX
  5
5AA
  8
0
 62
     9
 10
0.0
 20
0.0
 30
0.0
 70
   128
 71
     3
 72
     5
 73
    14
  0
VERTEX
  5
5AB
  8
0
 62
     9
 10
0.0
 20
0.0
 30
0.0
 70
   128
 71
     5
 72
    15
 73
    14
  0
VERTEX
  5
5AC
  8
0
 62
     9
 10
0.0
 20
0.0
 30
0.0
 70
   128
 71
    18
 72
    17
 73
    16
  0
VERTEX
  5
5AD
  8
0
 62
     9
 10
0.0
 20
0.0
 30
0.0
 70
   128
 71
    20
 72
    19
 73
     5
  0
VERTEX
  5
5AE
  8
0
 62
     9
 10
0.0
 20
0.0
 30
0.0
 70
   128
 71
     5
 72
     8
 73
    20
  0
VERTEX
  5
5AF
  8
0
 62
     9
 10
0.0
 20
0.0
 30
0.0
 70
   128
 71
     8
 72
    16
 73
    20
  0
VERTEX
  5
5B0
  8
0
 62
     9
 10
0.0
 20
0.0
 30
0.0
 70
   128
 71
    22
 72
    18
 73
    21
  0
VERTEX
  5
5B1
  8
0
 62
     9
 10
0.0
 20
0.0
 30
0.0
 70
   128
 71
    24
 72
    23
 73
    22
  0
VERTEX
  5
5B2
  8
0
 62
     9
 10
0.0
 20
0.0
 30
0.0
 70
   128
 71
    25
 72
    17
 73
    18
  0
VERTEX
  5
5B3
  8
0
 62
     9
 10
0.0
 20
0.0
 30
0.0
 70
   128
 71
    18
 72
    22
 73
    25
  0
VERTEX
  5
5B4
  8
0
 62
     9
 10
0.0
 20
0.0
 30
0.0
 70
   128
 71
    27
 72
    26
 73
    18
  0
VERTEX
  5
5B5
  8
0
 62
     9
 10
0.0
 20
0.0
 30
0.0
 70
   128
 71
    26
 72
    21
 73
    18
  0
VERTEX
  5
5B6
  8
0
 62
     9
 10
0.0
 20
0.0
 30
0.0
 70
   128
 71
    29
 72
    28
 73
     8
  0
VERTEX
  5
5B7
  8
0
 62
     9
 10
0.0
 20
0.0
 30
0.0
 70
   128
 71
    28
 72
    27
 73
     8
  0
VERTEX
  5
5B8
  8
0
 62
     9
 10
0.0
 20
0.0
 30
0.0
 70
   128
 71
    31
 72
    30
 73
     6
  0
VERTEX
  5
5B9
  8
0
 62
     9
 10
0.0
 20
0.0
 30
0.0
 70
   128
 71
    30
 72
    29
 73
     6
  0
VERTEX
  5
5BA
  8
0
 62
     9
 10
0.0
 20
0.0
 30
0.0
 70
   128
 71
    33
 72
    32
 73
     7
  0
VERTEX
  5
5BB
  8
0
 62
     9
 10
0.0
 20
0.0
 30
0.0
 70
   128
 71
    32
 72
    34
 73
     7
  0
VERTEX
  5
5BC
  8
0
 62
     9
 10
0.0
 20
0.0
 30
0.0
 70
   128
 71
    34
 72
    31
 73
     7
  0
VERTEX
  5
5BD
  8
0
 62
     9
 10
0.0
 20
0.0
 30
0.0
 70
   128
 71
    37
 72
    36
 73
    35
  0
VERTEX
  5
5BE
  8
0
 62
     9
 10
0.0
 20
0.0
 30
0.0
 70
   128
 71
    35
 72
    39
 73
    38
  0
VERTEX
  5
5BF
  8
0
 62
     9
 10
0.0
 20
0.0
 30
0.0
 70
   128
 71
    41
 72
    40
 73
     9
  0
VERTEX
  5
5C0
  8
0
 62
     9
 10
0.0
 20
0.0
 30
0.0
 70
   128
 71
    40
 72
    33
 73
     9
  0
VERTEX
  5
5C1
  8
0
 62
     9
 10
0.0
 20
0.0
 30
0.0
 70
   128
 71
     9
 72
    38
 73
    41
  0
VERTEX
  5
5C2
  8
0
 62
     9
 10
0.0
 20
0.0
 30
0.0
 70
   128
 71
    38
 72
    42
 73
    41
  0
VERTEX
  5
5C3
  8
0
 62
     9
 10
0.0
 20
0.0
 30
0.0
 70
   128
 71
    38
 72
    43
 73
    42
  0
VERTEX
  5
5C4
  8
0
 62
     9
 10
0.0
 20
0.0
 30
0.0
 70
   128
 71
    38
 72
    39
 73
    43
  0
VERTEX
  5
5C5
  8
0
 62
     9
 10
0.0
 20
0.0
 30
0.0
 70
   128
 71
    10
 72
    45
 73
    44
  0
VERTEX
  5
5C6
  8
0
 62
     9
 10
0.0
 20
0.0
 30
0.0
 70
   128
 71
    44
 72
     9
 73
    10
  0
VERTEX
  5
5C7
  8
0
 62
     9
 10
0.0
 20
0.0
 30
0.0
 70
   128
 71
    44
 72
    38
 73
     9
  0
VERTEX
  5
5C8
  8
0
 62
     9
 10
0.0
 20
0.0
 30
0.0
 70
   128
 71
    47
 72
    46
 73
     2
  0
VERTEX
  5
5C9
  8
0
 62
     9
 10
0.0
 20
0.0
 30
0.0
 70
   128
 71
    49
 72
    48
 73
     2
  0
VERTEX
  5
5CA
  8
0
 62
     9
 10
0.0
 20
0.0
 30
0.0
 70
   128
 71
     2
 72
    46
 73
    49
  0
VERTEX
  5
5CB
  8
0
 62
     9
 10
0.0
 20
0.0
 30
0.0
 70
   128
 71
    10
 72
     2
 73
    48
  0
VERTEX
  5
5CC
  8
0
 62
     9
 10
0.0
 20
0.0
 30
0.0
 70
   128
 71
    10
 72
     1
 73
     2
  0
VERTEX
  5
5CD
  8
0
 62
     9
 10
0.0
 20
0.0
 30
0.0
 70
   128
 71
    48
 72
    50
 73
    10
  0
VERTEX
  5
5CE
  8
0
 62
     9
 10
0.0
 20
0.0
 30
0.0
 70
   128
 71
    52
 72
    51
 73
     2
  0
VERTEX
  5
5CF
  8
0
 62
     9
 10
0.0
 20
0.0
 30
0.0
 70
   128
 71
    54
 72
    53
 73
    52
  0
VERTEX
  5
5D0
  8
0
 62
     9
 10
0.0
 20
0.0
 30
0.0
 70
   128
 71
    55
 72
    51
 73
    52
  0
VERTEX
  5
5D1
  8
0
 62
     9
 10
0.0
 20
0.0
 30
0.0
 70
   128
 71
    52
 72
    56
 73
    55
  0
VERTEX
  5
5D2
  8
0
 62
     9
 10
0.0
 20
0.0
 30
0.0
 70
   128
 71
    52
 72
    57
 73
    56
  0
VERTEX
  5
5D3
  8
0
 62
     9
 10
0.0
 20
0.0
 30
0.0
 70
   128
 71
    52
 72
    53
 73
    57
  0
VERTEX
  5
5D4
  8
0
 62
     9
 10
0.0
 20
0.0
 30
0.0
 70
   128
 71
    52
 72
    58
 73
    54
  0
VERTEX
  5
5D5
  8
0
 62
     9
 10
0.0
 20
0.0
 30
0.0
 70
   128
 71
    52
 72
    59
 73
    58
  0
VERTEX
  5
5D6
  8
0
 62
     9
 10
0.0
 20
0.0
 30
0.0
 70
   128
 71
    61
 72
    60
 73
    52
  0
VERTEX
  5
5D7
  8
0
 62
     9
 10
0.0
 20
0.0
 30
0.0
 70
   128
 71
    60
 72
    62
 73
    52
  0
VERTEX
  5
5D8
  8
0
 62
     9
 10
0.0
 20
0.0
 30
0.0
 70
   128
 71
    62
 72
    63
 73
    52
  0
VERTEX
  5
5D9
  8
0
 62
     9
 10
0.0
 20
0.0
 30
0.0
 70
   128
 71
    63
 72
    59
 73
    52
  0
VERTEX
  5
5DA
  8
0
 62
     9
 10
0.0
 20
0.0
 30
0.0
 70
   128
 71
    65
 72
    52
 73
    64
  0
VERTEX
  5
5DB
  8
0
 62
     9
 10
0.0
 20
0.0
 30
0.0
 70
   128
 71
    64
 72
    66
 73
    65
  0
VERTEX
  5
5DC
  8
0
 62
     9
 10
0.0
 20
0.0
 30
0.0
 70
   128
 71
    67
 72
    64
 73
     4
  0
VERTEX
  5
5DD
  8
0
 62
     9
 10
0.0
 20
0.0
 30
0.0
 70
   128
 71
     4
 72
    68
 73
    67
  0
VERTEX
  5
5DE
  8
0
 62
     9
 10
0.0
 20
0.0
 30
0.0
 70
   128
 71
    70
 72
    69
 73
     4
  0
VERTEX
  5
5DF
  8
0
 62
     9
 10
0.0
 20
0.0
 30
0.0
 70
   128
 71
     4
 72
    71
 73
    70
  0
VERTEX
  5
5E0
  8
0
 62
     9
 10
0.0
 20
0.0
 30
0.0
 70
   128
 71
    71
 72
    72
 73
    70
  0
VERTEX
  5
5E1
  8
0
 62
     9
 10
0.0
 20
0.0
 30
0.0
 70
   128
 71
     4
 72
    11
 73
    71
  0
VERTEX
  5
5E2
  8
0
 62
     9
 10
0.0
 20
0.0
 30
0.0
 70
   128
 71
     4
 72
    69
 73
    68
  0
VERTEX
  5
5E3
  8
0
 62
     9
 10
0.0
 20
0.0
 30
0.0
 70
   128
 71
    64
 72
    67
 73
    66
  0
VERTEX
  5
5E4
  8
0
 62
     9
 10
0.0
 20
0.0
 30
0.0
 70
   128
 71
    52
 72
    65
 73
    61
  0
VERTEX
  5
5E5
  8
0
 62
     9
 10
0.0
 20
0.0
 30
0.0
 70
   128
 71
     2
 72
    64
 73
    52
  0
VERTEX
  5
5E6
  8
0
 62
     9
 10
0.0
 20
0.0
 30
0.0
 70
   128
 71
     2
 72
    51
 73
    47
  0
VERTEX
  5
5E7
  8
0
 62
     9
 10
0.0
 20
0.0
 30
0.0
 70
   128
 71
    10
 72
    50
 73
    45
  0
VERTEX
  5
5E8
  8
0
 62
     9
 10
0.0
 20
0.0
 30
0.0
 70
   128
 71
    35
 72
    38
 73
    37
  0
VERTEX
  5
5E9
  8
0
 62
     9
 10
0.0
 20
0.0
 30
0.0
 70
   128
 71
     7
 72
     9
 73
    33
  0
VERTEX
  5
5EA
  8
0
 62
     9
 10
0.0
 20
0.0
 30
0.0
 70
   128
 71
     6
 72
     7
 73
    31
  0
VERTEX
  5
5EB
  8
0
 62
     9
 10
0.0
 20
0.0
 30
0.0
 70
   128
 71
     8
 72
     6
 73
    29
  0
VERTEX
  5
5EC
  8
0
 62
     9
 10
0.0
 20
0.0
 30
0.0
 70
   128
 71
    18
 72
     8
 73
    27
  0
VERTEX
  5
5ED
  8
0
 62
     9
 10
0.0
 20
0.0
 30
0.0
 70
   128
 71
    21
 72
    24
 73
    22
  0
VERTEX
  5
5EE
  8
0
 62
     9
 10
0.0
 20
0.0
 30
0.0
 70
   128
 71
    16
 72
     8
 73
    18
  0
VERTEX
  5
5EF
  8
0
 62
     9
 10
0.0
 20
0.0
 30
0.0
 70
   128
 71
     5
 72
    19
 73
    15
  0
VERTEX
  5
5F0
  8
0
 62
     9
 10
0.0
 20
0.0
 30
0.0
 70
   128
 71
     3
 72
    13
 73
    12
  0
VERTEX
  5
5F1
  8
0
 62
     9
 10
0.0
 20
0.0
 30
0.0
 70
   128
 71
     9
 72
     7
 73
     1
  0
VERTEX
  5
5F2
  8
0
 62
     9
 10
0.0
 20
0.0
 30
0.0
 70
   128
 71
     5
 72
     1
 73
     7
  0
VERTEX
  5
5F3
  8
0
 62
     9
 10
0.0
 20
0.0
 30
0.0
 70
   128
 71
     4
 72
    64
 73
     2
  0
VERTEX
  5
5F4
  8
0
 62
     9
 10
0.0
 20
0.0
 30
0.0
 70
   128
 71
     1
 72
     5
 73
     3
  0
SEQEND
  5
5F5
  8
0
 62
     9
  0
ENDBLK
  5
5F8
  8
0
  0
BLOCK
  8
0
  2
E3_NODE_19_
 70
     0
 10
0.0
 20
0.0
 30
0.0
  3
E3_NODE_19_
  1

  0
POLYLINE
  5
5FA
  8
0
 62
     9
 66
     1
 10
0.0
 20
0.0
 30
0.0
 70
    64
 71
    24
 72
    22
  0
VERTEX
  5
5FB
  8
0
 10
112.1760025024414
 20
11.11999988555908
 30
-61.90499877929688
 70
   192
  0
VERTEX
  5
5FC
  8
0
 10
111.5500030517578
 20
9.53499984741211
 30
-20.80299949645996
 70
   192
  0
VERTEX
  5
5FD
  8
0
 10
111.5589981079102
 20
9.586999893188477
 30
-20.67000007629395
 70
   192
  0
VERTEX
  5
5FE
  8
0
 10
111.8190002441406
 20
11.01099967956543
 30
-17.08300018310547
 70
   192
  0
VERTEX
  5
5FF
  8
0
 10
111.8489990234375
 20
11.18000030517578
 30
-16.6569995880127
 70
   192
  0
VERTEX
  5
600
  8
0
 10
111.2829971313477
 20
7.007999897003174
 30
-23.79400062561035
 70
   192
  0
VERTEX
  5
601
  8
0
 10
111.1370010375977
 20
3.592999935150146
 30
-25.71199989318848
 70
   192
  0
VERTEX
  5
602
  8
0
 10
111.1449966430664
 20
3.780999898910522
 30
-25.60700035095215
 70
   192
  0
VERTEX
  5
603
  8
0
 10
111.2200012207031
 20
5.982999801635742
 30
-61.90499877929688
 70
   192
  0
VERTEX
  5
604
  8
0
 10
111.109001159668
 20
0.0020000000949949
 30
-61.90499877929688
 70
   192
  0
VERTEX
  5
605
  8
0
 10
111.109001159668
 20
0.0020000000949949
 30
-26.31500053405762
 70
   192
  0
VERTEX
  5
606
  8
0
 10
113.931999206543
 20
15.82600021362305
 30
3.164999961853027
 70
   192
  0
VERTEX
  5
607
  8
0
 10
112.4209976196289
 20
13.20699977874756
 30
-0.640999972820282
 70
   192
  0
VERTEX
  5
608
  8
0
 10
112.4240036010742
 20
13.2180004119873
 30
1.779999971389771
 70
   192
  0
VERTEX
  5
609
  8
0
 10
112.4260025024414
 20
13.22399997711182
 30
3.164999961853027
 70
   192
  0
VERTEX
  5
60A
  8
0
 10
114.2539978027344
 20
16.38299942016602
 30
3.164999961853027
 70
   192
  0
VERTEX
  5
60B
  8
0
 10
115.7850036621094
 20
17.48399925231934
 30
3.164999961853027
 70
   192
  0
VERTEX
  5
60C
  8
0
 10
112.2249984741211
 20
12.61699962615967
 30
-9.506999969482422
 70
   192
  0
VERTEX
  5
60D
  8
0
 10
112.2310028076172
 20
12.63500022888184
 30
-9.234000205993652
 70
   192
  0
VERTEX
  5
60E
  8
0
 10
112.3789978027344
 20
13.08500003814697
 30
-2.536999940872192
 70
   192
  0
VERTEX
  5
60F
  8
0
 10
112.4189987182617
 20
13.19999980926514
 30
-0.7630000114440918
 70
   192
  0
VERTEX
  5
610
  8
0
 10
115.7620010375977
 20
17.48200035095215
 30
-61.90499877929688
 70
   192
  0
VERTEX
  5
611
  8
0
 10
111.8570022583008
 20
11.22200012207031
 30
-16.55200004577637
 70
   192
  0
VERTEX
  5
612
  8
0
 10
112.6959991455078
 20
13.91300010681152
 30
-61.90499877929688
 70
   192
  0
VERTEX
  5
613
  8
0
 62
     9
 10
0.0
 20
0.0
 30
0.0
 70
   128
 71
     3
 72
     2
 73
     1
  0
VERTEX
  5
614
  8
0
 62
     9
 10
0.0
 20
0.0
 30
0.0
 70
   128
 71
     1
 72
     4
 73
     3
  0
VERTEX
  5
615
  8
0
 62
     9
 10
0.0
 20
0.0
 30
0.0
 70
   128
 71
     1
 72
     5
 73
     4
  0
VERTEX
  5
616
  8
0
 62
     9
 10
0.0
 20
0.0
 30
0.0
 70
   128
 71
     2
 72
     6
 73
     1
  0
VERTEX
  5
617
  8
0
 62
     9
 10
0.0
 20
0.0
 30
0.0
 70
   128
 71
     8
 72
     7
 73
     1
  0
VERTEX
  5
618
  8
0
 62
     9
 10
0.0
 20
0.0
 30
0.0
 70
   128
 71
    11
 72
    10
 73
     9
  0
VERTEX
  5
619
  8
0
 62
     9
 10
0.0
 20
0.0
 30
0.0
 70
   128
 71
     9
 72
     1
 73
     7
  0
VERTEX
  5
61A
  8
0
 62
     9
 10
0.0
 20
0.0
 30
0.0
 70
   128
 71
     9
 72
     7
 73
    11
  0
VERTEX
  5
61B
  8
0
 62
     9
 10
0.0
 20
0.0
 30
0.0
 70
   128
 71
     1
 72
     6
 73
     8
  0
VERTEX
  5
61C
  8
0
 62
     9
 10
0.0
 20
0.0
 30
0.0
 70
   128
 71
    14
 72
    13
 73
    12
  0
VERTEX
  5
61D
  8
0
 62
     9
 10
0.0
 20
0.0
 30
0.0
 70
   128
 71
    12
 72
    15
 73
    14
  0
VERTEX
  5
61E
  8
0
 62
     9
 10
0.0
 20
0.0
 30
0.0
 70
   128
 71
    13
 72
    16
 73
    12
  0
VERTEX
  5
61F
  8
0
 62
     9
 10
0.0
 20
0.0
 30
0.0
 70
   128
 71
    19
 72
    18
 73
    17
  0
VERTEX
  5
620
  8
0
 62
     9
 10
0.0
 20
0.0
 30
0.0
 70
   128
 71
    17
 72
    20
 73
    19
  0
VERTEX
  5
621
  8
0
 62
     9
 10
0.0
 20
0.0
 30
0.0
 70
   128
 71
    17
 72
    21
 73
    20
  0
VERTEX
  5
622
  8
0
 62
     9
 10
0.0
 20
0.0
 30
0.0
 70
   128
 71
    17
 72
    13
 73
    21
  0
VERTEX
  5
623
  8
0
 62
     9
 10
0.0
 20
0.0
 30
0.0
 70
   128
 71
    18
 72
    23
 73
    22
  0
VERTEX
  5
624
  8
0
 62
     9
 10
0.0
 20
0.0
 30
0.0
 70
   128
 71
    22
 72
    17
 73
    18
  0
VERTEX
  5
625
  8
0
 62
     9
 10
0.0
 20
0.0
 30
0.0
 70
   128
 71
     5
 72
     1
 73
    24
  0
VERTEX
  5
626
  8
0
 62
     9
 10
0.0
 20
0.0
 30
0.0
 70
   128
 71
    24
 72
    22
 73
    23
  0
VERTEX
  5
627
  8
0
 62
     9
 10
0.0
 20
0.0
 30
0.0
 70
   128
 71
    24
 72
    23
 73
     5
  0
VERTEX
  5
628
  8
0
 62
     9
 10
0.0
 20
0.0
 30
0.0
 70
   128
 71
    13
 72
    17
 73
    16
  0
SEQEND
  5
629
  8
0
 62
     9
  0
ENDBLK
  5
62C
  8
0
  0
BLOCK
  8
0
  2
E3_NODE_20_
 70
     0
 10
0.0
 20
0.0
 30
0.0
  3
E3_NODE_20_
  1

  0
POLYLINE
  5
62E
  8
0
 62
     9
 66
     1
 10
0.0
 20
0.0
 30
0.0
 70
    64
 71
    56
 72
    68
  0
VERTEX
  5
62F
  8
0
 10
109.4079971313477
 20
7.002999782562256
 30
-7.251999855041504
 70
   192
  0
VERTEX
  5
630
  8
0
 10
109.4250030517578
 20
4.359000205993652
 30
-10.01399993896484
 70
   192
  0
VERTEX
  5
631
  8
0
 10
107.4530029296875
 20
4.037000179290771
 30
-6.96999979019165
 70
   192
  0
VERTEX
  5
632
  8
0
 10
104.5630035400391
 20
3.684000015258789
 30
-5.15500020980835
 70
   192
  0
VERTEX
  5
633
  8
0
 10
104.5899963378906
 20
6.218999862670898
 30
-3.467000007629395
 70
   192
  0
VERTEX
  5
634
  8
0
 10
107.4240036010742
 20
6.590000152587891
 30
-4.896999835968018
 70
   192
  0
VERTEX
  5
635
  8
0
 10
109.1169967651367
 20
8.538000106811523
 30
-3.380000114440918
 70
   192
  0
VERTEX
  5
636
  8
0
 10
104.6050033569336
 20
7.999000072479248
 30
-1.029000043869019
 70
   192
  0
VERTEX
  5
637
  8
0
 10
107.140998840332
 20
8.213000297546387
 30
-1.95799994468689
 70
   192
  0
VERTEX
  5
638
  8
0
 10
111.1790008544922
 20
8.663000106811523
 30
-12.51799964904785
 70
   192
  0
VERTEX
  5
639
  8
0
 10
111.0970001220703
 20
7.455999851226807
 30
-15.21500015258789
 70
   192
  0
VERTEX
  5
63A
  8
0
 10
107.6330032348633
 20
9.154999732971191
 30
0.8309999704360962
 70
   192
  0
VERTEX
  5
63B
  8
0
 10
108.0559997558594
 20
9.196999549865723
 30
0.8159999847412109
 70
   192
  0
VERTEX
  5
63C
  8
0
 10
104.6709976196289
 20
8.866000175476074
 30
0.9319999814033508
 70
   192
  0
VERTEX
  5
63D
  8
0
 10
108.8310012817383
 20
9.482000350952148
 30
0.7129999995231628
 70
   192
  0
VERTEX
  5
63E
  8
0
 10
110.6230010986328
 20
10.14299964904785
 30
0.4740000069141388
 70
   192
  0
VERTEX
  5
63F
  8
0
 10
111.2750015258789
 20
10.10999965667725
 30
-6.436999797821045
 70
   192
  0
VERTEX
  5
640
  8
0
 10
110.806999206543
 20
10.39299964904785
 30
0.382999986410141
 70
   192
  0
VERTEX
  5
641
  8
0
 10
111.1709976196289
 20
10.88599967956543
 30
0.2029999941587448
 70
   192
  0
VERTEX
  5
642
  8
0
 10
112.3789978027344
 20
13.08500003814697
 30
-2.536999940872192
 70
   192
  0
VERTEX
  5
643
  8
0
 10
112.4189987182617
 20
13.19999980926514
 30
-0.7630000114440918
 70
   192
  0
VERTEX
  5
644
  8
0
 10
112.0130004882812
 20
12.02600002288818
 30
-0.2129999995231628
 70
   192
  0
VERTEX
  5
645
  8
0
 10
112.4209976196289
 20
13.20699977874756
 30
-0.640999972820282
 70
   192
  0
VERTEX
  5
646
  8
0
 10
112.2249984741211
 20
12.61699962615967
 30
-9.506999969482422
 70
   192
  0
VERTEX
  5
647
  8
0
 10
111.8570022583008
 20
11.22200012207031
 30
-16.55200004577637
 70
   192
  0
VERTEX
  5
648
  8
0
 10
112.2310028076172
 20
12.63500022888184
 30
-9.234000205993652
 70
   192
  0
VERTEX
  5
649
  8
0
 10
111.8489990234375
 20
11.18000030517578
 30
-16.6569995880127
 70
   192
  0
VERTEX
  5
64A
  8
0
 10
111.8190002441406
 20
11.01099967956543
 30
-17.08300018310547
 70
   192
  0
VERTEX
  5
64B
  8
0
 10
111.5589981079102
 20
9.586999893188477
 30
-20.67000007629395
 70
   192
  0
VERTEX
  5
64C
  8
0
 10
110.9899978637695
 20
5.533999919891357
 30
-17.41300010681152
 70
   192
  0
VERTEX
  5
64D
  8
0
 10
111.5500030517578
 20
9.53499984741211
 30
-20.80299949645996
 70
   192
  0
VERTEX
  5
64E
  8
0
 10
111.2829971313477
 20
7.007999897003174
 30
-23.79400062561035
 70
   192
  0
VERTEX
  5
64F
  8
0
 10
111.1449966430664
 20
3.780999898910522
 30
-25.60700035095215
 70
   192
  0
VERTEX
  5
650
  8
0
 10
110.9079971313477
 20
2.914000034332275
 30
-18.79800033569336
 70
   192
  0
VERTEX
  5
651
  8
0
 10
111.1370010375977
 20
3.592999935150146
 30
-25.71199989318848
 70
   192
  0
VERTEX
  5
652
  8
0
 10
111.109001159668
 20
0.0020000000949949
 30
-26.31500053405762
 70
   192
  0
VERTEX
  5
653
  8
0
 10
111.0070037841797
 20
0.0020000000949949
 30
-21.12899971008301
 70
   192
  0
VERTEX
  5
654
  8
0
 10
110.1259994506836
 20
0.0020000000949949
 30
-13.88099956512451
 70
   192
  0
VERTEX
  5
655
  8
0
 10
110.7630004882812
 20
0.0020000000949949
 30
-19.12100028991699
 70
   192
  0
VERTEX
  5
656
  8
0
 10
110.7630004882812
 20
0.0020000000949949
 30
-19.12700080871582
 70
   192
  0
VERTEX
  5
657
  8
0
 10
108.7789993286133
 20
0.0020000000949949
 30
-9.859999656677246
 70
   192
  0
VERTEX
  5
658
  8
0
 10
109.0019989013672
 20
0.0020000000949949
 30
-10.52600002288818
 70
   192
  0
VERTEX
  5
659
  8
0
 10
109.0009994506836
 20
0.0020000000949949
 30
-10.52299976348877
 70
   192
  0
VERTEX
  5
65A
  8
0
 10
106.6110000610352
 20
0.0020000000949949
 30
-7.126999855041504
 70
   192
  0
VERTEX
  5
65B
  8
0
 10
107.0199966430664
 20
0.0020000000949949
 30
-7.642000198364258
 70
   192
  0
VERTEX
  5
65C
  8
0
 10
107.0179977416992
 20
0.0020000000949949
 30
-7.639999866485596
 70
   192
  0
VERTEX
  5
65D
  8
0
 10
99.03500366210938
 20
3.084000110626221
 30
-4.317999839782715
 70
   192
  0
VERTEX
  5
65E
  8
0
 10
103.3440017700195
 20
0.0020000000949949
 30
-5.452000141143799
 70
   192
  0
VERTEX
  5
65F
  8
0
 10
98.86299896240234
 20
0.0020000000949949
 30
-4.860000133514404
 70
   192
  0
VERTEX
  5
660
  8
0
 10
104.4520034790039
 20
0.0020000000949949
 30
-6.019999980926514
 70
   192
  0
VERTEX
  5
661
  8
0
 10
99.03600311279297
 20
3.086999893188477
 30
-4.315999984741211
 70
   192
  0
VERTEX
  5
662
  8
0
 10
99.5479965209961
 20
5.757999897003174
 30
-2.683000087738037
 70
   192
  0
VERTEX
  5
663
  8
0
 10
99.62300109863281
 20
6.151999950408936
 30
-2.441999912261963
 70
   192
  0
VERTEX
  5
664
  8
0
 10
100.2939987182617
 20
7.770999908447266
 30
-0.2150000035762787
 70
   192
  0
VERTEX
  5
665
  8
0
 10
100.4609985351562
 20
8.175000190734863
 30
0.3400000035762787
 70
   192
  0
VERTEX
  5
666
  8
0
 10
100.6740036010742
 20
8.47599983215332
 30
1.069000005722046
 70
   192
  0
VERTEX
  5
667
  8
0
 62
     9
 10
0.0
 20
0.0
 30
0.0
 70
   128
 71
     3
 72
     2
 73
     1
  0
VERTEX
  5
668
  8
0
 62
     9
 10
0.0
 20
0.0
 30
0.0
 70
   128
 71
     6
 72
     5
 73
     4
  0
VERTEX
  5
669
  8
0
 62
     9
 10
0.0
 20
0.0
 30
0.0
 70
   128
 71
     6
 72
     1
 73
     7
  0
VERTEX
  5
66A
  8
0
 62
     9
 10
0.0
 20
0.0
 30
0.0
 70
   128
 71
     9
 72
     8
 73
     5
  0
VERTEX
  5
66B
  8
0
 62
     9
 10
0.0
 20
0.0
 30
0.0
 70
   128
 71
    10
 72
     1
 73
     2
  0
VERTEX
  5
66C
  8
0
 62
     9
 10
0.0
 20
0.0
 30
0.0
 70
   128
 71
     2
 72
    11
 73
    10
  0
VERTEX
  5
66D
  8
0
 62
     9
 10
0.0
 20
0.0
 30
0.0
 70
   128
 71
    13
 72
    12
 73
     9
  0
VERTEX
  5
66E
  8
0
 62
     9
 10
0.0
 20
0.0
 30
0.0
 70
   128
 71
     8
 72
     9
 73
    12
  0
VERTEX
  5
66F
  8
0
 62
     9
 10
0.0
 20
0.0
 30
0.0
 70
   128
 71
    12
 72
    14
 73
     8
  0
VERTEX
  5
670
  8
0
 62
     9
 10
0.0
 20
0.0
 30
0.0
 70
   128
 71
     9
 72
     7
 73
    15
  0
VERTEX
  5
671
  8
0
 62
     9
 10
0.0
 20
0.0
 30
0.0
 70
   128
 71
     7
 72
    17
 73
    16
  0
VERTEX
  5
672
  8
0
 62
     9
 10
0.0
 20
0.0
 30
0.0
 70
   128
 71
    16
 72
    15
 73
     7
  0
VERTEX
  5
673
  8
0
 62
     9
 10
0.0
 20
0.0
 30
0.0
 70
   128
 71
    17
 72
    18
 73
    16
  0
VERTEX
  5
674
  8
0
 62
     9
 10
0.0
 20
0.0
 30
0.0
 70
   128
 71
     1
 72
    10
 73
    17
  0
VERTEX
  5
675
  8
0
 62
     9
 10
0.0
 20
0.0
 30
0.0
 70
   128
 71
    17
 72
     7
 73
     1
  0
VERTEX
  5
676
  8
0
 62
     9
 10
0.0
 20
0.0
 30
0.0
 70
   128
 71
    20
 72
    19
 73
    17
  0
VERTEX
  5
677
  8
0
 62
     9
 10
0.0
 20
0.0
 30
0.0
 70
   128
 71
    22
 72
    19
 73
    21
  0
VERTEX
  5
678
  8
0
 62
     9
 10
0.0
 20
0.0
 30
0.0
 70
   128
 71
    21
 72
    23
 73
    22
  0
VERTEX
  5
679
  8
0
 62
     9
 10
0.0
 20
0.0
 30
0.0
 70
   128
 71
    19
 72
    20
 73
    21
  0
VERTEX
  5
67A
  8
0
 62
     9
 10
0.0
 20
0.0
 30
0.0
 70
   128
 71
    10
 72
    25
 73
    24
  0
VERTEX
  5
67B
  8
0
 62
     9
 10
0.0
 20
0.0
 30
0.0
 70
   128
 71
    24
 72
    17
 73
    10
  0
VERTEX
  5
67C
  8
0
 62
     9
 10
0.0
 20
0.0
 30
0.0
 70
   128
 71
    24
 72
    26
 73
    17
  0
VERTEX
  5
67D
  8
0
 62
     9
 10
0.0
 20
0.0
 30
0.0
 70
   128
 71
    10
 72
    27
 73
    25
  0
VERTEX
  5
67E
  8
0
 62
     9
 10
0.0
 20
0.0
 30
0.0
 70
   128
 71
    11
 72
    29
 73
    28
  0
VERTEX
  5
67F
  8
0
 62
     9
 10
0.0
 20
0.0
 30
0.0
 70
   128
 71
    29
 72
    11
 73
    30
  0
VERTEX
  5
680
  8
0
 62
     9
 10
0.0
 20
0.0
 30
0.0
 70
   128
 71
    30
 72
    31
 73
    29
  0
VERTEX
  5
681
  8
0
 62
     9
 10
0.0
 20
0.0
 30
0.0
 70
   128
 71
    34
 72
    33
 73
    32
  0
VERTEX
  5
682
  8
0
 62
     9
 10
0.0
 20
0.0
 30
0.0
 70
   128
 71
    37
 72
    36
 73
    35
  0
VERTEX
  5
683
  8
0
 62
     9
 10
0.0
 20
0.0
 30
0.0
 70
   128
 71
    35
 72
    33
 73
    34
  0
VERTEX
  5
684
  8
0
 62
     9
 10
0.0
 20
0.0
 30
0.0
 70
   128
 71
    35
 72
    34
 73
    37
  0
VERTEX
  5
685
  8
0
 62
     9
 10
0.0
 20
0.0
 30
0.0
 70
   128
 71
    38
 72
    30
 73
     2
  0
VERTEX
  5
686
  8
0
 62
     9
 10
0.0
 20
0.0
 30
0.0
 70
   128
 71
    34
 72
    30
 73
    39
  0
VERTEX
  5
687
  8
0
 62
     9
 10
0.0
 20
0.0
 30
0.0
 70
   128
 71
    39
 72
    40
 73
    34
  0
VERTEX
  5
688
  8
0
 62
     9
 10
0.0
 20
0.0
 30
0.0
 70
   128
 71
    30
 72
    38
 73
    39
  0
VERTEX
  5
689
  8
0
 62
     9
 10
0.0
 20
0.0
 30
0.0
 70
   128
 71
    41
 72
     2
 73
     3
  0
VERTEX
  5
68A
  8
0
 62
     9
 10
0.0
 20
0.0
 30
0.0
 70
   128
 71
    43
 72
    42
 73
     2
  0
VERTEX
  5
68B
  8
0
 62
     9
 10
0.0
 20
0.0
 30
0.0
 70
   128
 71
     2
 72
    41
 73
    43
  0
VERTEX
  5
68C
  8
0
 62
     9
 10
0.0
 20
0.0
 30
0.0
 70
   128
 71
    44
 72
     3
 73
     4
  0
VERTEX
  5
68D
  8
0
 62
     9
 10
0.0
 20
0.0
 30
0.0
 70
   128
 71
    46
 72
    45
 73
     3
  0
VERTEX
  5
68E
  8
0
 62
     9
 10
0.0
 20
0.0
 30
0.0
 70
   128
 71
     3
 72
    44
 73
    46
  0
VERTEX
  5
68F
  8
0
 62
     9
 10
0.0
 20
0.0
 30
0.0
 70
   128
 71
    48
 72
     4
 73
    47
  0
VERTEX
  5
690
  8
0
 62
     9
 10
0.0
 20
0.0
 30
0.0
 70
   128
 71
    47
 72
    49
 73
    48
  0
VERTEX
  5
691
  8
0
 62
     9
 10
0.0
 20
0.0
 30
0.0
 70
   128
 71
     4
 72
    48
 73
    50
  0
VERTEX
  5
692
  8
0
 62
     9
 10
0.0
 20
0.0
 30
0.0
 70
   128
 71
    52
 72
    51
 73
     4
  0
VERTEX
  5
693
  8
0
 62
     9
 10
0.0
 20
0.0
 30
0.0
 70
   128
 71
    54
 72
    53
 73
     5
  0
VERTEX
  5
694
  8
0
 62
     9
 10
0.0
 20
0.0
 30
0.0
 70
   128
 71
    53
 72
    52
 73
     5
  0
VERTEX
  5
695
  8
0
 62
     9
 10
0.0
 20
0.0
 30
0.0
 70
   128
 71
    56
 72
    55
 73
     8
  0
VERTEX
  5
696
  8
0
 62
     9
 10
0.0
 20
0.0
 30
0.0
 70
   128
 71
    55
 72
    54
 73
     8
  0
VERTEX
  5
697
  8
0
 62
     9
 10
0.0
 20
0.0
 30
0.0
 70
   128
 71
     8
 72
    14
 73
    56
  0
VERTEX
  5
698
  8
0
 62
     9
 10
0.0
 20
0.0
 30
0.0
 70
   128
 71
     5
 72
     8
 73
    54
  0
VERTEX
  5
699
  8
0
 62
     9
 10
0.0
 20
0.0
 30
0.0
 70
   128
 71
     4
 72
     5
 73
    52
  0
VERTEX
  5
69A
  8
0
 62
     9
 10
0.0
 20
0.0
 30
0.0
 70
   128
 71
     4
 72
    51
 73
    47
  0
VERTEX
  5
69B
  8
0
 62
     9
 10
0.0
 20
0.0
 30
0.0
 70
   128
 71
     4
 72
    50
 73
    44
  0
VERTEX
  5
69C
  8
0
 62
     9
 10
0.0
 20
0.0
 30
0.0
 70
   128
 71
     3
 72
    45
 73
    41
  0
VERTEX
  5
69D
  8
0
 62
     9
 10
0.0
 20
0.0
 30
0.0
 70
   128
 71
     2
 72
    42
 73
    38
  0
VERTEX
  5
69E
  8
0
 62
     9
 10
0.0
 20
0.0
 30
0.0
 70
   128
 71
    34
 72
    40
 73
    37
  0
VERTEX
  5
69F
  8
0
 62
     9
 10
0.0
 20
0.0
 30
0.0
 70
   128
 71
    32
 72
    30
 73
    34
  0
VERTEX
  5
6A0
  8
0
 62
     9
 10
0.0
 20
0.0
 30
0.0
 70
   128
 71
    30
 72
    32
 73
    31
  0
VERTEX
  5
6A1
  8
0
 62
     9
 10
0.0
 20
0.0
 30
0.0
 70
   128
 71
    28
 72
    10
 73
    11
  0
VERTEX
  5
6A2
  8
0
 62
     9
 10
0.0
 20
0.0
 30
0.0
 70
   128
 71
    10
 72
    28
 73
    27
  0
VERTEX
  5
6A3
  8
0
 62
     9
 10
0.0
 20
0.0
 30
0.0
 70
   128
 71
    17
 72
    26
 73
    20
  0
VERTEX
  5
6A4
  8
0
 62
     9
 10
0.0
 20
0.0
 30
0.0
 70
   128
 71
    17
 72
    19
 73
    18
  0
VERTEX
  5
6A5
  8
0
 62
     9
 10
0.0
 20
0.0
 30
0.0
 70
   128
 71
     9
 72
    15
 73
    13
  0
VERTEX
  5
6A6
  8
0
 62
     9
 10
0.0
 20
0.0
 30
0.0
 70
   128
 71
     2
 72
    30
 73
    11
  0
VERTEX
  5
6A7
  8
0
 62
     9
 10
0.0
 20
0.0
 30
0.0
 70
   128
 71
     5
 72
     6
 73
     9
  0
VERTEX
  5
6A8
  8
0
 62
     9
 10
0.0
 20
0.0
 30
0.0
 70
   128
 71
     7
 72
     9
 73
     6
  0
VERTEX
  5
6A9
  8
0
 62
     9
 10
0.0
 20
0.0
 30
0.0
 70
   128
 71
     4
 72
     3
 73
     6
  0
VERTEX
  5
6AA
  8
0
 62
     9
 10
0.0
 20
0.0
 30
0.0
 70
   128
 71
     1
 72
     6
 73
     3
  0
SEQEND
  5
6AB
  8
0
 62
     9
  0
ENDBLK
  5
6AE
  8
0
  0
BLOCK
  8
0
  2
E3_NODE_21_
 70
     0
 10
0.0
 20
0.0
 30
0.0
  3
E3_NODE_21_
  1

  0
POLYLINE
  5
6B0
  8
0
 62
     9
 66
     1
 10
0.0
 20
0.0
 30
0.0
 70
    64
 71
    48
 72
    52
  0
VERTEX
  5
6B1
  8
0
 10
113.8249969482422
 20
10.88099956512451
 30
14.73999977111816
 70
   192
  0
VERTEX
  5
6B2
  8
0
 10
113.8249969482422
 20
15.08199977874756
 30
8.157999992370605
 70
   192
  0
VERTEX
  5
6B3
  8
0
 10
112.4260025024414
 20
11.67199993133545
 30
8.696999549865723
 70
   192
  0
VERTEX
  5
6B4
  8
0
 10
112.4260025024414
 20
12.55099964141846
 30
7.320000171661377
 70
   192
  0
VERTEX
  5
6B5
  8
0
 10
112.4260025024414
 20
9.006999969482422
 30
12.82400035858154
 70
   192
  0
VERTEX
  5
6B6
  8
0
 10
112.4260025024414
 20
4.703000068664551
 30
15.21000003814697
 70
   192
  0
VERTEX
  5
6B7
  8
0
 10
112.4260025024414
 20
9.055000305175781
 30
12.79800033569336
 70
   192
  0
VERTEX
  5
6B8
  8
0
 10
113.8249969482422
 20
4.051000118255615
 30
18.52499961853027
 70
   192
  0
VERTEX
  5
6B9
  8
0
 10
113.8249969482422
 20
-3.756999969482422
 30
18.59900093078613
 70
   192
  0
VERTEX
  5
6BA
  8
0
 10
112.4260025024414
 20
0.0020000000949949
 30
16.38400077819824
 70
   192
  0
VERTEX
  5
6BB
  8
0
 10
112.4260025024414
 20
3.371000051498413
 30
15.94699954986572
 70
   192
  0
VERTEX
  5
6BC
  8
0
 10
112.427001953125
 20
-0.781000018119812
 30
16.36100006103516
 70
   192
  0
VERTEX
  5
6BD
  8
0
 10
113.8249969482422
 20
-10.6569995880127
 30
14.94299983978271
 70
   192
  0
VERTEX
  5
6BE
  8
0
 10
112.4260025024414
 20
-4.835999965667725
 30
15.45600032806396
 70
   192
  0
VERTEX
  5
6BF
  8
0
 10
112.4260025024414
 20
-4.769999980926514
 30
15.49300003051758
 70
   192
  0
VERTEX
  5
6C0
  8
0
 10
112.427001953125
 20
-8.12399959564209
 30
13.59200000762939
 70
   192
  0
VERTEX
  5
6C1
  8
0
 10
112.4260025024414
 20
-3.094000101089478
 30
15.85799980163574
 70
   192
  0
VERTEX
  5
6C2
  8
0
 10
113.8249969482422
 20
-14.98200035095215
 30
8.442000389099121
 70
   192
  0
VERTEX
  5
6C3
  8
0
 10
112.4260025024414
 20
-11.70300006866455
 30
9.309000015258789
 70
   192
  0
VERTEX
  5
6C4
  8
0
 10
112.4260025024414
 20
-11.86100006103516
 30
8.84000015258789
 70
   192
  0
VERTEX
  5
6C5
  8
0
 10
112.4260025024414
 20
-9.40999984741211
 30
12.44799995422363
 70
   192
  0
VERTEX
  5
6C6
  8
0
 10
112.4260025024414
 20
-8.968000411987305
 30
12.87600040435791
 70
   192
  0
VERTEX
  5
6C7
  8
0
 10
112.4260025024414
 20
-8.973999977111816
 30
12.86999988555908
 70
   192
  0
VERTEX
  5
6C8
  8
0
 10
112.4260025024414
 20
-9.010000228881836
 30
12.83600044250488
 70
   192
  0
VERTEX
  5
6C9
  8
0
 10
112.4260025024414
 20
-9.02299976348877
 30
12.82400035858154
 70
   192
  0
VERTEX
  5
6CA
  8
0
 10
113.931999206543
 20
15.82600021362305
 30
3.164999961853027
 70
   192
  0
VERTEX
  5
6CB
  8
0
 10
112.427001953125
 20
13.18000030517578
 30
4.215000152587891
 70
   192
  0
VERTEX
  5
6CC
  8
0
 10
112.4260025024414
 20
13.22399997711182
 30
3.164999961853027
 70
   192
  0
VERTEX
  5
6CD
  8
0
 10
112.427001953125
 20
13.19699954986572
 30
3.986999988555908
 70
   192
  0
VERTEX
  5
6CE
  8
0
 10
113.8249969482422
 20
-15.88399982452393
 30
3.164999961853027
 70
   192
  0
VERTEX
  5
6CF
  8
0
 10
112.4260025024414
 20
-13.17599964141846
 30
4.214000225067139
 70
   192
  0
VERTEX
  5
6D0
  8
0
 10
112.427001953125
 20
-13.19299983978271
 30
3.986999988555908
 70
   192
  0
VERTEX
  5
6D1
  8
0
 10
112.427001953125
 20
-13.04100036621094
 30
5.322000026702881
 70
   192
  0
VERTEX
  5
6D2
  8
0
 10
112.427001953125
 20
-12.30900001525879
 30
7.502999782562256
 70
   192
  0
VERTEX
  5
6D3
  8
0
 10
115.7750015258789
 20
-17.48100090026855
 30
3.164999961853027
 70
   192
  0
VERTEX
  5
6D4
  8
0
 10
115.765998840332
 20
-16.48800086975098
 30
8.972000122070312
 70
   192
  0
VERTEX
  5
6D5
  8
0
 10
115.765998840332
 20
-13.70800018310547
 30
13.15200042724609
 70
   192
  0
VERTEX
  5
6D6
  8
0
 10
115.765998840332
 20
-11.72900009155273
 30
16.12700080871582
 70
   192
  0
VERTEX
  5
6D7
  8
0
 10
115.765998840332
 20
-5.271999835968018
 30
19.54800033569336
 70
   192
  0
VERTEX
  5
6D8
  8
0
 10
115.765998840332
 20
-4.135000228881836
 30
20.15099906921387
 70
   192
  0
VERTEX
  5
6D9
  8
0
 10
115.765998840332
 20
4.458000183105469
 30
20.06999969482422
 70
   192
  0
VERTEX
  5
6DA
  8
0
 10
115.765998840332
 20
5.300000190734863
 30
19.60300064086914
 70
   192
  0
VERTEX
  5
6DB
  8
0
 10
115.765998840332
 20
13.72000026702881
 30
13.16899967193604
 70
   192
  0
VERTEX
  5
6DC
  8
0
 10
115.765998840332
 20
11.97500038146973
 30
15.9040002822876
 70
   192
  0
VERTEX
  5
6DD
  8
0
 10
115.765998840332
 20
16.59799957275391
 30
8.65999984741211
 70
   192
  0
VERTEX
  5
6DE
  8
0
 10
114.2539978027344
 20
16.38299942016602
 30
3.164999961853027
 70
   192
  0
VERTEX
  5
6DF
  8
0
 10
115.7850036621094
 20
17.48399925231934
 30
3.164999961853027
 70
   192
  0
VERTEX
  5
6E0
  8
0
 10
112.4260025024414
 20
-13.22000026702881
 30
3.164999961853027
 70
   192
  0
VERTEX
  5
6E1
  8
0
 62
     9
 10
0.0
 20
0.0
 30
0.0
 70
   128
 71
     3
 72
     2
 73
     1
  0
VERTEX
  5
6E2
  8
0
 62
     9
 10
0.0
 20
0.0
 30
0.0
 70
   128
 71
     3
 72
     4
 73
     2
  0
VERTEX
  5
6E3
  8
0
 62
     9
 10
0.0
 20
0.0
 30
0.0
 70
   128
 71
     6
 72
     5
 73
     1
  0
VERTEX
  5
6E4
  8
0
 62
     9
 10
0.0
 20
0.0
 30
0.0
 70
   128
 71
     5
 72
     7
 73
     1
  0
VERTEX
  5
6E5
  8
0
 62
     9
 10
0.0
 20
0.0
 30
0.0
 70
   128
 71
     1
 72
     8
 73
     6
  0
VERTEX
  5
6E6
  8
0
 62
     9
 10
0.0
 20
0.0
 30
0.0
 70
   128
 71
    10
 72
     8
 73
     9
  0
VERTEX
  5
6E7
  8
0
 62
     9
 10
0.0
 20
0.0
 30
0.0
 70
   128
 71
    10
 72
    11
 73
     8
  0
VERTEX
  5
6E8
  8
0
 62
     9
 10
0.0
 20
0.0
 30
0.0
 70
   128
 71
     9
 72
    12
 73
    10
  0
VERTEX
  5
6E9
  8
0
 62
     9
 10
0.0
 20
0.0
 30
0.0
 70
   128
 71
    14
 72
     9
 73
    13
  0
VERTEX
  5
6EA
  8
0
 62
     9
 10
0.0
 20
0.0
 30
0.0
 70
   128
 71
    14
 72
    15
 73
     9
  0
VERTEX
  5
6EB
  8
0
 62
     9
 10
0.0
 20
0.0
 30
0.0
 70
   128
 71
    13
 72
    16
 73
    14
  0
VERTEX
  5
6EC
  8
0
 62
     9
 10
0.0
 20
0.0
 30
0.0
 70
   128
 71
    15
 72
    17
 73
     9
  0
VERTEX
  5
6ED
  8
0
 62
     9
 10
0.0
 20
0.0
 30
0.0
 70
   128
 71
    20
 72
    19
 73
    18
  0
VERTEX
  5
6EE
  8
0
 62
     9
 10
0.0
 20
0.0
 30
0.0
 70
   128
 71
    19
 72
    21
 73
    13
  0
VERTEX
  5
6EF
  8
0
 62
     9
 10
0.0
 20
0.0
 30
0.0
 70
   128
 71
    23
 72
    22
 73
    13
  0
VERTEX
  5
6F0
  8
0
 62
     9
 10
0.0
 20
0.0
 30
0.0
 70
   128
 71
    13
 72
    24
 73
    23
  0
VERTEX
  5
6F1
  8
0
 62
     9
 10
0.0
 20
0.0
 30
0.0
 70
   128
 71
    13
 72
    25
 73
    24
  0
VERTEX
  5
6F2
  8
0
 62
     9
 10
0.0
 20
0.0
 30
0.0
 70
   128
 71
    13
 72
    21
 73
    25
  0
VERTEX
  5
6F3
  8
0
 62
     9
 10
0.0
 20
0.0
 30
0.0
 70
   128
 71
    13
 72
    18
 73
    19
  0
VERTEX
  5
6F4
  8
0
 62
     9
 10
0.0
 20
0.0
 30
0.0
 70
   128
 71
    27
 72
    26
 73
     2
  0
VERTEX
  5
6F5
  8
0
 62
     9
 10
0.0
 20
0.0
 30
0.0
 70
   128
 71
    29
 72
    28
 73
    26
  0
VERTEX
  5
6F6
  8
0
 62
     9
 10
0.0
 20
0.0
 30
0.0
 70
   128
 71
    26
 72
    27
 73
    29
  0
VERTEX
  5
6F7
  8
0
 62
     9
 10
0.0
 20
0.0
 30
0.0
 70
   128
 71
    32
 72
    31
 73
    30
  0
VERTEX
  5
6F8
  8
0
 62
     9
 10
0.0
 20
0.0
 30
0.0
 70
   128
 71
    33
 72
    18
 73
    30
  0
VERTEX
  5
6F9
  8
0
 62
     9
 10
0.0
 20
0.0
 30
0.0
 70
   128
 71
    30
 72
    31
 73
    33
  0
VERTEX
  5
6FA
  8
0
 62
     9
 10
0.0
 20
0.0
 30
0.0
 70
   128
 71
    33
 72
    34
 73
    18
  0
VERTEX
  5
6FB
  8
0
 62
     9
 10
0.0
 20
0.0
 30
0.0
 70
   128
 71
    18
 72
    36
 73
    35
  0
VERTEX
  5
6FC
  8
0
 62
     9
 10
0.0
 20
0.0
 30
0.0
 70
   128
 71
    37
 72
    36
 73
    18
  0
VERTEX
  5
6FD
  8
0
 62
     9
 10
0.0
 20
0.0
 30
0.0
 70
   128
 71
    18
 72
    13
 73
    37
  0
VERTEX
  5
6FE
  8
0
 62
     9
 10
0.0
 20
0.0
 30
0.0
 70
   128
 71
    39
 72
    38
 73
    13
  0
VERTEX
  5
6FF
  8
0
 62
     9
 10
0.0
 20
0.0
 30
0.0
 70
   128
 71
    13
 72
     9
 73
    39
  0
VERTEX
  5
700
  8
0
 62
     9
 10
0.0
 20
0.0
 30
0.0
 70
   128
 71
     8
 72
    41
 73
    40
  0
VERTEX
  5
701
  8
0
 62
     9
 10
0.0
 20
0.0
 30
0.0
 70
   128
 71
    42
 72
     8
 73
     1
  0
VERTEX
  5
702
  8
0
 62
     9
 10
0.0
 20
0.0
 30
0.0
 70
   128
 71
    42
 72
    41
 73
     8
  0
VERTEX
  5
703
  8
0
 62
     9
 10
0.0
 20
0.0
 30
0.0
 70
   128
 71
    43
 72
     1
 73
     2
  0
VERTEX
  5
704
  8
0
 62
     9
 10
0.0
 20
0.0
 30
0.0
 70
   128
 71
    43
 72
    44
 73
     1
  0
VERTEX
  5
705
  8
0
 62
     9
 10
0.0
 20
0.0
 30
0.0
 70
   128
 71
    46
 72
    45
 73
     2
  0
VERTEX
  5
706
  8
0
 62
     9
 10
0.0
 20
0.0
 30
0.0
 70
   128
 71
    46
 72
    47
 73
    45
  0
VERTEX
  5
707
  8
0
 62
     9
 10
0.0
 20
0.0
 30
0.0
 70
   128
 71
     2
 72
    26
 73
    46
  0
VERTEX
  5
708
  8
0
 62
     9
 10
0.0
 20
0.0
 30
0.0
 70
   128
 71
     2
 72
    45
 73
    43
  0
VERTEX
  5
709
  8
0
 62
     9
 10
0.0
 20
0.0
 30
0.0
 70
   128
 71
     1
 72
    44
 73
    42
  0
VERTEX
  5
70A
  8
0
 62
     9
 10
0.0
 20
0.0
 30
0.0
 70
   128
 71
    40
 72
     9
 73
     8
  0
VERTEX
  5
70B
  8
0
 62
     9
 10
0.0
 20
0.0
 30
0.0
 70
   128
 71
     9
 72
    40
 73
    39
  0
VERTEX
  5
70C
  8
0
 62
     9
 10
0.0
 20
0.0
 30
0.0
 70
   128
 71
    13
 72
    38
 73
    37
  0
VERTEX
  5
70D
  8
0
 62
     9
 10
0.0
 20
0.0
 30
0.0
 70
   128
 71
    35
 72
    30
 73
    18
  0
VERTEX
  5
70E
  8
0
 62
     9
 10
0.0
 20
0.0
 30
0.0
 70
   128
 71
    30
 72
    48
 73
    32
  0
VERTEX
  5
70F
  8
0
 62
     9
 10
0.0
 20
0.0
 30
0.0
 70
   128
 71
     2
 72
     4
 73
    27
  0
VERTEX
  5
710
  8
0
 62
     9
 10
0.0
 20
0.0
 30
0.0
 70
   128
 71
    18
 72
    34
 73
    20
  0
VERTEX
  5
711
  8
0
 62
     9
 10
0.0
 20
0.0
 30
0.0
 70
   128
 71
    13
 72
    22
 73
    16
  0
VERTEX
  5
712
  8
0
 62
     9
 10
0.0
 20
0.0
 30
0.0
 70
   128
 71
     9
 72
    17
 73
    12
  0
VERTEX
  5
713
  8
0
 62
     9
 10
0.0
 20
0.0
 30
0.0
 70
   128
 71
     8
 72
    11
 73
     6
  0
VERTEX
  5
714
  8
0
 62
     9
 10
0.0
 20
0.0
 30
0.0
 70
   128
 71
     1
 72
     7
 73
     3
  0
SEQEND
  5
715
  8
0
 62
     9
  0
ENDBLK
  5
718
  8
0
  0
BLOCK
  8
0
  2
E3_NODE_22_
 70
     0
 10
0.0
 20
0.0
 30
0.0
  3
E3_NODE_22_
  1

  0
POLYLINE
  5
71A
  8
0
 62
     9
 66
     1
 10
0.0
 20
0.0
 30
0.0
 70
    64
 71
    26
 72
    26
  0
VERTEX
  5
71B
  8
0
 10
107.7799987792969
 20
9.35099983215332
 30
2.509999990463257
 70
   192
  0
VERTEX
  5
71C
  8
0
 10
107.9079971313477
 20
9.520999908447266
 30
4.215000152587891
 70
   192
  0
VERTEX
  5
71D
  8
0
 10
109.3369979858398
 20
9.697999954223633
 30
4.215000152587891
 70
   192
  0
VERTEX
  5
71E
  8
0
 10
110.9089965820312
 20
10.47200012207031
 30
2.293999910354614
 70
   192
  0
VERTEX
  5
71F
  8
0
 10
110.7300033569336
 20
10.44999980926514
 30
4.215000152587891
 70
   192
  0
VERTEX
  5
720
  8
0
 10
112.3499984741211
 20
12.95899963378906
 30
4.215000152587891
 70
   192
  0
VERTEX
  5
721
  8
0
 10
112.427001953125
 20
13.18000030517578
 30
4.215000152587891
 70
   192
  0
VERTEX
  5
722
  8
0
 10
112.427001953125
 20
13.19699954986572
 30
3.986999988555908
 70
   192
  0
VERTEX
  5
723
  8
0
 10
112.4260025024414
 20
13.22399997711182
 30
3.164999961853027
 70
   192
  0
VERTEX
  5
724
  8
0
 10
112.4240036010742
 20
13.2180004119873
 30
1.779999971389771
 70
   192
  0
VERTEX
  5
725
  8
0
 10
111.1709976196289
 20
10.6879997253418
 30
4.215000152587891
 70
   192
  0
VERTEX
  5
726
  8
0
 10
110.8919982910156
 20
10.53699970245361
 30
4.215000152587891
 70
   192
  0
VERTEX
  5
727
  8
0
 10
112.0130004882812
 20
12.02600002288818
 30
-0.2129999995231628
 70
   192
  0
VERTEX
  5
728
  8
0
 10
111.1709976196289
 20
10.88599967956543
 30
0.2029999941587448
 70
   192
  0
VERTEX
  5
729
  8
0
 10
112.4209976196289
 20
13.20699977874756
 30
-0.640999972820282
 70
   192
  0
VERTEX
  5
72A
  8
0
 10
110.6230010986328
 20
10.14299964904785
 30
0.4740000069141388
 70
   192
  0
VERTEX
  5
72B
  8
0
 10
108.8310012817383
 20
9.482000350952148
 30
0.7129999995231628
 70
   192
  0
VERTEX
  5
72C
  8
0
 10
108.0559997558594
 20
9.196999549865723
 30
0.8159999847412109
 70
   192
  0
VERTEX
  5
72D
  8
0
 10
110.806999206543
 20
10.39299964904785
 30
0.382999986410141
 70
   192
  0
VERTEX
  5
72E
  8
0
 10
101.1190032958984
 20
8.746999740600586
 30
2.638999938964844
 70
   192
  0
VERTEX
  5
72F
  8
0
 10
104.6709976196289
 20
8.866000175476074
 30
0.9319999814033508
 70
   192
  0
VERTEX
  5
730
  8
0
 10
107.6330032348633
 20
9.154999732971191
 30
0.8309999704360962
 70
   192
  0
VERTEX
  5
731
  8
0
 10
104.7890014648438
 20
9.13599967956543
 30
4.215000152587891
 70
   192
  0
VERTEX
  5
732
  8
0
 10
107.7740020751953
 20
9.505000114440918
 30
4.215000152587891
 70
   192
  0
VERTEX
  5
733
  8
0
 10
101.5650024414062
 20
9.019000053405762
 30
4.215000152587891
 70
   192
  0
VERTEX
  5
734
  8
0
 10
100.6740036010742
 20
8.47599983215332
 30
1.069000005722046
 70
   192
  0
VERTEX
  5
735
  8
0
 62
     9
 10
0.0
 20
0.0
 30
0.0
 70
   128
 71
     3
 72
     2
 73
     1
  0
VERTEX
  5
736
  8
0
 62
     9
 10
0.0
 20
0.0
 30
0.0
 70
   128
 71
     1
 72
     4
 73
     3
  0
VERTEX
  5
737
  8
0
 62
     9
 10
0.0
 20
0.0
 30
0.0
 70
   128
 71
     4
 72
     5
 73
     3
  0
VERTEX
  5
738
  8
0
 62
     9
 10
0.0
 20
0.0
 30
0.0
 70
   128
 71
     8
 72
     7
 73
     6
  0
VERTEX
  5
739
  8
0
 62
     9
 10
0.0
 20
0.0
 30
0.0
 70
   128
 71
     6
 72
     9
 73
     8
  0
VERTEX
  5
73A
  8
0
 62
     9
 10
0.0
 20
0.0
 30
0.0
 70
   128
 71
    11
 72
     4
 73
    10
  0
VERTEX
  5
73B
  8
0
 62
     9
 10
0.0
 20
0.0
 30
0.0
 70
   128
 71
    11
 72
    12
 73
     4
  0
VERTEX
  5
73C
  8
0
 62
     9
 10
0.0
 20
0.0
 30
0.0
 70
   128
 71
    10
 72
     6
 73
    11
  0
VERTEX
  5
73D
  8
0
 62
     9
 10
0.0
 20
0.0
 30
0.0
 70
   128
 71
    14
 72
    13
 73
    10
  0
VERTEX
  5
73E
  8
0
 62
     9
 10
0.0
 20
0.0
 30
0.0
 70
   128
 71
    10
 72
     4
 73
    14
  0
VERTEX
  5
73F
  8
0
 62
     9
 10
0.0
 20
0.0
 30
0.0
 70
   128
 71
    13
 72
    15
 73
    10
  0
VERTEX
  5
740
  8
0
 62
     9
 10
0.0
 20
0.0
 30
0.0
 70
   128
 71
    17
 72
    16
 73
     4
  0
VERTEX
  5
741
  8
0
 62
     9
 10
0.0
 20
0.0
 30
0.0
 70
   128
 71
     4
 72
     1
 73
    17
  0
VERTEX
  5
742
  8
0
 62
     9
 10
0.0
 20
0.0
 30
0.0
 70
   128
 71
     1
 72
    18
 73
    17
  0
VERTEX
  5
743
  8
0
 62
     9
 10
0.0
 20
0.0
 30
0.0
 70
   128
 71
    16
 72
    19
 73
     4
  0
VERTEX
  5
744
  8
0
 62
     9
 10
0.0
 20
0.0
 30
0.0
 70
   128
 71
    21
 72
     1
 73
    20
  0
VERTEX
  5
745
  8
0
 62
     9
 10
0.0
 20
0.0
 30
0.0
 70
   128
 71
    21
 72
    22
 73
     1
  0
VERTEX
  5
746
  8
0
 62
     9
 10
0.0
 20
0.0
 30
0.0
 70
   128
 71
    24
 72
    23
 73
     1
  0
VERTEX
  5
747
  8
0
 62
     9
 10
0.0
 20
0.0
 30
0.0
 70
   128
 71
    23
 72
    25
 73
    20
  0
VERTEX
  5
748
  8
0
 62
     9
 10
0.0
 20
0.0
 30
0.0
 70
   128
 71
    20
 72
     1
 73
    23
  0
VERTEX
  5
749
  8
0
 62
     9
 10
0.0
 20
0.0
 30
0.0
 70
   128
 71
     1
 72
     2
 73
    24
  0
VERTEX
  5
74A
  8
0
 62
     9
 10
0.0
 20
0.0
 30
0.0
 70
   128
 71
    20
 72
    26
 73
    21
  0
VERTEX
  5
74B
  8
0
 62
     9
 10
0.0
 20
0.0
 30
0.0
 70
   128
 71
     1
 72
    22
 73
    18
  0
VERTEX
  5
74C
  8
0
 62
     9
 10
0.0
 20
0.0
 30
0.0
 70
   128
 71
     4
 72
    19
 73
    14
  0
VERTEX
  5
74D
  8
0
 62
     9
 10
0.0
 20
0.0
 30
0.0
 70
   128
 71
     6
 72
    10
 73
     9
  0
VERTEX
  5
74E
  8
0
 62
     9
 10
0.0
 20
0.0
 30
0.0
 70
   128
 71
     4
 72
    12
 73
     5
  0
SEQEND
  5
74F
  8
0
 62
     9
  0
ENDBLK
  5
752
  8
0
  0
BLOCK
  8
0
  2
E3_NODE_23_
 70
     0
 10
0.0
 20
0.0
 30
0.0
  3
E3_NODE_23_
  1

  0
POLYLINE
  5
754
  8
0
 62
     9
 66
     1
 10
0.0
 20
0.0
 30
0.0
 70
    64
 71
    33
 72
    31
  0
VERTEX
  5
755
  8
0
 10
112.4260025024414
 20
11.67199993133545
 30
8.696999549865723
 70
   192
  0
VERTEX
  5
756
  8
0
 10
112.4260025024414
 20
12.55099964141846
 30
7.320000171661377
 70
   192
  0
VERTEX
  5
757
  8
0
 10
112.3499984741211
 20
11.98299980163574
 30
8.208999633789062
 70
   192
  0
VERTEX
  5
758
  8
0
 10
112.3499984741211
 20
11.91100025177002
 30
8.324999809265137
 70
   192
  0
VERTEX
  5
759
  8
0
 10
112.3499984741211
 20
12.95899963378906
 30
4.215000152587891
 70
   192
  0
VERTEX
  5
75A
  8
0
 10
112.427001953125
 20
13.18000030517578
 30
4.215000152587891
 70
   192
  0
VERTEX
  5
75B
  8
0
 10
112.4260025024414
 20
9.055000305175781
 30
12.79800033569336
 70
   192
  0
VERTEX
  5
75C
  8
0
 10
112.3499984741211
 20
9.770000457763672
 30
11.74300003051758
 70
   192
  0
VERTEX
  5
75D
  8
0
 10
112.3499984741211
 20
8.736000061035156
 30
12.58699989318848
 70
   192
  0
VERTEX
  5
75E
  8
0
 10
112.3499984741211
 20
11.64500045776367
 30
8.74899959564209
 70
   192
  0
VERTEX
  5
75F
  8
0
 10
112.4260025024414
 20
9.006999969482422
 30
12.82400035858154
 70
   192
  0
VERTEX
  5
760
  8
0
 10
112.3499984741211
 20
6.461999893188477
 30
14.44600009918213
 70
   192
  0
VERTEX
  5
761
  8
0
 10
112.4260025024414
 20
4.703000068664551
 30
15.21000003814697
 70
   192
  0
VERTEX
  5
762
  8
0
 10
112.3499984741211
 20
4.673999786376953
 30
15.10999965667725
 70
   192
  0
VERTEX
  5
763
  8
0
 10
111.5240020751953
 20
1.83299994468689
 30
14.50399971008301
 70
   192
  0
VERTEX
  5
764
  8
0
 10
111.5240020751953
 20
0.0020000000949949
 30
14.59799957275391
 70
   192
  0
VERTEX
  5
765
  8
0
 10
112.0189971923828
 20
0.0020000000949949
 30
15.24699974060059
 70
   192
  0
VERTEX
  5
766
  8
0
 10
112.3499984741211
 20
2.095000028610229
 30
15.99499988555908
 70
   192
  0
VERTEX
  5
767
  8
0
 10
112.4260025024414
 20
3.371000051498413
 30
15.94699954986572
 70
   192
  0
VERTEX
  5
768
  8
0
 10
112.3499984741211
 20
2.473000049591064
 30
15.92700004577637
 70
   192
  0
VERTEX
  5
769
  8
0
 10
112.4260025024414
 20
0.0020000000949949
 30
16.38400077819824
 70
   192
  0
VERTEX
  5
76A
  8
0
 10
111.1320037841797
 20
1.745000004768372
 30
14.00300025939941
 70
   192
  0
VERTEX
  5
76B
  8
0
 10
109.4929962158203
 20
1.651000022888184
 30
13.43099975585938
 70
   192
  0
VERTEX
  5
76C
  8
0
 10
109.484001159668
 20
0.0020000000949949
 30
13.64700031280518
 70
   192
  0
VERTEX
  5
76D
  8
0
 10
111.140998840332
 20
0.0020000000949949
 30
14.0959997177124
 70
   192
  0
VERTEX
  5
76E
  8
0
 10
111.2730026245117
 20
1.753000020980835
 30
14.05200004577637
 70
   192
  0
VERTEX
  5
76F
  8
0
 10
108.7180023193359
 20
0.0020000000949949
 30
13.43900012969971
 70
   192
  0
VERTEX
  5
770
  8
0
 10
109.3919982910156
 20
1.644999980926514
 30
13.39599990844727
 70
   192
  0
VERTEX
  5
771
  8
0
 10
108.7570037841797
 20
1.641000032424927
 30
13.3430004119873
 70
   192
  0
VERTEX
  5
772
  8
0
 10
106.0940017700195
 20
1.623999953269958
 30
13.12100028991699
 70
   192
  0
VERTEX
  5
773
  8
0
 10
103.8679962158203
 20
0.0020000000949949
 30
13.17700004577637
 70
   192
  0
VERTEX
  5
774
  8
0
 10
103.8320007324219
 20
1.634999990463257
 30
13.02799987792969
 70
   192
  0
VERTEX
  5
775
  8
0
 10
112.3320007324219
 20
6.092999935150146
 30
14.58899974822998
 70
   192
  0
VERTEX
  5
776
  8
0
 62
     9
 10
0.0
 20
0.0
 30
0.0
 70
   128
 71
     3
 72
     2
 73
     1
  0
VERTEX
  5
777
  8
0
 62
     9
 10
0.0
 20
0.0
 30
0.0
 70
   128
 71
     1
 72
     4
 73
     3
  0
VERTEX
  5
778
  8
0
 62
     9
 10
0.0
 20
0.0
 30
0.0
 70
   128
 71
     2
 72
     3
 73
     5
  0
VERTEX
  5
779
  8
0
 62
     9
 10
0.0
 20
0.0
 30
0.0
 70
   128
 71
     5
 72
     6
 73
     2
  0
VERTEX
  5
77A
  8
0
 62
     9
 10
0.0
 20
0.0
 30
0.0
 70
   128
 71
     8
 72
     1
 73
     7
  0
VERTEX
  5
77B
  8
0
 62
     9
 10
0.0
 20
0.0
 30
0.0
 70
   128
 71
     7
 72
     9
 73
     8
  0
VERTEX
  5
77C
  8
0
 62
     9
 10
0.0
 20
0.0
 30
0.0
 70
   128
 71
     8
 72
    10
 73
     1
  0
VERTEX
  5
77D
  8
0
 62
     9
 10
0.0
 20
0.0
 30
0.0
 70
   128
 71
    12
 72
     9
 73
    11
  0
VERTEX
  5
77E
  8
0
 62
     9
 10
0.0
 20
0.0
 30
0.0
 70
   128
 71
    11
 72
    13
 73
    12
  0
VERTEX
  5
77F
  8
0
 62
     9
 10
0.0
 20
0.0
 30
0.0
 70
   128
 71
    13
 72
    14
 73
    12
  0
VERTEX
  5
780
  8
0
 62
     9
 10
0.0
 20
0.0
 30
0.0
 70
   128
 71
    17
 72
    16
 73
    15
  0
VERTEX
  5
781
  8
0
 62
     9
 10
0.0
 20
0.0
 30
0.0
 70
   128
 71
    15
 72
    18
 73
    17
  0
VERTEX
  5
782
  8
0
 62
     9
 10
0.0
 20
0.0
 30
0.0
 70
   128
 71
    18
 72
    20
 73
    19
  0
VERTEX
  5
783
  8
0
 62
     9
 10
0.0
 20
0.0
 30
0.0
 70
   128
 71
    19
 72
    20
 73
    14
  0
VERTEX
  5
784
  8
0
 62
     9
 10
0.0
 20
0.0
 30
0.0
 70
   128
 71
    14
 72
    13
 73
    19
  0
VERTEX
  5
785
  8
0
 62
     9
 10
0.0
 20
0.0
 30
0.0
 70
   128
 71
    19
 72
    21
 73
    18
  0
VERTEX
  5
786
  8
0
 62
     9
 10
0.0
 20
0.0
 30
0.0
 70
   128
 71
    24
 72
    23
 73
    22
  0
VERTEX
  5
787
  8
0
 62
     9
 10
0.0
 20
0.0
 30
0.0
 70
   128
 71
    22
 72
    26
 73
    25
  0
VERTEX
  5
788
  8
0
 62
     9
 10
0.0
 20
0.0
 30
0.0
 70
   128
 71
    26
 72
    15
 73
    16
  0
VERTEX
  5
789
  8
0
 62
     9
 10
0.0
 20
0.0
 30
0.0
 70
   128
 71
    16
 72
    25
 73
    26
  0
VERTEX
  5
78A
  8
0
 62
     9
 10
0.0
 20
0.0
 30
0.0
 70
   128
 71
    28
 72
    24
 73
    27
  0
VERTEX
  5
78B
  8
0
 62
     9
 10
0.0
 20
0.0
 30
0.0
 70
   128
 71
    30
 72
    29
 73
    27
  0
VERTEX
  5
78C
  8
0
 62
     9
 10
0.0
 20
0.0
 30
0.0
 70
   128
 71
    27
 72
    31
 73
    30
  0
VERTEX
  5
78D
  8
0
 62
     9
 10
0.0
 20
0.0
 30
0.0
 70
   128
 71
    31
 72
    32
 73
    30
  0
VERTEX
  5
78E
  8
0
 62
     9
 10
0.0
 20
0.0
 30
0.0
 70
   128
 71
    24
 72
    28
 73
    23
  0
VERTEX
  5
78F
  8
0
 62
     9
 10
0.0
 20
0.0
 30
0.0
 70
   128
 71
    27
 72
    29
 73
    28
  0
VERTEX
  5
790
  8
0
 62
     9
 10
0.0
 20
0.0
 30
0.0
 70
   128
 71
    22
 72
    25
 73
    24
  0
VERTEX
  5
791
  8
0
 62
     9
 10
0.0
 20
0.0
 30
0.0
 70
   128
 71
    18
 72
    21
 73
    17
  0
VERTEX
  5
792
  8
0
 62
     9
 10
0.0
 20
0.0
 30
0.0
 70
   128
 71
    14
 72
    33
 73
    12
  0
VERTEX
  5
793
  8
0
 62
     9
 10
0.0
 20
0.0
 30
0.0
 70
   128
 71
     7
 72
    11
 73
     9
  0
VERTEX
  5
794
  8
0
 62
     9
 10
0.0
 20
0.0
 30
0.0
 70
   128
 71
     1
 72
    10
 73
     4
  0
SEQEND
  5
795
  8
0
 62
     9
  0
ENDBLK
  5
798
  8
0
  0
BLOCK
  8
0
  2
E3_NODE_24_
 70
     0
 10
0.0
 20
0.0
 30
0.0
  3
E3_NODE_24_
  1

  0
POLYLINE
  5
79A
  8
0
 62
     9
 66
     1
 10
0.0
 20
0.0
 30
0.0
 70
    64
 71
    39
 72
    43
  0
VERTEX
  5
79B
  8
0
 10
111.0059967041016
 20
9.718999862670898
 30
7.724999904632568
 70
   192
  0
VERTEX
  5
79C
  8
0
 10
108.1969985961914
 20
8.767000198364258
 30
7.471000194549561
 70
   192
  0
VERTEX
  5
79D
  8
0
 10
108.4990005493164
 20
7.131999969482422
 30
10.2790002822876
 70
   192
  0
VERTEX
  5
79E
  8
0
 10
111.1510009765625
 20
7.886000156402588
 30
10.76599979400635
 70
   192
  0
VERTEX
  5
79F
  8
0
 10
108.6880035400391
 20
4.646999835968018
 30
12.28699970245361
 70
   192
  0
VERTEX
  5
7A0
  8
0
 10
111.2009963989258
 20
5.089000225067139
 30
12.92300033569336
 70
   192
  0
VERTEX
  5
7A1
  8
0
 10
109.4929962158203
 20
1.651000022888184
 30
13.43099975585938
 70
   192
  0
VERTEX
  5
7A2
  8
0
 10
109.3919982910156
 20
1.644999980926514
 30
13.39599990844727
 70
   192
  0
VERTEX
  5
7A3
  8
0
 10
108.7570037841797
 20
1.641000032424927
 30
13.3430004119873
 70
   192
  0
VERTEX
  5
7A4
  8
0
 10
111.5240020751953
 20
1.83299994468689
 30
14.50399971008301
 70
   192
  0
VERTEX
  5
7A5
  8
0
 10
112.3499984741211
 20
2.473000049591064
 30
15.92700004577637
 70
   192
  0
VERTEX
  5
7A6
  8
0
 10
112.3499984741211
 20
4.673999786376953
 30
15.10999965667725
 70
   192
  0
VERTEX
  5
7A7
  8
0
 10
112.3499984741211
 20
2.095000028610229
 30
15.99499988555908
 70
   192
  0
VERTEX
  5
7A8
  8
0
 10
111.2730026245117
 20
1.753000020980835
 30
14.05200004577637
 70
   192
  0
VERTEX
  5
7A9
  8
0
 10
111.1320037841797
 20
1.745000004768372
 30
14.00300025939941
 70
   192
  0
VERTEX
  5
7AA
  8
0
 10
112.3499984741211
 20
6.461999893188477
 30
14.44600009918213
 70
   192
  0
VERTEX
  5
7AB
  8
0
 10
112.3499984741211
 20
8.736000061035156
 30
12.58699989318848
 70
   192
  0
VERTEX
  5
7AC
  8
0
 10
112.3499984741211
 20
6.090000152587891
 30
14.58399963378906
 70
   192
  0
VERTEX
  5
7AD
  8
0
 10
112.3499984741211
 20
9.770000457763672
 30
11.74300003051758
 70
   192
  0
VERTEX
  5
7AE
  8
0
 10
112.3499984741211
 20
11.64500045776367
 30
8.74899959564209
 70
   192
  0
VERTEX
  5
7AF
  8
0
 10
111.1709976196289
 20
10.6879997253418
 30
4.215000152587891
 70
   192
  0
VERTEX
  5
7B0
  8
0
 10
110.8919982910156
 20
10.53699970245361
 30
4.215000152587891
 70
   192
  0
VERTEX
  5
7B1
  8
0
 10
112.3499984741211
 20
11.98299980163574
 30
8.208999633789062
 70
   192
  0
VERTEX
  5
7B2
  8
0
 10
112.3499984741211
 20
12.95899963378906
 30
4.215000152587891
 70
   192
  0
VERTEX
  5
7B3
  8
0
 10
112.3499984741211
 20
11.91100025177002
 30
8.324999809265137
 70
   192
  0
VERTEX
  5
7B4
  8
0
 10
109.3369979858398
 20
9.697999954223633
 30
4.215000152587891
 70
   192
  0
VERTEX
  5
7B5
  8
0
 10
107.9079971313477
 20
9.520999908447266
 30
4.215000152587891
 70
   192
  0
VERTEX
  5
7B6
  8
0
 10
110.7300033569336
 20
10.44999980926514
 30
4.215000152587891
 70
   192
  0
VERTEX
  5
7B7
  8
0
 10
102.4530029296875
 20
8.312000274658203
 30
7.534999847412109
 70
   192
  0
VERTEX
  5
7B8
  8
0
 10
103.0820007324219
 20
6.806000232696533
 30
9.994000434875488
 70
   192
  0
VERTEX
  5
7B9
  8
0
 10
102.3960037231445
 20
8.449000358581543
 30
7.310999870300293
 70
   192
  0
VERTEX
  5
7BA
  8
0
 10
107.7740020751953
 20
9.505000114440918
 30
4.215000152587891
 70
   192
  0
VERTEX
  5
7BB
  8
0
 10
104.7890014648438
 20
9.13599967956543
 30
4.215000152587891
 70
   192
  0
VERTEX
  5
7BC
  8
0
 10
101.5650024414062
 20
9.019000053405762
 30
4.215000152587891
 70
   192
  0
VERTEX
  5
7BD
  8
0
 10
103.5670013427734
 20
4.559000015258789
 30
11.94099998474121
 70
   192
  0
VERTEX
  5
7BE
  8
0
 10
103.8320007324219
 20
1.634999990463257
 30
13.02799987792969
 70
   192
  0
VERTEX
  5
7BF
  8
0
 10
106.0940017700195
 20
1.623999953269958
 30
13.12100028991699
 70
   192
  0
VERTEX
  5
7C0
  8
0
 10
103.1490020751953
 20
6.645999908447266
 30
10.25500011444092
 70
   192
  0
VERTEX
  5
7C1
  8
0
 10
103.1399993896484
 20
6.668000221252441
 30
10.22000026702881
 70
   192
  0
VERTEX
  5
7C2
  8
0
 62
     9
 10
0.0
 20
0.0
 30
0.0
 70
   128
 71
     3
 72
     2
 73
     1
  0
VERTEX
  5
7C3
  8
0
 62
     9
 10
0.0
 20
0.0
 30
0.0
 70
   128
 71
     5
 72
     3
 73
     4
  0
VERTEX
  5
7C4
  8
0
 62
     9
 10
0.0
 20
0.0
 30
0.0
 70
   128
 71
     7
 72
     5
 73
     6
  0
VERTEX
  5
7C5
  8
0
 62
     9
 10
0.0
 20
0.0
 30
0.0
 70
   128
 71
     7
 72
     8
 73
     5
  0
VERTEX
  5
7C6
  8
0
 62
     9
 10
0.0
 20
0.0
 30
0.0
 70
   128
 71
     8
 72
     9
 73
     5
  0
VERTEX
  5
7C7
  8
0
 62
     9
 10
0.0
 20
0.0
 30
0.0
 70
   128
 71
    12
 72
    11
 73
    10
  0
VERTEX
  5
7C8
  8
0
 62
     9
 10
0.0
 20
0.0
 30
0.0
 70
   128
 71
    11
 72
    13
 73
    10
  0
VERTEX
  5
7C9
  8
0
 62
     9
 10
0.0
 20
0.0
 30
0.0
 70
   128
 71
    10
 72
    14
 73
     6
  0
VERTEX
  5
7CA
  8
0
 62
     9
 10
0.0
 20
0.0
 30
0.0
 70
   128
 71
    10
 72
     6
 73
    12
  0
VERTEX
  5
7CB
  8
0
 62
     9
 10
0.0
 20
0.0
 30
0.0
 70
   128
 71
    14
 72
    15
 73
     6
  0
VERTEX
  5
7CC
  8
0
 62
     9
 10
0.0
 20
0.0
 30
0.0
 70
   128
 71
    17
 72
    16
 73
     6
  0
VERTEX
  5
7CD
  8
0
 62
     9
 10
0.0
 20
0.0
 30
0.0
 70
   128
 71
    16
 72
    18
 73
     6
  0
VERTEX
  5
7CE
  8
0
 62
     9
 10
0.0
 20
0.0
 30
0.0
 70
   128
 71
     6
 72
     4
 73
    17
  0
VERTEX
  5
7CF
  8
0
 62
     9
 10
0.0
 20
0.0
 30
0.0
 70
   128
 71
    19
 72
     4
 73
     1
  0
VERTEX
  5
7D0
  8
0
 62
     9
 10
0.0
 20
0.0
 30
0.0
 70
   128
 71
     1
 72
    20
 73
    19
  0
VERTEX
  5
7D1
  8
0
 62
     9
 10
0.0
 20
0.0
 30
0.0
 70
   128
 71
    22
 72
    21
 73
     1
  0
VERTEX
  5
7D2
  8
0
 62
     9
 10
0.0
 20
0.0
 30
0.0
 70
   128
 71
    21
 72
    24
 73
    23
  0
VERTEX
  5
7D3
  8
0
 62
     9
 10
0.0
 20
0.0
 30
0.0
 70
   128
 71
    23
 72
    25
 73
     1
  0
VERTEX
  5
7D4
  8
0
 62
     9
 10
0.0
 20
0.0
 30
0.0
 70
   128
 71
    23
 72
     1
 73
    21
  0
VERTEX
  5
7D5
  8
0
 62
     9
 10
0.0
 20
0.0
 30
0.0
 70
   128
 71
    27
 72
    26
 73
     2
  0
VERTEX
  5
7D6
  8
0
 62
     9
 10
0.0
 20
0.0
 30
0.0
 70
   128
 71
    26
 72
    28
 73
     1
  0
VERTEX
  5
7D7
  8
0
 62
     9
 10
0.0
 20
0.0
 30
0.0
 70
   128
 71
     1
 72
     2
 73
    26
  0
VERTEX
  5
7D8
  8
0
 62
     9
 10
0.0
 20
0.0
 30
0.0
 70
   128
 71
    30
 72
    29
 73
     2
  0
VERTEX
  5
7D9
  8
0
 62
     9
 10
0.0
 20
0.0
 30
0.0
 70
   128
 71
    29
 72
    31
 73
     2
  0
VERTEX
  5
7DA
  8
0
 62
     9
 10
0.0
 20
0.0
 30
0.0
 70
   128
 71
    33
 72
    32
 73
     2
  0
VERTEX
  5
7DB
  8
0
 62
     9
 10
0.0
 20
0.0
 30
0.0
 70
   128
 71
     2
 72
    31
 73
    33
  0
VERTEX
  5
7DC
  8
0
 62
     9
 10
0.0
 20
0.0
 30
0.0
 70
   128
 71
    31
 72
    34
 73
    33
  0
VERTEX
  5
7DD
  8
0
 62
     9
 10
0.0
 20
0.0
 30
0.0
 70
   128
 71
    37
 72
    36
 73
    35
  0
VERTEX
  5
7DE
  8
0
 62
     9
 10
0.0
 20
0.0
 30
0.0
 70
   128
 71
    35
 72
     5
 73
    37
  0
VERTEX
  5
7DF
  8
0
 62
     9
 10
0.0
 20
0.0
 30
0.0
 70
   128
 71
    35
 72
    38
 73
     3
  0
VERTEX
  5
7E0
  8
0
 62
     9
 10
0.0
 20
0.0
 30
0.0
 70
   128
 71
     3
 72
     5
 73
    35
  0
VERTEX
  5
7E1
  8
0
 62
     9
 10
0.0
 20
0.0
 30
0.0
 70
   128
 71
    39
 72
    30
 73
     3
  0
VERTEX
  5
7E2
  8
0
 62
     9
 10
0.0
 20
0.0
 30
0.0
 70
   128
 71
     3
 72
    38
 73
    39
  0
VERTEX
  5
7E3
  8
0
 62
     9
 10
0.0
 20
0.0
 30
0.0
 70
   128
 71
     5
 72
     9
 73
    37
  0
VERTEX
  5
7E4
  8
0
 62
     9
 10
0.0
 20
0.0
 30
0.0
 70
   128
 71
     2
 72
     3
 73
    30
  0
VERTEX
  5
7E5
  8
0
 62
     9
 10
0.0
 20
0.0
 30
0.0
 70
   128
 71
     2
 72
    32
 73
    27
  0
VERTEX
  5
7E6
  8
0
 62
     9
 10
0.0
 20
0.0
 30
0.0
 70
   128
 71
     1
 72
    28
 73
    22
  0
VERTEX
  5
7E7
  8
0
 62
     9
 10
0.0
 20
0.0
 30
0.0
 70
   128
 71
     1
 72
    25
 73
    20
  0
VERTEX
  5
7E8
  8
0
 62
     9
 10
0.0
 20
0.0
 30
0.0
 70
   128
 71
     4
 72
    19
 73
    17
  0
VERTEX
  5
7E9
  8
0
 62
     9
 10
0.0
 20
0.0
 30
0.0
 70
   128
 71
     6
 72
    18
 73
    12
  0
VERTEX
  5
7EA
  8
0
 62
     9
 10
0.0
 20
0.0
 30
0.0
 70
   128
 71
     6
 72
    15
 73
     7
  0
VERTEX
  5
7EB
  8
0
 62
     9
 10
0.0
 20
0.0
 30
0.0
 70
   128
 71
     4
 72
     6
 73
     5
  0
VERTEX
  5
7EC
  8
0
 62
     9
 10
0.0
 20
0.0
 30
0.0
 70
   128
 71
     1
 72
     4
 73
     3
  0
SEQEND
  5
7ED
  8
0
 62
     9
  0
ENDBLK
  5
7F0
  8
0
  0
BLOCK
  8
0
  2
E3_NODE_25_
 70
     0
 10
0.0
 20
0.0
 30
0.0
  3
E3_NODE_25_
  1

  0
POLYLINE
  5
7F2
  8
0
 62
     9
 66
     1
 10
0.0
 20
0.0
 30
0.0
 70
    64
 71
    41
 72
    39
  0
VERTEX
  5
7F3
  8
0
 10
111.5240020751953
 20
0.0020000000949949
 30
14.59799957275391
 70
   192
  0
VERTEX
  5
7F4
  8
0
 10
111.140998840332
 20
0.0020000000949949
 30
14.0959997177124
 70
   192
  0
VERTEX
  5
7F5
  8
0
 10
111.2770004272461
 20
-1.748000025749207
 30
14.05599975585938
 70
   192
  0
VERTEX
  5
7F6
  8
0
 10
111.1309967041016
 20
-1.740000009536743
 30
14.00800037384033
 70
   192
  0
VERTEX
  5
7F7
  8
0
 10
109.484001159668
 20
0.0020000000949949
 30
13.64700031280518
 70
   192
  0
VERTEX
  5
7F8
  8
0
 10
109.484001159668
 20
-1.651999950408936
 30
13.45699977874756
 70
   192
  0
VERTEX
  5
7F9
  8
0
 10
112.3499984741211
 20
-12.95600032806396
 30
4.215000152587891
 70
   192
  0
VERTEX
  5
7FA
  8
0
 10
112.4260025024414
 20
-13.17599964141846
 30
4.214000225067139
 70
   192
  0
VERTEX
  5
7FB
  8
0
 10
112.427001953125
 20
-13.04100036621094
 30
5.322000026702881
 70
   192
  0
VERTEX
  5
7FC
  8
0
 10
112.427001953125
 20
-12.30900001525879
 30
7.502999782562256
 70
   192
  0
VERTEX
  5
7FD
  8
0
 10
112.4260025024414
 20
-11.86100006103516
 30
8.84000015258789
 70
   192
  0
VERTEX
  5
7FE
  8
0
 10
112.3499984741211
 20
-11.92000007629395
 30
8.348999977111816
 70
   192
  0
VERTEX
  5
7FF
  8
0
 10
112.3499984741211
 20
-11.92300033569336
 30
8.335000038146973
 70
   192
  0
VERTEX
  5
800
  8
0
 10
112.3499984741211
 20
-11.65499973297119
 30
8.756999969482422
 70
   192
  0
VERTEX
  5
801
  8
0
 10
112.4260025024414
 20
-11.70300006866455
 30
9.309000015258789
 70
   192
  0
VERTEX
  5
802
  8
0
 10
112.4260025024414
 20
-9.40999984741211
 30
12.44799995422363
 70
   192
  0
VERTEX
  5
803
  8
0
 10
112.3499984741211
 20
-9.60099983215332
 30
11.92700004577637
 70
   192
  0
VERTEX
  5
804
  8
0
 10
112.3499984741211
 20
-8.746000289916992
 30
12.60000038146973
 70
   192
  0
VERTEX
  5
805
  8
0
 10
112.3499984741211
 20
-9.543999671936035
 30
11.97200012207031
 70
   192
  0
VERTEX
  5
806
  8
0
 10
112.4260025024414
 20
-9.02299976348877
 30
12.82400035858154
 70
   192
  0
VERTEX
  5
807
  8
0
 10
112.4260025024414
 20
-9.010000228881836
 30
12.83600044250488
 70
   192
  0
VERTEX
  5
808
  8
0
 10
112.4260025024414
 20
-8.968000411987305
 30
12.87600040435791
 70
   192
  0
VERTEX
  5
809
  8
0
 10
112.427001953125
 20
-8.12399959564209
 30
13.59200000762939
 70
   192
  0
VERTEX
  5
80A
  8
0
 10
112.4260025024414
 20
-8.973999977111816
 30
12.86999988555908
 70
   192
  0
VERTEX
  5
80B
  8
0
 10
112.4260025024414
 20
-4.835999965667725
 30
15.45600032806396
 70
   192
  0
VERTEX
  5
80C
  8
0
 10
112.3499984741211
 20
-6.250999927520752
 30
14.5620002746582
 70
   192
  0
VERTEX
  5
80D
  8
0
 10
112.3499984741211
 20
-4.676000118255615
 30
15.11400032043457
 70
   192
  0
VERTEX
  5
80E
  8
0
 10
112.3499984741211
 20
-6.098999977111816
 30
14.61499977111816
 70
   192
  0
VERTEX
  5
80F
  8
0
 10
112.4260025024414
 20
-4.769999980926514
 30
15.49300003051758
 70
   192
  0
VERTEX
  5
810
  8
0
 10
112.4260025024414
 20
-3.094000101089478
 30
15.85799980163574
 70
   192
  0
VERTEX
  5
811
  8
0
 10
112.427001953125
 20
-0.781000018119812
 30
16.36100006103516
 70
   192
  0
VERTEX
  5
812
  8
0
 10
112.3499984741211
 20
-2.091000080108643
 30
15.99499988555908
 70
   192
  0
VERTEX
  5
813
  8
0
 10
112.3499984741211
 20
-2.230999946594238
 30
15.9709997177124
 70
   192
  0
VERTEX
  5
814
  8
0
 10
111.5250015258789
 20
-1.827000021934509
 30
14.50399971008301
 70
   192
  0
VERTEX
  5
815
  8
0
 10
112.0189971923828
 20
0.0020000000949949
 30
15.24699974060059
 70
   192
  0
VERTEX
  5
816
  8
0
 10
112.4260025024414
 20
0.0020000000949949
 30
16.38400077819824
 70
   192
  0
VERTEX
  5
817
  8
0
 10
108.7580032348633
 20
-1.63699996471405
 30
13.33899974822998
 70
   192
  0
VERTEX
  5
818
  8
0
 10
108.7180023193359
 20
0.0020000000949949
 30
13.43900012969971
 70
   192
  0
VERTEX
  5
819
  8
0
 10
103.8679962158203
 20
0.0020000000949949
 30
13.17700004577637
 70
   192
  0
VERTEX
  5
81A
  8
0
 10
109.2190017700195
 20
-1.638000011444092
 30
13.36800003051758
 70
   192
  0
VERTEX
  5
81B
  8
0
 10
103.8320007324219
 20
-1.631999969482422
 30
13.02799987792969
 70
   192
  0
VERTEX
  5
81C
  8
0
 62
     9
 10
0.0
 20
0.0
 30
0.0
 70
   128
 71
     3
 72
     2
 73
     1
  0
VERTEX
  5
81D
  8
0
 62
     9
 10
0.0
 20
0.0
 30
0.0
 70
   128
 71
     5
 72
     2
 73
     4
  0
VERTEX
  5
81E
  8
0
 62
     9
 10
0.0
 20
0.0
 30
0.0
 70
   128
 71
     4
 72
     6
 73
     5
  0
VERTEX
  5
81F
  8
0
 62
     9
 10
0.0
 20
0.0
 30
0.0
 70
   128
 71
     2
 72
     3
 73
     4
  0
VERTEX
  5
820
  8
0
 62
     9
 10
0.0
 20
0.0
 30
0.0
 70
   128
 71
     9
 72
     8
 73
     7
  0
VERTEX
  5
821
  8
0
 62
     9
 10
0.0
 20
0.0
 30
0.0
 70
   128
 71
     7
 72
    10
 73
     9
  0
VERTEX
  5
822
  8
0
 62
     9
 10
0.0
 20
0.0
 30
0.0
 70
   128
 71
    12
 72
    11
 73
    10
  0
VERTEX
  5
823
  8
0
 62
     9
 10
0.0
 20
0.0
 30
0.0
 70
   128
 71
    10
 72
    13
 73
    12
  0
VERTEX
  5
824
  8
0
 62
     9
 10
0.0
 20
0.0
 30
0.0
 70
   128
 71
    12
 72
    14
 73
    11
  0
VERTEX
  5
825
  8
0
 62
     9
 10
0.0
 20
0.0
 30
0.0
 70
   128
 71
    15
 72
    11
 73
    14
  0
VERTEX
  5
826
  8
0
 62
     9
 10
0.0
 20
0.0
 30
0.0
 70
   128
 71
    17
 72
    16
 73
    15
  0
VERTEX
  5
827
  8
0
 62
     9
 10
0.0
 20
0.0
 30
0.0
 70
   128
 71
    16
 72
    19
 73
    18
  0
VERTEX
  5
828
  8
0
 62
     9
 10
0.0
 20
0.0
 30
0.0
 70
   128
 71
    18
 72
    20
 73
    16
  0
VERTEX
  5
829
  8
0
 62
     9
 10
0.0
 20
0.0
 30
0.0
 70
   128
 71
    18
 72
    21
 73
    20
  0
VERTEX
  5
82A
  8
0
 62
     9
 10
0.0
 20
0.0
 30
0.0
 70
   128
 71
    16
 72
    17
 73
    19
  0
VERTEX
  5
82B
  8
0
 62
     9
 10
0.0
 20
0.0
 30
0.0
 70
   128
 71
    23
 72
    22
 73
    18
  0
VERTEX
  5
82C
  8
0
 62
     9
 10
0.0
 20
0.0
 30
0.0
 70
   128
 71
    22
 72
    24
 73
    18
  0
VERTEX
  5
82D
  8
0
 62
     9
 10
0.0
 20
0.0
 30
0.0
 70
   128
 71
    24
 72
    21
 73
    18
  0
VERTEX
  5
82E
  8
0
 62
     9
 10
0.0
 20
0.0
 30
0.0
 70
   128
 71
    26
 72
    25
 73
    23
  0
VERTEX
  5
82F
  8
0
 62
     9
 10
0.0
 20
0.0
 30
0.0
 70
   128
 71
    28
 72
    27
 73
    25
  0
VERTEX
  5
830
  8
0
 62
     9
 10
0.0
 20
0.0
 30
0.0
 70
   128
 71
    25
 72
    26
 73
    28
  0
VERTEX
  5
831
  8
0
 62
     9
 10
0.0
 20
0.0
 30
0.0
 70
   128
 71
    29
 72
    25
 73
    27
  0
VERTEX
  5
832
  8
0
 62
     9
 10
0.0
 20
0.0
 30
0.0
 70
   128
 71
    27
 72
    30
 73
    29
  0
VERTEX
  5
833
  8
0
 62
     9
 10
0.0
 20
0.0
 30
0.0
 70
   128
 71
    33
 72
    32
 73
    31
  0
VERTEX
  5
834
  8
0
 62
     9
 10
0.0
 20
0.0
 30
0.0
 70
   128
 71
    31
 72
    30
 73
    33
  0
VERTEX
  5
835
  8
0
 62
     9
 10
0.0
 20
0.0
 30
0.0
 70
   128
 71
    35
 72
    32
 73
    34
  0
VERTEX
  5
836
  8
0
 62
     9
 10
0.0
 20
0.0
 30
0.0
 70
   128
 71
    34
 72
     1
 73
    35
  0
VERTEX
  5
837
  8
0
 62
     9
 10
0.0
 20
0.0
 30
0.0
 70
   128
 71
    31
 72
    32
 73
    35
  0
VERTEX
  5
838
  8
0
 62
     9
 10
0.0
 20
0.0
 30
0.0
 70
   128
 71
    35
 72
    36
 73
    31
  0
VERTEX
  5
839
  8
0
 62
     9
 10
0.0
 20
0.0
 30
0.0
 70
   128
 71
    39
 72
    38
 73
    37
  0
VERTEX
  5
83A
  8
0
 62
     9
 10
0.0
 20
0.0
 30
0.0
 70
   128
 71
    40
 72
    37
 73
    38
  0
VERTEX
  5
83B
  8
0
 62
     9
 10
0.0
 20
0.0
 30
0.0
 70
   128
 71
    38
 72
     5
 73
    40
  0
VERTEX
  5
83C
  8
0
 62
     9
 10
0.0
 20
0.0
 30
0.0
 70
   128
 71
    37
 72
    41
 73
    39
  0
VERTEX
  5
83D
  8
0
 62
     9
 10
0.0
 20
0.0
 30
0.0
 70
   128
 71
     5
 72
     6
 73
    40
  0
VERTEX
  5
83E
  8
0
 62
     9
 10
0.0
 20
0.0
 30
0.0
 70
   128
 71
    27
 72
    33
 73
    30
  0
VERTEX
  5
83F
  8
0
 62
     9
 10
0.0
 20
0.0
 30
0.0
 70
   128
 71
    18
 72
    26
 73
    23
  0
VERTEX
  5
840
  8
0
 62
     9
 10
0.0
 20
0.0
 30
0.0
 70
   128
 71
    14
 72
    17
 73
    15
  0
VERTEX
  5
841
  8
0
 62
     9
 10
0.0
 20
0.0
 30
0.0
 70
   128
 71
     7
 72
    13
 73
    10
  0
VERTEX
  5
842
  8
0
 62
     9
 10
0.0
 20
0.0
 30
0.0
 70
   128
 71
     1
 72
    34
 73
     3
  0
SEQEND
  5
843
  8
0
 62
     9
  0
ENDBLK
  5
846
  8
0
  0
BLOCK
  8
0
  2
E3_NODE_26_
 70
     0
 10
0.0
 20
0.0
 30
0.0
  3
E3_NODE_26_
  1

  0
POLYLINE
  5
848
  8
0
 62
     9
 66
     1
 10
0.0
 20
0.0
 30
0.0
 70
    64
 71
    39
 72
    39
  0
VERTEX
  5
849
  8
0
 10
110.9089965820312
 20
-10.4689998626709
 30
2.293999910354614
 70
   192
  0
VERTEX
  5
84A
  8
0
 10
107.7799987792969
 20
-9.347000122070312
 30
2.509999990463257
 70
   192
  0
VERTEX
  5
84B
  8
0
 10
108.8320007324219
 20
-9.494999885559082
 30
0.7080000042915344
 70
   192
  0
VERTEX
  5
84C
  8
0
 10
107.6340026855469
 20
-9.130000114440918
 30
0.8389999866485596
 70
   192
  0
VERTEX
  5
84D
  8
0
 10
110.3320007324219
 20
-9.951000213623047
 30
0.5429999828338623
 70
   192
  0
VERTEX
  5
84E
  8
0
 10
112.4240036010742
 20
-13.21399974822998
 30
1.779999971389771
 70
   192
  0
VERTEX
  5
84F
  8
0
 10
111.1849975585938
 20
-10.88899993896484
 30
0.2010000050067902
 70
   192
  0
VERTEX
  5
850
  8
0
 10
110.7689971923828
 20
-10.43099975585938
 30
0.3680000007152557
 70
   192
  0
VERTEX
  5
851
  8
0
 10
111.8330001831055
 20
-11.60000038146973
 30
-0.0590000003576279
 70
   192
  0
VERTEX
  5
852
  8
0
 10
112.3499984741211
 20
-12.95600032806396
 30
4.215000152587891
 70
   192
  0
VERTEX
  5
853
  8
0
 10
111.1699981689453
 20
-10.68400001525879
 30
4.215000152587891
 70
   192
  0
VERTEX
  5
854
  8
0
 10
112.4260025024414
 20
-13.22000026702881
 30
3.164999961853027
 70
   192
  0
VERTEX
  5
855
  8
0
 10
112.427001953125
 20
-13.19299983978271
 30
3.986999988555908
 70
   192
  0
VERTEX
  5
856
  8
0
 10
112.4260025024414
 20
-13.17599964141846
 30
4.214000225067139
 70
   192
  0
VERTEX
  5
857
  8
0
 10
109.3369979858398
 20
-9.694999694824219
 30
4.215000152587891
 70
   192
  0
VERTEX
  5
858
  8
0
 10
110.7300033569336
 20
-10.44699954986572
 30
4.215000152587891
 70
   192
  0
VERTEX
  5
859
  8
0
 10
110.8919982910156
 20
-10.53400039672852
 30
4.215000152587891
 70
   192
  0
VERTEX
  5
85A
  8
0
 10
101.1190032958984
 20
-8.76099967956543
 30
2.634999990463257
 70
   192
  0
VERTEX
  5
85B
  8
0
 10
104.7799987792969
 20
-9.131999969482422
 30
4.215000152587891
 70
   192
  0
VERTEX
  5
85C
  8
0
 10
107.9079971313477
 20
-9.517999649047852
 30
4.215000152587891
 70
   192
  0
VERTEX
  5
85D
  8
0
 10
107.7740020751953
 20
-9.501999855041504
 30
4.215000152587891
 70
   192
  0
VERTEX
  5
85E
  8
0
 10
107.4509963989258
 20
-9.090999603271484
 30
0.8539999723434448
 70
   192
  0
VERTEX
  5
85F
  8
0
 10
107.5479965209961
 20
-9.105999946594238
 30
0.8479999899864197
 70
   192
  0
VERTEX
  5
860
  8
0
 10
106.765998840332
 20
-8.994000434875488
 30
0.8889999985694885
 70
   192
  0
VERTEX
  5
861
  8
0
 10
106.9509963989258
 20
-9.020000457763672
 30
0.8799999952316284
 70
   192
  0
VERTEX
  5
862
  8
0
 10
105.5279998779297
 20
-8.850000381469727
 30
0.9419999718666077
 70
   192
  0
VERTEX
  5
863
  8
0
 10
105.6330032348633
 20
-8.861000061035156
 30
0.9380000233650208
 70
   192
  0
VERTEX
  5
864
  8
0
 10
104.677001953125
 20
-8.767000198364258
 30
0.972000002861023
 70
   192
  0
VERTEX
  5
865
  8
0
 10
104.8820037841797
 20
-8.78600025177002
 30
0.9649999737739563
 70
   192
  0
VERTEX
  5
866
  8
0
 10
104.5299987792969
 20
-8.753000259399414
 30
0.9779999852180481
 70
   192
  0
VERTEX
  5
867
  8
0
 10
104.5619964599609
 20
-8.755999565124512
 30
0.9760000109672546
 70
   192
  0
VERTEX
  5
868
  8
0
 10
100.7289962768555
 20
-8.538999557495117
 30
1.258000016212463
 70
   192
  0
VERTEX
  5
869
  8
0
 10
104.2699966430664
 20
-8.729999542236328
 30
0.9879999756813049
 70
   192
  0
VERTEX
  5
86A
  8
0
 10
105.6470031738281
 20
-8.86299991607666
 30
0.9369999766349792
 70
   192
  0
VERTEX
  5
86B
  8
0
 10
105.8079986572266
 20
-8.880000114440918
 30
0.9309999942779541
 70
   192
  0
VERTEX
  5
86C
  8
0
 10
107.5599975585938
 20
-9.107999801635742
 30
0.847000002861023
 70
   192
  0
VERTEX
  5
86D
  8
0
 10
100.6740036010742
 20
-8.472000122070312
 30
1.069000005722046
 70
   192
  0
VERTEX
  5
86E
  8
0
 10
101.5650024414062
 20
-9.015000343322754
 30
4.215000152587891
 70
   192
  0
VERTEX
  5
86F
  8
0
 10
112.4209976196289
 20
-13.20300006866455
 30
-0.640999972820282
 70
   192
  0
VERTEX
  5
870
  8
0
 62
     9
 10
0.0
 20
0.0
 30
0.0
 70
   128
 71
     3
 72
     2
 73
     1
  0
VERTEX
  5
871
  8
0
 62
     9
 10
0.0
 20
0.0
 30
0.0
 70
   128
 71
     3
 72
     4
 73
     2
  0
VERTEX
  5
872
  8
0
 62
     9
 10
0.0
 20
0.0
 30
0.0
 70
   128
 71
     1
 72
     5
 73
     3
  0
VERTEX
  5
873
  8
0
 62
     9
 10
0.0
 20
0.0
 30
0.0
 70
   128
 71
     7
 72
     1
 73
     6
  0
VERTEX
  5
874
  8
0
 62
     9
 10
0.0
 20
0.0
 30
0.0
 70
   128
 71
     7
 72
     8
 73
     1
  0
VERTEX
  5
875
  8
0
 62
     9
 10
0.0
 20
0.0
 30
0.0
 70
   128
 71
     6
 72
     9
 73
     7
  0
VERTEX
  5
876
  8
0
 62
     9
 10
0.0
 20
0.0
 30
0.0
 70
   128
 71
    11
 72
    10
 73
     6
  0
VERTEX
  5
877
  8
0
 62
     9
 10
0.0
 20
0.0
 30
0.0
 70
   128
 71
     6
 72
     1
 73
    11
  0
VERTEX
  5
878
  8
0
 62
     9
 10
0.0
 20
0.0
 30
0.0
 70
   128
 71
    13
 72
    12
 73
    10
  0
VERTEX
  5
879
  8
0
 62
     9
 10
0.0
 20
0.0
 30
0.0
 70
   128
 71
    12
 72
     6
 73
    10
  0
VERTEX
  5
87A
  8
0
 62
     9
 10
0.0
 20
0.0
 30
0.0
 70
   128
 71
    10
 72
    14
 73
    13
  0
VERTEX
  5
87B
  8
0
 62
     9
 10
0.0
 20
0.0
 30
0.0
 70
   128
 71
    15
 72
     1
 73
     2
  0
VERTEX
  5
87C
  8
0
 62
     9
 10
0.0
 20
0.0
 30
0.0
 70
   128
 71
    15
 72
    16
 73
     1
  0
VERTEX
  5
87D
  8
0
 62
     9
 10
0.0
 20
0.0
 30
0.0
 70
   128
 71
    16
 72
    17
 73
     1
  0
VERTEX
  5
87E
  8
0
 62
     9
 10
0.0
 20
0.0
 30
0.0
 70
   128
 71
    19
 72
     2
 73
    18
  0
VERTEX
  5
87F
  8
0
 62
     9
 10
0.0
 20
0.0
 30
0.0
 70
   128
 71
    21
 72
    20
 73
     2
  0
VERTEX
  5
880
  8
0
 62
     9
 10
0.0
 20
0.0
 30
0.0
 70
   128
 71
     2
 72
    19
 73
    21
  0
VERTEX
  5
881
  8
0
 62
     9
 10
0.0
 20
0.0
 30
0.0
 70
   128
 71
    23
 72
    22
 73
     2
  0
VERTEX
  5
882
  8
0
 62
     9
 10
0.0
 20
0.0
 30
0.0
 70
   128
 71
    25
 72
    24
 73
     2
  0
VERTEX
  5
883
  8
0
 62
     9
 10
0.0
 20
0.0
 30
0.0
 70
   128
 71
     2
 72
    22
 73
    25
  0
VERTEX
  5
884
  8
0
 62
     9
 10
0.0
 20
0.0
 30
0.0
 70
   128
 71
    27
 72
    26
 73
     2
  0
VERTEX
  5
885
  8
0
 62
     9
 10
0.0
 20
0.0
 30
0.0
 70
   128
 71
    29
 72
    28
 73
     2
  0
VERTEX
  5
886
  8
0
 62
     9
 10
0.0
 20
0.0
 30
0.0
 70
   128
 71
    31
 72
    30
 73
     2
  0
VERTEX
  5
887
  8
0
 62
     9
 10
0.0
 20
0.0
 30
0.0
 70
   128
 71
     2
 72
    28
 73
    31
  0
VERTEX
  5
888
  8
0
 62
     9
 10
0.0
 20
0.0
 30
0.0
 70
   128
 71
    33
 72
    32
 73
    18
  0
VERTEX
  5
889
  8
0
 62
     9
 10
0.0
 20
0.0
 30
0.0
 70
   128
 71
    18
 72
     2
 73
    33
  0
VERTEX
  5
88A
  8
0
 62
     9
 10
0.0
 20
0.0
 30
0.0
 70
   128
 71
     2
 72
    30
 73
    33
  0
VERTEX
  5
88B
  8
0
 62
     9
 10
0.0
 20
0.0
 30
0.0
 70
   128
 71
     2
 72
    26
 73
    29
  0
VERTEX
  5
88C
  8
0
 62
     9
 10
0.0
 20
0.0
 30
0.0
 70
   128
 71
     2
 72
    34
 73
    27
  0
VERTEX
  5
88D
  8
0
 62
     9
 10
0.0
 20
0.0
 30
0.0
 70
   128
 71
     2
 72
    35
 73
    34
  0
VERTEX
  5
88E
  8
0
 62
     9
 10
0.0
 20
0.0
 30
0.0
 70
   128
 71
     2
 72
    24
 73
    35
  0
VERTEX
  5
88F
  8
0
 62
     9
 10
0.0
 20
0.0
 30
0.0
 70
   128
 71
     2
 72
    36
 73
    23
  0
VERTEX
  5
890
  8
0
 62
     9
 10
0.0
 20
0.0
 30
0.0
 70
   128
 71
    33
 72
    37
 73
    32
  0
VERTEX
  5
891
  8
0
 62
     9
 10
0.0
 20
0.0
 30
0.0
 70
   128
 71
     2
 72
     4
 73
    36
  0
VERTEX
  5
892
  8
0
 62
     9
 10
0.0
 20
0.0
 30
0.0
 70
   128
 71
    18
 72
    38
 73
    19
  0
VERTEX
  5
893
  8
0
 62
     9
 10
0.0
 20
0.0
 30
0.0
 70
   128
 71
     2
 72
    20
 73
    15
  0
VERTEX
  5
894
  8
0
 62
     9
 10
0.0
 20
0.0
 30
0.0
 70
   128
 71
     1
 72
    17
 73
    11
  0
VERTEX
  5
895
  8
0
 62
     9
 10
0.0
 20
0.0
 30
0.0
 70
   128
 71
     6
 72
    39
 73
     9
  0
VERTEX
  5
896
  8
0
 62
     9
 10
0.0
 20
0.0
 30
0.0
 70
   128
 71
     1
 72
     8
 73
     5
  0
SEQEND
  5
897
  8
0
 62
     9
  0
ENDBLK
  5
89A
  8
0
  0
BLOCK
  8
0
  2
E3_NODE_27_
 70
     0
 10
0.0
 20
0.0
 30
0.0
  3
E3_NODE_27_
  1

  0
POLYLINE
  5
89C
  8
0
 62
     9
 66
     1
 10
0.0
 20
0.0
 30
0.0
 70
    64
 71
    17
 72
    15
  0
VERTEX
  5
89D
  8
0
 10
102.2089996337891
 20
-8.677000045776367
 30
6.599999904632568
 70
   192
  0
VERTEX
  5
89E
  8
0
 10
102.4489974975586
 20
-8.211000442504883
 30
7.531000137329102
 70
   192
  0
VERTEX
  5
89F
  8
0
 10
102.4530029296875
 20
8.312000274658203
 30
7.534999847412109
 70
   192
  0
VERTEX
  5
8A0
  8
0
 10
102.3960037231445
 20
8.449000358581543
 30
7.310999870300293
 70
   192
  0
VERTEX
  5
8A1
  8
0
 10
101.5650024414062
 20
9.019000053405762
 30
4.215000152587891
 70
   192
  0
VERTEX
  5
8A2
  8
0
 10
101.5650024414062
 20
-9.015000343322754
 30
4.215000152587891
 70
   192
  0
VERTEX
  5
8A3
  8
0
 10
103.0820007324219
 20
6.806000232696533
 30
9.994000434875488
 70
   192
  0
VERTEX
  5
8A4
  8
0
 10
103.0739974975586
 20
-6.796000003814697
 30
9.963000297546387
 70
   192
  0
VERTEX
  5
8A5
  8
0
 10
103.1279983520508
 20
-6.552000045776367
 30
10.17700004577637
 70
   192
  0
VERTEX
  5
8A6
  8
0
 10
103.1399993896484
 20
6.668000221252441
 30
10.22000026702881
 70
   192
  0
VERTEX
  5
8A7
  8
0
 10
102.9990005493164
 20
-7.144000053405762
 30
9.657999992370605
 70
   192
  0
VERTEX
  5
8A8
  8
0
 10
103.5670013427734
 20
4.559000015258789
 30
11.94099998474121
 70
   192
  0
VERTEX
  5
8A9
  8
0
 10
103.1490020751953
 20
6.645999908447266
 30
10.25500011444092
 70
   192
  0
VERTEX
  5
8AA
  8
0
 10
103.8320007324219
 20
1.634999990463257
 30
13.02799987792969
 70
   192
  0
VERTEX
  5
8AB
  8
0
 10
103.8679962158203
 20
0.0020000000949949
 30
13.17700004577637
 70
   192
  0
VERTEX
  5
8AC
  8
0
 10
103.5739974975586
 20
-4.505000114440918
 30
11.97000026702881
 70
   192
  0
VERTEX
  5
8AD
  8
0
 10
103.8320007324219
 20
-1.631999969482422
 30
13.02799987792969
 70
   192
  0
VERTEX
  5
8AE
  8
0
 62
     9
 10
0.0
 20
0.0
 30
0.0
 70
   128
 71
     3
 72
     2
 73
     1
  0
VERTEX
  5
8AF
  8
0
 62
     9
 10
0.0
 20
0.0
 30
0.0
 70
   128
 71
     1
 72
     4
 73
     3
  0
VERTEX
  5
8B0
  8
0
 62
     9
 10
0.0
 20
0.0
 30
0.0
 70
   128
 71
     1
 72
     6
 73
     5
  0
VERTEX
  5
8B1
  8
0
 62
     9
 10
0.0
 20
0.0
 30
0.0
 70
   128
 71
     9
 72
     8
 73
     7
  0
VERTEX
  5
8B2
  8
0
 62
     9
 10
0.0
 20
0.0
 30
0.0
 70
   128
 71
     7
 72
    10
 73
     9
  0
VERTEX
  5
8B3
  8
0
 62
     9
 10
0.0
 20
0.0
 30
0.0
 70
   128
 71
    11
 72
     2
 73
     3
  0
VERTEX
  5
8B4
  8
0
 62
     9
 10
0.0
 20
0.0
 30
0.0
 70
   128
 71
     3
 72
     8
 73
    11
  0
VERTEX
  5
8B5
  8
0
 62
     9
 10
0.0
 20
0.0
 30
0.0
 70
   128
 71
    13
 72
    12
 73
     9
  0
VERTEX
  5
8B6
  8
0
 62
     9
 10
0.0
 20
0.0
 30
0.0
 70
   128
 71
    12
 72
    14
 73
     9
  0
VERTEX
  5
8B7
  8
0
 62
     9
 10
0.0
 20
0.0
 30
0.0
 70
   128
 71
    14
 72
    15
 73
     9
  0
VERTEX
  5
8B8
  8
0
 62
     9
 10
0.0
 20
0.0
 30
0.0
 70
   128
 71
    17
 72
    16
 73
     9
  0
VERTEX
  5
8B9
  8
0
 62
     9
 10
0.0
 20
0.0
 30
0.0
 70
   128
 71
     9
 72
    15
 73
    17
  0
VERTEX
  5
8BA
  8
0
 62
     9
 10
0.0
 20
0.0
 30
0.0
 70
   128
 71
     9
 72
    10
 73
    13
  0
VERTEX
  5
8BB
  8
0
 62
     9
 10
0.0
 20
0.0
 30
0.0
 70
   128
 71
     8
 72
     3
 73
     7
  0
VERTEX
  5
8BC
  8
0
 62
     9
 10
0.0
 20
0.0
 30
0.0
 70
   128
 71
     1
 72
     5
 73
     4
  0
SEQEND
  5
8BD
  8
0
 62
     9
  0
ENDBLK
  5
8C0
  8
0
  0
BLOCK
  8
0
  2
E3_NODE_28_
 70
     0
 10
0.0
 20
0.0
 30
0.0
  3
E3_NODE_28_
  1

  0
POLYLINE
  5
8C2
  8
0
 62
     9
 66
     1
 10
0.0
 20
0.0
 30
0.0
 70
    64
 71
    39
 72
    43
  0
VERTEX
  5
8C3
  8
0
 10
111.0059967041016
 20
-9.715999603271484
 30
7.724999904632568
 70
   192
  0
VERTEX
  5
8C4
  8
0
 10
111.1520004272461
 20
-7.882999897003174
 30
10.76599979400635
 70
   192
  0
VERTEX
  5
8C5
  8
0
 10
108.4990005493164
 20
-7.127999782562256
 30
10.2790002822876
 70
   192
  0
VERTEX
  5
8C6
  8
0
 10
111.2009963989258
 20
-5.085999965667725
 30
12.92300033569336
 70
   192
  0
VERTEX
  5
8C7
  8
0
 10
108.6880035400391
 20
-4.644000053405762
 30
12.28699970245361
 70
   192
  0
VERTEX
  5
8C8
  8
0
 10
108.1969985961914
 20
-8.763999938964844
 30
7.471000194549561
 70
   192
  0
VERTEX
  5
8C9
  8
0
 10
109.3369979858398
 20
-9.694999694824219
 30
4.215000152587891
 70
   192
  0
VERTEX
  5
8CA
  8
0
 10
107.7740020751953
 20
-9.501999855041504
 30
4.215000152587891
 70
   192
  0
VERTEX
  5
8CB
  8
0
 10
107.9079971313477
 20
-9.517999649047852
 30
4.215000152587891
 70
   192
  0
VERTEX
  5
8CC
  8
0
 10
112.3499984741211
 20
-11.92300033569336
 30
8.335000038146973
 70
   192
  0
VERTEX
  5
8CD
  8
0
 10
111.1699981689453
 20
-10.68400001525879
 30
4.215000152587891
 70
   192
  0
VERTEX
  5
8CE
  8
0
 10
110.7300033569336
 20
-10.44699954986572
 30
4.215000152587891
 70
   192
  0
VERTEX
  5
8CF
  8
0
 10
110.8919982910156
 20
-10.53400039672852
 30
4.215000152587891
 70
   192
  0
VERTEX
  5
8D0
  8
0
 10
112.3499984741211
 20
-11.65499973297119
 30
8.756999969482422
 70
   192
  0
VERTEX
  5
8D1
  8
0
 10
112.3499984741211
 20
-9.60099983215332
 30
11.92700004577637
 70
   192
  0
VERTEX
  5
8D2
  8
0
 10
112.3499984741211
 20
-11.92000007629395
 30
8.348999977111816
 70
   192
  0
VERTEX
  5
8D3
  8
0
 10
112.3499984741211
 20
-8.746000289916992
 30
12.60000038146973
 70
   192
  0
VERTEX
  5
8D4
  8
0
 10
112.3499984741211
 20
-6.250999927520752
 30
14.5620002746582
 70
   192
  0
VERTEX
  5
8D5
  8
0
 10
112.3499984741211
 20
-9.543999671936035
 30
11.97200012207031
 70
   192
  0
VERTEX
  5
8D6
  8
0
 10
111.5250015258789
 20
-1.827000021934509
 30
14.50399971008301
 70
   192
  0
VERTEX
  5
8D7
  8
0
 10
112.3499984741211
 20
-4.676000118255615
 30
15.11400032043457
 70
   192
  0
VERTEX
  5
8D8
  8
0
 10
112.3499984741211
 20
-2.230999946594238
 30
15.9709997177124
 70
   192
  0
VERTEX
  5
8D9
  8
0
 10
112.3499984741211
 20
-2.091000080108643
 30
15.99499988555908
 70
   192
  0
VERTEX
  5
8DA
  8
0
 10
112.3499984741211
 20
-6.098999977111816
 30
14.61499977111816
 70
   192
  0
VERTEX
  5
8DB
  8
0
 10
111.2770004272461
 20
-1.748000025749207
 30
14.05599975585938
 70
   192
  0
VERTEX
  5
8DC
  8
0
 10
111.1309967041016
 20
-1.740000009536743
 30
14.00800037384033
 70
   192
  0
VERTEX
  5
8DD
  8
0
 10
109.484001159668
 20
-1.651999950408936
 30
13.45699977874756
 70
   192
  0
VERTEX
  5
8DE
  8
0
 10
109.2190017700195
 20
-1.638000011444092
 30
13.36800003051758
 70
   192
  0
VERTEX
  5
8DF
  8
0
 10
103.5739974975586
 20
-4.505000114440918
 30
11.97000026702881
 70
   192
  0
VERTEX
  5
8E0
  8
0
 10
103.1279983520508
 20
-6.552000045776367
 30
10.17700004577637
 70
   192
  0
VERTEX
  5
8E1
  8
0
 10
108.7580032348633
 20
-1.63699996471405
 30
13.33899974822998
 70
   192
  0
VERTEX
  5
8E2
  8
0
 10
103.8320007324219
 20
-1.631999969482422
 30
13.02799987792969
 70
   192
  0
VERTEX
  5
8E3
  8
0
 10
102.2089996337891
 20
-8.677000045776367
 30
6.599999904632568
 70
   192
  0
VERTEX
  5
8E4
  8
0
 10
101.5650024414062
 20
-9.015000343322754
 30
4.215000152587891
 70
   192
  0
VERTEX
  5
8E5
  8
0
 10
104.7799987792969
 20
-9.131999969482422
 30
4.215000152587891
 70
   192
  0
VERTEX
  5
8E6
  8
0
 10
102.4489974975586
 20
-8.211000442504883
 30
7.531000137329102
 70
   192
  0
VERTEX
  5
8E7
  8
0
 10
102.9990005493164
 20
-7.144000053405762
 30
9.657999992370605
 70
   192
  0
VERTEX
  5
8E8
  8
0
 10
103.0739974975586
 20
-6.796000003814697
 30
9.963000297546387
 70
   192
  0
VERTEX
  5
8E9
  8
0
 10
112.3499984741211
 20
-12.95600032806396
 30
4.215000152587891
 70
   192
  0
VERTEX
  5
8EA
  8
0
 62
     9
 10
0.0
 20
0.0
 30
0.0
 70
   128
 71
     3
 72
     2
 73
     1
  0
VERTEX
  5
8EB
  8
0
 62
     9
 10
0.0
 20
0.0
 30
0.0
 70
   128
 71
     5
 72
     4
 73
     2
  0
VERTEX
  5
8EC
  8
0
 62
     9
 10
0.0
 20
0.0
 30
0.0
 70
   128
 71
     7
 72
     6
 73
     1
  0
VERTEX
  5
8ED
  8
0
 62
     9
 10
0.0
 20
0.0
 30
0.0
 70
   128
 71
     9
 72
     8
 73
     6
  0
VERTEX
  5
8EE
  8
0
 62
     9
 10
0.0
 20
0.0
 30
0.0
 70
   128
 71
     6
 72
     7
 73
     9
  0
VERTEX
  5
8EF
  8
0
 62
     9
 10
0.0
 20
0.0
 30
0.0
 70
   128
 71
    11
 72
     1
 73
    10
  0
VERTEX
  5
8F0
  8
0
 62
     9
 10
0.0
 20
0.0
 30
0.0
 70
   128
 71
    13
 72
    12
 73
     1
  0
VERTEX
  5
8F1
  8
0
 62
     9
 10
0.0
 20
0.0
 30
0.0
 70
   128
 71
     1
 72
    11
 73
    13
  0
VERTEX
  5
8F2
  8
0
 62
     9
 10
0.0
 20
0.0
 30
0.0
 70
   128
 71
     2
 72
    15
 73
    14
  0
VERTEX
  5
8F3
  8
0
 62
     9
 10
0.0
 20
0.0
 30
0.0
 70
   128
 71
    14
 72
     1
 73
     2
  0
VERTEX
  5
8F4
  8
0
 62
     9
 10
0.0
 20
0.0
 30
0.0
 70
   128
 71
    16
 72
    10
 73
     1
  0
VERTEX
  5
8F5
  8
0
 62
     9
 10
0.0
 20
0.0
 30
0.0
 70
   128
 71
     1
 72
    14
 73
    16
  0
VERTEX
  5
8F6
  8
0
 62
     9
 10
0.0
 20
0.0
 30
0.0
 70
   128
 71
    17
 72
     2
 73
     4
  0
VERTEX
  5
8F7
  8
0
 62
     9
 10
0.0
 20
0.0
 30
0.0
 70
   128
 71
     4
 72
    18
 73
    17
  0
VERTEX
  5
8F8
  8
0
 62
     9
 10
0.0
 20
0.0
 30
0.0
 70
   128
 71
    17
 72
    19
 73
     2
  0
VERTEX
  5
8F9
  8
0
 62
     9
 10
0.0
 20
0.0
 30
0.0
 70
   128
 71
    21
 72
     4
 73
    20
  0
VERTEX
  5
8FA
  8
0
 62
     9
 10
0.0
 20
0.0
 30
0.0
 70
   128
 71
    20
 72
    22
 73
    21
  0
VERTEX
  5
8FB
  8
0
 62
     9
 10
0.0
 20
0.0
 30
0.0
 70
   128
 71
    20
 72
    23
 73
    22
  0
VERTEX
  5
8FC
  8
0
 62
     9
 10
0.0
 20
0.0
 30
0.0
 70
   128
 71
    21
 72
    24
 73
     4
  0
VERTEX
  5
8FD
  8
0
 62
     9
 10
0.0
 20
0.0
 30
0.0
 70
   128
 71
     4
 72
    25
 73
    20
  0
VERTEX
  5
8FE
  8
0
 62
     9
 10
0.0
 20
0.0
 30
0.0
 70
   128
 71
    27
 72
    26
 73
     4
  0
VERTEX
  5
8FF
  8
0
 62
     9
 10
0.0
 20
0.0
 30
0.0
 70
   128
 71
     4
 72
     5
 73
    27
  0
VERTEX
  5
900
  8
0
 62
     9
 10
0.0
 20
0.0
 30
0.0
 70
   128
 71
     5
 72
    28
 73
    27
  0
VERTEX
  5
901
  8
0
 62
     9
 10
0.0
 20
0.0
 30
0.0
 70
   128
 71
    29
 72
     5
 73
     3
  0
VERTEX
  5
902
  8
0
 62
     9
 10
0.0
 20
0.0
 30
0.0
 70
   128
 71
     3
 72
    30
 73
    29
  0
VERTEX
  5
903
  8
0
 62
     9
 10
0.0
 20
0.0
 30
0.0
 70
   128
 71
    32
 72
    31
 73
     5
  0
VERTEX
  5
904
  8
0
 62
     9
 10
0.0
 20
0.0
 30
0.0
 70
   128
 71
     5
 72
    29
 73
    32
  0
VERTEX
  5
905
  8
0
 62
     9
 10
0.0
 20
0.0
 30
0.0
 70
   128
 71
    35
 72
    34
 73
    33
  0
VERTEX
  5
906
  8
0
 62
     9
 10
0.0
 20
0.0
 30
0.0
 70
   128
 71
    33
 72
    36
 73
     6
  0
VERTEX
  5
907
  8
0
 62
     9
 10
0.0
 20
0.0
 30
0.0
 70
   128
 71
    36
 72
    37
 73
     6
  0
VERTEX
  5
908
  8
0
 62
     9
 10
0.0
 20
0.0
 30
0.0
 70
   128
 71
     6
 72
     8
 73
    33
  0
VERTEX
  5
909
  8
0
 62
     9
 10
0.0
 20
0.0
 30
0.0
 70
   128
 71
    37
 72
    38
 73
     3
  0
VERTEX
  5
90A
  8
0
 62
     9
 10
0.0
 20
0.0
 30
0.0
 70
   128
 71
     3
 72
     6
 73
    37
  0
VERTEX
  5
90B
  8
0
 62
     9
 10
0.0
 20
0.0
 30
0.0
 70
   128
 71
    33
 72
     8
 73
    35
  0
VERTEX
  5
90C
  8
0
 62
     9
 10
0.0
 20
0.0
 30
0.0
 70
   128
 71
     3
 72
    38
 73
    30
  0
VERTEX
  5
90D
  8
0
 62
     9
 10
0.0
 20
0.0
 30
0.0
 70
   128
 71
     5
 72
    31
 73
    28
  0
VERTEX
  5
90E
  8
0
 62
     9
 10
0.0
 20
0.0
 30
0.0
 70
   128
 71
     4
 72
    26
 73
    25
  0
VERTEX
  5
90F
  8
0
 62
     9
 10
0.0
 20
0.0
 30
0.0
 70
   128
 71
     4
 72
    24
 73
    18
  0
VERTEX
  5
910
  8
0
 62
     9
 10
0.0
 20
0.0
 30
0.0
 70
   128
 71
     2
 72
    19
 73
    15
  0
VERTEX
  5
911
  8
0
 62
     9
 10
0.0
 20
0.0
 30
0.0
 70
   128
 71
    10
 72
    39
 73
    11
  0
VERTEX
  5
912
  8
0
 62
     9
 10
0.0
 20
0.0
 30
0.0
 70
   128
 71
     1
 72
    12
 73
     7
  0
VERTEX
  5
913
  8
0
 62
     9
 10
0.0
 20
0.0
 30
0.0
 70
   128
 71
     2
 72
     3
 73
     5
  0
VERTEX
  5
914
  8
0
 62
     9
 10
0.0
 20
0.0
 30
0.0
 70
   128
 71
     1
 72
     6
 73
     3
  0
SEQEND
  5
915
  8
0
 62
     9
  0
ENDBLK
  5
918
  8
0
  0
BLOCK
  8
0
  2
E3_NODE_29_
 70
     0
 10
0.0
 20
0.0
 30
0.0
  3
E3_NODE_29_
  1

  0
POLYLINE
  5
91A
  8
0
 62
     9
 66
     1
 10
0.0
 20
0.0
 30
0.0
 70
    64
 71
    19
 72
    17
  0
VERTEX
  5
91B
  8
0
 10
120.4800033569336
 20
0.5389999747276306
 30
3.164999961853027
 70
   192
  0
VERTEX
  5
91C
  8
0
 10
120.4079971313477
 20
0.0020000000949949
 30
0.7940000295639038
 70
   192
  0
VERTEX
  5
91D
  8
0
 10
120.3489990234375
 20
0.0020000000949949
 30
0.0130000002682209
 70
   192
  0
VERTEX
  5
91E
  8
0
 10
119.0479965209961
 20
0.0020000000949949
 30
-7.017000198364258
 70
   192
  0
VERTEX
  5
91F
  8
0
 10
120.484001159668
 20
0.0020000000949949
 30
3.164999961853027
 70
   192
  0
VERTEX
  5
920
  8
0
 10
120.4660034179688
 20
0.0020000000949949
 30
2.023999929428101
 70
   192
  0
VERTEX
  5
921
  8
0
 10
119.015998840332
 20
0.0020000000949949
 30
-7.125
 70
   192
  0
VERTEX
  5
922
  8
0
 10
118.9899978637695
 20
2.382999897003174
 30
-6.948999881744385
 70
   192
  0
VERTEX
  5
923
  8
0
 10
120.4560012817383
 20
1.437000036239624
 30
3.164999961853027
 70
   192
  0
VERTEX
  5
924
  8
0
 10
120.2979965209961
 20
3.70199990272522
 30
3.164999961853027
 70
   192
  0
VERTEX
  5
925
  8
0
 10
119.0009994506836
 20
5.521999835968018
 30
-5.638000011444092
 70
   192
  0
VERTEX
  5
926
  8
0
 10
120.1740036010742
 20
4.769999980926514
 30
3.164999961853027
 70
   192
  0
VERTEX
  5
927
  8
0
 10
120.0319976806641
 20
5.755000114440918
 30
3.164999961853027
 70
   192
  0
VERTEX
  5
928
  8
0
 10
119.0019989013672
 20
8.17199993133545
 30
-3.26200008392334
 70
   192
  0
VERTEX
  5
929
  8
0
 10
118.9940032958984
 20
9.822999954223633
 30
-0.2150000035762787
 70
   192
  0
VERTEX
  5
92A
  8
0
 10
119.0479965209961
 20
10.18299961090088
 30
3.164999961853027
 70
   192
  0
VERTEX
  5
92B
  8
0
 10
119.015998840332
 20
10.29199981689453
 30
3.164999961853027
 70
   192
  0
VERTEX
  5
92C
  8
0
 10
118.984001159668
 20
10.39999961853027
 30
3.164999961853027
 70
   192
  0
VERTEX
  5
92D
  8
0
 10
118.984001159668
 20
0.0020000000949949
 30
-7.234000205993652
 70
   192
  0
VERTEX
  5
92E
  8
0
 62
     9
 10
0.0
 20
0.0
 30
0.0
 70
   128
 71
     3
 72
     2
 73
     1
  0
VERTEX
  5
92F
  8
0
 62
     9
 10
0.0
 20
0.0
 30
0.0
 70
   128
 71
     1
 72
     4
 73
     3
  0
VERTEX
  5
930
  8
0
 62
     9
 10
0.0
 20
0.0
 30
0.0
 70
   128
 71
     6
 72
     5
 73
     1
  0
VERTEX
  5
931
  8
0
 62
     9
 10
0.0
 20
0.0
 30
0.0
 70
   128
 71
     1
 72
     2
 73
     6
  0
VERTEX
  5
932
  8
0
 62
     9
 10
0.0
 20
0.0
 30
0.0
 70
   128
 71
     9
 72
     8
 73
     7
  0
VERTEX
  5
933
  8
0
 62
     9
 10
0.0
 20
0.0
 30
0.0
 70
   128
 71
    11
 72
     8
 73
    10
  0
VERTEX
  5
934
  8
0
 62
     9
 10
0.0
 20
0.0
 30
0.0
 70
   128
 71
    10
 72
    12
 73
    11
  0
VERTEX
  5
935
  8
0
 62
     9
 10
0.0
 20
0.0
 30
0.0
 70
   128
 71
     8
 72
     9
 73
    10
  0
VERTEX
  5
936
  8
0
 62
     9
 10
0.0
 20
0.0
 30
0.0
 70
   128
 71
    15
 72
    14
 73
    13
  0
VERTEX
  5
937
  8
0
 62
     9
 10
0.0
 20
0.0
 30
0.0
 70
   128
 71
    14
 72
    11
 73
    13
  0
VERTEX
  5
938
  8
0
 62
     9
 10
0.0
 20
0.0
 30
0.0
 70
   128
 71
    13
 72
    16
 73
    15
  0
VERTEX
  5
939
  8
0
 62
     9
 10
0.0
 20
0.0
 30
0.0
 70
   128
 71
    16
 72
    17
 73
    15
  0
VERTEX
  5
93A
  8
0
 62
     9
 10
0.0
 20
0.0
 30
0.0
 70
   128
 71
    11
 72
    12
 73
    13
  0
VERTEX
  5
93B
  8
0
 62
     9
 10
0.0
 20
0.0
 30
0.0
 70
   128
 71
     7
 72
     1
 73
     9
  0
VERTEX
  5
93C
  8
0
 62
     9
 10
0.0
 20
0.0
 30
0.0
 70
   128
 71
     1
 72
     7
 73
     4
  0
VERTEX
  5
93D
  8
0
 62
     9
 10
0.0
 20
0.0
 30
0.0
 70
   128
 71
    17
 72
    18
 73
    15
  0
VERTEX
  5
93E
  8
0
 62
     9
 10
0.0
 20
0.0
 30
0.0
 70
   128
 71
     8
 72
    19
 73
     7
  0
SEQEND
  5
93F
  8
0
 62
     9
  0
ENDBLK
  5
942
  8
0
  0
BLOCK
  8
0
  2
E3_NODE_30_
 70
     0
 10
0.0
 20
0.0
 30
0.0
  3
E3_NODE_30_
  1

  0
POLYLINE
  5
944
  8
0
 62
     9
 66
     1
 10
0.0
 20
0.0
 30
0.0
 70
    64
 71
    20
 72
    18
  0
VERTEX
  5
945
  8
0
 10
119.9189987182617
 20
-6.428999900817871
 30
3.164999961853027
 70
   192
  0
VERTEX
  5
946
  8
0
 10
119.0479965209961
 20
-10.18000030517578
 30
3.164999961853027
 70
   192
  0
VERTEX
  5
947
  8
0
 10
118.9899978637695
 20
-10.11200046539307
 30
0.7829999923706055
 70
   192
  0
VERTEX
  5
948
  8
0
 10
119.0009994506836
 20
-8.800000190734863
 30
-2.355999946594238
 70
   192
  0
VERTEX
  5
949
  8
0
 10
120.1809997558594
 20
-4.717000007629395
 30
3.164999961853027
 70
   192
  0
VERTEX
  5
94A
  8
0
 10
119.0019989013672
 20
-6.425000190734863
 30
-5.00600004196167
 70
   192
  0
VERTEX
  5
94B
  8
0
 10
118.9940032958984
 20
-3.378000020980835
 30
-6.657000064849854
 70
   192
  0
VERTEX
  5
94C
  8
0
 10
120.2570037841797
 20
-4.081999778747559
 30
3.164999961853027
 70
   192
  0
VERTEX
  5
94D
  8
0
 10
120.4029998779297
 20
-2.434000015258789
 30
3.164999961853027
 70
   192
  0
VERTEX
  5
94E
  8
0
 10
120.4380035400391
 20
-1.83899998664856
 30
3.164999961853027
 70
   192
  0
VERTEX
  5
94F
  8
0
 10
119.015998840332
 20
0.0020000000949949
 30
-7.125
 70
   192
  0
VERTEX
  5
950
  8
0
 10
120.4800033569336
 20
-0.5600000023841858
 30
3.164999961853027
 70
   192
  0
VERTEX
  5
951
  8
0
 10
120.4079971313477
 20
0.0020000000949949
 30
0.7940000295639038
 70
   192
  0
VERTEX
  5
952
  8
0
 10
120.4660034179688
 20
0.0020000000949949
 30
2.023999929428101
 70
   192
  0
VERTEX
  5
953
  8
0
 10
119.0479965209961
 20
0.0020000000949949
 30
-7.017000198364258
 70
   192
  0
VERTEX
  5
954
  8
0
 10
120.3489990234375
 20
0.0020000000949949
 30
0.0130000002682209
 70
   192
  0
VERTEX
  5
955
  8
0
 10
120.484001159668
 20
0.0020000000949949
 30
3.164999961853027
 70
   192
  0
VERTEX
  5
956
  8
0
 10
118.984001159668
 20
0.0020000000949949
 30
-7.234000205993652
 70
   192
  0
VERTEX
  5
957
  8
0
 10
119.015998840332
 20
-10.28800010681152
 30
3.164999961853027
 70
   192
  0
VERTEX
  5
958
  8
0
 10
118.984001159668
 20
-10.39599990844727
 30
3.164999961853027
 70
   192
  0
VERTEX
  5
959
  8
0
 62
     9
 10
0.0
 20
0.0
 30
0.0
 70
   128
 71
     3
 72
     2
 73
     1
  0
VERTEX
  5
95A
  8
0
 62
     9
 10
0.0
 20
0.0
 30
0.0
 70
   128
 71
     1
 72
     4
 73
     3
  0
VERTEX
  5
95B
  8
0
 62
     9
 10
0.0
 20
0.0
 30
0.0
 70
   128
 71
     6
 72
     1
 73
     5
  0
VERTEX
  5
95C
  8
0
 62
     9
 10
0.0
 20
0.0
 30
0.0
 70
   128
 71
     5
 72
     7
 73
     6
  0
VERTEX
  5
95D
  8
0
 62
     9
 10
0.0
 20
0.0
 30
0.0
 70
   128
 71
     1
 72
     6
 73
     4
  0
VERTEX
  5
95E
  8
0
 62
     9
 10
0.0
 20
0.0
 30
0.0
 70
   128
 71
     5
 72
     8
 73
     7
  0
VERTEX
  5
95F
  8
0
 62
     9
 10
0.0
 20
0.0
 30
0.0
 70
   128
 71
     8
 72
     9
 73
     7
  0
VERTEX
  5
960
  8
0
 62
     9
 10
0.0
 20
0.0
 30
0.0
 70
   128
 71
     9
 72
    10
 73
     7
  0
VERTEX
  5
961
  8
0
 62
     9
 10
0.0
 20
0.0
 30
0.0
 70
   128
 71
    10
 72
    12
 73
    11
  0
VERTEX
  5
962
  8
0
 62
     9
 10
0.0
 20
0.0
 30
0.0
 70
   128
 71
    11
 72
     7
 73
    10
  0
VERTEX
  5
963
  8
0
 62
     9
 10
0.0
 20
0.0
 30
0.0
 70
   128
 71
    14
 72
    13
 73
    12
  0
VERTEX
  5
964
  8
0
 62
     9
 10
0.0
 20
0.0
 30
0.0
 70
   128
 71
    16
 72
    15
 73
    12
  0
VERTEX
  5
965
  8
0
 62
     9
 10
0.0
 20
0.0
 30
0.0
 70
   128
 71
    15
 72
    11
 73
    12
  0
VERTEX
  5
966
  8
0
 62
     9
 10
0.0
 20
0.0
 30
0.0
 70
   128
 71
    12
 72
    13
 73
    16
  0
VERTEX
  5
967
  8
0
 62
     9
 10
0.0
 20
0.0
 30
0.0
 70
   128
 71
    12
 72
    17
 73
    14
  0
VERTEX
  5
968
  8
0
 62
     9
 10
0.0
 20
0.0
 30
0.0
 70
   128
 71
    11
 72
    18
 73
     7
  0
VERTEX
  5
969
  8
0
 62
     9
 10
0.0
 20
0.0
 30
0.0
 70
   128
 71
     3
 72
    19
 73
     2
  0
VERTEX
  5
96A
  8
0
 62
     9
 10
0.0
 20
0.0
 30
0.0
 70
   128
 71
     3
 72
    20
 73
    19
  0
SEQEND
  5
96B
  8
0
 62
     9
  0
ENDBLK
  5
96E
  8
0
  0
BLOCK
  8
0
  2
E3_NODE_31_
 70
     0
 10
0.0
 20
0.0
 30
0.0
  3
E3_NODE_31_
  1

  0
POLYLINE
  5
970
  8
0
 62
     9
 66
     1
 10
0.0
 20
0.0
 30
0.0
 70
    64
 71
    23
 72
    21
  0
VERTEX
  5
971
  8
0
 10
120.484001159668
 20
0.0020000000949949
 30
3.253000020980835
 70
   192
  0
VERTEX
  5
972
  8
0
 10
120.1740036010742
 20
4.769999980926514
 30
3.164999961853027
 70
   192
  0
VERTEX
  5
973
  8
0
 10
120.0319976806641
 20
5.755000114440918
 30
3.164999961853027
 70
   192
  0
VERTEX
  5
974
  8
0
 10
119.0479965209961
 20
10.18299961090088
 30
3.164999961853027
 70
   192
  0
VERTEX
  5
975
  8
0
 10
120.4560012817383
 20
1.437000036239624
 30
3.164999961853027
 70
   192
  0
VERTEX
  5
976
  8
0
 10
120.2979965209961
 20
3.70199990272522
 30
3.164999961853027
 70
   192
  0
VERTEX
  5
977
  8
0
 10
120.4800033569336
 20
0.5389999747276306
 30
3.164999961853027
 70
   192
  0
VERTEX
  5
978
  8
0
 10
120.484001159668
 20
0.0020000000949949
 30
3.164999961853027
 70
   192
  0
VERTEX
  5
979
  8
0
 10
119.015998840332
 20
10.29199981689453
 30
3.164999961853027
 70
   192
  0
VERTEX
  5
97A
  8
0
 10
118.9899978637695
 20
10.11499977111816
 30
5.546000003814697
 70
   192
  0
VERTEX
  5
97B
  8
0
 10
120.4580001831055
 20
0.0020000000949949
 30
4.538000106811523
 70
   192
  0
VERTEX
  5
97C
  8
0
 10
120.4670028686523
 20
0.0020000000949949
 30
4.285999774932861
 70
   192
  0
VERTEX
  5
97D
  8
0
 10
120.4290008544922
 20
0.0020000000949949
 30
5.177999973297119
 70
   192
  0
VERTEX
  5
97E
  8
0
 10
120.3690032958984
 20
0.0020000000949949
 30
6.071000099182129
 70
   192
  0
VERTEX
  5
97F
  8
0
 10
120.4140014648438
 20
0.0020000000949949
 30
5.429999828338623
 70
   192
  0
VERTEX
  5
980
  8
0
 10
120.3489990234375
 20
0.0020000000949949
 30
6.322999954223633
 70
   192
  0
VERTEX
  5
981
  8
0
 10
119.0019989013672
 20
6.428999900817871
 30
11.33500003814697
 70
   192
  0
VERTEX
  5
982
  8
0
 10
118.9940032958984
 20
3.381999969482422
 30
12.98600006103516
 70
   192
  0
VERTEX
  5
983
  8
0
 10
119.0009994506836
 20
8.803999900817871
 30
8.6850004196167
 70
   192
  0
VERTEX
  5
984
  8
0
 10
119.0479965209961
 20
0.0020000000949949
 30
13.3459997177124
 70
   192
  0
VERTEX
  5
985
  8
0
 10
119.015998840332
 20
0.0020000000949949
 30
13.45400047302246
 70
   192
  0
VERTEX
  5
986
  8
0
 10
118.984001159668
 20
0.0020000000949949
 30
13.5629997253418
 70
   192
  0
VERTEX
  5
987
  8
0
 10
118.984001159668
 20
10.39999961853027
 30
3.164999961853027
 70
   192
  0
VERTEX
  5
988
  8
0
 62
     9
 10
0.0
 20
0.0
 30
0.0
 70
   128
 71
     3
 72
     2
 73
     1
  0
VERTEX
  5
989
  8
0
 62
     9
 10
0.0
 20
0.0
 30
0.0
 70
   128
 71
     1
 72
     4
 73
     3
  0
VERTEX
  5
98A
  8
0
 62
     9
 10
0.0
 20
0.0
 30
0.0
 70
   128
 71
     6
 72
     5
 73
     1
  0
VERTEX
  5
98B
  8
0
 62
     9
 10
0.0
 20
0.0
 30
0.0
 70
   128
 71
     5
 72
     7
 73
     1
  0
VERTEX
  5
98C
  8
0
 62
     9
 10
0.0
 20
0.0
 30
0.0
 70
   128
 71
     1
 72
     2
 73
     6
  0
VERTEX
  5
98D
  8
0
 62
     9
 10
0.0
 20
0.0
 30
0.0
 70
   128
 71
     7
 72
     8
 73
     1
  0
VERTEX
  5
98E
  8
0
 62
     9
 10
0.0
 20
0.0
 30
0.0
 70
   128
 71
    11
 72
    10
 73
     9
  0
VERTEX
  5
98F
  8
0
 62
     9
 10
0.0
 20
0.0
 30
0.0
 70
   128
 71
     9
 72
    12
 73
    11
  0
VERTEX
  5
990
  8
0
 62
     9
 10
0.0
 20
0.0
 30
0.0
 70
   128
 71
     9
 72
     1
 73
    12
  0
VERTEX
  5
991
  8
0
 62
     9
 10
0.0
 20
0.0
 30
0.0
 70
   128
 71
    11
 72
    13
 73
    10
  0
VERTEX
  5
992
  8
0
 62
     9
 10
0.0
 20
0.0
 30
0.0
 70
   128
 71
    15
 72
    14
 73
    10
  0
VERTEX
  5
993
  8
0
 62
     9
 10
0.0
 20
0.0
 30
0.0
 70
   128
 71
    18
 72
    17
 73
    16
  0
VERTEX
  5
994
  8
0
 62
     9
 10
0.0
 20
0.0
 30
0.0
 70
   128
 71
    17
 72
    19
 73
    16
  0
VERTEX
  5
995
  8
0
 62
     9
 10
0.0
 20
0.0
 30
0.0
 70
   128
 71
    19
 72
    10
 73
    16
  0
VERTEX
  5
996
  8
0
 62
     9
 10
0.0
 20
0.0
 30
0.0
 70
   128
 71
    16
 72
    20
 73
    18
  0
VERTEX
  5
997
  8
0
 62
     9
 10
0.0
 20
0.0
 30
0.0
 70
   128
 71
    20
 72
    21
 73
    18
  0
VERTEX
  5
998
  8
0
 62
     9
 10
0.0
 20
0.0
 30
0.0
 70
   128
 71
    10
 72
    14
 73
    16
  0
VERTEX
  5
999
  8
0
 62
     9
 10
0.0
 20
0.0
 30
0.0
 70
   128
 71
    10
 72
    13
 73
    15
  0
VERTEX
  5
99A
  8
0
 62
     9
 10
0.0
 20
0.0
 30
0.0
 70
   128
 71
    21
 72
    22
 73
    18
  0
VERTEX
  5
99B
  8
0
 62
     9
 10
0.0
 20
0.0
 30
0.0
 70
   128
 71
     1
 72
     9
 73
     4
  0
VERTEX
  5
99C
  8
0
 62
     9
 10
0.0
 20
0.0
 30
0.0
 70
   128
 71
    10
 72
    23
 73
     9
  0
SEQEND
  5
99D
  8
0
 62
     9
  0
ENDBLK
  5
9A0
  8
0
  0
BLOCK
  8
0
  2
E3_NODE_32_
 70
     0
 10
0.0
 20
0.0
 30
0.0
  3
E3_NODE_32_
  1

  0
POLYLINE
  5
9A2
  8
0
 62
     9
 66
     1
 10
0.0
 20
0.0
 30
0.0
 70
    64
 71
    24
 72
    22
  0
VERTEX
  5
9A3
  8
0
 10
120.3489990234375
 20
0.0020000000949949
 30
6.322999954223633
 70
   192
  0
VERTEX
  5
9A4
  8
0
 10
119.0009994506836
 20
-5.519000053405762
 30
11.96700000762939
 70
   192
  0
VERTEX
  5
9A5
  8
0
 10
119.0019989013672
 20
-8.168000221252441
 30
9.592000007629395
 70
   192
  0
VERTEX
  5
9A6
  8
0
 10
119.0479965209961
 20
0.0020000000949949
 30
13.3459997177124
 70
   192
  0
VERTEX
  5
9A7
  8
0
 10
118.9899978637695
 20
-2.378999948501587
 30
13.27799987792969
 70
   192
  0
VERTEX
  5
9A8
  8
0
 10
118.9940032958984
 20
-9.819999694824219
 30
6.544000148773193
 70
   192
  0
VERTEX
  5
9A9
  8
0
 10
120.3690032958984
 20
0.0020000000949949
 30
6.071000099182129
 70
   192
  0
VERTEX
  5
9AA
  8
0
 10
120.4290008544922
 20
0.0020000000949949
 30
5.177999973297119
 70
   192
  0
VERTEX
  5
9AB
  8
0
 10
120.4140014648438
 20
0.0020000000949949
 30
5.429999828338623
 70
   192
  0
VERTEX
  5
9AC
  8
0
 10
120.4800033569336
 20
-0.5600000023841858
 30
3.164999961853027
 70
   192
  0
VERTEX
  5
9AD
  8
0
 10
120.484001159668
 20
0.0020000000949949
 30
3.253000020980835
 70
   192
  0
VERTEX
  5
9AE
  8
0
 10
120.4670028686523
 20
0.0020000000949949
 30
4.285999774932861
 70
   192
  0
VERTEX
  5
9AF
  8
0
 10
120.484001159668
 20
0.0020000000949949
 30
3.164999961853027
 70
   192
  0
VERTEX
  5
9B0
  8
0
 10
120.4580001831055
 20
0.0020000000949949
 30
4.538000106811523
 70
   192
  0
VERTEX
  5
9B1
  8
0
 10
120.2570037841797
 20
-4.081999778747559
 30
3.164999961853027
 70
   192
  0
VERTEX
  5
9B2
  8
0
 10
119.0479965209961
 20
-10.18000030517578
 30
3.164999961853027
 70
   192
  0
VERTEX
  5
9B3
  8
0
 10
119.9189987182617
 20
-6.428999900817871
 30
3.164999961853027
 70
   192
  0
VERTEX
  5
9B4
  8
0
 10
119.015998840332
 20
-10.28800010681152
 30
3.164999961853027
 70
   192
  0
VERTEX
  5
9B5
  8
0
 10
120.1809997558594
 20
-4.717000007629395
 30
3.164999961853027
 70
   192
  0
VERTEX
  5
9B6
  8
0
 10
120.4029998779297
 20
-2.434000015258789
 30
3.164999961853027
 70
   192
  0
VERTEX
  5
9B7
  8
0
 10
120.4380035400391
 20
-1.83899998664856
 30
3.164999961853027
 70
   192
  0
VERTEX
  5
9B8
  8
0
 10
119.015998840332
 20
0.0020000000949949
 30
13.45400047302246
 70
   192
  0
VERTEX
  5
9B9
  8
0
 10
118.984001159668
 20
-10.39599990844727
 30
3.164999961853027
 70
   192
  0
VERTEX
  5
9BA
  8
0
 10
118.984001159668
 20
0.0020000000949949
 30
13.5629997253418
 70
   192
  0
VERTEX
  5
9BB
  8
0
 62
     9
 10
0.0
 20
0.0
 30
0.0
 70
   128
 71
     3
 72
     2
 73
     1
  0
VERTEX
  5
9BC
  8
0
 62
     9
 10
0.0
 20
0.0
 30
0.0
 70
   128
 71
     5
 72
     4
 73
     1
  0
VERTEX
  5
9BD
  8
0
 62
     9
 10
0.0
 20
0.0
 30
0.0
 70
   128
 71
     1
 72
     2
 73
     5
  0
VERTEX
  5
9BE
  8
0
 62
     9
 10
0.0
 20
0.0
 30
0.0
 70
   128
 71
     1
 72
     6
 73
     3
  0
VERTEX
  5
9BF
  8
0
 62
     9
 10
0.0
 20
0.0
 30
0.0
 70
   128
 71
     1
 72
     7
 73
     6
  0
VERTEX
  5
9C0
  8
0
 62
     9
 10
0.0
 20
0.0
 30
0.0
 70
   128
 71
     9
 72
     8
 73
     6
  0
VERTEX
  5
9C1
  8
0
 62
     9
 10
0.0
 20
0.0
 30
0.0
 70
   128
 71
     6
 72
     7
 73
     9
  0
VERTEX
  5
9C2
  8
0
 62
     9
 10
0.0
 20
0.0
 30
0.0
 70
   128
 71
    12
 72
    11
 73
    10
  0
VERTEX
  5
9C3
  8
0
 62
     9
 10
0.0
 20
0.0
 30
0.0
 70
   128
 71
    11
 72
    13
 73
    10
  0
VERTEX
  5
9C4
  8
0
 62
     9
 10
0.0
 20
0.0
 30
0.0
 70
   128
 71
    10
 72
    14
 73
    12
  0
VERTEX
  5
9C5
  8
0
 62
     9
 10
0.0
 20
0.0
 30
0.0
 70
   128
 71
    15
 72
     6
 73
     8
  0
VERTEX
  5
9C6
  8
0
 62
     9
 10
0.0
 20
0.0
 30
0.0
 70
   128
 71
    17
 72
    16
 73
     6
  0
VERTEX
  5
9C7
  8
0
 62
     9
 10
0.0
 20
0.0
 30
0.0
 70
   128
 71
    16
 72
    18
 73
     6
  0
VERTEX
  5
9C8
  8
0
 62
     9
 10
0.0
 20
0.0
 30
0.0
 70
   128
 71
     6
 72
    19
 73
    17
  0
VERTEX
  5
9C9
  8
0
 62
     9
 10
0.0
 20
0.0
 30
0.0
 70
   128
 71
     6
 72
    15
 73
    19
  0
VERTEX
  5
9CA
  8
0
 62
     9
 10
0.0
 20
0.0
 30
0.0
 70
   128
 71
     8
 72
    20
 73
    15
  0
VERTEX
  5
9CB
  8
0
 62
     9
 10
0.0
 20
0.0
 30
0.0
 70
   128
 71
     8
 72
    21
 73
    20
  0
VERTEX
  5
9CC
  8
0
 62
     9
 10
0.0
 20
0.0
 30
0.0
 70
   128
 71
     8
 72
    10
 73
    21
  0
VERTEX
  5
9CD
  8
0
 62
     9
 10
0.0
 20
0.0
 30
0.0
 70
   128
 71
    10
 72
     8
 73
    14
  0
VERTEX
  5
9CE
  8
0
 62
     9
 10
0.0
 20
0.0
 30
0.0
 70
   128
 71
     5
 72
    22
 73
     4
  0
VERTEX
  5
9CF
  8
0
 62
     9
 10
0.0
 20
0.0
 30
0.0
 70
   128
 71
    18
 72
    23
 73
     6
  0
VERTEX
  5
9D0
  8
0
 62
     9
 10
0.0
 20
0.0
 30
0.0
 70
   128
 71
     5
 72
    24
 73
    22
  0
SEQEND
  5
9D1
  8
0
 62
     9
  0
ENDBLK
  5
9D4
  8
0
  0
ENDSEC
  0
SECTION
  2
ENTITIES
  0
INSERT
  5
AF
  8
LAYER_1
  2
E3_NODE
 10
0.0
 20
0.0
 30
0.0
  0
INSERT
  5
117
  8
LAYER_1
  2
E3_NODE_1_
 10
0.0
 20
0.0
 30
0.0
  0
INSERT
  5
1A5
  8
LAYER_1
  2
E3_NODE_2_
 10
0.0
 20
0.0
 30
0.0
  0
INSERT
  5
1D1
  8
LAYER_1
  2
E3_NODE_3_
 10
0.0
 20
0.0
 30
0.0
  0
INSERT
  5
20F
  8
LAYER_1
  2
E3_NODE_4_
 10
0.0
 20
0.0
 30
0.0
  0
INSERT
  5
2F3
  8
LAYER_1
  2
E3_NODE_5_
 10
0.0
 20
0.0
 30
0.0
  0
INSERT
  5
383
  8
LAYER_1
  2
E3_NODE_6_
 10
0.0
 20
0.0
 30
0.0
  0
INSERT
  5
3D1
  8
LAYER_1
  2
E3_NODE_7_
 10
0.0
 20
0.0
 30
0.0
  0
INSERT
  5
405
  8
LAYER_1
  2
E3_NODE_8_
 10
0.0
 20
0.0
 30
0.0
  0
INSERT
  5
411
  8
LAYER_1
  2
E3_NODE_9_
 10
0.0
 20
0.0
 30
0.0
  0
INSERT
  5
41D
  8
LAYER_1
  2
E3_NODE_10_
 10
0.0
 20
0.0
 30
0.0
  0
INSERT
  5
45F
  8
LAYER_1
  2
E3_NODE_11_
 10
0.0
 20
0.0
 30
0.0
  0
INSERT
  5
483
  8
LAYER_1
  2
E3_NODE_12_
 10
0.0
 20
0.0
 30
0.0
  0
INSERT
  5
4C5
  8
LAYER_1
  2
E3_NODE_13_
 10
0.0
 20
0.0
 30
0.0
  0
INSERT
  5
4D5
  8
LAYER_1
  2
E3_NODE_14_
 10
0.0
 20
0.0
 30
0.0
  0
INSERT
  5
4E5
  8
LAYER_1
  2
E3_NODE_15_
 10
0.0
 20
0.0
 30
0.0
  0
INSERT
  5
519
  8
LAYER_1
  2
E3_NODE_16_
 10
0.0
 20
0.0
 30
0.0
  0
INSERT
  5
555
  8
LAYER_1
  2
E3_NODE_17_
 10
0.0
 20
0.0
 30
0.0
  0
INSERT
  5
5F6
  8
LAYER_1
  2
E3_NODE_18_
 10
0.0
 20
0.0
 30
0.0
  0
INSERT
  5
62A
  8
LAYER_1
  2
E3_NODE_19_
 10
0.0
 20
0.0
 30
0.0
  0
INSERT
  5
6AC
  8
LAYER_1
  2
E3_NODE_20_
 10
0.0
 20
0.0
 30
0.0
  0
INSERT
  5
716
  8
LAYER_1
  2
E3_NODE_21_
 10
0.0
 20
0.0
 30
0.0
  0
INSERT
  5
750
  8
LAYER_1
  2
E3_NODE_22_
 10
0.0
 20
0.0
 30
0.0
  0
INSERT
  5
796
  8
LAYER_1
  2
E3_NODE_23_
 10
0.0
 20
0.0
 30
0.0
  0
INSERT
  5
7EE
  8
LAYER_1
  2
E3_NODE_24_
 10
0.0
 20
0.0
 30
0.0
  0
INSERT
  5
844
  8
LAYER_1
  2
E3_NODE_25_
 10
0.0
 20
0.0
 30
0.0
  0
INSERT
  5
898
  8
LAYER_1
  2
E3_NODE_26_
 10
0.0
 20
0.0
 30
0.0
  0
INSERT
  5
8BE
  8
LAYER_1
  2
E3_NODE_27_
 10
0.0
 20
0.0
 30
0.0
  0
INSERT
  5
916
  8
LAYER_1
  2
E3_NODE_28_
 10
0.0
 20
0.0
 30
0.0
  0
INSERT
  5
940
  8
LAYER_1
  2
E3_NODE_29_
 10
0.0
 20
0.0
 30
0.0
  0
INSERT
  5
96C
  8
LAYER_1
  2
E3_NODE_30_
 10
0.0
 20
0.0
 30
0.0
  0
INSERT
  5
99E
  8
LAYER_1
  2
E3_NODE_31_
 10
0.0
 20
0.0
 30
0.0
  0
INSERT
  5
9D2
  8
LAYER_1
  2
E3_NODE_32_
 10
0.0
 20
0.0
 30
0.0
  0
ENDSEC
  0
EOF
