  0
SECTION
  2
HEADER
  9
$ACADVER
  1
AC1009
  9
$DWGCODEPAGE
  3
ansi_1252
  9
$INSBASE
 10
0.0
 20
0.0
 30
0.0
  9
$EXTMIN
 10
1.000000000000000E+20
 20
1.000000000000000E+20
 30
1.000000000000000E+20
  9
$EXTMAX
 10
-1.000000000000000E+20
 20
-1.000000000000000E+20
 30
-1.000000000000000E+20
  9
$LIMMIN
 10
0.0
 20
0.0
  9
$LIMMAX
 10
12.0
 20
9.0
  9
$ORTHOMODE
 70
     0
  9
$REGENMODE
 70
     1
  9
$FILLMODE
 70
     1
  9
$QTEXTMODE
 70
     0
  9
$MIRRTEXT
 70
     1
  9
$DRAGMODE
 70
     2
  9
$LTSCALE
 40
1.0
  9
$OSMODE
 70
    37
  9
$ATTMODE
 70
     1
  9
$TEXTSIZE
 40
0.2
  9
$TRACEWID
 40
0.05
  9
$TEXTSTYLE
  7
STANDARD
  9
$CLAYER
  8
0
  9
$CELTYPE
  6
BYLAYER
  9
$CECOLOR
 62
   256
  9
$DIMSCALE
 40
1.0
  9
$DIMASZ
 40
0.18
  9
$DIMEXO
 40
0.0625
  9
$DIMDLI
 40
0.38
  9
$DIMRND
 40
0.0
  9
$DIMDLE
 40
0.0
  9
$DIMEXE
 40
0.18
  9
$DIMTP
 40
0.0
  9
$DIMTM
 40
0.0
  9
$DIMTXT
 40
0.18
  9
$DIMCEN
 40
0.09
  9
$DIMTSZ
 40
0.0
  9
$DIMTOL
 70
     0
  9
$DIMLIM
 70
     0
  9
$DIMTIH
 70
     1
  9
$DIMTOH
 70
     1
  9
$DIMSE1
 70
     0
  9
$DIMSE2
 70
     0
  9
$DIMTAD
 70
     0
  9
$DIMZIN
 70
     0
  9
$DIMBLK
  1

  9
$DIMASO
 70
     1
  9
$DIMSHO
 70
     1
  9
$DIMPOST
  1

  9
$DIMAPOST
  1

  9
$DIMALT
 70
     0
  9
$DIMALTD
 70
     2
  9
$DIMALTF
 40
25.4
  9
$DIMLFAC
 40
1.0
  9
$DIMTOFL
 70
     0
  9
$DIMTVP
 40
0.0
  9
$DIMTIX
 70
     0
  9
$DIMSOXD
 70
     0
  9
$DIMSAH
 70
     0
  9
$DIMBLK1
  1

  9
$DIMBLK2
  1

  9
$DIMSTYLE
  2
STANDARD
  9
$DIMCLRD
 70
     0
  9
$DIMCLRE
 70
     0
  9
$DIMCLRT
 70
     0
  9
$DIMTFAC
 40
1.0
  9
$DIMGAP
 40
0.09
  9
$LUNITS
 70
     2
  9
$LUPREC
 70
     4
  9
$SKETCHINC
 40
0.1
  9
$FILLETRAD
 40
0.5
  9
$AUNITS
 70
     0
  9
$AUPREC
 70
     0
  9
$MENU
  1
.
  9
$ELEVATION
 40
0.0
  9
$PELEVATION
 40
0.0
  9
$THICKNESS
 40
0.0
  9
$LIMCHECK
 70
     0
  9
$CHAMFERA
 40
0.5
  9
$CHAMFERB
 40
0.5
  9
$SKPOLY
 70
     0
  9
$TDCREATE
 40
2455353.788689595
  9
$TDUPDATE
 40
2455353.788689595
  9
$TDINDWG
 40
0.0000000116
  9
$TDUSRTIMER
 40
0.0000000116
  9
$USRTIMER
 70
     1
  9
$ANGBASE
 50
0.0
  9
$ANGDIR
 70
     0
  9
$PDMODE
 70
     0
  9
$PDSIZE
 40
0.0
  9
$PLINEWID
 40
0.0
  9
$COORDS
 70
     1
  9
$SPLFRAME
 70
     0
  9
$SPLINETYPE
 70
     6
  9
$SPLINESEGS
 70
     8
  9
$ATTDIA
 70
     0
  9
$ATTREQ
 70
     1
  9
$HANDLING
 70
     1
  9
$HANDSEED
  5
C54
  9
$SURFTAB1
 70
     6
  9
$SURFTAB2
 70
     6
  9
$SURFTYPE
 70
     6
  9
$SURFU
 70
     6
  9
$SURFV
 70
     6
  9
$UCSNAME
  2

  9
$UCSORG
 10
0.0
 20
0.0
 30
0.0
  9
$UCSXDIR
 10
1.0
 20
0.0
 30
0.0
  9
$UCSYDIR
 10
0.0
 20
1.0
 30
0.0
  9
$PUCSNAME
  2

  9
$PUCSORG
 10
0.0
 20
0.0
 30
0.0
  9
$PUCSXDIR
 10
1.0
 20
0.0
 30
0.0
  9
$PUCSYDIR
 10
0.0
 20
1.0
 30
0.0
  9
$USERI1
 70
     0
  9
$USERI2
 70
     0
  9
$USERI3
 70
     0
  9
$USERI4
 70
     0
  9
$USERI5
 70
     0
  9
$USERR1
 40
0.0
  9
$USERR2
 40
0.0
  9
$USERR3
 40
0.0
  9
$USERR4
 40
0.0
  9
$USERR5
 40
0.0
  9
$WORLDVIEW
 70
     1
  9
$SHADEDGE
 70
     3
  9
$SHADEDIF
 70
    70
  9
$TILEMODE
 70
     1
  9
$MAXACTVP
 70
    64
  9
$PLIMCHECK
 70
     0
  9
$PEXTMIN
 10
1.000000000000000E+20
 20
1.000000000000000E+20
 30
1.000000000000000E+20
  9
$PEXTMAX
 10
-1.000000000000000E+20
 20
-1.000000000000000E+20
 30
-1.000000000000000E+20
  9
$PLIMMIN
 10
0.0
 20
0.0
  9
$PLIMMAX
 10
12.0
 20
9.0
  9
$UNITMODE
 70
     0
  9
$VISRETAIN
 70
     1
  9
$PLINEGEN
 70
     0
  9
$PSLTSCALE
 70
     1
  0
ENDSEC
  0
SECTION
  2
TABLES
  0
TABLE
  2
VPORT
 70
     1
  0
VPORT
  2
*ACTIVE
 70
     0
 10
0.0
 20
0.0
 11
1.0
 21
1.0
 12
0.0
 22
0.0
 13
0.0
 23
0.0
 14
0.5
 24
0.5
 15
0.5
 25
0.5
 16
371.3135681152344
 26
212.1609191894531
 36
371.3135681152344
 17
59.45150756835938
 27
23.92399597167969
 37
110.8330078125
 40
213.2157513476664
 41
1.972972972850329
 42
50.0
 43
0.0
 44
0.0
 50
0.0
 51
0.0
 71
     0
 72
   100
 73
     1
 74
     3
 75
     0
 76
     0
 77
     0
 78
     0
  0
ENDTAB
  0
TABLE
  2
LTYPE
 70
     1
  0
LTYPE
  2
CONTINUOUS
 70
     0
  3
Solid line
 72
    65
 73
     0
 40
0.0
  0
ENDTAB
  0
TABLE
  2
LAYER
 70
     2
  0
LAYER
  2
0
 70
     0
 62
     7
  6
CONTINUOUS
  0
LAYER
  2
LAYER_1
 70
     0
 62
     7
  6
CONTINUOUS
  0
ENDTAB
  0
TABLE
  2
STYLE
 70
     1
  0
STYLE
  2
STANDARD
 70
     0
 40
0.0
 41
1.0
 50
0.0
 71
     0
 42
0.2
  3
txt
  4

  0
ENDTAB
  0
TABLE
  2
VIEW
 70
     0
  0
ENDTAB
  0
TABLE
  2
UCS
 70
     0
  0
ENDTAB
  0
TABLE
  2
APPID
 70
     1
  0
APPID
  2
ACAD
 70
     0
  0
ENDTAB
  0
TABLE
  2
DIMSTYLE
 70
     1
  0
DIMSTYLE
  2
STANDARD
 70
     0
  3

  4

  5

  6

  7

 40
1.0
 41
0.18
 42
0.0625
 43
0.38
 44
0.18
 45
0.0
 46
0.0
 47
0.0
 48
0.0
140
0.18
141
0.09
142
0.0
143
25.4
144
1.0
145
0.0
146
1.0
147
0.09
 71
     0
 72
     0
 73
     1
 74
     1
 75
     0
 76
     0
 77
     0
 78
     0
170
     0
171
     2
172
     0
173
     0
174
     0
175
     0
176
     0
177
     0
178
     0
  0
ENDTAB
  0
ENDSEC
  0
SECTION
  2
BLOCKS
  0
BLOCK
  8
0
  2
$MODEL_SPACE
 70
     0
 10
0.0
 20
0.0
 30
0.0
  3
$MODEL_SPACE
  1

  0
ENDBLK
  5
21
  8
0
  0
BLOCK
 67
     1
  8
0
  2
$PAPER_SPACE
 70
     0
 10
0.0
 20
0.0
 30
0.0
  3
$PAPER_SPACE
  1

  0
ENDBLK
  5
1D
 67
     1
  8
0
  0
BLOCK
  8
0
  2
E3_NODE
 70
     0
 10
0.0
 20
0.0
 30
0.0
  3
E3_NODE
  1

  0
POLYLINE
  5
3C
  8
0
 62
     9
 66
     1
 10
0.0
 20
0.0
 30
0.0
 70
    64
 71
     8
 72
     6
  0
VERTEX
  5
3D
  8
0
 10
9.213000297546387
 20
0.0700000002980232
 30
61.05799865722656
 70
   192
  0
VERTEX
  5
3E
  8
0
 10
-0.0370000004768372
 20
9.319999694824219
 30
61.05799865722656
 70
   192
  0
VERTEX
  5
3F
  8
0
 10
-6.578000068664551
 20
6.611000061035156
 30
61.05799865722656
 70
   192
  0
VERTEX
  5
40
  8
0
 10
-6.578000068664551
 20
-6.471000194549561
 30
61.05799865722656
 70
   192
  0
VERTEX
  5
41
  8
0
 10
-0.0370000004768372
 20
-9.180000305175781
 30
61.05799865722656
 70
   192
  0
VERTEX
  5
42
  8
0
 10
6.502999782562256
 20
6.611000061035156
 30
61.05799865722656
 70
   192
  0
VERTEX
  5
43
  8
0
 10
-9.286999702453613
 20
0.0700000002980232
 30
61.05799865722656
 70
   192
  0
VERTEX
  5
44
  8
0
 10
6.502999782562256
 20
-6.471000194549561
 30
61.05799865722656
 70
   192
  0
VERTEX
  5
45
  8
0
 62
     9
 10
0.0
 20
0.0
 30
0.0
 70
   128
 71
     3
 72
     2
 73
     1
  0
VERTEX
  5
46
  8
0
 62
     9
 10
0.0
 20
0.0
 30
0.0
 70
   128
 71
     5
 72
     4
 73
     1
  0
VERTEX
  5
47
  8
0
 62
     9
 10
0.0
 20
0.0
 30
0.0
 70
   128
 71
     2
 72
     6
 73
     1
  0
VERTEX
  5
48
  8
0
 62
     9
 10
0.0
 20
0.0
 30
0.0
 70
   128
 71
     4
 72
     7
 73
     1
  0
VERTEX
  5
49
  8
0
 62
     9
 10
0.0
 20
0.0
 30
0.0
 70
   128
 71
     1
 72
     8
 73
     5
  0
VERTEX
  5
4A
  8
0
 62
     9
 10
0.0
 20
0.0
 30
0.0
 70
   128
 71
     1
 72
     7
 73
     3
  0
SEQEND
  5
4B
  8
0
 62
     9
  0
ENDBLK
  5
4F
  8
0
  0
BLOCK
  8
0
  2
E3_NODE_1_
 70
     0
 10
0.0
 20
0.0
 30
0.0
  3
E3_NODE_1_
  1

  0
POLYLINE
  5
51
  8
0
 62
     9
 66
     1
 10
0.0
 20
0.0
 30
0.0
 70
    64
 71
    44
 72
    44
  0
VERTEX
  5
52
  8
0
 10
-0.0370000004768372
 20
-9.180000305175781
 30
61.05799865722656
 70
   192
  0
VERTEX
  5
53
  8
0
 10
-6.578000068664551
 20
-6.471000194549561
 30
61.05799865722656
 70
   192
  0
VERTEX
  5
54
  8
0
 10
-2.967999935150146
 20
-9.430000305175781
 30
60.36600112915039
 70
   192
  0
VERTEX
  5
55
  8
0
 10
-7.815000057220459
 20
-7.708000183105469
 30
59.30799865722656
 70
   192
  0
VERTEX
  5
56
  8
0
 10
-5.583000183105469
 20
-9.430000305175781
 30
59.30799865722656
 70
   192
  0
VERTEX
  5
57
  8
0
 10
-3.562999963760376
 20
-9.430000305175781
 30
60.17499923706055
 70
   192
  0
VERTEX
  5
58
  8
0
 10
6.502999782562256
 20
-6.471000194549561
 30
61.05799865722656
 70
   192
  0
VERTEX
  5
59
  8
0
 10
4.389999866485596
 20
-9.430000305175781
 30
59.82699966430664
 70
   192
  0
VERTEX
  5
5A
  8
0
 10
5.507999897003174
 20
-9.430000305175781
 30
59.30799865722656
 70
   192
  0
VERTEX
  5
5B
  8
0
 10
1.090000033378601
 20
-9.430000305175781
 30
60.74200057983398
 70
   192
  0
VERTEX
  5
5C
  8
0
 10
0.3210000097751617
 20
-9.430000305175781
 30
60.80199813842773
 70
   192
  0
VERTEX
  5
5D
  8
0
 10
-0.0370000004768372
 20
-9.430000305175781
 30
60.75400161743164
 70
   192
  0
VERTEX
  5
5E
  8
0
 10
9.463000297546387
 20
-3.640000104904175
 30
60.10900115966797
 70
   192
  0
VERTEX
  5
5F
  8
0
 10
9.463000297546387
 20
-0.2879999876022339
 30
60.80199813842773
 70
   192
  0
VERTEX
  5
60
  8
0
 10
7.741000175476074
 20
-7.708000183105469
 30
59.30799865722656
 70
   192
  0
VERTEX
  5
61
  8
0
 10
9.463000297546387
 20
-5.474999904632568
 30
59.30799865722656
 70
   192
  0
VERTEX
  5
62
  8
0
 10
9.463000297546387
 20
-4.35699987411499
 30
59.82699966430664
 70
   192
  0
VERTEX
  5
63
  8
0
 10
9.213000297546387
 20
0.0700000002980232
 30
61.05799865722656
 70
   192
  0
VERTEX
  5
64
  8
0
 10
6.502999782562256
 20
6.611000061035156
 30
61.05799865722656
 70
   192
  0
VERTEX
  5
65
  8
0
 10
9.463000297546387
 20
3.595999956130981
 30
60.17499923706055
 70
   192
  0
VERTEX
  5
66
  8
0
 10
9.463000297546387
 20
5.614999771118164
 30
59.30799865722656
 70
   192
  0
VERTEX
  5
67
  8
0
 10
9.463000297546387
 20
0.3389999866485596
 30
60.80400085449219
 70
   192
  0
VERTEX
  5
68
  8
0
 10
9.463000297546387
 20
0.0700000002980232
 30
60.80300140380859
 70
   192
  0
VERTEX
  5
69
  8
0
 10
3.67300009727478
 20
9.569999694824219
 30
60.10900115966797
 70
   192
  0
VERTEX
  5
6A
  8
0
 10
0.3210000097751617
 20
9.569999694824219
 30
60.80199813842773
 70
   192
  0
VERTEX
  5
6B
  8
0
 10
7.741000175476074
 20
7.848000049591064
 30
59.30799865722656
 70
   192
  0
VERTEX
  5
6C
  8
0
 10
5.507999897003174
 20
9.569999694824219
 30
59.30799865722656
 70
   192
  0
VERTEX
  5
6D
  8
0
 10
4.389999866485596
 20
9.569999694824219
 30
59.82699966430664
 70
   192
  0
VERTEX
  5
6E
  8
0
 10
-0.0370000004768372
 20
9.319999694824219
 30
61.05799865722656
 70
   192
  0
VERTEX
  5
6F
  8
0
 10
-6.578000068664551
 20
6.611000061035156
 30
61.05799865722656
 70
   192
  0
VERTEX
  5
70
  8
0
 10
-3.562999963760376
 20
9.569999694824219
 30
60.17499923706055
 70
   192
  0
VERTEX
  5
71
  8
0
 10
-5.583000183105469
 20
9.569999694824219
 30
59.30799865722656
 70
   192
  0
VERTEX
  5
72
  8
0
 10
-0.3059999942779541
 20
9.569999694824219
 30
60.80400085449219
 70
   192
  0
VERTEX
  5
73
  8
0
 10
-0.0370000004768372
 20
9.569999694824219
 30
60.80300140380859
 70
   192
  0
VERTEX
  5
74
  8
0
 10
-9.286999702453613
 20
0.0700000002980232
 30
61.05799865722656
 70
   192
  0
VERTEX
  5
75
  8
0
 10
-9.536999702453613
 20
3.000999927520752
 30
60.36600112915039
 70
   192
  0
VERTEX
  5
76
  8
0
 10
-7.815000057220459
 20
7.848000049591064
 30
59.30799865722656
 70
   192
  0
VERTEX
  5
77
  8
0
 10
-9.536999702453613
 20
5.614999771118164
 30
59.30799865722656
 70
   192
  0
VERTEX
  5
78
  8
0
 10
-9.536999702453613
 20
3.595999956130981
 30
60.17499923706055
 70
   192
  0
VERTEX
  5
79
  8
0
 10
-9.536999702453613
 20
-4.35699987411499
 30
59.82699966430664
 70
   192
  0
VERTEX
  5
7A
  8
0
 10
-9.536999702453613
 20
-5.474999904632568
 30
59.30799865722656
 70
   192
  0
VERTEX
  5
7B
  8
0
 10
-9.536999702453613
 20
-1.057000041007996
 30
60.74200057983398
 70
   192
  0
VERTEX
  5
7C
  8
0
 10
-9.536999702453613
 20
-0.2879999876022339
 30
60.80199813842773
 70
   192
  0
VERTEX
  5
7D
  8
0
 10
-9.536999702453613
 20
0.0700000002980232
 30
60.75400161743164
 70
   192
  0
VERTEX
  5
7E
  8
0
 62
     9
 10
0.0
 20
0.0
 30
0.0
 70
   128
 71
     3
 72
     2
 73
     1
  0
VERTEX
  5
7F
  8
0
 62
     9
 10
0.0
 20
0.0
 30
0.0
 70
   128
 71
     5
 72
     4
 73
     2
  0
VERTEX
  5
80
  8
0
 62
     9
 10
0.0
 20
0.0
 30
0.0
 70
   128
 71
     2
 72
     6
 73
     5
  0
VERTEX
  5
81
  8
0
 62
     9
 10
0.0
 20
0.0
 30
0.0
 70
   128
 71
     2
 72
     3
 73
     6
  0
VERTEX
  5
82
  8
0
 62
     9
 10
0.0
 20
0.0
 30
0.0
 70
   128
 71
     9
 72
     8
 73
     7
  0
VERTEX
  5
83
  8
0
 62
     9
 10
0.0
 20
0.0
 30
0.0
 70
   128
 71
     8
 72
    10
 73
     7
  0
VERTEX
  5
84
  8
0
 62
     9
 10
0.0
 20
0.0
 30
0.0
 70
   128
 71
    10
 72
    11
 73
     1
  0
VERTEX
  5
85
  8
0
 62
     9
 10
0.0
 20
0.0
 30
0.0
 70
   128
 71
     1
 72
     7
 73
    10
  0
VERTEX
  5
86
  8
0
 62
     9
 10
0.0
 20
0.0
 30
0.0
 70
   128
 71
    11
 72
    12
 73
     1
  0
VERTEX
  5
87
  8
0
 62
     9
 10
0.0
 20
0.0
 30
0.0
 70
   128
 71
    14
 72
    13
 73
     7
  0
VERTEX
  5
88
  8
0
 62
     9
 10
0.0
 20
0.0
 30
0.0
 70
   128
 71
    16
 72
    15
 73
     7
  0
VERTEX
  5
89
  8
0
 62
     9
 10
0.0
 20
0.0
 30
0.0
 70
   128
 71
     7
 72
    17
 73
    16
  0
VERTEX
  5
8A
  8
0
 62
     9
 10
0.0
 20
0.0
 30
0.0
 70
   128
 71
     7
 72
    13
 73
    17
  0
VERTEX
  5
8B
  8
0
 62
     9
 10
0.0
 20
0.0
 30
0.0
 70
   128
 71
     7
 72
    18
 73
    14
  0
VERTEX
  5
8C
  8
0
 62
     9
 10
0.0
 20
0.0
 30
0.0
 70
   128
 71
    21
 72
    20
 73
    19
  0
VERTEX
  5
8D
  8
0
 62
     9
 10
0.0
 20
0.0
 30
0.0
 70
   128
 71
    22
 72
    18
 73
    19
  0
VERTEX
  5
8E
  8
0
 62
     9
 10
0.0
 20
0.0
 30
0.0
 70
   128
 71
    22
 72
    23
 73
    18
  0
VERTEX
  5
8F
  8
0
 62
     9
 10
0.0
 20
0.0
 30
0.0
 70
   128
 71
    19
 72
    20
 73
    22
  0
VERTEX
  5
90
  8
0
 62
     9
 10
0.0
 20
0.0
 30
0.0
 70
   128
 71
    25
 72
    24
 73
    19
  0
VERTEX
  5
91
  8
0
 62
     9
 10
0.0
 20
0.0
 30
0.0
 70
   128
 71
    27
 72
    26
 73
    19
  0
VERTEX
  5
92
  8
0
 62
     9
 10
0.0
 20
0.0
 30
0.0
 70
   128
 71
    19
 72
    28
 73
    27
  0
VERTEX
  5
93
  8
0
 62
     9
 10
0.0
 20
0.0
 30
0.0
 70
   128
 71
    19
 72
    24
 73
    28
  0
VERTEX
  5
94
  8
0
 62
     9
 10
0.0
 20
0.0
 30
0.0
 70
   128
 71
    19
 72
    29
 73
    25
  0
VERTEX
  5
95
  8
0
 62
     9
 10
0.0
 20
0.0
 30
0.0
 70
   128
 71
    32
 72
    31
 73
    30
  0
VERTEX
  5
96
  8
0
 62
     9
 10
0.0
 20
0.0
 30
0.0
 70
   128
 71
    33
 72
    29
 73
    30
  0
VERTEX
  5
97
  8
0
 62
     9
 10
0.0
 20
0.0
 30
0.0
 70
   128
 71
    33
 72
    34
 73
    29
  0
VERTEX
  5
98
  8
0
 62
     9
 10
0.0
 20
0.0
 30
0.0
 70
   128
 71
    30
 72
    31
 73
    33
  0
VERTEX
  5
99
  8
0
 62
     9
 10
0.0
 20
0.0
 30
0.0
 70
   128
 71
    36
 72
    30
 73
    35
  0
VERTEX
  5
9A
  8
0
 62
     9
 10
0.0
 20
0.0
 30
0.0
 70
   128
 71
    38
 72
    37
 73
    30
  0
VERTEX
  5
9B
  8
0
 62
     9
 10
0.0
 20
0.0
 30
0.0
 70
   128
 71
    30
 72
    39
 73
    38
  0
VERTEX
  5
9C
  8
0
 62
     9
 10
0.0
 20
0.0
 30
0.0
 70
   128
 71
    30
 72
    36
 73
    39
  0
VERTEX
  5
9D
  8
0
 62
     9
 10
0.0
 20
0.0
 30
0.0
 70
   128
 71
    41
 72
    40
 73
     2
  0
VERTEX
  5
9E
  8
0
 62
     9
 10
0.0
 20
0.0
 30
0.0
 70
   128
 71
    40
 72
    42
 73
     2
  0
VERTEX
  5
9F
  8
0
 62
     9
 10
0.0
 20
0.0
 30
0.0
 70
   128
 71
    42
 72
    43
 73
    35
  0
VERTEX
  5
A0
  8
0
 62
     9
 10
0.0
 20
0.0
 30
0.0
 70
   128
 71
    35
 72
     2
 73
    42
  0
VERTEX
  5
A1
  8
0
 62
     9
 10
0.0
 20
0.0
 30
0.0
 70
   128
 71
    43
 72
    44
 73
    35
  0
VERTEX
  5
A2
  8
0
 62
     9
 10
0.0
 20
0.0
 30
0.0
 70
   128
 71
     2
 72
     4
 73
    41
  0
VERTEX
  5
A3
  8
0
 62
     9
 10
0.0
 20
0.0
 30
0.0
 70
   128
 71
    35
 72
    44
 73
    36
  0
VERTEX
  5
A4
  8
0
 62
     9
 10
0.0
 20
0.0
 30
0.0
 70
   128
 71
    30
 72
    37
 73
    32
  0
VERTEX
  5
A5
  8
0
 62
     9
 10
0.0
 20
0.0
 30
0.0
 70
   128
 71
    29
 72
    34
 73
    25
  0
VERTEX
  5
A6
  8
0
 62
     9
 10
0.0
 20
0.0
 30
0.0
 70
   128
 71
    19
 72
    26
 73
    21
  0
VERTEX
  5
A7
  8
0
 62
     9
 10
0.0
 20
0.0
 30
0.0
 70
   128
 71
    18
 72
    23
 73
    14
  0
VERTEX
  5
A8
  8
0
 62
     9
 10
0.0
 20
0.0
 30
0.0
 70
   128
 71
     7
 72
    15
 73
     9
  0
VERTEX
  5
A9
  8
0
 62
     9
 10
0.0
 20
0.0
 30
0.0
 70
   128
 71
     1
 72
    12
 73
     3
  0
SEQEND
  5
AA
  8
0
 62
     9
  0
ENDBLK
  5
AD
  8
0
  0
BLOCK
  8
0
  2
E3_NODE_2_
 70
     0
 10
0.0
 20
0.0
 30
0.0
  3
E3_NODE_2_
  1

  0
POLYLINE
  5
AF
  8
0
 62
     9
 66
     1
 10
0.0
 20
0.0
 30
0.0
 70
    64
 71
     5
 72
     3
  0
VERTEX
  5
B0
  8
0
 10
9.463000297546387
 20
5.614999771118164
 30
56.05799865722656
 70
   192
  0
VERTEX
  5
B1
  8
0
 10
5.507999897003174
 20
9.569999694824219
 30
56.05799865722656
 70
   192
  0
VERTEX
  5
B2
  8
0
 10
7.741000175476074
 20
7.848000049591064
 30
59.30799865722656
 70
   192
  0
VERTEX
  5
B3
  8
0
 10
5.507999897003174
 20
9.569999694824219
 30
59.30799865722656
 70
   192
  0
VERTEX
  5
B4
  8
0
 10
9.463000297546387
 20
5.614999771118164
 30
59.30799865722656
 70
   192
  0
VERTEX
  5
B5
  8
0
 62
     9
 10
0.0
 20
0.0
 30
0.0
 70
   128
 71
     3
 72
     2
 73
     1
  0
VERTEX
  5
B6
  8
0
 62
     9
 10
0.0
 20
0.0
 30
0.0
 70
   128
 71
     3
 72
     4
 73
     2
  0
VERTEX
  5
B7
  8
0
 62
     9
 10
0.0
 20
0.0
 30
0.0
 70
   128
 71
     1
 72
     5
 73
     3
  0
SEQEND
  5
B8
  8
0
 62
     9
  0
ENDBLK
  5
BB
  8
0
  0
BLOCK
  8
0
  2
E3_NODE_3_
 70
     0
 10
0.0
 20
0.0
 30
0.0
  3
E3_NODE_3_
  1

  0
POLYLINE
  5
BD
  8
0
 62
     9
 66
     1
 10
0.0
 20
0.0
 30
0.0
 70
    64
 71
    11
 72
     9
  0
VERTEX
  5
BE
  8
0
 10
-0.0370000004768372
 20
9.569999694824219
 30
56.05799865722656
 70
   192
  0
VERTEX
  5
BF
  8
0
 10
-5.583000183105469
 20
9.569999694824219
 30
56.05799865722656
 70
   192
  0
VERTEX
  5
C0
  8
0
 10
-5.583000183105469
 20
9.569999694824219
 30
59.30799865722656
 70
   192
  0
VERTEX
  5
C1
  8
0
 10
-0.0370000004768372
 20
9.569999694824219
 30
60.80300140380859
 70
   192
  0
VERTEX
  5
C2
  8
0
 10
0.3210000097751617
 20
9.569999694824219
 30
60.80199813842773
 70
   192
  0
VERTEX
  5
C3
  8
0
 10
-3.562999963760376
 20
9.569999694824219
 30
60.17499923706055
 70
   192
  0
VERTEX
  5
C4
  8
0
 10
4.389999866485596
 20
9.569999694824219
 30
59.82699966430664
 70
   192
  0
VERTEX
  5
C5
  8
0
 10
5.507999897003174
 20
9.569999694824219
 30
59.30799865722656
 70
   192
  0
VERTEX
  5
C6
  8
0
 10
3.67300009727478
 20
9.569999694824219
 30
60.10900115966797
 70
   192
  0
VERTEX
  5
C7
  8
0
 10
-0.3059999942779541
 20
9.569999694824219
 30
60.80400085449219
 70
   192
  0
VERTEX
  5
C8
  8
0
 10
5.507999897003174
 20
9.569999694824219
 30
56.05799865722656
 70
   192
  0
VERTEX
  5
C9
  8
0
 62
     9
 10
0.0
 20
0.0
 30
0.0
 70
   128
 71
     3
 72
     2
 73
     1
  0
VERTEX
  5
CA
  8
0
 62
     9
 10
0.0
 20
0.0
 30
0.0
 70
   128
 71
     5
 72
     4
 73
     1
  0
VERTEX
  5
CB
  8
0
 62
     9
 10
0.0
 20
0.0
 30
0.0
 70
   128
 71
     1
 72
     6
 73
     3
  0
VERTEX
  5
CC
  8
0
 62
     9
 10
0.0
 20
0.0
 30
0.0
 70
   128
 71
     8
 72
     7
 73
     1
  0
VERTEX
  5
CD
  8
0
 62
     9
 10
0.0
 20
0.0
 30
0.0
 70
   128
 71
     1
 72
     9
 73
     5
  0
VERTEX
  5
CE
  8
0
 62
     9
 10
0.0
 20
0.0
 30
0.0
 70
   128
 71
     1
 72
    10
 73
     6
  0
VERTEX
  5
CF
  8
0
 62
     9
 10
0.0
 20
0.0
 30
0.0
 70
   128
 71
     1
 72
     7
 73
     9
  0
VERTEX
  5
D0
  8
0
 62
     9
 10
0.0
 20
0.0
 30
0.0
 70
   128
 71
     1
 72
    11
 73
     8
  0
VERTEX
  5
D1
  8
0
 62
     9
 10
0.0
 20
0.0
 30
0.0
 70
   128
 71
     1
 72
     4
 73
    10
  0
SEQEND
  5
D2
  8
0
 62
     9
  0
ENDBLK
  5
D5
  8
0
  0
BLOCK
  8
0
  2
E3_NODE_4_
 70
     0
 10
0.0
 20
0.0
 30
0.0
  3
E3_NODE_4_
  1

  0
POLYLINE
  5
D7
  8
0
 62
     9
 66
     1
 10
0.0
 20
0.0
 30
0.0
 70
    64
 71
     6
 72
     4
  0
VERTEX
  5
D8
  8
0
 10
-9.536999702453613
 20
5.614999771118164
 30
56.05799865722656
 70
   192
  0
VERTEX
  5
D9
  8
0
 10
-9.536999702453613
 20
5.614999771118164
 30
59.30799865722656
 70
   192
  0
VERTEX
  5
DA
  8
0
 10
-7.815000057220459
 20
7.848000049591064
 30
59.30799865722656
 70
   192
  0
VERTEX
  5
DB
  8
0
 10
-5.583000183105469
 20
9.569999694824219
 30
59.30799865722656
 70
   192
  0
VERTEX
  5
DC
  8
0
 10
-5.583000183105469
 20
9.569999694824219
 30
56.05799865722656
 70
   192
  0
VERTEX
  5
DD
  8
0
 10
-7.815000057220459
 20
7.848000049591064
 30
56.05799865722656
 70
   192
  0
VERTEX
  5
DE
  8
0
 62
     9
 10
0.0
 20
0.0
 30
0.0
 70
   128
 71
     3
 72
     2
 73
     1
  0
VERTEX
  5
DF
  8
0
 62
     9
 10
0.0
 20
0.0
 30
0.0
 70
   128
 71
     6
 72
     5
 73
     4
  0
VERTEX
  5
E0
  8
0
 62
     9
 10
0.0
 20
0.0
 30
0.0
 70
   128
 71
     4
 72
     3
 73
     6
  0
VERTEX
  5
E1
  8
0
 62
     9
 10
0.0
 20
0.0
 30
0.0
 70
   128
 71
     1
 72
     6
 73
     3
  0
SEQEND
  5
E2
  8
0
 62
     9
  0
ENDBLK
  5
E5
  8
0
  0
BLOCK
  8
0
  2
E3_NODE_5_
 70
     0
 10
0.0
 20
0.0
 30
0.0
  3
E3_NODE_5_
  1

  0
POLYLINE
  5
E7
  8
0
 62
     9
 66
     1
 10
0.0
 20
0.0
 30
0.0
 70
    64
 71
    11
 72
     9
  0
VERTEX
  5
E8
  8
0
 10
-9.536999702453613
 20
0.0700000002980232
 30
56.05799865722656
 70
   192
  0
VERTEX
  5
E9
  8
0
 10
-9.536999702453613
 20
-1.057000041007996
 30
60.74200057983398
 70
   192
  0
VERTEX
  5
EA
  8
0
 10
-9.536999702453613
 20
-0.2879999876022339
 30
60.80199813842773
 70
   192
  0
VERTEX
  5
EB
  8
0
 10
-9.536999702453613
 20
-4.35699987411499
 30
59.82699966430664
 70
   192
  0
VERTEX
  5
EC
  8
0
 10
-9.536999702453613
 20
-5.474999904632568
 30
56.05799865722656
 70
   192
  0
VERTEX
  5
ED
  8
0
 10
-9.536999702453613
 20
-5.474999904632568
 30
59.30799865722656
 70
   192
  0
VERTEX
  5
EE
  8
0
 10
-9.536999702453613
 20
3.595999956130981
 30
60.17499923706055
 70
   192
  0
VERTEX
  5
EF
  8
0
 10
-9.536999702453613
 20
5.614999771118164
 30
59.30799865722656
 70
   192
  0
VERTEX
  5
F0
  8
0
 10
-9.536999702453613
 20
0.0700000002980232
 30
60.75400161743164
 70
   192
  0
VERTEX
  5
F1
  8
0
 10
-9.536999702453613
 20
3.000999927520752
 30
60.36600112915039
 70
   192
  0
VERTEX
  5
F2
  8
0
 10
-9.536999702453613
 20
5.614999771118164
 30
56.05799865722656
 70
   192
  0
VERTEX
  5
F3
  8
0
 62
     9
 10
0.0
 20
0.0
 30
0.0
 70
   128
 71
     3
 72
     2
 73
     1
  0
VERTEX
  5
F4
  8
0
 62
     9
 10
0.0
 20
0.0
 30
0.0
 70
   128
 71
     2
 72
     4
 73
     1
  0
VERTEX
  5
F5
  8
0
 62
     9
 10
0.0
 20
0.0
 30
0.0
 70
   128
 71
     6
 72
     5
 73
     1
  0
VERTEX
  5
F6
  8
0
 62
     9
 10
0.0
 20
0.0
 30
0.0
 70
   128
 71
     8
 72
     7
 73
     1
  0
VERTEX
  5
F7
  8
0
 62
     9
 10
0.0
 20
0.0
 30
0.0
 70
   128
 71
    10
 72
     9
 73
     1
  0
VERTEX
  5
F8
  8
0
 62
     9
 10
0.0
 20
0.0
 30
0.0
 70
   128
 71
     1
 72
     4
 73
     6
  0
VERTEX
  5
F9
  8
0
 62
     9
 10
0.0
 20
0.0
 30
0.0
 70
   128
 71
     1
 72
     7
 73
    10
  0
VERTEX
  5
FA
  8
0
 62
     9
 10
0.0
 20
0.0
 30
0.0
 70
   128
 71
     1
 72
    11
 73
     8
  0
VERTEX
  5
FB
  8
0
 62
     9
 10
0.0
 20
0.0
 30
0.0
 70
   128
 71
     1
 72
     9
 73
     3
  0
SEQEND
  5
FC
  8
0
 62
     9
  0
ENDBLK
  5
FF
  8
0
  0
BLOCK
  8
0
  2
E3_NODE_6_
 70
     0
 10
0.0
 20
0.0
 30
0.0
  3
E3_NODE_6_
  1

  0
POLYLINE
  5
101
  8
0
 62
     9
 66
     1
 10
0.0
 20
0.0
 30
0.0
 70
    64
 71
     6
 72
     4
  0
VERTEX
  5
102
  8
0
 10
-7.815000057220459
 20
-7.708000183105469
 30
56.05799865722656
 70
   192
  0
VERTEX
  5
103
  8
0
 10
-5.583000183105469
 20
-9.430000305175781
 30
56.05799865722656
 70
   192
  0
VERTEX
  5
104
  8
0
 10
-5.583000183105469
 20
-9.430000305175781
 30
59.30799865722656
 70
   192
  0
VERTEX
  5
105
  8
0
 10
-7.815000057220459
 20
-7.708000183105469
 30
59.30799865722656
 70
   192
  0
VERTEX
  5
106
  8
0
 10
-9.536999702453613
 20
-5.474999904632568
 30
59.30799865722656
 70
   192
  0
VERTEX
  5
107
  8
0
 10
-9.536999702453613
 20
-5.474999904632568
 30
56.05799865722656
 70
   192
  0
VERTEX
  5
108
  8
0
 62
     9
 10
0.0
 20
0.0
 30
0.0
 70
   128
 71
     3
 72
     2
 73
     1
  0
VERTEX
  5
109
  8
0
 62
     9
 10
0.0
 20
0.0
 30
0.0
 70
   128
 71
     5
 72
     4
 73
     1
  0
VERTEX
  5
10A
  8
0
 62
     9
 10
0.0
 20
0.0
 30
0.0
 70
   128
 71
     1
 72
     6
 73
     5
  0
VERTEX
  5
10B
  8
0
 62
     9
 10
0.0
 20
0.0
 30
0.0
 70
   128
 71
     1
 72
     4
 73
     3
  0
SEQEND
  5
10C
  8
0
 62
     9
  0
ENDBLK
  5
10F
  8
0
  0
BLOCK
  8
0
  2
E3_NODE_7_
 70
     0
 10
0.0
 20
0.0
 30
0.0
  3
E3_NODE_7_
  1

  0
POLYLINE
  5
111
  8
0
 62
     9
 66
     1
 10
0.0
 20
0.0
 30
0.0
 70
    64
 71
    11
 72
     9
  0
VERTEX
  5
112
  8
0
 10
-0.0370000004768372
 20
-9.430000305175781
 30
56.05799865722656
 70
   192
  0
VERTEX
  5
113
  8
0
 10
1.090000033378601
 20
-9.430000305175781
 30
60.74200057983398
 70
   192
  0
VERTEX
  5
114
  8
0
 10
0.3210000097751617
 20
-9.430000305175781
 30
60.80199813842773
 70
   192
  0
VERTEX
  5
115
  8
0
 10
-3.562999963760376
 20
-9.430000305175781
 30
60.17499923706055
 70
   192
  0
VERTEX
  5
116
  8
0
 10
-5.583000183105469
 20
-9.430000305175781
 30
59.30799865722656
 70
   192
  0
VERTEX
  5
117
  8
0
 10
-0.0370000004768372
 20
-9.430000305175781
 30
60.75400161743164
 70
   192
  0
VERTEX
  5
118
  8
0
 10
-2.967999935150146
 20
-9.430000305175781
 30
60.36600112915039
 70
   192
  0
VERTEX
  5
119
  8
0
 10
4.389999866485596
 20
-9.430000305175781
 30
59.82699966430664
 70
   192
  0
VERTEX
  5
11A
  8
0
 10
5.507999897003174
 20
-9.430000305175781
 30
56.05799865722656
 70
   192
  0
VERTEX
  5
11B
  8
0
 10
5.507999897003174
 20
-9.430000305175781
 30
59.30799865722656
 70
   192
  0
VERTEX
  5
11C
  8
0
 10
-5.583000183105469
 20
-9.430000305175781
 30
56.05799865722656
 70
   192
  0
VERTEX
  5
11D
  8
0
 62
     9
 10
0.0
 20
0.0
 30
0.0
 70
   128
 71
     3
 72
     2
 73
     1
  0
VERTEX
  5
11E
  8
0
 62
     9
 10
0.0
 20
0.0
 30
0.0
 70
   128
 71
     5
 72
     4
 73
     1
  0
VERTEX
  5
11F
  8
0
 62
     9
 10
0.0
 20
0.0
 30
0.0
 70
   128
 71
     7
 72
     6
 73
     1
  0
VERTEX
  5
120
  8
0
 62
     9
 10
0.0
 20
0.0
 30
0.0
 70
   128
 71
     2
 72
     8
 73
     1
  0
VERTEX
  5
121
  8
0
 62
     9
 10
0.0
 20
0.0
 30
0.0
 70
   128
 71
    10
 72
     9
 73
     1
  0
VERTEX
  5
122
  8
0
 62
     9
 10
0.0
 20
0.0
 30
0.0
 70
   128
 71
     1
 72
     4
 73
     7
  0
VERTEX
  5
123
  8
0
 62
     9
 10
0.0
 20
0.0
 30
0.0
 70
   128
 71
     1
 72
     8
 73
    10
  0
VERTEX
  5
124
  8
0
 62
     9
 10
0.0
 20
0.0
 30
0.0
 70
   128
 71
     1
 72
     6
 73
     3
  0
VERTEX
  5
125
  8
0
 62
     9
 10
0.0
 20
0.0
 30
0.0
 70
   128
 71
     1
 72
    11
 73
     5
  0
SEQEND
  5
126
  8
0
 62
     9
  0
ENDBLK
  5
129
  8
0
  0
BLOCK
  8
0
  2
E3_NODE_8_
 70
     0
 10
0.0
 20
0.0
 30
0.0
  3
E3_NODE_8_
  1

  0
POLYLINE
  5
12B
  8
0
 62
     9
 66
     1
 10
0.0
 20
0.0
 30
0.0
 70
    64
 71
     6
 72
     4
  0
VERTEX
  5
12C
  8
0
 10
7.741000175476074
 20
-7.708000183105469
 30
59.30799865722656
 70
   192
  0
VERTEX
  5
12D
  8
0
 10
5.507999897003174
 20
-9.430000305175781
 30
59.30799865722656
 70
   192
  0
VERTEX
  5
12E
  8
0
 10
5.507999897003174
 20
-9.430000305175781
 30
56.05799865722656
 70
   192
  0
VERTEX
  5
12F
  8
0
 10
9.463000297546387
 20
-5.474999904632568
 30
56.05799865722656
 70
   192
  0
VERTEX
  5
130
  8
0
 10
9.463000297546387
 20
-5.474999904632568
 30
59.30799865722656
 70
   192
  0
VERTEX
  5
131
  8
0
 10
7.741000175476074
 20
-7.708000183105469
 30
56.05799865722656
 70
   192
  0
VERTEX
  5
132
  8
0
 62
     9
 10
0.0
 20
0.0
 30
0.0
 70
   128
 71
     3
 72
     2
 73
     1
  0
VERTEX
  5
133
  8
0
 62
     9
 10
0.0
 20
0.0
 30
0.0
 70
   128
 71
     1
 72
     5
 73
     4
  0
VERTEX
  5
134
  8
0
 62
     9
 10
0.0
 20
0.0
 30
0.0
 70
   128
 71
     4
 72
     6
 73
     1
  0
VERTEX
  5
135
  8
0
 62
     9
 10
0.0
 20
0.0
 30
0.0
 70
   128
 71
     1
 72
     6
 73
     3
  0
SEQEND
  5
136
  8
0
 62
     9
  0
ENDBLK
  5
139
  8
0
  0
BLOCK
  8
0
  2
E3_NODE_9_
 70
     0
 10
0.0
 20
0.0
 30
0.0
  3
E3_NODE_9_
  1

  0
POLYLINE
  5
13B
  8
0
 62
     9
 66
     1
 10
0.0
 20
0.0
 30
0.0
 70
    64
 71
    12
 72
    10
  0
VERTEX
  5
13C
  8
0
 10
9.463000297546387
 20
0.0700000002980232
 30
56.05799865722656
 70
   192
  0
VERTEX
  5
13D
  8
0
 10
9.463000297546387
 20
0.0700000002980232
 30
60.80300140380859
 70
   192
  0
VERTEX
  5
13E
  8
0
 10
9.463000297546387
 20
-0.2879999876022339
 30
60.80199813842773
 70
   192
  0
VERTEX
  5
13F
  8
0
 10
9.463000297546387
 20
0.3389999866485596
 30
60.80400085449219
 70
   192
  0
VERTEX
  5
140
  8
0
 10
9.463000297546387
 20
2.842999935150146
 30
56.05799865722656
 70
   192
  0
VERTEX
  5
141
  8
0
 10
9.463000297546387
 20
-4.35699987411499
 30
59.82699966430664
 70
   192
  0
VERTEX
  5
142
  8
0
 10
9.463000297546387
 20
-5.474999904632568
 30
59.30799865722656
 70
   192
  0
VERTEX
  5
143
  8
0
 10
9.463000297546387
 20
-3.640000104904175
 30
60.10900115966797
 70
   192
  0
VERTEX
  5
144
  8
0
 10
9.463000297546387
 20
5.614999771118164
 30
56.05799865722656
 70
   192
  0
VERTEX
  5
145
  8
0
 10
9.463000297546387
 20
5.614999771118164
 30
59.30799865722656
 70
   192
  0
VERTEX
  5
146
  8
0
 10
9.463000297546387
 20
3.595999956130981
 30
60.17499923706055
 70
   192
  0
VERTEX
  5
147
  8
0
 10
9.463000297546387
 20
-5.474999904632568
 30
56.05799865722656
 70
   192
  0
VERTEX
  5
148
  8
0
 62
     9
 10
0.0
 20
0.0
 30
0.0
 70
   128
 71
     3
 72
     2
 73
     1
  0
VERTEX
  5
149
  8
0
 62
     9
 10
0.0
 20
0.0
 30
0.0
 70
   128
 71
     5
 72
     1
 73
     4
  0
VERTEX
  5
14A
  8
0
 62
     9
 10
0.0
 20
0.0
 30
0.0
 70
   128
 71
     7
 72
     6
 73
     1
  0
VERTEX
  5
14B
  8
0
 62
     9
 10
0.0
 20
0.0
 30
0.0
 70
   128
 71
     1
 72
     8
 73
     3
  0
VERTEX
  5
14C
  8
0
 62
     9
 10
0.0
 20
0.0
 30
0.0
 70
   128
 71
    10
 72
     9
 73
     5
  0
VERTEX
  5
14D
  8
0
 62
     9
 10
0.0
 20
0.0
 30
0.0
 70
   128
 71
     4
 72
    11
 73
     5
  0
VERTEX
  5
14E
  8
0
 62
     9
 10
0.0
 20
0.0
 30
0.0
 70
   128
 71
     1
 72
     6
 73
     8
  0
VERTEX
  5
14F
  8
0
 62
     9
 10
0.0
 20
0.0
 30
0.0
 70
   128
 71
     1
 72
     2
 73
     4
  0
VERTEX
  5
150
  8
0
 62
     9
 10
0.0
 20
0.0
 30
0.0
 70
   128
 71
     5
 72
    11
 73
    10
  0
VERTEX
  5
151
  8
0
 62
     9
 10
0.0
 20
0.0
 30
0.0
 70
   128
 71
     1
 72
    12
 73
     7
  0
SEQEND
  5
152
  8
0
 62
     9
  0
ENDBLK
  5
155
  8
0
  0
BLOCK
  8
0
  2
E3_NODE_10_
 70
     0
 10
0.0
 20
0.0
 30
0.0
  3
E3_NODE_10_
  1

  0
POLYLINE
  5
157
  8
0
 62
     9
 66
     1
 10
0.0
 20
0.0
 30
0.0
 70
    64
 71
    32
 72
    32
  0
VERTEX
  5
158
  8
0
 10
-0.0370000004768372
 20
9.569999694824219
 30
56.05799865722656
 70
   192
  0
VERTEX
  5
159
  8
0
 10
5.507999897003174
 20
9.569999694824219
 30
56.05799865722656
 70
   192
  0
VERTEX
  5
15A
  8
0
 10
4.363999843597412
 20
10.69499969482422
 30
56.05799865722656
 70
   192
  0
VERTEX
  5
15B
  8
0
 10
-0.0370000004768372
 20
11.56999969482422
 30
56.05799865722656
 70
   192
  0
VERTEX
  5
15C
  8
0
 10
-4.438000202178955
 20
10.69499969482422
 30
56.05799865722656
 70
   192
  0
VERTEX
  5
15D
  8
0
 10
-8.168999671936035
 20
8.20199966430664
 30
56.05799865722656
 70
   192
  0
VERTEX
  5
15E
  8
0
 10
-7.815000057220459
 20
7.848000049591064
 30
56.05799865722656
 70
   192
  0
VERTEX
  5
15F
  8
0
 10
-5.583000183105469
 20
9.569999694824219
 30
56.05799865722656
 70
   192
  0
VERTEX
  5
160
  8
0
 10
-10.66199970245361
 20
4.471000194549561
 30
56.05799865722656
 70
   192
  0
VERTEX
  5
161
  8
0
 10
-9.536999702453613
 20
5.614999771118164
 30
56.05799865722656
 70
   192
  0
VERTEX
  5
162
  8
0
 10
-9.536999702453613
 20
0.0700000002980232
 30
56.05799865722656
 70
   192
  0
VERTEX
  5
163
  8
0
 10
-11.53699970245361
 20
0.0700000002980232
 30
56.05799865722656
 70
   192
  0
VERTEX
  5
164
  8
0
 10
-10.66199970245361
 20
-4.330999851226807
 30
56.05799865722656
 70
   192
  0
VERTEX
  5
165
  8
0
 10
-8.168999671936035
 20
-8.062000274658203
 30
56.05799865722656
 70
   192
  0
VERTEX
  5
166
  8
0
 10
-7.815000057220459
 20
-7.708000183105469
 30
56.05799865722656
 70
   192
  0
VERTEX
  5
167
  8
0
 10
-9.536999702453613
 20
-5.474999904632568
 30
56.05799865722656
 70
   192
  0
VERTEX
  5
168
  8
0
 10
-4.438000202178955
 20
-10.55500030517578
 30
56.05799865722656
 70
   192
  0
VERTEX
  5
169
  8
0
 10
-5.583000183105469
 20
-9.430000305175781
 30
56.05799865722656
 70
   192
  0
VERTEX
  5
16A
  8
0
 10
-0.0370000004768372
 20
-9.430000305175781
 30
56.05799865722656
 70
   192
  0
VERTEX
  5
16B
  8
0
 10
-0.0370000004768372
 20
-11.43000030517578
 30
56.05799865722656
 70
   192
  0
VERTEX
  5
16C
  8
0
 10
4.363999843597412
 20
-10.55500030517578
 30
56.05799865722656
 70
   192
  0
VERTEX
  5
16D
  8
0
 10
9.463000297546387
 20
2.842999935150146
 30
56.05799865722656
 70
   192
  0
VERTEX
  5
16E
  8
0
 10
11.46300029754639
 20
0.0700000002980232
 30
56.05799865722656
 70
   192
  0
VERTEX
  5
16F
  8
0
 10
10.58699989318848
 20
4.471000194549561
 30
56.05799865722656
 70
   192
  0
VERTEX
  5
170
  8
0
 10
5.507999897003174
 20
-9.430000305175781
 30
56.05799865722656
 70
   192
  0
VERTEX
  5
171
  8
0
 10
8.093999862670898
 20
-8.062000274658203
 30
56.05799865722656
 70
   192
  0
VERTEX
  5
172
  8
0
 10
7.741000175476074
 20
-7.708000183105469
 30
56.05799865722656
 70
   192
  0
VERTEX
  5
173
  8
0
 10
10.58699989318848
 20
-4.330999851226807
 30
56.05799865722656
 70
   192
  0
VERTEX
  5
174
  8
0
 10
9.463000297546387
 20
-5.474999904632568
 30
56.05799865722656
 70
   192
  0
VERTEX
  5
175
  8
0
 10
9.463000297546387
 20
0.0700000002980232
 30
56.05799865722656
 70
   192
  0
VERTEX
  5
176
  8
0
 10
9.463000297546387
 20
5.614999771118164
 30
56.05799865722656
 70
   192
  0
VERTEX
  5
177
  8
0
 10
8.093999862670898
 20
8.20199966430664
 30
56.05799865722656
 70
   192
  0
VERTEX
  5
178
  8
0
 62
     9
 10
0.0
 20
0.0
 30
0.0
 70
   128
 71
     3
 72
     2
 73
     1
  0
VERTEX
  5
179
  8
0
 62
     9
 10
0.0
 20
0.0
 30
0.0
 70
   128
 71
     5
 72
     4
 73
     1
  0
VERTEX
  5
17A
  8
0
 62
     9
 10
0.0
 20
0.0
 30
0.0
 70
   128
 71
     8
 72
     7
 73
     6
  0
VERTEX
  5
17B
  8
0
 62
     9
 10
0.0
 20
0.0
 30
0.0
 70
   128
 71
    10
 72
     9
 73
     6
  0
VERTEX
  5
17C
  8
0
 62
     9
 10
0.0
 20
0.0
 30
0.0
 70
   128
 71
     1
 72
     8
 73
     5
  0
VERTEX
  5
17D
  8
0
 62
     9
 10
0.0
 20
0.0
 30
0.0
 70
   128
 71
     6
 72
     7
 73
    10
  0
VERTEX
  5
17E
  8
0
 62
     9
 10
0.0
 20
0.0
 30
0.0
 70
   128
 71
     9
 72
    10
 73
    11
  0
VERTEX
  5
17F
  8
0
 62
     9
 10
0.0
 20
0.0
 30
0.0
 70
   128
 71
    13
 72
    12
 73
    11
  0
VERTEX
  5
180
  8
0
 62
     9
 10
0.0
 20
0.0
 30
0.0
 70
   128
 71
    16
 72
    15
 73
    14
  0
VERTEX
  5
181
  8
0
 62
     9
 10
0.0
 20
0.0
 30
0.0
 70
   128
 71
    18
 72
    17
 73
    14
  0
VERTEX
  5
182
  8
0
 62
     9
 10
0.0
 20
0.0
 30
0.0
 70
   128
 71
    17
 72
    18
 73
    19
  0
VERTEX
  5
183
  8
0
 62
     9
 10
0.0
 20
0.0
 30
0.0
 70
   128
 71
    21
 72
    20
 73
    19
  0
VERTEX
  5
184
  8
0
 62
     9
 10
0.0
 20
0.0
 30
0.0
 70
   128
 71
    24
 72
    23
 73
    22
  0
VERTEX
  5
185
  8
0
 62
     9
 10
0.0
 20
0.0
 30
0.0
 70
   128
 71
     6
 72
     5
 73
     8
  0
VERTEX
  5
186
  8
0
 62
     9
 10
0.0
 20
0.0
 30
0.0
 70
   128
 71
    11
 72
    16
 73
    13
  0
VERTEX
  5
187
  8
0
 62
     9
 10
0.0
 20
0.0
 30
0.0
 70
   128
 71
    14
 72
    15
 73
    18
  0
VERTEX
  5
188
  8
0
 62
     9
 10
0.0
 20
0.0
 30
0.0
 70
   128
 71
    19
 72
    25
 73
    21
  0
VERTEX
  5
189
  8
0
 62
     9
 10
0.0
 20
0.0
 30
0.0
 70
   128
 71
    25
 72
    27
 73
    26
  0
VERTEX
  5
18A
  8
0
 62
     9
 10
0.0
 20
0.0
 30
0.0
 70
   128
 71
    29
 72
    28
 73
    26
  0
VERTEX
  5
18B
  8
0
 62
     9
 10
0.0
 20
0.0
 30
0.0
 70
   128
 71
    28
 72
    29
 73
    30
  0
VERTEX
  5
18C
  8
0
 62
     9
 10
0.0
 20
0.0
 30
0.0
 70
   128
 71
    22
 72
    31
 73
    24
  0
VERTEX
  5
18D
  8
0
 62
     9
 10
0.0
 20
0.0
 30
0.0
 70
   128
 71
    31
 72
     2
 73
    32
  0
VERTEX
  5
18E
  8
0
 62
     9
 10
0.0
 20
0.0
 30
0.0
 70
   128
 71
    11
 72
    12
 73
     9
  0
VERTEX
  5
18F
  8
0
 62
     9
 10
0.0
 20
0.0
 30
0.0
 70
   128
 71
    19
 72
    20
 73
    17
  0
VERTEX
  5
190
  8
0
 62
     9
 10
0.0
 20
0.0
 30
0.0
 70
   128
 71
    26
 72
    27
 73
    29
  0
VERTEX
  5
191
  8
0
 62
     9
 10
0.0
 20
0.0
 30
0.0
 70
   128
 71
    23
 72
    30
 73
    22
  0
VERTEX
  5
192
  8
0
 62
     9
 10
0.0
 20
0.0
 30
0.0
 70
   128
 71
     2
 72
     3
 73
    32
  0
VERTEX
  5
193
  8
0
 62
     9
 10
0.0
 20
0.0
 30
0.0
 70
   128
 71
    14
 72
    13
 73
    16
  0
VERTEX
  5
194
  8
0
 62
     9
 10
0.0
 20
0.0
 30
0.0
 70
   128
 71
    30
 72
    23
 73
    28
  0
VERTEX
  5
195
  8
0
 62
     9
 10
0.0
 20
0.0
 30
0.0
 70
   128
 71
     1
 72
     4
 73
     3
  0
VERTEX
  5
196
  8
0
 62
     9
 10
0.0
 20
0.0
 30
0.0
 70
   128
 71
    32
 72
    24
 73
    31
  0
VERTEX
  5
197
  8
0
 62
     9
 10
0.0
 20
0.0
 30
0.0
 70
   128
 71
    26
 72
    21
 73
    25
  0
SEQEND
  5
198
  8
0
 62
     9
  0
ENDBLK
  5
19B
  8
0
  0
BLOCK
  8
0
  2
E3_NODE_11_
 70
     0
 10
0.0
 20
0.0
 30
0.0
  3
E3_NODE_11_
  1

  0
POLYLINE
  5
19D
  8
0
 62
     9
 66
     1
 10
0.0
 20
0.0
 30
0.0
 70
    64
 71
    24
 72
    24
  0
VERTEX
  5
19E
  8
0
 10
-8.168999671936035
 20
-8.062000274658203
 30
45.05799865722656
 70
   192
  0
VERTEX
  5
19F
  8
0
 10
-0.0370000004768372
 20
-11.43000030517578
 30
45.05799865722656
 70
   192
  0
VERTEX
  5
1A0
  8
0
 10
-4.438000202178955
 20
-10.55500030517578
 30
56.05799865722656
 70
   192
  0
VERTEX
  5
1A1
  8
0
 10
-0.0370000004768372
 20
-11.43000030517578
 30
56.05799865722656
 70
   192
  0
VERTEX
  5
1A2
  8
0
 10
-11.53699970245361
 20
0.0700000002980232
 30
45.05799865722656
 70
   192
  0
VERTEX
  5
1A3
  8
0
 10
-10.66199970245361
 20
-4.330999851226807
 30
56.05799865722656
 70
   192
  0
VERTEX
  5
1A4
  8
0
 10
-8.168999671936035
 20
-8.062000274658203
 30
56.05799865722656
 70
   192
  0
VERTEX
  5
1A5
  8
0
 10
-11.53699970245361
 20
0.0700000002980232
 30
56.05799865722656
 70
   192
  0
VERTEX
  5
1A6
  8
0
 10
-10.66199970245361
 20
4.471000194549561
 30
56.05799865722656
 70
   192
  0
VERTEX
  5
1A7
  8
0
 10
-8.168999671936035
 20
8.20199966430664
 30
45.05799865722656
 70
   192
  0
VERTEX
  5
1A8
  8
0
 10
-0.0370000004768372
 20
11.56999969482422
 30
45.05799865722656
 70
   192
  0
VERTEX
  5
1A9
  8
0
 10
-4.438000202178955
 20
10.69499969482422
 30
56.05799865722656
 70
   192
  0
VERTEX
  5
1AA
  8
0
 10
-8.168999671936035
 20
8.20199966430664
 30
56.05799865722656
 70
   192
  0
VERTEX
  5
1AB
  8
0
 10
-0.0370000004768372
 20
11.56999969482422
 30
56.05799865722656
 70
   192
  0
VERTEX
  5
1AC
  8
0
 10
4.363999843597412
 20
10.69499969482422
 30
56.05799865722656
 70
   192
  0
VERTEX
  5
1AD
  8
0
 10
8.093999862670898
 20
8.20199966430664
 30
45.05799865722656
 70
   192
  0
VERTEX
  5
1AE
  8
0
 10
11.46300029754639
 20
0.0700000002980232
 30
45.05799865722656
 70
   192
  0
VERTEX
  5
1AF
  8
0
 10
10.58699989318848
 20
4.471000194549561
 30
56.05799865722656
 70
   192
  0
VERTEX
  5
1B0
  8
0
 10
8.093999862670898
 20
8.20199966430664
 30
56.05799865722656
 70
   192
  0
VERTEX
  5
1B1
  8
0
 10
8.093999862670898
 20
-8.062000274658203
 30
45.05799865722656
 70
   192
  0
VERTEX
  5
1B2
  8
0
 10
10.58699989318848
 20
-4.330999851226807
 30
56.05799865722656
 70
   192
  0
VERTEX
  5
1B3
  8
0
 10
11.46300029754639
 20
0.0700000002980232
 30
56.05799865722656
 70
   192
  0
VERTEX
  5
1B4
  8
0
 10
8.093999862670898
 20
-8.062000274658203
 30
56.05799865722656
 70
   192
  0
VERTEX
  5
1B5
  8
0
 10
4.363999843597412
 20
-10.55500030517578
 30
56.05799865722656
 70
   192
  0
VERTEX
  5
1B6
  8
0
 62
     9
 10
0.0
 20
0.0
 30
0.0
 70
   128
 71
     3
 72
     2
 73
     1
  0
VERTEX
  5
1B7
  8
0
 62
     9
 10
0.0
 20
0.0
 30
0.0
 70
   128
 71
     3
 72
     4
 73
     2
  0
VERTEX
  5
1B8
  8
0
 62
     9
 10
0.0
 20
0.0
 30
0.0
 70
   128
 71
     6
 72
     1
 73
     5
  0
VERTEX
  5
1B9
  8
0
 62
     9
 10
0.0
 20
0.0
 30
0.0
 70
   128
 71
     6
 72
     7
 73
     1
  0
VERTEX
  5
1BA
  8
0
 62
     9
 10
0.0
 20
0.0
 30
0.0
 70
   128
 71
     9
 72
     8
 73
     5
  0
VERTEX
  5
1BB
  8
0
 62
     9
 10
0.0
 20
0.0
 30
0.0
 70
   128
 71
     5
 72
    10
 73
     9
  0
VERTEX
  5
1BC
  8
0
 62
     9
 10
0.0
 20
0.0
 30
0.0
 70
   128
 71
    12
 72
    10
 73
    11
  0
VERTEX
  5
1BD
  8
0
 62
     9
 10
0.0
 20
0.0
 30
0.0
 70
   128
 71
    12
 72
    13
 73
    10
  0
VERTEX
  5
1BE
  8
0
 62
     9
 10
0.0
 20
0.0
 30
0.0
 70
   128
 71
    15
 72
    14
 73
    11
  0
VERTEX
  5
1BF
  8
0
 62
     9
 10
0.0
 20
0.0
 30
0.0
 70
   128
 71
    11
 72
    16
 73
    15
  0
VERTEX
  5
1C0
  8
0
 62
     9
 10
0.0
 20
0.0
 30
0.0
 70
   128
 71
    18
 72
    16
 73
    17
  0
VERTEX
  5
1C1
  8
0
 62
     9
 10
0.0
 20
0.0
 30
0.0
 70
   128
 71
    18
 72
    19
 73
    16
  0
VERTEX
  5
1C2
  8
0
 62
     9
 10
0.0
 20
0.0
 30
0.0
 70
   128
 71
    21
 72
    17
 73
    20
  0
VERTEX
  5
1C3
  8
0
 62
     9
 10
0.0
 20
0.0
 30
0.0
 70
   128
 71
    21
 72
    22
 73
    17
  0
VERTEX
  5
1C4
  8
0
 62
     9
 10
0.0
 20
0.0
 30
0.0
 70
   128
 71
    24
 72
    23
 73
    20
  0
VERTEX
  5
1C5
  8
0
 62
     9
 10
0.0
 20
0.0
 30
0.0
 70
   128
 71
    20
 72
     2
 73
    24
  0
VERTEX
  5
1C6
  8
0
 62
     9
 10
0.0
 20
0.0
 30
0.0
 70
   128
 71
     2
 72
     4
 73
    24
  0
VERTEX
  5
1C7
  8
0
 62
     9
 10
0.0
 20
0.0
 30
0.0
 70
   128
 71
    20
 72
    23
 73
    21
  0
VERTEX
  5
1C8
  8
0
 62
     9
 10
0.0
 20
0.0
 30
0.0
 70
   128
 71
    17
 72
    22
 73
    18
  0
VERTEX
  5
1C9
  8
0
 62
     9
 10
0.0
 20
0.0
 30
0.0
 70
   128
 71
    16
 72
    19
 73
    15
  0
VERTEX
  5
1CA
  8
0
 62
     9
 10
0.0
 20
0.0
 30
0.0
 70
   128
 71
    11
 72
    14
 73
    12
  0
VERTEX
  5
1CB
  8
0
 62
     9
 10
0.0
 20
0.0
 30
0.0
 70
   128
 71
    10
 72
    13
 73
     9
  0
VERTEX
  5
1CC
  8
0
 62
     9
 10
0.0
 20
0.0
 30
0.0
 70
   128
 71
     5
 72
     8
 73
     6
  0
VERTEX
  5
1CD
  8
0
 62
     9
 10
0.0
 20
0.0
 30
0.0
 70
   128
 71
     1
 72
     7
 73
     3
  0
SEQEND
  5
1CE
  8
0
 62
     9
  0
ENDBLK
  5
1D1
  8
0
  0
BLOCK
  8
0
  2
E3_NODE_12_
 70
     0
 10
0.0
 20
0.0
 30
0.0
  3
E3_NODE_12_
  1

  0
POLYLINE
  5
1D3
  8
0
 62
     9
 66
     1
 10
0.0
 20
0.0
 30
0.0
 70
    64
 71
    77
 72
    93
  0
VERTEX
  5
1D4
  8
0
 10
20.0
 20
0.0
 30
4.5
 70
   192
  0
VERTEX
  5
1D5
  8
0
 10
18.38199996948242
 20
8.131999969482422
 30
4.5
 70
   192
  0
VERTEX
  5
1D6
  8
0
 10
16.58200073242188
 20
5.59499979019165
 30
8.0
 70
   192
  0
VERTEX
  5
1D7
  8
0
 10
16.05400085449219
 20
6.639999866485596
 30
8.0
 70
   192
  0
VERTEX
  5
1D8
  8
0
 10
17.48500061035156
 20
0.7170000076293945
 30
8.0
 70
   192
  0
VERTEX
  5
1D9
  8
0
 10
-20.88199996948242
 20
-8.131999969482422
 30
4.5
 70
   192
  0
VERTEX
  5
1DA
  8
0
 10
-16.16799926757812
 20
-6.697000026702881
 30
8.0
 70
   192
  0
VERTEX
  5
1DB
  8
0
 10
-17.39699935913086
 20
-1.894000053405762
 30
8.0
 70
   192
  0
VERTEX
  5
1DC
  8
0
 10
-22.5
 20
0.0
 30
4.5
 70
   192
  0
VERTEX
  5
1DD
  8
0
 10
22.5
 20
0.0
 30
1.0
 70
   192
  0
VERTEX
  5
1DE
  8
0
 10
19.76300048828125
 20
9.321999549865723
 30
1.0
 70
   192
  0
VERTEX
  5
1DF
  8
0
 10
-27.5
 20
0.0
 30
1.0
 70
   192
  0
VERTEX
  5
1E0
  8
0
 10
-26.48699951171875
 20
-7.043000221252441
 30
1.0
 70
   192
  0
VERTEX
  5
1E1
  8
0
 10
-9.381999969482422
 20
19.63199996948242
 30
4.5
 70
   192
  0
VERTEX
  5
1E2
  8
0
 10
-6.671999931335449
 20
16.08399963378906
 30
8.0
 70
   192
  0
VERTEX
  5
1E3
  8
0
 10
-2.615999937057495
 20
17.30299949645996
 30
8.0
 70
   192
  0
VERTEX
  5
1E4
  8
0
 10
-1.25
 20
21.25
 30
4.5
 70
   192
  0
VERTEX
  5
1E5
  8
0
 10
6.881999969482422
 20
19.63199996948242
 30
4.5
 70
   192
  0
VERTEX
  5
1E6
  8
0
 10
6.697000026702881
 20
16.16799926757812
 30
8.0
 70
   192
  0
VERTEX
  5
1E7
  8
0
 10
10.96199989318848
 20
13.64099979400635
 30
8.0
 70
   192
  0
VERTEX
  5
1E8
  8
0
 10
13.77600002288818
 20
15.02600002288818
 30
4.5
 70
   192
  0
VERTEX
  5
1E9
  8
0
 10
12.25300025939941
 20
12.26099967956543
 30
8.0
 70
   192
  0
VERTEX
  5
1EA
  8
0
 10
14.35000038146973
 20
10.01700019836426
 30
8.0
 70
   192
  0
VERTEX
  5
1EB
  8
0
 10
2.344000101089478
 20
17.34199905395508
 30
8.0
 70
   192
  0
VERTEX
  5
1EC
  8
0
 10
0.0010000000474975
 20
17.32399940490723
 30
8.0
 70
   192
  0
VERTEX
  5
1ED
  8
0
 10
-20.88199996948242
 20
8.131999969482422
 30
4.5
 70
   192
  0
VERTEX
  5
1EE
  8
0
 10
-16.01600074768066
 20
6.627999782562256
 30
8.0
 70
   192
  0
VERTEX
  5
1EF
  8
0
 10
-14.75
 20
9.416999816894531
 30
8.0
 70
   192
  0
VERTEX
  5
1F0
  8
0
 10
-16.27599906921387
 20
15.02600002288818
 30
4.5
 70
   192
  0
VERTEX
  5
1F1
  8
0
 10
-11.52000045776367
 20
13.17300033569336
 30
8.0
 70
   192
  0
VERTEX
  5
1F2
  8
0
 10
-12.27799987792969
 20
12.29199981689453
 30
8.0
 70
   192
  0
VERTEX
  5
1F3
  8
0
 10
-7.361000061035156
 20
15.87600040435791
 30
8.0
 70
   192
  0
VERTEX
  5
1F4
  8
0
 10
-17.5
 20
0.0
 30
8.0
 70
   192
  0
VERTEX
  5
1F5
  8
0
 10
-16.79999923706055
 20
4.900000095367432
 30
8.0
 70
   192
  0
VERTEX
  5
1F6
  8
0
 10
-1.25
 20
-21.25
 30
4.5
 70
   192
  0
VERTEX
  5
1F7
  8
0
 10
6.881999969482422
 20
-19.63199996948242
 30
4.5
 70
   192
  0
VERTEX
  5
1F8
  8
0
 10
3.763000011444092
 20
-17.09099960327148
 30
8.0
 70
   192
  0
VERTEX
  5
1F9
  8
0
 10
6.638000011444092
 20
-16.01199913024902
 30
8.0
 70
   192
  0
VERTEX
  5
1FA
  8
0
 10
-9.381999969482422
 20
-19.63199996948242
 30
4.5
 70
   192
  0
VERTEX
  5
1FB
  8
0
 10
-6.656000137329102
 20
-16.09099960327148
 30
8.0
 70
   192
  0
VERTEX
  5
1FC
  8
0
 10
-10.39200019836426
 20
-14.07999992370605
 30
8.0
 70
   192
  0
VERTEX
  5
1FD
  8
0
 10
-16.27599906921387
 20
-15.02600002288818
 30
4.5
 70
   192
  0
VERTEX
  5
1FE
  8
0
 10
-13.92500019073486
 20
-10.59899997711182
 30
8.0
 70
   192
  0
VERTEX
  5
1FF
  8
0
 10
-12.25100040435791
 20
-12.24899959564209
 30
8.0
 70
   192
  0
VERTEX
  5
200
  8
0
 10
-1.177000045776367
 20
-17.45999908447266
 30
8.0
 70
   192
  0
VERTEX
  5
201
  8
0
 10
-6.028999805450439
 20
-16.42900085449219
 30
8.0
 70
   192
  0
VERTEX
  5
202
  8
0
 10
-0.0099999997764826
 20
-17.37299919128418
 30
8.0
 70
   192
  0
VERTEX
  5
203
  8
0
 10
13.77600002288818
 20
-15.02600002288818
 30
4.5
 70
   192
  0
VERTEX
  5
204
  8
0
 10
18.38199996948242
 20
-8.131999969482422
 30
4.5
 70
   192
  0
VERTEX
  5
205
  8
0
 10
15.12100028991699
 20
-8.809000015258789
 30
8.0
 70
   192
  0
VERTEX
  5
206
  8
0
 10
16.0049991607666
 20
-6.63100004196167
 30
8.0
 70
   192
  0
VERTEX
  5
207
  8
0
 10
12.37399959564209
 20
-12.37399959564209
 30
8.0
 70
   192
  0
VERTEX
  5
208
  8
0
 10
8.407999992370605
 20
-15.34799957275391
 30
8.0
 70
   192
  0
VERTEX
  5
209
  8
0
 10
17.41300010681152
 20
0.0089999996125698
 30
8.0
 70
   192
  0
VERTEX
  5
20A
  8
0
 10
16.98500061035156
 20
-4.212999820709229
 30
8.0
 70
   192
  0
VERTEX
  5
20B
  8
0
 10
7.032999992370605
 20
-22.86300086975098
 30
1.0
 70
   192
  0
VERTEX
  5
20C
  8
0
 10
-18.87199974060059
 20
-18.89399909973145
 30
1.0
 70
   192
  0
VERTEX
  5
20D
  8
0
 10
-11.65299987792969
 20
-22.19000053405762
 30
1.0
 70
   192
  0
VERTEX
  5
20E
  8
0
 10
-19.80599975585938
 20
-17.43899917602539
 30
1.0
 70
   192
  0
VERTEX
  5
20F
  8
0
 10
-6.058000087738037
 20
-24.74600028991699
 30
1.0
 70
   192
  0
VERTEX
  5
210
  8
0
 10
-2.608000040054321
 20
-24.25
 30
1.0
 70
   192
  0
VERTEX
  5
211
  8
0
 10
18.5310001373291
 20
-13.51599979400635
 30
1.0
 70
   192
  0
VERTEX
  5
212
  8
0
 10
14.55599975585938
 20
-16.95999908447266
 30
1.0
 70
   192
  0
VERTEX
  5
213
  8
0
 10
7.885000228881836
 20
-22.74099922180176
 30
1.0
 70
   192
  0
VERTEX
  5
214
  8
0
 10
-2.608000040054321
 20
24.25
 30
1.0
 70
   192
  0
VERTEX
  5
215
  8
0
 10
-6.058000087738037
 20
24.74600028991699
 30
1.0
 70
   192
  0
VERTEX
  5
216
  8
0
 10
14.55599975585938
 20
16.95999908447266
 30
1.0
 70
   192
  0
VERTEX
  5
217
  8
0
 10
7.885000228881836
 20
22.74099922180176
 30
1.0
 70
   192
  0
VERTEX
  5
218
  8
0
 10
18.5310001373291
 20
13.51599979400635
 30
1.0
 70
   192
  0
VERTEX
  5
219
  8
0
 10
7.032999992370605
 20
22.86300086975098
 30
1.0
 70
   192
  0
VERTEX
  5
21A
  8
0
 10
-19.80599975585938
 20
17.43899917602539
 30
1.0
 70
   192
  0
VERTEX
  5
21B
  8
0
 10
-25.07900047302246
 20
9.234000205993652
 30
1.0
 70
   192
  0
VERTEX
  5
21C
  8
0
 10
-11.65299987792969
 20
22.19000053405762
 30
1.0
 70
   192
  0
VERTEX
  5
21D
  8
0
 10
-18.87199974060059
 20
18.89399909973145
 30
1.0
 70
   192
  0
VERTEX
  5
21E
  8
0
 10
-26.48699951171875
 20
7.043000221252441
 30
1.0
 70
   192
  0
VERTEX
  5
21F
  8
0
 10
19.76300048828125
 20
-9.321999549865723
 30
1.0
 70
   192
  0
VERTEX
  5
220
  8
0
 10
-25.07900047302246
 20
-9.234000205993652
 30
1.0
 70
   192
  0
VERTEX
  5
221
  8
0
 62
     9
 10
0.0
 20
0.0
 30
0.0
 70
   128
 71
     3
 72
     2
 73
     1
  0
VERTEX
  5
222
  8
0
 62
     9
 10
0.0
 20
0.0
 30
0.0
 70
   128
 71
     3
 72
     4
 73
     2
  0
VERTEX
  5
223
  8
0
 62
     9
 10
0.0
 20
0.0
 30
0.0
 70
   128
 71
     1
 72
     5
 73
     3
  0
VERTEX
  5
224
  8
0
 62
     9
 10
0.0
 20
0.0
 30
0.0
 70
   128
 71
     8
 72
     7
 73
     6
  0
VERTEX
  5
225
  8
0
 62
     9
 10
0.0
 20
0.0
 30
0.0
 70
   128
 71
     6
 72
     9
 73
     8
  0
VERTEX
  5
226
  8
0
 62
     9
 10
0.0
 20
0.0
 30
0.0
 70
   128
 71
     2
 72
    11
 73
    10
  0
VERTEX
  5
227
  8
0
 62
     9
 10
0.0
 20
0.0
 30
0.0
 70
   128
 71
    13
 72
    12
 73
     9
  0
VERTEX
  5
228
  8
0
 62
     9
 10
0.0
 20
0.0
 30
0.0
 70
   128
 71
     9
 72
     6
 73
    13
  0
VERTEX
  5
229
  8
0
 62
     9
 10
0.0
 20
0.0
 30
0.0
 70
   128
 71
    16
 72
    15
 73
    14
  0
VERTEX
  5
22A
  8
0
 62
     9
 10
0.0
 20
0.0
 30
0.0
 70
   128
 71
    14
 72
    17
 73
    16
  0
VERTEX
  5
22B
  8
0
 62
     9
 10
0.0
 20
0.0
 30
0.0
 70
   128
 71
    20
 72
    19
 73
    18
  0
VERTEX
  5
22C
  8
0
 62
     9
 10
0.0
 20
0.0
 30
0.0
 70
   128
 71
    18
 72
    21
 73
    20
  0
VERTEX
  5
22D
  8
0
 62
     9
 10
0.0
 20
0.0
 30
0.0
 70
   128
 71
    23
 72
    22
 73
    21
  0
VERTEX
  5
22E
  8
0
 62
     9
 10
0.0
 20
0.0
 30
0.0
 70
   128
 71
    21
 72
     2
 73
    23
  0
VERTEX
  5
22F
  8
0
 62
     9
 10
0.0
 20
0.0
 30
0.0
 70
   128
 71
    24
 72
    17
 73
    18
  0
VERTEX
  5
230
  8
0
 62
     9
 10
0.0
 20
0.0
 30
0.0
 70
   128
 71
    24
 72
    25
 73
    17
  0
VERTEX
  5
231
  8
0
 62
     9
 10
0.0
 20
0.0
 30
0.0
 70
   128
 71
    28
 72
    27
 73
    26
  0
VERTEX
  5
232
  8
0
 62
     9
 10
0.0
 20
0.0
 30
0.0
 70
   128
 71
    26
 72
    29
 73
    28
  0
VERTEX
  5
233
  8
0
 62
     9
 10
0.0
 20
0.0
 30
0.0
 70
   128
 71
    30
 72
    29
 73
    14
  0
VERTEX
  5
234
  8
0
 62
     9
 10
0.0
 20
0.0
 30
0.0
 70
   128
 71
    30
 72
    31
 73
    29
  0
VERTEX
  5
235
  8
0
 62
     9
 10
0.0
 20
0.0
 30
0.0
 70
   128
 71
    14
 72
    32
 73
    30
  0
VERTEX
  5
236
  8
0
 62
     9
 10
0.0
 20
0.0
 30
0.0
 70
   128
 71
    34
 72
    33
 73
     9
  0
VERTEX
  5
237
  8
0
 62
     9
 10
0.0
 20
0.0
 30
0.0
 70
   128
 71
     9
 72
    26
 73
    34
  0
VERTEX
  5
238
  8
0
 62
     9
 10
0.0
 20
0.0
 30
0.0
 70
   128
 71
    37
 72
    36
 73
    35
  0
VERTEX
  5
239
  8
0
 62
     9
 10
0.0
 20
0.0
 30
0.0
 70
   128
 71
    37
 72
    38
 73
    36
  0
VERTEX
  5
23A
  8
0
 62
     9
 10
0.0
 20
0.0
 30
0.0
 70
   128
 71
    41
 72
    40
 73
    39
  0
VERTEX
  5
23B
  8
0
 62
     9
 10
0.0
 20
0.0
 30
0.0
 70
   128
 71
    39
 72
    42
 73
    41
  0
VERTEX
  5
23C
  8
0
 62
     9
 10
0.0
 20
0.0
 30
0.0
 70
   128
 71
    43
 72
    42
 73
     6
  0
VERTEX
  5
23D
  8
0
 62
     9
 10
0.0
 20
0.0
 30
0.0
 70
   128
 71
    43
 72
    44
 73
    42
  0
VERTEX
  5
23E
  8
0
 62
     9
 10
0.0
 20
0.0
 30
0.0
 70
   128
 71
    46
 72
    45
 73
    35
  0
VERTEX
  5
23F
  8
0
 62
     9
 10
0.0
 20
0.0
 30
0.0
 70
   128
 71
    45
 72
    47
 73
    35
  0
VERTEX
  5
240
  8
0
 62
     9
 10
0.0
 20
0.0
 30
0.0
 70
   128
 71
    35
 72
    39
 73
    46
  0
VERTEX
  5
241
  8
0
 62
     9
 10
0.0
 20
0.0
 30
0.0
 70
   128
 71
    50
 72
    49
 73
    48
  0
VERTEX
  5
242
  8
0
 62
     9
 10
0.0
 20
0.0
 30
0.0
 70
   128
 71
    50
 72
    51
 73
    49
  0
VERTEX
  5
243
  8
0
 62
     9
 10
0.0
 20
0.0
 30
0.0
 70
   128
 71
    53
 72
    52
 73
    48
  0
VERTEX
  5
244
  8
0
 62
     9
 10
0.0
 20
0.0
 30
0.0
 70
   128
 71
    48
 72
    36
 73
    53
  0
VERTEX
  5
245
  8
0
 62
     9
 10
0.0
 20
0.0
 30
0.0
 70
   128
 71
    55
 72
    54
 73
     1
  0
VERTEX
  5
246
  8
0
 62
     9
 10
0.0
 20
0.0
 30
0.0
 70
   128
 71
     1
 72
    49
 73
    55
  0
VERTEX
  5
247
  8
0
 62
     9
 10
0.0
 20
0.0
 30
0.0
 70
   128
 71
    35
 72
    36
 73
    56
  0
VERTEX
  5
248
  8
0
 62
     9
 10
0.0
 20
0.0
 30
0.0
 70
   128
 71
    58
 72
    57
 73
    42
  0
VERTEX
  5
249
  8
0
 62
     9
 10
0.0
 20
0.0
 30
0.0
 70
   128
 71
    57
 72
    59
 73
    42
  0
VERTEX
  5
24A
  8
0
 62
     9
 10
0.0
 20
0.0
 30
0.0
 70
   128
 71
     6
 72
    42
 73
    59
  0
VERTEX
  5
24B
  8
0
 62
     9
 10
0.0
 20
0.0
 30
0.0
 70
   128
 71
    61
 72
    60
 73
    39
  0
VERTEX
  5
24C
  8
0
 62
     9
 10
0.0
 20
0.0
 30
0.0
 70
   128
 71
    60
 72
    58
 73
    39
  0
VERTEX
  5
24D
  8
0
 62
     9
 10
0.0
 20
0.0
 30
0.0
 70
   128
 71
    62
 72
    48
 73
    49
  0
VERTEX
  5
24E
  8
0
 62
     9
 10
0.0
 20
0.0
 30
0.0
 70
   128
 71
    62
 72
    63
 73
    48
  0
VERTEX
  5
24F
  8
0
 62
     9
 10
0.0
 20
0.0
 30
0.0
 70
   128
 71
    63
 72
    64
 73
    36
  0
VERTEX
  5
250
  8
0
 62
     9
 10
0.0
 20
0.0
 30
0.0
 70
   128
 71
    64
 72
    56
 73
    36
  0
VERTEX
  5
251
  8
0
 62
     9
 10
0.0
 20
0.0
 30
0.0
 70
   128
 71
    49
 72
     1
 73
    10
  0
VERTEX
  5
252
  8
0
 62
     9
 10
0.0
 20
0.0
 30
0.0
 70
   128
 71
    65
 72
    17
 73
    14
  0
VERTEX
  5
253
  8
0
 62
     9
 10
0.0
 20
0.0
 30
0.0
 70
   128
 71
    14
 72
    66
 73
    65
  0
VERTEX
  5
254
  8
0
 62
     9
 10
0.0
 20
0.0
 30
0.0
 70
   128
 71
    67
 72
    21
 73
    18
  0
VERTEX
  5
255
  8
0
 62
     9
 10
0.0
 20
0.0
 30
0.0
 70
   128
 71
    18
 72
    68
 73
    67
  0
VERTEX
  5
256
  8
0
 62
     9
 10
0.0
 20
0.0
 30
0.0
 70
   128
 71
    69
 72
    11
 73
     2
  0
VERTEX
  5
257
  8
0
 62
     9
 10
0.0
 20
0.0
 30
0.0
 70
   128
 71
     2
 72
    21
 73
    69
  0
VERTEX
  5
258
  8
0
 62
     9
 10
0.0
 20
0.0
 30
0.0
 70
   128
 71
    17
 72
    65
 73
    70
  0
VERTEX
  5
259
  8
0
 62
     9
 10
0.0
 20
0.0
 30
0.0
 70
   128
 71
    26
 72
    72
 73
    71
  0
VERTEX
  5
25A
  8
0
 62
     9
 10
0.0
 20
0.0
 30
0.0
 70
   128
 71
    73
 72
    14
 73
    29
  0
VERTEX
  5
25B
  8
0
 62
     9
 10
0.0
 20
0.0
 30
0.0
 70
   128
 71
    29
 72
    74
 73
    73
  0
VERTEX
  5
25C
  8
0
 62
     9
 10
0.0
 20
0.0
 30
0.0
 70
   128
 71
    75
 72
    26
 73
     9
  0
VERTEX
  5
25D
  8
0
 62
     9
 10
0.0
 20
0.0
 30
0.0
 70
   128
 71
    75
 72
    72
 73
    26
  0
VERTEX
  5
25E
  8
0
 62
     9
 10
0.0
 20
0.0
 30
0.0
 70
   128
 71
     9
 72
    12
 73
    75
  0
VERTEX
  5
25F
  8
0
 62
     9
 10
0.0
 20
0.0
 30
0.0
 70
   128
 71
    29
 72
    71
 73
    74
  0
VERTEX
  5
260
  8
0
 62
     9
 10
0.0
 20
0.0
 30
0.0
 70
   128
 71
    71
 72
    29
 73
    26
  0
VERTEX
  5
261
  8
0
 62
     9
 10
0.0
 20
0.0
 30
0.0
 70
   128
 71
    70
 72
    18
 73
    17
  0
VERTEX
  5
262
  8
0
 62
     9
 10
0.0
 20
0.0
 30
0.0
 70
   128
 71
    21
 72
    67
 73
    69
  0
VERTEX
  5
263
  8
0
 62
     9
 10
0.0
 20
0.0
 30
0.0
 70
   128
 71
    18
 72
    70
 73
    68
  0
VERTEX
  5
264
  8
0
 62
     9
 10
0.0
 20
0.0
 30
0.0
 70
   128
 71
    14
 72
    73
 73
    66
  0
VERTEX
  5
265
  8
0
 62
     9
 10
0.0
 20
0.0
 30
0.0
 70
   128
 71
    10
 72
    76
 73
    49
  0
VERTEX
  5
266
  8
0
 62
     9
 10
0.0
 20
0.0
 30
0.0
 70
   128
 71
    36
 72
    48
 73
    63
  0
VERTEX
  5
267
  8
0
 62
     9
 10
0.0
 20
0.0
 30
0.0
 70
   128
 71
    49
 72
    76
 73
    62
  0
VERTEX
  5
268
  8
0
 62
     9
 10
0.0
 20
0.0
 30
0.0
 70
   128
 71
    39
 72
    35
 73
    61
  0
VERTEX
  5
269
  8
0
 62
     9
 10
0.0
 20
0.0
 30
0.0
 70
   128
 71
    59
 72
    77
 73
     6
  0
VERTEX
  5
26A
  8
0
 62
     9
 10
0.0
 20
0.0
 30
0.0
 70
   128
 71
    42
 72
    39
 73
    58
  0
VERTEX
  5
26B
  8
0
 62
     9
 10
0.0
 20
0.0
 30
0.0
 70
   128
 71
    56
 72
    61
 73
    35
  0
VERTEX
  5
26C
  8
0
 62
     9
 10
0.0
 20
0.0
 30
0.0
 70
   128
 71
    49
 72
    51
 73
    55
  0
VERTEX
  5
26D
  8
0
 62
     9
 10
0.0
 20
0.0
 30
0.0
 70
   128
 71
    36
 72
    38
 73
    53
  0
VERTEX
  5
26E
  8
0
 62
     9
 10
0.0
 20
0.0
 30
0.0
 70
   128
 71
    48
 72
    52
 73
    50
  0
VERTEX
  5
26F
  8
0
 62
     9
 10
0.0
 20
0.0
 30
0.0
 70
   128
 71
    39
 72
    40
 73
    46
  0
VERTEX
  5
270
  8
0
 62
     9
 10
0.0
 20
0.0
 30
0.0
 70
   128
 71
     6
 72
     7
 73
    43
  0
VERTEX
  5
271
  8
0
 62
     9
 10
0.0
 20
0.0
 30
0.0
 70
   128
 71
    42
 72
    44
 73
    41
  0
VERTEX
  5
272
  8
0
 62
     9
 10
0.0
 20
0.0
 30
0.0
 70
   128
 71
    35
 72
    47
 73
    37
  0
VERTEX
  5
273
  8
0
 62
     9
 10
0.0
 20
0.0
 30
0.0
 70
   128
 71
    26
 72
    27
 73
    34
  0
VERTEX
  5
274
  8
0
 62
     9
 10
0.0
 20
0.0
 30
0.0
 70
   128
 71
    14
 72
    15
 73
    32
  0
VERTEX
  5
275
  8
0
 62
     9
 10
0.0
 20
0.0
 30
0.0
 70
   128
 71
    29
 72
    31
 73
    28
  0
VERTEX
  5
276
  8
0
 62
     9
 10
0.0
 20
0.0
 30
0.0
 70
   128
 71
    18
 72
    19
 73
    24
  0
VERTEX
  5
277
  8
0
 62
     9
 10
0.0
 20
0.0
 30
0.0
 70
   128
 71
     2
 72
     4
 73
    23
  0
VERTEX
  5
278
  8
0
 62
     9
 10
0.0
 20
0.0
 30
0.0
 70
   128
 71
    21
 72
    22
 73
    20
  0
VERTEX
  5
279
  8
0
 62
     9
 10
0.0
 20
0.0
 30
0.0
 70
   128
 71
    17
 72
    25
 73
    16
  0
VERTEX
  5
27A
  8
0
 62
     9
 10
0.0
 20
0.0
 30
0.0
 70
   128
 71
     6
 72
    77
 73
    13
  0
VERTEX
  5
27B
  8
0
 62
     9
 10
0.0
 20
0.0
 30
0.0
 70
   128
 71
    10
 72
     1
 73
     2
  0
VERTEX
  5
27C
  8
0
 62
     9
 10
0.0
 20
0.0
 30
0.0
 70
   128
 71
     9
 72
    33
 73
     8
  0
VERTEX
  5
27D
  8
0
 62
     9
 10
0.0
 20
0.0
 30
0.0
 70
   128
 71
     1
 72
    54
 73
     5
  0
SEQEND
  5
27E
  8
0
 62
     9
  0
ENDBLK
  5
281
  8
0
  0
BLOCK
  8
0
  2
E3_NODE_13_
 70
     0
 10
0.0
 20
0.0
 30
0.0
  3
E3_NODE_13_
  1

  0
POLYLINE
  5
283
  8
0
 62
     9
 66
     1
 10
0.0
 20
0.0
 30
0.0
 70
    64
 71
    38
 72
    38
  0
VERTEX
  5
284
  8
0
 10
22.5
 20
0.0
 30
0.0
 70
   192
  0
VERTEX
  5
285
  8
0
 10
22.5
 20
0.0
 30
1.0
 70
   192
  0
VERTEX
  5
286
  8
0
 10
19.76300048828125
 20
-9.321999549865723
 30
1.0
 70
   192
  0
VERTEX
  5
287
  8
0
 10
18.5310001373291
 20
-13.51599979400635
 30
0.0
 70
   192
  0
VERTEX
  5
288
  8
0
 10
7.885000228881836
 20
-22.74099922180176
 30
0.0
 70
   192
  0
VERTEX
  5
289
  8
0
 10
14.55599975585938
 20
-16.95999908447266
 30
1.0
 70
   192
  0
VERTEX
  5
28A
  8
0
 10
18.5310001373291
 20
-13.51599979400635
 30
1.0
 70
   192
  0
VERTEX
  5
28B
  8
0
 10
7.032999992370605
 20
-22.86300086975098
 30
1.0
 70
   192
  0
VERTEX
  5
28C
  8
0
 10
-2.608000040054321
 20
-24.25
 30
1.0
 70
   192
  0
VERTEX
  5
28D
  8
0
 10
-6.058000087738037
 20
-24.74600028991699
 30
0.0
 70
   192
  0
VERTEX
  5
28E
  8
0
 10
7.885000228881836
 20
-22.74099922180176
 30
1.0
 70
   192
  0
VERTEX
  5
28F
  8
0
 10
-18.87199974060059
 20
-18.89399909973145
 30
0.0
 70
   192
  0
VERTEX
  5
290
  8
0
 10
-11.65299987792969
 20
-22.19000053405762
 30
1.0
 70
   192
  0
VERTEX
  5
291
  8
0
 10
-6.058000087738037
 20
-24.74600028991699
 30
1.0
 70
   192
  0
VERTEX
  5
292
  8
0
 10
-19.80599975585938
 20
-17.43899917602539
 30
1.0
 70
   192
  0
VERTEX
  5
293
  8
0
 10
-25.07900047302246
 20
-9.234000205993652
 30
1.0
 70
   192
  0
VERTEX
  5
294
  8
0
 10
-26.48699951171875
 20
-7.043000221252441
 30
0.0
 70
   192
  0
VERTEX
  5
295
  8
0
 10
-18.87199974060059
 20
-18.89399909973145
 30
1.0
 70
   192
  0
VERTEX
  5
296
  8
0
 10
-26.48699951171875
 20
7.043000221252441
 30
1.0
 70
   192
  0
VERTEX
  5
297
  8
0
 10
-26.48699951171875
 20
7.043000221252441
 30
0.0
 70
   192
  0
VERTEX
  5
298
  8
0
 10
-27.5
 20
0.0
 30
0.0
 70
   192
  0
VERTEX
  5
299
  8
0
 10
-26.48699951171875
 20
-7.043000221252441
 30
1.0
 70
   192
  0
VERTEX
  5
29A
  8
0
 10
-27.5
 20
0.0
 30
1.0
 70
   192
  0
VERTEX
  5
29B
  8
0
 10
-18.87199974060059
 20
18.89399909973145
 30
0.0
 70
   192
  0
VERTEX
  5
29C
  8
0
 10
-25.07900047302246
 20
9.234000205993652
 30
1.0
 70
   192
  0
VERTEX
  5
29D
  8
0
 10
-19.80599975585938
 20
17.43899917602539
 30
1.0
 70
   192
  0
VERTEX
  5
29E
  8
0
 10
-18.87199974060059
 20
18.89399909973145
 30
1.0
 70
   192
  0
VERTEX
  5
29F
  8
0
 10
-11.65299987792969
 20
22.19000053405762
 30
1.0
 70
   192
  0
VERTEX
  5
2A0
  8
0
 10
-6.058000087738037
 20
24.74600028991699
 30
0.0
 70
   192
  0
VERTEX
  5
2A1
  8
0
 10
7.885000228881836
 20
22.74099922180176
 30
0.0
 70
   192
  0
VERTEX
  5
2A2
  8
0
 10
-2.608000040054321
 20
24.25
 30
1.0
 70
   192
  0
VERTEX
  5
2A3
  8
0
 10
7.032999992370605
 20
22.86300086975098
 30
1.0
 70
   192
  0
VERTEX
  5
2A4
  8
0
 10
-6.058000087738037
 20
24.74600028991699
 30
1.0
 70
   192
  0
VERTEX
  5
2A5
  8
0
 10
7.885000228881836
 20
22.74099922180176
 30
1.0
 70
   192
  0
VERTEX
  5
2A6
  8
0
 10
14.55599975585938
 20
16.95999908447266
 30
1.0
 70
   192
  0
VERTEX
  5
2A7
  8
0
 10
18.5310001373291
 20
13.51599979400635
 30
0.0
 70
   192
  0
VERTEX
  5
2A8
  8
0
 10
19.76300048828125
 20
9.321999549865723
 30
1.0
 70
   192
  0
VERTEX
  5
2A9
  8
0
 10
18.5310001373291
 20
13.51599979400635
 30
1.0
 70
   192
  0
VERTEX
  5
2AA
  8
0
 62
     9
 10
0.0
 20
0.0
 30
0.0
 70
   128
 71
     3
 72
     2
 73
     1
  0
VERTEX
  5
2AB
  8
0
 62
     9
 10
0.0
 20
0.0
 30
0.0
 70
   128
 71
     1
 72
     4
 73
     3
  0
VERTEX
  5
2AC
  8
0
 62
     9
 10
0.0
 20
0.0
 30
0.0
 70
   128
 71
     6
 72
     4
 73
     5
  0
VERTEX
  5
2AD
  8
0
 62
     9
 10
0.0
 20
0.0
 30
0.0
 70
   128
 71
     6
 72
     7
 73
     4
  0
VERTEX
  5
2AE
  8
0
 62
     9
 10
0.0
 20
0.0
 30
0.0
 70
   128
 71
     9
 72
     8
 73
     5
  0
VERTEX
  5
2AF
  8
0
 62
     9
 10
0.0
 20
0.0
 30
0.0
 70
   128
 71
     5
 72
    10
 73
     9
  0
VERTEX
  5
2B0
  8
0
 62
     9
 10
0.0
 20
0.0
 30
0.0
 70
   128
 71
     8
 72
    11
 73
     5
  0
VERTEX
  5
2B1
  8
0
 62
     9
 10
0.0
 20
0.0
 30
0.0
 70
   128
 71
    13
 72
    10
 73
    12
  0
VERTEX
  5
2B2
  8
0
 62
     9
 10
0.0
 20
0.0
 30
0.0
 70
   128
 71
    13
 72
    14
 73
    10
  0
VERTEX
  5
2B3
  8
0
 62
     9
 10
0.0
 20
0.0
 30
0.0
 70
   128
 71
    16
 72
    15
 73
    12
  0
VERTEX
  5
2B4
  8
0
 62
     9
 10
0.0
 20
0.0
 30
0.0
 70
   128
 71
    12
 72
    17
 73
    16
  0
VERTEX
  5
2B5
  8
0
 62
     9
 10
0.0
 20
0.0
 30
0.0
 70
   128
 71
    15
 72
    18
 73
    12
  0
VERTEX
  5
2B6
  8
0
 62
     9
 10
0.0
 20
0.0
 30
0.0
 70
   128
 71
    21
 72
    20
 73
    19
  0
VERTEX
  5
2B7
  8
0
 62
     9
 10
0.0
 20
0.0
 30
0.0
 70
   128
 71
    23
 72
    22
 73
    17
  0
VERTEX
  5
2B8
  8
0
 62
     9
 10
0.0
 20
0.0
 30
0.0
 70
   128
 71
    17
 72
    21
 73
    23
  0
VERTEX
  5
2B9
  8
0
 62
     9
 10
0.0
 20
0.0
 30
0.0
 70
   128
 71
    25
 72
    20
 73
    24
  0
VERTEX
  5
2BA
  8
0
 62
     9
 10
0.0
 20
0.0
 30
0.0
 70
   128
 71
    24
 72
    26
 73
    25
  0
VERTEX
  5
2BB
  8
0
 62
     9
 10
0.0
 20
0.0
 30
0.0
 70
   128
 71
    25
 72
    19
 73
    20
  0
VERTEX
  5
2BC
  8
0
 62
     9
 10
0.0
 20
0.0
 30
0.0
 70
   128
 71
    28
 72
    27
 73
    24
  0
VERTEX
  5
2BD
  8
0
 62
     9
 10
0.0
 20
0.0
 30
0.0
 70
   128
 71
    24
 72
    29
 73
    28
  0
VERTEX
  5
2BE
  8
0
 62
     9
 10
0.0
 20
0.0
 30
0.0
 70
   128
 71
    31
 72
    29
 73
    30
  0
VERTEX
  5
2BF
  8
0
 62
     9
 10
0.0
 20
0.0
 30
0.0
 70
   128
 71
    30
 72
    32
 73
    31
  0
VERTEX
  5
2C0
  8
0
 62
     9
 10
0.0
 20
0.0
 30
0.0
 70
   128
 71
    31
 72
    33
 73
    29
  0
VERTEX
  5
2C1
  8
0
 62
     9
 10
0.0
 20
0.0
 30
0.0
 70
   128
 71
    35
 72
    34
 73
    30
  0
VERTEX
  5
2C2
  8
0
 62
     9
 10
0.0
 20
0.0
 30
0.0
 70
   128
 71
    30
 72
    36
 73
    35
  0
VERTEX
  5
2C3
  8
0
 62
     9
 10
0.0
 20
0.0
 30
0.0
 70
   128
 71
    37
 72
    36
 73
     1
  0
VERTEX
  5
2C4
  8
0
 62
     9
 10
0.0
 20
0.0
 30
0.0
 70
   128
 71
    37
 72
    38
 73
    36
  0
VERTEX
  5
2C5
  8
0
 62
     9
 10
0.0
 20
0.0
 30
0.0
 70
   128
 71
     1
 72
     2
 73
    37
  0
VERTEX
  5
2C6
  8
0
 62
     9
 10
0.0
 20
0.0
 30
0.0
 70
   128
 71
    36
 72
    38
 73
    35
  0
VERTEX
  5
2C7
  8
0
 62
     9
 10
0.0
 20
0.0
 30
0.0
 70
   128
 71
    30
 72
    34
 73
    32
  0
VERTEX
  5
2C8
  8
0
 62
     9
 10
0.0
 20
0.0
 30
0.0
 70
   128
 71
    29
 72
    33
 73
    28
  0
VERTEX
  5
2C9
  8
0
 62
     9
 10
0.0
 20
0.0
 30
0.0
 70
   128
 71
    24
 72
    27
 73
    26
  0
VERTEX
  5
2CA
  8
0
 62
     9
 10
0.0
 20
0.0
 30
0.0
 70
   128
 71
    19
 72
    23
 73
    21
  0
VERTEX
  5
2CB
  8
0
 62
     9
 10
0.0
 20
0.0
 30
0.0
 70
   128
 71
    17
 72
    22
 73
    16
  0
VERTEX
  5
2CC
  8
0
 62
     9
 10
0.0
 20
0.0
 30
0.0
 70
   128
 71
    12
 72
    18
 73
    13
  0
VERTEX
  5
2CD
  8
0
 62
     9
 10
0.0
 20
0.0
 30
0.0
 70
   128
 71
    10
 72
    14
 73
     9
  0
VERTEX
  5
2CE
  8
0
 62
     9
 10
0.0
 20
0.0
 30
0.0
 70
   128
 71
     5
 72
    11
 73
     6
  0
VERTEX
  5
2CF
  8
0
 62
     9
 10
0.0
 20
0.0
 30
0.0
 70
   128
 71
     4
 72
     7
 73
     3
  0
SEQEND
  5
2D0
  8
0
 62
     9
  0
ENDBLK
  5
2D3
  8
0
  0
BLOCK
  8
0
  2
E3_NODE_14_
 70
     0
 10
0.0
 20
0.0
 30
0.0
  3
E3_NODE_14_
  1

  0
POLYLINE
  5
2D5
  8
0
 62
     9
 66
     1
 10
0.0
 20
0.0
 30
0.0
 70
    64
 71
    12
 72
    10
  0
VERTEX
  5
2D6
  8
0
 10
22.5
 20
0.0
 30
0.0
 70
   192
  0
VERTEX
  5
2D7
  8
0
 10
-6.058000087738037
 20
24.74600028991699
 30
0.0
 70
   192
  0
VERTEX
  5
2D8
  8
0
 10
7.885000228881836
 20
22.74099922180176
 30
0.0
 70
   192
  0
VERTEX
  5
2D9
  8
0
 10
-26.48699951171875
 20
7.043000221252441
 30
0.0
 70
   192
  0
VERTEX
  5
2DA
  8
0
 10
-18.87199974060059
 20
18.89399909973145
 30
0.0
 70
   192
  0
VERTEX
  5
2DB
  8
0
 10
7.885000228881836
 20
-22.74099922180176
 30
0.0
 70
   192
  0
VERTEX
  5
2DC
  8
0
 10
-6.058000087738037
 20
-24.74600028991699
 30
0.0
 70
   192
  0
VERTEX
  5
2DD
  8
0
 10
-18.87199974060059
 20
-18.89399909973145
 30
0.0
 70
   192
  0
VERTEX
  5
2DE
  8
0
 10
-26.48699951171875
 20
-7.043000221252441
 30
0.0
 70
   192
  0
VERTEX
  5
2DF
  8
0
 10
18.5310001373291
 20
-13.51599979400635
 30
0.0
 70
   192
  0
VERTEX
  5
2E0
  8
0
 10
-27.5
 20
0.0
 30
0.0
 70
   192
  0
VERTEX
  5
2E1
  8
0
 10
18.5310001373291
 20
13.51599979400635
 30
0.0
 70
   192
  0
VERTEX
  5
2E2
  8
0
 62
     9
 10
0.0
 20
0.0
 30
0.0
 70
   128
 71
     3
 72
     2
 73
     1
  0
VERTEX
  5
2E3
  8
0
 62
     9
 10
0.0
 20
0.0
 30
0.0
 70
   128
 71
     5
 72
     4
 73
     1
  0
VERTEX
  5
2E4
  8
0
 62
     9
 10
0.0
 20
0.0
 30
0.0
 70
   128
 71
     8
 72
     7
 73
     6
  0
VERTEX
  5
2E5
  8
0
 62
     9
 10
0.0
 20
0.0
 30
0.0
 70
   128
 71
    10
 72
     1
 73
     9
  0
VERTEX
  5
2E6
  8
0
 62
     9
 10
0.0
 20
0.0
 30
0.0
 70
   128
 71
     1
 72
     2
 73
     5
  0
VERTEX
  5
2E7
  8
0
 62
     9
 10
0.0
 20
0.0
 30
0.0
 70
   128
 71
     9
 72
     6
 73
    10
  0
VERTEX
  5
2E8
  8
0
 62
     9
 10
0.0
 20
0.0
 30
0.0
 70
   128
 71
     4
 72
    11
 73
     1
  0
VERTEX
  5
2E9
  8
0
 62
     9
 10
0.0
 20
0.0
 30
0.0
 70
   128
 71
     6
 72
     9
 73
     8
  0
VERTEX
  5
2EA
  8
0
 62
     9
 10
0.0
 20
0.0
 30
0.0
 70
   128
 71
     1
 72
    11
 73
     9
  0
VERTEX
  5
2EB
  8
0
 62
     9
 10
0.0
 20
0.0
 30
0.0
 70
   128
 71
     1
 72
    12
 73
     3
  0
SEQEND
  5
2EC
  8
0
 62
     9
  0
ENDBLK
  5
2EF
  8
0
  0
BLOCK
  8
0
  2
E3_NODE_15_
 70
     0
 10
0.0
 20
0.0
 30
0.0
  3
E3_NODE_15_
  1

  0
POLYLINE
  5
2F1
  8
0
 62
     9
 66
     1
 10
0.0
 20
0.0
 30
0.0
 70
    64
 71
    15
 72
    15
  0
VERTEX
  5
2F2
  8
0
 10
-7.11899995803833
 20
20.69499969482422
 30
40.48199844360352
 70
   192
  0
VERTEX
  5
2F3
  8
0
 10
-7.11899995803833
 20
22.24900054931641
 30
41.74100112915039
 70
   192
  0
VERTEX
  5
2F4
  8
0
 10
-11.41899967193604
 20
27.86800003051758
 30
34.80300140380859
 70
   192
  0
VERTEX
  5
2F5
  8
0
 10
2.540999889373779
 20
19.3080005645752
 30
42.19599914550781
 70
   192
  0
VERTEX
  5
2F6
  8
0
 10
2.540999889373779
 20
20.86199951171875
 30
43.45399856567383
 70
   192
  0
VERTEX
  5
2F7
  8
0
 10
10.28800010681152
 20
23.19599914550781
 30
37.39400100708008
 70
   192
  0
VERTEX
  5
2F8
  8
0
 10
10.28800010681152
 20
24.75
 30
38.65299987792969
 70
   192
  0
VERTEX
  5
2F9
  8
0
 10
10.28800010681152
 20
29.43099975585938
 30
29.69400024414062
 70
   192
  0
VERTEX
  5
2FA
  8
0
 10
11.41899967193604
 20
27.86800003051758
 30
34.80300140380859
 70
   192
  0
VERTEX
  5
2FB
  8
0
 10
10.28800010681152
 20
30.98600006103516
 30
30.95199966430664
 70
   192
  0
VERTEX
  5
2FC
  8
0
 10
2.540999889373779
 20
33.31900024414062
 30
24.89299964904785
 70
   192
  0
VERTEX
  5
2FD
  8
0
 10
2.540999889373779
 20
34.87400054931641
 30
26.15099906921387
 70
   192
  0
VERTEX
  5
2FE
  8
0
 10
-7.11899995803833
 20
31.93199920654297
 30
26.60600090026855
 70
   192
  0
VERTEX
  5
2FF
  8
0
 10
-7.11899995803833
 20
33.48600006103516
 30
27.86499977111816
 70
   192
  0
VERTEX
  5
300
  8
0
 10
-11.41899967193604
 20
26.3129997253418
 30
33.54399871826172
 70
   192
  0
VERTEX
  5
301
  8
0
 62
     9
 10
0.0
 20
0.0
 30
0.0
 70
   128
 71
     3
 72
     2
 73
     1
  0
VERTEX
  5
302
  8
0
 62
     9
 10
0.0
 20
0.0
 30
0.0
 70
   128
 71
     2
 72
     5
 73
     4
  0
VERTEX
  5
303
  8
0
 62
     9
 10
0.0
 20
0.0
 30
0.0
 70
   128
 71
     5
 72
     7
 73
     6
  0
VERTEX
  5
304
  8
0
 62
     9
 10
0.0
 20
0.0
 30
0.0
 70
   128
 71
     9
 72
     8
 73
     6
  0
VERTEX
  5
305
  8
0
 62
     9
 10
0.0
 20
0.0
 30
0.0
 70
   128
 71
     9
 72
    10
 73
     8
  0
VERTEX
  5
306
  8
0
 62
     9
 10
0.0
 20
0.0
 30
0.0
 70
   128
 71
    12
 72
    11
 73
     8
  0
VERTEX
  5
307
  8
0
 62
     9
 10
0.0
 20
0.0
 30
0.0
 70
   128
 71
    12
 72
    14
 73
    13
  0
VERTEX
  5
308
  8
0
 62
     9
 10
0.0
 20
0.0
 30
0.0
 70
   128
 71
    14
 72
     3
 73
    15
  0
VERTEX
  5
309
  8
0
 62
     9
 10
0.0
 20
0.0
 30
0.0
 70
   128
 71
    15
 72
    13
 73
    14
  0
VERTEX
  5
30A
  8
0
 62
     9
 10
0.0
 20
0.0
 30
0.0
 70
   128
 71
    13
 72
    11
 73
    12
  0
VERTEX
  5
30B
  8
0
 62
     9
 10
0.0
 20
0.0
 30
0.0
 70
   128
 71
     8
 72
    10
 73
    12
  0
VERTEX
  5
30C
  8
0
 62
     9
 10
0.0
 20
0.0
 30
0.0
 70
   128
 71
     6
 72
     7
 73
     9
  0
VERTEX
  5
30D
  8
0
 62
     9
 10
0.0
 20
0.0
 30
0.0
 70
   128
 71
     6
 72
     4
 73
     5
  0
VERTEX
  5
30E
  8
0
 62
     9
 10
0.0
 20
0.0
 30
0.0
 70
   128
 71
     4
 72
     1
 73
     2
  0
VERTEX
  5
30F
  8
0
 62
     9
 10
0.0
 20
0.0
 30
0.0
 70
   128
 71
     1
 72
    15
 73
     3
  0
SEQEND
  5
310
  8
0
 62
     9
  0
ENDBLK
  5
313
  8
0
  0
BLOCK
  8
0
  2
E3_NODE_16_
 70
     0
 10
0.0
 20
0.0
 30
0.0
  3
E3_NODE_16_
  1

  0
POLYLINE
  5
315
  8
0
 62
     9
 66
     1
 10
0.0
 20
0.0
 30
0.0
 70
    64
 71
    37
 72
    37
  0
VERTEX
  5
316
  8
0
 10
2.540999889373779
 20
20.86199951171875
 30
43.45399856567383
 70
   192
  0
VERTEX
  5
317
  8
0
 10
10.28800010681152
 20
24.75
 30
38.65299987792969
 70
   192
  0
VERTEX
  5
318
  8
0
 10
10.27099990844727
 20
21.40399932861328
 30
42.78499984741211
 70
   192
  0
VERTEX
  5
319
  8
0
 10
0.0
 20
18.42799949645996
 30
46.45999908447266
 70
   192
  0
VERTEX
  5
31A
  8
0
 10
-5.633999824523926
 20
19.39299964904785
 30
45.26900100708008
 70
   192
  0
VERTEX
  5
31B
  8
0
 10
-7.11899995803833
 20
22.24900054931641
 30
41.74100112915039
 70
   192
  0
VERTEX
  5
31C
  8
0
 10
-12.33500003814697
 20
22.70899963378906
 30
41.17300033569336
 70
   192
  0
VERTEX
  5
31D
  8
0
 10
-12.93200016021729
 20
23.08499908447266
 30
40.70899963378906
 70
   192
  0
VERTEX
  5
31E
  8
0
 10
13.47000026702881
 20
31.41399955749512
 30
30.42399978637695
 70
   192
  0
VERTEX
  5
31F
  8
0
 10
15.0
 20
27.86800003051758
 30
34.80300140380859
 70
   192
  0
VERTEX
  5
320
  8
0
 10
11.41899967193604
 20
27.86800003051758
 30
34.80300140380859
 70
   192
  0
VERTEX
  5
321
  8
0
 10
13.46100044250488
 20
24.32299995422363
 30
39.17900085449219
 70
   192
  0
VERTEX
  5
322
  8
0
 10
7.625
 20
19.73900032043457
 30
44.84099960327148
 70
   192
  0
VERTEX
  5
323
  8
0
 10
-7.599999904632568
 20
19.72900009155273
 30
44.85300064086914
 70
   192
  0
VERTEX
  5
324
  8
0
 10
-11.41899967193604
 20
27.86800003051758
 30
34.80300140380859
 70
   192
  0
VERTEX
  5
325
  8
0
 10
-13.46700000762939
 20
24.32200050354004
 30
39.18099975585938
 70
   192
  0
VERTEX
  5
326
  8
0
 10
-10.26599979400635
 20
21.4069995880127
 30
42.78099822998047
 70
   192
  0
VERTEX
  5
327
  8
0
 10
2.540999889373779
 20
34.87400054931641
 30
26.15099906921387
 70
   192
  0
VERTEX
  5
328
  8
0
 10
-2.796999931335449
 20
36.82699966430664
 30
23.73900032043457
 70
   192
  0
VERTEX
  5
329
  8
0
 10
-0.0040000001899898
 20
37.30799865722656
 30
23.14599990844727
 70
   192
  0
VERTEX
  5
32A
  8
0
 10
7.587999820709229
 20
36.01100158691406
 30
24.74699974060059
 70
   192
  0
VERTEX
  5
32B
  8
0
 10
10.26299953460693
 20
34.32699966430664
 30
26.82600021362305
 70
   192
  0
VERTEX
  5
32C
  8
0
 10
10.28800010681152
 20
30.98600006103516
 30
30.95199966430664
 70
   192
  0
VERTEX
  5
32D
  8
0
 10
12.93900012969971
 20
32.64300155639648
 30
28.9060001373291
 70
   192
  0
VERTEX
  5
32E
  8
0
 10
12.34000015258789
 20
22.70599937438965
 30
41.17699813842773
 70
   192
  0
VERTEX
  5
32F
  8
0
 10
5.631999969482422
 20
19.39599990844727
 30
45.26399993896484
 70
   192
  0
VERTEX
  5
330
  8
0
 10
-7.11899995803833
 20
33.48600006103516
 30
27.86499977111816
 70
   192
  0
VERTEX
  5
331
  8
0
 10
-13.46100044250488
 20
31.41200065612793
 30
30.42600059509277
 70
   192
  0
VERTEX
  5
332
  8
0
 10
-12.91699981689453
 20
32.66699981689453
 30
28.87599945068359
 70
   192
  0
VERTEX
  5
333
  8
0
 10
-15.0
 20
27.86800003051758
 30
34.80300140380859
 70
   192
  0
VERTEX
  5
334
  8
0
 10
0.0130000002682209
 20
37.30799865722656
 30
23.14599990844727
 70
   192
  0
VERTEX
  5
335
  8
0
 10
-5.631999969482422
 20
36.34000015258789
 30
24.34099960327148
 70
   192
  0
VERTEX
  5
336
  8
0
 10
5.635000228881836
 20
36.34500122070312
 30
24.33399963378906
 70
   192
  0
VERTEX
  5
337
  8
0
 10
12.91699981689453
 20
23.06900024414062
 30
40.72900009155273
 70
   192
  0
VERTEX
  5
338
  8
0
 10
-10.27099990844727
 20
34.33200073242188
 30
26.81999969482422
 70
   192
  0
VERTEX
  5
339
  8
0
 10
-7.625999927520752
 20
35.99599838256836
 30
24.76499938964844
 70
   192
  0
VERTEX
  5
33A
  8
0
 10
2.799000024795532
 20
36.83100128173828
 30
23.73399925231934
 70
   192
  0
VERTEX
  5
33B
  8
0
 62
     9
 10
0.0
 20
0.0
 30
0.0
 70
   128
 71
     3
 72
     2
 73
     1
  0
VERTEX
  5
33C
  8
0
 62
     9
 10
0.0
 20
0.0
 30
0.0
 70
   128
 71
     5
 72
     4
 73
     1
  0
VERTEX
  5
33D
  8
0
 62
     9
 10
0.0
 20
0.0
 30
0.0
 70
   128
 71
     8
 72
     7
 73
     6
  0
VERTEX
  5
33E
  8
0
 62
     9
 10
0.0
 20
0.0
 30
0.0
 70
   128
 71
    11
 72
    10
 73
     9
  0
VERTEX
  5
33F
  8
0
 62
     9
 10
0.0
 20
0.0
 30
0.0
 70
   128
 71
    11
 72
     2
 73
    12
  0
VERTEX
  5
340
  8
0
 62
     9
 10
0.0
 20
0.0
 30
0.0
 70
   128
 71
     1
 72
    13
 73
     3
  0
VERTEX
  5
341
  8
0
 62
     9
 10
0.0
 20
0.0
 30
0.0
 70
   128
 71
    14
 72
     5
 73
     6
  0
VERTEX
  5
342
  8
0
 62
     9
 10
0.0
 20
0.0
 30
0.0
 70
   128
 71
     1
 72
     6
 73
     5
  0
VERTEX
  5
343
  8
0
 62
     9
 10
0.0
 20
0.0
 30
0.0
 70
   128
 71
    16
 72
     6
 73
    15
  0
VERTEX
  5
344
  8
0
 62
     9
 10
0.0
 20
0.0
 30
0.0
 70
   128
 71
     7
 72
    17
 73
     6
  0
VERTEX
  5
345
  8
0
 62
     9
 10
0.0
 20
0.0
 30
0.0
 70
   128
 71
    20
 72
    19
 73
    18
  0
VERTEX
  5
346
  8
0
 62
     9
 10
0.0
 20
0.0
 30
0.0
 70
   128
 71
    22
 72
    21
 73
    18
  0
VERTEX
  5
347
  8
0
 62
     9
 10
0.0
 20
0.0
 30
0.0
 70
   128
 71
     9
 72
    24
 73
    23
  0
VERTEX
  5
348
  8
0
 62
     9
 10
0.0
 20
0.0
 30
0.0
 70
   128
 71
    12
 72
    10
 73
    11
  0
VERTEX
  5
349
  8
0
 62
     9
 10
0.0
 20
0.0
 30
0.0
 70
   128
 71
     3
 72
    25
 73
     2
  0
VERTEX
  5
34A
  8
0
 62
     9
 10
0.0
 20
0.0
 30
0.0
 70
   128
 71
     4
 72
    26
 73
     1
  0
VERTEX
  5
34B
  8
0
 62
     9
 10
0.0
 20
0.0
 30
0.0
 70
   128
 71
     6
 72
    16
 73
     8
  0
VERTEX
  5
34C
  8
0
 62
     9
 10
0.0
 20
0.0
 30
0.0
 70
   128
 71
    29
 72
    28
 73
    27
  0
VERTEX
  5
34D
  8
0
 62
     9
 10
0.0
 20
0.0
 30
0.0
 70
   128
 71
    28
 72
    30
 73
    15
  0
VERTEX
  5
34E
  8
0
 62
     9
 10
0.0
 20
0.0
 30
0.0
 70
   128
 71
    18
 72
    31
 73
    20
  0
VERTEX
  5
34F
  8
0
 62
     9
 10
0.0
 20
0.0
 30
0.0
 70
   128
 71
    19
 72
    32
 73
    27
  0
VERTEX
  5
350
  8
0
 62
     9
 10
0.0
 20
0.0
 30
0.0
 70
   128
 71
    21
 72
    33
 73
    18
  0
VERTEX
  5
351
  8
0
 62
     9
 10
0.0
 20
0.0
 30
0.0
 70
   128
 71
     2
 72
    34
 73
    12
  0
VERTEX
  5
352
  8
0
 62
     9
 10
0.0
 20
0.0
 30
0.0
 70
   128
 71
    25
 72
    34
 73
     2
  0
VERTEX
  5
353
  8
0
 62
     9
 10
0.0
 20
0.0
 30
0.0
 70
   128
 71
    15
 72
    30
 73
    16
  0
VERTEX
  5
354
  8
0
 62
     9
 10
0.0
 20
0.0
 30
0.0
 70
   128
 71
    15
 72
    27
 73
    28
  0
VERTEX
  5
355
  8
0
 62
     9
 10
0.0
 20
0.0
 30
0.0
 70
   128
 71
    27
 72
    18
 73
    19
  0
VERTEX
  5
356
  8
0
 62
     9
 10
0.0
 20
0.0
 30
0.0
 70
   128
 71
    36
 72
    35
 73
    27
  0
VERTEX
  5
357
  8
0
 62
     9
 10
0.0
 20
0.0
 30
0.0
 70
   128
 71
    18
 72
    23
 73
    22
  0
VERTEX
  5
358
  8
0
 62
     9
 10
0.0
 20
0.0
 30
0.0
 70
   128
 71
     1
 72
    26
 73
    13
  0
VERTEX
  5
359
  8
0
 62
     9
 10
0.0
 20
0.0
 30
0.0
 70
   128
 71
    27
 72
    35
 73
    29
  0
VERTEX
  5
35A
  8
0
 62
     9
 10
0.0
 20
0.0
 30
0.0
 70
   128
 71
    27
 72
    32
 73
    36
  0
VERTEX
  5
35B
  8
0
 62
     9
 10
0.0
 20
0.0
 30
0.0
 70
   128
 71
     9
 72
    23
 73
    11
  0
VERTEX
  5
35C
  8
0
 62
     9
 10
0.0
 20
0.0
 30
0.0
 70
   128
 71
    18
 72
    37
 73
    31
  0
VERTEX
  5
35D
  8
0
 62
     9
 10
0.0
 20
0.0
 30
0.0
 70
   128
 71
     6
 72
    17
 73
    14
  0
VERTEX
  5
35E
  8
0
 62
     9
 10
0.0
 20
0.0
 30
0.0
 70
   128
 71
    23
 72
    24
 73
    22
  0
VERTEX
  5
35F
  8
0
 62
     9
 10
0.0
 20
0.0
 30
0.0
 70
   128
 71
    33
 72
    37
 73
    18
  0
SEQEND
  5
360
  8
0
 62
     9
  0
ENDBLK
  5
363
  8
0
  0
BLOCK
  8
0
  2
E3_NODE_17_
 70
     0
 10
0.0
 20
0.0
 30
0.0
  3
E3_NODE_17_
  1

  0
POLYLINE
  5
365
  8
0
 62
     9
 66
     1
 10
0.0
 20
0.0
 30
0.0
 70
    64
 71
   114
 72
   134
  0
VERTEX
  5
366
  8
0
 10
3.401999950408936
 20
55.3129997253418
 30
33.04600143432617
 70
   192
  0
VERTEX
  5
367
  8
0
 10
2.799000024795532
 20
36.83100128173828
 30
23.73399925231934
 70
   192
  0
VERTEX
  5
368
  8
0
 10
0.0130000002682209
 20
37.30799865722656
 30
23.14599990844727
 70
   192
  0
VERTEX
  5
369
  8
0
 10
0.0
 20
55.87400054931641
 30
32.35400009155273
 70
   192
  0
VERTEX
  5
36A
  8
0
 10
0.0
 20
32.89899826049805
 30
60.72499847412109
 70
   192
  0
VERTEX
  5
36B
  8
0
 10
-7.052000045776367
 20
33.56999969482422
 30
59.89699935913086
 70
   192
  0
VERTEX
  5
36C
  8
0
 10
-5.633999824523926
 20
19.39299964904785
 30
45.26900100708008
 70
   192
  0
VERTEX
  5
36D
  8
0
 10
17.73699951171875
 20
43.27799987792969
 30
47.90900039672852
 70
   192
  0
VERTEX
  5
36E
  8
0
 10
17.68600082397461
 20
38.84299850463867
 30
53.3849983215332
 70
   192
  0
VERTEX
  5
36F
  8
0
 10
13.46100044250488
 20
24.32299995422363
 30
39.17900085449219
 70
   192
  0
VERTEX
  5
370
  8
0
 10
11.91600036621094
 20
51.36100006103516
 30
37.92800140380859
 70
   192
  0
VERTEX
  5
371
  8
0
 10
15.79100036621094
 20
47.59000015258789
 30
42.58399963378906
 70
   192
  0
VERTEX
  5
372
  8
0
 10
12.93900012969971
 20
32.64300155639648
 30
28.9060001373291
 70
   192
  0
VERTEX
  5
373
  8
0
 10
13.47000026702881
 20
31.41399955749512
 30
30.42399978637695
 70
   192
  0
VERTEX
  5
374
  8
0
 10
10.26299953460693
 20
34.32699966430664
 30
26.82600021362305
 70
   192
  0
VERTEX
  5
375
  8
0
 10
7.587999820709229
 20
36.01100158691406
 30
24.74699974060059
 70
   192
  0
VERTEX
  5
376
  8
0
 10
6.508999824523926
 20
54.2599983215332
 30
34.34700012207031
 70
   192
  0
VERTEX
  5
377
  8
0
 10
15.0
 20
27.86800003051758
 30
34.80300140380859
 70
   192
  0
VERTEX
  5
378
  8
0
 10
13.4709997177124
 20
35.44900131225586
 30
57.57699966430664
 70
   192
  0
VERTEX
  5
379
  8
0
 10
7.052000045776367
 20
33.56999969482422
 30
59.89699935913086
 70
   192
  0
VERTEX
  5
37A
  8
0
 10
7.625
 20
19.73900032043457
 30
44.84099960327148
 70
   192
  0
VERTEX
  5
37B
  8
0
 10
5.631999969482422
 20
19.39599990844727
 30
45.26399993896484
 70
   192
  0
VERTEX
  5
37C
  8
0
 10
16.21299934387207
 20
36.83399963378906
 30
55.86600112915039
 70
   192
  0
VERTEX
  5
37D
  8
0
 10
12.91699981689453
 20
23.06900024414062
 30
40.72900009155273
 70
   192
  0
VERTEX
  5
37E
  8
0
 10
12.34000015258789
 20
22.70599937438965
 30
41.17699813842773
 70
   192
  0
VERTEX
  5
37F
  8
0
 10
10.27099990844727
 20
21.40399932861328
 30
42.78499984741211
 70
   192
  0
VERTEX
  5
380
  8
0
 10
0.0
 20
18.42799949645996
 30
46.45999908447266
 70
   192
  0
VERTEX
  5
381
  8
0
 10
-15.79100036621094
 20
47.59000015258789
 30
42.58399963378906
 70
   192
  0
VERTEX
  5
382
  8
0
 10
-13.46100044250488
 20
31.41200065612793
 30
30.42600059509277
 70
   192
  0
VERTEX
  5
383
  8
0
 10
-15.0
 20
27.86800003051758
 30
34.80300140380859
 70
   192
  0
VERTEX
  5
384
  8
0
 10
-13.4709997177124
 20
35.44900131225586
 30
57.57699966430664
 70
   192
  0
VERTEX
  5
385
  8
0
 10
-16.21299934387207
 20
36.83399963378906
 30
55.86600112915039
 70
   192
  0
VERTEX
  5
386
  8
0
 10
-12.33500003814697
 20
22.70899963378906
 30
41.17300033569336
 70
   192
  0
VERTEX
  5
387
  8
0
 10
-10.26599979400635
 20
21.4069995880127
 30
42.78099822998047
 70
   192
  0
VERTEX
  5
388
  8
0
 10
-7.599999904632568
 20
19.72900009155273
 30
44.85300064086914
 70
   192
  0
VERTEX
  5
389
  8
0
 10
-17.73699951171875
 20
43.27799987792969
 30
47.90900039672852
 70
   192
  0
VERTEX
  5
38A
  8
0
 10
-13.46700000762939
 20
24.32200050354004
 30
39.18099975585938
 70
   192
  0
VERTEX
  5
38B
  8
0
 10
-17.68600082397461
 20
38.84299850463867
 30
53.3849983215332
 70
   192
  0
VERTEX
  5
38C
  8
0
 10
-12.93200016021729
 20
23.08499908447266
 30
40.70899963378906
 70
   192
  0
VERTEX
  5
38D
  8
0
 10
-11.91600036621094
 20
51.36100006103516
 30
37.92800140380859
 70
   192
  0
VERTEX
  5
38E
  8
0
 10
-6.508999824523926
 20
54.2599983215332
 30
34.34700012207031
 70
   192
  0
VERTEX
  5
38F
  8
0
 10
-7.625999927520752
 20
35.99599838256836
 30
24.76499938964844
 70
   192
  0
VERTEX
  5
390
  8
0
 10
-5.631999969482422
 20
36.34000015258789
 30
24.34099960327148
 70
   192
  0
VERTEX
  5
391
  8
0
 10
-10.27099990844727
 20
34.33200073242188
 30
26.81999969482422
 70
   192
  0
VERTEX
  5
392
  8
0
 10
-12.91699981689453
 20
32.66699981689453
 30
28.87599945068359
 70
   192
  0
VERTEX
  5
393
  8
0
 10
-2.796999931335449
 20
36.82699966430664
 30
23.73900032043457
 70
   192
  0
VERTEX
  5
394
  8
0
 10
-3.401999950408936
 20
55.3129997253418
 30
33.04600143432617
 70
   192
  0
VERTEX
  5
395
  8
0
 10
-0.0040000001899898
 20
37.30799865722656
 30
23.14599990844727
 70
   192
  0
VERTEX
  5
396
  8
0
 10
-17.30200004577637
 20
63.88999938964844
 30
54.07300186157227
 70
   192
  0
VERTEX
  5
397
  8
0
 10
-14.13300037384033
 20
67.12300109863281
 30
50.02000045776367
 70
   192
  0
VERTEX
  5
398
  8
0
 10
-17.66500091552734
 20
63.42200088500977
 30
54.62900161743164
 70
   192
  0
VERTEX
  5
399
  8
0
 10
-17.52099990844727
 20
63.66600036621094
 30
54.35200119018555
 70
   192
  0
VERTEX
  5
39A
  8
0
 10
-11.46000003814697
 20
68.96399688720703
 30
47.43199920654297
 70
   192
  0
VERTEX
  5
39B
  8
0
 10
-7.185999870300293
 20
70.94100189208984
 30
44.14500045776367
 70
   192
  0
VERTEX
  5
39C
  8
0
 10
-12.89500045776367
 20
67.9749984741211
 30
48.82099914550781
 70
   192
  0
VERTEX
  5
39D
  8
0
 10
-13.15799999237061
 20
67.79399871826172
 30
49.07600021362305
 70
   192
  0
VERTEX
  5
39E
  8
0
 10
-5.359000205993652
 20
71.63899993896484
 30
42.87300109863281
 70
   192
  0
VERTEX
  5
39F
  8
0
 10
-3.78600001335144
 20
72.00599670410156
 30
42.03300094604492
 70
   192
  0
VERTEX
  5
3A0
  8
0
 10
-6.445000171661377
 20
71.28399658203125
 30
43.57500076293945
 70
   192
  0
VERTEX
  5
3A1
  8
0
 10
-1.776999950408936
 20
72.4739990234375
 30
40.96099853515625
 70
   192
  0
VERTEX
  5
3A2
  8
0
 10
1.460000038146973
 20
72.51300048828125
 30
40.86100006103516
 70
   192
  0
VERTEX
  5
3A3
  8
0
 10
1.940000057220459
 20
72.4520034790039
 30
41.01800155639648
 70
   192
  0
VERTEX
  5
3A4
  8
0
 10
2.398999929428101
 20
72.34600067138672
 30
41.26300048828125
 70
   192
  0
VERTEX
  5
3A5
  8
0
 10
-0.1669999957084656
 20
72.59400177001953
 30
40.65200042724609
 70
   192
  0
VERTEX
  5
3A6
  8
0
 10
4.991000175476074
 20
71.7490005493164
 30
42.64500045776367
 70
   192
  0
VERTEX
  5
3A7
  8
0
 10
3.802999973297119
 20
72.02300262451172
 30
42.01100158691406
 70
   192
  0
VERTEX
  5
3A8
  8
0
 10
10.00500011444092
 20
69.68599700927734
 30
46.27000045776367
 70
   192
  0
VERTEX
  5
3A9
  8
0
 10
11.69799995422363
 20
68.82099914550781
 30
47.64400100708008
 70
   192
  0
VERTEX
  5
3AA
  8
0
 10
8.187999725341797
 20
70.61399841308594
 30
44.79499816894531
 70
   192
  0
VERTEX
  5
3AB
  8
0
 10
7.209000110626221
 20
70.96199798583984
 30
44.13600158691406
 70
   192
  0
VERTEX
  5
3AC
  8
0
 10
15.74300003051758
 20
65.69599914550781
 30
51.87099838256836
 70
   192
  0
VERTEX
  5
3AD
  8
0
 10
17.49300003051758
 20
63.70299911499023
 30
54.30799865722656
 70
   192
  0
VERTEX
  5
3AE
  8
0
 10
15.30200004577637
 20
66.03600311279297
 30
51.40999984741211
 70
   192
  0
VERTEX
  5
3AF
  8
0
 10
13.09099960327148
 20
67.74500274658203
 30
49.09999847412109
 70
   192
  0
VERTEX
  5
3B0
  8
0
 10
18.79700088500977
 20
61.41899871826172
 30
56.87900161743164
 70
   192
  0
VERTEX
  5
3B1
  8
0
 10
19.79299926757812
 20
59.67499923706055
 30
58.84000015258789
 70
   192
  0
VERTEX
  5
3B2
  8
0
 10
17.6560001373291
 20
63.41799926757812
 30
54.62900161743164
 70
   192
  0
VERTEX
  5
3B3
  8
0
 10
20.83200073242188
 20
55.52799987792969
 30
63.0099983215332
 70
   192
  0
VERTEX
  5
3B4
  8
0
 10
21.19799995422363
 20
52.56900024414062
 30
65.85099792480469
 70
   192
  0
VERTEX
  5
3B5
  8
0
 10
20.32600021362305
 20
58.06999969482422
 30
60.5
 70
   192
  0
VERTEX
  5
3B6
  8
0
 10
20.63100051879883
 20
57.1510009765625
 30
61.45199966430664
 70
   192
  0
VERTEX
  5
3B7
  8
0
 10
20.87899971008301
 20
50.97100067138672
 30
67.41500091552734
 70
   192
  0
VERTEX
  5
3B8
  8
0
 10
21.11499977111816
 20
52.15299987792969
 30
66.25700378417969
 70
   192
  0
VERTEX
  5
3B9
  8
0
 10
20.0049991607666
 20
49.92900085449219
 30
68.6709976196289
 70
   192
  0
VERTEX
  5
3BA
  8
0
 10
18.72400093078613
 20
49.32400131225586
 30
69.68199920654297
 70
   192
  0
VERTEX
  5
3BB
  8
0
 10
18.6569995880127
 20
49.29299926757812
 30
69.73400115966797
 70
   192
  0
VERTEX
  5
3BC
  8
0
 10
19.55599975585938
 20
49.71699905395508
 30
69.0250015258789
 70
   192
  0
VERTEX
  5
3BD
  8
0
 10
15.625
 20
48.61299896240234
 30
71.33499908447266
 70
   192
  0
VERTEX
  5
3BE
  8
0
 10
11.91399955749512
 20
48.00699996948242
 30
72.80699920654297
 70
   192
  0
VERTEX
  5
3BF
  8
0
 10
16.12100028991699
 20
48.7239990234375
 30
71.072998046875
 70
   192
  0
VERTEX
  5
3C0
  8
0
 10
10.06900024414062
 20
47.80300140380859
 30
73.29000091552734
 70
   192
  0
VERTEX
  5
3C1
  8
0
 10
1.970999956130981
 20
47.22800064086914
 30
74.61499786376953
 70
   192
  0
VERTEX
  5
3C2
  8
0
 10
0.4050000011920929
 20
47.15499877929688
 30
74.7750015258789
 70
   192
  0
VERTEX
  5
3C3
  8
0
 10
6.961999893188477
 20
47.45999908447266
 30
74.10399627685547
 70
   192
  0
VERTEX
  5
3C4
  8
0
 10
8.307999610900879
 20
47.60900115966797
 30
73.75199890136719
 70
   192
  0
VERTEX
  5
3C5
  8
0
 10
0.0020000000949949
 20
47.16699981689453
 30
74.74800109863281
 70
   192
  0
VERTEX
  5
3C6
  8
0
 10
-5.169000148773193
 20
47.32699966430664
 30
74.40499877929688
 70
   192
  0
VERTEX
  5
3C7
  8
0
 10
-5.967999935150146
 20
47.40599822998047
 30
74.22000122070312
 70
   192
  0
VERTEX
  5
3C8
  8
0
 10
-11.53299999237061
 20
47.95500183105469
 30
72.93199920654297
 70
   192
  0
VERTEX
  5
3C9
  8
0
 10
-13.76700019836426
 20
48.2859992980957
 30
72.12999725341797
 70
   192
  0
VERTEX
  5
3CA
  8
0
 10
-8.291999816894531
 20
47.6349983215332
 30
73.68199920654297
 70
   192
  0
VERTEX
  5
3CB
  8
0
 10
-14.31900024414062
 20
48.39899826049805
 30
71.86000061035156
 70
   192
  0
VERTEX
  5
3CC
  8
0
 10
-18.60400009155273
 20
49.2760009765625
 30
69.76799774169922
 70
   192
  0
VERTEX
  5
3CD
  8
0
 10
-16.07999992370605
 20
48.7599983215332
 30
71.0
 70
   192
  0
VERTEX
  5
3CE
  8
0
 10
-20.83099937438965
 20
50.87099838256836
 30
67.52200317382812
 70
   192
  0
VERTEX
  5
3CF
  8
0
 10
-21.12100028991699
 20
51.97000122070312
 30
66.42500305175781
 70
   192
  0
VERTEX
  5
3D0
  8
0
 10
-20.06800079345703
 20
49.97499847412109
 30
68.60600280761719
 70
   192
  0
VERTEX
  5
3D1
  8
0
 10
-19.54700088500977
 20
49.72600173950195
 30
69.0199966430664
 70
   192
  0
VERTEX
  5
3D2
  8
0
 10
-21.17799949645996
 20
52.18500137329102
 30
66.20999908447266
 70
   192
  0
VERTEX
  5
3D3
  8
0
 10
-21.07999992370605
 20
54.70399856567383
 30
63.84999847412109
 70
   192
  0
VERTEX
  5
3D4
  8
0
 10
-19.56900024414062
 20
60.19400024414062
 30
58.28300094604492
 70
   192
  0
VERTEX
  5
3D5
  8
0
 10
-20.30400085449219
 20
58.06600189208984
 30
60.49800109863281
 70
   192
  0
VERTEX
  5
3D6
  8
0
 10
-20.14599990844727
 20
58.75299835205078
 30
59.8129997253418
 70
   192
  0
VERTEX
  5
3D7
  8
0
 10
5.635000228881836
 20
36.34500122070312
 30
24.33399963378906
 70
   192
  0
VERTEX
  5
3D8
  8
0
 62
     9
 10
0.0
 20
0.0
 30
0.0
 70
   128
 71
     3
 72
     2
 73
     1
  0
VERTEX
  5
3D9
  8
0
 62
     9
 10
0.0
 20
0.0
 30
0.0
 70
   128
 71
     1
 72
     4
 73
     3
  0
VERTEX
  5
3DA
  8
0
 62
     9
 10
0.0
 20
0.0
 30
0.0
 70
   128
 71
     7
 72
     6
 73
     5
  0
VERTEX
  5
3DB
  8
0
 62
     9
 10
0.0
 20
0.0
 30
0.0
 70
   128
 71
    10
 72
     9
 73
     8
  0
VERTEX
  5
3DC
  8
0
 62
     9
 10
0.0
 20
0.0
 30
0.0
 70
   128
 71
    13
 72
    12
 73
    11
  0
VERTEX
  5
3DD
  8
0
 62
     9
 10
0.0
 20
0.0
 30
0.0
 70
   128
 71
    13
 72
    14
 73
    12
  0
VERTEX
  5
3DE
  8
0
 62
     9
 10
0.0
 20
0.0
 30
0.0
 70
   128
 71
    16
 72
    15
 73
    11
  0
VERTEX
  5
3DF
  8
0
 62
     9
 10
0.0
 20
0.0
 30
0.0
 70
   128
 71
    11
 72
    17
 73
    16
  0
VERTEX
  5
3E0
  8
0
 62
     9
 10
0.0
 20
0.0
 30
0.0
 70
   128
 71
    17
 72
     1
 73
     2
  0
VERTEX
  5
3E1
  8
0
 62
     9
 10
0.0
 20
0.0
 30
0.0
 70
   128
 71
    18
 72
     8
 73
    12
  0
VERTEX
  5
3E2
  8
0
 62
     9
 10
0.0
 20
0.0
 30
0.0
 70
   128
 71
    21
 72
    20
 73
    19
  0
VERTEX
  5
3E3
  8
0
 62
     9
 10
0.0
 20
0.0
 30
0.0
 70
   128
 71
    21
 72
    22
 73
    20
  0
VERTEX
  5
3E4
  8
0
 62
     9
 10
0.0
 20
0.0
 30
0.0
 70
   128
 71
    24
 72
    23
 73
     9
  0
VERTEX
  5
3E5
  8
0
 62
     9
 10
0.0
 20
0.0
 30
0.0
 70
   128
 71
    24
 72
    25
 73
    23
  0
VERTEX
  5
3E6
  8
0
 62
     9
 10
0.0
 20
0.0
 30
0.0
 70
   128
 71
    25
 72
    26
 73
    19
  0
VERTEX
  5
3E7
  8
0
 62
     9
 10
0.0
 20
0.0
 30
0.0
 70
   128
 71
    22
 72
    27
 73
     5
  0
VERTEX
  5
3E8
  8
0
 62
     9
 10
0.0
 20
0.0
 30
0.0
 70
   128
 71
    30
 72
    29
 73
    28
  0
VERTEX
  5
3E9
  8
0
 62
     9
 10
0.0
 20
0.0
 30
0.0
 70
   128
 71
    33
 72
    32
 73
    31
  0
VERTEX
  5
3EA
  8
0
 62
     9
 10
0.0
 20
0.0
 30
0.0
 70
   128
 71
    35
 72
    34
 73
    31
  0
VERTEX
  5
3EB
  8
0
 62
     9
 10
0.0
 20
0.0
 30
0.0
 70
   128
 71
    31
 72
     6
 73
    35
  0
VERTEX
  5
3EC
  8
0
 62
     9
 10
0.0
 20
0.0
 30
0.0
 70
   128
 71
    37
 72
    30
 73
    36
  0
VERTEX
  5
3ED
  8
0
 62
     9
 10
0.0
 20
0.0
 30
0.0
 70
   128
 71
    39
 72
    37
 73
    38
  0
VERTEX
  5
3EE
  8
0
 62
     9
 10
0.0
 20
0.0
 30
0.0
 70
   128
 71
    38
 72
    32
 73
    39
  0
VERTEX
  5
3EF
  8
0
 62
     9
 10
0.0
 20
0.0
 30
0.0
 70
   128
 71
    42
 72
    41
 73
    40
  0
VERTEX
  5
3F0
  8
0
 62
     9
 10
0.0
 20
0.0
 30
0.0
 70
   128
 71
    42
 72
    43
 73
    41
  0
VERTEX
  5
3F1
  8
0
 62
     9
 10
0.0
 20
0.0
 30
0.0
 70
   128
 71
    45
 72
    44
 73
    40
  0
VERTEX
  5
3F2
  8
0
 62
     9
 10
0.0
 20
0.0
 30
0.0
 70
   128
 71
    40
 72
    28
 73
    45
  0
VERTEX
  5
3F3
  8
0
 62
     9
 10
0.0
 20
0.0
 30
0.0
 70
   128
 71
    41
 72
    43
 73
    46
  0
VERTEX
  5
3F4
  8
0
 62
     9
 10
0.0
 20
0.0
 30
0.0
 70
   128
 71
    48
 72
     4
 73
    47
  0
VERTEX
  5
3F5
  8
0
 62
     9
 10
0.0
 20
0.0
 30
0.0
 70
   128
 71
    50
 72
    49
 73
    28
  0
VERTEX
  5
3F6
  8
0
 62
     9
 10
0.0
 20
0.0
 30
0.0
 70
   128
 71
    28
 72
    40
 73
    50
  0
VERTEX
  5
3F7
  8
0
 62
     9
 10
0.0
 20
0.0
 30
0.0
 70
   128
 71
    52
 72
    51
 73
    28
  0
VERTEX
  5
3F8
  8
0
 62
     9
 10
0.0
 20
0.0
 30
0.0
 70
   128
 71
    28
 72
    49
 73
    52
  0
VERTEX
  5
3F9
  8
0
 62
     9
 10
0.0
 20
0.0
 30
0.0
 70
   128
 71
    41
 72
    54
 73
    53
  0
VERTEX
  5
3FA
  8
0
 62
     9
 10
0.0
 20
0.0
 30
0.0
 70
   128
 71
    53
 72
    55
 73
    40
  0
VERTEX
  5
3FB
  8
0
 62
     9
 10
0.0
 20
0.0
 30
0.0
 70
   128
 71
    55
 72
    56
 73
    40
  0
VERTEX
  5
3FC
  8
0
 62
     9
 10
0.0
 20
0.0
 30
0.0
 70
   128
 71
    47
 72
    58
 73
    57
  0
VERTEX
  5
3FD
  8
0
 62
     9
 10
0.0
 20
0.0
 30
0.0
 70
   128
 71
    59
 72
    54
 73
    41
  0
VERTEX
  5
3FE
  8
0
 62
     9
 10
0.0
 20
0.0
 30
0.0
 70
   128
 71
    41
 72
    57
 73
    59
  0
VERTEX
  5
3FF
  8
0
 62
     9
 10
0.0
 20
0.0
 30
0.0
 70
   128
 71
    60
 72
    47
 73
     4
  0
VERTEX
  5
400
  8
0
 62
     9
 10
0.0
 20
0.0
 30
0.0
 70
   128
 71
    60
 72
    58
 73
    47
  0
VERTEX
  5
401
  8
0
 62
     9
 10
0.0
 20
0.0
 30
0.0
 70
   128
 71
    62
 72
    61
 73
     1
  0
VERTEX
  5
402
  8
0
 62
     9
 10
0.0
 20
0.0
 30
0.0
 70
   128
 71
     1
 72
    63
 73
    62
  0
VERTEX
  5
403
  8
0
 62
     9
 10
0.0
 20
0.0
 30
0.0
 70
   128
 71
    61
 72
    64
 73
     4
  0
VERTEX
  5
404
  8
0
 62
     9
 10
0.0
 20
0.0
 30
0.0
 70
   128
 71
     4
 72
     1
 73
    61
  0
VERTEX
  5
405
  8
0
 62
     9
 10
0.0
 20
0.0
 30
0.0
 70
   128
 71
     1
 72
    17
 73
    65
  0
VERTEX
  5
406
  8
0
 62
     9
 10
0.0
 20
0.0
 30
0.0
 70
   128
 71
    65
 72
    66
 73
     1
  0
VERTEX
  5
407
  8
0
 62
     9
 10
0.0
 20
0.0
 30
0.0
 70
   128
 71
    68
 72
    67
 73
    11
  0
VERTEX
  5
408
  8
0
 62
     9
 10
0.0
 20
0.0
 30
0.0
 70
   128
 71
    67
 72
    69
 73
    17
  0
VERTEX
  5
409
  8
0
 62
     9
 10
0.0
 20
0.0
 30
0.0
 70
   128
 71
    69
 72
    70
 73
    17
  0
VERTEX
  5
40A
  8
0
 62
     9
 10
0.0
 20
0.0
 30
0.0
 70
   128
 71
    17
 72
    11
 73
    67
  0
VERTEX
  5
40B
  8
0
 62
     9
 10
0.0
 20
0.0
 30
0.0
 70
   128
 71
    72
 72
    71
 73
    12
  0
VERTEX
  5
40C
  8
0
 62
     9
 10
0.0
 20
0.0
 30
0.0
 70
   128
 71
    71
 72
    73
 73
    12
  0
VERTEX
  5
40D
  8
0
 62
     9
 10
0.0
 20
0.0
 30
0.0
 70
   128
 71
    73
 72
    74
 73
    11
  0
VERTEX
  5
40E
  8
0
 62
     9
 10
0.0
 20
0.0
 30
0.0
 70
   128
 71
    11
 72
    12
 73
    73
  0
VERTEX
  5
40F
  8
0
 62
     9
 10
0.0
 20
0.0
 30
0.0
 70
   128
 71
    75
 72
    12
 73
     8
  0
VERTEX
  5
410
  8
0
 62
     9
 10
0.0
 20
0.0
 30
0.0
 70
   128
 71
     8
 72
    76
 73
    75
  0
VERTEX
  5
411
  8
0
 62
     9
 10
0.0
 20
0.0
 30
0.0
 70
   128
 71
    75
 72
    77
 73
    12
  0
VERTEX
  5
412
  8
0
 62
     9
 10
0.0
 20
0.0
 30
0.0
 70
   128
 71
    78
 72
     8
 73
     9
  0
VERTEX
  5
413
  8
0
 62
     9
 10
0.0
 20
0.0
 30
0.0
 70
   128
 71
     9
 72
    79
 73
    78
  0
VERTEX
  5
414
  8
0
 62
     9
 10
0.0
 20
0.0
 30
0.0
 70
   128
 71
    81
 72
    80
 73
     8
  0
VERTEX
  5
415
  8
0
 62
     9
 10
0.0
 20
0.0
 30
0.0
 70
   128
 71
     8
 72
    78
 73
    81
  0
VERTEX
  5
416
  8
0
 62
     9
 10
0.0
 20
0.0
 30
0.0
 70
   128
 71
    82
 72
     9
 73
    23
  0
VERTEX
  5
417
  8
0
 62
     9
 10
0.0
 20
0.0
 30
0.0
 70
   128
 71
    82
 72
    83
 73
     9
  0
VERTEX
  5
418
  8
0
 62
     9
 10
0.0
 20
0.0
 30
0.0
 70
   128
 71
    23
 72
    84
 73
    82
  0
VERTEX
  5
419
  8
0
 62
     9
 10
0.0
 20
0.0
 30
0.0
 70
   128
 71
    86
 72
    85
 73
    19
  0
VERTEX
  5
41A
  8
0
 62
     9
 10
0.0
 20
0.0
 30
0.0
 70
   128
 71
    85
 72
    87
 73
    23
  0
VERTEX
  5
41B
  8
0
 62
     9
 10
0.0
 20
0.0
 30
0.0
 70
   128
 71
    23
 72
    19
 73
    85
  0
VERTEX
  5
41C
  8
0
 62
     9
 10
0.0
 20
0.0
 30
0.0
 70
   128
 71
    89
 72
    88
 73
    19
  0
VERTEX
  5
41D
  8
0
 62
     9
 10
0.0
 20
0.0
 30
0.0
 70
   128
 71
    19
 72
    20
 73
    89
  0
VERTEX
  5
41E
  8
0
 62
     9
 10
0.0
 20
0.0
 30
0.0
 70
   128
 71
    88
 72
    90
 73
    19
  0
VERTEX
  5
41F
  8
0
 62
     9
 10
0.0
 20
0.0
 30
0.0
 70
   128
 71
    20
 72
    91
 73
    89
  0
VERTEX
  5
420
  8
0
 62
     9
 10
0.0
 20
0.0
 30
0.0
 70
   128
 71
    93
 72
    92
 73
     5
  0
VERTEX
  5
421
  8
0
 62
     9
 10
0.0
 20
0.0
 30
0.0
 70
   128
 71
    92
 72
    94
 73
    20
  0
VERTEX
  5
422
  8
0
 62
     9
 10
0.0
 20
0.0
 30
0.0
 70
   128
 71
    94
 72
    95
 73
    20
  0
VERTEX
  5
423
  8
0
 62
     9
 10
0.0
 20
0.0
 30
0.0
 70
   128
 71
    20
 72
     5
 73
    92
  0
VERTEX
  5
424
  8
0
 62
     9
 10
0.0
 20
0.0
 30
0.0
 70
   128
 71
    97
 72
    96
 73
     5
  0
VERTEX
  5
425
  8
0
 62
     9
 10
0.0
 20
0.0
 30
0.0
 70
   128
 71
     5
 72
     6
 73
    97
  0
VERTEX
  5
426
  8
0
 62
     9
 10
0.0
 20
0.0
 30
0.0
 70
   128
 71
     6
 72
    98
 73
    97
  0
VERTEX
  5
427
  8
0
 62
     9
 10
0.0
 20
0.0
 30
0.0
 70
   128
 71
   100
 72
    99
 73
     6
  0
VERTEX
  5
428
  8
0
 62
     9
 10
0.0
 20
0.0
 30
0.0
 70
   128
 71
    99
 72
   101
 73
     6
  0
VERTEX
  5
429
  8
0
 62
     9
 10
0.0
 20
0.0
 30
0.0
 70
   128
 71
     6
 72
    31
 73
   100
  0
VERTEX
  5
42A
  8
0
 62
     9
 10
0.0
 20
0.0
 30
0.0
 70
   128
 71
    31
 72
   102
 73
   100
  0
VERTEX
  5
42B
  8
0
 62
     9
 10
0.0
 20
0.0
 30
0.0
 70
   128
 71
   103
 72
    31
 73
    32
  0
VERTEX
  5
42C
  8
0
 62
     9
 10
0.0
 20
0.0
 30
0.0
 70
   128
 71
   103
 72
   104
 73
    31
  0
VERTEX
  5
42D
  8
0
 62
     9
 10
0.0
 20
0.0
 30
0.0
 70
   128
 71
   106
 72
   105
 73
    38
  0
VERTEX
  5
42E
  8
0
 62
     9
 10
0.0
 20
0.0
 30
0.0
 70
   128
 71
   105
 72
   107
 73
    32
  0
VERTEX
  5
42F
  8
0
 62
     9
 10
0.0
 20
0.0
 30
0.0
 70
   128
 71
    32
 72
    38
 73
   105
  0
VERTEX
  5
430
  8
0
 62
     9
 10
0.0
 20
0.0
 30
0.0
 70
   128
 71
   107
 72
   108
 73
    32
  0
VERTEX
  5
431
  8
0
 62
     9
 10
0.0
 20
0.0
 30
0.0
 70
   128
 71
   110
 72
   109
 73
    38
  0
VERTEX
  5
432
  8
0
 62
     9
 10
0.0
 20
0.0
 30
0.0
 70
   128
 71
    38
 72
    36
 73
   110
  0
VERTEX
  5
433
  8
0
 62
     9
 10
0.0
 20
0.0
 30
0.0
 70
   128
 71
   111
 72
    36
 73
    28
  0
VERTEX
  5
434
  8
0
 62
     9
 10
0.0
 20
0.0
 30
0.0
 70
   128
 71
   113
 72
   112
 73
    36
  0
VERTEX
  5
435
  8
0
 62
     9
 10
0.0
 20
0.0
 30
0.0
 70
   128
 71
    36
 72
   111
 73
   113
  0
VERTEX
  5
436
  8
0
 62
     9
 10
0.0
 20
0.0
 30
0.0
 70
   128
 71
    28
 72
    51
 73
   111
  0
VERTEX
  5
437
  8
0
 62
     9
 10
0.0
 20
0.0
 30
0.0
 70
   128
 71
    36
 72
   112
 73
   110
  0
VERTEX
  5
438
  8
0
 62
     9
 10
0.0
 20
0.0
 30
0.0
 70
   128
 71
    38
 72
   109
 73
   106
  0
VERTEX
  5
439
  8
0
 62
     9
 10
0.0
 20
0.0
 30
0.0
 70
   128
 71
    32
 72
   108
 73
   103
  0
VERTEX
  5
43A
  8
0
 62
     9
 10
0.0
 20
0.0
 30
0.0
 70
   128
 71
    31
 72
   104
 73
   102
  0
VERTEX
  5
43B
  8
0
 62
     9
 10
0.0
 20
0.0
 30
0.0
 70
   128
 71
     6
 72
   101
 73
    98
  0
VERTEX
  5
43C
  8
0
 62
     9
 10
0.0
 20
0.0
 30
0.0
 70
   128
 71
     5
 72
    96
 73
    93
  0
VERTEX
  5
43D
  8
0
 62
     9
 10
0.0
 20
0.0
 30
0.0
 70
   128
 71
    20
 72
    95
 73
    91
  0
VERTEX
  5
43E
  8
0
 62
     9
 10
0.0
 20
0.0
 30
0.0
 70
   128
 71
    19
 72
    90
 73
    86
  0
VERTEX
  5
43F
  8
0
 62
     9
 10
0.0
 20
0.0
 30
0.0
 70
   128
 71
    23
 72
    87
 73
    84
  0
VERTEX
  5
440
  8
0
 62
     9
 10
0.0
 20
0.0
 30
0.0
 70
   128
 71
     9
 72
    83
 73
    79
  0
VERTEX
  5
441
  8
0
 62
     9
 10
0.0
 20
0.0
 30
0.0
 70
   128
 71
     8
 72
    80
 73
    76
  0
VERTEX
  5
442
  8
0
 62
     9
 10
0.0
 20
0.0
 30
0.0
 70
   128
 71
    12
 72
    77
 73
    72
  0
VERTEX
  5
443
  8
0
 62
     9
 10
0.0
 20
0.0
 30
0.0
 70
   128
 71
    11
 72
    74
 73
    68
  0
VERTEX
  5
444
  8
0
 62
     9
 10
0.0
 20
0.0
 30
0.0
 70
   128
 71
    17
 72
    70
 73
    65
  0
VERTEX
  5
445
  8
0
 62
     9
 10
0.0
 20
0.0
 30
0.0
 70
   128
 71
     1
 72
    66
 73
    63
  0
VERTEX
  5
446
  8
0
 62
     9
 10
0.0
 20
0.0
 30
0.0
 70
   128
 71
     4
 72
    64
 73
    60
  0
VERTEX
  5
447
  8
0
 62
     9
 10
0.0
 20
0.0
 30
0.0
 70
   128
 71
    57
 72
    41
 73
    47
  0
VERTEX
  5
448
  8
0
 62
     9
 10
0.0
 20
0.0
 30
0.0
 70
   128
 71
    53
 72
    40
 73
    41
  0
VERTEX
  5
449
  8
0
 62
     9
 10
0.0
 20
0.0
 30
0.0
 70
   128
 71
    40
 72
    56
 73
    50
  0
VERTEX
  5
44A
  8
0
 62
     9
 10
0.0
 20
0.0
 30
0.0
 70
   128
 71
    47
 72
    46
 73
    48
  0
VERTEX
  5
44B
  8
0
 62
     9
 10
0.0
 20
0.0
 30
0.0
 70
   128
 71
    46
 72
    47
 73
    41
  0
VERTEX
  5
44C
  8
0
 62
     9
 10
0.0
 20
0.0
 30
0.0
 70
   128
 71
    28
 72
    29
 73
    45
  0
VERTEX
  5
44D
  8
0
 62
     9
 10
0.0
 20
0.0
 30
0.0
 70
   128
 71
    40
 72
    44
 73
    42
  0
VERTEX
  5
44E
  8
0
 62
     9
 10
0.0
 20
0.0
 30
0.0
 70
   128
 71
    32
 72
    33
 73
    39
  0
VERTEX
  5
44F
  8
0
 62
     9
 10
0.0
 20
0.0
 30
0.0
 70
   128
 71
    36
 72
    38
 73
    37
  0
VERTEX
  5
450
  8
0
 62
     9
 10
0.0
 20
0.0
 30
0.0
 70
   128
 71
     6
 72
     7
 73
    35
  0
VERTEX
  5
451
  8
0
 62
     9
 10
0.0
 20
0.0
 30
0.0
 70
   128
 71
    31
 72
    34
 73
    33
  0
VERTEX
  5
452
  8
0
 62
     9
 10
0.0
 20
0.0
 30
0.0
 70
   128
 71
    28
 72
    36
 73
    30
  0
VERTEX
  5
453
  8
0
 62
     9
 10
0.0
 20
0.0
 30
0.0
 70
   128
 71
     5
 72
    20
 73
    22
  0
VERTEX
  5
454
  8
0
 62
     9
 10
0.0
 20
0.0
 30
0.0
 70
   128
 71
    19
 72
    23
 73
    25
  0
VERTEX
  5
455
  8
0
 62
     9
 10
0.0
 20
0.0
 30
0.0
 70
   128
 71
     9
 72
    10
 73
    24
  0
VERTEX
  5
456
  8
0
 62
     9
 10
0.0
 20
0.0
 30
0.0
 70
   128
 71
    19
 72
    26
 73
    21
  0
VERTEX
  5
457
  8
0
 62
     9
 10
0.0
 20
0.0
 30
0.0
 70
   128
 71
    12
 72
    14
 73
    18
  0
VERTEX
  5
458
  8
0
 62
     9
 10
0.0
 20
0.0
 30
0.0
 70
   128
 71
     2
 72
   114
 73
    17
  0
VERTEX
  5
459
  8
0
 62
     9
 10
0.0
 20
0.0
 30
0.0
 70
   128
 71
    17
 72
   114
 73
    16
  0
VERTEX
  5
45A
  8
0
 62
     9
 10
0.0
 20
0.0
 30
0.0
 70
   128
 71
    11
 72
    15
 73
    13
  0
VERTEX
  5
45B
  8
0
 62
     9
 10
0.0
 20
0.0
 30
0.0
 70
   128
 71
     8
 72
    18
 73
    10
  0
VERTEX
  5
45C
  8
0
 62
     9
 10
0.0
 20
0.0
 30
0.0
 70
   128
 71
     5
 72
    27
 73
     7
  0
VERTEX
  5
45D
  8
0
 62
     9
 10
0.0
 20
0.0
 30
0.0
 70
   128
 71
     4
 72
    48
 73
     3
  0
SEQEND
  5
45E
  8
0
 62
     9
  0
ENDBLK
  5
461
  8
0
  0
BLOCK
  8
0
  2
E3_NODE_18_
 70
     0
 10
0.0
 20
0.0
 30
0.0
  3
E3_NODE_18_
  1

  0
POLYLINE
  5
463
  8
0
 62
     9
 66
     1
 10
0.0
 20
0.0
 30
0.0
 70
    64
 71
    96
 72
   125
  0
VERTEX
  5
464
  8
0
 10
-16.08200073242188
 20
59.71599960327148
 30
60.59299850463867
 70
   192
  0
VERTEX
  5
465
  8
0
 10
-14.69099998474121
 20
55.59999847412109
 30
65.677001953125
 70
   192
  0
VERTEX
  5
466
  8
0
 10
-7.374000072479248
 20
58.88700103759766
 30
64.14600372314453
 70
   192
  0
VERTEX
  5
467
  8
0
 10
-10.76099967956543
 20
52.19499969482422
 30
69.88099670410156
 70
   192
  0
VERTEX
  5
468
  8
0
 10
-5.401000022888184
 20
57.17800140380859
 30
66.25700378417969
 70
   192
  0
VERTEX
  5
469
  8
0
 10
-4.96999979019165
 20
50.09099960327148
 30
72.47899627685547
 70
   192
  0
VERTEX
  5
46A
  8
0
 10
-2.49399995803833
 20
56.12200164794922
 30
67.56099700927734
 70
   192
  0
VERTEX
  5
46B
  8
0
 10
1.680999994277954
 20
49.6510009765625
 30
73.02300262451172
 70
   192
  0
VERTEX
  5
46C
  8
0
 10
0.843999981880188
 20
55.9010009765625
 30
67.83399963378906
 70
   192
  0
VERTEX
  5
46D
  8
0
 10
8.041000366210938
 20
50.95199966430664
 30
71.41699981689453
 70
   192
  0
VERTEX
  5
46E
  8
0
 10
4.035999774932861
 20
56.55400085449219
 30
67.02799987792969
 70
   192
  0
VERTEX
  5
46F
  8
0
 10
13.01000022888184
 20
53.76800155639648
 30
67.93900299072266
 70
   192
  0
VERTEX
  5
470
  8
0
 10
6.531000137329102
 20
57.96699905395508
 30
65.28199768066406
 70
   192
  0
VERTEX
  5
471
  8
0
 10
15.72999954223633
 20
57.61199951171875
 30
63.19200134277344
 70
   192
  0
VERTEX
  5
472
  8
0
 10
7.895999908447266
 20
59.89699935913086
 30
62.89899826049805
 70
   192
  0
VERTEX
  5
473
  8
0
 10
15.72999954223633
 20
61.82099914550781
 30
57.99499893188477
 70
   192
  0
VERTEX
  5
474
  8
0
 10
7.895999908447266
 20
62.00899887084961
 30
60.29100036621094
 70
   192
  0
VERTEX
  5
475
  8
0
 10
13.01000022888184
 20
65.66500091552734
 30
53.24700164794922
 70
   192
  0
VERTEX
  5
476
  8
0
 10
6.531000137329102
 20
63.93899917602539
 30
57.90700149536133
 70
   192
  0
VERTEX
  5
477
  8
0
 10
8.041000366210938
 20
68.48100280761719
 30
49.77000045776367
 70
   192
  0
VERTEX
  5
478
  8
0
 10
4.035999774932861
 20
65.35299682617188
 30
56.1619987487793
 70
   192
  0
VERTEX
  5
479
  8
0
 10
1.680999994277954
 20
69.78199768066406
 30
48.16400146484375
 70
   192
  0
VERTEX
  5
47A
  8
0
 10
0.843999981880188
 20
66.00599670410156
 30
55.35599899291992
 70
   192
  0
VERTEX
  5
47B
  8
0
 10
-4.96999979019165
 20
69.34200286865234
 30
48.70700073242188
 70
   192
  0
VERTEX
  5
47C
  8
0
 10
-2.49399995803833
 20
65.78500366210938
 30
55.62799835205078
 70
   192
  0
VERTEX
  5
47D
  8
0
 10
-10.76099967956543
 20
67.23699951171875
 30
51.30599975585938
 70
   192
  0
VERTEX
  5
47E
  8
0
 10
-5.401000022888184
 20
64.72899627685547
 30
56.93299865722656
 70
   192
  0
VERTEX
  5
47F
  8
0
 10
-14.69099998474121
 20
63.83300018310547
 30
55.5099983215332
 70
   192
  0
VERTEX
  5
480
  8
0
 10
-7.374000072479248
 20
63.02000045776367
 30
59.04299926757812
 70
   192
  0
VERTEX
  5
481
  8
0
 10
-8.071999549865723
 20
60.95299911499023
 30
61.59500122070312
 70
   192
  0
VERTEX
  5
482
  8
0
 10
-21.07999992370605
 20
54.70399856567383
 30
63.84999847412109
 70
   192
  0
VERTEX
  5
483
  8
0
 10
-21.17799949645996
 20
52.18500137329102
 30
66.20999908447266
 70
   192
  0
VERTEX
  5
484
  8
0
 10
-20.30400085449219
 20
58.06600189208984
 30
60.49800109863281
 70
   192
  0
VERTEX
  5
485
  8
0
 10
-20.14599990844727
 20
58.75299835205078
 30
59.8129997253418
 70
   192
  0
VERTEX
  5
486
  8
0
 10
-16.07999992370605
 20
48.7599983215332
 30
71.0
 70
   192
  0
VERTEX
  5
487
  8
0
 10
-14.31900024414062
 20
48.39899826049805
 30
71.86000061035156
 70
   192
  0
VERTEX
  5
488
  8
0
 10
-19.54700088500977
 20
49.72600173950195
 30
69.0199966430664
 70
   192
  0
VERTEX
  5
489
  8
0
 10
-18.60400009155273
 20
49.2760009765625
 30
69.76799774169922
 70
   192
  0
VERTEX
  5
48A
  8
0
 10
-20.83099937438965
 20
50.87099838256836
 30
67.52200317382812
 70
   192
  0
VERTEX
  5
48B
  8
0
 10
-20.06800079345703
 20
49.97499847412109
 30
68.60600280761719
 70
   192
  0
VERTEX
  5
48C
  8
0
 10
-21.12100028991699
 20
51.97000122070312
 30
66.42500305175781
 70
   192
  0
VERTEX
  5
48D
  8
0
 10
-8.291999816894531
 20
47.6349983215332
 30
73.68199920654297
 70
   192
  0
VERTEX
  5
48E
  8
0
 10
-13.76700019836426
 20
48.2859992980957
 30
72.12999725341797
 70
   192
  0
VERTEX
  5
48F
  8
0
 10
-11.53299999237061
 20
47.95500183105469
 30
72.93199920654297
 70
   192
  0
VERTEX
  5
490
  8
0
 10
0.0020000000949949
 20
47.16699981689453
 30
74.74800109863281
 70
   192
  0
VERTEX
  5
491
  8
0
 10
0.4050000011920929
 20
47.15499877929688
 30
74.7750015258789
 70
   192
  0
VERTEX
  5
492
  8
0
 10
-5.169000148773193
 20
47.32699966430664
 30
74.40499877929688
 70
   192
  0
VERTEX
  5
493
  8
0
 10
-5.967999935150146
 20
47.40599822998047
 30
74.22000122070312
 70
   192
  0
VERTEX
  5
494
  8
0
 10
1.970999956130981
 20
47.22800064086914
 30
74.61499786376953
 70
   192
  0
VERTEX
  5
495
  8
0
 10
6.961999893188477
 20
47.45999908447266
 30
74.10399627685547
 70
   192
  0
VERTEX
  5
496
  8
0
 10
8.307999610900879
 20
47.60900115966797
 30
73.75199890136719
 70
   192
  0
VERTEX
  5
497
  8
0
 10
16.12100028991699
 20
48.7239990234375
 30
71.072998046875
 70
   192
  0
VERTEX
  5
498
  8
0
 10
18.6569995880127
 20
49.29299926757812
 30
69.73400115966797
 70
   192
  0
VERTEX
  5
499
  8
0
 10
10.06900024414062
 20
47.80300140380859
 30
73.29000091552734
 70
   192
  0
VERTEX
  5
49A
  8
0
 10
11.91399955749512
 20
48.00699996948242
 30
72.80699920654297
 70
   192
  0
VERTEX
  5
49B
  8
0
 10
15.625
 20
48.61299896240234
 30
71.33499908447266
 70
   192
  0
VERTEX
  5
49C
  8
0
 10
21.11499977111816
 20
52.15299987792969
 30
66.25700378417969
 70
   192
  0
VERTEX
  5
49D
  8
0
 10
21.19799995422363
 20
52.56900024414062
 30
65.85099792480469
 70
   192
  0
VERTEX
  5
49E
  8
0
 10
20.0049991607666
 20
49.92900085449219
 30
68.6709976196289
 70
   192
  0
VERTEX
  5
49F
  8
0
 10
20.87899971008301
 20
50.97100067138672
 30
67.41500091552734
 70
   192
  0
VERTEX
  5
4A0
  8
0
 10
19.55599975585938
 20
49.71699905395508
 30
69.0250015258789
 70
   192
  0
VERTEX
  5
4A1
  8
0
 10
18.72400093078613
 20
49.32400131225586
 30
69.68199920654297
 70
   192
  0
VERTEX
  5
4A2
  8
0
 10
19.79299926757812
 20
59.67499923706055
 30
58.84000015258789
 70
   192
  0
VERTEX
  5
4A3
  8
0
 10
20.32600021362305
 20
58.06999969482422
 30
60.5
 70
   192
  0
VERTEX
  5
4A4
  8
0
 10
20.83200073242188
 20
55.52799987792969
 30
63.0099983215332
 70
   192
  0
VERTEX
  5
4A5
  8
0
 10
20.63100051879883
 20
57.1510009765625
 30
61.45199966430664
 70
   192
  0
VERTEX
  5
4A6
  8
0
 10
17.49300003051758
 20
63.70299911499023
 30
54.30799865722656
 70
   192
  0
VERTEX
  5
4A7
  8
0
 10
15.74300003051758
 20
65.69599914550781
 30
51.87099838256836
 70
   192
  0
VERTEX
  5
4A8
  8
0
 10
17.6560001373291
 20
63.41799926757812
 30
54.62900161743164
 70
   192
  0
VERTEX
  5
4A9
  8
0
 10
18.79700088500977
 20
61.41899871826172
 30
56.87900161743164
 70
   192
  0
VERTEX
  5
4AA
  8
0
 10
13.09099960327148
 20
67.74500274658203
 30
49.09999847412109
 70
   192
  0
VERTEX
  5
4AB
  8
0
 10
11.69799995422363
 20
68.82099914550781
 30
47.64400100708008
 70
   192
  0
VERTEX
  5
4AC
  8
0
 10
15.30200004577637
 20
66.03600311279297
 30
51.40999984741211
 70
   192
  0
VERTEX
  5
4AD
  8
0
 10
7.209000110626221
 20
70.96199798583984
 30
44.13600158691406
 70
   192
  0
VERTEX
  5
4AE
  8
0
 10
4.991000175476074
 20
71.7490005493164
 30
42.64500045776367
 70
   192
  0
VERTEX
  5
4AF
  8
0
 10
3.802999973297119
 20
72.02300262451172
 30
42.01100158691406
 70
   192
  0
VERTEX
  5
4B0
  8
0
 10
10.00500011444092
 20
69.68599700927734
 30
46.27000045776367
 70
   192
  0
VERTEX
  5
4B1
  8
0
 10
8.187999725341797
 20
70.61399841308594
 30
44.79499816894531
 70
   192
  0
VERTEX
  5
4B2
  8
0
 10
-5.359000205993652
 20
71.63899993896484
 30
42.87300109863281
 70
   192
  0
VERTEX
  5
4B3
  8
0
 10
-6.445000171661377
 20
71.28399658203125
 30
43.57500076293945
 70
   192
  0
VERTEX
  5
4B4
  8
0
 10
-3.78600001335144
 20
72.00599670410156
 30
42.03300094604492
 70
   192
  0
VERTEX
  5
4B5
  8
0
 10
1.460000038146973
 20
72.51300048828125
 30
40.86100006103516
 70
   192
  0
VERTEX
  5
4B6
  8
0
 10
-0.1669999957084656
 20
72.59400177001953
 30
40.65200042724609
 70
   192
  0
VERTEX
  5
4B7
  8
0
 10
-1.776999950408936
 20
72.4739990234375
 30
40.96099853515625
 70
   192
  0
VERTEX
  5
4B8
  8
0
 10
1.940000057220459
 20
72.4520034790039
 30
41.01800155639648
 70
   192
  0
VERTEX
  5
4B9
  8
0
 10
2.398999929428101
 20
72.34600067138672
 30
41.26300048828125
 70
   192
  0
VERTEX
  5
4BA
  8
0
 10
-7.185999870300293
 20
70.94100189208984
 30
44.14500045776367
 70
   192
  0
VERTEX
  5
4BB
  8
0
 10
-11.46000003814697
 20
68.96399688720703
 30
47.43199920654297
 70
   192
  0
VERTEX
  5
4BC
  8
0
 10
-14.13300037384033
 20
67.12300109863281
 30
50.02000045776367
 70
   192
  0
VERTEX
  5
4BD
  8
0
 10
-13.15799999237061
 20
67.79399871826172
 30
49.07600021362305
 70
   192
  0
VERTEX
  5
4BE
  8
0
 10
-12.89500045776367
 20
67.9749984741211
 30
48.82099914550781
 70
   192
  0
VERTEX
  5
4BF
  8
0
 10
-17.66500091552734
 20
63.42200088500977
 30
54.62900161743164
 70
   192
  0
VERTEX
  5
4C0
  8
0
 10
-19.56900024414062
 20
60.19400024414062
 30
58.28300094604492
 70
   192
  0
VERTEX
  5
4C1
  8
0
 10
-17.30200004577637
 20
63.88999938964844
 30
54.07300186157227
 70
   192
  0
VERTEX
  5
4C2
  8
0
 10
-17.52099990844727
 20
63.66600036621094
 30
54.35200119018555
 70
   192
  0
VERTEX
  5
4C3
  8
0
 10
0.0
 20
61.36299896240234
 30
61.92599868774414
 70
   192
  0
VERTEX
  5
4C4
  8
0
 62
     9
 10
0.0
 20
0.0
 30
0.0
 70
   128
 71
     3
 72
     2
 73
     1
  0
VERTEX
  5
4C5
  8
0
 62
     9
 10
0.0
 20
0.0
 30
0.0
 70
   128
 71
     5
 72
     4
 73
     2
  0
VERTEX
  5
4C6
  8
0
 62
     9
 10
0.0
 20
0.0
 30
0.0
 70
   128
 71
     7
 72
     6
 73
     4
  0
VERTEX
  5
4C7
  8
0
 62
     9
 10
0.0
 20
0.0
 30
0.0
 70
   128
 71
     9
 72
     8
 73
     6
  0
VERTEX
  5
4C8
  8
0
 62
     9
 10
0.0
 20
0.0
 30
0.0
 70
   128
 71
    11
 72
    10
 73
     8
  0
VERTEX
  5
4C9
  8
0
 62
     9
 10
0.0
 20
0.0
 30
0.0
 70
   128
 71
    13
 72
    12
 73
    10
  0
VERTEX
  5
4CA
  8
0
 62
     9
 10
0.0
 20
0.0
 30
0.0
 70
   128
 71
    15
 72
    14
 73
    12
  0
VERTEX
  5
4CB
  8
0
 62
     9
 10
0.0
 20
0.0
 30
0.0
 70
   128
 71
    17
 72
    16
 73
    14
  0
VERTEX
  5
4CC
  8
0
 62
     9
 10
0.0
 20
0.0
 30
0.0
 70
   128
 71
    19
 72
    18
 73
    16
  0
VERTEX
  5
4CD
  8
0
 62
     9
 10
0.0
 20
0.0
 30
0.0
 70
   128
 71
    21
 72
    20
 73
    18
  0
VERTEX
  5
4CE
  8
0
 62
     9
 10
0.0
 20
0.0
 30
0.0
 70
   128
 71
    23
 72
    22
 73
    20
  0
VERTEX
  5
4CF
  8
0
 62
     9
 10
0.0
 20
0.0
 30
0.0
 70
   128
 71
    25
 72
    24
 73
    22
  0
VERTEX
  5
4D0
  8
0
 62
     9
 10
0.0
 20
0.0
 30
0.0
 70
   128
 71
    27
 72
    26
 73
    24
  0
VERTEX
  5
4D1
  8
0
 62
     9
 10
0.0
 20
0.0
 30
0.0
 70
   128
 71
    29
 72
    28
 73
    26
  0
VERTEX
  5
4D2
  8
0
 62
     9
 10
0.0
 20
0.0
 30
0.0
 70
   128
 71
    30
 72
     1
 73
    28
  0
VERTEX
  5
4D3
  8
0
 62
     9
 10
0.0
 20
0.0
 30
0.0
 70
   128
 71
    32
 72
    31
 73
     2
  0
VERTEX
  5
4D4
  8
0
 62
     9
 10
0.0
 20
0.0
 30
0.0
 70
   128
 71
    33
 72
     1
 73
     2
  0
VERTEX
  5
4D5
  8
0
 62
     9
 10
0.0
 20
0.0
 30
0.0
 70
   128
 71
     2
 72
    31
 73
    33
  0
VERTEX
  5
4D6
  8
0
 62
     9
 10
0.0
 20
0.0
 30
0.0
 70
   128
 71
    33
 72
    34
 73
     1
  0
VERTEX
  5
4D7
  8
0
 62
     9
 10
0.0
 20
0.0
 30
0.0
 70
   128
 71
    36
 72
    35
 73
     2
  0
VERTEX
  5
4D8
  8
0
 62
     9
 10
0.0
 20
0.0
 30
0.0
 70
   128
 71
    38
 72
    37
 73
     2
  0
VERTEX
  5
4D9
  8
0
 62
     9
 10
0.0
 20
0.0
 30
0.0
 70
   128
 71
    40
 72
    39
 73
     2
  0
VERTEX
  5
4DA
  8
0
 62
     9
 10
0.0
 20
0.0
 30
0.0
 70
   128
 71
    39
 72
    41
 73
     2
  0
VERTEX
  5
4DB
  8
0
 62
     9
 10
0.0
 20
0.0
 30
0.0
 70
   128
 71
     2
 72
    37
 73
    40
  0
VERTEX
  5
4DC
  8
0
 62
     9
 10
0.0
 20
0.0
 30
0.0
 70
   128
 71
     2
 72
    35
 73
    38
  0
VERTEX
  5
4DD
  8
0
 62
     9
 10
0.0
 20
0.0
 30
0.0
 70
   128
 71
    42
 72
     4
 73
     6
  0
VERTEX
  5
4DE
  8
0
 62
     9
 10
0.0
 20
0.0
 30
0.0
 70
   128
 71
    44
 72
    43
 73
     4
  0
VERTEX
  5
4DF
  8
0
 62
     9
 10
0.0
 20
0.0
 30
0.0
 70
   128
 71
    43
 72
    36
 73
     4
  0
VERTEX
  5
4E0
  8
0
 62
     9
 10
0.0
 20
0.0
 30
0.0
 70
   128
 71
     4
 72
    42
 73
    44
  0
VERTEX
  5
4E1
  8
0
 62
     9
 10
0.0
 20
0.0
 30
0.0
 70
   128
 71
    46
 72
    45
 73
     8
  0
VERTEX
  5
4E2
  8
0
 62
     9
 10
0.0
 20
0.0
 30
0.0
 70
   128
 71
    45
 72
    47
 73
     6
  0
VERTEX
  5
4E3
  8
0
 62
     9
 10
0.0
 20
0.0
 30
0.0
 70
   128
 71
    47
 72
    48
 73
     6
  0
VERTEX
  5
4E4
  8
0
 62
     9
 10
0.0
 20
0.0
 30
0.0
 70
   128
 71
     6
 72
     8
 73
    45
  0
VERTEX
  5
4E5
  8
0
 62
     9
 10
0.0
 20
0.0
 30
0.0
 70
   128
 71
    50
 72
    49
 73
     8
  0
VERTEX
  5
4E6
  8
0
 62
     9
 10
0.0
 20
0.0
 30
0.0
 70
   128
 71
     8
 72
    10
 73
    50
  0
VERTEX
  5
4E7
  8
0
 62
     9
 10
0.0
 20
0.0
 30
0.0
 70
   128
 71
    10
 72
    51
 73
    50
  0
VERTEX
  5
4E8
  8
0
 62
     9
 10
0.0
 20
0.0
 30
0.0
 70
   128
 71
    53
 72
    52
 73
    12
  0
VERTEX
  5
4E9
  8
0
 62
     9
 10
0.0
 20
0.0
 30
0.0
 70
   128
 71
    55
 72
    54
 73
    10
  0
VERTEX
  5
4EA
  8
0
 62
     9
 10
0.0
 20
0.0
 30
0.0
 70
   128
 71
    10
 72
    12
 73
    55
  0
VERTEX
  5
4EB
  8
0
 62
     9
 10
0.0
 20
0.0
 30
0.0
 70
   128
 71
    12
 72
    56
 73
    55
  0
VERTEX
  5
4EC
  8
0
 62
     9
 10
0.0
 20
0.0
 30
0.0
 70
   128
 71
    12
 72
    52
 73
    56
  0
VERTEX
  5
4ED
  8
0
 62
     9
 10
0.0
 20
0.0
 30
0.0
 70
   128
 71
    58
 72
    57
 73
    14
  0
VERTEX
  5
4EE
  8
0
 62
     9
 10
0.0
 20
0.0
 30
0.0
 70
   128
 71
    60
 72
    59
 73
    14
  0
VERTEX
  5
4EF
  8
0
 62
     9
 10
0.0
 20
0.0
 30
0.0
 70
   128
 71
    59
 72
    61
 73
    14
  0
VERTEX
  5
4F0
  8
0
 62
     9
 10
0.0
 20
0.0
 30
0.0
 70
   128
 71
    14
 72
    57
 73
    60
  0
VERTEX
  5
4F1
  8
0
 62
     9
 10
0.0
 20
0.0
 30
0.0
 70
   128
 71
    61
 72
    62
 73
    12
  0
VERTEX
  5
4F2
  8
0
 62
     9
 10
0.0
 20
0.0
 30
0.0
 70
   128
 71
    12
 72
    14
 73
    61
  0
VERTEX
  5
4F3
  8
0
 62
     9
 10
0.0
 20
0.0
 30
0.0
 70
   128
 71
    63
 72
    14
 73
    16
  0
VERTEX
  5
4F4
  8
0
 62
     9
 10
0.0
 20
0.0
 30
0.0
 70
   128
 71
    63
 72
    64
 73
    14
  0
VERTEX
  5
4F5
  8
0
 62
     9
 10
0.0
 20
0.0
 30
0.0
 70
   128
 71
    66
 72
    65
 73
    14
  0
VERTEX
  5
4F6
  8
0
 62
     9
 10
0.0
 20
0.0
 30
0.0
 70
   128
 71
    14
 72
    64
 73
    66
  0
VERTEX
  5
4F7
  8
0
 62
     9
 10
0.0
 20
0.0
 30
0.0
 70
   128
 71
    67
 72
    16
 73
    18
  0
VERTEX
  5
4F8
  8
0
 62
     9
 10
0.0
 20
0.0
 30
0.0
 70
   128
 71
    18
 72
    68
 73
    67
  0
VERTEX
  5
4F9
  8
0
 62
     9
 10
0.0
 20
0.0
 30
0.0
 70
   128
 71
    67
 72
    69
 73
    16
  0
VERTEX
  5
4FA
  8
0
 62
     9
 10
0.0
 20
0.0
 30
0.0
 70
   128
 71
    69
 72
    70
 73
    16
  0
VERTEX
  5
4FB
  8
0
 62
     9
 10
0.0
 20
0.0
 30
0.0
 70
   128
 71
    72
 72
    71
 73
    20
  0
VERTEX
  5
4FC
  8
0
 62
     9
 10
0.0
 20
0.0
 30
0.0
 70
   128
 71
    71
 72
    73
 73
    18
  0
VERTEX
  5
4FD
  8
0
 62
     9
 10
0.0
 20
0.0
 30
0.0
 70
   128
 71
    18
 72
    20
 73
    71
  0
VERTEX
  5
4FE
  8
0
 62
     9
 10
0.0
 20
0.0
 30
0.0
 70
   128
 71
    75
 72
    74
 73
    22
  0
VERTEX
  5
4FF
  8
0
 62
     9
 10
0.0
 20
0.0
 30
0.0
 70
   128
 71
    22
 72
    76
 73
    75
  0
VERTEX
  5
500
  8
0
 62
     9
 10
0.0
 20
0.0
 30
0.0
 70
   128
 71
    78
 72
    77
 73
    20
  0
VERTEX
  5
501
  8
0
 62
     9
 10
0.0
 20
0.0
 30
0.0
 70
   128
 71
    20
 72
    22
 73
    78
  0
VERTEX
  5
502
  8
0
 62
     9
 10
0.0
 20
0.0
 30
0.0
 70
   128
 71
    22
 72
    74
 73
    78
  0
VERTEX
  5
503
  8
0
 62
     9
 10
0.0
 20
0.0
 30
0.0
 70
   128
 71
    80
 72
    79
 73
    22
  0
VERTEX
  5
504
  8
0
 62
     9
 10
0.0
 20
0.0
 30
0.0
 70
   128
 71
    79
 72
    81
 73
    22
  0
VERTEX
  5
505
  8
0
 62
     9
 10
0.0
 20
0.0
 30
0.0
 70
   128
 71
    83
 72
    82
 73
    22
  0
VERTEX
  5
506
  8
0
 62
     9
 10
0.0
 20
0.0
 30
0.0
 70
   128
 71
    22
 72
    84
 73
    83
  0
VERTEX
  5
507
  8
0
 62
     9
 10
0.0
 20
0.0
 30
0.0
 70
   128
 71
    82
 72
    85
 73
    22
  0
VERTEX
  5
508
  8
0
 62
     9
 10
0.0
 20
0.0
 30
0.0
 70
   128
 71
    85
 72
    86
 73
    22
  0
VERTEX
  5
509
  8
0
 62
     9
 10
0.0
 20
0.0
 30
0.0
 70
   128
 71
    22
 72
    81
 73
    84
  0
VERTEX
  5
50A
  8
0
 62
     9
 10
0.0
 20
0.0
 30
0.0
 70
   128
 71
    88
 72
    87
 73
    24
  0
VERTEX
  5
50B
  8
0
 62
     9
 10
0.0
 20
0.0
 30
0.0
 70
   128
 71
    24
 72
    26
 73
    88
  0
VERTEX
  5
50C
  8
0
 62
     9
 10
0.0
 20
0.0
 30
0.0
 70
   128
 71
    87
 72
    80
 73
    24
  0
VERTEX
  5
50D
  8
0
 62
     9
 10
0.0
 20
0.0
 30
0.0
 70
   128
 71
    89
 72
    26
 73
    28
  0
VERTEX
  5
50E
  8
0
 62
     9
 10
0.0
 20
0.0
 30
0.0
 70
   128
 71
    89
 72
    90
 73
    26
  0
VERTEX
  5
50F
  8
0
 62
     9
 10
0.0
 20
0.0
 30
0.0
 70
   128
 71
    90
 72
    91
 73
    26
  0
VERTEX
  5
510
  8
0
 62
     9
 10
0.0
 20
0.0
 30
0.0
 70
   128
 71
    92
 72
    28
 73
     1
  0
VERTEX
  5
511
  8
0
 62
     9
 10
0.0
 20
0.0
 30
0.0
 70
   128
 71
     1
 72
    93
 73
    92
  0
VERTEX
  5
512
  8
0
 62
     9
 10
0.0
 20
0.0
 30
0.0
 70
   128
 71
    95
 72
    94
 73
    28
  0
VERTEX
  5
513
  8
0
 62
     9
 10
0.0
 20
0.0
 30
0.0
 70
   128
 71
    28
 72
    92
 73
    95
  0
VERTEX
  5
514
  8
0
 62
     9
 10
0.0
 20
0.0
 30
0.0
 70
   128
 71
     1
 72
    34
 73
    93
  0
VERTEX
  5
515
  8
0
 62
     9
 10
0.0
 20
0.0
 30
0.0
 70
   128
 71
    28
 72
    94
 73
    89
  0
VERTEX
  5
516
  8
0
 62
     9
 10
0.0
 20
0.0
 30
0.0
 70
   128
 71
    26
 72
    91
 73
    88
  0
VERTEX
  5
517
  8
0
 62
     9
 10
0.0
 20
0.0
 30
0.0
 70
   128
 71
    22
 72
    24
 73
    80
  0
VERTEX
  5
518
  8
0
 62
     9
 10
0.0
 20
0.0
 30
0.0
 70
   128
 71
    22
 72
    86
 73
    76
  0
VERTEX
  5
519
  8
0
 62
     9
 10
0.0
 20
0.0
 30
0.0
 70
   128
 71
    20
 72
    77
 73
    72
  0
VERTEX
  5
51A
  8
0
 62
     9
 10
0.0
 20
0.0
 30
0.0
 70
   128
 71
    18
 72
    73
 73
    68
  0
VERTEX
  5
51B
  8
0
 62
     9
 10
0.0
 20
0.0
 30
0.0
 70
   128
 71
    16
 72
    70
 73
    63
  0
VERTEX
  5
51C
  8
0
 62
     9
 10
0.0
 20
0.0
 30
0.0
 70
   128
 71
    14
 72
    65
 73
    58
  0
VERTEX
  5
51D
  8
0
 62
     9
 10
0.0
 20
0.0
 30
0.0
 70
   128
 71
    12
 72
    62
 73
    53
  0
VERTEX
  5
51E
  8
0
 62
     9
 10
0.0
 20
0.0
 30
0.0
 70
   128
 71
    10
 72
    54
 73
    51
  0
VERTEX
  5
51F
  8
0
 62
     9
 10
0.0
 20
0.0
 30
0.0
 70
   128
 71
     8
 72
    49
 73
    46
  0
VERTEX
  5
520
  8
0
 62
     9
 10
0.0
 20
0.0
 30
0.0
 70
   128
 71
     6
 72
    48
 73
    42
  0
VERTEX
  5
521
  8
0
 62
     9
 10
0.0
 20
0.0
 30
0.0
 70
   128
 71
     2
 72
     4
 73
    36
  0
VERTEX
  5
522
  8
0
 62
     9
 10
0.0
 20
0.0
 30
0.0
 70
   128
 71
     2
 72
    41
 73
    32
  0
VERTEX
  5
523
  8
0
 62
     9
 10
0.0
 20
0.0
 30
0.0
 70
   128
 71
    30
 72
    29
 73
    96
  0
VERTEX
  5
524
  8
0
 62
     9
 10
0.0
 20
0.0
 30
0.0
 70
   128
 71
    29
 72
    27
 73
    96
  0
VERTEX
  5
525
  8
0
 62
     9
 10
0.0
 20
0.0
 30
0.0
 70
   128
 71
    27
 72
    25
 73
    96
  0
VERTEX
  5
526
  8
0
 62
     9
 10
0.0
 20
0.0
 30
0.0
 70
   128
 71
    25
 72
    23
 73
    96
  0
VERTEX
  5
527
  8
0
 62
     9
 10
0.0
 20
0.0
 30
0.0
 70
   128
 71
    23
 72
    21
 73
    96
  0
VERTEX
  5
528
  8
0
 62
     9
 10
0.0
 20
0.0
 30
0.0
 70
   128
 71
    21
 72
    19
 73
    96
  0
VERTEX
  5
529
  8
0
 62
     9
 10
0.0
 20
0.0
 30
0.0
 70
   128
 71
    19
 72
    17
 73
    96
  0
VERTEX
  5
52A
  8
0
 62
     9
 10
0.0
 20
0.0
 30
0.0
 70
   128
 71
    17
 72
    15
 73
    96
  0
VERTEX
  5
52B
  8
0
 62
     9
 10
0.0
 20
0.0
 30
0.0
 70
   128
 71
    15
 72
    13
 73
    96
  0
VERTEX
  5
52C
  8
0
 62
     9
 10
0.0
 20
0.0
 30
0.0
 70
   128
 71
    13
 72
    11
 73
    96
  0
VERTEX
  5
52D
  8
0
 62
     9
 10
0.0
 20
0.0
 30
0.0
 70
   128
 71
    11
 72
     9
 73
    96
  0
VERTEX
  5
52E
  8
0
 62
     9
 10
0.0
 20
0.0
 30
0.0
 70
   128
 71
     9
 72
     7
 73
    96
  0
VERTEX
  5
52F
  8
0
 62
     9
 10
0.0
 20
0.0
 30
0.0
 70
   128
 71
     7
 72
     5
 73
    96
  0
VERTEX
  5
530
  8
0
 62
     9
 10
0.0
 20
0.0
 30
0.0
 70
   128
 71
     5
 72
     3
 73
    96
  0
VERTEX
  5
531
  8
0
 62
     9
 10
0.0
 20
0.0
 30
0.0
 70
   128
 71
     3
 72
    30
 73
    96
  0
VERTEX
  5
532
  8
0
 62
     9
 10
0.0
 20
0.0
 30
0.0
 70
   128
 71
    28
 72
    29
 73
    30
  0
VERTEX
  5
533
  8
0
 62
     9
 10
0.0
 20
0.0
 30
0.0
 70
   128
 71
    26
 72
    27
 73
    29
  0
VERTEX
  5
534
  8
0
 62
     9
 10
0.0
 20
0.0
 30
0.0
 70
   128
 71
    24
 72
    25
 73
    27
  0
VERTEX
  5
535
  8
0
 62
     9
 10
0.0
 20
0.0
 30
0.0
 70
   128
 71
    22
 72
    23
 73
    25
  0
VERTEX
  5
536
  8
0
 62
     9
 10
0.0
 20
0.0
 30
0.0
 70
   128
 71
    20
 72
    21
 73
    23
  0
VERTEX
  5
537
  8
0
 62
     9
 10
0.0
 20
0.0
 30
0.0
 70
   128
 71
    18
 72
    19
 73
    21
  0
VERTEX
  5
538
  8
0
 62
     9
 10
0.0
 20
0.0
 30
0.0
 70
   128
 71
    16
 72
    17
 73
    19
  0
VERTEX
  5
539
  8
0
 62
     9
 10
0.0
 20
0.0
 30
0.0
 70
   128
 71
    14
 72
    15
 73
    17
  0
VERTEX
  5
53A
  8
0
 62
     9
 10
0.0
 20
0.0
 30
0.0
 70
   128
 71
    12
 72
    13
 73
    15
  0
VERTEX
  5
53B
  8
0
 62
     9
 10
0.0
 20
0.0
 30
0.0
 70
   128
 71
    10
 72
    11
 73
    13
  0
VERTEX
  5
53C
  8
0
 62
     9
 10
0.0
 20
0.0
 30
0.0
 70
   128
 71
     8
 72
     9
 73
    11
  0
VERTEX
  5
53D
  8
0
 62
     9
 10
0.0
 20
0.0
 30
0.0
 70
   128
 71
     6
 72
     7
 73
     9
  0
VERTEX
  5
53E
  8
0
 62
     9
 10
0.0
 20
0.0
 30
0.0
 70
   128
 71
     4
 72
     5
 73
     7
  0
VERTEX
  5
53F
  8
0
 62
     9
 10
0.0
 20
0.0
 30
0.0
 70
   128
 71
     2
 72
     3
 73
     5
  0
VERTEX
  5
540
  8
0
 62
     9
 10
0.0
 20
0.0
 30
0.0
 70
   128
 71
     1
 72
    30
 73
     3
  0
SEQEND
  5
541
  8
0
 62
     9
  0
ENDBLK
  5
544
  8
0
  0
BLOCK
  8
0
  2
E3_NODE_19_
 70
     0
 10
0.0
 20
0.0
 30
0.0
  3
E3_NODE_19_
  1

  0
POLYLINE
  5
546
  8
0
 62
     9
 66
     1
 10
0.0
 20
0.0
 30
0.0
 70
    64
 71
    34
 72
    32
  0
VERTEX
  5
547
  8
0
 10
0.0
 20
16.61599922180176
 30
46.92300033569336
 70
   192
  0
VERTEX
  5
548
  8
0
 10
-6.414999961853027
 20
35.9630012512207
 30
23.0310001373291
 70
   192
  0
VERTEX
  5
549
  8
0
 10
-8.791000366210938
 20
35.27299880981445
 30
23.88400077819824
 70
   192
  0
VERTEX
  5
54A
  8
0
 10
-2.752000093460083
 20
36.64599990844727
 30
22.18899917602539
 70
   192
  0
VERTEX
  5
54B
  8
0
 10
-5.203999996185303
 20
36.31499862670898
 30
22.59700012207031
 70
   192
  0
VERTEX
  5
54C
  8
0
 10
-9.376999855041504
 20
35.00699996948242
 30
24.21299934387207
 70
   192
  0
VERTEX
  5
54D
  8
0
 10
-10.9370002746582
 20
34.10599899291992
 30
25.32500076293945
 70
   192
  0
VERTEX
  5
54E
  8
0
 10
-9.352999687194824
 20
35.02099990844727
 30
24.19499969482422
 70
   192
  0
VERTEX
  5
54F
  8
0
 10
-0.2529999911785126
 20
36.76200103759766
 30
22.04500007629395
 70
   192
  0
VERTEX
  5
550
  8
0
 10
-0.0010000000474975
 20
36.75400161743164
 30
22.05500030517578
 70
   192
  0
VERTEX
  5
551
  8
0
 10
6.458000183105469
 20
36.01200103759766
 30
22.97100067138672
 70
   192
  0
VERTEX
  5
552
  8
0
 10
4.717000007629395
 20
36.4010009765625
 30
22.49099922180176
 70
   192
  0
VERTEX
  5
553
  8
0
 10
13.82800006866455
 20
30.89200019836426
 30
29.29299926757812
 70
   192
  0
VERTEX
  5
554
  8
0
 10
12.92199993133545
 20
32.25299835205078
 30
27.61300086975098
 70
   192
  0
VERTEX
  5
555
  8
0
 10
-14.50300025939941
 20
29.21599960327148
 30
31.36300086975098
 70
   192
  0
VERTEX
  5
556
  8
0
 10
-14.7810001373291
 20
28.64699935913086
 30
32.06600189208984
 70
   192
  0
VERTEX
  5
557
  8
0
 10
-11.77499961853027
 20
33.2859992980957
 30
26.33699989318848
 70
   192
  0
VERTEX
  5
558
  8
0
 10
-13.18900012969971
 20
31.90099906921387
 30
28.04700088500977
 70
   192
  0
VERTEX
  5
559
  8
0
 10
2.25
 20
36.68500137329102
 30
22.13999938964844
 70
   192
  0
VERTEX
  5
55A
  8
0
 10
9.279999732971191
 20
34.91999816894531
 30
24.31900024414062
 70
   192
  0
VERTEX
  5
55B
  8
0
 10
7.083000183105469
 20
35.87300109863281
 30
23.14299964904785
 70
   192
  0
VERTEX
  5
55C
  8
0
 10
11.76700019836426
 20
33.27700042724609
 30
26.34799957275391
 70
   192
  0
VERTEX
  5
55D
  8
0
 10
10.51700019836426
 20
34.38299942016602
 30
24.98200035095215
 70
   192
  0
VERTEX
  5
55E
  8
0
 10
13.89900016784668
 20
30.70599937438965
 30
29.52300071716309
 70
   192
  0
VERTEX
  5
55F
  8
0
 10
15.2810001373291
 20
26.36599922180176
 30
34.88299942016602
 70
   192
  0
VERTEX
  5
560
  8
0
 10
15.04899978637695
 20
27.7189998626709
 30
33.21200180053711
 70
   192
  0
VERTEX
  5
561
  8
0
 10
-15.30099964141846
 20
26.38100051879883
 30
34.8650016784668
 70
   192
  0
VERTEX
  5
562
  8
0
 10
-15.71500015258789
 20
23.83600044250488
 30
38.00699996948242
 70
   192
  0
VERTEX
  5
563
  8
0
 10
-9.829000473022461
 20
18.65999984741211
 30
44.39899826049805
 70
   192
  0
VERTEX
  5
564
  8
0
 10
-15.14999961853027
 20
27.30900001525879
 30
33.71799850463867
 70
   192
  0
VERTEX
  5
565
  8
0
 10
14.45400047302246
 20
29.26399993896484
 30
31.30400085449219
 70
   192
  0
VERTEX
  5
566
  8
0
 10
9.829000473022461
 20
18.65999984741211
 30
44.39899826049805
 70
   192
  0
VERTEX
  5
567
  8
0
 10
-13.79300022125244
 20
30.66699981689453
 30
29.57099914550781
 70
   192
  0
VERTEX
  5
568
  8
0
 10
15.71500015258789
 20
23.83600044250488
 30
38.00699996948242
 70
   192
  0
VERTEX
  5
569
  8
0
 62
     9
 10
0.0
 20
0.0
 30
0.0
 70
   128
 71
     3
 72
     2
 73
     1
  0
VERTEX
  5
56A
  8
0
 62
     9
 10
0.0
 20
0.0
 30
0.0
 70
   128
 71
     5
 72
     4
 73
     1
  0
VERTEX
  5
56B
  8
0
 62
     9
 10
0.0
 20
0.0
 30
0.0
 70
   128
 71
     7
 72
     6
 73
     1
  0
VERTEX
  5
56C
  8
0
 62
     9
 10
0.0
 20
0.0
 30
0.0
 70
   128
 71
     1
 72
     8
 73
     3
  0
VERTEX
  5
56D
  8
0
 62
     9
 10
0.0
 20
0.0
 30
0.0
 70
   128
 71
     4
 72
     9
 73
     1
  0
VERTEX
  5
56E
  8
0
 62
     9
 10
0.0
 20
0.0
 30
0.0
 70
   128
 71
     1
 72
     6
 73
     8
  0
VERTEX
  5
56F
  8
0
 62
     9
 10
0.0
 20
0.0
 30
0.0
 70
   128
 71
     9
 72
    10
 73
     1
  0
VERTEX
  5
570
  8
0
 62
     9
 10
0.0
 20
0.0
 30
0.0
 70
   128
 71
    12
 72
    11
 73
     1
  0
VERTEX
  5
571
  8
0
 62
     9
 10
0.0
 20
0.0
 30
0.0
 70
   128
 71
    14
 72
    13
 73
     1
  0
VERTEX
  5
572
  8
0
 62
     9
 10
0.0
 20
0.0
 30
0.0
 70
   128
 71
    16
 72
    15
 73
     1
  0
VERTEX
  5
573
  8
0
 62
     9
 10
0.0
 20
0.0
 30
0.0
 70
   128
 71
    18
 72
    17
 73
     1
  0
VERTEX
  5
574
  8
0
 62
     9
 10
0.0
 20
0.0
 30
0.0
 70
   128
 71
     1
 72
     2
 73
     5
  0
VERTEX
  5
575
  8
0
 62
     9
 10
0.0
 20
0.0
 30
0.0
 70
   128
 71
     1
 72
    19
 73
    12
  0
VERTEX
  5
576
  8
0
 62
     9
 10
0.0
 20
0.0
 30
0.0
 70
   128
 71
    21
 72
    20
 73
     1
  0
VERTEX
  5
577
  8
0
 62
     9
 10
0.0
 20
0.0
 30
0.0
 70
   128
 71
    23
 72
    22
 73
     1
  0
VERTEX
  5
578
  8
0
 62
     9
 10
0.0
 20
0.0
 30
0.0
 70
   128
 71
    13
 72
    24
 73
     1
  0
VERTEX
  5
579
  8
0
 62
     9
 10
0.0
 20
0.0
 30
0.0
 70
   128
 71
    26
 72
    25
 73
     1
  0
VERTEX
  5
57A
  8
0
 62
     9
 10
0.0
 20
0.0
 30
0.0
 70
   128
 71
    29
 72
    28
 73
    27
  0
VERTEX
  5
57B
  8
0
 62
     9
 10
0.0
 20
0.0
 30
0.0
 70
   128
 71
     1
 72
    30
 73
    16
  0
VERTEX
  5
57C
  8
0
 62
     9
 10
0.0
 20
0.0
 30
0.0
 70
   128
 71
     1
 72
    17
 73
     7
  0
VERTEX
  5
57D
  8
0
 62
     9
 10
0.0
 20
0.0
 30
0.0
 70
   128
 71
     1
 72
    11
 73
    21
  0
VERTEX
  5
57E
  8
0
 62
     9
 10
0.0
 20
0.0
 30
0.0
 70
   128
 71
     1
 72
    22
 73
    14
  0
VERTEX
  5
57F
  8
0
 62
     9
 10
0.0
 20
0.0
 30
0.0
 70
   128
 71
     1
 72
    31
 73
    26
  0
VERTEX
  5
580
  8
0
 62
     9
 10
0.0
 20
0.0
 30
0.0
 70
   128
 71
    32
 72
     1
 73
    25
  0
VERTEX
  5
581
  8
0
 62
     9
 10
0.0
 20
0.0
 30
0.0
 70
   128
 71
     1
 72
    27
 73
    30
  0
VERTEX
  5
582
  8
0
 62
     9
 10
0.0
 20
0.0
 30
0.0
 70
   128
 71
     1
 72
    33
 73
    18
  0
VERTEX
  5
583
  8
0
 62
     9
 10
0.0
 20
0.0
 30
0.0
 70
   128
 71
     1
 72
    20
 73
    23
  0
VERTEX
  5
584
  8
0
 62
     9
 10
0.0
 20
0.0
 30
0.0
 70
   128
 71
    25
 72
    34
 73
    32
  0
VERTEX
  5
585
  8
0
 62
     9
 10
0.0
 20
0.0
 30
0.0
 70
   128
 71
     1
 72
    15
 73
    33
  0
VERTEX
  5
586
  8
0
 62
     9
 10
0.0
 20
0.0
 30
0.0
 70
   128
 71
     1
 72
    24
 73
    31
  0
VERTEX
  5
587
  8
0
 62
     9
 10
0.0
 20
0.0
 30
0.0
 70
   128
 71
     1
 72
    10
 73
    19
  0
VERTEX
  5
588
  8
0
 62
     9
 10
0.0
 20
0.0
 30
0.0
 70
   128
 71
    27
 72
     1
 73
    29
  0
SEQEND
  5
589
  8
0
 62
     9
  0
ENDBLK
  5
58C
  8
0
  0
BLOCK
  8
0
  2
E3_NODE_20_
 70
     0
 10
0.0
 20
0.0
 30
0.0
  3
E3_NODE_20_
  1

  0
POLYLINE
  5
58E
  8
0
 62
     9
 66
     1
 10
0.0
 20
0.0
 30
0.0
 70
    64
 71
    27
 72
    25
  0
VERTEX
  5
58F
  8
0
 10
-9.829000473022461
 20
18.65999984741211
 30
44.39899826049805
 70
   192
  0
VERTEX
  5
590
  8
0
 10
-8.607000350952148
 20
18.59900093078613
 30
46.52799987792969
 70
   192
  0
VERTEX
  5
591
  8
0
 10
-4.210000038146973
 20
17.42399978637695
 30
47.7599983215332
 70
   192
  0
VERTEX
  5
592
  8
0
 10
-10.24899959564209
 20
19.35799980163574
 30
45.70600128173828
 70
   192
  0
VERTEX
  5
593
  8
0
 10
-9.755999565124512
 20
19.07099914550781
 30
46.02299880981445
 70
   192
  0
VERTEX
  5
594
  8
0
 10
0.0
 20
16.61599922180176
 30
46.92300033569336
 70
   192
  0
VERTEX
  5
595
  8
0
 10
-2.996999979019165
 20
17.25
 30
47.9370002746582
 70
   192
  0
VERTEX
  5
596
  8
0
 10
-0.0149999996647239
 20
17.17799949645996
 30
48.01100158691406
 70
   192
  0
VERTEX
  5
597
  8
0
 10
9.829000473022461
 20
18.65999984741211
 30
44.39899826049805
 70
   192
  0
VERTEX
  5
598
  8
0
 10
7.410999774932861
 20
18.1870002746582
 30
46.96500015258789
 70
   192
  0
VERTEX
  5
599
  8
0
 10
8.397000312805176
 20
18.52199935913086
 30
46.61100006103516
 70
   192
  0
VERTEX
  5
59A
  8
0
 10
2.872999906539917
 20
17.23600006103516
 30
47.95199966430664
 70
   192
  0
VERTEX
  5
59B
  8
0
 10
0.0049999998882413
 20
17.17799949645996
 30
48.01100158691406
 70
   192
  0
VERTEX
  5
59C
  8
0
 10
1.764999985694885
 20
17.13500022888184
 30
48.05500030517578
 70
   192
  0
VERTEX
  5
59D
  8
0
 10
15.72200012207031
 20
23.80400085449219
 30
38.22600173950195
 70
   192
  0
VERTEX
  5
59E
  8
0
 10
13.07800006866455
 20
20.97599983215332
 30
43.92599868774414
 70
   192
  0
VERTEX
  5
59F
  8
0
 10
12.19699954986572
 20
20.375
 30
44.59600067138672
 70
   192
  0
VERTEX
  5
5A0
  8
0
 10
10.20600032806396
 20
19.40399932861328
 30
45.65200042724609
 70
   192
  0
VERTEX
  5
5A1
  8
0
 10
15.7180004119873
 20
23.50900077819824
 30
41.03799819946289
 70
   192
  0
VERTEX
  5
5A2
  8
0
 10
15.77200031280518
 20
23.57900047302246
 30
40.95600128173828
 70
   192
  0
VERTEX
  5
5A3
  8
0
 10
-15.72200012207031
 20
23.80400085449219
 30
38.22600173950195
 70
   192
  0
VERTEX
  5
5A4
  8
0
 10
-14.09099960327148
 20
21.78700065612793
 30
43.01100158691406
 70
   192
  0
VERTEX
  5
5A5
  8
0
 10
-13.27999973297119
 20
21.12599945068359
 30
43.75799942016602
 70
   192
  0
VERTEX
  5
5A6
  8
0
 10
-15.64700031280518
 20
23.41699981689453
 30
41.14400100708008
 70
   192
  0
VERTEX
  5
5A7
  8
0
 10
-15.77200031280518
 20
23.57900047302246
 30
40.95600128173828
 70
   192
  0
VERTEX
  5
5A8
  8
0
 10
-15.71500015258789
 20
23.83600044250488
 30
38.00699996948242
 70
   192
  0
VERTEX
  5
5A9
  8
0
 10
15.71500015258789
 20
23.83600044250488
 30
38.00699996948242
 70
   192
  0
VERTEX
  5
5AA
  8
0
 62
     9
 10
0.0
 20
0.0
 30
0.0
 70
   128
 71
     3
 72
     2
 73
     1
  0
VERTEX
  5
5AB
  8
0
 62
     9
 10
0.0
 20
0.0
 30
0.0
 70
   128
 71
     5
 72
     4
 73
     1
  0
VERTEX
  5
5AC
  8
0
 62
     9
 10
0.0
 20
0.0
 30
0.0
 70
   128
 71
     1
 72
     2
 73
     5
  0
VERTEX
  5
5AD
  8
0
 62
     9
 10
0.0
 20
0.0
 30
0.0
 70
   128
 71
     1
 72
     6
 73
     3
  0
VERTEX
  5
5AE
  8
0
 62
     9
 10
0.0
 20
0.0
 30
0.0
 70
   128
 71
     6
 72
     7
 73
     3
  0
VERTEX
  5
5AF
  8
0
 62
     9
 10
0.0
 20
0.0
 30
0.0
 70
   128
 71
     6
 72
     8
 73
     7
  0
VERTEX
  5
5B0
  8
0
 62
     9
 10
0.0
 20
0.0
 30
0.0
 70
   128
 71
    11
 72
    10
 73
     9
  0
VERTEX
  5
5B1
  8
0
 62
     9
 10
0.0
 20
0.0
 30
0.0
 70
   128
 71
    12
 72
     6
 73
     9
  0
VERTEX
  5
5B2
  8
0
 62
     9
 10
0.0
 20
0.0
 30
0.0
 70
   128
 71
     9
 72
    10
 73
    12
  0
VERTEX
  5
5B3
  8
0
 62
     9
 10
0.0
 20
0.0
 30
0.0
 70
   128
 71
    14
 72
    13
 73
     6
  0
VERTEX
  5
5B4
  8
0
 62
     9
 10
0.0
 20
0.0
 30
0.0
 70
   128
 71
     6
 72
    12
 73
    14
  0
VERTEX
  5
5B5
  8
0
 62
     9
 10
0.0
 20
0.0
 30
0.0
 70
   128
 71
    16
 72
     9
 73
    15
  0
VERTEX
  5
5B6
  8
0
 62
     9
 10
0.0
 20
0.0
 30
0.0
 70
   128
 71
    16
 72
    17
 73
     9
  0
VERTEX
  5
5B7
  8
0
 62
     9
 10
0.0
 20
0.0
 30
0.0
 70
   128
 71
    17
 72
    18
 73
     9
  0
VERTEX
  5
5B8
  8
0
 62
     9
 10
0.0
 20
0.0
 30
0.0
 70
   128
 71
    15
 72
    19
 73
    16
  0
VERTEX
  5
5B9
  8
0
 62
     9
 10
0.0
 20
0.0
 30
0.0
 70
   128
 71
    15
 72
    20
 73
    19
  0
VERTEX
  5
5BA
  8
0
 62
     9
 10
0.0
 20
0.0
 30
0.0
 70
   128
 71
    22
 72
    21
 73
     1
  0
VERTEX
  5
5BB
  8
0
 62
     9
 10
0.0
 20
0.0
 30
0.0
 70
   128
 71
     1
 72
    23
 73
    22
  0
VERTEX
  5
5BC
  8
0
 62
     9
 10
0.0
 20
0.0
 30
0.0
 70
   128
 71
    22
 72
    24
 73
    21
  0
VERTEX
  5
5BD
  8
0
 62
     9
 10
0.0
 20
0.0
 30
0.0
 70
   128
 71
    24
 72
    25
 73
    21
  0
VERTEX
  5
5BE
  8
0
 62
     9
 10
0.0
 20
0.0
 30
0.0
 70
   128
 71
    21
 72
    26
 73
     1
  0
VERTEX
  5
5BF
  8
0
 62
     9
 10
0.0
 20
0.0
 30
0.0
 70
   128
 71
     1
 72
     4
 73
    23
  0
VERTEX
  5
5C0
  8
0
 62
     9
 10
0.0
 20
0.0
 30
0.0
 70
   128
 71
     9
 72
    27
 73
    15
  0
VERTEX
  5
5C1
  8
0
 62
     9
 10
0.0
 20
0.0
 30
0.0
 70
   128
 71
     9
 72
    18
 73
    11
  0
VERTEX
  5
5C2
  8
0
 62
     9
 10
0.0
 20
0.0
 30
0.0
 70
   128
 71
     6
 72
    13
 73
     8
  0
SEQEND
  5
5C3
  8
0
 62
     9
  0
ENDBLK
  5
5C6
  8
0
  0
BLOCK
  8
0
  2
E3_NODE_21_
 70
     0
 10
0.0
 20
0.0
 30
0.0
  3
E3_NODE_21_
  1

  0
POLYLINE
  5
5C8
  8
0
 62
     9
 66
     1
 10
0.0
 20
0.0
 30
0.0
 70
    64
 71
    84
 72
    84
  0
VERTEX
  5
5C9
  8
0
 10
16.76399993896484
 20
0.0
 30
31.45400047302246
 70
   192
  0
VERTEX
  5
5CA
  8
0
 10
16.80100059509277
 20
4.895999908447266
 30
7.900000095367432
 70
   192
  0
VERTEX
  5
5CB
  8
0
 10
16.01499938964844
 20
6.627999782562256
 30
7.900000095367432
 70
   192
  0
VERTEX
  5
5CC
  8
0
 10
17.5
 20
0.0
 30
7.900000095367432
 70
   192
  0
VERTEX
  5
5CD
  8
0
 10
-16.76399993896484
 20
0.0
 30
31.45400047302246
 70
   192
  0
VERTEX
  5
5CE
  8
0
 10
-16.58499908447266
 20
5.585999965667725
 30
7.900000095367432
 70
   192
  0
VERTEX
  5
5CF
  8
0
 10
-17.47299957275391
 20
0.9599999785423279
 30
7.900000095367432
 70
   192
  0
VERTEX
  5
5D0
  8
0
 10
-15.44499969482422
 20
23.94400024414062
 30
31.45400047302246
 70
   192
  0
VERTEX
  5
5D1
  8
0
 10
-16.05400085449219
 20
6.638999938964844
 30
7.900000095367432
 70
   192
  0
VERTEX
  5
5D2
  8
0
 10
-15.30099964141846
 20
26.38100051879883
 30
34.8650016784668
 70
   192
  0
VERTEX
  5
5D3
  8
0
 10
-15.14999961853027
 20
27.30900001525879
 30
33.71799850463867
 70
   192
  0
VERTEX
  5
5D4
  8
0
 10
-14.7810001373291
 20
28.64699935913086
 30
32.06600189208984
 70
   192
  0
VERTEX
  5
5D5
  8
0
 10
-14.50899982452393
 20
9.701000213623047
 30
7.900000095367432
 70
   192
  0
VERTEX
  5
5D6
  8
0
 10
-14.50300025939941
 20
29.21599960327148
 30
31.36300086975098
 70
   192
  0
VERTEX
  5
5D7
  8
0
 10
-13.18900012969971
 20
31.90099906921387
 30
28.04700088500977
 70
   192
  0
VERTEX
  5
5D8
  8
0
 10
-11.77499961853027
 20
33.2859992980957
 30
26.33699989318848
 70
   192
  0
VERTEX
  5
5D9
  8
0
 10
-12.2519998550415
 20
12.26000022888184
 30
7.900000095367432
 70
   192
  0
VERTEX
  5
5DA
  8
0
 10
-14.35400009155273
 20
10.01000022888184
 30
7.900000095367432
 70
   192
  0
VERTEX
  5
5DB
  8
0
 10
-13.79300022125244
 20
30.66699981689453
 30
29.57099914550781
 70
   192
  0
VERTEX
  5
5DC
  8
0
 10
-10.9370002746582
 20
34.10599899291992
 30
25.32500076293945
 70
   192
  0
VERTEX
  5
5DD
  8
0
 10
-9.376999855041504
 20
35.00699996948242
 30
24.21299934387207
 70
   192
  0
VERTEX
  5
5DE
  8
0
 10
-9.645000457763672
 20
14.42099952697754
 30
7.900000095367432
 70
   192
  0
VERTEX
  5
5DF
  8
0
 10
-10.96500015258789
 20
13.63799953460693
 30
7.900000095367432
 70
   192
  0
VERTEX
  5
5E0
  8
0
 10
-8.791000366210938
 20
35.27299880981445
 30
23.88400077819824
 70
   192
  0
VERTEX
  5
5E1
  8
0
 10
-6.414999961853027
 20
35.9630012512207
 30
23.0310001373291
 70
   192
  0
VERTEX
  5
5E2
  8
0
 10
-6.697000026702881
 20
16.16799926757812
 30
7.900000095367432
 70
   192
  0
VERTEX
  5
5E3
  8
0
 10
-9.352999687194824
 20
35.02099990844727
 30
24.19499969482422
 70
   192
  0
VERTEX
  5
5E4
  8
0
 10
-5.203999996185303
 20
36.31499862670898
 30
22.59700012207031
 70
   192
  0
VERTEX
  5
5E5
  8
0
 10
-0.2529999911785126
 20
36.76200103759766
 30
22.04500007629395
 70
   192
  0
VERTEX
  5
5E6
  8
0
 10
-0.0010000000474975
 20
17.32299995422363
 30
7.900000095367432
 70
   192
  0
VERTEX
  5
5E7
  8
0
 10
-2.339999914169312
 20
17.34199905395508
 30
7.900000095367432
 70
   192
  0
VERTEX
  5
5E8
  8
0
 10
-2.752000093460083
 20
36.64599990844727
 30
22.18899917602539
 70
   192
  0
VERTEX
  5
5E9
  8
0
 10
-0.0010000000474975
 20
36.75400161743164
 30
22.05500030517578
 70
   192
  0
VERTEX
  5
5EA
  8
0
 10
2.25
 20
36.68500137329102
 30
22.13999938964844
 70
   192
  0
VERTEX
  5
5EB
  8
0
 10
2.61899995803833
 20
17.30200004577637
 30
7.900000095367432
 70
   192
  0
VERTEX
  5
5EC
  8
0
 10
6.458000183105469
 20
36.01200103759766
 30
22.97100067138672
 70
   192
  0
VERTEX
  5
5ED
  8
0
 10
6.671999931335449
 20
16.08399963378906
 30
7.900000095367432
 70
   192
  0
VERTEX
  5
5EE
  8
0
 10
4.717000007629395
 20
36.4010009765625
 30
22.49099922180176
 70
   192
  0
VERTEX
  5
5EF
  8
0
 10
9.279999732971191
 20
34.91999816894531
 30
24.31900024414062
 70
   192
  0
VERTEX
  5
5F0
  8
0
 10
7.361000061035156
 20
15.8769998550415
 30
7.900000095367432
 70
   192
  0
VERTEX
  5
5F1
  8
0
 10
7.083000183105469
 20
35.87300109863281
 30
23.14299964904785
 70
   192
  0
VERTEX
  5
5F2
  8
0
 10
9.626999855041504
 20
14.4040002822876
 30
7.900000095367432
 70
   192
  0
VERTEX
  5
5F3
  8
0
 10
10.51700019836426
 20
34.38299942016602
 30
24.98200035095215
 70
   192
  0
VERTEX
  5
5F4
  8
0
 10
11.51799964904785
 20
13.17500019073486
 30
7.900000095367432
 70
   192
  0
VERTEX
  5
5F5
  8
0
 10
11.76700019836426
 20
33.27700042724609
 30
26.34799957275391
 70
   192
  0
VERTEX
  5
5F6
  8
0
 10
12.27799987792969
 20
12.29199981689453
 30
7.900000095367432
 70
   192
  0
VERTEX
  5
5F7
  8
0
 10
14.51399993896484
 20
9.690999984741211
 30
7.900000095367432
 70
   192
  0
VERTEX
  5
5F8
  8
0
 10
12.92199993133545
 20
32.25299835205078
 30
27.61300086975098
 70
   192
  0
VERTEX
  5
5F9
  8
0
 10
13.82800006866455
 20
30.89200019836426
 30
29.29299926757812
 70
   192
  0
VERTEX
  5
5FA
  8
0
 10
15.44499969482422
 20
23.94400024414062
 30
31.45400047302246
 70
   192
  0
VERTEX
  5
5FB
  8
0
 10
14.74899959564209
 20
9.418000221252441
 30
7.900000095367432
 70
   192
  0
VERTEX
  5
5FC
  8
0
 10
13.89900016784668
 20
30.70599937438965
 30
29.52300071716309
 70
   192
  0
VERTEX
  5
5FD
  8
0
 10
14.45400047302246
 20
29.26399993896484
 30
31.30400085449219
 70
   192
  0
VERTEX
  5
5FE
  8
0
 10
15.04899978637695
 20
27.7189998626709
 30
33.21200180053711
 70
   192
  0
VERTEX
  5
5FF
  8
0
 10
16.04000091552734
 20
1.932999968528748
 30
54.48799896240234
 70
   192
  0
VERTEX
  5
600
  8
0
 10
16.03700065612793
 20
0.0
 30
54.72700119018555
 70
   192
  0
VERTEX
  5
601
  8
0
 10
16.0930004119873
 20
0.0
 30
52.91899871826172
 70
   192
  0
VERTEX
  5
602
  8
0
 10
16.76300048828125
 20
0.0
 30
31.48500061035156
 70
   192
  0
VERTEX
  5
603
  8
0
 10
16.05299949645996
 20
6.868000030517578
 30
53.12300109863281
 70
   192
  0
VERTEX
  5
604
  8
0
 10
16.04299926757812
 20
3.361000061035156
 30
54.3120002746582
 70
   192
  0
VERTEX
  5
605
  8
0
 10
16.0620002746582
 20
10.8129997253418
 30
51.38700103759766
 70
   192
  0
VERTEX
  5
606
  8
0
 10
16.0580005645752
 20
8.57800006866455
 30
52.54299926757812
 70
   192
  0
VERTEX
  5
607
  8
0
 10
16.05500030517578
 20
12.03800010681152
 30
50.52799987792969
 70
   192
  0
VERTEX
  5
608
  8
0
 10
15.81900024414062
 20
22.90900039672852
 30
41.63999938964844
 70
   192
  0
VERTEX
  5
609
  8
0
 10
16.02499961853027
 20
17.19700050354004
 30
46.90800094604492
 70
   192
  0
VERTEX
  5
60A
  8
0
 10
15.72200012207031
 20
23.80400085449219
 30
38.22600173950195
 70
   192
  0
VERTEX
  5
60B
  8
0
 10
15.77200031280518
 20
23.57900047302246
 30
40.95600128173828
 70
   192
  0
VERTEX
  5
60C
  8
0
 10
15.71500015258789
 20
23.83600044250488
 30
38.00699996948242
 70
   192
  0
VERTEX
  5
60D
  8
0
 10
15.2810001373291
 20
26.36599922180176
 30
34.88299942016602
 70
   192
  0
VERTEX
  5
60E
  8
0
 10
-15.71500015258789
 20
23.83600044250488
 30
38.00699996948242
 70
   192
  0
VERTEX
  5
60F
  8
0
 10
-16.76300048828125
 20
0.0
 30
31.48500061035156
 70
   192
  0
VERTEX
  5
610
  8
0
 10
-16.00900077819824
 20
18.0359992980957
 30
46.20199966430664
 70
   192
  0
VERTEX
  5
611
  8
0
 10
-15.77200031280518
 20
23.57900047302246
 30
40.95600128173828
 70
   192
  0
VERTEX
  5
612
  8
0
 10
-16.06100082397461
 20
12.09500026702881
 30
50.60699844360352
 70
   192
  0
VERTEX
  5
613
  8
0
 10
-16.06100082397461
 20
12.41199970245361
 30
50.42399978637695
 70
   192
  0
VERTEX
  5
614
  8
0
 10
-16.05299949645996
 20
6.861000061035156
 30
53.125
 70
   192
  0
VERTEX
  5
615
  8
0
 10
-16.06100082397461
 20
9.725000381469727
 30
51.97900009155273
 70
   192
  0
VERTEX
  5
616
  8
0
 10
-16.04100036621094
 20
2.653000116348267
 30
54.44800186157227
 70
   192
  0
VERTEX
  5
617
  8
0
 10
-16.04700088500977
 20
4.728000164031982
 30
53.97900009155273
 70
   192
  0
VERTEX
  5
618
  8
0
 10
-16.04000091552734
 20
1.937999963760376
 30
54.52299880981445
 70
   192
  0
VERTEX
  5
619
  8
0
 10
-16.0930004119873
 20
0.0
 30
52.91899871826172
 70
   192
  0
VERTEX
  5
61A
  8
0
 10
-16.03700065612793
 20
0.0
 30
54.72700119018555
 70
   192
  0
VERTEX
  5
61B
  8
0
 10
-15.72200012207031
 20
23.80400085449219
 30
38.22600173950195
 70
   192
  0
VERTEX
  5
61C
  8
0
 10
-17.5
 20
0.0
 30
7.900000095367432
 70
   192
  0
VERTEX
  5
61D
  8
0
 62
     9
 10
0.0
 20
0.0
 30
0.0
 70
   128
 71
     3
 72
     2
 73
     1
  0
VERTEX
  5
61E
  8
0
 62
     9
 10
0.0
 20
0.0
 30
0.0
 70
   128
 71
     2
 72
     4
 73
     1
  0
VERTEX
  5
61F
  8
0
 62
     9
 10
0.0
 20
0.0
 30
0.0
 70
   128
 71
     7
 72
     6
 73
     5
  0
VERTEX
  5
620
  8
0
 62
     9
 10
0.0
 20
0.0
 30
0.0
 70
   128
 71
     9
 72
     8
 73
     5
  0
VERTEX
  5
621
  8
0
 62
     9
 10
0.0
 20
0.0
 30
0.0
 70
   128
 71
     5
 72
     6
 73
     9
  0
VERTEX
  5
622
  8
0
 62
     9
 10
0.0
 20
0.0
 30
0.0
 70
   128
 71
    11
 72
    10
 73
     8
  0
VERTEX
  5
623
  8
0
 62
     9
 10
0.0
 20
0.0
 30
0.0
 70
   128
 71
     8
 72
    12
 73
    11
  0
VERTEX
  5
624
  8
0
 62
     9
 10
0.0
 20
0.0
 30
0.0
 70
   128
 71
     8
 72
     9
 73
    13
  0
VERTEX
  5
625
  8
0
 62
     9
 10
0.0
 20
0.0
 30
0.0
 70
   128
 71
    13
 72
    14
 73
     8
  0
VERTEX
  5
626
  8
0
 62
     9
 10
0.0
 20
0.0
 30
0.0
 70
   128
 71
    17
 72
    16
 73
    15
  0
VERTEX
  5
627
  8
0
 62
     9
 10
0.0
 20
0.0
 30
0.0
 70
   128
 71
    15
 72
    19
 73
    18
  0
VERTEX
  5
628
  8
0
 62
     9
 10
0.0
 20
0.0
 30
0.0
 70
   128
 71
    15
 72
    18
 73
    17
  0
VERTEX
  5
629
  8
0
 62
     9
 10
0.0
 20
0.0
 30
0.0
 70
   128
 71
    22
 72
    21
 73
    20
  0
VERTEX
  5
62A
  8
0
 62
     9
 10
0.0
 20
0.0
 30
0.0
 70
   128
 71
    20
 72
    16
 73
    23
  0
VERTEX
  5
62B
  8
0
 62
     9
 10
0.0
 20
0.0
 30
0.0
 70
   128
 71
    20
 72
    23
 73
    22
  0
VERTEX
  5
62C
  8
0
 62
     9
 10
0.0
 20
0.0
 30
0.0
 70
   128
 71
    26
 72
    25
 73
    24
  0
VERTEX
  5
62D
  8
0
 62
     9
 10
0.0
 20
0.0
 30
0.0
 70
   128
 71
    24
 72
    27
 73
    22
  0
VERTEX
  5
62E
  8
0
 62
     9
 10
0.0
 20
0.0
 30
0.0
 70
   128
 71
    27
 72
    21
 73
    22
  0
VERTEX
  5
62F
  8
0
 62
     9
 10
0.0
 20
0.0
 30
0.0
 70
   128
 71
    28
 72
    25
 73
    26
  0
VERTEX
  5
630
  8
0
 62
     9
 10
0.0
 20
0.0
 30
0.0
 70
   128
 71
    31
 72
    30
 73
    29
  0
VERTEX
  5
631
  8
0
 62
     9
 10
0.0
 20
0.0
 30
0.0
 70
   128
 71
    32
 72
    28
 73
    31
  0
VERTEX
  5
632
  8
0
 62
     9
 10
0.0
 20
0.0
 30
0.0
 70
   128
 71
    29
 72
    32
 73
    31
  0
VERTEX
  5
633
  8
0
 62
     9
 10
0.0
 20
0.0
 30
0.0
 70
   128
 71
    30
 72
    33
 73
    29
  0
VERTEX
  5
634
  8
0
 62
     9
 10
0.0
 20
0.0
 30
0.0
 70
   128
 71
    34
 72
    33
 73
    30
  0
VERTEX
  5
635
  8
0
 62
     9
 10
0.0
 20
0.0
 30
0.0
 70
   128
 71
    30
 72
    35
 73
    34
  0
VERTEX
  5
636
  8
0
 62
     9
 10
0.0
 20
0.0
 30
0.0
 70
   128
 71
    35
 72
    37
 73
    36
  0
VERTEX
  5
637
  8
0
 62
     9
 10
0.0
 20
0.0
 30
0.0
 70
   128
 71
    36
 72
    38
 73
    35
  0
VERTEX
  5
638
  8
0
 62
     9
 10
0.0
 20
0.0
 30
0.0
 70
   128
 71
    37
 72
    40
 73
    39
  0
VERTEX
  5
639
  8
0
 62
     9
 10
0.0
 20
0.0
 30
0.0
 70
   128
 71
    41
 72
    36
 73
    37
  0
VERTEX
  5
63A
  8
0
 62
     9
 10
0.0
 20
0.0
 30
0.0
 70
   128
 71
    40
 72
    42
 73
    39
  0
VERTEX
  5
63B
  8
0
 62
     9
 10
0.0
 20
0.0
 30
0.0
 70
   128
 71
    42
 72
    44
 73
    43
  0
VERTEX
  5
63C
  8
0
 62
     9
 10
0.0
 20
0.0
 30
0.0
 70
   128
 71
    43
 72
    39
 73
    42
  0
VERTEX
  5
63D
  8
0
 62
     9
 10
0.0
 20
0.0
 30
0.0
 70
   128
 71
    44
 72
    46
 73
    45
  0
VERTEX
  5
63E
  8
0
 62
     9
 10
0.0
 20
0.0
 30
0.0
 70
   128
 71
    49
 72
    48
 73
    47
  0
VERTEX
  5
63F
  8
0
 62
     9
 10
0.0
 20
0.0
 30
0.0
 70
   128
 71
    46
 72
    47
 73
    48
  0
VERTEX
  5
640
  8
0
 62
     9
 10
0.0
 20
0.0
 30
0.0
 70
   128
 71
    48
 72
    45
 73
    46
  0
VERTEX
  5
641
  8
0
 62
     9
 10
0.0
 20
0.0
 30
0.0
 70
   128
 71
    47
 72
    51
 73
    50
  0
VERTEX
  5
642
  8
0
 62
     9
 10
0.0
 20
0.0
 30
0.0
 70
   128
 71
    53
 72
    52
 73
    47
  0
VERTEX
  5
643
  8
0
 62
     9
 10
0.0
 20
0.0
 30
0.0
 70
   128
 71
    51
 72
     3
 73
    50
  0
VERTEX
  5
644
  8
0
 62
     9
 10
0.0
 20
0.0
 30
0.0
 70
   128
 71
    54
 72
    53
 73
    50
  0
VERTEX
  5
645
  8
0
 62
     9
 10
0.0
 20
0.0
 30
0.0
 70
   128
 71
    57
 72
    56
 73
    55
  0
VERTEX
  5
646
  8
0
 62
     9
 10
0.0
 20
0.0
 30
0.0
 70
   128
 71
    60
 72
    59
 73
    58
  0
VERTEX
  5
647
  8
0
 62
     9
 10
0.0
 20
0.0
 30
0.0
 70
   128
 71
    62
 72
    61
 73
    58
  0
VERTEX
  5
648
  8
0
 62
     9
 10
0.0
 20
0.0
 30
0.0
 70
   128
 71
    61
 72
    63
 73
    58
  0
VERTEX
  5
649
  8
0
 62
     9
 10
0.0
 20
0.0
 30
0.0
 70
   128
 71
    65
 72
    64
 73
    58
  0
VERTEX
  5
64A
  8
0
 62
     9
 10
0.0
 20
0.0
 30
0.0
 70
   128
 71
    67
 72
    66
 73
    58
  0
VERTEX
  5
64B
  8
0
 62
     9
 10
0.0
 20
0.0
 30
0.0
 70
   128
 71
    58
 72
    64
 73
    67
  0
VERTEX
  5
64C
  8
0
 62
     9
 10
0.0
 20
0.0
 30
0.0
 70
   128
 71
    58
 72
    63
 73
    65
  0
VERTEX
  5
64D
  8
0
 62
     9
 10
0.0
 20
0.0
 30
0.0
 70
   128
 71
    58
 72
    59
 73
    62
  0
VERTEX
  5
64E
  8
0
 62
     9
 10
0.0
 20
0.0
 30
0.0
 70
   128
 71
    58
 72
    55
 73
    60
  0
VERTEX
  5
64F
  8
0
 62
     9
 10
0.0
 20
0.0
 30
0.0
 70
   128
 71
    58
 72
    66
 73
    68
  0
VERTEX
  5
650
  8
0
 62
     9
 10
0.0
 20
0.0
 30
0.0
 70
   128
 71
    68
 72
     1
 73
    58
  0
VERTEX
  5
651
  8
0
 62
     9
 10
0.0
 20
0.0
 30
0.0
 70
   128
 71
    50
 72
     1
 73
    68
  0
VERTEX
  5
652
  8
0
 62
     9
 10
0.0
 20
0.0
 30
0.0
 70
   128
 71
    68
 72
    69
 73
    50
  0
VERTEX
  5
653
  8
0
 62
     9
 10
0.0
 20
0.0
 30
0.0
 70
   128
 71
     8
 72
    10
 73
    70
  0
VERTEX
  5
654
  8
0
 62
     9
 10
0.0
 20
0.0
 30
0.0
 70
   128
 71
    71
 72
     5
 73
    70
  0
VERTEX
  5
655
  8
0
 62
     9
 10
0.0
 20
0.0
 30
0.0
 70
   128
 71
    73
 72
    72
 73
    71
  0
VERTEX
  5
656
  8
0
 62
     9
 10
0.0
 20
0.0
 30
0.0
 70
   128
 71
    75
 72
    74
 73
    71
  0
VERTEX
  5
657
  8
0
 62
     9
 10
0.0
 20
0.0
 30
0.0
 70
   128
 71
    71
 72
    72
 73
    75
  0
VERTEX
  5
658
  8
0
 62
     9
 10
0.0
 20
0.0
 30
0.0
 70
   128
 71
    77
 72
    76
 73
    71
  0
VERTEX
  5
659
  8
0
 62
     9
 10
0.0
 20
0.0
 30
0.0
 70
   128
 71
    71
 72
    74
 73
    77
  0
VERTEX
  5
65A
  8
0
 62
     9
 10
0.0
 20
0.0
 30
0.0
 70
   128
 71
    79
 72
    78
 73
    71
  0
VERTEX
  5
65B
  8
0
 62
     9
 10
0.0
 20
0.0
 30
0.0
 70
   128
 71
    78
 72
    80
 73
    71
  0
VERTEX
  5
65C
  8
0
 62
     9
 10
0.0
 20
0.0
 30
0.0
 70
   128
 71
    71
 72
    76
 73
    79
  0
VERTEX
  5
65D
  8
0
 62
     9
 10
0.0
 20
0.0
 30
0.0
 70
   128
 71
    81
 72
    71
 73
    80
  0
VERTEX
  5
65E
  8
0
 62
     9
 10
0.0
 20
0.0
 30
0.0
 70
   128
 71
    80
 72
    82
 73
    81
  0
VERTEX
  5
65F
  8
0
 62
     9
 10
0.0
 20
0.0
 30
0.0
 70
   128
 71
    71
 72
    83
 73
    73
  0
VERTEX
  5
660
  8
0
 62
     9
 10
0.0
 20
0.0
 30
0.0
 70
   128
 71
    70
 72
    83
 73
    71
  0
VERTEX
  5
661
  8
0
 62
     9
 10
0.0
 20
0.0
 30
0.0
 70
   128
 71
    70
 72
     5
 73
     8
  0
VERTEX
  5
662
  8
0
 62
     9
 10
0.0
 20
0.0
 30
0.0
 70
   128
 71
    55
 72
    58
 73
    57
  0
VERTEX
  5
663
  8
0
 62
     9
 10
0.0
 20
0.0
 30
0.0
 70
   128
 71
    50
 72
    69
 73
    54
  0
VERTEX
  5
664
  8
0
 62
     9
 10
0.0
 20
0.0
 30
0.0
 70
   128
 71
    50
 72
    53
 73
    47
  0
VERTEX
  5
665
  8
0
 62
     9
 10
0.0
 20
0.0
 30
0.0
 70
   128
 71
    47
 72
    52
 73
    49
  0
VERTEX
  5
666
  8
0
 62
     9
 10
0.0
 20
0.0
 30
0.0
 70
   128
 71
    44
 72
    45
 73
    43
  0
VERTEX
  5
667
  8
0
 62
     9
 10
0.0
 20
0.0
 30
0.0
 70
   128
 71
    39
 72
    41
 73
    37
  0
VERTEX
  5
668
  8
0
 62
     9
 10
0.0
 20
0.0
 30
0.0
 70
   128
 71
    35
 72
    38
 73
    34
  0
VERTEX
  5
669
  8
0
 62
     9
 10
0.0
 20
0.0
 30
0.0
 70
   128
 71
    26
 72
    31
 73
    28
  0
VERTEX
  5
66A
  8
0
 62
     9
 10
0.0
 20
0.0
 30
0.0
 70
   128
 71
    24
 72
    22
 73
    26
  0
VERTEX
  5
66B
  8
0
 62
     9
 10
0.0
 20
0.0
 30
0.0
 70
   128
 71
    16
 72
    17
 73
    23
  0
VERTEX
  5
66C
  8
0
 62
     9
 10
0.0
 20
0.0
 30
0.0
 70
   128
 71
    19
 72
    13
 73
    18
  0
VERTEX
  5
66D
  8
0
 62
     9
 10
0.0
 20
0.0
 30
0.0
 70
   128
 71
    13
 72
    19
 73
    14
  0
VERTEX
  5
66E
  8
0
 62
     9
 10
0.0
 20
0.0
 30
0.0
 70
   128
 71
     8
 72
    14
 73
    12
  0
VERTEX
  5
66F
  8
0
 62
     9
 10
0.0
 20
0.0
 30
0.0
 70
   128
 71
     5
 72
    84
 73
     7
  0
VERTEX
  5
670
  8
0
 62
     9
 10
0.0
 20
0.0
 30
0.0
 70
   128
 71
     1
 72
    50
 73
     3
  0
SEQEND
  5
671
  8
0
 62
     9
  0
ENDBLK
  5
674
  8
0
  0
BLOCK
  8
0
  2
E3_NODE_22_
 70
     0
 10
0.0
 20
0.0
 30
0.0
  3
E3_NODE_22_
  1

  0
POLYLINE
  5
676
  8
0
 62
     9
 66
     1
 10
0.0
 20
0.0
 30
0.0
 70
    64
 71
    74
 72
    79
  0
VERTEX
  5
677
  8
0
 10
-0.0149999996647239
 20
7.652999877929688
 30
53.79100036621094
 70
   192
  0
VERTEX
  5
678
  8
0
 10
-0.0149999996647239
 20
2.696000099182129
 30
55.10599899291992
 70
   192
  0
VERTEX
  5
679
  8
0
 10
16.04299926757812
 20
3.361000061035156
 30
54.3120002746582
 70
   192
  0
VERTEX
  5
67A
  8
0
 10
16.04000091552734
 20
1.932999968528748
 30
54.48799896240234
 70
   192
  0
VERTEX
  5
67B
  8
0
 10
16.0580005645752
 20
8.57800006866455
 30
52.54299926757812
 70
   192
  0
VERTEX
  5
67C
  8
0
 10
16.0620002746582
 20
10.8129997253418
 30
51.38700103759766
 70
   192
  0
VERTEX
  5
67D
  8
0
 10
-0.0149999996647239
 20
12.83199977874756
 30
51.14899826049805
 70
   192
  0
VERTEX
  5
67E
  8
0
 10
16.05299949645996
 20
6.868000030517578
 30
53.12300109863281
 70
   192
  0
VERTEX
  5
67F
  8
0
 10
1.764999985694885
 20
17.13500022888184
 30
48.05500030517578
 70
   192
  0
VERTEX
  5
680
  8
0
 10
0.0049999998882413
 20
17.17799949645996
 30
48.01100158691406
 70
   192
  0
VERTEX
  5
681
  8
0
 10
16.05500030517578
 20
12.03800010681152
 30
50.52799987792969
 70
   192
  0
VERTEX
  5
682
  8
0
 10
7.410999774932861
 20
18.1870002746582
 30
46.96500015258789
 70
   192
  0
VERTEX
  5
683
  8
0
 10
2.872999906539917
 20
17.23600006103516
 30
47.95199966430664
 70
   192
  0
VERTEX
  5
684
  8
0
 10
8.397000312805176
 20
18.52199935913086
 30
46.61100006103516
 70
   192
  0
VERTEX
  5
685
  8
0
 10
10.20600032806396
 20
19.40399932861328
 30
45.65200042724609
 70
   192
  0
VERTEX
  5
686
  8
0
 10
16.02499961853027
 20
17.19700050354004
 30
46.90800094604492
 70
   192
  0
VERTEX
  5
687
  8
0
 10
12.19699954986572
 20
20.375
 30
44.59600067138672
 70
   192
  0
VERTEX
  5
688
  8
0
 10
13.07800006866455
 20
20.97599983215332
 30
43.92599868774414
 70
   192
  0
VERTEX
  5
689
  8
0
 10
15.81900024414062
 20
22.90900039672852
 30
41.63999938964844
 70
   192
  0
VERTEX
  5
68A
  8
0
 10
15.77200031280518
 20
23.57900047302246
 30
40.95600128173828
 70
   192
  0
VERTEX
  5
68B
  8
0
 10
15.7180004119873
 20
23.50900077819824
 30
41.03799819946289
 70
   192
  0
VERTEX
  5
68C
  8
0
 10
-16.00900077819824
 20
18.0359992980957
 30
46.20199966430664
 70
   192
  0
VERTEX
  5
68D
  8
0
 10
-14.09099960327148
 20
21.78700065612793
 30
43.01100158691406
 70
   192
  0
VERTEX
  5
68E
  8
0
 10
-15.64700031280518
 20
23.41699981689453
 30
41.14400100708008
 70
   192
  0
VERTEX
  5
68F
  8
0
 10
-13.27999973297119
 20
21.12599945068359
 30
43.75799942016602
 70
   192
  0
VERTEX
  5
690
  8
0
 10
-10.24899959564209
 20
19.35799980163574
 30
45.70600128173828
 70
   192
  0
VERTEX
  5
691
  8
0
 10
-16.06100082397461
 20
12.41199970245361
 30
50.42399978637695
 70
   192
  0
VERTEX
  5
692
  8
0
 10
-9.755999565124512
 20
19.07099914550781
 30
46.02299880981445
 70
   192
  0
VERTEX
  5
693
  8
0
 10
-16.06100082397461
 20
12.09500026702881
 30
50.60699844360352
 70
   192
  0
VERTEX
  5
694
  8
0
 10
-2.996999979019165
 20
17.25
 30
47.9370002746582
 70
   192
  0
VERTEX
  5
695
  8
0
 10
-4.210000038146973
 20
17.42399978637695
 30
47.7599983215332
 70
   192
  0
VERTEX
  5
696
  8
0
 10
-0.0149999996647239
 20
17.17799949645996
 30
48.01100158691406
 70
   192
  0
VERTEX
  5
697
  8
0
 10
-8.607000350952148
 20
18.59900093078613
 30
46.52799987792969
 70
   192
  0
VERTEX
  5
698
  8
0
 10
-16.06100082397461
 20
9.725000381469727
 30
51.97900009155273
 70
   192
  0
VERTEX
  5
699
  8
0
 10
-16.04700088500977
 20
4.728000164031982
 30
53.97900009155273
 70
   192
  0
VERTEX
  5
69A
  8
0
 10
-16.04100036621094
 20
2.653000116348267
 30
54.44800186157227
 70
   192
  0
VERTEX
  5
69B
  8
0
 10
-16.05299949645996
 20
6.861000061035156
 30
53.125
 70
   192
  0
VERTEX
  5
69C
  8
0
 10
-0.0140000004321337
 20
-2.183000087738037
 30
55.17100143432617
 70
   192
  0
VERTEX
  5
69D
  8
0
 10
-16.03700065612793
 20
0.0
 30
54.72700119018555
 70
   192
  0
VERTEX
  5
69E
  8
0
 10
-16.04000091552734
 20
1.937999963760376
 30
54.52299880981445
 70
   192
  0
VERTEX
  5
69F
  8
0
 10
-14.63799953460693
 20
-7.01200008392334
 30
53.67100143432617
 70
   192
  0
VERTEX
  5
6A0
  8
0
 10
-14.35599994659424
 20
-7.736999988555908
 30
53.44599914550781
 70
   192
  0
VERTEX
  5
6A1
  8
0
 10
-15.58899974822998
 20
-4.289000034332275
 30
54.43299865722656
 70
   192
  0
VERTEX
  5
6A2
  8
0
 10
-15.43000030517578
 20
-4.96999979019165
 30
54.30300140380859
 70
   192
  0
VERTEX
  5
6A3
  8
0
 10
-15.73200035095215
 20
-2.918999910354614
 30
54.52700042724609
 70
   192
  0
VERTEX
  5
6A4
  8
0
 10
-0.0140000004321337
 20
-7.125
 30
53.98899841308594
 70
   192
  0
VERTEX
  5
6A5
  8
0
 10
-13.62800025939941
 20
-9.425999641418457
 30
52.87300109863281
 70
   192
  0
VERTEX
  5
6A6
  8
0
 10
-11.28699970245361
 20
-12.66699981689453
 30
51.18500137329102
 70
   192
  0
VERTEX
  5
6A7
  8
0
 10
-13.87600040435791
 20
-8.973999977111816
 30
53.0629997253418
 70
   192
  0
VERTEX
  5
6A8
  8
0
 10
-0.0130000002682209
 20
-12.27400016784668
 30
51.49200057983398
 70
   192
  0
VERTEX
  5
6A9
  8
0
 10
-2.828000068664551
 20
-17.21199989318848
 30
48.00799942016602
 70
   192
  0
VERTEX
  5
6AA
  8
0
 10
-1.748000025749207
 20
-17.36000061035156
 30
47.88800048828125
 70
   192
  0
VERTEX
  5
6AB
  8
0
 10
-6.071000099182129
 20
-16.25600051879883
 30
48.75899887084961
 70
   192
  0
VERTEX
  5
6AC
  8
0
 10
-7.129000186920166
 20
-15.8439998626709
 30
49.07400131225586
 70
   192
  0
VERTEX
  5
6AD
  8
0
 10
-6.596000194549561
 20
-16.10099983215332
 30
48.88000106811523
 70
   192
  0
VERTEX
  5
6AE
  8
0
 10
-11.0939998626709
 20
-12.93400001525879
 30
51.04600143432617
 70
   192
  0
VERTEX
  5
6AF
  8
0
 10
-10.52999973297119
 20
-13.48799991607666
 30
50.70199966430664
 70
   192
  0
VERTEX
  5
6B0
  8
0
 10
2.736000061035156
 20
-17.22699928283691
 30
47.99599838256836
 70
   192
  0
VERTEX
  5
6B1
  8
0
 10
6.059000015258789
 20
-16.2189998626709
 30
48.78499984741211
 70
   192
  0
VERTEX
  5
6B2
  8
0
 10
3.040999889373779
 20
-16.73399925231934
 30
48.38800048828125
 70
   192
  0
VERTEX
  5
6B3
  8
0
 10
6.866000175476074
 20
-15.97399997711182
 30
48.97600173950195
 70
   192
  0
VERTEX
  5
6B4
  8
0
 10
10.36699962615967
 20
-13.63599967956543
 30
50.60800170898438
 70
   192
  0
VERTEX
  5
6B5
  8
0
 10
11.04100036621094
 20
-12.98900032043457
 30
51.01200103759766
 70
   192
  0
VERTEX
  5
6B6
  8
0
 10
-0.0120000001043081
 20
-17.3080005645752
 30
47.92900085449219
 70
   192
  0
VERTEX
  5
6B7
  8
0
 10
-0.0040000001899898
 20
-17.3080005645752
 30
47.93000030517578
 70
   192
  0
VERTEX
  5
6B8
  8
0
 10
11.27499961853027
 20
-12.66499996185303
 30
51.18099975585938
 70
   192
  0
VERTEX
  5
6B9
  8
0
 10
13.6899995803833
 20
-9.315999984741211
 30
52.91999816894531
 70
   192
  0
VERTEX
  5
6BA
  8
0
 10
14.68400001525879
 20
-7.038000106811523
 30
53.69900131225586
 70
   192
  0
VERTEX
  5
6BB
  8
0
 10
15.69299983978271
 20
-3.773999929428101
 30
54.51699829101562
 70
   192
  0
VERTEX
  5
6BC
  8
0
 10
15.81400012969971
 20
-3.045000076293945
 30
54.61199951171875
 70
   192
  0
VERTEX
  5
6BD
  8
0
 10
14.44099998474121
 20
-7.822999954223633
 30
53.50299835205078
 70
   192
  0
VERTEX
  5
6BE
  8
0
 10
15.82199954986572
 20
-2.934999942779541
 30
54.61600112915039
 70
   192
  0
VERTEX
  5
6BF
  8
0
 10
16.03700065612793
 20
0.0
 30
54.72700119018555
 70
   192
  0
VERTEX
  5
6C0
  8
0
 10
-15.77200031280518
 20
23.57900047302246
 30
40.95600128173828
 70
   192
  0
VERTEX
  5
6C1
  8
0
 62
     9
 10
0.0
 20
0.0
 30
0.0
 70
   128
 71
     3
 72
     2
 73
     1
  0
VERTEX
  5
6C2
  8
0
 62
     9
 10
0.0
 20
0.0
 30
0.0
 70
   128
 71
     3
 72
     4
 73
     2
  0
VERTEX
  5
6C3
  8
0
 62
     9
 10
0.0
 20
0.0
 30
0.0
 70
   128
 71
     6
 72
     5
 73
     1
  0
VERTEX
  5
6C4
  8
0
 62
     9
 10
0.0
 20
0.0
 30
0.0
 70
   128
 71
     1
 72
     7
 73
     6
  0
VERTEX
  5
6C5
  8
0
 62
     9
 10
0.0
 20
0.0
 30
0.0
 70
   128
 71
     5
 72
     8
 73
     1
  0
VERTEX
  5
6C6
  8
0
 62
     9
 10
0.0
 20
0.0
 30
0.0
 70
   128
 71
    10
 72
     9
 73
     7
  0
VERTEX
  5
6C7
  8
0
 62
     9
 10
0.0
 20
0.0
 30
0.0
 70
   128
 71
    13
 72
    12
 73
    11
  0
VERTEX
  5
6C8
  8
0
 62
     9
 10
0.0
 20
0.0
 30
0.0
 70
   128
 71
    11
 72
     7
 73
    13
  0
VERTEX
  5
6C9
  8
0
 62
     9
 10
0.0
 20
0.0
 30
0.0
 70
   128
 71
     7
 72
     9
 73
    13
  0
VERTEX
  5
6CA
  8
0
 62
     9
 10
0.0
 20
0.0
 30
0.0
 70
   128
 71
    12
 72
    14
 73
    11
  0
VERTEX
  5
6CB
  8
0
 62
     9
 10
0.0
 20
0.0
 30
0.0
 70
   128
 71
    16
 72
    11
 73
    15
  0
VERTEX
  5
6CC
  8
0
 62
     9
 10
0.0
 20
0.0
 30
0.0
 70
   128
 71
    15
 72
    17
 73
    16
  0
VERTEX
  5
6CD
  8
0
 62
     9
 10
0.0
 20
0.0
 30
0.0
 70
   128
 71
    11
 72
    14
 73
    15
  0
VERTEX
  5
6CE
  8
0
 62
     9
 10
0.0
 20
0.0
 30
0.0
 70
   128
 71
    17
 72
    18
 73
    16
  0
VERTEX
  5
6CF
  8
0
 62
     9
 10
0.0
 20
0.0
 30
0.0
 70
   128
 71
    19
 72
    16
 73
    18
  0
VERTEX
  5
6D0
  8
0
 62
     9
 10
0.0
 20
0.0
 30
0.0
 70
   128
 71
    21
 72
    20
 73
    19
  0
VERTEX
  5
6D1
  8
0
 62
     9
 10
0.0
 20
0.0
 30
0.0
 70
   128
 71
    18
 72
    21
 73
    19
  0
VERTEX
  5
6D2
  8
0
 62
     9
 10
0.0
 20
0.0
 30
0.0
 70
   128
 71
    24
 72
    23
 73
    22
  0
VERTEX
  5
6D3
  8
0
 62
     9
 10
0.0
 20
0.0
 30
0.0
 70
   128
 71
    23
 72
    25
 73
    22
  0
VERTEX
  5
6D4
  8
0
 62
     9
 10
0.0
 20
0.0
 30
0.0
 70
   128
 71
    22
 72
    25
 73
    26
  0
VERTEX
  5
6D5
  8
0
 62
     9
 10
0.0
 20
0.0
 30
0.0
 70
   128
 71
    26
 72
    28
 73
    27
  0
VERTEX
  5
6D6
  8
0
 62
     9
 10
0.0
 20
0.0
 30
0.0
 70
   128
 71
    26
 72
    27
 73
    22
  0
VERTEX
  5
6D7
  8
0
 62
     9
 10
0.0
 20
0.0
 30
0.0
 70
   128
 71
    28
 72
    29
 73
    27
  0
VERTEX
  5
6D8
  8
0
 62
     9
 10
0.0
 20
0.0
 30
0.0
 70
   128
 71
    31
 72
    30
 73
     7
  0
VERTEX
  5
6D9
  8
0
 62
     9
 10
0.0
 20
0.0
 30
0.0
 70
   128
 71
     7
 72
    29
 73
    31
  0
VERTEX
  5
6DA
  8
0
 62
     9
 10
0.0
 20
0.0
 30
0.0
 70
   128
 71
    30
 72
    32
 73
     7
  0
VERTEX
  5
6DB
  8
0
 62
     9
 10
0.0
 20
0.0
 30
0.0
 70
   128
 71
    29
 72
    33
 73
    31
  0
VERTEX
  5
6DC
  8
0
 62
     9
 10
0.0
 20
0.0
 30
0.0
 70
   128
 71
    29
 72
    28
 73
    33
  0
VERTEX
  5
6DD
  8
0
 62
     9
 10
0.0
 20
0.0
 30
0.0
 70
   128
 71
    34
 72
    29
 73
     7
  0
VERTEX
  5
6DE
  8
0
 62
     9
 10
0.0
 20
0.0
 30
0.0
 70
   128
 71
     7
 72
     1
 73
    34
  0
VERTEX
  5
6DF
  8
0
 62
     9
 10
0.0
 20
0.0
 30
0.0
 70
   128
 71
    36
 72
    35
 73
     2
  0
VERTEX
  5
6E0
  8
0
 62
     9
 10
0.0
 20
0.0
 30
0.0
 70
   128
 71
    35
 72
    37
 73
     1
  0
VERTEX
  5
6E1
  8
0
 62
     9
 10
0.0
 20
0.0
 30
0.0
 70
   128
 71
     1
 72
     2
 73
    35
  0
VERTEX
  5
6E2
  8
0
 62
     9
 10
0.0
 20
0.0
 30
0.0
 70
   128
 71
    39
 72
     2
 73
    38
  0
VERTEX
  5
6E3
  8
0
 62
     9
 10
0.0
 20
0.0
 30
0.0
 70
   128
 71
    39
 72
    40
 73
     2
  0
VERTEX
  5
6E4
  8
0
 62
     9
 10
0.0
 20
0.0
 30
0.0
 70
   128
 71
    42
 72
    41
 73
    38
  0
VERTEX
  5
6E5
  8
0
 62
     9
 10
0.0
 20
0.0
 30
0.0
 70
   128
 71
    44
 72
    43
 73
    38
  0
VERTEX
  5
6E6
  8
0
 62
     9
 10
0.0
 20
0.0
 30
0.0
 70
   128
 71
    43
 72
    45
 73
    38
  0
VERTEX
  5
6E7
  8
0
 62
     9
 10
0.0
 20
0.0
 30
0.0
 70
   128
 71
    38
 72
    41
 73
    44
  0
VERTEX
  5
6E8
  8
0
 62
     9
 10
0.0
 20
0.0
 30
0.0
 70
   128
 71
    48
 72
    47
 73
    46
  0
VERTEX
  5
6E9
  8
0
 62
     9
 10
0.0
 20
0.0
 30
0.0
 70
   128
 71
    49
 72
    42
 73
    46
  0
VERTEX
  5
6EA
  8
0
 62
     9
 10
0.0
 20
0.0
 30
0.0
 70
   128
 71
    46
 72
    47
 73
    49
  0
VERTEX
  5
6EB
  8
0
 62
     9
 10
0.0
 20
0.0
 30
0.0
 70
   128
 71
    52
 72
    51
 73
    50
  0
VERTEX
  5
6EC
  8
0
 62
     9
 10
0.0
 20
0.0
 30
0.0
 70
   128
 71
    51
 72
    53
 73
    50
  0
VERTEX
  5
6ED
  8
0
 62
     9
 10
0.0
 20
0.0
 30
0.0
 70
   128
 71
    55
 72
    54
 73
    50
  0
VERTEX
  5
6EE
  8
0
 62
     9
 10
0.0
 20
0.0
 30
0.0
 70
   128
 71
    57
 72
    56
 73
    50
  0
VERTEX
  5
6EF
  8
0
 62
     9
 10
0.0
 20
0.0
 30
0.0
 70
   128
 71
    50
 72
    54
 73
    57
  0
VERTEX
  5
6F0
  8
0
 62
     9
 10
0.0
 20
0.0
 30
0.0
 70
   128
 71
    56
 72
    48
 73
    50
  0
VERTEX
  5
6F1
  8
0
 62
     9
 10
0.0
 20
0.0
 30
0.0
 70
   128
 71
    50
 72
    53
 73
    55
  0
VERTEX
  5
6F2
  8
0
 62
     9
 10
0.0
 20
0.0
 30
0.0
 70
   128
 71
    60
 72
    59
 73
    58
  0
VERTEX
  5
6F3
  8
0
 62
     9
 10
0.0
 20
0.0
 30
0.0
 70
   128
 71
    61
 72
    59
 73
    50
  0
VERTEX
  5
6F4
  8
0
 62
     9
 10
0.0
 20
0.0
 30
0.0
 70
   128
 71
    50
 72
    62
 73
    61
  0
VERTEX
  5
6F5
  8
0
 62
     9
 10
0.0
 20
0.0
 30
0.0
 70
   128
 71
    59
 72
    60
 73
    50
  0
VERTEX
  5
6F6
  8
0
 62
     9
 10
0.0
 20
0.0
 30
0.0
 70
   128
 71
    50
 72
    63
 73
    62
  0
VERTEX
  5
6F7
  8
0
 62
     9
 10
0.0
 20
0.0
 30
0.0
 70
   128
 71
    65
 72
    64
 73
    50
  0
VERTEX
  5
6F8
  8
0
 62
     9
 10
0.0
 20
0.0
 30
0.0
 70
   128
 71
    50
 72
    60
 73
    65
  0
VERTEX
  5
6F9
  8
0
 62
     9
 10
0.0
 20
0.0
 30
0.0
 70
   128
 71
    50
 72
    66
 73
    63
  0
VERTEX
  5
6FA
  8
0
 62
     9
 10
0.0
 20
0.0
 30
0.0
 70
   128
 71
    58
 72
    65
 73
    60
  0
VERTEX
  5
6FB
  8
0
 62
     9
 10
0.0
 20
0.0
 30
0.0
 70
   128
 71
    66
 72
    50
 73
    46
  0
VERTEX
  5
6FC
  8
0
 62
     9
 10
0.0
 20
0.0
 30
0.0
 70
   128
 71
    46
 72
    67
 73
    66
  0
VERTEX
  5
6FD
  8
0
 62
     9
 10
0.0
 20
0.0
 30
0.0
 70
   128
 71
    69
 72
    68
 73
    38
  0
VERTEX
  5
6FE
  8
0
 62
     9
 10
0.0
 20
0.0
 30
0.0
 70
   128
 71
    38
 72
    70
 73
    69
  0
VERTEX
  5
6FF
  8
0
 62
     9
 10
0.0
 20
0.0
 30
0.0
 70
   128
 71
    71
 72
    46
 73
    38
  0
VERTEX
  5
700
  8
0
 62
     9
 10
0.0
 20
0.0
 30
0.0
 70
   128
 71
    38
 72
    68
 73
    71
  0
VERTEX
  5
701
  8
0
 62
     9
 10
0.0
 20
0.0
 30
0.0
 70
   128
 71
    73
 72
    72
 73
    38
  0
VERTEX
  5
702
  8
0
 62
     9
 10
0.0
 20
0.0
 30
0.0
 70
   128
 71
    38
 72
     2
 73
    73
  0
VERTEX
  5
703
  8
0
 62
     9
 10
0.0
 20
0.0
 30
0.0
 70
   128
 71
     2
 72
     4
 73
    73
  0
VERTEX
  5
704
  8
0
 62
     9
 10
0.0
 20
0.0
 30
0.0
 70
   128
 71
    38
 72
    72
 73
    70
  0
VERTEX
  5
705
  8
0
 62
     9
 10
0.0
 20
0.0
 30
0.0
 70
   128
 71
    46
 72
    71
 73
    67
  0
VERTEX
  5
706
  8
0
 62
     9
 10
0.0
 20
0.0
 30
0.0
 70
   128
 71
    50
 72
    64
 73
    52
  0
VERTEX
  5
707
  8
0
 62
     9
 10
0.0
 20
0.0
 30
0.0
 70
   128
 71
    46
 72
    50
 73
    48
  0
VERTEX
  5
708
  8
0
 62
     9
 10
0.0
 20
0.0
 30
0.0
 70
   128
 71
    38
 72
    46
 73
    42
  0
VERTEX
  5
709
  8
0
 62
     9
 10
0.0
 20
0.0
 30
0.0
 70
   128
 71
    38
 72
    45
 73
    39
  0
VERTEX
  5
70A
  8
0
 62
     9
 10
0.0
 20
0.0
 30
0.0
 70
   128
 71
     2
 72
    40
 73
    36
  0
VERTEX
  5
70B
  8
0
 62
     9
 10
0.0
 20
0.0
 30
0.0
 70
   128
 71
     1
 72
    37
 73
    34
  0
VERTEX
  5
70C
  8
0
 62
     9
 10
0.0
 20
0.0
 30
0.0
 70
   128
 71
    22
 72
    74
 73
    24
  0
VERTEX
  5
70D
  8
0
 62
     9
 10
0.0
 20
0.0
 30
0.0
 70
   128
 71
     7
 72
    32
 73
    10
  0
VERTEX
  5
70E
  8
0
 62
     9
 10
0.0
 20
0.0
 30
0.0
 70
   128
 71
     7
 72
    11
 73
     6
  0
VERTEX
  5
70F
  8
0
 62
     9
 10
0.0
 20
0.0
 30
0.0
 70
   128
 71
     1
 72
     8
 73
     3
  0
SEQEND
  5
710
  8
0
 62
     9
  0
ENDBLK
  5
713
  8
0
  0
BLOCK
  8
0
  2
E3_NODE_23_
 70
     0
 10
0.0
 20
0.0
 30
0.0
  3
E3_NODE_23_
  1

  0
POLYLINE
  5
715
  8
0
 62
     9
 66
     1
 10
0.0
 20
0.0
 30
0.0
 70
    64
 71
    63
 72
    68
  0
VERTEX
  5
716
  8
0
 10
-6.346000194549561
 20
-16.2549991607666
 30
31.48500061035156
 70
   192
  0
VERTEX
  5
717
  8
0
 10
-6.697000026702881
 20
-16.16799926757812
 30
7.900000095367432
 70
   192
  0
VERTEX
  5
718
  8
0
 10
-2.339999914169312
 20
-17.34199905395508
 30
7.900000095367432
 70
   192
  0
VERTEX
  5
719
  8
0
 10
0.0
 20
-17.47299957275391
 30
31.48500061035156
 70
   192
  0
VERTEX
  5
71A
  8
0
 10
16.76399993896484
 20
0.0
 30
31.45400047302246
 70
   192
  0
VERTEX
  5
71B
  8
0
 10
15.44400024414062
 20
-6.886000156402588
 30
31.48500061035156
 70
   192
  0
VERTEX
  5
71C
  8
0
 10
16.80100059509277
 20
-4.895999908447266
 30
7.900000095367432
 70
   192
  0
VERTEX
  5
71D
  8
0
 10
16.01499938964844
 20
-6.627999782562256
 30
7.900000095367432
 70
   192
  0
VERTEX
  5
71E
  8
0
 10
17.5
 20
0.0
 30
7.900000095367432
 70
   192
  0
VERTEX
  5
71F
  8
0
 10
11.76700019836426
 20
-12.58399963378906
 30
31.48500061035156
 70
   192
  0
VERTEX
  5
720
  8
0
 10
6.346000194549561
 20
-16.2549991607666
 30
31.48500061035156
 70
   192
  0
VERTEX
  5
721
  8
0
 10
7.361000061035156
 20
-15.8769998550415
 30
7.900000095367432
 70
   192
  0
VERTEX
  5
722
  8
0
 10
6.671999931335449
 20
-16.08399963378906
 30
7.900000095367432
 70
   192
  0
VERTEX
  5
723
  8
0
 10
11.51799964904785
 20
-13.17500019073486
 30
7.900000095367432
 70
   192
  0
VERTEX
  5
724
  8
0
 10
12.27799987792969
 20
-12.29199981689453
 30
7.900000095367432
 70
   192
  0
VERTEX
  5
725
  8
0
 10
14.74899959564209
 20
-9.418000221252441
 30
7.900000095367432
 70
   192
  0
VERTEX
  5
726
  8
0
 10
2.61899995803833
 20
-17.30200004577637
 30
7.900000095367432
 70
   192
  0
VERTEX
  5
727
  8
0
 10
-0.0010000000474975
 20
-17.32299995422363
 30
7.900000095367432
 70
   192
  0
VERTEX
  5
728
  8
0
 10
-11.76700019836426
 20
-12.58399963378906
 30
31.48500061035156
 70
   192
  0
VERTEX
  5
729
  8
0
 10
-15.44400024414062
 20
-6.886000156402588
 30
31.48500061035156
 70
   192
  0
VERTEX
  5
72A
  8
0
 10
-14.35400009155273
 20
-10.01000022888184
 30
7.900000095367432
 70
   192
  0
VERTEX
  5
72B
  8
0
 10
-16.05400085449219
 20
-6.638999938964844
 30
7.900000095367432
 70
   192
  0
VERTEX
  5
72C
  8
0
 10
-10.96500015258789
 20
-13.63799953460693
 30
7.900000095367432
 70
   192
  0
VERTEX
  5
72D
  8
0
 10
-12.2519998550415
 20
-12.26000022888184
 30
7.900000095367432
 70
   192
  0
VERTEX
  5
72E
  8
0
 10
-16.76399993896484
 20
0.0
 30
31.45400047302246
 70
   192
  0
VERTEX
  5
72F
  8
0
 10
-17.47299957275391
 20
-0.9599999785423279
 30
7.900000095367432
 70
   192
  0
VERTEX
  5
730
  8
0
 10
-16.58499908447266
 20
-5.585999965667725
 30
7.900000095367432
 70
   192
  0
VERTEX
  5
731
  8
0
 10
-16.76300048828125
 20
0.0
 30
31.48500061035156
 70
   192
  0
VERTEX
  5
732
  8
0
 10
-17.5
 20
0.0
 30
7.900000095367432
 70
   192
  0
VERTEX
  5
733
  8
0
 10
16.76300048828125
 20
0.0
 30
31.48500061035156
 70
   192
  0
VERTEX
  5
734
  8
0
 10
15.69299983978271
 20
-3.773999929428101
 30
54.51699829101562
 70
   192
  0
VERTEX
  5
735
  8
0
 10
14.68400001525879
 20
-7.038000106811523
 30
53.69900131225586
 70
   192
  0
VERTEX
  5
736
  8
0
 10
15.81400012969971
 20
-3.045000076293945
 30
54.61199951171875
 70
   192
  0
VERTEX
  5
737
  8
0
 10
15.82199954986572
 20
-2.934999942779541
 30
54.61600112915039
 70
   192
  0
VERTEX
  5
738
  8
0
 10
16.0930004119873
 20
0.0
 30
52.91899871826172
 70
   192
  0
VERTEX
  5
739
  8
0
 10
16.03700065612793
 20
0.0
 30
54.72700119018555
 70
   192
  0
VERTEX
  5
73A
  8
0
 10
11.27499961853027
 20
-12.66499996185303
 30
51.18099975585938
 70
   192
  0
VERTEX
  5
73B
  8
0
 10
11.04100036621094
 20
-12.98900032043457
 30
51.01200103759766
 70
   192
  0
VERTEX
  5
73C
  8
0
 10
14.44099998474121
 20
-7.822999954223633
 30
53.50299835205078
 70
   192
  0
VERTEX
  5
73D
  8
0
 10
13.6899995803833
 20
-9.315999984741211
 30
52.91999816894531
 70
   192
  0
VERTEX
  5
73E
  8
0
 10
6.866000175476074
 20
-15.97399997711182
 30
48.97600173950195
 70
   192
  0
VERTEX
  5
73F
  8
0
 10
6.059000015258789
 20
-16.2189998626709
 30
48.78499984741211
 70
   192
  0
VERTEX
  5
740
  8
0
 10
10.36699962615967
 20
-13.63599967956543
 30
50.60800170898438
 70
   192
  0
VERTEX
  5
741
  8
0
 10
2.736000061035156
 20
-17.22699928283691
 30
47.99599838256836
 70
   192
  0
VERTEX
  5
742
  8
0
 10
-1.748000025749207
 20
-17.36000061035156
 30
47.88800048828125
 70
   192
  0
VERTEX
  5
743
  8
0
 10
-2.828000068664551
 20
-17.21199989318848
 30
48.00799942016602
 70
   192
  0
VERTEX
  5
744
  8
0
 10
-0.0040000001899898
 20
-17.3080005645752
 30
47.93000030517578
 70
   192
  0
VERTEX
  5
745
  8
0
 10
-0.0120000001043081
 20
-17.3080005645752
 30
47.92900085449219
 70
   192
  0
VERTEX
  5
746
  8
0
 10
-7.129000186920166
 20
-15.8439998626709
 30
49.07400131225586
 70
   192
  0
VERTEX
  5
747
  8
0
 10
-10.52999973297119
 20
-13.48799991607666
 30
50.70199966430664
 70
   192
  0
VERTEX
  5
748
  8
0
 10
-6.596000194549561
 20
-16.10099983215332
 30
48.88000106811523
 70
   192
  0
VERTEX
  5
749
  8
0
 10
-6.071000099182129
 20
-16.25600051879883
 30
48.75899887084961
 70
   192
  0
VERTEX
  5
74A
  8
0
 10
-13.62800025939941
 20
-9.425999641418457
 30
52.87300109863281
 70
   192
  0
VERTEX
  5
74B
  8
0
 10
-13.87600040435791
 20
-8.973999977111816
 30
53.0629997253418
 70
   192
  0
VERTEX
  5
74C
  8
0
 10
-11.28699970245361
 20
-12.66699981689453
 30
51.18500137329102
 70
   192
  0
VERTEX
  5
74D
  8
0
 10
-14.35599994659424
 20
-7.736999988555908
 30
53.44599914550781
 70
   192
  0
VERTEX
  5
74E
  8
0
 10
-11.0939998626709
 20
-12.93400001525879
 30
51.04600143432617
 70
   192
  0
VERTEX
  5
74F
  8
0
 10
-15.73200035095215
 20
-2.918999910354614
 30
54.52700042724609
 70
   192
  0
VERTEX
  5
750
  8
0
 10
-16.03700065612793
 20
0.0
 30
54.72700119018555
 70
   192
  0
VERTEX
  5
751
  8
0
 10
-16.0930004119873
 20
0.0
 30
52.91899871826172
 70
   192
  0
VERTEX
  5
752
  8
0
 10
-15.43000030517578
 20
-4.96999979019165
 30
54.30300140380859
 70
   192
  0
VERTEX
  5
753
  8
0
 10
-15.58899974822998
 20
-4.289000034332275
 30
54.43299865722656
 70
   192
  0
VERTEX
  5
754
  8
0
 10
-14.63799953460693
 20
-7.01200008392334
 30
53.67100143432617
 70
   192
  0
VERTEX
  5
755
  8
0
 62
     9
 10
0.0
 20
0.0
 30
0.0
 70
   128
 71
     3
 72
     2
 73
     1
  0
VERTEX
  5
756
  8
0
 62
     9
 10
0.0
 20
0.0
 30
0.0
 70
   128
 71
     1
 72
     4
 73
     3
  0
VERTEX
  5
757
  8
0
 62
     9
 10
0.0
 20
0.0
 30
0.0
 70
   128
 71
     7
 72
     6
 73
     5
  0
VERTEX
  5
758
  8
0
 62
     9
 10
0.0
 20
0.0
 30
0.0
 70
   128
 71
     7
 72
     8
 73
     6
  0
VERTEX
  5
759
  8
0
 62
     9
 10
0.0
 20
0.0
 30
0.0
 70
   128
 71
     5
 72
     9
 73
     7
  0
VERTEX
  5
75A
  8
0
 62
     9
 10
0.0
 20
0.0
 30
0.0
 70
   128
 71
    12
 72
    11
 73
    10
  0
VERTEX
  5
75B
  8
0
 62
     9
 10
0.0
 20
0.0
 30
0.0
 70
   128
 71
    12
 72
    13
 73
    11
  0
VERTEX
  5
75C
  8
0
 62
     9
 10
0.0
 20
0.0
 30
0.0
 70
   128
 71
    10
 72
    14
 73
    12
  0
VERTEX
  5
75D
  8
0
 62
     9
 10
0.0
 20
0.0
 30
0.0
 70
   128
 71
    16
 72
    15
 73
    10
  0
VERTEX
  5
75E
  8
0
 62
     9
 10
0.0
 20
0.0
 30
0.0
 70
   128
 71
    10
 72
     6
 73
    16
  0
VERTEX
  5
75F
  8
0
 62
     9
 10
0.0
 20
0.0
 30
0.0
 70
   128
 71
    17
 72
     4
 73
    11
  0
VERTEX
  5
760
  8
0
 62
     9
 10
0.0
 20
0.0
 30
0.0
 70
   128
 71
    17
 72
    18
 73
     4
  0
VERTEX
  5
761
  8
0
 62
     9
 10
0.0
 20
0.0
 30
0.0
 70
   128
 71
    21
 72
    20
 73
    19
  0
VERTEX
  5
762
  8
0
 62
     9
 10
0.0
 20
0.0
 30
0.0
 70
   128
 71
    21
 72
    22
 73
    20
  0
VERTEX
  5
763
  8
0
 62
     9
 10
0.0
 20
0.0
 30
0.0
 70
   128
 71
    23
 72
    19
 73
     1
  0
VERTEX
  5
764
  8
0
 62
     9
 10
0.0
 20
0.0
 30
0.0
 70
   128
 71
    23
 72
    24
 73
    19
  0
VERTEX
  5
765
  8
0
 62
     9
 10
0.0
 20
0.0
 30
0.0
 70
   128
 71
    27
 72
    26
 73
    25
  0
VERTEX
  5
766
  8
0
 62
     9
 10
0.0
 20
0.0
 30
0.0
 70
   128
 71
    25
 72
    28
 73
    20
  0
VERTEX
  5
767
  8
0
 62
     9
 10
0.0
 20
0.0
 30
0.0
 70
   128
 71
    25
 72
    20
 73
    27
  0
VERTEX
  5
768
  8
0
 62
     9
 10
0.0
 20
0.0
 30
0.0
 70
   128
 71
    20
 72
    22
 73
    27
  0
VERTEX
  5
769
  8
0
 62
     9
 10
0.0
 20
0.0
 30
0.0
 70
   128
 71
    26
 72
    29
 73
    25
  0
VERTEX
  5
76A
  8
0
 62
     9
 10
0.0
 20
0.0
 30
0.0
 70
   128
 71
    32
 72
    31
 73
    30
  0
VERTEX
  5
76B
  8
0
 62
     9
 10
0.0
 20
0.0
 30
0.0
 70
   128
 71
    31
 72
    33
 73
    30
  0
VERTEX
  5
76C
  8
0
 62
     9
 10
0.0
 20
0.0
 30
0.0
 70
   128
 71
    33
 72
    34
 73
    30
  0
VERTEX
  5
76D
  8
0
 62
     9
 10
0.0
 20
0.0
 30
0.0
 70
   128
 71
    35
 72
    30
 73
    34
  0
VERTEX
  5
76E
  8
0
 62
     9
 10
0.0
 20
0.0
 30
0.0
 70
   128
 71
    34
 72
    36
 73
    35
  0
VERTEX
  5
76F
  8
0
 62
     9
 10
0.0
 20
0.0
 30
0.0
 70
   128
 71
    38
 72
    37
 73
     6
  0
VERTEX
  5
770
  8
0
 62
     9
 10
0.0
 20
0.0
 30
0.0
 70
   128
 71
    39
 72
    32
 73
     6
  0
VERTEX
  5
771
  8
0
 62
     9
 10
0.0
 20
0.0
 30
0.0
 70
   128
 71
     6
 72
    40
 73
    39
  0
VERTEX
  5
772
  8
0
 62
     9
 10
0.0
 20
0.0
 30
0.0
 70
   128
 71
     6
 72
    37
 73
    40
  0
VERTEX
  5
773
  8
0
 62
     9
 10
0.0
 20
0.0
 30
0.0
 70
   128
 71
    42
 72
    41
 73
    10
  0
VERTEX
  5
774
  8
0
 62
     9
 10
0.0
 20
0.0
 30
0.0
 70
   128
 71
    43
 72
    38
 73
    10
  0
VERTEX
  5
775
  8
0
 62
     9
 10
0.0
 20
0.0
 30
0.0
 70
   128
 71
    10
 72
    41
 73
    43
  0
VERTEX
  5
776
  8
0
 62
     9
 10
0.0
 20
0.0
 30
0.0
 70
   128
 71
    44
 72
    11
 73
     4
  0
VERTEX
  5
777
  8
0
 62
     9
 10
0.0
 20
0.0
 30
0.0
 70
   128
 71
    44
 72
    42
 73
    11
  0
VERTEX
  5
778
  8
0
 62
     9
 10
0.0
 20
0.0
 30
0.0
 70
   128
 71
    45
 72
     4
 73
     1
  0
VERTEX
  5
779
  8
0
 62
     9
 10
0.0
 20
0.0
 30
0.0
 70
   128
 71
     1
 72
    46
 73
    45
  0
VERTEX
  5
77A
  8
0
 62
     9
 10
0.0
 20
0.0
 30
0.0
 70
   128
 71
    48
 72
    47
 73
     4
  0
VERTEX
  5
77B
  8
0
 62
     9
 10
0.0
 20
0.0
 30
0.0
 70
   128
 71
     4
 72
    45
 73
    48
  0
VERTEX
  5
77C
  8
0
 62
     9
 10
0.0
 20
0.0
 30
0.0
 70
   128
 71
    50
 72
    49
 73
    19
  0
VERTEX
  5
77D
  8
0
 62
     9
 10
0.0
 20
0.0
 30
0.0
 70
   128
 71
    49
 72
    51
 73
    19
  0
VERTEX
  5
77E
  8
0
 62
     9
 10
0.0
 20
0.0
 30
0.0
 70
   128
 71
    52
 72
     1
 73
    19
  0
VERTEX
  5
77F
  8
0
 62
     9
 10
0.0
 20
0.0
 30
0.0
 70
   128
 71
    19
 72
    51
 73
    52
  0
VERTEX
  5
780
  8
0
 62
     9
 10
0.0
 20
0.0
 30
0.0
 70
   128
 71
    54
 72
    53
 73
    20
  0
VERTEX
  5
781
  8
0
 62
     9
 10
0.0
 20
0.0
 30
0.0
 70
   128
 71
    53
 72
    55
 73
    20
  0
VERTEX
  5
782
  8
0
 62
     9
 10
0.0
 20
0.0
 30
0.0
 70
   128
 71
    20
 72
    56
 73
    54
  0
VERTEX
  5
783
  8
0
 62
     9
 10
0.0
 20
0.0
 30
0.0
 70
   128
 71
    57
 72
    19
 73
    20
  0
VERTEX
  5
784
  8
0
 62
     9
 10
0.0
 20
0.0
 30
0.0
 70
   128
 71
    20
 72
    55
 73
    57
  0
VERTEX
  5
785
  8
0
 62
     9
 10
0.0
 20
0.0
 30
0.0
 70
   128
 71
    60
 72
    59
 73
    58
  0
VERTEX
  5
786
  8
0
 62
     9
 10
0.0
 20
0.0
 30
0.0
 70
   128
 71
    62
 72
    61
 73
    28
  0
VERTEX
  5
787
  8
0
 62
     9
 10
0.0
 20
0.0
 30
0.0
 70
   128
 71
    63
 72
    20
 73
    28
  0
VERTEX
  5
788
  8
0
 62
     9
 10
0.0
 20
0.0
 30
0.0
 70
   128
 71
    28
 72
    61
 73
    63
  0
VERTEX
  5
789
  8
0
 62
     9
 10
0.0
 20
0.0
 30
0.0
 70
   128
 71
    28
 72
    58
 73
    62
  0
VERTEX
  5
78A
  8
0
 62
     9
 10
0.0
 20
0.0
 30
0.0
 70
   128
 71
    58
 72
    28
 73
    60
  0
VERTEX
  5
78B
  8
0
 62
     9
 10
0.0
 20
0.0
 30
0.0
 70
   128
 71
    20
 72
    63
 73
    56
  0
VERTEX
  5
78C
  8
0
 62
     9
 10
0.0
 20
0.0
 30
0.0
 70
   128
 71
    19
 72
    57
 73
    50
  0
VERTEX
  5
78D
  8
0
 62
     9
 10
0.0
 20
0.0
 30
0.0
 70
   128
 71
     1
 72
    52
 73
    46
  0
VERTEX
  5
78E
  8
0
 62
     9
 10
0.0
 20
0.0
 30
0.0
 70
   128
 71
     4
 72
    47
 73
    44
  0
VERTEX
  5
78F
  8
0
 62
     9
 10
0.0
 20
0.0
 30
0.0
 70
   128
 71
    10
 72
    11
 73
    42
  0
VERTEX
  5
790
  8
0
 62
     9
 10
0.0
 20
0.0
 30
0.0
 70
   128
 71
     6
 72
    10
 73
    38
  0
VERTEX
  5
791
  8
0
 62
     9
 10
0.0
 20
0.0
 30
0.0
 70
   128
 71
    30
 72
     6
 73
    32
  0
VERTEX
  5
792
  8
0
 62
     9
 10
0.0
 20
0.0
 30
0.0
 70
   128
 71
     1
 72
     2
 73
    23
  0
VERTEX
  5
793
  8
0
 62
     9
 10
0.0
 20
0.0
 30
0.0
 70
   128
 71
    19
 72
    24
 73
    21
  0
VERTEX
  5
794
  8
0
 62
     9
 10
0.0
 20
0.0
 30
0.0
 70
   128
 71
    11
 72
    13
 73
    17
  0
VERTEX
  5
795
  8
0
 62
     9
 10
0.0
 20
0.0
 30
0.0
 70
   128
 71
     6
 72
     8
 73
    16
  0
VERTEX
  5
796
  8
0
 62
     9
 10
0.0
 20
0.0
 30
0.0
 70
   128
 71
    10
 72
    15
 73
    14
  0
VERTEX
  5
797
  8
0
 62
     9
 10
0.0
 20
0.0
 30
0.0
 70
   128
 71
     6
 72
    30
 73
     5
  0
VERTEX
  5
798
  8
0
 62
     9
 10
0.0
 20
0.0
 30
0.0
 70
   128
 71
     4
 72
    18
 73
     3
  0
SEQEND
  5
799
  8
0
 62
     9
  0
ENDBLK
  5
79C
  8
0
  0
BLOCK
  8
0
  2
E3_NODE_24_
 70
     0
 10
0.0
 20
0.0
 30
0.0
  3
E3_NODE_24_
  1

  0
POLYLINE
  5
79E
  8
0
 62
     9
 66
     1
 10
0.0
 20
0.0
 30
0.0
 70
    64
 71
    36
 72
    46
  0
VERTEX
  5
79F
  8
0
 10
140.8249969482422
 20
0.0930000022053719
 30
165.4949951171875
 70
   192
  0
VERTEX
  5
7A0
  8
0
 10
139.2100067138672
 20
0.0930000022053719
 30
166.3309936523438
 70
   192
  0
VERTEX
  5
7A1
  8
0
 10
137.5019989013672
 20
-5.501999855041504
 30
165.7089996337891
 70
   192
  0
VERTEX
  5
7A2
  8
0
 10
138.8950042724609
 20
-6.22599983215332
 30
164.7929992675781
 70
   192
  0
VERTEX
  5
7A3
  8
0
 10
133.0290069580078
 20
-8.961000442504883
 30
164.0809936523438
 70
   192
  0
VERTEX
  5
7A4
  8
0
 10
133.843994140625
 20
-10.13199996948242
 30
162.9550018310547
 70
   192
  0
VERTEX
  5
7A5
  8
0
 10
127.5
 20
-8.961000442504883
 30
162.0690002441406
 70
   192
  0
VERTEX
  5
7A6
  8
0
 10
122.5490036010742
 20
-6.22599983215332
 30
158.8430023193359
 70
   192
  0
VERTEX
  5
7A7
  8
0
 10
127.5999984741211
 20
-10.13199996948242
 30
160.6820068359375
 70
   192
  0
VERTEX
  5
7A8
  8
0
 10
123.0270004272461
 20
-5.501999855041504
 30
160.4409942626953
 70
   192
  0
VERTEX
  5
7A9
  8
0
 10
121.3190002441406
 20
0.0930000022053719
 30
159.8190002441406
 70
   192
  0
VERTEX
  5
7AA
  8
0
 10
122.5490036010742
 20
6.413000106811523
 30
158.8430023193359
 70
   192
  0
VERTEX
  5
7AB
  8
0
 10
120.6190032958984
 20
0.0930000022053719
 30
158.1410064697266
 70
   192
  0
VERTEX
  5
7AC
  8
0
 10
123.0270004272461
 20
5.689000129699707
 30
160.4409942626953
 70
   192
  0
VERTEX
  5
7AD
  8
0
 10
127.5
 20
9.147000312805176
 30
162.0690002441406
 70
   192
  0
VERTEX
  5
7AE
  8
0
 10
133.843994140625
 20
10.31799983978271
 30
162.9550018310547
 70
   192
  0
VERTEX
  5
7AF
  8
0
 10
127.5999984741211
 20
10.31799983978271
 30
160.6820068359375
 70
   192
  0
VERTEX
  5
7B0
  8
0
 10
138.8950042724609
 20
6.413000106811523
 30
164.7929992675781
 70
   192
  0
VERTEX
  5
7B1
  8
0
 10
133.0290069580078
 20
9.147000312805176
 30
164.0809936523438
 70
   192
  0
VERTEX
  5
7B2
  8
0
 10
137.5019989013672
 20
5.689000129699707
 30
165.7089996337891
 70
   192
  0
VERTEX
  5
7B3
  8
0
 10
138.1289978027344
 20
0.0930000022053719
 30
167.802001953125
 70
   192
  0
VERTEX
  5
7B4
  8
0
 10
136.5130004882812
 20
-5.201000213623047
 30
167.2129974365234
 70
   192
  0
VERTEX
  5
7B5
  8
0
 10
134.7039947509766
 20
-6.598999977111816
 30
166.5549926757812
 70
   192
  0
VERTEX
  5
7B6
  8
0
 10
132.281005859375
 20
-8.472999572753906
 30
165.6730041503906
 70
   192
  0
VERTEX
  5
7B7
  8
0
 10
127.7819976806641
 20
-8.472999572753906
 30
164.0359954833984
 70
   192
  0
VERTEX
  5
7B8
  8
0
 10
127.0500030517578
 20
-8.472999572753906
 30
163.7689971923828
 70
   192
  0
VERTEX
  5
7B9
  8
0
 10
122.818000793457
 20
-5.201000213623047
 30
162.22900390625
 70
   192
  0
VERTEX
  5
7BA
  8
0
 10
122.3610000610352
 20
-3.703999996185303
 30
162.0630035400391
 70
   192
  0
VERTEX
  5
7BB
  8
0
 10
121.2020034790039
 20
0.0930000022053719
 30
161.6410064697266
 70
   192
  0
VERTEX
  5
7BC
  8
0
 10
122.3610000610352
 20
3.890000104904175
 30
162.0630035400391
 70
   192
  0
VERTEX
  5
7BD
  8
0
 10
122.818000793457
 20
5.38700008392334
 30
162.22900390625
 70
   192
  0
VERTEX
  5
7BE
  8
0
 10
127.7819976806641
 20
8.659000396728516
 30
164.0359954833984
 70
   192
  0
VERTEX
  5
7BF
  8
0
 10
127.0500030517578
 20
8.659000396728516
 30
163.7689971923828
 70
   192
  0
VERTEX
  5
7C0
  8
0
 10
132.281005859375
 20
8.659000396728516
 30
165.6730041503906
 70
   192
  0
VERTEX
  5
7C1
  8
0
 10
134.7039947509766
 20
6.785999774932861
 30
166.5549926757812
 70
   192
  0
VERTEX
  5
7C2
  8
0
 10
136.5130004882812
 20
5.38700008392334
 30
167.2129974365234
 70
   192
  0
VERTEX
  5
7C3
  8
0
 62
     9
 10
0.0
 20
0.0
 30
0.0
 70
   128
 71
     3
 72
     2
 73
     1
  0
VERTEX
  5
7C4
  8
0
 62
     9
 10
0.0
 20
0.0
 30
0.0
 70
   128
 71
     5
 72
     3
 73
     4
  0
VERTEX
  5
7C5
  8
0
 62
     9
 10
0.0
 20
0.0
 30
0.0
 70
   128
 71
     7
 72
     5
 73
     6
  0
VERTEX
  5
7C6
  8
0
 62
     9
 10
0.0
 20
0.0
 30
0.0
 70
   128
 71
     7
 72
     9
 73
     8
  0
VERTEX
  5
7C7
  8
0
 62
     9
 10
0.0
 20
0.0
 30
0.0
 70
   128
 71
    11
 72
    10
 73
     8
  0
VERTEX
  5
7C8
  8
0
 62
     9
 10
0.0
 20
0.0
 30
0.0
 70
   128
 71
    11
 72
    13
 73
    12
  0
VERTEX
  5
7C9
  8
0
 62
     9
 10
0.0
 20
0.0
 30
0.0
 70
   128
 71
    15
 72
    14
 73
    12
  0
VERTEX
  5
7CA
  8
0
 62
     9
 10
0.0
 20
0.0
 30
0.0
 70
   128
 71
    15
 72
    17
 73
    16
  0
VERTEX
  5
7CB
  8
0
 62
     9
 10
0.0
 20
0.0
 30
0.0
 70
   128
 71
    19
 72
    16
 73
    18
  0
VERTEX
  5
7CC
  8
0
 62
     9
 10
0.0
 20
0.0
 30
0.0
 70
   128
 71
     2
 72
    20
 73
    18
  0
VERTEX
  5
7CD
  8
0
 62
     9
 10
0.0
 20
0.0
 30
0.0
 70
   128
 71
    22
 72
    21
 73
     2
  0
VERTEX
  5
7CE
  8
0
 62
     9
 10
0.0
 20
0.0
 30
0.0
 70
   128
 71
    23
 72
     3
 73
     5
  0
VERTEX
  5
7CF
  8
0
 62
     9
 10
0.0
 20
0.0
 30
0.0
 70
   128
 71
    23
 72
    22
 73
     3
  0
VERTEX
  5
7D0
  8
0
 62
     9
 10
0.0
 20
0.0
 30
0.0
 70
   128
 71
    25
 72
    24
 73
     5
  0
VERTEX
  5
7D1
  8
0
 62
     9
 10
0.0
 20
0.0
 30
0.0
 70
   128
 71
     5
 72
     7
 73
    25
  0
VERTEX
  5
7D2
  8
0
 62
     9
 10
0.0
 20
0.0
 30
0.0
 70
   128
 71
    27
 72
    26
 73
     7
  0
VERTEX
  5
7D3
  8
0
 62
     9
 10
0.0
 20
0.0
 30
0.0
 70
   128
 71
    28
 72
    10
 73
    11
  0
VERTEX
  5
7D4
  8
0
 62
     9
 10
0.0
 20
0.0
 30
0.0
 70
   128
 71
    28
 72
    27
 73
    10
  0
VERTEX
  5
7D5
  8
0
 62
     9
 10
0.0
 20
0.0
 30
0.0
 70
   128
 71
    30
 72
    29
 73
    11
  0
VERTEX
  5
7D6
  8
0
 62
     9
 10
0.0
 20
0.0
 30
0.0
 70
   128
 71
    11
 72
    14
 73
    30
  0
VERTEX
  5
7D7
  8
0
 62
     9
 10
0.0
 20
0.0
 30
0.0
 70
   128
 71
    31
 72
    14
 73
    15
  0
VERTEX
  5
7D8
  8
0
 62
     9
 10
0.0
 20
0.0
 30
0.0
 70
   128
 71
    32
 72
    15
 73
    19
  0
VERTEX
  5
7D9
  8
0
 62
     9
 10
0.0
 20
0.0
 30
0.0
 70
   128
 71
    32
 72
    33
 73
    15
  0
VERTEX
  5
7DA
  8
0
 62
     9
 10
0.0
 20
0.0
 30
0.0
 70
   128
 71
    35
 72
    34
 73
    19
  0
VERTEX
  5
7DB
  8
0
 62
     9
 10
0.0
 20
0.0
 30
0.0
 70
   128
 71
    19
 72
    20
 73
    35
  0
VERTEX
  5
7DC
  8
0
 62
     9
 10
0.0
 20
0.0
 30
0.0
 70
   128
 71
    36
 72
    20
 73
     2
  0
VERTEX
  5
7DD
  8
0
 62
     9
 10
0.0
 20
0.0
 30
0.0
 70
   128
 71
     2
 72
    21
 73
    36
  0
VERTEX
  5
7DE
  8
0
 62
     9
 10
0.0
 20
0.0
 30
0.0
 70
   128
 71
    20
 72
    36
 73
    35
  0
VERTEX
  5
7DF
  8
0
 62
     9
 10
0.0
 20
0.0
 30
0.0
 70
   128
 71
    19
 72
    34
 73
    32
  0
VERTEX
  5
7E0
  8
0
 62
     9
 10
0.0
 20
0.0
 30
0.0
 70
   128
 71
    15
 72
    33
 73
    31
  0
VERTEX
  5
7E1
  8
0
 62
     9
 10
0.0
 20
0.0
 30
0.0
 70
   128
 71
    14
 72
    31
 73
    30
  0
VERTEX
  5
7E2
  8
0
 62
     9
 10
0.0
 20
0.0
 30
0.0
 70
   128
 71
    11
 72
    29
 73
    28
  0
VERTEX
  5
7E3
  8
0
 62
     9
 10
0.0
 20
0.0
 30
0.0
 70
   128
 71
     7
 72
    10
 73
    27
  0
VERTEX
  5
7E4
  8
0
 62
     9
 10
0.0
 20
0.0
 30
0.0
 70
   128
 71
     7
 72
    26
 73
    25
  0
VERTEX
  5
7E5
  8
0
 62
     9
 10
0.0
 20
0.0
 30
0.0
 70
   128
 71
     5
 72
    24
 73
    23
  0
VERTEX
  5
7E6
  8
0
 62
     9
 10
0.0
 20
0.0
 30
0.0
 70
   128
 71
     2
 72
     3
 73
    22
  0
VERTEX
  5
7E7
  8
0
 62
     9
 10
0.0
 20
0.0
 30
0.0
 70
   128
 71
    18
 72
     1
 73
     2
  0
VERTEX
  5
7E8
  8
0
 62
     9
 10
0.0
 20
0.0
 30
0.0
 70
   128
 71
    18
 72
    20
 73
    19
  0
VERTEX
  5
7E9
  8
0
 62
     9
 10
0.0
 20
0.0
 30
0.0
 70
   128
 71
    16
 72
    19
 73
    15
  0
VERTEX
  5
7EA
  8
0
 62
     9
 10
0.0
 20
0.0
 30
0.0
 70
   128
 71
    12
 72
    17
 73
    15
  0
VERTEX
  5
7EB
  8
0
 62
     9
 10
0.0
 20
0.0
 30
0.0
 70
   128
 71
    12
 72
    14
 73
    11
  0
VERTEX
  5
7EC
  8
0
 62
     9
 10
0.0
 20
0.0
 30
0.0
 70
   128
 71
     8
 72
    13
 73
    11
  0
VERTEX
  5
7ED
  8
0
 62
     9
 10
0.0
 20
0.0
 30
0.0
 70
   128
 71
     8
 72
    10
 73
     7
  0
VERTEX
  5
7EE
  8
0
 62
     9
 10
0.0
 20
0.0
 30
0.0
 70
   128
 71
     6
 72
     9
 73
     7
  0
VERTEX
  5
7EF
  8
0
 62
     9
 10
0.0
 20
0.0
 30
0.0
 70
   128
 71
     4
 72
     6
 73
     5
  0
VERTEX
  5
7F0
  8
0
 62
     9
 10
0.0
 20
0.0
 30
0.0
 70
   128
 71
     1
 72
     4
 73
     3
  0
SEQEND
  5
7F1
  8
0
 62
     9
  0
ENDBLK
  5
7F4
  8
0
  0
BLOCK
  8
0
  2
E3_NODE_25_
 70
     0
 10
0.0
 20
0.0
 30
0.0
  3
E3_NODE_25_
  1

  0
POLYLINE
  5
7F6
  8
0
 62
     9
 66
     1
 10
0.0
 20
0.0
 30
0.0
 70
    64
 71
    38
 72
    38
  0
VERTEX
  5
7F7
  8
0
 10
138.1289978027344
 20
0.0930000022053719
 30
167.802001953125
 70
   192
  0
VERTEX
  5
7F8
  8
0
 10
136.4830017089844
 20
0.0930000022053719
 30
172.322998046875
 70
   192
  0
VERTEX
  5
7F9
  8
0
 10
135.1529998779297
 20
-2.845999956130981
 30
171.8390045166016
 70
   192
  0
VERTEX
  5
7FA
  8
0
 10
136.5130004882812
 20
-5.201000213623047
 30
167.2129974365234
 70
   192
  0
VERTEX
  5
7FB
  8
0
 10
134.7039947509766
 20
-6.598999977111816
 30
166.5549926757812
 70
   192
  0
VERTEX
  5
7FC
  8
0
 10
133.6779937744141
 20
-6.105999946594238
 30
171.302001953125
 70
   192
  0
VERTEX
  5
7FD
  8
0
 10
133.2969970703125
 20
-6.948999881744385
 30
171.1629943847656
 70
   192
  0
VERTEX
  5
7FE
  8
0
 10
130.9700012207031
 20
-7.513999938964844
 30
170.3159942626953
 70
   192
  0
VERTEX
  5
7FF
  8
0
 10
132.281005859375
 20
-8.472999572753906
 30
165.6730041503906
 70
   192
  0
VERTEX
  5
800
  8
0
 10
127.8820037841797
 20
-8.263999938964844
 30
169.1920013427734
 70
   192
  0
VERTEX
  5
801
  8
0
 10
127.7819976806641
 20
-8.472999572753906
 30
164.0359954833984
 70
   192
  0
VERTEX
  5
802
  8
0
 10
126.1360015869141
 20
-8.687999725341797
 30
168.5570068359375
 70
   192
  0
VERTEX
  5
803
  8
0
 10
125.1959991455078
 20
-7.888999938964844
 30
168.2149963378906
 70
   192
  0
VERTEX
  5
804
  8
0
 10
127.0500030517578
 20
-8.472999572753906
 30
163.7689971923828
 70
   192
  0
VERTEX
  5
805
  8
0
 10
122.5250015258789
 20
-5.623000144958496
 30
167.2429962158203
 70
   192
  0
VERTEX
  5
806
  8
0
 10
120.3939971923828
 20
-3.815000057220459
 30
166.4669952392578
 70
   192
  0
VERTEX
  5
807
  8
0
 10
122.3610000610352
 20
-3.703999996185303
 30
162.0630035400391
 70
   192
  0
VERTEX
  5
808
  8
0
 10
122.818000793457
 20
-5.201000213623047
 30
162.22900390625
 70
   192
  0
VERTEX
  5
809
  8
0
 10
121.2020034790039
 20
0.0930000022053719
 30
161.6410064697266
 70
   192
  0
VERTEX
  5
80A
  8
0
 10
120.3939971923828
 20
0.0930000022053719
 30
166.4669952392578
 70
   192
  0
VERTEX
  5
80B
  8
0
 10
120.3939971923828
 20
3.405999898910522
 30
166.4669952392578
 70
   192
  0
VERTEX
  5
80C
  8
0
 10
122.3610000610352
 20
3.890000104904175
 30
162.0630035400391
 70
   192
  0
VERTEX
  5
80D
  8
0
 10
120.3939971923828
 20
-3.220000028610229
 30
166.4669952392578
 70
   192
  0
VERTEX
  5
80E
  8
0
 10
120.3939971923828
 20
4.000999927520752
 30
166.4669952392578
 70
   192
  0
VERTEX
  5
80F
  8
0
 10
122.5250015258789
 20
5.809000015258789
 30
167.2429962158203
 70
   192
  0
VERTEX
  5
810
  8
0
 10
122.818000793457
 20
5.38700008392334
 30
162.22900390625
 70
   192
  0
VERTEX
  5
811
  8
0
 10
126.1360015869141
 20
8.87399959564209
 30
168.5570068359375
 70
   192
  0
VERTEX
  5
812
  8
0
 10
127.7819976806641
 20
8.659000396728516
 30
164.0359954833984
 70
   192
  0
VERTEX
  5
813
  8
0
 10
127.0500030517578
 20
8.659000396728516
 30
163.7689971923828
 70
   192
  0
VERTEX
  5
814
  8
0
 10
125.1959991455078
 20
8.076000213623047
 30
168.2149963378906
 70
   192
  0
VERTEX
  5
815
  8
0
 10
132.281005859375
 20
8.659000396728516
 30
165.6730041503906
 70
   192
  0
VERTEX
  5
816
  8
0
 10
127.8820037841797
 20
8.449999809265137
 30
169.1920013427734
 70
   192
  0
VERTEX
  5
817
  8
0
 10
134.7039947509766
 20
6.785999774932861
 30
166.5549926757812
 70
   192
  0
VERTEX
  5
818
  8
0
 10
130.9700012207031
 20
7.699999809265137
 30
170.3159942626953
 70
   192
  0
VERTEX
  5
819
  8
0
 10
133.2969970703125
 20
7.135000228881836
 30
171.1629943847656
 70
   192
  0
VERTEX
  5
81A
  8
0
 10
133.6779937744141
 20
6.291999816894531
 30
171.302001953125
 70
   192
  0
VERTEX
  5
81B
  8
0
 10
136.5130004882812
 20
5.38700008392334
 30
167.2129974365234
 70
   192
  0
VERTEX
  5
81C
  8
0
 10
135.1529998779297
 20
3.032000064849854
 30
171.8390045166016
 70
   192
  0
VERTEX
  5
81D
  8
0
 62
     9
 10
0.0
 20
0.0
 30
0.0
 70
   128
 71
     3
 72
     2
 73
     1
  0
VERTEX
  5
81E
  8
0
 62
     9
 10
0.0
 20
0.0
 30
0.0
 70
   128
 71
     1
 72
     4
 73
     3
  0
VERTEX
  5
81F
  8
0
 62
     9
 10
0.0
 20
0.0
 30
0.0
 70
   128
 71
     6
 72
     4
 73
     5
  0
VERTEX
  5
820
  8
0
 62
     9
 10
0.0
 20
0.0
 30
0.0
 70
   128
 71
     5
 72
     7
 73
     6
  0
VERTEX
  5
821
  8
0
 62
     9
 10
0.0
 20
0.0
 30
0.0
 70
   128
 71
     8
 72
     7
 73
     5
  0
VERTEX
  5
822
  8
0
 62
     9
 10
0.0
 20
0.0
 30
0.0
 70
   128
 71
    10
 72
     8
 73
     9
  0
VERTEX
  5
823
  8
0
 62
     9
 10
0.0
 20
0.0
 30
0.0
 70
   128
 71
     9
 72
    11
 73
    10
  0
VERTEX
  5
824
  8
0
 62
     9
 10
0.0
 20
0.0
 30
0.0
 70
   128
 71
     5
 72
     9
 73
     8
  0
VERTEX
  5
825
  8
0
 62
     9
 10
0.0
 20
0.0
 30
0.0
 70
   128
 71
    14
 72
    13
 73
    12
  0
VERTEX
  5
826
  8
0
 62
     9
 10
0.0
 20
0.0
 30
0.0
 70
   128
 71
    15
 72
    13
 73
    14
  0
VERTEX
  5
827
  8
0
 62
     9
 10
0.0
 20
0.0
 30
0.0
 70
   128
 71
    18
 72
    17
 73
    16
  0
VERTEX
  5
828
  8
0
 62
     9
 10
0.0
 20
0.0
 30
0.0
 70
   128
 71
    16
 72
    15
 73
    18
  0
VERTEX
  5
829
  8
0
 62
     9
 10
0.0
 20
0.0
 30
0.0
 70
   128
 71
    14
 72
    18
 73
    15
  0
VERTEX
  5
82A
  8
0
 62
     9
 10
0.0
 20
0.0
 30
0.0
 70
   128
 71
    21
 72
    20
 73
    19
  0
VERTEX
  5
82B
  8
0
 62
     9
 10
0.0
 20
0.0
 30
0.0
 70
   128
 71
    19
 72
    22
 73
    21
  0
VERTEX
  5
82C
  8
0
 62
     9
 10
0.0
 20
0.0
 30
0.0
 70
   128
 71
    23
 72
    17
 73
    19
  0
VERTEX
  5
82D
  8
0
 62
     9
 10
0.0
 20
0.0
 30
0.0
 70
   128
 71
    19
 72
    20
 73
    23
  0
VERTEX
  5
82E
  8
0
 62
     9
 10
0.0
 20
0.0
 30
0.0
 70
   128
 71
    23
 72
    16
 73
    17
  0
VERTEX
  5
82F
  8
0
 62
     9
 10
0.0
 20
0.0
 30
0.0
 70
   128
 71
    26
 72
    25
 73
    24
  0
VERTEX
  5
830
  8
0
 62
     9
 10
0.0
 20
0.0
 30
0.0
 70
   128
 71
    29
 72
    28
 73
    27
  0
VERTEX
  5
831
  8
0
 62
     9
 10
0.0
 20
0.0
 30
0.0
 70
   128
 71
    25
 72
    26
 73
    29
  0
VERTEX
  5
832
  8
0
 62
     9
 10
0.0
 20
0.0
 30
0.0
 70
   128
 71
    29
 72
    30
 73
    25
  0
VERTEX
  5
833
  8
0
 62
     9
 10
0.0
 20
0.0
 30
0.0
 70
   128
 71
    27
 72
    30
 73
    29
  0
VERTEX
  5
834
  8
0
 62
     9
 10
0.0
 20
0.0
 30
0.0
 70
   128
 71
    32
 72
    28
 73
    31
  0
VERTEX
  5
835
  8
0
 62
     9
 10
0.0
 20
0.0
 30
0.0
 70
   128
 71
    34
 72
    31
 73
    33
  0
VERTEX
  5
836
  8
0
 62
     9
 10
0.0
 20
0.0
 30
0.0
 70
   128
 71
    33
 72
    35
 73
    34
  0
VERTEX
  5
837
  8
0
 62
     9
 10
0.0
 20
0.0
 30
0.0
 70
   128
 71
    32
 72
    27
 73
    28
  0
VERTEX
  5
838
  8
0
 62
     9
 10
0.0
 20
0.0
 30
0.0
 70
   128
 71
    36
 72
    35
 73
    33
  0
VERTEX
  5
839
  8
0
 62
     9
 10
0.0
 20
0.0
 30
0.0
 70
   128
 71
    38
 72
    37
 73
     1
  0
VERTEX
  5
83A
  8
0
 62
     9
 10
0.0
 20
0.0
 30
0.0
 70
   128
 71
    38
 72
    36
 73
    37
  0
VERTEX
  5
83B
  8
0
 62
     9
 10
0.0
 20
0.0
 30
0.0
 70
   128
 71
     1
 72
     2
 73
    38
  0
VERTEX
  5
83C
  8
0
 62
     9
 10
0.0
 20
0.0
 30
0.0
 70
   128
 71
    33
 72
    37
 73
    36
  0
VERTEX
  5
83D
  8
0
 62
     9
 10
0.0
 20
0.0
 30
0.0
 70
   128
 71
    31
 72
    34
 73
    32
  0
VERTEX
  5
83E
  8
0
 62
     9
 10
0.0
 20
0.0
 30
0.0
 70
   128
 71
    24
 72
    22
 73
    26
  0
VERTEX
  5
83F
  8
0
 62
     9
 10
0.0
 20
0.0
 30
0.0
 70
   128
 71
    22
 72
    24
 73
    21
  0
VERTEX
  5
840
  8
0
 62
     9
 10
0.0
 20
0.0
 30
0.0
 70
   128
 71
    12
 72
    11
 73
    14
  0
VERTEX
  5
841
  8
0
 62
     9
 10
0.0
 20
0.0
 30
0.0
 70
   128
 71
    11
 72
    12
 73
    10
  0
VERTEX
  5
842
  8
0
 62
     9
 10
0.0
 20
0.0
 30
0.0
 70
   128
 71
     4
 72
     6
 73
     3
  0
SEQEND
  5
843
  8
0
 62
     9
  0
ENDBLK
  5
846
  8
0
  0
BLOCK
  8
0
  2
E3_NODE_26_
 70
     0
 10
0.0
 20
0.0
 30
0.0
  3
E3_NODE_26_
  1

  0
POLYLINE
  5
848
  8
0
 62
     9
 66
     1
 10
0.0
 20
0.0
 30
0.0
 70
    64
 71
   284
 72
   524
  0
VERTEX
  5
849
  8
0
 10
54.53900146484375
 20
9.093000411987305
 30
211.6670074462891
 70
   192
  0
VERTEX
  5
84A
  8
0
 10
65.38099670410156
 20
9.093000411987305
 30
212.6660003662109
 70
   192
  0
VERTEX
  5
84B
  8
0
 10
65.41200256347656
 20
8.461000442504883
 30
209.35400390625
 70
   192
  0
VERTEX
  5
84C
  8
0
 10
53.9640007019043
 20
-8.274999618530273
 30
214.9290008544922
 70
   192
  0
VERTEX
  5
84D
  8
0
 10
54.53900146484375
 20
-8.906999588012695
 30
211.6670074462891
 70
   192
  0
VERTEX
  5
84E
  8
0
 10
65.38099670410156
 20
-8.906999588012695
 30
212.6660003662109
 70
   192
  0
VERTEX
  5
84F
  8
0
 10
4.165999889373779
 20
8.461000442504883
 30
156.9759979248047
 70
   192
  0
VERTEX
  5
850
  8
0
 10
3.051000118255615
 20
7.828999996185303
 30
146.6679992675781
 70
   192
  0
VERTEX
  5
851
  8
0
 10
1.789000034332275
 20
8.35200023651123
 30
146.6679992675781
 70
   192
  0
VERTEX
  5
852
  8
0
 10
0.8980000019073486
 20
9.093000411987305
 30
157.52099609375
 70
   192
  0
VERTEX
  5
853
  8
0
 10
-3.051000118255615
 20
-7.64300012588501
 30
146.6690063476562
 70
   192
  0
VERTEX
  5
854
  8
0
 10
0.0
 20
-8.906999588012695
 30
146.6679992675781
 70
   192
  0
VERTEX
  5
855
  8
0
 10
0.8980000019073486
 20
-8.906999588012695
 30
157.52099609375
 70
   192
  0
VERTEX
  5
856
  8
0
 10
108.7750015258789
 20
9.093000411987305
 30
196.9320068359375
 70
   192
  0
VERTEX
  5
857
  8
0
 10
106.6279983520508
 20
8.461000442504883
 30
194.4089965820312
 70
   192
  0
VERTEX
  5
858
  8
0
 10
97.34400177001953
 20
8.461000442504883
 30
200.9579925537109
 70
   192
  0
VERTEX
  5
859
  8
0
 10
55.99200057983398
 20
-3.220000028610229
 30
203.4259948730469
 70
   192
  0
VERTEX
  5
85A
  8
0
 10
56.10200119018555
 20
0.0930000022053719
 30
202.8029937744141
 70
   192
  0
VERTEX
  5
85B
  8
0
 10
65.46600341796875
 20
0.0930000022053719
 30
203.6670074462891
 70
   192
  0
VERTEX
  5
85C
  8
0
 10
88.14199829101562
 20
9.093000411987305
 30
208.8450012207031
 70
   192
  0
VERTEX
  5
85D
  8
0
 10
87.02999877929688
 20
8.461000442504883
 30
205.7239990234375
 70
   192
  0
VERTEX
  5
85E
  8
0
 10
76.20800018310547
 20
8.461000442504883
 30
208.5200042724609
 70
   192
  0
VERTEX
  5
85F
  8
0
 10
55.64400100708008
 20
6.456999778747559
 30
205.3990020751953
 70
   192
  0
VERTEX
  5
860
  8
0
 10
65.44100189208984
 20
6.456999778747559
 30
206.3029937744141
 70
   192
  0
VERTEX
  5
861
  8
0
 10
65.45999908447266
 20
3.405999898910522
 30
204.2989959716797
 70
   192
  0
VERTEX
  5
862
  8
0
 10
76.74700164794922
 20
9.093000411987305
 30
211.7879943847656
 70
   192
  0
VERTEX
  5
863
  8
0
 10
55.1150016784668
 20
8.461000442504883
 30
208.4040069580078
 70
   192
  0
VERTEX
  5
864
  8
0
 10
75.71099853515625
 20
6.456999778747559
 30
205.5090026855469
 70
   192
  0
VERTEX
  5
865
  8
0
 10
75.38500213623047
 20
3.405999898910522
 30
203.5319976806641
 70
   192
  0
VERTEX
  5
866
  8
0
 10
55.99200057983398
 20
3.405999898910522
 30
203.4259948730469
 70
   192
  0
VERTEX
  5
867
  8
0
 10
75.28199768066406
 20
0.0930000022053719
 30
202.9089965820312
 70
   192
  0
VERTEX
  5
868
  8
0
 10
86.00700378417969
 20
6.456999778747559
 30
202.8489990234375
 70
   192
  0
VERTEX
  5
869
  8
0
 10
85.33399963378906
 20
3.405999898910522
 30
200.9609985351562
 70
   192
  0
VERTEX
  5
86A
  8
0
 10
99.0
 20
9.093000411987305
 30
203.8269958496094
 70
   192
  0
VERTEX
  5
86B
  8
0
 10
95.81800079345703
 20
6.456999778747559
 30
198.3159942626953
 70
   192
  0
VERTEX
  5
86C
  8
0
 10
94.81600189208984
 20
3.405999898910522
 30
196.5800018310547
 70
   192
  0
VERTEX
  5
86D
  8
0
 10
85.12200164794922
 20
0.0930000022053719
 30
200.3659973144531
 70
   192
  0
VERTEX
  5
86E
  8
0
 10
94.5
 20
0.0930000022053719
 30
196.0330047607422
 70
   192
  0
VERTEX
  5
86F
  8
0
 10
85.33399963378906
 20
-3.220000028610229
 30
200.9609985351562
 70
   192
  0
VERTEX
  5
870
  8
0
 10
75.38500213623047
 20
-3.220000028610229
 30
203.5319976806641
 70
   192
  0
VERTEX
  5
871
  8
0
 10
55.1150016784668
 20
-8.274999618530273
 30
208.4040069580078
 70
   192
  0
VERTEX
  5
872
  8
0
 10
55.64400100708008
 20
-6.270999908447266
 30
205.3990020751953
 70
   192
  0
VERTEX
  5
873
  8
0
 10
65.44100189208984
 20
-6.270999908447266
 30
206.3029937744141
 70
   192
  0
VERTEX
  5
874
  8
0
 10
65.45999908447266
 20
-3.220000028610229
 30
204.2989959716797
 70
   192
  0
VERTEX
  5
875
  8
0
 10
65.41200256347656
 20
-8.274999618530273
 30
209.35400390625
 70
   192
  0
VERTEX
  5
876
  8
0
 10
75.71099853515625
 20
-6.270999908447266
 30
205.5090026855469
 70
   192
  0
VERTEX
  5
877
  8
0
 10
76.20800018310547
 20
-8.274999618530273
 30
208.5200042724609
 70
   192
  0
VERTEX
  5
878
  8
0
 10
87.02999877929688
 20
-8.274999618530273
 30
205.7239990234375
 70
   192
  0
VERTEX
  5
879
  8
0
 10
86.00700378417969
 20
-6.270999908447266
 30
202.8489990234375
 70
   192
  0
VERTEX
  5
87A
  8
0
 10
94.81600189208984
 20
-3.220000028610229
 30
196.5800018310547
 70
   192
  0
VERTEX
  5
87B
  8
0
 10
95.81800079345703
 20
-6.270999908447266
 30
198.3159942626953
 70
   192
  0
VERTEX
  5
87C
  8
0
 10
88.14199829101562
 20
-8.906999588012695
 30
208.8450012207031
 70
   192
  0
VERTEX
  5
87D
  8
0
 10
76.74700164794922
 20
-8.906999588012695
 30
211.7879943847656
 70
   192
  0
VERTEX
  5
87E
  8
0
 10
97.34400177001953
 20
-8.274999618530273
 30
200.9579925537109
 70
   192
  0
VERTEX
  5
87F
  8
0
 10
103.3509979248047
 20
-3.220000028610229
 30
190.5590057373047
 70
   192
  0
VERTEX
  5
880
  8
0
 10
123.463996887207
 20
9.093000411987305
 30
179.1320037841797
 70
   192
  0
VERTEX
  5
881
  8
0
 10
120.5800018310547
 20
8.461000442504883
 30
177.5030059814453
 70
   192
  0
VERTEX
  5
882
  8
0
 10
114.4599990844727
 20
8.461000442504883
 30
186.4349975585938
 70
   192
  0
VERTEX
  5
883
  8
0
 10
104.6500015258789
 20
6.456999778747559
 30
192.0850067138672
 70
   192
  0
VERTEX
  5
884
  8
0
 10
103.3509979248047
 20
3.405999898910522
 30
190.5590057373047
 70
   192
  0
VERTEX
  5
885
  8
0
 10
117.0210037231445
 20
9.093000411987305
 30
188.5359954833984
 70
   192
  0
VERTEX
  5
886
  8
0
 10
112.1009979248047
 20
6.456999778747559
 30
184.4989929199219
 70
   192
  0
VERTEX
  5
887
  8
0
 10
110.552001953125
 20
3.405999898910522
 30
183.2279968261719
 70
   192
  0
VERTEX
  5
888
  8
0
 10
102.9420013427734
 20
0.0930000022053719
 30
190.0780029296875
 70
   192
  0
VERTEX
  5
889
  8
0
 10
110.0640029907227
 20
0.0930000022053719
 30
182.8269958496094
 70
   192
  0
VERTEX
  5
88A
  8
0
 10
117.9240036010742
 20
6.456999778747559
 30
176.0019989013672
 70
   192
  0
VERTEX
  5
88B
  8
0
 10
116.1790008544922
 20
3.405999898910522
 30
175.0160064697266
 70
   192
  0
VERTEX
  5
88C
  8
0
 10
126.1360015869141
 20
8.87399959564209
 30
168.5570068359375
 70
   192
  0
VERTEX
  5
88D
  8
0
 10
127.8820037841797
 20
8.449999809265137
 30
169.1920013427734
 70
   192
  0
VERTEX
  5
88E
  8
0
 10
125.1959991455078
 20
8.076000213623047
 30
168.2149963378906
 70
   192
  0
VERTEX
  5
88F
  8
0
 10
122.5250015258789
 20
5.809000015258789
 30
167.2429962158203
 70
   192
  0
VERTEX
  5
890
  8
0
 10
120.3939971923828
 20
4.000999927520752
 30
166.4669952392578
 70
   192
  0
VERTEX
  5
891
  8
0
 10
115.6279983520508
 20
0.0930000022053719
 30
174.7050018310547
 70
   192
  0
VERTEX
  5
892
  8
0
 10
120.3939971923828
 20
3.405999898910522
 30
166.4669952392578
 70
   192
  0
VERTEX
  5
893
  8
0
 10
120.3939971923828
 20
0.0930000022053719
 30
166.4669952392578
 70
   192
  0
VERTEX
  5
894
  8
0
 10
116.1790008544922
 20
-3.220000028610229
 30
175.0160064697266
 70
   192
  0
VERTEX
  5
895
  8
0
 10
110.552001953125
 20
-3.220000028610229
 30
183.2279968261719
 70
   192
  0
VERTEX
  5
896
  8
0
 10
106.6279983520508
 20
-8.274999618530273
 30
194.4089965820312
 70
   192
  0
VERTEX
  5
897
  8
0
 10
104.6500015258789
 20
-6.270999908447266
 30
192.0850067138672
 70
   192
  0
VERTEX
  5
898
  8
0
 10
112.1009979248047
 20
-6.270999908447266
 30
184.4989929199219
 70
   192
  0
VERTEX
  5
899
  8
0
 10
114.4599990844727
 20
-8.274999618530273
 30
186.4349975585938
 70
   192
  0
VERTEX
  5
89A
  8
0
 10
108.7750015258789
 20
-8.906999588012695
 30
196.9320068359375
 70
   192
  0
VERTEX
  5
89B
  8
0
 10
99.0
 20
-8.906999588012695
 30
203.8269958496094
 70
   192
  0
VERTEX
  5
89C
  8
0
 10
117.0210037231445
 20
-8.906999588012695
 30
188.5359954833984
 70
   192
  0
VERTEX
  5
89D
  8
0
 10
120.5800018310547
 20
-8.274999618530273
 30
177.5030059814453
 70
   192
  0
VERTEX
  5
89E
  8
0
 10
117.9240036010742
 20
-6.270999908447266
 30
176.0019989013672
 70
   192
  0
VERTEX
  5
89F
  8
0
 10
120.3939971923828
 20
-3.815000057220459
 30
166.4669952392578
 70
   192
  0
VERTEX
  5
8A0
  8
0
 10
120.3939971923828
 20
-3.220000028610229
 30
166.4669952392578
 70
   192
  0
VERTEX
  5
8A1
  8
0
 10
122.5250015258789
 20
-5.623000144958496
 30
167.2429962158203
 70
   192
  0
VERTEX
  5
8A2
  8
0
 10
123.463996887207
 20
-8.906999588012695
 30
179.1320037841797
 70
   192
  0
VERTEX
  5
8A3
  8
0
 10
125.1959991455078
 20
-7.888999938964844
 30
168.2149963378906
 70
   192
  0
VERTEX
  5
8A4
  8
0
 10
126.1360015869141
 20
-8.687999725341797
 30
168.5570068359375
 70
   192
  0
VERTEX
  5
8A5
  8
0
 10
52.97600173950195
 20
0.0930000022053719
 30
220.5299987792969
 70
   192
  0
VERTEX
  5
8A6
  8
0
 10
65.2969970703125
 20
0.0930000022053719
 30
221.6660003662109
 70
   192
  0
VERTEX
  5
8A7
  8
0
 10
65.3030014038086
 20
3.405999898910522
 30
221.0339965820312
 70
   192
  0
VERTEX
  5
8A8
  8
0
 10
110.9219970703125
 20
-8.274999618530273
 30
199.4550018310547
 70
   192
  0
VERTEX
  5
8A9
  8
0
 10
100.6569976806641
 20
-8.274999618530273
 30
206.6959991455078
 70
   192
  0
VERTEX
  5
8AA
  8
0
 10
53.08599853515625
 20
-3.220000028610229
 30
219.9069976806641
 70
   192
  0
VERTEX
  5
8AB
  8
0
 10
53.43399810791016
 20
-6.270999908447266
 30
217.9340057373047
 70
   192
  0
VERTEX
  5
8AC
  8
0
 10
65.32099914550781
 20
-6.270999908447266
 30
219.0299987792969
 70
   192
  0
VERTEX
  5
8AD
  8
0
 10
89.25299835205078
 20
-8.274999618530273
 30
211.9649963378906
 70
   192
  0
VERTEX
  5
8AE
  8
0
 10
77.28700256347656
 20
-8.274999618530273
 30
215.0570068359375
 70
   192
  0
VERTEX
  5
8AF
  8
0
 10
65.3499984741211
 20
-8.274999618530273
 30
215.97900390625
 70
   192
  0
VERTEX
  5
8B0
  8
0
 10
90.2770004272461
 20
-6.270999908447266
 30
214.8399963378906
 70
   192
  0
VERTEX
  5
8B1
  8
0
 10
77.78399658203125
 20
-6.270999908447266
 30
218.0670013427734
 70
   192
  0
VERTEX
  5
8B2
  8
0
 10
90.9489974975586
 20
-3.220000028610229
 30
216.7279968261719
 70
   192
  0
VERTEX
  5
8B3
  8
0
 10
78.11000061035156
 20
-3.220000028610229
 30
220.0449981689453
 70
   192
  0
VERTEX
  5
8B4
  8
0
 10
65.3030014038086
 20
-3.220000028610229
 30
221.0339965820312
 70
   192
  0
VERTEX
  5
8B5
  8
0
 10
91.16100311279297
 20
0.0930000022053719
 30
217.322998046875
 70
   192
  0
VERTEX
  5
8B6
  8
0
 10
78.21299743652344
 20
0.0930000022053719
 30
220.6679992675781
 70
   192
  0
VERTEX
  5
8B7
  8
0
 10
102.181999206543
 20
-6.270999908447266
 30
209.3379974365234
 70
   192
  0
VERTEX
  5
8B8
  8
0
 10
103.1839981079102
 20
-3.220000028610229
 30
211.0740051269531
 70
   192
  0
VERTEX
  5
8B9
  8
0
 10
114.197998046875
 20
-3.220000028610229
 30
203.3049926757812
 70
   192
  0
VERTEX
  5
8BA
  8
0
 10
126.3489990234375
 20
-8.274999618530273
 30
180.7619934082031
 70
   192
  0
VERTEX
  5
8BB
  8
0
 10
119.5820007324219
 20
-8.274999618530273
 30
190.6380004882812
 70
   192
  0
VERTEX
  5
8BC
  8
0
 10
112.8990020751953
 20
-6.270999908447266
 30
201.7790069580078
 70
   192
  0
VERTEX
  5
8BD
  8
0
 10
121.9410018920898
 20
-6.270999908447266
 30
192.572998046875
 70
   192
  0
VERTEX
  5
8BE
  8
0
 10
129.0050048828125
 20
-6.270999908447266
 30
182.2619934082031
 70
   192
  0
VERTEX
  5
8BF
  8
0
 10
130.9700012207031
 20
-7.513999938964844
 30
170.3159942626953
 70
   192
  0
VERTEX
  5
8C0
  8
0
 10
133.2969970703125
 20
-6.948999881744385
 30
171.1629943847656
 70
   192
  0
VERTEX
  5
8C1
  8
0
 10
130.75
 20
-3.220000028610229
 30
183.2480010986328
 70
   192
  0
VERTEX
  5
8C2
  8
0
 10
123.4899978637695
 20
-3.220000028610229
 30
193.8450012207031
 70
   192
  0
VERTEX
  5
8C3
  8
0
 10
114.6070022583008
 20
0.0930000022053719
 30
203.7859954833984
 70
   192
  0
VERTEX
  5
8C4
  8
0
 10
103.5
 20
0.0930000022053719
 30
211.6210021972656
 70
   192
  0
VERTEX
  5
8C5
  8
0
 10
123.9789962768555
 20
0.0930000022053719
 30
194.2449951171875
 70
   192
  0
VERTEX
  5
8C6
  8
0
 10
131.3009948730469
 20
0.0930000022053719
 30
183.5590057373047
 70
   192
  0
VERTEX
  5
8C7
  8
0
 10
135.1529998779297
 20
-2.845999956130981
 30
171.8390045166016
 70
   192
  0
VERTEX
  5
8C8
  8
0
 10
114.197998046875
 20
3.405999898910522
 30
203.3049926757812
 70
   192
  0
VERTEX
  5
8C9
  8
0
 10
103.1839981079102
 20
3.405999898910522
 30
211.0740051269531
 70
   192
  0
VERTEX
  5
8CA
  8
0
 10
53.43399810791016
 20
6.456999778747559
 30
217.9340057373047
 70
   192
  0
VERTEX
  5
8CB
  8
0
 10
65.32099914550781
 20
6.456999778747559
 30
219.0299987792969
 70
   192
  0
VERTEX
  5
8CC
  8
0
 10
65.3499984741211
 20
8.461000442504883
 30
215.97900390625
 70
   192
  0
VERTEX
  5
8CD
  8
0
 10
90.9489974975586
 20
3.405999898910522
 30
216.7279968261719
 70
   192
  0
VERTEX
  5
8CE
  8
0
 10
78.11000061035156
 20
3.405999898910522
 30
220.0449981689453
 70
   192
  0
VERTEX
  5
8CF
  8
0
 10
53.08599853515625
 20
3.405999898910522
 30
219.9069976806641
 70
   192
  0
VERTEX
  5
8D0
  8
0
 10
77.78399658203125
 20
6.456999778747559
 30
218.0670013427734
 70
   192
  0
VERTEX
  5
8D1
  8
0
 10
90.2770004272461
 20
6.456999778747559
 30
214.8399963378906
 70
   192
  0
VERTEX
  5
8D2
  8
0
 10
102.181999206543
 20
6.456999778747559
 30
209.3379974365234
 70
   192
  0
VERTEX
  5
8D3
  8
0
 10
89.25299835205078
 20
8.461000442504883
 30
211.9649963378906
 70
   192
  0
VERTEX
  5
8D4
  8
0
 10
77.28700256347656
 20
8.461000442504883
 30
215.0570068359375
 70
   192
  0
VERTEX
  5
8D5
  8
0
 10
53.9640007019043
 20
8.461000442504883
 30
214.9290008544922
 70
   192
  0
VERTEX
  5
8D6
  8
0
 10
100.6569976806641
 20
8.461000442504883
 30
206.6959991455078
 70
   192
  0
VERTEX
  5
8D7
  8
0
 10
112.8990020751953
 20
6.456999778747559
 30
201.7790069580078
 70
   192
  0
VERTEX
  5
8D8
  8
0
 10
110.9219970703125
 20
8.461000442504883
 30
199.4550018310547
 70
   192
  0
VERTEX
  5
8D9
  8
0
 10
130.75
 20
3.405999898910522
 30
183.2480010986328
 70
   192
  0
VERTEX
  5
8DA
  8
0
 10
123.4899978637695
 20
3.405999898910522
 30
193.8450012207031
 70
   192
  0
VERTEX
  5
8DB
  8
0
 10
121.9410018920898
 20
6.456999778747559
 30
192.572998046875
 70
   192
  0
VERTEX
  5
8DC
  8
0
 10
129.0050048828125
 20
6.456999778747559
 30
182.2619934082031
 70
   192
  0
VERTEX
  5
8DD
  8
0
 10
136.4830017089844
 20
0.0930000022053719
 30
172.322998046875
 70
   192
  0
VERTEX
  5
8DE
  8
0
 10
135.1529998779297
 20
3.032000064849854
 30
171.8390045166016
 70
   192
  0
VERTEX
  5
8DF
  8
0
 10
133.6779937744141
 20
6.291999816894531
 30
171.302001953125
 70
   192
  0
VERTEX
  5
8E0
  8
0
 10
126.3489990234375
 20
8.461000442504883
 30
180.7619934082031
 70
   192
  0
VERTEX
  5
8E1
  8
0
 10
119.5820007324219
 20
8.461000442504883
 30
190.6380004882812
 70
   192
  0
VERTEX
  5
8E2
  8
0
 10
133.2969970703125
 20
7.135000228881836
 30
171.1629943847656
 70
   192
  0
VERTEX
  5
8E3
  8
0
 10
130.9700012207031
 20
7.699999809265137
 30
170.3159942626953
 70
   192
  0
VERTEX
  5
8E4
  8
0
 10
21.8169994354248
 20
-8.274999618530273
 30
200.0749969482422
 70
   192
  0
VERTEX
  5
8E5
  8
0
 10
12.90299987792969
 20
-8.274999618530273
 30
191.2230072021484
 70
   192
  0
VERTEX
  5
8E6
  8
0
 10
15.44099998474121
 20
-8.906999588012695
 30
189.0930023193359
 70
   192
  0
VERTEX
  5
8E7
  8
0
 10
-7.979000091552734
 20
0.0930000022053719
 30
159.0
 70
   192
  0
VERTEX
  5
8E8
  8
0
 10
-7.355999946594238
 20
3.405999898910522
 30
158.89599609375
 70
   192
  0
VERTEX
  5
8E9
  8
0
 10
-7.736000061035156
 20
3.144000053405762
 30
146.6690063476562
 70
   192
  0
VERTEX
  5
8EA
  8
0
 10
0.6110000014305115
 20
-8.274999618530273
 30
169.6600036621094
 70
   192
  0
VERTEX
  5
8EB
  8
0
 10
3.736000061035156
 20
-8.906999588012695
 30
168.5610046386719
 70
   192
  0
VERTEX
  5
8EC
  8
0
 10
8.61400032043457
 20
-8.906999588012695
 30
179.27099609375
 70
   192
  0
VERTEX
  5
8ED
  8
0
 10
-7.736000061035156
 20
-2.95799994468689
 30
146.6690063476562
 70
   192
  0
VERTEX
  5
8EE
  8
0
 10
-6.363999843597412
 20
-6.270999908447266
 30
146.6690063476562
 70
   192
  0
VERTEX
  5
8EF
  8
0
 10
-5.379000186920166
 20
-6.270999908447266
 30
158.5670013427734
 70
   192
  0
VERTEX
  5
8F0
  8
0
 10
-2.369999885559082
 20
-8.274999618530273
 30
158.0650024414062
 70
   192
  0
VERTEX
  5
8F1
  8
0
 10
-5.484000205993652
 20
-6.635000228881836
 30
146.6690063476562
 70
   192
  0
VERTEX
  5
8F2
  8
0
 10
-2.266999959945679
 20
-6.270999908447266
 30
170.6719970703125
 70
   192
  0
VERTEX
  5
8F3
  8
0
 10
-4.157999992370605
 20
-3.220000028610229
 30
171.3370056152344
 70
   192
  0
VERTEX
  5
8F4
  8
0
 10
-7.355999946594238
 20
-3.220000028610229
 30
158.89599609375
 70
   192
  0
VERTEX
  5
8F5
  8
0
 10
-9.0
 20
0.0930000022053719
 30
146.6699981689453
 70
   192
  0
VERTEX
  5
8F6
  8
0
 10
-4.754000186920166
 20
0.0930000022053719
 30
171.5460052490234
 70
   192
  0
VERTEX
  5
8F7
  8
0
 10
3.081000089645386
 20
-6.270999908447266
 30
182.4149932861328
 70
   192
  0
VERTEX
  5
8F8
  8
0
 10
5.734000205993652
 20
-8.274999618530273
 30
180.9069976806641
 70
   192
  0
VERTEX
  5
8F9
  8
0
 10
1.338000059127808
 20
-3.220000028610229
 30
183.4049987792969
 70
   192
  0
VERTEX
  5
8FA
  8
0
 10
10.56599998474121
 20
-6.270999908447266
 30
193.1840057373047
 70
   192
  0
VERTEX
  5
8FB
  8
0
 10
0.7889999747276306
 20
0.0930000022053719
 30
183.7169952392578
 70
   192
  0
VERTEX
  5
8FC
  8
0
 10
9.029999732971191
 20
-3.220000028610229
 30
194.4720001220703
 70
   192
  0
VERTEX
  5
8FD
  8
0
 10
1.338000059127808
 20
3.405999898910522
 30
183.4049987792969
 70
   192
  0
VERTEX
  5
8FE
  8
0
 10
-5.379000186920166
 20
6.456999778747559
 30
158.5670013427734
 70
   192
  0
VERTEX
  5
8FF
  8
0
 10
-2.369999885559082
 20
8.461000442504883
 30
158.0650024414062
 70
   192
  0
VERTEX
  5
900
  8
0
 10
-3.051000118255615
 20
7.828999996185303
 30
146.6690063476562
 70
   192
  0
VERTEX
  5
901
  8
0
 10
-5.484000205993652
 20
6.822000026702881
 30
146.6690063476562
 70
   192
  0
VERTEX
  5
902
  8
0
 10
-4.157999992370605
 20
3.405999898910522
 30
171.3370056152344
 70
   192
  0
VERTEX
  5
903
  8
0
 10
-2.266999959945679
 20
6.456999778747559
 30
170.6719970703125
 70
   192
  0
VERTEX
  5
904
  8
0
 10
0.6110000014305115
 20
8.461000442504883
 30
169.6600036621094
 70
   192
  0
VERTEX
  5
905
  8
0
 10
3.736000061035156
 20
9.093000411987305
 30
168.5610046386719
 70
   192
  0
VERTEX
  5
906
  8
0
 10
3.081000089645386
 20
6.456999778747559
 30
182.4149932861328
 70
   192
  0
VERTEX
  5
907
  8
0
 10
5.734000205993652
 20
8.461000442504883
 30
180.9069976806641
 70
   192
  0
VERTEX
  5
908
  8
0
 10
8.545999526977539
 20
0.0930000022053719
 30
194.8789978027344
 70
   192
  0
VERTEX
  5
909
  8
0
 10
9.029999732971191
 20
3.405999898910522
 30
194.4720001220703
 70
   192
  0
VERTEX
  5
90A
  8
0
 10
10.56599998474121
 20
6.456999778747559
 30
193.1840057373047
 70
   192
  0
VERTEX
  5
90B
  8
0
 10
12.90299987792969
 20
8.461000442504883
 30
191.2230072021484
 70
   192
  0
VERTEX
  5
90C
  8
0
 10
8.61400032043457
 20
9.093000411987305
 30
179.27099609375
 70
   192
  0
VERTEX
  5
90D
  8
0
 10
15.44099998474121
 20
9.093000411987305
 30
189.0930023193359
 70
   192
  0
VERTEX
  5
90E
  8
0
 10
18.19099998474121
 20
0.0930000022053719
 30
204.4570007324219
 70
   192
  0
VERTEX
  5
90F
  8
0
 10
18.5939998626709
 20
3.405999898910522
 30
203.9700012207031
 70
   192
  0
VERTEX
  5
910
  8
0
 10
42.90700149536133
 20
-8.274999618530273
 30
212.0220031738281
 70
   192
  0
VERTEX
  5
911
  8
0
 10
32.00400161743164
 20
-8.274999618530273
 30
207.072998046875
 70
   192
  0
VERTEX
  5
912
  8
0
 10
33.62900161743164
 20
-8.906999588012695
 30
204.1860046386719
 70
   192
  0
VERTEX
  5
913
  8
0
 10
18.5939998626709
 20
-3.220000028610229
 30
203.9700012207031
 70
   192
  0
VERTEX
  5
914
  8
0
 10
23.92799949645996
 20
-8.906999588012695
 30
197.5220031738281
 70
   192
  0
VERTEX
  5
915
  8
0
 10
19.87199974060059
 20
-6.270999908447266
 30
202.4250030517578
 70
   192
  0
VERTEX
  5
916
  8
0
 10
30.50699996948242
 20
-6.270999908447266
 30
209.7310028076172
 70
   192
  0
VERTEX
  5
917
  8
0
 10
29.52400016784668
 20
-3.220000028610229
 30
211.4779968261719
 70
   192
  0
VERTEX
  5
918
  8
0
 10
41.22299957275391
 20
-3.220000028610229
 30
216.7879943847656
 70
   192
  0
VERTEX
  5
919
  8
0
 10
44.01100158691406
 20
-8.906999588012695
 30
208.8979949951172
 70
   192
  0
VERTEX
  5
91A
  8
0
 10
41.88999938964844
 20
-6.270999908447266
 30
214.8979949951172
 70
   192
  0
VERTEX
  5
91B
  8
0
 10
41.01200103759766
 20
0.0930000022053719
 30
217.3840026855469
 70
   192
  0
VERTEX
  5
91C
  8
0
 10
29.2140007019043
 20
0.0930000022053719
 30
212.0290069580078
 70
   192
  0
VERTEX
  5
91D
  8
0
 10
41.22299957275391
 20
3.405999898910522
 30
216.7879943847656
 70
   192
  0
VERTEX
  5
91E
  8
0
 10
29.52400016784668
 20
3.405999898910522
 30
211.4779968261719
 70
   192
  0
VERTEX
  5
91F
  8
0
 10
19.87199974060059
 20
6.456999778747559
 30
202.4250030517578
 70
   192
  0
VERTEX
  5
920
  8
0
 10
21.8169994354248
 20
8.461000442504883
 30
200.0749969482422
 70
   192
  0
VERTEX
  5
921
  8
0
 10
30.50699996948242
 20
6.456999778747559
 30
209.7310028076172
 70
   192
  0
VERTEX
  5
922
  8
0
 10
32.00400161743164
 20
8.461000442504883
 30
207.072998046875
 70
   192
  0
VERTEX
  5
923
  8
0
 10
23.92799949645996
 20
9.093000411987305
 30
197.5220031738281
 70
   192
  0
VERTEX
  5
924
  8
0
 10
33.62900161743164
 20
9.093000411987305
 30
204.1860046386719
 70
   192
  0
VERTEX
  5
925
  8
0
 10
41.88999938964844
 20
6.456999778747559
 30
214.8979949951172
 70
   192
  0
VERTEX
  5
926
  8
0
 10
42.90700149536133
 20
8.461000442504883
 30
212.0220031738281
 70
   192
  0
VERTEX
  5
927
  8
0
 10
44.01100158691406
 20
9.093000411987305
 30
208.8979949951172
 70
   192
  0
VERTEX
  5
928
  8
0
 10
9.152000427246094
 20
-3.220000028610229
 30
156.1450042724609
 70
   192
  0
VERTEX
  5
929
  8
0
 10
7.736000061035156
 20
-2.95799994468689
 30
146.6670074462891
 70
   192
  0
VERTEX
  5
92A
  8
0
 10
9.0
 20
0.0930000022053719
 30
146.6670074462891
 70
   192
  0
VERTEX
  5
92B
  8
0
 10
26.04000091552734
 20
8.461000442504883
 30
194.9700012207031
 70
   192
  0
VERTEX
  5
92C
  8
0
 10
17.97900009155273
 20
8.461000442504883
 30
186.9640045166016
 70
   192
  0
VERTEX
  5
92D
  8
0
 10
7.176000118255615
 20
6.456999778747559
 30
156.4750061035156
 70
   192
  0
VERTEX
  5
92E
  8
0
 10
9.152000427246094
 20
3.405999898910522
 30
156.1450042724609
 70
   192
  0
VERTEX
  5
92F
  8
0
 10
7.488999843597412
 20
3.740999937057495
 30
146.6670074462891
 70
   192
  0
VERTEX
  5
930
  8
0
 10
7.736000061035156
 20
3.144000053405762
 30
146.6670074462891
 70
   192
  0
VERTEX
  5
931
  8
0
 10
11.49400043487549
 20
8.461000442504883
 30
177.6349945068359
 70
   192
  0
VERTEX
  5
932
  8
0
 10
6.363999843597412
 20
6.456999778747559
 30
146.6670074462891
 70
   192
  0
VERTEX
  5
933
  8
0
 10
6.861999988555908
 20
8.461000442504883
 30
167.4620056152344
 70
   192
  0
VERTEX
  5
934
  8
0
 10
9.739999771118164
 20
6.456999778747559
 30
166.4499969482422
 70
   192
  0
VERTEX
  5
935
  8
0
 10
14.14700031280518
 20
6.456999778747559
 30
176.1269989013672
 70
   192
  0
VERTEX
  5
936
  8
0
 10
20.31599998474121
 20
6.456999778747559
 30
185.0030059814453
 70
   192
  0
VERTEX
  5
937
  8
0
 10
15.89000034332275
 20
3.405999898910522
 30
175.1369934082031
 70
   192
  0
VERTEX
  5
938
  8
0
 10
9.776000022888184
 20
0.0930000022053719
 30
156.0410003662109
 70
   192
  0
VERTEX
  5
939
  8
0
 10
11.63099956512451
 20
3.405999898910522
 30
165.7850036621094
 70
   192
  0
VERTEX
  5
93A
  8
0
 10
12.22700023651123
 20
0.0930000022053719
 30
165.5760040283203
 70
   192
  0
VERTEX
  5
93B
  8
0
 10
16.43899917602539
 20
0.0930000022053719
 30
174.8249969482422
 70
   192
  0
VERTEX
  5
93C
  8
0
 10
21.85099983215332
 20
3.405999898910522
 30
183.7140045166016
 70
   192
  0
VERTEX
  5
93D
  8
0
 10
22.33499908447266
 20
0.0930000022053719
 30
183.3079986572266
 70
   192
  0
VERTEX
  5
93E
  8
0
 10
27.98500061035156
 20
6.456999778747559
 30
192.6190032958984
 70
   192
  0
VERTEX
  5
93F
  8
0
 10
29.26300048828125
 20
3.405999898910522
 30
191.0740051269531
 70
   192
  0
VERTEX
  5
940
  8
0
 10
45.11399841308594
 20
8.461000442504883
 30
205.7740020751953
 70
   192
  0
VERTEX
  5
941
  8
0
 10
35.25400161743164
 20
8.461000442504883
 30
201.2989959716797
 70
   192
  0
VERTEX
  5
942
  8
0
 10
36.75
 20
6.456999778747559
 30
198.6399993896484
 70
   192
  0
VERTEX
  5
943
  8
0
 10
46.13100051879883
 20
6.456999778747559
 30
202.8979949951172
 70
   192
  0
VERTEX
  5
944
  8
0
 10
46.79899978637695
 20
3.405999898910522
 30
201.0079956054688
 70
   192
  0
VERTEX
  5
945
  8
0
 10
37.73300170898438
 20
3.405999898910522
 30
196.8930053710938
 70
   192
  0
VERTEX
  5
946
  8
0
 10
29.66500091552734
 20
0.0930000022053719
 30
190.5879974365234
 70
   192
  0
VERTEX
  5
947
  8
0
 10
38.04299926757812
 20
0.0930000022053719
 30
196.3419952392578
 70
   192
  0
VERTEX
  5
948
  8
0
 10
47.00899887084961
 20
0.0930000022053719
 30
200.4120025634766
 70
   192
  0
VERTEX
  5
949
  8
0
 10
29.26300048828125
 20
-3.220000028610229
 30
191.0740051269531
 70
   192
  0
VERTEX
  5
94A
  8
0
 10
21.85099983215332
 20
-3.220000028610229
 30
183.7140045166016
 70
   192
  0
VERTEX
  5
94B
  8
0
 10
4.165999889373779
 20
-8.274999618530273
 30
156.9759979248047
 70
   192
  0
VERTEX
  5
94C
  8
0
 10
3.051000118255615
 20
-7.64300012588501
 30
146.6679992675781
 70
   192
  0
VERTEX
  5
94D
  8
0
 10
6.363999843597412
 20
-6.270999908447266
 30
146.6670074462891
 70
   192
  0
VERTEX
  5
94E
  8
0
 10
11.63099956512451
 20
-3.220000028610229
 30
165.7850036621094
 70
   192
  0
VERTEX
  5
94F
  8
0
 10
7.176000118255615
 20
-6.270999908447266
 30
156.4750061035156
 70
   192
  0
VERTEX
  5
950
  8
0
 10
7.488999843597412
 20
-3.555000066757202
 30
146.6670074462891
 70
   192
  0
VERTEX
  5
951
  8
0
 10
9.739999771118164
 20
-6.270999908447266
 30
166.4499969482422
 70
   192
  0
VERTEX
  5
952
  8
0
 10
15.89000034332275
 20
-3.220000028610229
 30
175.1369934082031
 70
   192
  0
VERTEX
  5
953
  8
0
 10
14.14700031280518
 20
-6.270999908447266
 30
176.1269989013672
 70
   192
  0
VERTEX
  5
954
  8
0
 10
6.861999988555908
 20
-8.274999618530273
 30
167.4620056152344
 70
   192
  0
VERTEX
  5
955
  8
0
 10
1.789000034332275
 20
-8.166000366210938
 30
146.6679992675781
 70
   192
  0
VERTEX
  5
956
  8
0
 10
11.49400043487549
 20
-8.274999618530273
 30
177.6349945068359
 70
   192
  0
VERTEX
  5
957
  8
0
 10
20.31599998474121
 20
-6.270999908447266
 30
185.0030059814453
 70
   192
  0
VERTEX
  5
958
  8
0
 10
17.97900009155273
 20
-8.274999618530273
 30
186.9640045166016
 70
   192
  0
VERTEX
  5
959
  8
0
 10
26.04000091552734
 20
-8.274999618530273
 30
194.9700012207031
 70
   192
  0
VERTEX
  5
95A
  8
0
 10
46.79899978637695
 20
-3.220000028610229
 30
201.0079956054688
 70
   192
  0
VERTEX
  5
95B
  8
0
 10
37.73300170898438
 20
-3.220000028610229
 30
196.8930053710938
 70
   192
  0
VERTEX
  5
95C
  8
0
 10
27.98500061035156
 20
-6.270999908447266
 30
192.6190032958984
 70
   192
  0
VERTEX
  5
95D
  8
0
 10
46.13100051879883
 20
-6.270999908447266
 30
202.8979949951172
 70
   192
  0
VERTEX
  5
95E
  8
0
 10
36.75
 20
-6.270999908447266
 30
198.6399993896484
 70
   192
  0
VERTEX
  5
95F
  8
0
 10
45.11399841308594
 20
-8.274999618530273
 30
205.7740020751953
 70
   192
  0
VERTEX
  5
960
  8
0
 10
35.25400161743164
 20
-8.274999618530273
 30
201.2989959716797
 70
   192
  0
VERTEX
  5
961
  8
0
 10
0.0
 20
9.093000411987305
 30
146.6679992675781
 70
   192
  0
VERTEX
  5
962
  8
0
 10
-6.363999843597412
 20
6.456999778747559
 30
146.6690063476562
 70
   192
  0
VERTEX
  5
963
  8
0
 10
133.6779937744141
 20
-6.105999946594238
 30
171.302001953125
 70
   192
  0
VERTEX
  5
964
  8
0
 10
127.8820037841797
 20
-8.263999938964844
 30
169.1920013427734
 70
   192
  0
VERTEX
  5
965
  8
0
 62
     9
 10
0.0
 20
0.0
 30
0.0
 70
   128
 71
     3
 72
     2
 73
     1
  0
VERTEX
  5
966
  8
0
 62
     9
 10
0.0
 20
0.0
 30
0.0
 70
   128
 71
     6
 72
     5
 73
     4
  0
VERTEX
  5
967
  8
0
 62
     9
 10
0.0
 20
0.0
 30
0.0
 70
   128
 71
     9
 72
     8
 73
     7
  0
VERTEX
  5
968
  8
0
 62
     9
 10
0.0
 20
0.0
 30
0.0
 70
   128
 71
     7
 72
    10
 73
     9
  0
VERTEX
  5
969
  8
0
 62
     9
 10
0.0
 20
0.0
 30
0.0
 70
   128
 71
    13
 72
    12
 73
    11
  0
VERTEX
  5
96A
  8
0
 62
     9
 10
0.0
 20
0.0
 30
0.0
 70
   128
 71
    16
 72
    15
 73
    14
  0
VERTEX
  5
96B
  8
0
 62
     9
 10
0.0
 20
0.0
 30
0.0
 70
   128
 71
    19
 72
    18
 73
    17
  0
VERTEX
  5
96C
  8
0
 62
     9
 10
0.0
 20
0.0
 30
0.0
 70
   128
 71
    22
 72
    21
 73
    20
  0
VERTEX
  5
96D
  8
0
 62
     9
 10
0.0
 20
0.0
 30
0.0
 70
   128
 71
    25
 72
    24
 73
    23
  0
VERTEX
  5
96E
  8
0
 62
     9
 10
0.0
 20
0.0
 30
0.0
 70
   128
 71
    22
 72
    26
 73
     2
  0
VERTEX
  5
96F
  8
0
 62
     9
 10
0.0
 20
0.0
 30
0.0
 70
   128
 71
    24
 72
     3
 73
    27
  0
VERTEX
  5
970
  8
0
 62
     9
 10
0.0
 20
0.0
 30
0.0
 70
   128
 71
    28
 72
    22
 73
     3
  0
VERTEX
  5
971
  8
0
 62
     9
 10
0.0
 20
0.0
 30
0.0
 70
   128
 71
    29
 72
    28
 73
    24
  0
VERTEX
  5
972
  8
0
 62
     9
 10
0.0
 20
0.0
 30
0.0
 70
   128
 71
    19
 72
    25
 73
    30
  0
VERTEX
  5
973
  8
0
 62
     9
 10
0.0
 20
0.0
 30
0.0
 70
   128
 71
    31
 72
    29
 73
    25
  0
VERTEX
  5
974
  8
0
 62
     9
 10
0.0
 20
0.0
 30
0.0
 70
   128
 71
    29
 72
    33
 73
    32
  0
VERTEX
  5
975
  8
0
 62
     9
 10
0.0
 20
0.0
 30
0.0
 70
   128
 71
    16
 72
    34
 73
    20
  0
VERTEX
  5
976
  8
0
 62
     9
 10
0.0
 20
0.0
 30
0.0
 70
   128
 71
    28
 72
    32
 73
    21
  0
VERTEX
  5
977
  8
0
 62
     9
 10
0.0
 20
0.0
 30
0.0
 70
   128
 71
    35
 72
    16
 73
    21
  0
VERTEX
  5
978
  8
0
 62
     9
 10
0.0
 20
0.0
 30
0.0
 70
   128
 71
    36
 72
    35
 73
    32
  0
VERTEX
  5
979
  8
0
 62
     9
 10
0.0
 20
0.0
 30
0.0
 70
   128
 71
    31
 72
    37
 73
    33
  0
VERTEX
  5
97A
  8
0
 62
     9
 10
0.0
 20
0.0
 30
0.0
 70
   128
 71
    38
 72
    36
 73
    33
  0
VERTEX
  5
97B
  8
0
 62
     9
 10
0.0
 20
0.0
 30
0.0
 70
   128
 71
    31
 72
    40
 73
    39
  0
VERTEX
  5
97C
  8
0
 62
     9
 10
0.0
 20
0.0
 30
0.0
 70
   128
 71
    43
 72
    42
 73
    41
  0
VERTEX
  5
97D
  8
0
 62
     9
 10
0.0
 20
0.0
 30
0.0
 70
   128
 71
    31
 72
    19
 73
    44
  0
VERTEX
  5
97E
  8
0
 62
     9
 10
0.0
 20
0.0
 30
0.0
 70
   128
 71
    44
 72
    17
 73
    42
  0
VERTEX
  5
97F
  8
0
 62
     9
 10
0.0
 20
0.0
 30
0.0
 70
   128
 71
    40
 72
    44
 73
    43
  0
VERTEX
  5
980
  8
0
 62
     9
 10
0.0
 20
0.0
 30
0.0
 70
   128
 71
    46
 72
    43
 73
    45
  0
VERTEX
  5
981
  8
0
 62
     9
 10
0.0
 20
0.0
 30
0.0
 70
   128
 71
    45
 72
    41
 73
     5
  0
VERTEX
  5
982
  8
0
 62
     9
 10
0.0
 20
0.0
 30
0.0
 70
   128
 71
    47
 72
    45
 73
     6
  0
VERTEX
  5
983
  8
0
 62
     9
 10
0.0
 20
0.0
 30
0.0
 70
   128
 71
    46
 72
    47
 73
    48
  0
VERTEX
  5
984
  8
0
 62
     9
 10
0.0
 20
0.0
 30
0.0
 70
   128
 71
    38
 72
    37
 73
    39
  0
VERTEX
  5
985
  8
0
 62
     9
 10
0.0
 20
0.0
 30
0.0
 70
   128
 71
    40
 72
    46
 73
    49
  0
VERTEX
  5
986
  8
0
 62
     9
 10
0.0
 20
0.0
 30
0.0
 70
   128
 71
    50
 72
    39
 73
    49
  0
VERTEX
  5
987
  8
0
 62
     9
 10
0.0
 20
0.0
 30
0.0
 70
   128
 71
    51
 72
    49
 73
    48
  0
VERTEX
  5
988
  8
0
 62
     9
 10
0.0
 20
0.0
 30
0.0
 70
   128
 71
    47
 72
    53
 73
    52
  0
VERTEX
  5
989
  8
0
 62
     9
 10
0.0
 20
0.0
 30
0.0
 70
   128
 71
    54
 72
    48
 73
    52
  0
VERTEX
  5
98A
  8
0
 62
     9
 10
0.0
 20
0.0
 30
0.0
 70
   128
 71
    38
 72
    50
 73
    55
  0
VERTEX
  5
98B
  8
0
 62
     9
 10
0.0
 20
0.0
 30
0.0
 70
   128
 71
    58
 72
    57
 73
    56
  0
VERTEX
  5
98C
  8
0
 62
     9
 10
0.0
 20
0.0
 30
0.0
 70
   128
 71
    36
 72
    60
 73
    59
  0
VERTEX
  5
98D
  8
0
 62
     9
 10
0.0
 20
0.0
 30
0.0
 70
   128
 71
    15
 72
    58
 73
    61
  0
VERTEX
  5
98E
  8
0
 62
     9
 10
0.0
 20
0.0
 30
0.0
 70
   128
 71
    35
 72
    59
 73
    15
  0
VERTEX
  5
98F
  8
0
 62
     9
 10
0.0
 20
0.0
 30
0.0
 70
   128
 71
    59
 72
    62
 73
    58
  0
VERTEX
  5
990
  8
0
 62
     9
 10
0.0
 20
0.0
 30
0.0
 70
   128
 71
    60
 72
    63
 73
    62
  0
VERTEX
  5
991
  8
0
 62
     9
 10
0.0
 20
0.0
 30
0.0
 70
   128
 71
    38
 72
    64
 73
    60
  0
VERTEX
  5
992
  8
0
 62
     9
 10
0.0
 20
0.0
 30
0.0
 70
   128
 71
    64
 72
    65
 73
    63
  0
VERTEX
  5
993
  8
0
 62
     9
 10
0.0
 20
0.0
 30
0.0
 70
   128
 71
    63
 72
    67
 73
    66
  0
VERTEX
  5
994
  8
0
 62
     9
 10
0.0
 20
0.0
 30
0.0
 70
   128
 71
    68
 72
    56
 73
    57
  0
VERTEX
  5
995
  8
0
 62
     9
 10
0.0
 20
0.0
 30
0.0
 70
   128
 71
    68
 72
    69
 73
    56
  0
VERTEX
  5
996
  8
0
 62
     9
 10
0.0
 20
0.0
 30
0.0
 70
   128
 71
    62
 72
    66
 73
    57
  0
VERTEX
  5
997
  8
0
 62
     9
 10
0.0
 20
0.0
 30
0.0
 70
   128
 71
    71
 72
    70
 73
    57
  0
VERTEX
  5
998
  8
0
 62
     9
 10
0.0
 20
0.0
 30
0.0
 70
   128
 71
    72
 72
    71
 73
    66
  0
VERTEX
  5
999
  8
0
 62
     9
 10
0.0
 20
0.0
 30
0.0
 70
   128
 71
    66
 72
    67
 73
    72
  0
VERTEX
  5
99A
  8
0
 62
     9
 10
0.0
 20
0.0
 30
0.0
 70
   128
 71
    65
 72
    73
 73
    67
  0
VERTEX
  5
99B
  8
0
 62
     9
 10
0.0
 20
0.0
 30
0.0
 70
   128
 71
    75
 72
    74
 73
    67
  0
VERTEX
  5
99C
  8
0
 62
     9
 10
0.0
 20
0.0
 30
0.0
 70
   128
 71
    65
 72
    77
 73
    76
  0
VERTEX
  5
99D
  8
0
 62
     9
 10
0.0
 20
0.0
 30
0.0
 70
   128
 71
    51
 72
    54
 73
    78
  0
VERTEX
  5
99E
  8
0
 62
     9
 10
0.0
 20
0.0
 30
0.0
 70
   128
 71
    64
 72
    55
 73
    77
  0
VERTEX
  5
99F
  8
0
 62
     9
 10
0.0
 20
0.0
 30
0.0
 70
   128
 71
    50
 72
    51
 73
    79
  0
VERTEX
  5
9A0
  8
0
 62
     9
 10
0.0
 20
0.0
 30
0.0
 70
   128
 71
    55
 72
    79
 73
    80
  0
VERTEX
  5
9A1
  8
0
 62
     9
 10
0.0
 20
0.0
 30
0.0
 70
   128
 71
    79
 72
    78
 73
    81
  0
VERTEX
  5
9A2
  8
0
 62
     9
 10
0.0
 20
0.0
 30
0.0
 70
   128
 71
    54
 72
    83
 73
    82
  0
VERTEX
  5
9A3
  8
0
 62
     9
 10
0.0
 20
0.0
 30
0.0
 70
   128
 71
    78
 72
    82
 73
    84
  0
VERTEX
  5
9A4
  8
0
 62
     9
 10
0.0
 20
0.0
 30
0.0
 70
   128
 71
    80
 72
    81
 73
    85
  0
VERTEX
  5
9A5
  8
0
 62
     9
 10
0.0
 20
0.0
 30
0.0
 70
   128
 71
    75
 72
    73
 73
    76
  0
VERTEX
  5
9A6
  8
0
 62
     9
 10
0.0
 20
0.0
 30
0.0
 70
   128
 71
    77
 72
    80
 73
    86
  0
VERTEX
  5
9A7
  8
0
 62
     9
 10
0.0
 20
0.0
 30
0.0
 70
   128
 71
    87
 72
    76
 73
    86
  0
VERTEX
  5
9A8
  8
0
 62
     9
 10
0.0
 20
0.0
 30
0.0
 70
   128
 71
    87
 72
    88
 73
    76
  0
VERTEX
  5
9A9
  8
0
 62
     9
 10
0.0
 20
0.0
 30
0.0
 70
   128
 71
    89
 72
    86
 73
    85
  0
VERTEX
  5
9AA
  8
0
 62
     9
 10
0.0
 20
0.0
 30
0.0
 70
   128
 71
    81
 72
    84
 73
    90
  0
VERTEX
  5
9AB
  8
0
 62
     9
 10
0.0
 20
0.0
 30
0.0
 70
   128
 71
    92
 72
    91
 73
    85
  0
VERTEX
  5
9AC
  8
0
 62
     9
 10
0.0
 20
0.0
 30
0.0
 70
   128
 71
    85
 72
    90
 73
    92
  0
VERTEX
  5
9AD
  8
0
 62
     9
 10
0.0
 20
0.0
 30
0.0
 70
   128
 71
    95
 72
    94
 73
    93
  0
VERTEX
  5
9AE
  8
0
 62
     9
 10
0.0
 20
0.0
 30
0.0
 70
   128
 71
    83
 72
    97
 73
    96
  0
VERTEX
  5
9AF
  8
0
 62
     9
 10
0.0
 20
0.0
 30
0.0
 70
   128
 71
   100
 72
    99
 73
    98
  0
VERTEX
  5
9B0
  8
0
 62
     9
 10
0.0
 20
0.0
 30
0.0
 70
   128
 71
    53
 72
   102
 73
   101
  0
VERTEX
  5
9B1
  8
0
 62
     9
 10
0.0
 20
0.0
 30
0.0
 70
   128
 71
   103
 72
     4
 73
    99
  0
VERTEX
  5
9B2
  8
0
 62
     9
 10
0.0
 20
0.0
 30
0.0
 70
   128
 71
    53
 72
     6
 73
   103
  0
VERTEX
  5
9B3
  8
0
 62
     9
 10
0.0
 20
0.0
 30
0.0
 70
   128
 71
   102
 72
   103
 73
   100
  0
VERTEX
  5
9B4
  8
0
 62
     9
 10
0.0
 20
0.0
 30
0.0
 70
   128
 71
   102
 72
   105
 73
   104
  0
VERTEX
  5
9B5
  8
0
 62
     9
 10
0.0
 20
0.0
 30
0.0
 70
   128
 71
    83
 72
    52
 73
   101
  0
VERTEX
  5
9B6
  8
0
 62
     9
 10
0.0
 20
0.0
 30
0.0
 70
   128
 71
    97
 72
   101
 73
   104
  0
VERTEX
  5
9B7
  8
0
 62
     9
 10
0.0
 20
0.0
 30
0.0
 70
   128
 71
   105
 72
   107
 73
   106
  0
VERTEX
  5
9B8
  8
0
 62
     9
 10
0.0
 20
0.0
 30
0.0
 70
   128
 71
   108
 72
    98
 73
    93
  0
VERTEX
  5
9B9
  8
0
 62
     9
 10
0.0
 20
0.0
 30
0.0
 70
   128
 71
   105
 72
   100
 73
   108
  0
VERTEX
  5
9BA
  8
0
 62
     9
 10
0.0
 20
0.0
 30
0.0
 70
   128
 71
   107
 72
   108
 73
    94
  0
VERTEX
  5
9BB
  8
0
 62
     9
 10
0.0
 20
0.0
 30
0.0
 70
   128
 71
   107
 72
   110
 73
   109
  0
VERTEX
  5
9BC
  8
0
 62
     9
 10
0.0
 20
0.0
 30
0.0
 70
   128
 71
   111
 72
   104
 73
   106
  0
VERTEX
  5
9BD
  8
0
 62
     9
 10
0.0
 20
0.0
 30
0.0
 70
   128
 71
   112
 72
   106
 73
   109
  0
VERTEX
  5
9BE
  8
0
 62
     9
 10
0.0
 20
0.0
 30
0.0
 70
   128
 71
   111
 72
   112
 73
   113
  0
VERTEX
  5
9BF
  8
0
 62
     9
 10
0.0
 20
0.0
 30
0.0
 70
   128
 71
    84
 72
   115
 73
   114
  0
VERTEX
  5
9C0
  8
0
 62
     9
 10
0.0
 20
0.0
 30
0.0
 70
   128
 71
    97
 72
   111
 73
   116
  0
VERTEX
  5
9C1
  8
0
 62
     9
 10
0.0
 20
0.0
 30
0.0
 70
   128
 71
    82
 72
    96
 73
   115
  0
VERTEX
  5
9C2
  8
0
 62
     9
 10
0.0
 20
0.0
 30
0.0
 70
   128
 71
    96
 72
   116
 73
   117
  0
VERTEX
  5
9C3
  8
0
 62
     9
 10
0.0
 20
0.0
 30
0.0
 70
   128
 71
   115
 72
   117
 73
   118
  0
VERTEX
  5
9C4
  8
0
 62
     9
 10
0.0
 20
0.0
 30
0.0
 70
   128
 71
    90
 72
   114
 73
   119
  0
VERTEX
  5
9C5
  8
0
 62
     9
 10
0.0
 20
0.0
 30
0.0
 70
   128
 71
   119
 72
   114
 73
   118
  0
VERTEX
  5
9C6
  8
0
 62
     9
 10
0.0
 20
0.0
 30
0.0
 70
   128
 71
   118
 72
   120
 73
   119
  0
VERTEX
  5
9C7
  8
0
 62
     9
 10
0.0
 20
0.0
 30
0.0
 70
   128
 71
   117
 72
   122
 73
   121
  0
VERTEX
  5
9C8
  8
0
 62
     9
 10
0.0
 20
0.0
 30
0.0
 70
   128
 71
   112
 72
   124
 73
   123
  0
VERTEX
  5
9C9
  8
0
 62
     9
 10
0.0
 20
0.0
 30
0.0
 70
   128
 71
   116
 72
   113
 73
   122
  0
VERTEX
  5
9CA
  8
0
 62
     9
 10
0.0
 20
0.0
 30
0.0
 70
   128
 71
   113
 72
   123
 73
   125
  0
VERTEX
  5
9CB
  8
0
 62
     9
 10
0.0
 20
0.0
 30
0.0
 70
   128
 71
   122
 72
   125
 73
   126
  0
VERTEX
  5
9CC
  8
0
 62
     9
 10
0.0
 20
0.0
 30
0.0
 70
   128
 71
   118
 72
   121
 73
   127
  0
VERTEX
  5
9CD
  8
0
 62
     9
 10
0.0
 20
0.0
 30
0.0
 70
   128
 71
   127
 72
   121
 73
   126
  0
VERTEX
  5
9CE
  8
0
 62
     9
 10
0.0
 20
0.0
 30
0.0
 70
   128
 71
   129
 72
   128
 73
   123
  0
VERTEX
  5
9CF
  8
0
 62
     9
 10
0.0
 20
0.0
 30
0.0
 70
   128
 71
   132
 72
   131
 73
   130
  0
VERTEX
  5
9D0
  8
0
 62
     9
 10
0.0
 20
0.0
 30
0.0
 70
   128
 71
   134
 72
   133
 73
   109
  0
VERTEX
  5
9D1
  8
0
 62
     9
 10
0.0
 20
0.0
 30
0.0
 70
   128
 71
   131
 72
    95
 73
   135
  0
VERTEX
  5
9D2
  8
0
 62
     9
 10
0.0
 20
0.0
 30
0.0
 70
   128
 71
   134
 72
   110
 73
    94
  0
VERTEX
  5
9D3
  8
0
 62
     9
 10
0.0
 20
0.0
 30
0.0
 70
   128
 71
   136
 72
   134
 73
    95
  0
VERTEX
  5
9D4
  8
0
 62
     9
 10
0.0
 20
0.0
 30
0.0
 70
   128
 71
   136
 72
   137
 73
   133
  0
VERTEX
  5
9D5
  8
0
 62
     9
 10
0.0
 20
0.0
 30
0.0
 70
   128
 71
   129
 72
   124
 73
   109
  0
VERTEX
  5
9D6
  8
0
 62
     9
 10
0.0
 20
0.0
 30
0.0
 70
   128
 71
   138
 72
   129
 73
   133
  0
VERTEX
  5
9D7
  8
0
 62
     9
 10
0.0
 20
0.0
 30
0.0
 70
   128
 71
   140
 72
   139
 73
   137
  0
VERTEX
  5
9D8
  8
0
 62
     9
 10
0.0
 20
0.0
 30
0.0
 70
   128
 71
     2
 72
   132
 73
   141
  0
VERTEX
  5
9D9
  8
0
 62
     9
 10
0.0
 20
0.0
 30
0.0
 70
   128
 71
   140
 72
   136
 73
   131
  0
VERTEX
  5
9DA
  8
0
 62
     9
 10
0.0
 20
0.0
 30
0.0
 70
   128
 71
    26
 72
   140
 73
   132
  0
VERTEX
  5
9DB
  8
0
 62
     9
 10
0.0
 20
0.0
 30
0.0
 70
   128
 71
    26
 72
    20
 73
   139
  0
VERTEX
  5
9DC
  8
0
 62
     9
 10
0.0
 20
0.0
 30
0.0
 70
   128
 71
   142
 72
   138
 73
   137
  0
VERTEX
  5
9DD
  8
0
 62
     9
 10
0.0
 20
0.0
 30
0.0
 70
   128
 71
    34
 72
   142
 73
   139
  0
VERTEX
  5
9DE
  8
0
 62
     9
 10
0.0
 20
0.0
 30
0.0
 70
   128
 71
   142
 72
   144
 73
   143
  0
VERTEX
  5
9DF
  8
0
 62
     9
 10
0.0
 20
0.0
 30
0.0
 70
   128
 71
   146
 72
   145
 73
   126
  0
VERTEX
  5
9E0
  8
0
 62
     9
 10
0.0
 20
0.0
 30
0.0
 70
   128
 71
   138
 72
   143
 73
   128
  0
VERTEX
  5
9E1
  8
0
 62
     9
 10
0.0
 20
0.0
 30
0.0
 70
   128
 71
   128
 72
   146
 73
   125
  0
VERTEX
  5
9E2
  8
0
 62
     9
 10
0.0
 20
0.0
 30
0.0
 70
   128
 71
   143
 72
   147
 73
   146
  0
VERTEX
  5
9E3
  8
0
 62
     9
 10
0.0
 20
0.0
 30
0.0
 70
   128
 71
   147
 72
   148
 73
   145
  0
VERTEX
  5
9E4
  8
0
 62
     9
 10
0.0
 20
0.0
 30
0.0
 70
   128
 71
   150
 72
   149
 73
   126
  0
VERTEX
  5
9E5
  8
0
 62
     9
 10
0.0
 20
0.0
 30
0.0
 70
   128
 71
   148
 72
   151
 73
   150
  0
VERTEX
  5
9E6
  8
0
 62
     9
 10
0.0
 20
0.0
 30
0.0
 70
   128
 71
   153
 72
   152
 73
   148
  0
VERTEX
  5
9E7
  8
0
 62
     9
 10
0.0
 20
0.0
 30
0.0
 70
   128
 71
    34
 72
    14
 73
   144
  0
VERTEX
  5
9E8
  8
0
 62
     9
 10
0.0
 20
0.0
 30
0.0
 70
   128
 71
   144
 72
   153
 73
   147
  0
VERTEX
  5
9E9
  8
0
 62
     9
 10
0.0
 20
0.0
 30
0.0
 70
   128
 71
    14
 72
    61
 73
   153
  0
VERTEX
  5
9EA
  8
0
 62
     9
 10
0.0
 20
0.0
 30
0.0
 70
   128
 71
    61
 72
    56
 73
   152
  0
VERTEX
  5
9EB
  8
0
 62
     9
 10
0.0
 20
0.0
 30
0.0
 70
   128
 71
   155
 72
   154
 73
   148
  0
VERTEX
  5
9EC
  8
0
 62
     9
 10
0.0
 20
0.0
 30
0.0
 70
   128
 71
   154
 72
   151
 73
   148
  0
VERTEX
  5
9ED
  8
0
 62
     9
 10
0.0
 20
0.0
 30
0.0
 70
   128
 71
    56
 72
    69
 73
   155
  0
VERTEX
  5
9EE
  8
0
 62
     9
 10
0.0
 20
0.0
 30
0.0
 70
   128
 71
   158
 72
   157
 73
   156
  0
VERTEX
  5
9EF
  8
0
 62
     9
 10
0.0
 20
0.0
 30
0.0
 70
   128
 71
   161
 72
   160
 73
   159
  0
VERTEX
  5
9F0
  8
0
 62
     9
 10
0.0
 20
0.0
 30
0.0
 70
   128
 71
   164
 72
   163
 73
   162
  0
VERTEX
  5
9F1
  8
0
 62
     9
 10
0.0
 20
0.0
 30
0.0
 70
   128
 71
   167
 72
   166
 73
   165
  0
VERTEX
  5
9F2
  8
0
 62
     9
 10
0.0
 20
0.0
 30
0.0
 70
   128
 71
    13
 72
   168
 73
   162
  0
VERTEX
  5
9F3
  8
0
 62
     9
 10
0.0
 20
0.0
 30
0.0
 70
   128
 71
    11
 72
   169
 73
   167
  0
VERTEX
  5
9F4
  8
0
 62
     9
 10
0.0
 20
0.0
 30
0.0
 70
   128
 71
   169
 72
   166
 73
   167
  0
VERTEX
  5
9F5
  8
0
 62
     9
 10
0.0
 20
0.0
 30
0.0
 70
   128
 71
   168
 72
   167
 73
   170
  0
VERTEX
  5
9F6
  8
0
 62
     9
 10
0.0
 20
0.0
 30
0.0
 70
   128
 71
   167
 72
   172
 73
   171
  0
VERTEX
  5
9F7
  8
0
 62
     9
 10
0.0
 20
0.0
 30
0.0
 70
   128
 71
   165
 72
   173
 73
   159
  0
VERTEX
  5
9F8
  8
0
 62
     9
 10
0.0
 20
0.0
 30
0.0
 70
   128
 71
   172
 72
   159
 73
   174
  0
VERTEX
  5
9F9
  8
0
 62
     9
 10
0.0
 20
0.0
 30
0.0
 70
   128
 71
   175
 72
   170
 73
   171
  0
VERTEX
  5
9FA
  8
0
 62
     9
 10
0.0
 20
0.0
 30
0.0
 70
   128
 71
   158
 72
   164
 73
   176
  0
VERTEX
  5
9FB
  8
0
 62
     9
 10
0.0
 20
0.0
 30
0.0
 70
   128
 71
   176
 72
   162
 73
   170
  0
VERTEX
  5
9FC
  8
0
 62
     9
 10
0.0
 20
0.0
 30
0.0
 70
   128
 71
   157
 72
   176
 73
   175
  0
VERTEX
  5
9FD
  8
0
 62
     9
 10
0.0
 20
0.0
 30
0.0
 70
   128
 71
   178
 72
   175
 73
   177
  0
VERTEX
  5
9FE
  8
0
 62
     9
 10
0.0
 20
0.0
 30
0.0
 70
   128
 71
   177
 72
   171
 73
   174
  0
VERTEX
  5
9FF
  8
0
 62
     9
 10
0.0
 20
0.0
 30
0.0
 70
   128
 71
   180
 72
   177
 73
   179
  0
VERTEX
  5
A00
  8
0
 62
     9
 10
0.0
 20
0.0
 30
0.0
 70
   128
 71
   181
 72
   179
 73
   174
  0
VERTEX
  5
A01
  8
0
 62
     9
 10
0.0
 20
0.0
 30
0.0
 70
   128
 71
   184
 72
   183
 73
   182
  0
VERTEX
  5
A02
  8
0
 62
     9
 10
0.0
 20
0.0
 30
0.0
 70
   128
 71
   182
 72
   185
 73
   184
  0
VERTEX
  5
A03
  8
0
 62
     9
 10
0.0
 20
0.0
 30
0.0
 70
   128
 71
   160
 72
   186
 73
   174
  0
VERTEX
  5
A04
  8
0
 62
     9
 10
0.0
 20
0.0
 30
0.0
 70
   128
 71
   182
 72
   160
 73
   161
  0
VERTEX
  5
A05
  8
0
 62
     9
 10
0.0
 20
0.0
 30
0.0
 70
   128
 71
   182
 72
   187
 73
   186
  0
VERTEX
  5
A06
  8
0
 62
     9
 10
0.0
 20
0.0
 30
0.0
 70
   128
 71
   183
 72
   188
 73
   187
  0
VERTEX
  5
A07
  8
0
 62
     9
 10
0.0
 20
0.0
 30
0.0
 70
   128
 71
    10
 72
   183
 73
   184
  0
VERTEX
  5
A08
  8
0
 62
     9
 10
0.0
 20
0.0
 30
0.0
 70
   128
 71
    10
 72
   189
 73
   188
  0
VERTEX
  5
A09
  8
0
 62
     9
 10
0.0
 20
0.0
 30
0.0
 70
   128
 71
   191
 72
   190
 73
   187
  0
VERTEX
  5
A0A
  8
0
 62
     9
 10
0.0
 20
0.0
 30
0.0
 70
   128
 71
   193
 72
   192
 73
   179
  0
VERTEX
  5
A0B
  8
0
 62
     9
 10
0.0
 20
0.0
 30
0.0
 70
   128
 71
   190
 72
   181
 73
   186
  0
VERTEX
  5
A0C
  8
0
 62
     9
 10
0.0
 20
0.0
 30
0.0
 70
   128
 71
   194
 72
   193
 73
   181
  0
VERTEX
  5
A0D
  8
0
 62
     9
 10
0.0
 20
0.0
 30
0.0
 70
   128
 71
   195
 72
   194
 73
   190
  0
VERTEX
  5
A0E
  8
0
 62
     9
 10
0.0
 20
0.0
 30
0.0
 70
   128
 71
   196
 72
   191
 73
   188
  0
VERTEX
  5
A0F
  8
0
 62
     9
 10
0.0
 20
0.0
 30
0.0
 70
   128
 71
   197
 72
   195
 73
   191
  0
VERTEX
  5
A10
  8
0
 62
     9
 10
0.0
 20
0.0
 30
0.0
 70
   128
 71
   193
 72
   199
 73
   198
  0
VERTEX
  5
A11
  8
0
 62
     9
 10
0.0
 20
0.0
 30
0.0
 70
   128
 71
   202
 72
   201
 73
   200
  0
VERTEX
  5
A12
  8
0
 62
     9
 10
0.0
 20
0.0
 30
0.0
 70
   128
 71
   178
 72
   180
 73
   203
  0
VERTEX
  5
A13
  8
0
 62
     9
 10
0.0
 20
0.0
 30
0.0
 70
   128
 71
   202
 72
   204
 73
   156
  0
VERTEX
  5
A14
  8
0
 62
     9
 10
0.0
 20
0.0
 30
0.0
 70
   128
 71
   157
 72
   178
 73
   205
  0
VERTEX
  5
A15
  8
0
 62
     9
 10
0.0
 20
0.0
 30
0.0
 70
   128
 71
   201
 72
   156
 73
   205
  0
VERTEX
  5
A16
  8
0
 62
     9
 10
0.0
 20
0.0
 30
0.0
 70
   128
 71
   206
 72
   205
 73
   203
  0
VERTEX
  5
A17
  8
0
 62
     9
 10
0.0
 20
0.0
 30
0.0
 70
   128
 71
   180
 72
   192
 73
   198
  0
VERTEX
  5
A18
  8
0
 62
     9
 10
0.0
 20
0.0
 30
0.0
 70
   128
 71
   207
 72
   203
 73
   198
  0
VERTEX
  5
A19
  8
0
 62
     9
 10
0.0
 20
0.0
 30
0.0
 70
   128
 71
   206
 72
   207
 73
   208
  0
VERTEX
  5
A1A
  8
0
 62
     9
 10
0.0
 20
0.0
 30
0.0
 70
   128
 71
     5
 72
   209
 73
   200
  0
VERTEX
  5
A1B
  8
0
 62
     9
 10
0.0
 20
0.0
 30
0.0
 70
   128
 71
   201
 72
   206
 73
   210
  0
VERTEX
  5
A1C
  8
0
 62
     9
 10
0.0
 20
0.0
 30
0.0
 70
   128
 71
     4
 72
   200
 73
   210
  0
VERTEX
  5
A1D
  8
0
 62
     9
 10
0.0
 20
0.0
 30
0.0
 70
   128
 71
    99
 72
   210
 73
   208
  0
VERTEX
  5
A1E
  8
0
 62
     9
 10
0.0
 20
0.0
 30
0.0
 70
   128
 71
   207
 72
   212
 73
   211
  0
VERTEX
  5
A1F
  8
0
 62
     9
 10
0.0
 20
0.0
 30
0.0
 70
   128
 71
    98
 72
   208
 73
   211
  0
VERTEX
  5
A20
  8
0
 62
     9
 10
0.0
 20
0.0
 30
0.0
 70
   128
 71
   214
 72
   213
 73
   211
  0
VERTEX
  5
A21
  8
0
 62
     9
 10
0.0
 20
0.0
 30
0.0
 70
   128
 71
   195
 72
   216
 73
   215
  0
VERTEX
  5
A22
  8
0
 62
     9
 10
0.0
 20
0.0
 30
0.0
 70
   128
 71
   214
 72
   212
 73
   198
  0
VERTEX
  5
A23
  8
0
 62
     9
 10
0.0
 20
0.0
 30
0.0
 70
   128
 71
   194
 72
   215
 73
   199
  0
VERTEX
  5
A24
  8
0
 62
     9
 10
0.0
 20
0.0
 30
0.0
 70
   128
 71
   217
 72
   214
 73
   199
  0
VERTEX
  5
A25
  8
0
 62
     9
 10
0.0
 20
0.0
 30
0.0
 70
   128
 71
   218
 72
   217
 73
   215
  0
VERTEX
  5
A26
  8
0
 62
     9
 10
0.0
 20
0.0
 30
0.0
 70
   128
 71
   197
 72
   219
 73
   216
  0
VERTEX
  5
A27
  8
0
 62
     9
 10
0.0
 20
0.0
 30
0.0
 70
   128
 71
   220
 72
   218
 73
   216
  0
VERTEX
  5
A28
  8
0
 62
     9
 10
0.0
 20
0.0
 30
0.0
 70
   128
 71
   218
 72
   222
 73
   221
  0
VERTEX
  5
A29
  8
0
 62
     9
 10
0.0
 20
0.0
 30
0.0
 70
   128
 71
   135
 72
    93
 73
   211
  0
VERTEX
  5
A2A
  8
0
 62
     9
 10
0.0
 20
0.0
 30
0.0
 70
   128
 71
   217
 72
   221
 73
   213
  0
VERTEX
  5
A2B
  8
0
 62
     9
 10
0.0
 20
0.0
 30
0.0
 70
   128
 71
   130
 72
   135
 73
   213
  0
VERTEX
  5
A2C
  8
0
 62
     9
 10
0.0
 20
0.0
 30
0.0
 70
   128
 71
   141
 72
   130
 73
   221
  0
VERTEX
  5
A2D
  8
0
 62
     9
 10
0.0
 20
0.0
 30
0.0
 70
   128
 71
   220
 72
   223
 73
   222
  0
VERTEX
  5
A2E
  8
0
 62
     9
 10
0.0
 20
0.0
 30
0.0
 70
   128
 71
     1
 72
   141
 73
   222
  0
VERTEX
  5
A2F
  8
0
 62
     9
 10
0.0
 20
0.0
 30
0.0
 70
   128
 71
   226
 72
   225
 73
   224
  0
VERTEX
  5
A30
  8
0
 62
     9
 10
0.0
 20
0.0
 30
0.0
 70
   128
 71
   228
 72
   227
 73
   219
  0
VERTEX
  5
A31
  8
0
 62
     9
 10
0.0
 20
0.0
 30
0.0
 70
   128
 71
   231
 72
   230
 73
   229
  0
VERTEX
  5
A32
  8
0
 62
     9
 10
0.0
 20
0.0
 30
0.0
 70
   128
 71
   231
 72
   232
 73
   230
  0
VERTEX
  5
A33
  8
0
 62
     9
 10
0.0
 20
0.0
 30
0.0
 70
   128
 71
   233
 72
   196
 73
   189
  0
VERTEX
  5
A34
  8
0
 62
     9
 10
0.0
 20
0.0
 30
0.0
 70
   128
 71
   234
 72
   229
 73
     7
  0
VERTEX
  5
A35
  8
0
 62
     9
 10
0.0
 20
0.0
 30
0.0
 70
   128
 71
     7
 72
   235
 73
   189
  0
VERTEX
  5
A36
  8
0
 62
     9
 10
0.0
 20
0.0
 30
0.0
 70
   128
 71
   229
 72
   236
 73
   235
  0
VERTEX
  5
A37
  8
0
 62
     9
 10
0.0
 20
0.0
 30
0.0
 70
   128
 71
   237
 72
   233
 73
   235
  0
VERTEX
  5
A38
  8
0
 62
     9
 10
0.0
 20
0.0
 30
0.0
 70
   128
 71
   228
 72
   197
 73
   196
  0
VERTEX
  5
A39
  8
0
 62
     9
 10
0.0
 20
0.0
 30
0.0
 70
   128
 71
   238
 72
   228
 73
   233
  0
VERTEX
  5
A3A
  8
0
 62
     9
 10
0.0
 20
0.0
 30
0.0
 70
   128
 71
   239
 72
   237
 73
   236
  0
VERTEX
  5
A3B
  8
0
 62
     9
 10
0.0
 20
0.0
 30
0.0
 70
   128
 71
   226
 72
   240
 73
   230
  0
VERTEX
  5
A3C
  8
0
 62
     9
 10
0.0
 20
0.0
 30
0.0
 70
   128
 71
   230
 72
   241
 73
   236
  0
VERTEX
  5
A3D
  8
0
 62
     9
 10
0.0
 20
0.0
 30
0.0
 70
   128
 71
   240
 72
   242
 73
   241
  0
VERTEX
  5
A3E
  8
0
 62
     9
 10
0.0
 20
0.0
 30
0.0
 70
   128
 71
   243
 72
   239
 73
   241
  0
VERTEX
  5
A3F
  8
0
 62
     9
 10
0.0
 20
0.0
 30
0.0
 70
   128
 71
   244
 72
   238
 73
   237
  0
VERTEX
  5
A40
  8
0
 62
     9
 10
0.0
 20
0.0
 30
0.0
 70
   128
 71
   245
 72
   244
 73
   239
  0
VERTEX
  5
A41
  8
0
 62
     9
 10
0.0
 20
0.0
 30
0.0
 70
   128
 71
   244
 72
   247
 73
   246
  0
VERTEX
  5
A42
  8
0
 62
     9
 10
0.0
 20
0.0
 30
0.0
 70
   128
 71
   249
 72
   248
 73
   223
  0
VERTEX
  5
A43
  8
0
 62
     9
 10
0.0
 20
0.0
 30
0.0
 70
   128
 71
   238
 72
   246
 73
   227
  0
VERTEX
  5
A44
  8
0
 62
     9
 10
0.0
 20
0.0
 30
0.0
 70
   128
 71
   249
 72
   220
 73
   219
  0
VERTEX
  5
A45
  8
0
 62
     9
 10
0.0
 20
0.0
 30
0.0
 70
   128
 71
   250
 72
   249
 73
   227
  0
VERTEX
  5
A46
  8
0
 62
     9
 10
0.0
 20
0.0
 30
0.0
 70
   128
 71
   250
 72
   251
 73
   248
  0
VERTEX
  5
A47
  8
0
 62
     9
 10
0.0
 20
0.0
 30
0.0
 70
   128
 71
    27
 72
     1
 73
   223
  0
VERTEX
  5
A48
  8
0
 62
     9
 10
0.0
 20
0.0
 30
0.0
 70
   128
 71
    23
 72
    27
 73
   248
  0
VERTEX
  5
A49
  8
0
 62
     9
 10
0.0
 20
0.0
 30
0.0
 70
   128
 71
   253
 72
   252
 73
   251
  0
VERTEX
  5
A4A
  8
0
 62
     9
 10
0.0
 20
0.0
 30
0.0
 70
   128
 71
   245
 72
   254
 73
   247
  0
VERTEX
  5
A4B
  8
0
 62
     9
 10
0.0
 20
0.0
 30
0.0
 70
   128
 71
   253
 72
   250
 73
   246
  0
VERTEX
  5
A4C
  8
0
 62
     9
 10
0.0
 20
0.0
 30
0.0
 70
   128
 71
   255
 72
   253
 73
   247
  0
VERTEX
  5
A4D
  8
0
 62
     9
 10
0.0
 20
0.0
 30
0.0
 70
   128
 71
   255
 72
   256
 73
   252
  0
VERTEX
  5
A4E
  8
0
 62
     9
 10
0.0
 20
0.0
 30
0.0
 70
   128
 71
    30
 72
    23
 73
   251
  0
VERTEX
  5
A4F
  8
0
 62
     9
 10
0.0
 20
0.0
 30
0.0
 70
   128
 71
    18
 72
    30
 73
   252
  0
VERTEX
  5
A50
  8
0
 62
     9
 10
0.0
 20
0.0
 30
0.0
 70
   128
 71
   245
 72
   258
 73
   257
  0
VERTEX
  5
A51
  8
0
 62
     9
 10
0.0
 20
0.0
 30
0.0
 70
   128
 71
   261
 72
   260
 73
   259
  0
VERTEX
  5
A52
  8
0
 62
     9
 10
0.0
 20
0.0
 30
0.0
 70
   128
 71
   243
 72
   242
 73
   262
  0
VERTEX
  5
A53
  8
0
 62
     9
 10
0.0
 20
0.0
 30
0.0
 70
   128
 71
   264
 72
   261
 73
   263
  0
VERTEX
  5
A54
  8
0
 62
     9
 10
0.0
 20
0.0
 30
0.0
 70
   128
 71
   263
 72
   224
 73
   264
  0
VERTEX
  5
A55
  8
0
 62
     9
 10
0.0
 20
0.0
 30
0.0
 70
   128
 71
   240
 72
   224
 73
   262
  0
VERTEX
  5
A56
  8
0
 62
     9
 10
0.0
 20
0.0
 30
0.0
 70
   128
 71
   224
 72
   263
 73
   265
  0
VERTEX
  5
A57
  8
0
 62
     9
 10
0.0
 20
0.0
 30
0.0
 70
   128
 71
   266
 72
   262
 73
   265
  0
VERTEX
  5
A58
  8
0
 62
     9
 10
0.0
 20
0.0
 30
0.0
 70
   128
 71
   245
 72
   243
 73
   266
  0
VERTEX
  5
A59
  8
0
 62
     9
 10
0.0
 20
0.0
 30
0.0
 70
   128
 71
   258
 72
   266
 73
   267
  0
VERTEX
  5
A5A
  8
0
 62
     9
 10
0.0
 20
0.0
 30
0.0
 70
   128
 71
   267
 72
   265
 73
   268
  0
VERTEX
  5
A5B
  8
0
 62
     9
 10
0.0
 20
0.0
 30
0.0
 70
   128
 71
   269
 72
    13
 73
   259
  0
VERTEX
  5
A5C
  8
0
 62
     9
 10
0.0
 20
0.0
 30
0.0
 70
   128
 71
   269
 72
    12
 73
    13
  0
VERTEX
  5
A5D
  8
0
 62
     9
 10
0.0
 20
0.0
 30
0.0
 70
   128
 71
   263
 72
   259
 73
   268
  0
VERTEX
  5
A5E
  8
0
 62
     9
 10
0.0
 20
0.0
 30
0.0
 70
   128
 71
   259
 72
    13
 73
   163
  0
VERTEX
  5
A5F
  8
0
 62
     9
 10
0.0
 20
0.0
 30
0.0
 70
   128
 71
   270
 72
   268
 73
   163
  0
VERTEX
  5
A60
  8
0
 62
     9
 10
0.0
 20
0.0
 30
0.0
 70
   128
 71
   271
 72
   267
 73
   270
  0
VERTEX
  5
A61
  8
0
 62
     9
 10
0.0
 20
0.0
 30
0.0
 70
   128
 71
   272
 72
   270
 73
   164
  0
VERTEX
  5
A62
  8
0
 62
     9
 10
0.0
 20
0.0
 30
0.0
 70
   128
 71
   271
 72
   272
 73
   273
  0
VERTEX
  5
A63
  8
0
 62
     9
 10
0.0
 20
0.0
 30
0.0
 70
   128
 71
   255
 72
   275
 73
   274
  0
VERTEX
  5
A64
  8
0
 62
     9
 10
0.0
 20
0.0
 30
0.0
 70
   128
 71
   258
 72
   271
 73
   276
  0
VERTEX
  5
A65
  8
0
 62
     9
 10
0.0
 20
0.0
 30
0.0
 70
   128
 71
   255
 72
   254
 73
   257
  0
VERTEX
  5
A66
  8
0
 62
     9
 10
0.0
 20
0.0
 30
0.0
 70
   128
 71
   275
 72
   257
 73
   276
  0
VERTEX
  5
A67
  8
0
 62
     9
 10
0.0
 20
0.0
 30
0.0
 70
   128
 71
   275
 72
   278
 73
   277
  0
VERTEX
  5
A68
  8
0
 62
     9
 10
0.0
 20
0.0
 30
0.0
 70
   128
 71
    18
 72
   256
 73
   274
  0
VERTEX
  5
A69
  8
0
 62
     9
 10
0.0
 20
0.0
 30
0.0
 70
   128
 71
    17
 72
   274
 73
   277
  0
VERTEX
  5
A6A
  8
0
 62
     9
 10
0.0
 20
0.0
 30
0.0
 70
   128
 71
   278
 72
   280
 73
   279
  0
VERTEX
  5
A6B
  8
0
 62
     9
 10
0.0
 20
0.0
 30
0.0
 70
   128
 71
   272
 72
   158
 73
   204
  0
VERTEX
  5
A6C
  8
0
 62
     9
 10
0.0
 20
0.0
 30
0.0
 70
   128
 71
   278
 72
   276
 73
   273
  0
VERTEX
  5
A6D
  8
0
 62
     9
 10
0.0
 20
0.0
 30
0.0
 70
   128
 71
   280
 72
   273
 73
   204
  0
VERTEX
  5
A6E
  8
0
 62
     9
 10
0.0
 20
0.0
 30
0.0
 70
   128
 71
   280
 72
   202
 73
   209
  0
VERTEX
  5
A6F
  8
0
 62
     9
 10
0.0
 20
0.0
 30
0.0
 70
   128
 71
    42
 72
   277
 73
   279
  0
VERTEX
  5
A70
  8
0
 62
     9
 10
0.0
 20
0.0
 30
0.0
 70
   128
 71
    41
 72
   279
 73
   209
  0
VERTEX
  5
A71
  8
0
 62
     9
 10
0.0
 20
0.0
 30
0.0
 70
   128
 71
   209
 72
     5
 73
    41
  0
VERTEX
  5
A72
  8
0
 62
     9
 10
0.0
 20
0.0
 30
0.0
 70
   128
 71
   279
 72
    41
 73
    42
  0
VERTEX
  5
A73
  8
0
 62
     9
 10
0.0
 20
0.0
 30
0.0
 70
   128
 71
   209
 72
   279
 73
   280
  0
VERTEX
  5
A74
  8
0
 62
     9
 10
0.0
 20
0.0
 30
0.0
 70
   128
 71
   204
 72
   202
 73
   280
  0
VERTEX
  5
A75
  8
0
 62
     9
 10
0.0
 20
0.0
 30
0.0
 70
   128
 71
   273
 72
   280
 73
   278
  0
VERTEX
  5
A76
  8
0
 62
     9
 10
0.0
 20
0.0
 30
0.0
 70
   128
 71
   204
 72
   273
 73
   272
  0
VERTEX
  5
A77
  8
0
 62
     9
 10
0.0
 20
0.0
 30
0.0
 70
   128
 71
   279
 72
   277
 73
   278
  0
VERTEX
  5
A78
  8
0
 62
     9
 10
0.0
 20
0.0
 30
0.0
 70
   128
 71
   277
 72
    42
 73
    17
  0
VERTEX
  5
A79
  8
0
 62
     9
 10
0.0
 20
0.0
 30
0.0
 70
   128
 71
   274
 72
    17
 73
    18
  0
VERTEX
  5
A7A
  8
0
 62
     9
 10
0.0
 20
0.0
 30
0.0
 70
   128
 71
   277
 72
   274
 73
   275
  0
VERTEX
  5
A7B
  8
0
 62
     9
 10
0.0
 20
0.0
 30
0.0
 70
   128
 71
   276
 72
   278
 73
   275
  0
VERTEX
  5
A7C
  8
0
 62
     9
 10
0.0
 20
0.0
 30
0.0
 70
   128
 71
   257
 72
   275
 73
   255
  0
VERTEX
  5
A7D
  8
0
 62
     9
 10
0.0
 20
0.0
 30
0.0
 70
   128
 71
   276
 72
   257
 73
   258
  0
VERTEX
  5
A7E
  8
0
 62
     9
 10
0.0
 20
0.0
 30
0.0
 70
   128
 71
   274
 72
   256
 73
   255
  0
VERTEX
  5
A7F
  8
0
 62
     9
 10
0.0
 20
0.0
 30
0.0
 70
   128
 71
   273
 72
   276
 73
   271
  0
VERTEX
  5
A80
  8
0
 62
     9
 10
0.0
 20
0.0
 30
0.0
 70
   128
 71
   164
 72
   158
 73
   272
  0
VERTEX
  5
A81
  8
0
 62
     9
 10
0.0
 20
0.0
 30
0.0
 70
   128
 71
   270
 72
   272
 73
   271
  0
VERTEX
  5
A82
  8
0
 62
     9
 10
0.0
 20
0.0
 30
0.0
 70
   128
 71
   163
 72
   164
 73
   270
  0
VERTEX
  5
A83
  8
0
 62
     9
 10
0.0
 20
0.0
 30
0.0
 70
   128
 71
   163
 72
   268
 73
   259
  0
VERTEX
  5
A84
  8
0
 62
     9
 10
0.0
 20
0.0
 30
0.0
 70
   128
 71
   268
 72
   265
 73
   263
  0
VERTEX
  5
A85
  8
0
 62
     9
 10
0.0
 20
0.0
 30
0.0
 70
   128
 71
   259
 72
   260
 73
   269
  0
VERTEX
  5
A86
  8
0
 62
     9
 10
0.0
 20
0.0
 30
0.0
 70
   128
 71
   268
 72
   270
 73
   267
  0
VERTEX
  5
A87
  8
0
 62
     9
 10
0.0
 20
0.0
 30
0.0
 70
   128
 71
   267
 72
   271
 73
   258
  0
VERTEX
  5
A88
  8
0
 62
     9
 10
0.0
 20
0.0
 30
0.0
 70
   128
 71
   266
 72
   258
 73
   245
  0
VERTEX
  5
A89
  8
0
 62
     9
 10
0.0
 20
0.0
 30
0.0
 70
   128
 71
   265
 72
   267
 73
   266
  0
VERTEX
  5
A8A
  8
0
 62
     9
 10
0.0
 20
0.0
 30
0.0
 70
   128
 71
   265
 72
   262
 73
   224
  0
VERTEX
  5
A8B
  8
0
 62
     9
 10
0.0
 20
0.0
 30
0.0
 70
   128
 71
   262
 72
   242
 73
   240
  0
VERTEX
  5
A8C
  8
0
 62
     9
 10
0.0
 20
0.0
 30
0.0
 70
   128
 71
   224
 72
   225
 73
   264
  0
VERTEX
  5
A8D
  8
0
 62
     9
 10
0.0
 20
0.0
 30
0.0
 70
   128
 71
   262
 72
   266
 73
   243
  0
VERTEX
  5
A8E
  8
0
 62
     9
 10
0.0
 20
0.0
 30
0.0
 70
   128
 71
   259
 72
   263
 73
   261
  0
VERTEX
  5
A8F
  8
0
 62
     9
 10
0.0
 20
0.0
 30
0.0
 70
   128
 71
   257
 72
   254
 73
   245
  0
VERTEX
  5
A90
  8
0
 62
     9
 10
0.0
 20
0.0
 30
0.0
 70
   128
 71
   252
 72
   256
 73
    18
  0
VERTEX
  5
A91
  8
0
 62
     9
 10
0.0
 20
0.0
 30
0.0
 70
   128
 71
   251
 72
   252
 73
    30
  0
VERTEX
  5
A92
  8
0
 62
     9
 10
0.0
 20
0.0
 30
0.0
 70
   128
 71
   252
 72
   253
 73
   255
  0
VERTEX
  5
A93
  8
0
 62
     9
 10
0.0
 20
0.0
 30
0.0
 70
   128
 71
   247
 72
   254
 73
   255
  0
VERTEX
  5
A94
  8
0
 62
     9
 10
0.0
 20
0.0
 30
0.0
 70
   128
 71
   246
 72
   247
 73
   253
  0
VERTEX
  5
A95
  8
0
 62
     9
 10
0.0
 20
0.0
 30
0.0
 70
   128
 71
   247
 72
   244
 73
   245
  0
VERTEX
  5
A96
  8
0
 62
     9
 10
0.0
 20
0.0
 30
0.0
 70
   128
 71
   251
 72
   250
 73
   253
  0
VERTEX
  5
A97
  8
0
 62
     9
 10
0.0
 20
0.0
 30
0.0
 70
   128
 71
   248
 72
   251
 73
    23
  0
VERTEX
  5
A98
  8
0
 62
     9
 10
0.0
 20
0.0
 30
0.0
 70
   128
 71
   223
 72
   248
 73
    27
  0
VERTEX
  5
A99
  8
0
 62
     9
 10
0.0
 20
0.0
 30
0.0
 70
   128
 71
   248
 72
   249
 73
   250
  0
VERTEX
  5
A9A
  8
0
 62
     9
 10
0.0
 20
0.0
 30
0.0
 70
   128
 71
   227
 72
   246
 73
   250
  0
VERTEX
  5
A9B
  8
0
 62
     9
 10
0.0
 20
0.0
 30
0.0
 70
   128
 71
   219
 72
   227
 73
   249
  0
VERTEX
  5
A9C
  8
0
 62
     9
 10
0.0
 20
0.0
 30
0.0
 70
   128
 71
   227
 72
   228
 73
   238
  0
VERTEX
  5
A9D
  8
0
 62
     9
 10
0.0
 20
0.0
 30
0.0
 70
   128
 71
   223
 72
   220
 73
   249
  0
VERTEX
  5
A9E
  8
0
 62
     9
 10
0.0
 20
0.0
 30
0.0
 70
   128
 71
   246
 72
   238
 73
   244
  0
VERTEX
  5
A9F
  8
0
 62
     9
 10
0.0
 20
0.0
 30
0.0
 70
   128
 71
   239
 72
   243
 73
   245
  0
VERTEX
  5
AA0
  8
0
 62
     9
 10
0.0
 20
0.0
 30
0.0
 70
   128
 71
   237
 72
   239
 73
   244
  0
VERTEX
  5
AA1
  8
0
 62
     9
 10
0.0
 20
0.0
 30
0.0
 70
   128
 71
   241
 72
   242
 73
   243
  0
VERTEX
  5
AA2
  8
0
 62
     9
 10
0.0
 20
0.0
 30
0.0
 70
   128
 71
   241
 72
   230
 73
   240
  0
VERTEX
  5
AA3
  8
0
 62
     9
 10
0.0
 20
0.0
 30
0.0
 70
   128
 71
   236
 72
   229
 73
   230
  0
VERTEX
  5
AA4
  8
0
 62
     9
 10
0.0
 20
0.0
 30
0.0
 70
   128
 71
   230
 72
   232
 73
   226
  0
VERTEX
  5
AA5
  8
0
 62
     9
 10
0.0
 20
0.0
 30
0.0
 70
   128
 71
   236
 72
   241
 73
   239
  0
VERTEX
  5
AA6
  8
0
 62
     9
 10
0.0
 20
0.0
 30
0.0
 70
   128
 71
   233
 72
   237
 73
   238
  0
VERTEX
  5
AA7
  8
0
 62
     9
 10
0.0
 20
0.0
 30
0.0
 70
   128
 71
   196
 72
   233
 73
   228
  0
VERTEX
  5
AA8
  8
0
 62
     9
 10
0.0
 20
0.0
 30
0.0
 70
   128
 71
   235
 72
   236
 73
   237
  0
VERTEX
  5
AA9
  8
0
 62
     9
 10
0.0
 20
0.0
 30
0.0
 70
   128
 71
   235
 72
     7
 73
   229
  0
VERTEX
  5
AAA
  8
0
 62
     9
 10
0.0
 20
0.0
 30
0.0
 70
   128
 71
   189
 72
    10
 73
     7
  0
VERTEX
  5
AAB
  8
0
 62
     9
 10
0.0
 20
0.0
 30
0.0
 70
   128
 71
     7
 72
     8
 73
   234
  0
VERTEX
  5
AAC
  8
0
 62
     9
 10
0.0
 20
0.0
 30
0.0
 70
   128
 71
   189
 72
   235
 73
   233
  0
VERTEX
  5
AAD
  8
0
 62
     9
 10
0.0
 20
0.0
 30
0.0
 70
   128
 71
   229
 72
   234
 73
   231
  0
VERTEX
  5
AAE
  8
0
 62
     9
 10
0.0
 20
0.0
 30
0.0
 70
   128
 71
   219
 72
   197
 73
   228
  0
VERTEX
  5
AAF
  8
0
 62
     9
 10
0.0
 20
0.0
 30
0.0
 70
   128
 71
   224
 72
   240
 73
   226
  0
VERTEX
  5
AB0
  8
0
 62
     9
 10
0.0
 20
0.0
 30
0.0
 70
   128
 71
   222
 72
   223
 73
     1
  0
VERTEX
  5
AB1
  8
0
 62
     9
 10
0.0
 20
0.0
 30
0.0
 70
   128
 71
   222
 72
   218
 73
   220
  0
VERTEX
  5
AB2
  8
0
 62
     9
 10
0.0
 20
0.0
 30
0.0
 70
   128
 71
   221
 72
   222
 73
   141
  0
VERTEX
  5
AB3
  8
0
 62
     9
 10
0.0
 20
0.0
 30
0.0
 70
   128
 71
   213
 72
   221
 73
   130
  0
VERTEX
  5
AB4
  8
0
 62
     9
 10
0.0
 20
0.0
 30
0.0
 70
   128
 71
   213
 72
   214
 73
   217
  0
VERTEX
  5
AB5
  8
0
 62
     9
 10
0.0
 20
0.0
 30
0.0
 70
   128
 71
   211
 72
   213
 73
   135
  0
VERTEX
  5
AB6
  8
0
 62
     9
 10
0.0
 20
0.0
 30
0.0
 70
   128
 71
   221
 72
   217
 73
   218
  0
VERTEX
  5
AB7
  8
0
 62
     9
 10
0.0
 20
0.0
 30
0.0
 70
   128
 71
   216
 72
   219
 73
   220
  0
VERTEX
  5
AB8
  8
0
 62
     9
 10
0.0
 20
0.0
 30
0.0
 70
   128
 71
   216
 72
   195
 73
   197
  0
VERTEX
  5
AB9
  8
0
 62
     9
 10
0.0
 20
0.0
 30
0.0
 70
   128
 71
   215
 72
   216
 73
   218
  0
VERTEX
  5
ABA
  8
0
 62
     9
 10
0.0
 20
0.0
 30
0.0
 70
   128
 71
   199
 72
   215
 73
   217
  0
VERTEX
  5
ABB
  8
0
 62
     9
 10
0.0
 20
0.0
 30
0.0
 70
   128
 71
   199
 72
   193
 73
   194
  0
VERTEX
  5
ABC
  8
0
 62
     9
 10
0.0
 20
0.0
 30
0.0
 70
   128
 71
   198
 72
   199
 73
   214
  0
VERTEX
  5
ABD
  8
0
 62
     9
 10
0.0
 20
0.0
 30
0.0
 70
   128
 71
   215
 72
   194
 73
   195
  0
VERTEX
  5
ABE
  8
0
 62
     9
 10
0.0
 20
0.0
 30
0.0
 70
   128
 71
   211
 72
   212
 73
   214
  0
VERTEX
  5
ABF
  8
0
 62
     9
 10
0.0
 20
0.0
 30
0.0
 70
   128
 71
   211
 72
    93
 73
    98
  0
VERTEX
  5
AC0
  8
0
 62
     9
 10
0.0
 20
0.0
 30
0.0
 70
   128
 71
   211
 72
   208
 73
   207
  0
VERTEX
  5
AC1
  8
0
 62
     9
 10
0.0
 20
0.0
 30
0.0
 70
   128
 71
   208
 72
    98
 73
    99
  0
VERTEX
  5
AC2
  8
0
 62
     9
 10
0.0
 20
0.0
 30
0.0
 70
   128
 71
   210
 72
    99
 73
     4
  0
VERTEX
  5
AC3
  8
0
 62
     9
 10
0.0
 20
0.0
 30
0.0
 70
   128
 71
   210
 72
   200
 73
   201
  0
VERTEX
  5
AC4
  8
0
 62
     9
 10
0.0
 20
0.0
 30
0.0
 70
   128
 71
   200
 72
     4
 73
     5
  0
VERTEX
  5
AC5
  8
0
 62
     9
 10
0.0
 20
0.0
 30
0.0
 70
   128
 71
   208
 72
   210
 73
   206
  0
VERTEX
  5
AC6
  8
0
 62
     9
 10
0.0
 20
0.0
 30
0.0
 70
   128
 71
   198
 72
   212
 73
   207
  0
VERTEX
  5
AC7
  8
0
 62
     9
 10
0.0
 20
0.0
 30
0.0
 70
   128
 71
   198
 72
   203
 73
   180
  0
VERTEX
  5
AC8
  8
0
 62
     9
 10
0.0
 20
0.0
 30
0.0
 70
   128
 71
   203
 72
   207
 73
   206
  0
VERTEX
  5
AC9
  8
0
 62
     9
 10
0.0
 20
0.0
 30
0.0
 70
   128
 71
   205
 72
   206
 73
   201
  0
VERTEX
  5
ACA
  8
0
 62
     9
 10
0.0
 20
0.0
 30
0.0
 70
   128
 71
   205
 72
   156
 73
   157
  0
VERTEX
  5
ACB
  8
0
 62
     9
 10
0.0
 20
0.0
 30
0.0
 70
   128
 71
   156
 72
   201
 73
   202
  0
VERTEX
  5
ACC
  8
0
 62
     9
 10
0.0
 20
0.0
 30
0.0
 70
   128
 71
   203
 72
   205
 73
   178
  0
VERTEX
  5
ACD
  8
0
 62
     9
 10
0.0
 20
0.0
 30
0.0
 70
   128
 71
   200
 72
   209
 73
   202
  0
VERTEX
  5
ACE
  8
0
 62
     9
 10
0.0
 20
0.0
 30
0.0
 70
   128
 71
   198
 72
   192
 73
   193
  0
VERTEX
  5
ACF
  8
0
 62
     9
 10
0.0
 20
0.0
 30
0.0
 70
   128
 71
   191
 72
   196
 73
   197
  0
VERTEX
  5
AD0
  8
0
 62
     9
 10
0.0
 20
0.0
 30
0.0
 70
   128
 71
   188
 72
   189
 73
   196
  0
VERTEX
  5
AD1
  8
0
 62
     9
 10
0.0
 20
0.0
 30
0.0
 70
   128
 71
   190
 72
   191
 73
   195
  0
VERTEX
  5
AD2
  8
0
 62
     9
 10
0.0
 20
0.0
 30
0.0
 70
   128
 71
   181
 72
   190
 73
   194
  0
VERTEX
  5
AD3
  8
0
 62
     9
 10
0.0
 20
0.0
 30
0.0
 70
   128
 71
   186
 72
   187
 73
   190
  0
VERTEX
  5
AD4
  8
0
 62
     9
 10
0.0
 20
0.0
 30
0.0
 70
   128
 71
   179
 72
   181
 73
   193
  0
VERTEX
  5
AD5
  8
0
 62
     9
 10
0.0
 20
0.0
 30
0.0
 70
   128
 71
   187
 72
   188
 73
   191
  0
VERTEX
  5
AD6
  8
0
 62
     9
 10
0.0
 20
0.0
 30
0.0
 70
   128
 71
   188
 72
   183
 73
    10
  0
VERTEX
  5
AD7
  8
0
 62
     9
 10
0.0
 20
0.0
 30
0.0
 70
   128
 71
   184
 72
   281
 73
    10
  0
VERTEX
  5
AD8
  8
0
 62
     9
 10
0.0
 20
0.0
 30
0.0
 70
   128
 71
   187
 72
   182
 73
   183
  0
VERTEX
  5
AD9
  8
0
 62
     9
 10
0.0
 20
0.0
 30
0.0
 70
   128
 71
   186
 72
   160
 73
   182
  0
VERTEX
  5
ADA
  8
0
 62
     9
 10
0.0
 20
0.0
 30
0.0
 70
   128
 71
   161
 72
   282
 73
   182
  0
VERTEX
  5
ADB
  8
0
 62
     9
 10
0.0
 20
0.0
 30
0.0
 70
   128
 71
   174
 72
   159
 73
   160
  0
VERTEX
  5
ADC
  8
0
 62
     9
 10
0.0
 20
0.0
 30
0.0
 70
   128
 71
   182
 72
   282
 73
   185
  0
VERTEX
  5
ADD
  8
0
 62
     9
 10
0.0
 20
0.0
 30
0.0
 70
   128
 71
   174
 72
   186
 73
   181
  0
VERTEX
  5
ADE
  8
0
 62
     9
 10
0.0
 20
0.0
 30
0.0
 70
   128
 71
   179
 72
   192
 73
   180
  0
VERTEX
  5
ADF
  8
0
 62
     9
 10
0.0
 20
0.0
 30
0.0
 70
   128
 71
   174
 72
   179
 73
   177
  0
VERTEX
  5
AE0
  8
0
 62
     9
 10
0.0
 20
0.0
 30
0.0
 70
   128
 71
   177
 72
   180
 73
   178
  0
VERTEX
  5
AE1
  8
0
 62
     9
 10
0.0
 20
0.0
 30
0.0
 70
   128
 71
   175
 72
   178
 73
   157
  0
VERTEX
  5
AE2
  8
0
 62
     9
 10
0.0
 20
0.0
 30
0.0
 70
   128
 71
   170
 72
   175
 73
   176
  0
VERTEX
  5
AE3
  8
0
 62
     9
 10
0.0
 20
0.0
 30
0.0
 70
   128
 71
   176
 72
   157
 73
   158
  0
VERTEX
  5
AE4
  8
0
 62
     9
 10
0.0
 20
0.0
 30
0.0
 70
   128
 71
   171
 72
   177
 73
   175
  0
VERTEX
  5
AE5
  8
0
 62
     9
 10
0.0
 20
0.0
 30
0.0
 70
   128
 71
   174
 72
   171
 73
   172
  0
VERTEX
  5
AE6
  8
0
 62
     9
 10
0.0
 20
0.0
 30
0.0
 70
   128
 71
   159
 72
   172
 73
   165
  0
VERTEX
  5
AE7
  8
0
 62
     9
 10
0.0
 20
0.0
 30
0.0
 70
   128
 71
   171
 72
   170
 73
   167
  0
VERTEX
  5
AE8
  8
0
 62
     9
 10
0.0
 20
0.0
 30
0.0
 70
   128
 71
   170
 72
   162
 73
   168
  0
VERTEX
  5
AE9
  8
0
 62
     9
 10
0.0
 20
0.0
 30
0.0
 70
   128
 71
   167
 72
   168
 73
    11
  0
VERTEX
  5
AEA
  8
0
 62
     9
 10
0.0
 20
0.0
 30
0.0
 70
   128
 71
   162
 72
   163
 73
    13
  0
VERTEX
  5
AEB
  8
0
 62
     9
 10
0.0
 20
0.0
 30
0.0
 70
   128
 71
   165
 72
   172
 73
   167
  0
VERTEX
  5
AEC
  8
0
 62
     9
 10
0.0
 20
0.0
 30
0.0
 70
   128
 71
   162
 72
   176
 73
   164
  0
VERTEX
  5
AED
  8
0
 62
     9
 10
0.0
 20
0.0
 30
0.0
 70
   128
 71
   159
 72
   173
 73
   161
  0
VERTEX
  5
AEE
  8
0
 62
     9
 10
0.0
 20
0.0
 30
0.0
 70
   128
 71
   156
 72
   204
 73
   158
  0
VERTEX
  5
AEF
  8
0
 62
     9
 10
0.0
 20
0.0
 30
0.0
 70
   128
 71
   155
 72
   152
 73
    56
  0
VERTEX
  5
AF0
  8
0
 62
     9
 10
0.0
 20
0.0
 30
0.0
 70
   128
 71
   148
 72
   152
 73
   155
  0
VERTEX
  5
AF1
  8
0
 62
     9
 10
0.0
 20
0.0
 30
0.0
 70
   128
 71
   152
 72
   153
 73
    61
  0
VERTEX
  5
AF2
  8
0
 62
     9
 10
0.0
 20
0.0
 30
0.0
 70
   128
 71
   153
 72
   144
 73
    14
  0
VERTEX
  5
AF3
  8
0
 62
     9
 10
0.0
 20
0.0
 30
0.0
 70
   128
 71
   147
 72
   143
 73
   144
  0
VERTEX
  5
AF4
  8
0
 62
     9
 10
0.0
 20
0.0
 30
0.0
 70
   128
 71
   144
 72
   142
 73
    34
  0
VERTEX
  5
AF5
  8
0
 62
     9
 10
0.0
 20
0.0
 30
0.0
 70
   128
 71
   148
 72
   147
 73
   153
  0
VERTEX
  5
AF6
  8
0
 62
     9
 10
0.0
 20
0.0
 30
0.0
 70
   128
 71
   150
 72
   145
 73
   148
  0
VERTEX
  5
AF7
  8
0
 62
     9
 10
0.0
 20
0.0
 30
0.0
 70
   128
 71
   126
 72
   145
 73
   150
  0
VERTEX
  5
AF8
  8
0
 62
     9
 10
0.0
 20
0.0
 30
0.0
 70
   128
 71
   145
 72
   146
 73
   147
  0
VERTEX
  5
AF9
  8
0
 62
     9
 10
0.0
 20
0.0
 30
0.0
 70
   128
 71
   146
 72
   128
 73
   143
  0
VERTEX
  5
AFA
  8
0
 62
     9
 10
0.0
 20
0.0
 30
0.0
 70
   128
 71
   125
 72
   123
 73
   128
  0
VERTEX
  5
AFB
  8
0
 62
     9
 10
0.0
 20
0.0
 30
0.0
 70
   128
 71
   128
 72
   129
 73
   138
  0
VERTEX
  5
AFC
  8
0
 62
     9
 10
0.0
 20
0.0
 30
0.0
 70
   128
 71
   126
 72
   125
 73
   146
  0
VERTEX
  5
AFD
  8
0
 62
     9
 10
0.0
 20
0.0
 30
0.0
 70
   128
 71
   143
 72
   138
 73
   142
  0
VERTEX
  5
AFE
  8
0
 62
     9
 10
0.0
 20
0.0
 30
0.0
 70
   128
 71
   139
 72
    20
 73
    34
  0
VERTEX
  5
AFF
  8
0
 62
     9
 10
0.0
 20
0.0
 30
0.0
 70
   128
 71
   137
 72
   139
 73
   142
  0
VERTEX
  5
B00
  8
0
 62
     9
 10
0.0
 20
0.0
 30
0.0
 70
   128
 71
   139
 72
   140
 73
    26
  0
VERTEX
  5
B01
  8
0
 62
     9
 10
0.0
 20
0.0
 30
0.0
 70
   128
 71
   132
 72
     2
 73
    26
  0
VERTEX
  5
B02
  8
0
 62
     9
 10
0.0
 20
0.0
 30
0.0
 70
   128
 71
   131
 72
   132
 73
   140
  0
VERTEX
  5
B03
  8
0
 62
     9
 10
0.0
 20
0.0
 30
0.0
 70
   128
 71
   141
 72
     1
 73
     2
  0
VERTEX
  5
B04
  8
0
 62
     9
 10
0.0
 20
0.0
 30
0.0
 70
   128
 71
   137
 72
   136
 73
   140
  0
VERTEX
  5
B05
  8
0
 62
     9
 10
0.0
 20
0.0
 30
0.0
 70
   128
 71
   133
 72
   137
 73
   138
  0
VERTEX
  5
B06
  8
0
 62
     9
 10
0.0
 20
0.0
 30
0.0
 70
   128
 71
   109
 72
   133
 73
   129
  0
VERTEX
  5
B07
  8
0
 62
     9
 10
0.0
 20
0.0
 30
0.0
 70
   128
 71
   133
 72
   134
 73
   136
  0
VERTEX
  5
B08
  8
0
 62
     9
 10
0.0
 20
0.0
 30
0.0
 70
   128
 71
    95
 72
   131
 73
   136
  0
VERTEX
  5
B09
  8
0
 62
     9
 10
0.0
 20
0.0
 30
0.0
 70
   128
 71
    94
 72
    95
 73
   134
  0
VERTEX
  5
B0A
  8
0
 62
     9
 10
0.0
 20
0.0
 30
0.0
 70
   128
 71
   135
 72
   130
 73
   131
  0
VERTEX
  5
B0B
  8
0
 62
     9
 10
0.0
 20
0.0
 30
0.0
 70
   128
 71
   109
 72
   110
 73
   134
  0
VERTEX
  5
B0C
  8
0
 62
     9
 10
0.0
 20
0.0
 30
0.0
 70
   128
 71
   130
 72
   141
 73
   132
  0
VERTEX
  5
B0D
  8
0
 62
     9
 10
0.0
 20
0.0
 30
0.0
 70
   128
 71
   123
 72
   124
 73
   129
  0
VERTEX
  5
B0E
  8
0
 62
     9
 10
0.0
 20
0.0
 30
0.0
 70
   128
 71
   126
 72
   149
 73
   127
  0
VERTEX
  5
B0F
  8
0
 62
     9
 10
0.0
 20
0.0
 30
0.0
 70
   128
 71
   127
 72
   283
 73
   118
  0
VERTEX
  5
B10
  8
0
 62
     9
 10
0.0
 20
0.0
 30
0.0
 70
   128
 71
   126
 72
   121
 73
   122
  0
VERTEX
  5
B11
  8
0
 62
     9
 10
0.0
 20
0.0
 30
0.0
 70
   128
 71
   125
 72
   122
 73
   113
  0
VERTEX
  5
B12
  8
0
 62
     9
 10
0.0
 20
0.0
 30
0.0
 70
   128
 71
   122
 72
   117
 73
   116
  0
VERTEX
  5
B13
  8
0
 62
     9
 10
0.0
 20
0.0
 30
0.0
 70
   128
 71
   123
 72
   113
 73
   112
  0
VERTEX
  5
B14
  8
0
 62
     9
 10
0.0
 20
0.0
 30
0.0
 70
   128
 71
   121
 72
   118
 73
   117
  0
VERTEX
  5
B15
  8
0
 62
     9
 10
0.0
 20
0.0
 30
0.0
 70
   128
 71
   118
 72
   283
 73
   120
  0
VERTEX
  5
B16
  8
0
 62
     9
 10
0.0
 20
0.0
 30
0.0
 70
   128
 71
   119
 72
   284
 73
    90
  0
VERTEX
  5
B17
  8
0
 62
     9
 10
0.0
 20
0.0
 30
0.0
 70
   128
 71
   118
 72
   114
 73
   115
  0
VERTEX
  5
B18
  8
0
 62
     9
 10
0.0
 20
0.0
 30
0.0
 70
   128
 71
   117
 72
   115
 73
    96
  0
VERTEX
  5
B19
  8
0
 62
     9
 10
0.0
 20
0.0
 30
0.0
 70
   128
 71
   115
 72
    84
 73
    82
  0
VERTEX
  5
B1A
  8
0
 62
     9
 10
0.0
 20
0.0
 30
0.0
 70
   128
 71
   116
 72
    96
 73
    97
  0
VERTEX
  5
B1B
  8
0
 62
     9
 10
0.0
 20
0.0
 30
0.0
 70
   128
 71
   114
 72
    90
 73
    84
  0
VERTEX
  5
B1C
  8
0
 62
     9
 10
0.0
 20
0.0
 30
0.0
 70
   128
 71
   113
 72
   116
 73
   111
  0
VERTEX
  5
B1D
  8
0
 62
     9
 10
0.0
 20
0.0
 30
0.0
 70
   128
 71
   109
 72
   124
 73
   112
  0
VERTEX
  5
B1E
  8
0
 62
     9
 10
0.0
 20
0.0
 30
0.0
 70
   128
 71
   106
 72
   112
 73
   111
  0
VERTEX
  5
B1F
  8
0
 62
     9
 10
0.0
 20
0.0
 30
0.0
 70
   128
 71
   109
 72
   106
 73
   107
  0
VERTEX
  5
B20
  8
0
 62
     9
 10
0.0
 20
0.0
 30
0.0
 70
   128
 71
    94
 72
   110
 73
   107
  0
VERTEX
  5
B21
  8
0
 62
     9
 10
0.0
 20
0.0
 30
0.0
 70
   128
 71
   108
 72
   107
 73
   105
  0
VERTEX
  5
B22
  8
0
 62
     9
 10
0.0
 20
0.0
 30
0.0
 70
   128
 71
    93
 72
    94
 73
   108
  0
VERTEX
  5
B23
  8
0
 62
     9
 10
0.0
 20
0.0
 30
0.0
 70
   128
 71
   106
 72
   104
 73
   105
  0
VERTEX
  5
B24
  8
0
 62
     9
 10
0.0
 20
0.0
 30
0.0
 70
   128
 71
   104
 72
   111
 73
    97
  0
VERTEX
  5
B25
  8
0
 62
     9
 10
0.0
 20
0.0
 30
0.0
 70
   128
 71
   101
 72
    97
 73
    83
  0
VERTEX
  5
B26
  8
0
 62
     9
 10
0.0
 20
0.0
 30
0.0
 70
   128
 71
   104
 72
   101
 73
   102
  0
VERTEX
  5
B27
  8
0
 62
     9
 10
0.0
 20
0.0
 30
0.0
 70
   128
 71
   100
 72
   105
 73
   102
  0
VERTEX
  5
B28
  8
0
 62
     9
 10
0.0
 20
0.0
 30
0.0
 70
   128
 71
   103
 72
   102
 73
    53
  0
VERTEX
  5
B29
  8
0
 62
     9
 10
0.0
 20
0.0
 30
0.0
 70
   128
 71
    99
 72
   100
 73
   103
  0
VERTEX
  5
B2A
  8
0
 62
     9
 10
0.0
 20
0.0
 30
0.0
 70
   128
 71
   101
 72
    52
 73
    53
  0
VERTEX
  5
B2B
  8
0
 62
     9
 10
0.0
 20
0.0
 30
0.0
 70
   128
 71
    98
 72
   108
 73
   100
  0
VERTEX
  5
B2C
  8
0
 62
     9
 10
0.0
 20
0.0
 30
0.0
 70
   128
 71
    96
 72
    82
 73
    83
  0
VERTEX
  5
B2D
  8
0
 62
     9
 10
0.0
 20
0.0
 30
0.0
 70
   128
 71
    93
 72
   135
 73
    95
  0
VERTEX
  5
B2E
  8
0
 62
     9
 10
0.0
 20
0.0
 30
0.0
 70
   128
 71
    90
 72
   284
 73
    92
  0
VERTEX
  5
B2F
  8
0
 62
     9
 10
0.0
 20
0.0
 30
0.0
 70
   128
 71
    90
 72
    85
 73
    81
  0
VERTEX
  5
B30
  8
0
 62
     9
 10
0.0
 20
0.0
 30
0.0
 70
   128
 71
    85
 72
    91
 73
    89
  0
VERTEX
  5
B31
  8
0
 62
     9
 10
0.0
 20
0.0
 30
0.0
 70
   128
 71
    86
 72
    89
 73
    87
  0
VERTEX
  5
B32
  8
0
 62
     9
 10
0.0
 20
0.0
 30
0.0
 70
   128
 71
    86
 72
    76
 73
    77
  0
VERTEX
  5
B33
  8
0
 62
     9
 10
0.0
 20
0.0
 30
0.0
 70
   128
 71
    76
 72
    88
 73
    75
  0
VERTEX
  5
B34
  8
0
 62
     9
 10
0.0
 20
0.0
 30
0.0
 70
   128
 71
    85
 72
    86
 73
    80
  0
VERTEX
  5
B35
  8
0
 62
     9
 10
0.0
 20
0.0
 30
0.0
 70
   128
 71
    84
 72
    81
 73
    78
  0
VERTEX
  5
B36
  8
0
 62
     9
 10
0.0
 20
0.0
 30
0.0
 70
   128
 71
    82
 72
    78
 73
    54
  0
VERTEX
  5
B37
  8
0
 62
     9
 10
0.0
 20
0.0
 30
0.0
 70
   128
 71
    81
 72
    80
 73
    79
  0
VERTEX
  5
B38
  8
0
 62
     9
 10
0.0
 20
0.0
 30
0.0
 70
   128
 71
    80
 72
    77
 73
    55
  0
VERTEX
  5
B39
  8
0
 62
     9
 10
0.0
 20
0.0
 30
0.0
 70
   128
 71
    79
 72
    55
 73
    50
  0
VERTEX
  5
B3A
  8
0
 62
     9
 10
0.0
 20
0.0
 30
0.0
 70
   128
 71
    77
 72
    65
 73
    64
  0
VERTEX
  5
B3B
  8
0
 62
     9
 10
0.0
 20
0.0
 30
0.0
 70
   128
 71
    78
 72
    79
 73
    51
  0
VERTEX
  5
B3C
  8
0
 62
     9
 10
0.0
 20
0.0
 30
0.0
 70
   128
 71
    76
 72
    73
 73
    65
  0
VERTEX
  5
B3D
  8
0
 62
     9
 10
0.0
 20
0.0
 30
0.0
 70
   128
 71
    67
 72
    73
 73
    75
  0
VERTEX
  5
B3E
  8
0
 62
     9
 10
0.0
 20
0.0
 30
0.0
 70
   128
 71
    67
 72
    63
 73
    65
  0
VERTEX
  5
B3F
  8
0
 62
     9
 10
0.0
 20
0.0
 30
0.0
 70
   128
 71
    67
 72
    74
 73
    72
  0
VERTEX
  5
B40
  8
0
 62
     9
 10
0.0
 20
0.0
 30
0.0
 70
   128
 71
    57
 72
    66
 73
    71
  0
VERTEX
  5
B41
  8
0
 62
     9
 10
0.0
 20
0.0
 30
0.0
 70
   128
 71
    57
 72
    58
 73
    62
  0
VERTEX
  5
B42
  8
0
 62
     9
 10
0.0
 20
0.0
 30
0.0
 70
   128
 71
    57
 72
    70
 73
    68
  0
VERTEX
  5
B43
  8
0
 62
     9
 10
0.0
 20
0.0
 30
0.0
 70
   128
 71
    66
 72
    62
 73
    63
  0
VERTEX
  5
B44
  8
0
 62
     9
 10
0.0
 20
0.0
 30
0.0
 70
   128
 71
    63
 72
    60
 73
    64
  0
VERTEX
  5
B45
  8
0
 62
     9
 10
0.0
 20
0.0
 30
0.0
 70
   128
 71
    60
 72
    36
 73
    38
  0
VERTEX
  5
B46
  8
0
 62
     9
 10
0.0
 20
0.0
 30
0.0
 70
   128
 71
    62
 72
    59
 73
    60
  0
VERTEX
  5
B47
  8
0
 62
     9
 10
0.0
 20
0.0
 30
0.0
 70
   128
 71
    58
 72
    15
 73
    59
  0
VERTEX
  5
B48
  8
0
 62
     9
 10
0.0
 20
0.0
 30
0.0
 70
   128
 71
    15
 72
    16
 73
    35
  0
VERTEX
  5
B49
  8
0
 62
     9
 10
0.0
 20
0.0
 30
0.0
 70
   128
 71
    61
 72
    14
 73
    15
  0
VERTEX
  5
B4A
  8
0
 62
     9
 10
0.0
 20
0.0
 30
0.0
 70
   128
 71
    59
 72
    35
 73
    36
  0
VERTEX
  5
B4B
  8
0
 62
     9
 10
0.0
 20
0.0
 30
0.0
 70
   128
 71
    56
 72
    61
 73
    58
  0
VERTEX
  5
B4C
  8
0
 62
     9
 10
0.0
 20
0.0
 30
0.0
 70
   128
 71
    55
 72
    64
 73
    38
  0
VERTEX
  5
B4D
  8
0
 62
     9
 10
0.0
 20
0.0
 30
0.0
 70
   128
 71
    52
 72
    83
 73
    54
  0
VERTEX
  5
B4E
  8
0
 62
     9
 10
0.0
 20
0.0
 30
0.0
 70
   128
 71
    52
 72
    48
 73
    47
  0
VERTEX
  5
B4F
  8
0
 62
     9
 10
0.0
 20
0.0
 30
0.0
 70
   128
 71
    48
 72
    54
 73
    51
  0
VERTEX
  5
B50
  8
0
 62
     9
 10
0.0
 20
0.0
 30
0.0
 70
   128
 71
    49
 72
    51
 73
    50
  0
VERTEX
  5
B51
  8
0
 62
     9
 10
0.0
 20
0.0
 30
0.0
 70
   128
 71
    49
 72
    39
 73
    40
  0
VERTEX
  5
B52
  8
0
 62
     9
 10
0.0
 20
0.0
 30
0.0
 70
   128
 71
    39
 72
    50
 73
    38
  0
VERTEX
  5
B53
  8
0
 62
     9
 10
0.0
 20
0.0
 30
0.0
 70
   128
 71
    48
 72
    49
 73
    46
  0
VERTEX
  5
B54
  8
0
 62
     9
 10
0.0
 20
0.0
 30
0.0
 70
   128
 71
     6
 72
    53
 73
    47
  0
VERTEX
  5
B55
  8
0
 62
     9
 10
0.0
 20
0.0
 30
0.0
 70
   128
 71
     5
 72
     6
 73
    45
  0
VERTEX
  5
B56
  8
0
 62
     9
 10
0.0
 20
0.0
 30
0.0
 70
   128
 71
    45
 72
    47
 73
    46
  0
VERTEX
  5
B57
  8
0
 62
     9
 10
0.0
 20
0.0
 30
0.0
 70
   128
 71
    43
 72
    46
 73
    40
  0
VERTEX
  5
B58
  8
0
 62
     9
 10
0.0
 20
0.0
 30
0.0
 70
   128
 71
    42
 72
    43
 73
    44
  0
VERTEX
  5
B59
  8
0
 62
     9
 10
0.0
 20
0.0
 30
0.0
 70
   128
 71
    44
 72
    40
 73
    31
  0
VERTEX
  5
B5A
  8
0
 62
     9
 10
0.0
 20
0.0
 30
0.0
 70
   128
 71
    41
 72
    45
 73
    43
  0
VERTEX
  5
B5B
  8
0
 62
     9
 10
0.0
 20
0.0
 30
0.0
 70
   128
 71
    39
 72
    37
 73
    31
  0
VERTEX
  5
B5C
  8
0
 62
     9
 10
0.0
 20
0.0
 30
0.0
 70
   128
 71
    33
 72
    37
 73
    38
  0
VERTEX
  5
B5D
  8
0
 62
     9
 10
0.0
 20
0.0
 30
0.0
 70
   128
 71
    33
 72
    29
 73
    31
  0
VERTEX
  5
B5E
  8
0
 62
     9
 10
0.0
 20
0.0
 30
0.0
 70
   128
 71
    32
 72
    33
 73
    36
  0
VERTEX
  5
B5F
  8
0
 62
     9
 10
0.0
 20
0.0
 30
0.0
 70
   128
 71
    21
 72
    32
 73
    35
  0
VERTEX
  5
B60
  8
0
 62
     9
 10
0.0
 20
0.0
 30
0.0
 70
   128
 71
    21
 72
    22
 73
    28
  0
VERTEX
  5
B61
  8
0
 62
     9
 10
0.0
 20
0.0
 30
0.0
 70
   128
 71
    20
 72
    21
 73
    16
  0
VERTEX
  5
B62
  8
0
 62
     9
 10
0.0
 20
0.0
 30
0.0
 70
   128
 71
    32
 72
    28
 73
    29
  0
VERTEX
  5
B63
  8
0
 62
     9
 10
0.0
 20
0.0
 30
0.0
 70
   128
 71
    25
 72
    19
 73
    31
  0
VERTEX
  5
B64
  8
0
 62
     9
 10
0.0
 20
0.0
 30
0.0
 70
   128
 71
    30
 72
    18
 73
    19
  0
VERTEX
  5
B65
  8
0
 62
     9
 10
0.0
 20
0.0
 30
0.0
 70
   128
 71
    24
 72
    25
 73
    29
  0
VERTEX
  5
B66
  8
0
 62
     9
 10
0.0
 20
0.0
 30
0.0
 70
   128
 71
     3
 72
    24
 73
    28
  0
VERTEX
  5
B67
  8
0
 62
     9
 10
0.0
 20
0.0
 30
0.0
 70
   128
 71
    27
 72
    23
 73
    24
  0
VERTEX
  5
B68
  8
0
 62
     9
 10
0.0
 20
0.0
 30
0.0
 70
   128
 71
     2
 72
     3
 73
    22
  0
VERTEX
  5
B69
  8
0
 62
     9
 10
0.0
 20
0.0
 30
0.0
 70
   128
 71
    23
 72
    30
 73
    25
  0
VERTEX
  5
B6A
  8
0
 62
     9
 10
0.0
 20
0.0
 30
0.0
 70
   128
 71
    20
 72
    26
 73
    22
  0
VERTEX
  5
B6B
  8
0
 62
     9
 10
0.0
 20
0.0
 30
0.0
 70
   128
 71
    17
 72
    44
 73
    19
  0
VERTEX
  5
B6C
  8
0
 62
     9
 10
0.0
 20
0.0
 30
0.0
 70
   128
 71
    14
 72
    34
 73
    16
  0
VERTEX
  5
B6D
  8
0
 62
     9
 10
0.0
 20
0.0
 30
0.0
 70
   128
 71
    11
 72
   168
 73
    13
  0
VERTEX
  5
B6E
  8
0
 62
     9
 10
0.0
 20
0.0
 30
0.0
 70
   128
 71
    10
 72
   281
 73
     9
  0
VERTEX
  5
B6F
  8
0
 62
     9
 10
0.0
 20
0.0
 30
0.0
 70
   128
 71
     4
 72
   103
 73
     6
  0
VERTEX
  5
B70
  8
0
 62
     9
 10
0.0
 20
0.0
 30
0.0
 70
   128
 71
     1
 72
    27
 73
     3
  0
SEQEND
  5
B71
  8
0
 62
     9
  0
ENDBLK
  5
B74
  8
0
  0
BLOCK
  8
0
  2
E3_NODE_27_
 70
     0
 10
0.0
 20
0.0
 30
0.0
  3
E3_NODE_27_
  1

  0
POLYLINE
  5
B76
  8
0
 62
     9
 66
     1
 10
0.0
 20
0.0
 30
0.0
 70
    64
 71
    30
 72
    30
  0
VERTEX
  5
B77
  8
0
 10
2.003000020980835
 20
-8.680999755859375
 30
51.52700042724609
 70
   192
  0
VERTEX
  5
B78
  8
0
 10
8.109000205993652
 20
-3.812000036239624
 30
51.52700042724609
 70
   192
  0
VERTEX
  5
B79
  8
0
 10
6.363999843597412
 20
-6.270999908447266
 30
146.6670074462891
 70
   192
  0
VERTEX
  5
B7A
  8
0
 10
3.051000118255615
 20
-7.64300012588501
 30
146.6679992675781
 70
   192
  0
VERTEX
  5
B7B
  8
0
 10
7.488999843597412
 20
-3.555000066757202
 30
146.6670074462891
 70
   192
  0
VERTEX
  5
B7C
  8
0
 10
8.109000205993652
 20
3.997999906539917
 30
51.52700042724609
 70
   192
  0
VERTEX
  5
B7D
  8
0
 10
9.0
 20
0.0930000022053719
 30
146.6670074462891
 70
   192
  0
VERTEX
  5
B7E
  8
0
 10
7.736000061035156
 20
-2.95799994468689
 30
146.6670074462891
 70
   192
  0
VERTEX
  5
B7F
  8
0
 10
7.488999843597412
 20
3.740999937057495
 30
146.6670074462891
 70
   192
  0
VERTEX
  5
B80
  8
0
 10
7.736000061035156
 20
3.144000053405762
 30
146.6670074462891
 70
   192
  0
VERTEX
  5
B81
  8
0
 10
2.003000020980835
 20
8.866999626159668
 30
51.52700042724609
 70
   192
  0
VERTEX
  5
B82
  8
0
 10
3.051000118255615
 20
7.828999996185303
 30
146.6679992675781
 70
   192
  0
VERTEX
  5
B83
  8
0
 10
6.363999843597412
 20
6.456999778747559
 30
146.6670074462891
 70
   192
  0
VERTEX
  5
B84
  8
0
 10
1.789000034332275
 20
8.35200023651123
 30
146.6679992675781
 70
   192
  0
VERTEX
  5
B85
  8
0
 10
-5.611000061035156
 20
7.130000114440918
 30
51.52700042724609
 70
   192
  0
VERTEX
  5
B86
  8
0
 10
-3.051000118255615
 20
7.828999996185303
 30
146.6690063476562
 70
   192
  0
VERTEX
  5
B87
  8
0
 10
0.0
 20
9.093000411987305
 30
146.6679992675781
 70
   192
  0
VERTEX
  5
B88
  8
0
 10
-5.484000205993652
 20
6.822000026702881
 30
146.6690063476562
 70
   192
  0
VERTEX
  5
B89
  8
0
 10
-9.0
 20
0.0930000022053719
 30
51.52700042724609
 70
   192
  0
VERTEX
  5
B8A
  8
0
 10
-7.736000061035156
 20
3.144000053405762
 30
146.6690063476562
 70
   192
  0
VERTEX
  5
B8B
  8
0
 10
-6.363999843597412
 20
6.456999778747559
 30
146.6690063476562
 70
   192
  0
VERTEX
  5
B8C
  8
0
 10
-9.0
 20
0.0930000022053719
 30
146.6699981689453
 70
   192
  0
VERTEX
  5
B8D
  8
0
 10
-5.611000061035156
 20
-6.942999839782715
 30
51.52700042724609
 70
   192
  0
VERTEX
  5
B8E
  8
0
 10
-6.363999843597412
 20
-6.270999908447266
 30
146.6690063476562
 70
   192
  0
VERTEX
  5
B8F
  8
0
 10
-7.736000061035156
 20
-2.95799994468689
 30
146.6690063476562
 70
   192
  0
VERTEX
  5
B90
  8
0
 10
-5.484000205993652
 20
-6.635000228881836
 30
146.6690063476562
 70
   192
  0
VERTEX
  5
B91
  8
0
 10
0.0
 20
-8.906999588012695
 30
51.52700042724609
 70
   192
  0
VERTEX
  5
B92
  8
0
 10
1.789000034332275
 20
-8.166000366210938
 30
146.6679992675781
 70
   192
  0
VERTEX
  5
B93
  8
0
 10
0.0
 20
-8.906999588012695
 30
146.6679992675781
 70
   192
  0
VERTEX
  5
B94
  8
0
 10
-3.051000118255615
 20
-7.64300012588501
 30
146.6690063476562
 70
   192
  0
VERTEX
  5
B95
  8
0
 62
     9
 10
0.0
 20
0.0
 30
0.0
 70
   128
 71
     3
 72
     2
 73
     1
  0
VERTEX
  5
B96
  8
0
 62
     9
 10
0.0
 20
0.0
 30
0.0
 70
   128
 71
     1
 72
     4
 73
     3
  0
VERTEX
  5
B97
  8
0
 62
     9
 10
0.0
 20
0.0
 30
0.0
 70
   128
 71
     3
 72
     5
 73
     2
  0
VERTEX
  5
B98
  8
0
 62
     9
 10
0.0
 20
0.0
 30
0.0
 70
   128
 71
     7
 72
     6
 73
     2
  0
VERTEX
  5
B99
  8
0
 62
     9
 10
0.0
 20
0.0
 30
0.0
 70
   128
 71
     2
 72
     8
 73
     7
  0
VERTEX
  5
B9A
  8
0
 62
     9
 10
0.0
 20
0.0
 30
0.0
 70
   128
 71
    10
 72
     9
 73
     6
  0
VERTEX
  5
B9B
  8
0
 62
     9
 10
0.0
 20
0.0
 30
0.0
 70
   128
 71
     6
 72
     7
 73
    10
  0
VERTEX
  5
B9C
  8
0
 62
     9
 10
0.0
 20
0.0
 30
0.0
 70
   128
 71
    13
 72
    12
 73
    11
  0
VERTEX
  5
B9D
  8
0
 62
     9
 10
0.0
 20
0.0
 30
0.0
 70
   128
 71
    12
 72
    14
 73
    11
  0
VERTEX
  5
B9E
  8
0
 62
     9
 10
0.0
 20
0.0
 30
0.0
 70
   128
 71
    11
 72
     6
 73
    13
  0
VERTEX
  5
B9F
  8
0
 62
     9
 10
0.0
 20
0.0
 30
0.0
 70
   128
 71
    16
 72
    15
 73
    11
  0
VERTEX
  5
BA0
  8
0
 62
     9
 10
0.0
 20
0.0
 30
0.0
 70
   128
 71
    11
 72
    17
 73
    16
  0
VERTEX
  5
BA1
  8
0
 62
     9
 10
0.0
 20
0.0
 30
0.0
 70
   128
 71
    16
 72
    18
 73
    15
  0
VERTEX
  5
BA2
  8
0
 62
     9
 10
0.0
 20
0.0
 30
0.0
 70
   128
 71
    20
 72
    19
 73
    15
  0
VERTEX
  5
BA3
  8
0
 62
     9
 10
0.0
 20
0.0
 30
0.0
 70
   128
 71
    15
 72
    21
 73
    20
  0
VERTEX
  5
BA4
  8
0
 62
     9
 10
0.0
 20
0.0
 30
0.0
 70
   128
 71
    20
 72
    22
 73
    19
  0
VERTEX
  5
BA5
  8
0
 62
     9
 10
0.0
 20
0.0
 30
0.0
 70
   128
 71
    25
 72
    24
 73
    23
  0
VERTEX
  5
BA6
  8
0
 62
     9
 10
0.0
 20
0.0
 30
0.0
 70
   128
 71
    24
 72
    26
 73
    23
  0
VERTEX
  5
BA7
  8
0
 62
     9
 10
0.0
 20
0.0
 30
0.0
 70
   128
 71
    23
 72
    19
 73
    25
  0
VERTEX
  5
BA8
  8
0
 62
     9
 10
0.0
 20
0.0
 30
0.0
 70
   128
 71
    28
 72
     1
 73
    27
  0
VERTEX
  5
BA9
  8
0
 62
     9
 10
0.0
 20
0.0
 30
0.0
 70
   128
 71
    30
 72
    29
 73
    27
  0
VERTEX
  5
BAA
  8
0
 62
     9
 10
0.0
 20
0.0
 30
0.0
 70
   128
 71
    27
 72
    23
 73
    30
  0
VERTEX
  5
BAB
  8
0
 62
     9
 10
0.0
 20
0.0
 30
0.0
 70
   128
 71
    27
 72
    29
 73
    28
  0
VERTEX
  5
BAC
  8
0
 62
     9
 10
0.0
 20
0.0
 30
0.0
 70
   128
 71
    23
 72
    26
 73
    30
  0
VERTEX
  5
BAD
  8
0
 62
     9
 10
0.0
 20
0.0
 30
0.0
 70
   128
 71
    19
 72
    22
 73
    25
  0
VERTEX
  5
BAE
  8
0
 62
     9
 10
0.0
 20
0.0
 30
0.0
 70
   128
 71
    15
 72
    18
 73
    21
  0
VERTEX
  5
BAF
  8
0
 62
     9
 10
0.0
 20
0.0
 30
0.0
 70
   128
 71
    11
 72
    14
 73
    17
  0
VERTEX
  5
BB0
  8
0
 62
     9
 10
0.0
 20
0.0
 30
0.0
 70
   128
 71
     6
 72
     9
 73
    13
  0
VERTEX
  5
BB1
  8
0
 62
     9
 10
0.0
 20
0.0
 30
0.0
 70
   128
 71
     2
 72
     5
 73
     8
  0
VERTEX
  5
BB2
  8
0
 62
     9
 10
0.0
 20
0.0
 30
0.0
 70
   128
 71
     1
 72
    28
 73
     4
  0
SEQEND
  5
BB3
  8
0
 62
     9
  0
ENDBLK
  5
BB6
  8
0
  0
BLOCK
  8
0
  2
E3_NODE_28_
 70
     0
 10
0.0
 20
0.0
 30
0.0
  3
E3_NODE_28_
  1

  0
POLYLINE
  5
BB8
  8
0
 62
     9
 66
     1
 10
0.0
 20
0.0
 30
0.0
 70
    64
 71
     7
 72
     5
  0
VERTEX
  5
BB9
  8
0
 10
137.4600067138672
 20
8.991000175476074
 30
164.27099609375
 70
   192
  0
VERTEX
  5
BBA
  8
0
 10
128.3170013427734
 20
-11.21199989318848
 30
160.9429931640625
 70
   192
  0
VERTEX
  5
BBB
  8
0
 10
137.4600067138672
 20
-8.991000175476074
 30
164.27099609375
 70
   192
  0
VERTEX
  5
BBC
  8
0
 10
120.9860000610352
 20
-4.989999771118164
 30
158.2749938964844
 70
   192
  0
VERTEX
  5
BBD
  8
0
 10
128.3170013427734
 20
11.21199989318848
 30
160.9429931640625
 70
   192
  0
VERTEX
  5
BBE
  8
0
 10
141.5279998779297
 20
0.0
 30
165.7519989013672
 70
   192
  0
VERTEX
  5
BBF
  8
0
 10
120.9860000610352
 20
4.989999771118164
 30
158.2749938964844
 70
   192
  0
VERTEX
  5
BC0
  8
0
 62
     9
 10
0.0
 20
0.0
 30
0.0
 70
   128
 71
     3
 72
     2
 73
     1
  0
VERTEX
  5
BC1
  8
0
 62
     9
 10
0.0
 20
0.0
 30
0.0
 70
   128
 71
     5
 72
     1
 73
     4
  0
VERTEX
  5
BC2
  8
0
 62
     9
 10
0.0
 20
0.0
 30
0.0
 70
   128
 71
     2
 72
     4
 73
     1
  0
VERTEX
  5
BC3
  8
0
 62
     9
 10
0.0
 20
0.0
 30
0.0
 70
   128
 71
     1
 72
     6
 73
     3
  0
VERTEX
  5
BC4
  8
0
 62
     9
 10
0.0
 20
0.0
 30
0.0
 70
   128
 71
     4
 72
     7
 73
     5
  0
SEQEND
  5
BC5
  8
0
 62
     9
  0
ENDBLK
  5
BC8
  8
0
  0
BLOCK
  8
0
  2
E3_NODE_29_
 70
     0
 10
0.0
 20
0.0
 30
0.0
  3
E3_NODE_29_
  1

  0
POLYLINE
  5
BCA
  8
0
 62
     9
 66
     1
 10
0.0
 20
0.0
 30
0.0
 70
    64
 71
    23
 72
    23
  0
VERTEX
  5
BCB
  8
0
 10
141.5279998779297
 20
0.0
 30
165.7519989013672
 70
   192
  0
VERTEX
  5
BCC
  8
0
 10
137.4600067138672
 20
-8.991000175476074
 30
164.27099609375
 70
   192
  0
VERTEX
  5
BCD
  8
0
 10
143.3139953613281
 20
-6.760000228881836
 30
154.4239959716797
 70
   192
  0
VERTEX
  5
BCE
  8
0
 10
141.0050048828125
 20
-8.545000076293945
 30
153.5829925537109
 70
   192
  0
VERTEX
  5
BCF
  8
0
 10
128.3170013427734
 20
-11.21199989318848
 30
160.9429931640625
 70
   192
  0
VERTEX
  5
BD0
  8
0
 10
132.1670074462891
 20
-10.9370002746582
 30
150.3659973144531
 70
   192
  0
VERTEX
  5
BD1
  8
0
 10
137.9109954833984
 20
-10.9370002746582
 30
152.4570007324219
 70
   192
  0
VERTEX
  5
BD2
  8
0
 10
120.9860000610352
 20
-4.989999771118164
 30
158.2749938964844
 70
   192
  0
VERTEX
  5
BD3
  8
0
 10
125.8290023803711
 20
-6.760000228881836
 30
148.0599975585938
 70
   192
  0
VERTEX
  5
BD4
  8
0
 10
131.2319946289062
 20
-10.9370002746582
 30
150.0260009765625
 70
   192
  0
VERTEX
  5
BD5
  8
0
 10
125.245002746582
 20
-4.848000049591064
 30
147.8470001220703
 70
   192
  0
VERTEX
  5
BD6
  8
0
 10
120.9860000610352
 20
4.989999771118164
 30
158.2749938964844
 70
   192
  0
VERTEX
  5
BD7
  8
0
 10
125.245002746582
 20
4.848000049591064
 30
147.8470001220703
 70
   192
  0
VERTEX
  5
BD8
  8
0
 10
123.7649993896484
 20
0.0
 30
147.3079986572266
 70
   192
  0
VERTEX
  5
BD9
  8
0
 10
128.3170013427734
 20
11.21199989318848
 30
160.9429931640625
 70
   192
  0
VERTEX
  5
BDA
  8
0
 10
131.2319946289062
 20
10.9370002746582
 30
150.0260009765625
 70
   192
  0
VERTEX
  5
BDB
  8
0
 10
125.8290023803711
 20
6.760000228881836
 30
148.0599975585938
 70
   192
  0
VERTEX
  5
BDC
  8
0
 10
132.1670074462891
 20
10.9370002746582
 30
150.3659973144531
 70
   192
  0
VERTEX
  5
BDD
  8
0
 10
137.4600067138672
 20
8.991000175476074
 30
164.27099609375
 70
   192
  0
VERTEX
  5
BDE
  8
0
 10
137.9109954833984
 20
10.9370002746582
 30
152.4570007324219
 70
   192
  0
VERTEX
  5
BDF
  8
0
 10
141.0050048828125
 20
8.545000076293945
 30
153.5829925537109
 70
   192
  0
VERTEX
  5
BE0
  8
0
 10
145.3780059814453
 20
0.0
 30
155.1750030517578
 70
   192
  0
VERTEX
  5
BE1
  8
0
 10
143.3139953613281
 20
6.760000228881836
 30
154.4239959716797
 70
   192
  0
VERTEX
  5
BE2
  8
0
 62
     9
 10
0.0
 20
0.0
 30
0.0
 70
   128
 71
     3
 72
     2
 73
     1
  0
VERTEX
  5
BE3
  8
0
 62
     9
 10
0.0
 20
0.0
 30
0.0
 70
   128
 71
     3
 72
     4
 73
     2
  0
VERTEX
  5
BE4
  8
0
 62
     9
 10
0.0
 20
0.0
 30
0.0
 70
   128
 71
     7
 72
     6
 73
     5
  0
VERTEX
  5
BE5
  8
0
 62
     9
 10
0.0
 20
0.0
 30
0.0
 70
   128
 71
     5
 72
     2
 73
     7
  0
VERTEX
  5
BE6
  8
0
 62
     9
 10
0.0
 20
0.0
 30
0.0
 70
   128
 71
     9
 72
     8
 73
     5
  0
VERTEX
  5
BE7
  8
0
 62
     9
 10
0.0
 20
0.0
 30
0.0
 70
   128
 71
     5
 72
    10
 73
     9
  0
VERTEX
  5
BE8
  8
0
 62
     9
 10
0.0
 20
0.0
 30
0.0
 70
   128
 71
     9
 72
    11
 73
     8
  0
VERTEX
  5
BE9
  8
0
 62
     9
 10
0.0
 20
0.0
 30
0.0
 70
   128
 71
    14
 72
    13
 73
    12
  0
VERTEX
  5
BEA
  8
0
 62
     9
 10
0.0
 20
0.0
 30
0.0
 70
   128
 71
    12
 72
     8
 73
    14
  0
VERTEX
  5
BEB
  8
0
 62
     9
 10
0.0
 20
0.0
 30
0.0
 70
   128
 71
    17
 72
    16
 73
    15
  0
VERTEX
  5
BEC
  8
0
 62
     9
 10
0.0
 20
0.0
 30
0.0
 70
   128
 71
    16
 72
    18
 73
    15
  0
VERTEX
  5
BED
  8
0
 62
     9
 10
0.0
 20
0.0
 30
0.0
 70
   128
 71
    15
 72
    12
 73
    17
  0
VERTEX
  5
BEE
  8
0
 62
     9
 10
0.0
 20
0.0
 30
0.0
 70
   128
 71
    20
 72
    19
 73
    15
  0
VERTEX
  5
BEF
  8
0
 62
     9
 10
0.0
 20
0.0
 30
0.0
 70
   128
 71
    20
 72
    21
 73
    19
  0
VERTEX
  5
BF0
  8
0
 62
     9
 10
0.0
 20
0.0
 30
0.0
 70
   128
 71
    23
 72
    22
 73
     1
  0
VERTEX
  5
BF1
  8
0
 62
     9
 10
0.0
 20
0.0
 30
0.0
 70
   128
 71
     1
 72
    19
 73
    23
  0
VERTEX
  5
BF2
  8
0
 62
     9
 10
0.0
 20
0.0
 30
0.0
 70
   128
 71
    19
 72
    21
 73
    23
  0
VERTEX
  5
BF3
  8
0
 62
     9
 10
0.0
 20
0.0
 30
0.0
 70
   128
 71
    15
 72
    18
 73
    20
  0
VERTEX
  5
BF4
  8
0
 62
     9
 10
0.0
 20
0.0
 30
0.0
 70
   128
 71
    12
 72
    13
 73
    17
  0
VERTEX
  5
BF5
  8
0
 62
     9
 10
0.0
 20
0.0
 30
0.0
 70
   128
 71
     8
 72
    11
 73
    14
  0
VERTEX
  5
BF6
  8
0
 62
     9
 10
0.0
 20
0.0
 30
0.0
 70
   128
 71
     5
 72
     6
 73
    10
  0
VERTEX
  5
BF7
  8
0
 62
     9
 10
0.0
 20
0.0
 30
0.0
 70
   128
 71
     2
 72
     4
 73
     7
  0
VERTEX
  5
BF8
  8
0
 62
     9
 10
0.0
 20
0.0
 30
0.0
 70
   128
 71
     1
 72
    22
 73
     3
  0
SEQEND
  5
BF9
  8
0
 62
     9
  0
ENDBLK
  5
BFC
  8
0
  0
BLOCK
  8
0
  2
E3_NODE_30_
 70
     0
 10
0.0
 20
0.0
 30
0.0
  3
E3_NODE_30_
  1

  0
POLYLINE
  5
BFE
  8
0
 62
     9
 66
     1
 10
0.0
 20
0.0
 30
0.0
 70
    64
 71
    26
 72
    26
  0
VERTEX
  5
BFF
  8
0
 10
143.3139953613281
 20
-6.760000228881836
 30
154.4239959716797
 70
   192
  0
VERTEX
  5
C00
  8
0
 10
144.5189971923828
 20
-6.171999931335449
 30
148.7489929199219
 70
   192
  0
VERTEX
  5
C01
  8
0
 10
146.4029998779297
 20
0.0
 30
149.4349975585938
 70
   192
  0
VERTEX
  5
C02
  8
0
 10
139.5850067138672
 20
-9.986000061035156
 30
146.9530029296875
 70
   192
  0
VERTEX
  5
C03
  8
0
 10
141.0050048828125
 20
-8.545000076293945
 30
153.5829925537109
 70
   192
  0
VERTEX
  5
C04
  8
0
 10
137.9109954833984
 20
-10.9370002746582
 30
152.4570007324219
 70
   192
  0
VERTEX
  5
C05
  8
0
 10
132.1670074462891
 20
-10.9370002746582
 30
150.3659973144531
 70
   192
  0
VERTEX
  5
C06
  8
0
 10
133.4869995117188
 20
-9.986000061035156
 30
144.7339935302734
 70
   192
  0
VERTEX
  5
C07
  8
0
 10
125.8290023803711
 20
-6.760000228881836
 30
148.0599975585938
 70
   192
  0
VERTEX
  5
C08
  8
0
 10
128.5540008544922
 20
-6.171999931335449
 30
142.9380035400391
 70
   192
  0
VERTEX
  5
C09
  8
0
 10
126.6699981689453
 20
0.0
 30
142.2519989013672
 70
   192
  0
VERTEX
  5
C0A
  8
0
 10
125.245002746582
 20
-4.848000049591064
 30
147.8470001220703
 70
   192
  0
VERTEX
  5
C0B
  8
0
 10
123.7649993896484
 20
0.0
 30
147.3079986572266
 70
   192
  0
VERTEX
  5
C0C
  8
0
 10
125.245002746582
 20
4.848000049591064
 30
147.8470001220703
 70
   192
  0
VERTEX
  5
C0D
  8
0
 10
128.5540008544922
 20
6.171999931335449
 30
142.9380035400391
 70
   192
  0
VERTEX
  5
C0E
  8
0
 10
125.8290023803711
 20
6.760000228881836
 30
148.0599975585938
 70
   192
  0
VERTEX
  5
C0F
  8
0
 10
131.2319946289062
 20
10.9370002746582
 30
150.0260009765625
 70
   192
  0
VERTEX
  5
C10
  8
0
 10
133.4869995117188
 20
9.986000061035156
 30
144.7339935302734
 70
   192
  0
VERTEX
  5
C11
  8
0
 10
139.5850067138672
 20
9.986000061035156
 30
146.9530029296875
 70
   192
  0
VERTEX
  5
C12
  8
0
 10
132.1670074462891
 20
10.9370002746582
 30
150.3659973144531
 70
   192
  0
VERTEX
  5
C13
  8
0
 10
137.9109954833984
 20
10.9370002746582
 30
152.4570007324219
 70
   192
  0
VERTEX
  5
C14
  8
0
 10
141.0050048828125
 20
8.545000076293945
 30
153.5829925537109
 70
   192
  0
VERTEX
  5
C15
  8
0
 10
144.5189971923828
 20
6.171999931335449
 30
148.7489929199219
 70
   192
  0
VERTEX
  5
C16
  8
0
 10
143.3139953613281
 20
6.760000228881836
 30
154.4239959716797
 70
   192
  0
VERTEX
  5
C17
  8
0
 10
145.3780059814453
 20
0.0
 30
155.1750030517578
 70
   192
  0
VERTEX
  5
C18
  8
0
 10
131.2319946289062
 20
-10.9370002746582
 30
150.0260009765625
 70
   192
  0
VERTEX
  5
C19
  8
0
 62
     9
 10
0.0
 20
0.0
 30
0.0
 70
   128
 71
     3
 72
     2
 73
     1
  0
VERTEX
  5
C1A
  8
0
 62
     9
 10
0.0
 20
0.0
 30
0.0
 70
   128
 71
     5
 72
     2
 73
     4
  0
VERTEX
  5
C1B
  8
0
 62
     9
 10
0.0
 20
0.0
 30
0.0
 70
   128
 71
     5
 72
     1
 73
     2
  0
VERTEX
  5
C1C
  8
0
 62
     9
 10
0.0
 20
0.0
 30
0.0
 70
   128
 71
     7
 72
     6
 73
     4
  0
VERTEX
  5
C1D
  8
0
 62
     9
 10
0.0
 20
0.0
 30
0.0
 70
   128
 71
     4
 72
     8
 73
     7
  0
VERTEX
  5
C1E
  8
0
 62
     9
 10
0.0
 20
0.0
 30
0.0
 70
   128
 71
     8
 72
    10
 73
     9
  0
VERTEX
  5
C1F
  8
0
 62
     9
 10
0.0
 20
0.0
 30
0.0
 70
   128
 71
    12
 72
    10
 73
    11
  0
VERTEX
  5
C20
  8
0
 62
     9
 10
0.0
 20
0.0
 30
0.0
 70
   128
 71
    12
 72
     9
 73
    10
  0
VERTEX
  5
C21
  8
0
 62
     9
 10
0.0
 20
0.0
 30
0.0
 70
   128
 71
    14
 72
    13
 73
    11
  0
VERTEX
  5
C22
  8
0
 62
     9
 10
0.0
 20
0.0
 30
0.0
 70
   128
 71
    11
 72
    15
 73
    14
  0
VERTEX
  5
C23
  8
0
 62
     9
 10
0.0
 20
0.0
 30
0.0
 70
   128
 71
    18
 72
    17
 73
    16
  0
VERTEX
  5
C24
  8
0
 62
     9
 10
0.0
 20
0.0
 30
0.0
 70
   128
 71
    20
 72
    18
 73
    19
  0
VERTEX
  5
C25
  8
0
 62
     9
 10
0.0
 20
0.0
 30
0.0
 70
   128
 71
    20
 72
    17
 73
    18
  0
VERTEX
  5
C26
  8
0
 62
     9
 10
0.0
 20
0.0
 30
0.0
 70
   128
 71
    22
 72
    21
 73
    19
  0
VERTEX
  5
C27
  8
0
 62
     9
 10
0.0
 20
0.0
 30
0.0
 70
   128
 71
    19
 72
    23
 73
    22
  0
VERTEX
  5
C28
  8
0
 62
     9
 10
0.0
 20
0.0
 30
0.0
 70
   128
 71
     3
 72
    25
 73
    24
  0
VERTEX
  5
C29
  8
0
 62
     9
 10
0.0
 20
0.0
 30
0.0
 70
   128
 71
    24
 72
    23
 73
     3
  0
VERTEX
  5
C2A
  8
0
 62
     9
 10
0.0
 20
0.0
 30
0.0
 70
   128
 71
    23
 72
    24
 73
    22
  0
VERTEX
  5
C2B
  8
0
 62
     9
 10
0.0
 20
0.0
 30
0.0
 70
   128
 71
    19
 72
    21
 73
    20
  0
VERTEX
  5
C2C
  8
0
 62
     9
 10
0.0
 20
0.0
 30
0.0
 70
   128
 71
    16
 72
    15
 73
    18
  0
VERTEX
  5
C2D
  8
0
 62
     9
 10
0.0
 20
0.0
 30
0.0
 70
   128
 71
    15
 72
    16
 73
    14
  0
VERTEX
  5
C2E
  8
0
 62
     9
 10
0.0
 20
0.0
 30
0.0
 70
   128
 71
    11
 72
    13
 73
    12
  0
VERTEX
  5
C2F
  8
0
 62
     9
 10
0.0
 20
0.0
 30
0.0
 70
   128
 71
     9
 72
    26
 73
     8
  0
VERTEX
  5
C30
  8
0
 62
     9
 10
0.0
 20
0.0
 30
0.0
 70
   128
 71
     8
 72
    26
 73
     7
  0
VERTEX
  5
C31
  8
0
 62
     9
 10
0.0
 20
0.0
 30
0.0
 70
   128
 71
     4
 72
     6
 73
     5
  0
VERTEX
  5
C32
  8
0
 62
     9
 10
0.0
 20
0.0
 30
0.0
 70
   128
 71
     1
 72
    25
 73
     3
  0
SEQEND
  5
C33
  8
0
 62
     9
  0
ENDBLK
  5
C36
  8
0
  0
BLOCK
  8
0
  2
E3_NODE_31_
 70
     0
 10
0.0
 20
0.0
 30
0.0
  3
E3_NODE_31_
  1

  0
POLYLINE
  5
C38
  8
0
 62
     9
 66
     1
 10
0.0
 20
0.0
 30
0.0
 70
    64
 71
    10
 72
     8
  0
VERTEX
  5
C39
  8
0
 10
146.4029998779297
 20
0.0
 30
149.4349975585938
 70
   192
  0
VERTEX
  5
C3A
  8
0
 10
139.5850067138672
 20
-9.986000061035156
 30
146.9530029296875
 70
   192
  0
VERTEX
  5
C3B
  8
0
 10
133.4869995117188
 20
-9.986000061035156
 30
144.7339935302734
 70
   192
  0
VERTEX
  5
C3C
  8
0
 10
144.5189971923828
 20
6.171999931335449
 30
148.7489929199219
 70
   192
  0
VERTEX
  5
C3D
  8
0
 10
128.5540008544922
 20
6.171999931335449
 30
142.9380035400391
 70
   192
  0
VERTEX
  5
C3E
  8
0
 10
133.4869995117188
 20
9.986000061035156
 30
144.7339935302734
 70
   192
  0
VERTEX
  5
C3F
  8
0
 10
128.5540008544922
 20
-6.171999931335449
 30
142.9380035400391
 70
   192
  0
VERTEX
  5
C40
  8
0
 10
126.6699981689453
 20
0.0
 30
142.2519989013672
 70
   192
  0
VERTEX
  5
C41
  8
0
 10
144.5189971923828
 20
-6.171999931335449
 30
148.7489929199219
 70
   192
  0
VERTEX
  5
C42
  8
0
 10
139.5850067138672
 20
9.986000061035156
 30
146.9530029296875
 70
   192
  0
VERTEX
  5
C43
  8
0
 62
     9
 10
0.0
 20
0.0
 30
0.0
 70
   128
 71
     3
 72
     2
 73
     1
  0
VERTEX
  5
C44
  8
0
 62
     9
 10
0.0
 20
0.0
 30
0.0
 70
   128
 71
     6
 72
     5
 73
     4
  0
VERTEX
  5
C45
  8
0
 62
     9
 10
0.0
 20
0.0
 30
0.0
 70
   128
 71
     8
 72
     7
 73
     4
  0
VERTEX
  5
C46
  8
0
 62
     9
 10
0.0
 20
0.0
 30
0.0
 70
   128
 71
     2
 72
     9
 73
     1
  0
VERTEX
  5
C47
  8
0
 62
     9
 10
0.0
 20
0.0
 30
0.0
 70
   128
 71
     4
 72
     5
 73
     8
  0
VERTEX
  5
C48
  8
0
 62
     9
 10
0.0
 20
0.0
 30
0.0
 70
   128
 71
     1
 72
     4
 73
     7
  0
VERTEX
  5
C49
  8
0
 62
     9
 10
0.0
 20
0.0
 30
0.0
 70
   128
 71
     1
 72
     7
 73
     3
  0
VERTEX
  5
C4A
  8
0
 62
     9
 10
0.0
 20
0.0
 30
0.0
 70
   128
 71
     4
 72
    10
 73
     6
  0
SEQEND
  5
C4B
  8
0
 62
     9
  0
ENDBLK
  5
C4E
  8
0
  0
ENDSEC
  0
SECTION
  2
ENTITIES
  0
INSERT
  5
4C
  8
LAYER_1
  2
E3_NODE
 10
0.0
 20
0.0
 30
0.0
  0
INSERT
  5
AB
  8
LAYER_1
  2
E3_NODE_1_
 10
0.0
 20
0.0
 30
0.0
  0
INSERT
  5
B9
  8
LAYER_1
  2
E3_NODE_2_
 10
0.0
 20
0.0
 30
0.0
  0
INSERT
  5
D3
  8
LAYER_1
  2
E3_NODE_3_
 10
0.0
 20
0.0
 30
0.0
  0
INSERT
  5
E3
  8
LAYER_1
  2
E3_NODE_4_
 10
0.0
 20
0.0
 30
0.0
  0
INSERT
  5
FD
  8
LAYER_1
  2
E3_NODE_5_
 10
0.0
 20
0.0
 30
0.0
  0
INSERT
  5
10D
  8
LAYER_1
  2
E3_NODE_6_
 10
0.0
 20
0.0
 30
0.0
  0
INSERT
  5
127
  8
LAYER_1
  2
E3_NODE_7_
 10
0.0
 20
0.0
 30
0.0
  0
INSERT
  5
137
  8
LAYER_1
  2
E3_NODE_8_
 10
0.0
 20
0.0
 30
0.0
  0
INSERT
  5
153
  8
LAYER_1
  2
E3_NODE_9_
 10
0.0
 20
0.0
 30
0.0
  0
INSERT
  5
199
  8
LAYER_1
  2
E3_NODE_10_
 10
0.0
 20
0.0
 30
0.0
  0
INSERT
  5
1CF
  8
LAYER_1
  2
E3_NODE_11_
 10
0.0
 20
0.0
 30
0.0
  0
INSERT
  5
27F
  8
LAYER_1
  2
E3_NODE_12_
 10
0.0
 20
0.0
 30
0.0
  0
INSERT
  5
2D1
  8
LAYER_1
  2
E3_NODE_13_
 10
0.0
 20
0.0
 30
0.0
  0
INSERT
  5
2ED
  8
LAYER_1
  2
E3_NODE_14_
 10
0.0
 20
0.0
 30
0.0
  0
INSERT
  5
311
  8
LAYER_1
  2
E3_NODE_15_
 10
0.0
 20
0.0
 30
0.0
  0
INSERT
  5
361
  8
LAYER_1
  2
E3_NODE_16_
 10
0.0
 20
0.0
 30
0.0
  0
INSERT
  5
45F
  8
LAYER_1
  2
E3_NODE_17_
 10
0.0
 20
0.0
 30
0.0
  0
INSERT
  5
542
  8
LAYER_1
  2
E3_NODE_18_
 10
0.0
 20
0.0
 30
0.0
  0
INSERT
  5
58A
  8
LAYER_1
  2
E3_NODE_19_
 10
0.0
 20
0.0
 30
0.0
  0
INSERT
  5
5C4
  8
LAYER_1
  2
E3_NODE_20_
 10
0.0
 20
0.0
 30
0.0
  0
INSERT
  5
672
  8
LAYER_1
  2
E3_NODE_21_
 10
0.0
 20
0.0
 30
0.0
  0
INSERT
  5
711
  8
LAYER_1
  2
E3_NODE_22_
 10
0.0
 20
0.0
 30
0.0
  0
INSERT
  5
79A
  8
LAYER_1
  2
E3_NODE_23_
 10
0.0
 20
0.0
 30
0.0
  0
INSERT
  5
7F2
  8
LAYER_1
  2
E3_NODE_24_
 10
0.0
 20
0.0
 30
0.0
  0
INSERT
  5
844
  8
LAYER_1
  2
E3_NODE_25_
 10
0.0
 20
0.0
 30
0.0
  0
INSERT
  5
B72
  8
LAYER_1
  2
E3_NODE_26_
 10
0.0
 20
0.0
 30
0.0
  0
INSERT
  5
BB4
  8
LAYER_1
  2
E3_NODE_27_
 10
0.0
 20
0.0
 30
0.0
  0
INSERT
  5
BC6
  8
LAYER_1
  2
E3_NODE_28_
 10
0.0
 20
0.0
 30
0.0
  0
INSERT
  5
BFA
  8
LAYER_1
  2
E3_NODE_29_
 10
0.0
 20
0.0
 30
0.0
  0
INSERT
  5
C34
  8
LAYER_1
  2
E3_NODE_30_
 10
0.0
 20
0.0
 30
0.0
  0
INSERT
  5
C4C
  8
LAYER_1
  2
E3_NODE_31_
 10
0.0
 20
0.0
 30
0.0
  0
ENDSEC
  0
EOF
