  0
SECTION
  2
HEADER
  9
$ACADVER
  1
AC1015
  9
$ACADMAINTVER
 70
     6
  9
$DWGCODEPAGE
  3
ANSI_1252
  9
$INSBASE
 10
0.0
 20
0.0
 30
0.0
  9
$EXTMIN
 10
0.0
 20
0.0
 30
0.0
  9
$EXTMAX
 10
1682.0
 20
2378.0
 30
0.0
  9
$LIMMIN
 10
0.0
 20
0.0
  9
$LIMMAX
 10
1682.0
 20
2378.0
  9
$ORTHOMODE
 70
     0
  9
$REGENMODE
 70
     1
  9
$FILLMODE
 70
     1
  9
$QTEXTMODE
 70
     0
  9
$MIRRTEXT
 70
     1
  9
$LTSCALE
 40
1.0
  9
$ATTMODE
 70
     1
  9
$TEXTSIZE
 40
2.5
  9
$TRACEWID
 40
1.0
  9
$TEXTSTYLE
  7
Standard
  9
$CLAYER
  8
0
  9
$CELTYPE
  6
ByLayer
  9
$CECOLOR
 62
   256
  9
$CELTSCALE
 40
1.0
  9
$DISPSILH
 70
     0
  9
$DIMSCALE
 40
1.0
  9
$DIMASZ
 40
2.5
  9
$DIMEXO
 40
0.625
  9
$DIMDLI
 40
3.75
  9
$DIMRND
 40
0.0
  9
$DIMDLE
 40
0.0
  9
$DIMEXE
 40
1.25
  9
$DIMTP
 40
0.0
  9
$DIMTM
 40
0.0
  9
$DIMTXT
 40
2.5
  9
$DIMCEN
 40
2.5
  9
$DIMTSZ
 40
0.0
  9
$DIMTOL
 70
     0
  9
$DIMLIM
 70
     0
  9
$DIMTIH
 70
     0
  9
$DIMTOH
 70
     0
  9
$DIMSE1
 70
     0
  9
$DIMSE2
 70
     0
  9
$DIMTAD
 70
     1
  9
$DIMZIN
 70
     8
  9
$DIMBLK
  1

  9
$DIMASO
 70
     1
  9
$DIMSHO
 70
     1
  9
$DIMPOST
  1

  9
$DIMAPOST
  1

  9
$DIMALT
 70
     0
  9
$DIMALTD
 70
     3
  9
$DIMALTF
 40
0.0393700787
  9
$DIMLFAC
 40
1.0
  9
$DIMTOFL
 70
     1
  9
$DIMTVP
 40
0.0
  9
$DIMTIX
 70
     0
  9
$DIMSOXD
 70
     0
  9
$DIMSAH
 70
     0
  9
$DIMBLK1
  1

  9
$DIMBLK2
  1

  9
$DIMSTYLE
  2
ISO-25
  9
$DIMCLRD
 70
     0
  9
$DIMCLRE
 70
     0
  9
$DIMCLRT
 70
     0
  9
$DIMTFAC
 40
1.0
  9
$DIMGAP
 40
0.625
  9
$DIMJUST
 70
     0
  9
$DIMSD1
 70
     0
  9
$DIMSD2
 70
     0
  9
$DIMTOLJ
 70
     0
  9
$DIMTZIN
 70
     8
  9
$DIMALTZ
 70
     0
  9
$DIMALTTZ
 70
     0
  9
$DIMUPT
 70
     0
  9
$DIMDEC
 70
     2
  9
$DIMTDEC
 70
     2
  9
$DIMALTU
 70
     2
  9
$DIMALTTD
 70
     3
  9
$DIMTXSTY
  7
Standard
  9
$DIMAUNIT
 70
     0
  9
$DIMADEC
 70
     0
  9
$DIMALTRND
 40
0.0
  9
$DIMAZIN
 70
     0
  9
$DIMDSEP
 70
    44
  9
$DIMATFIT
 70
     3
  9
$DIMFRAC
 70
     0
  9
$DIMLDRBLK
  1

  9
$DIMLUNIT
 70
     2
  9
$DIMLWD
 70
    -2
  9
$DIMLWE
 70
    -2
  9
$DIMTMOVE
 70
     0
  9
$LUNITS
 70
     2
  9
$LUPREC
 70
     4
  9
$SKETCHINC
 40
1.0
  9
$FILLETRAD
 40
10.0
  9
$AUNITS
 70
     0
  9
$AUPREC
 70
     0
  9
$MENU
  1
.
  9
$ELEVATION
 40
0.0
  9
$PELEVATION
 40
0.0
  9
$THICKNESS
 40
0.0
  9
$LIMCHECK
 70
     0
  9
$CHAMFERA
 40
10.0
  9
$CHAMFERB
 40
10.0
  9
$CHAMFERC
 40
20.0
  9
$CHAMFERD
 40
0.0
  9
$SKPOLY
 70
     0
  9
$TDCREATE
 40
2455427.560418009
  9
$TDUCREATE
 40
2455427.477084676
  9
$TDUPDATE
 40
2455427.560418021
  9
$TDUUPDATE
 40
2455427.477084687
  9
$TDINDWG
 40
0.0000000116
  9
$TDUSRTIMER
 40
0.0000000116
  9
$USRTIMER
 70
     1
  9
$ANGBASE
 50
0.0
  9
$ANGDIR
 70
     0
  9
$PDMODE
 70
     0
  9
$PDSIZE
 40
0.0
  9
$PLINEWID
 40
0.0
  9
$SPLFRAME
 70
     0
  9
$SPLINETYPE
 70
     6
  9
$SPLINESEGS
 70
     8
  9
$HANDSEED
  5
1EB
  9
$SURFTAB1
 70
     6
  9
$SURFTAB2
 70
     6
  9
$SURFTYPE
 70
     6
  9
$SURFU
 70
     6
  9
$SURFV
 70
     6
  9
$UCSBASE
  2

  9
$UCSNAME
  2

  9
$UCSORG
 10
0.0
 20
0.0
 30
0.0
  9
$UCSXDIR
 10
1.0
 20
0.0
 30
0.0
  9
$UCSYDIR
 10
0.0
 20
1.0
 30
0.0
  9
$UCSORTHOREF
  2

  9
$UCSORTHOVIEW
 70
     0
  9
$UCSORGTOP
 10
0.0
 20
0.0
 30
0.0
  9
$UCSORGBOTTOM
 10
0.0
 20
0.0
 30
0.0
  9
$UCSORGLEFT
 10
0.0
 20
0.0
 30
0.0
  9
$UCSORGRIGHT
 10
0.0
 20
0.0
 30
0.0
  9
$UCSORGFRONT
 10
0.0
 20
0.0
 30
0.0
  9
$UCSORGBACK
 10
0.0
 20
0.0
 30
0.0
  9
$PUCSBASE
  2

  9
$PUCSNAME
  2

  9
$PUCSORG
 10
0.0
 20
0.0
 30
0.0
  9
$PUCSXDIR
 10
1.0
 20
0.0
 30
0.0
  9
$PUCSYDIR
 10
0.0
 20
1.0
 30
0.0
  9
$PUCSORTHOREF
  2

  9
$PUCSORTHOVIEW
 70
     0
  9
$PUCSORGTOP
 10
0.0
 20
0.0
 30
0.0
  9
$PUCSORGBOTTOM
 10
0.0
 20
0.0
 30
0.0
  9
$PUCSORGLEFT
 10
0.0
 20
0.0
 30
0.0
  9
$PUCSORGRIGHT
 10
0.0
 20
0.0
 30
0.0
  9
$PUCSORGFRONT
 10
0.0
 20
0.0
 30
0.0
  9
$PUCSORGBACK
 10
0.0
 20
0.0
 30
0.0
  9
$USERI1
 70
     0
  9
$USERI2
 70
     0
  9
$USERI3
 70
     0
  9
$USERI4
 70
     0
  9
$USERI5
 70
     0
  9
$USERR1
 40
0.0
  9
$USERR2
 40
0.0
  9
$USERR3
 40
0.0
  9
$USERR4
 40
0.0
  9
$USERR5
 40
0.0
  9
$WORLDVIEW
 70
     1
  9
$SHADEDGE
 70
     3
  9
$SHADEDIF
 70
    70
  9
$TILEMODE
 70
     1
  9
$MAXACTVP
 70
    64
  9
$PINSBASE
 10
0.0
 20
0.0
 30
0.0
  9
$PLIMCHECK
 70
     0
  9
$PEXTMIN
 10
0.0
 20
0.0
 30
0.0
  9
$PEXTMAX
 10
1682.0
 20
2378.0
 30
0.0
  9
$PLIMMIN
 10
0.0
 20
0.0
  9
$PLIMMAX
 10
1682.0
 20
2378.0
  9
$UNITMODE
 70
     0
  9
$VISRETAIN
 70
     1
  9
$PLINEGEN
 70
     0
  9
$PSLTSCALE
 70
     1
  9
$TREEDEPTH
 70
  3020
  9
$CMLSTYLE
  2
Standard
  9
$CMLJUST
 70
     0
  9
$CMLSCALE
 40
20.0
  9
$PROXYGRAPHICS
 70
     1
  9
$MEASUREMENT
 70
     1
  9
$CELWEIGHT
370
    -1
  9
$ENDCAPS
280
     0
  9
$JOINSTYLE
280
     0
  9
$LWDISPLAY
290
     0
  9
$INSUNITS
 70
     4
  9
$HYPERLINKBASE
  1

  9
$STYLESHEET
  1

  9
$XEDIT
290
     1
  9
$CEPSNTYPE
380
     0
  9
$PSTYLEMODE
290
     1
  9
$FINGERPRINTGUID
  2
{D5A65F20-0885-4531-A7AB-C0E9EB272F6C}
  9
$VERSIONGUID
  2
{FAEB1C32-E019-11D5-929B-00C0DF256EC4}
  9
$EXTNAMES
290
     1
  9
$PSVPSCALE
 40
0.0
  9
$OLESTARTUP
290
     0
  0
ENDSEC
  0
SECTION
  2
CLASSES
  0
CLASS
  1
ACDBDICTIONARYWDFLT
  2
AcDbDictionaryWithDefault
  3
ObjectDBX Classes
 90
        0
280
     0
281
     0
  0
CLASS
  1
VISUALSTYLE
  2
AcDbVisualStyle
  3
ObjectDBX Classes
 90
     4095
280
     0
281
     0
  0
CLASS
  1
SCALE
  2
AcDbScale
  3
ObjectDBX Classes
 90
     1153
280
     0
281
     0
  0
CLASS
  1
DICTIONARYVAR
  2
AcDbDictionaryVar
  3
ObjectDBX Classes
 90
        0
280
     0
281
     0
  0
CLASS
  1
ACDBPLACEHOLDER
  2
AcDbPlaceHolder
  3
ObjectDBX Classes
 90
        0
280
     0
281
     0
  0
CLASS
  1
LAYOUT
  2
AcDbLayout
  3
ObjectDBX Classes
 90
        0
280
     0
281
     0
  0
ENDSEC
  0
SECTION
  2
TABLES
  0
TABLE
  2
VPORT
  5
8
330
0
100
AcDbSymbolTable
 70
     1
  0
VPORT
  5
29
330
8
100
AcDbSymbolTableRecord
100
AcDbViewportTableRecord
  2
*Active
 70
     0
 10
0.0
 20
0.0
 11
1.0
 21
1.0
 12
344.1869158879
 22
148.5
 13
0.0
 23
0.0
 14
10.0
 24
10.0
 15
10.0
 25
10.0
 16
0.0
 26
0.0
 36
1.0
 17
0.0
 27
0.0
 37
0.0
 40
297.0
 41
1.9729729729
 42
50.0
 43
0.0
 44
0.0
 50
0.0
 51
0.0
 71
     0
 72
   100
 73
     1
 74
     3
 75
     0
 76
     0
 77
     0
 78
     0
281
     0
 65
     1
110
0.0
120
0.0
130
0.0
111
1.0
121
0.0
131
0.0
112
0.0
122
1.0
132
0.0
 79
     0
146
0.0
  0
ENDTAB
  0
TABLE
  2
LTYPE
  5
5
330
0
100
AcDbSymbolTable
 70
     2
  0
LTYPE
  5
14
330
5
100
AcDbSymbolTableRecord
100
AcDbLinetypeTableRecord
  2
ByBlock
 70
     0
  3

 72
    65
 73
     0
 40
0.0
  0
LTYPE
  5
15
330
5
100
AcDbSymbolTableRecord
100
AcDbLinetypeTableRecord
  2
ByLayer
 70
     0
  3

 72
    65
 73
     0
 40
0.0
  0
LTYPE
  5
16
330
5
100
AcDbSymbolTableRecord
100
AcDbLinetypeTableRecord
  2
Continuous
 70
     0
  3
Solid line
 72
    65
 73
     0
 40
0.0
  0
LTYPE
  5
60
330
5
100
AcDbSymbolTableRecord
100
AcDbLinetypeTableRecord
  2
CENTER2
 70
     0
  3
Center (.5x) ___ _ ___ _ ___ _ ___ _ ___ _ ___
 72
    65
 73
     4
 40
28.575
 49
19.05
 74
     4
 75
     0
340
0
 46
0.0
 50
0.0
 44
0.0
 45
0.0
 49
-3.175
 74
     4
 75
     0
340
0
 46
0.0
 50
0.0
 44
0.0
 45
0.0
 49
3.175
 74
     4
 75
     0
340
0
 46
0.0
 50
0.0
 44
0.0
 45
0.0
 49
-3.175
 74
     4
 75
     0
340
0
 46
0.0
 50
0.0
 44
0.0
 45
0.0
  0
ENDTAB
  0
TABLE
  2
LAYER
  5
2
330
0
100
AcDbSymbolTable
 70
    13
  0
LAYER
  5
10
330
2
100
AcDbSymbolTableRecord
100
AcDbLayerTableRecord
  2
0
 70
     0
 62
     7
  6
Continuous
370
    -3
390
F
  0
LAYER
  5
5D
330
2
100
AcDbSymbolTableRecord
100
AcDbLayerTableRecord
  2
Default
 70
     0
 62
     7
  6
Continuous
370
    -3
390
F
  0
LAYER
  5
75
330
2
100
AcDbSymbolTableRecord
100
AcDbLayerTableRecord
  2
$DDT_AUDIT_GENERATED_(75)
 70
     0
 62
     7
  6
Continuous
370
    -3
390
F
  0
LAYER
  5
89
330
2
100
AcDbSymbolTableRecord
100
AcDbLayerTableRecord
  2
$DDT_AUDIT_GENERATED_(89)
 70
     0
 62
     7
  6
Continuous
370
    -3
390
F
  0
LAYER
  5
D6
330
2
100
AcDbSymbolTableRecord
100
AcDbLayerTableRecord
  2
$DDT_AUDIT_GENERATED_(D6)
 70
     0
 62
     7
  6
Continuous
370
    -3
390
F
  0
LAYER
  5
E8
330
2
100
AcDbSymbolTableRecord
100
AcDbLayerTableRecord
  2
$DDT_AUDIT_GENERATED_(E8)
 70
     0
 62
     7
  6
Continuous
370
    -3
390
F
  0
LAYER
  5
10A
330
2
100
AcDbSymbolTableRecord
100
AcDbLayerTableRecord
  2
DV1_Standard
 70
     0
 62
     7
  6
Continuous
370
    -3
390
F
  0
LAYER
  5
149
330
2
100
AcDbSymbolTableRecord
100
AcDbLayerTableRecord
  2
$DDT_AUDIT_GENERATED_(149)
 70
     0
 62
     7
  6
Continuous
370
    -3
390
F
  0
LAYER
  5
150
330
2
100
AcDbSymbolTableRecord
100
AcDbLayerTableRecord
  2
$DDT_AUDIT_GENERATED_(150)
 70
     0
 62
     7
  6
Continuous
370
    -3
390
F
  0
LAYER
  5
184
330
2
100
AcDbSymbolTableRecord
100
AcDbLayerTableRecord
  2
$DDT_AUDIT_GENERATED_(184)
 70
     0
 62
     7
  6
Continuous
370
    -3
390
F
  0
LAYER
  5
18F
330
2
100
AcDbSymbolTableRecord
100
AcDbLayerTableRecord
  2
$DDT_AUDIT_GENERATED_(18F)
 70
     0
 62
     7
  6
Continuous
370
    -3
390
F
  0
LAYER
  5
197
330
2
100
AcDbSymbolTableRecord
100
AcDbLayerTableRecord
  2
DV2_Standard
 70
     0
 62
     7
  6
Continuous
370
    -3
390
F
  0
LAYER
  5
1D1
330
2
100
AcDbSymbolTableRecord
100
AcDbLayerTableRecord
  2
$DDT_AUDIT_GENERATED_(1D1)
 70
     0
 62
     7
  6
Continuous
370
    -3
390
F
  0
ENDTAB
  0
TABLE
  2
STYLE
  5
3
330
0
100
AcDbSymbolTable
 70
     2
  0
STYLE
  5
11
330
3
100
AcDbSymbolTableRecord
100
AcDbTextStyleTableRecord
  2
Standard
 70
     0
 40
0.0
 41
1.0
 50
0.0
 71
     0
 42
2.5
  3
txt
  4

  0
STYLE
  5
1DA
330
3
100
AcDbSymbolTableRecord
100
AcDbTextStyleTableRecord
  2
SEACAD_seiso_ttf
 70
     0
 40
0.0
 41
1.0
 50
0.0
 71
     0
 42
0.2
  3
seiso.ttf
  4

  0
ENDTAB
  0
TABLE
  2
VIEW
  5
6
330
0
100
AcDbSymbolTable
 70
     0
  0
ENDTAB
  0
TABLE
  2
UCS
  5
7
330
0
100
AcDbSymbolTable
 70
     0
  0
ENDTAB
  0
TABLE
  2
APPID
  5
9
330
0
100
AcDbSymbolTable
 70
     1
  0
APPID
  5
12
330
9
100
AcDbSymbolTableRecord
100
AcDbRegAppTableRecord
  2
ACAD
 70
     0
  0
ENDTAB
  0
TABLE
  2
DIMSTYLE
  5
A
330
0
100
AcDbSymbolTable
 70
     1
100
AcDbDimStyleTable
  0
DIMSTYLE
105
27
330
A
100
AcDbSymbolTableRecord
100
AcDbDimStyleTableRecord
  2
ISO-25
 70
     0
 41
2.5
 42
0.625
 43
3.75
 44
1.25
 73
     0
 74
     0
 77
     1
 78
     8
140
2.5
141
2.5
143
0.0393700787
147
0.625
171
     3
172
     1
271
     2
272
     2
274
     3
278
    44
283
     0
284
     8
340
11
  0
ENDTAB
  0
TABLE
  2
BLOCK_RECORD
  5
1
330
0
100
AcDbSymbolTable
 70
     8
  0
BLOCK_RECORD
  5
1F
330
1
100
AcDbSymbolTableRecord
100
AcDbBlockTableRecord
  2
*Model_Space
340
22
  0
BLOCK_RECORD
  5
1B
330
1
100
AcDbSymbolTableRecord
100
AcDbBlockTableRecord
  2
*Paper_Space
340
1E
  0
BLOCK_RECORD
  5
5E
330
1
100
AcDbSymbolTableRecord
100
AcDbBlockTableRecord
  2
SEANNOT_GROUP
340
0
102
{BLKREFS
331
5F
102
}
  0
BLOCK_RECORD
  5
64
330
1
100
AcDbSymbolTableRecord
100
AcDbBlockTableRecord
  2
SEANNOT_GROUP1
340
0
102
{BLKREFS
331
65
102
}
  0
BLOCK_RECORD
  5
69
330
1
100
AcDbSymbolTableRecord
100
AcDbBlockTableRecord
  2
SEANNOT_GROUP2
340
0
102
{BLKREFS
331
6A
102
}
  0
BLOCK_RECORD
  5
6E
330
1
100
AcDbSymbolTableRecord
100
AcDbBlockTableRecord
  2
SEANNOT_GROUP3
340
0
102
{BLKREFS
331
6F
102
}
  0
BLOCK_RECORD
  5
73
330
1
100
AcDbSymbolTableRecord
100
AcDbBlockTableRecord
  2
SE
340
0
102
{BLKREFS
331
74
102
}
  0
BLOCK_RECORD
  5
10E
330
1
100
AcDbSymbolTableRecord
100
AcDbBlockTableRecord
  2
SE1
340
0
102
{BLKREFS
331
10F
102
}
  0
BLOCK_RECORD
  5
19D
330
1
100
AcDbSymbolTableRecord
100
AcDbBlockTableRecord
  2
SE2
340
0
102
{BLKREFS
331
19E
102
}
  0
ENDTAB
  0
ENDSEC
  0
SECTION
  2
BLOCKS
  0
BLOCK
  5
20
330
1F
100
AcDbEntity
  8
0
100
AcDbBlockBegin
  2
*Model_Space
 70
     0
 10
0.0
 20
0.0
 30
0.0
  3
*Model_Space
  1

  0
ENDBLK
  5
21
330
1F
100
AcDbEntity
  8
0
100
AcDbBlockEnd
  0
BLOCK
  5
1C
330
1B
100
AcDbEntity
 67
     1
  8
0
100
AcDbBlockBegin
  2
*Paper_Space
 70
     0
 10
0.0
 20
0.0
 30
0.0
  3
*Paper_Space
  1

  0
ENDBLK
  5
1D
330
1B
100
AcDbEntity
 67
     1
  8
0
100
AcDbBlockEnd
  0
BLOCK
  5
62
330
5E
100
AcDbEntity
  8
0
100
AcDbBlockBegin
  2
SEANNOT_GROUP
 70
     0
 10
0.0
 20
0.0
 30
0.0
  3
SEANNOT_GROUP
  1

  0
LINE
  5
61
330
5E
100
AcDbEntity
  8
Default
  6
CENTER2
 62
     7
100
AcDbLine
 10
71.6261715203
 20
226.4487920275
 30
0.0
 11
2.4693101098
 21
226.4487920275
 31
0.0
  0
ENDBLK
  5
63
330
5E
100
AcDbEntity
  8
0
100
AcDbBlockEnd
  0
BLOCK
  5
67
330
64
100
AcDbEntity
  8
0
100
AcDbBlockBegin
  2
SEANNOT_GROUP1
 70
     0
 10
0.0
 20
0.0
 30
0.0
  3
SEANNOT_GROUP1
  1

  0
LINE
  5
66
330
64
100
AcDbEntity
  8
Default
  6
CENTER2
 62
     7
100
AcDbLine
 10
40.4626871694
 20
356.1181512054
 30
0.0
 11
40.4626871716
 21
564.4442000423
 31
0.0
  0
ENDBLK
  5
68
330
64
100
AcDbEntity
  8
0
100
AcDbBlockEnd
  0
BLOCK
  5
6C
330
69
100
AcDbEntity
  8
0
100
AcDbBlockBegin
  2
SEANNOT_GROUP2
 70
     0
 10
0.0
 20
0.0
 30
0.0
  3
SEANNOT_GROUP2
  1

  0
LINE
  5
6B
330
69
100
AcDbEntity
  8
Default
  6
CENTER2
 62
     7
100
AcDbLine
 10
193.2116007406
 20
360.4604267357
 30
0.0
 11
193.2116007406
 21
409.3553006024
 31
0.0
  0
ENDBLK
  5
6D
330
69
100
AcDbEntity
  8
0
100
AcDbBlockEnd
  0
BLOCK
  5
71
330
6E
100
AcDbEntity
  8
0
100
AcDbBlockBegin
  2
SEANNOT_GROUP3
 70
     0
 10
0.0
 20
0.0
 30
0.0
  3
SEANNOT_GROUP3
  1

  0
LINE
  5
70
330
6E
100
AcDbEntity
  8
Default
  6
CENTER2
 62
     7
100
AcDbLine
 10
40.5498186206
 20
201.9560039261
 30
0.0
 11
40.4582486288
 21
274.1632287807
 31
0.0
  0
ENDBLK
  5
72
330
6E
100
AcDbEntity
  8
0
100
AcDbBlockEnd
  0
BLOCK
  5
10C
330
73
100
AcDbEntity
  8
0
100
AcDbBlockBegin
  2
SE
 70
     0
 10
0.0
 20
0.0
 30
0.0
  3
SE
  1

  0
ELLIPSE
  5
76
330
73
100
AcDbEntity
  8
$DDT_AUDIT_GENERATED_(75)
  6
Continuous
 62
     7
100
AcDbEllipse
 10
40.4626871696
 20
494.2131101244
 30
0.0
 11
10.75
 21
0.0
 31
0.0
210
0.0
220
0.0
230
1.0
 40
0.3090169944
 41
5.596941178294754
 42
6.283185307179586
  0
ELLIPSE
  5
77
330
73
100
AcDbEntity
  8
$DDT_AUDIT_GENERATED_(75)
  6
Continuous
 62
     7
100
AcDbEllipse
 10
40.4626871696
 20
494.2131101244
 30
0.0
 11
10.75
 21
0.0
 31
0.0
210
0.0
220
0.0
230
1.0
 40
0.3090169944
 41
0.0
 42
3.827836782474624
  0
LINE
  5
78
330
73
100
AcDbEntity
  8
$DDT_AUDIT_GENERATED_(75)
  6
Continuous
 62
     7
100
AcDbLine
 10
29.4626871696
 20
495.3143846453
 30
0.0
 11
29.4626871696
 21
493.7158376128
 31
0.0
  0
ELLIPSE
  5
79
330
73
100
AcDbEntity
  8
$DDT_AUDIT_GENERATED_(75)
  6
Continuous
 62
     7
100
AcDbEllipse
 10
40.4626871696
 20
497.0662796733
 30
0.0
 11
11.79999999999995
 21
1.110223024625157E-13
 31
0.0
210
0.0
220
0.0
230
1.0
 40
0.3090169944
 41
2.771250021498068
 42
3.511935285681508
  0
LINE
  5
7A
330
73
100
AcDbEntity
  8
$DDT_AUDIT_GENERATED_(75)
  6
Continuous
 62
     7
100
AcDbLine
 10
29.4626871696
 20
498.3860391254
 30
0.0
 11
29.4626871696
 21
496.6585096847
 31
0.0
  0
LINE
  5
7B
330
73
100
AcDbEntity
  8
$DDT_AUDIT_GENERATED_(75)
  6
Continuous
 62
     7
100
AcDbLine
 10
29.4626871696
 20
496.6585096847
 30
0.0
 11
29.4626871696
 21
495.3143846453
 31
0.0
  0
LINE
  5
7C
330
73
100
AcDbEntity
  8
$DDT_AUDIT_GENERATED_(75)
  6
Continuous
 62
     7
100
AcDbLine
 10
29.4626871696
 20
493.6208574763
 30
0.0
 11
29.4626871696
 21
493.7158376128
 31
0.0
  0
LINE
  5
7D
330
73
100
AcDbEntity
  8
$DDT_AUDIT_GENERATED_(75)
  6
Continuous
 62
     7
100
AcDbLine
 10
51.4626871696
 20
493.7158376128
 30
0.0
 11
51.4626871696
 21
495.3143846453
 31
0.0
  0
ELLIPSE
  5
7E
330
73
100
AcDbEntity
  8
$DDT_AUDIT_GENERATED_(75)
  6
Continuous
 62
     7
100
AcDbEllipse
 10
40.4626871696
 20
497.0662796733
 30
0.0
 11
-11.80000000000033
 21
1.110223024625157E-13
 31
0.0
210
0.0
220
0.0
230
1.0
 40
0.3090169944
 41
2.771250021498083
 42
3.511935285681512
  0
LINE
  5
7F
330
73
100
AcDbEntity
  8
$DDT_AUDIT_GENERATED_(75)
  6
Continuous
 62
     7
100
AcDbLine
 10
51.4626871696
 20
493.7158376128
 30
0.0
 11
51.4626871696
 21
493.6207521234
 31
0.0
  0
LINE
  5
80
330
73
100
AcDbEntity
  8
$DDT_AUDIT_GENERATED_(75)
  6
Continuous
 62
     7
100
AcDbLine
 10
51.4626871696
 20
495.3143846453
 30
0.0
 11
51.4626871696
 21
496.6585096847
 31
0.0
  0
LINE
  5
81
330
73
100
AcDbEntity
  8
$DDT_AUDIT_GENERATED_(75)
  6
Continuous
 62
     7
100
AcDbLine
 10
51.4626871696
 20
496.6585096847
 30
0.0
 11
51.4626871696
 21
498.3860391254
 31
0.0
  0
LINE
  5
82
330
73
100
AcDbEntity
  8
$DDT_AUDIT_GENERATED_(75)
  6
Continuous
 62
     7
100
AcDbLine
 10
31.122011388
 20
492.54995313
 30
0.0
 11
31.57664605
 21
492.3436014085
 31
0.0
  0
LINE
  5
83
330
73
100
AcDbEntity
  8
$DDT_AUDIT_GENERATED_(75)
  6
Continuous
 62
     7
100
AcDbLine
 10
49.3487282892
 20
492.3436014085
 30
0.0
 11
49.8033629512
 21
492.54995313
 31
0.0
  0
ARC
  5
84
330
73
100
AcDbEntity
  8
$DDT_AUDIT_GENERATED_(75)
  6
Continuous
 62
     7
100
AcDbCircle
 10
47.6678459951
 20
497.6661742323
 30
0.0
 40
5.541933562063631
100
AcDbArc
 50
292.4641144587
 51
313.186294179
  0
ARC
  5
85
330
73
100
AcDbEntity
  8
$DDT_AUDIT_GENERATED_(75)
  6
Continuous
 62
     7
100
AcDbCircle
 10
32.9704460729
 20
497.3089211657
 30
0.0
 40
5.087693615166994
100
AcDbArc
 50
226.4086512058
 51
243.614032621
  0
ARC
  5
86
330
73
100
AcDbEntity
  8
$DDT_AUDIT_GENERATED_(75)
  6
Continuous
 62
     7
100
AcDbCircle
 10
32.9704460729
 20
497.3089211657
 30
0.0
 40
5.087693615166994
100
AcDbArc
 50
243.897855857
 51
244.5942390057
  0
LINE
  5
87
330
73
100
AcDbEntity
  8
$DDT_AUDIT_GENERATED_(75)
  6
Continuous
 62
     7
100
AcDbLine
 10
28.6626871696
 20
499.9846849167
 30
0.0
 11
28.6626871696
 21
497.0662796733
 31
0.0
  0
LINE
  5
88
330
73
100
AcDbEntity
  8
$DDT_AUDIT_GENERATED_(75)
  6
Continuous
 62
     7
100
AcDbLine
 10
52.2626871696
 20
497.0662796733
 30
0.0
 11
52.2626871696
 21
499.9897204888
 31
0.0
  0
ELLIPSE
  5
8A
330
73
100
AcDbEntity
  8
$DDT_AUDIT_GENERATED_(89)
  6
Continuous
 62
     7
100
AcDbEllipse
 10
40.4626871696
 20
492.8816310016
 30
0.0
 11
7.999999999999998
 21
0.0
 31
0.0
210
0.0
220
0.0
230
1.0
 40
0.3090169944
 41
3.326035273982737
 42
6.098742686786642
  0
ELLIPSE
  5
8B
330
73
100
AcDbEntity
  8
$DDT_AUDIT_GENERATED_(89)
  6
Continuous
 62
     7
100
AcDbEllipse
 10
40.4626871696
 20
492.4536555693
 30
0.0
 11
7.875000000000007
 21
0.0
 31
0.0
210
0.0
220
0.0
230
1.0
 40
0.3090169944
 41
0.0
 42
6.283185307179586
  0
SPLINE
  5
8C
330
73
100
AcDbEntity
  8
$DDT_AUDIT_GENERATED_(89)
  6
Continuous
 62
     7
100
AcDbSpline
210
0.0
220
0.0
230
1.0
 70
     8
 71
     3
 72
    11
 73
     7
 74
     0
 42
0.0000001424964499
 43
0.0000000001
 40
0.0
 40
0.0
 40
0.0
 40
0.0
 40
0.1662420688397998
 40
0.1662420688397998
 40
0.1662420688397998
 40
0.2003566415977777
 40
0.2003566415977777
 40
0.2003566415977777
 40
0.2003566415977777
 10
41.00269128693705
 20
492.9942435074345
 30
0.0
 10
41.00486652296355
 20
492.9915264793472
 30
0.0
 10
41.00827368418211
 20
492.9900865198894
 30
0.0
 10
41.01245834409389
 20
492.9899594022787
 30
0.0
 10
41.01332027295929
 20
492.989933219425
 30
0.0
 10
41.01421857976922
 20
492.9899610588658
 30
0.0
 10
41.01514855817939
 20
492.9900404250665
 30
0.0
  0
SPLINE
  5
8D
330
73
100
AcDbEntity
  8
$DDT_AUDIT_GENERATED_(89)
  6
Continuous
 62
     7
100
AcDbSpline
210
0.0
220
0.0
230
1.0
 70
    12
 71
     2
 72
     6
 73
     3
 74
     0
 42
0.0000011797244874
 43
0.0000000001
 40
0.0
 40
0.0
 40
0.0
 40
1.0
 40
1.0
 40
1.0
 10
40.99714218267044
 20
493.0006431069496
 30
0.0
 41
1.0
 10
41.00011631661934
 20
492.9974598327369
 30
0.0
 41
1.0
 10
41.00269128693704
 20
492.9942435074345
 30
0.0
 41
1.0
  0
SPLINE
  5
8E
330
73
100
AcDbEntity
  8
$DDT_AUDIT_GENERATED_(89)
  6
Continuous
 62
     7
100
AcDbSpline
210
0.0
220
0.0
230
1.0
 70
     8
 71
     3
 72
    10
 73
     6
 74
     0
 42
0.0000000747142977
 43
0.0000000001
 40
0.0
 40
0.0
 40
0.0
 40
0.0
 40
0.5
 40
0.5
 40
1.0
 40
1.0
 40
1.0
 40
1.0
 10
41.0387521172127
 20
493.1202429612356
 30
0.0
 10
41.02436762860432
 20
493.0967279852736
 30
0.0
 10
41.01139838134944
 20
493.0724828985233
 30
0.0
 10
40.99376556371518
 20
493.0290388420802
 30
0.0
 10
40.98943592623032
 20
493.0088912651756
 30
0.0
 10
40.99714218267045
 20
493.0006431069496
 30
0.0
  0
LINE
  5
8F
330
73
100
AcDbEntity
  8
$DDT_AUDIT_GENERATED_(89)
  6
Continuous
 62
     7
100
AcDbLine
 10
41.093369788
 20
493.2655799142
 30
0.0
 11
41.0387521172
 21
493.1202429612
 31
0.0
  0
SPLINE
  5
90
330
73
100
AcDbEntity
  8
$DDT_AUDIT_GENERATED_(89)
  6
Continuous
 62
     7
100
AcDbSpline
210
0.0
220
0.0
230
1.0
 70
     8
 71
     3
 72
    14
 73
    10
 74
     0
 42
0.0000000644658806
 43
0.0000000001
 40
0.0
 40
0.0
 40
0.0
 40
0.0
 40
0.1662420688398022
 40
0.1662420688398022
 40
0.1662420688398022
 40
0.331065087576697
 40
0.331065087576697
 40
0.331065087576697
 40
0.3642057552415668
 40
0.3642057552415668
 40
0.3642057552415668
 40
0.3642057552415668
 10
40.75006148811821
 20
493.1001471447258
 30
0.0
 10
40.75781683985964
 20
493.0987012222409
 30
0.0
 10
40.766322879634
 20
493.0987861409552
 30
0.0
 10
40.77471112043267
 20
493.1002683424406
 30
0.0
 10
40.78305869049976
 20
493.101743357411
 30
0.0
 10
40.79150559599405
 20
493.1046008200491
 30
0.0
 10
40.79948989380357
 20
493.1084194149227
 30
0.0
 10
40.80108878693318
 20
493.1091841064778
 30
0.0
 10
40.80267586320649
 20
493.1099898873437
 30
0.0
 10
40.80424918814455
 20
493.110834097516
 30
0.0
  0
SPLINE
  5
91
330
73
100
AcDbEntity
  8
$DDT_AUDIT_GENERATED_(89)
  6
Continuous
 62
     7
100
AcDbSpline
210
0.0
220
0.0
230
1.0
 70
    12
 71
     2
 72
     6
 73
     3
 74
     0
 42
0.0000005301828424
 43
0.0000000001
 40
0.0
 40
0.0
 40
0.0
 40
1.0
 40
1.0
 40
1.0
 10
40.73149382335758
 20
493.1034598211969
 30
0.0
 41
1.0
 10
40.74088096688776
 20
493.1018587785119
 30
0.0
 41
1.0
 10
40.75006148811821
 20
493.1001471447258
 30
0.0
 41
1.0
  0
SPLINE
  5
92
330
73
100
AcDbEntity
  8
$DDT_AUDIT_GENERATED_(89)
  6
Continuous
 62
     7
100
AcDbSpline
210
0.0
220
0.0
230
1.0
 70
     8
 71
     3
 72
    10
 73
     6
 74
     0
 42
0.0000000674034204
 43
0.0000000001
 40
0.0
 40
0.0
 40
0.0
 40
0.0
 40
0.5
 40
0.5
 40
1.0
 40
1.0
 40
1.0
 40
1.0
 10
40.68029575749023
 20
493.221832403973
 30
0.0
 10
40.67473054918788
 20
493.1957638861562
 30
0.0
 10
40.67532419481578
 20
493.1699347344012
 30
0.0
 10
40.69070700339064
 20
493.1262026789807
 30
0.0
 10
40.70717086530932
 20
493.1076082710344
 30
0.0
 10
40.7314938233576
 20
493.1034598211969
 30
0.0
  0
LINE
  5
93
330
73
100
AcDbEntity
  8
$DDT_AUDIT_GENERATED_(89)
  6
Continuous
 62
     7
100
AcDbLine
 10
40.6888579691
 20
493.3024139557
 30
0.0
 11
40.6802957575
 21
493.221832404
 31
0.0
  0
LINE
  5
94
330
73
100
AcDbEntity
  8
$DDT_AUDIT_GENERATED_(89)
  6
Continuous
 62
     7
100
AcDbLine
 10
40.4070265727
 20
493.2329497757
 30
0.0
 11
40.4069804598
 21
493.30096558
 31
0.0
  0
SPLINE
  5
95
330
73
100
AcDbEntity
  8
$DDT_AUDIT_GENERATED_(89)
  6
Continuous
 62
     7
100
AcDbSpline
210
0.0
220
0.0
230
1.0
 70
     8
 71
     3
 72
    20
 73
    16
 74
     0
 42
0.0000000653966014
 43
0.0000000001
 40
0.0
 40
0.0
 40
0.0
 40
0.0
 40
0.166242068839801
 40
0.166242068839801
 40
0.166242068839801
 40
0.3310650875766957
 40
0.3310650875766957
 40
0.3310650875766957
 40
0.5632461486775338
 40
0.5632461486775338
 40
0.5632461486775338
 40
0.8533054901458648
 40
0.8533054901458648
 40
0.8533054901458648
 40
1.0
 40
1.0
 40
1.0
 40
1.0
 10
40.32909171099416
 20
493.1198306896383
 30
0.0
 10
40.33788419858136
 20
493.1205028745372
 30
0.0
 10
40.34650639417379
 20
493.1227801907654
 30
0.0
 10
40.35418449816394
 20
493.1263188688005
 30
0.0
 10
40.36182537455013
 20
493.1298403894093
 30
0.0
 10
40.36875756367991
 20
493.1346663612428
 30
0.0
 10
40.37471714155936
 20
493.1402697586799
 30
0.0
 10
40.38307824788702
 20
493.148131154691
 30
0.0
 10
40.38979871707232
 20
493.1577250969755
 30
0.0
 10
40.39483955314988
 20
493.1680467469108
 30
0.0
 10
40.4011226540904
 20
493.1809120667542
 30
0.0
 10
40.40501867503509
 20
493.1953205865221
 30
0.0
 10
40.40653704755524
 20
493.2100443314021
 30
0.0
 10
40.40731278796439
 20
493.2175667303694
 30
0.0
 10
40.4074794563633
 20
493.22525274049
 30
0.0
 10
40.40702657268758
 20
493.2329497757161
 30
0.0
  0
SPLINE
  5
96
330
73
100
AcDbEntity
  8
$DDT_AUDIT_GENERATED_(89)
  6
Continuous
 62
     7
100
AcDbSpline
210
0.0
220
0.0
230
1.0
 70
    12
 71
     2
 72
     6
 73
     3
 74
     0
 42
0.000000481212789
 43
0.0000000001
 40
0.0
 40
0.0
 40
0.0
 40
1.0
 40
1.0
 40
1.0
 10
40.30838217193472
 20
493.1181159221163
 30
0.0
 41
1.0
 10
40.31868346367814
 20
493.1190349800501
 30
0.0
 41
1.0
 10
40.32909171099418
 20
493.1198306896383
 30
0.0
 41
1.0
  0
SPLINE
  5
97
330
73
100
AcDbEntity
  8
$DDT_AUDIT_GENERATED_(89)
  6
Continuous
 62
     7
100
AcDbSpline
210
0.0
220
0.0
230
1.0
 70
     8
 71
     3
 72
    10
 73
     6
 74
     0
 42
0.0000000597620615
 43
0.0000000001
 40
0.4090229794295734
 40
0.4090229794295734
 40
0.4090229794295734
 40
0.4090229794295734
 40
0.5
 40
0.5
 40
1.0
 40
1.0
 40
1.0
 40
1.0
 10
40.22422676887993
 20
493.1576069745223
 30
0.0
 10
40.22741195757751
 20
493.1539157789276
 30
0.0
 10
40.23080047208489
 20
493.150388739349
 30
0.0
 10
40.25407751692664
 20
493.1286871633351
 30
0.0
 10
40.28169057122593
 20
493.1157345579133
 30
0.0
 10
40.30838217193471
 20
493.1181159221164
 30
0.0
  0
LINE
  5
98
330
73
100
AcDbEntity
  8
$DDT_AUDIT_GENERATED_(89)
  6
Continuous
 62
     7
100
AcDbLine
 10
39.9756974675
 20
493.1634910638
 30
0.0
 11
39.9386840788
 21
493.2873826478
 31
0.0
  0
SPLINE
  5
99
330
73
100
AcDbEntity
  8
$DDT_AUDIT_GENERATED_(89)
  6
Continuous
 62
     7
100
AcDbSpline
210
0.0
220
0.0
230
1.0
 70
     8
 71
     3
 72
    20
 73
    16
 74
     0
 42
0.0000000757442536
 43
0.0000000001
 40
0.0
 40
0.0
 40
0.0
 40
0.0
 40
0.1662420688398013
 40
0.1662420688398013
 40
0.1662420688398013
 40
0.3310650875766956
 40
0.3310650875766956
 40
0.3310650875766956
 40
0.5632461486775328
 40
0.5632461486775328
 40
0.5632461486775328
 40
0.8533054901458635
 40
0.8533054901458635
 40
0.8533054901458635
 40
1.0
 40
1.0
 40
1.0
 40
1.0
 10
39.98638034165501
 20
493.0417637885177
 30
0.0
 10
39.99105944510639
 20
493.0441603240031
 30
0.0
 10
39.99474703127626
 20
493.0480132803573
 30
0.0
 10
39.99721726927378
 20
493.0528509363238
 30
0.0
 10
39.99967553022046
 20
493.0576651367157
 30
0.0
 10
40.00103222061045
 20
493.063552077088
 30
0.0
 10
40.00147603866405
 20
493.069975102994
 30
0.0
 10
40.00209870188137
 20
493.0789864127931
 30
0.0
 10
40.00098116052736
 20
493.0892975244055
 30
0.0
 10
39.99873347881437
 20
493.0999766953904
 30
0.0
 10
39.99593187787605
 20
493.1132876438573
 30
0.0
 10
39.99129873359079
 20
493.1276018125525
 30
0.0
 10
39.98551139848879
 20
493.1417791343627
 30
0.0
 10
39.98255463416357
 20
493.1490223643842
 30
0.0
 10
39.97926254209611
 20
493.1563083233066
 30
0.0
 10
39.97569746751099
 20
493.1634910637724
 30
0.0
  0
SPLINE
  5
9A
330
73
100
AcDbEntity
  8
$DDT_AUDIT_GENERATED_(89)
  6
Continuous
 62
     7
100
AcDbSpline
210
0.0
220
0.0
230
1.0
 70
    12
 71
     2
 72
     6
 73
     3
 74
     0
 42
0.0000008222961321
 43
0.0000000001
 40
0.0
 40
0.0
 40
0.0
 40
1.0
 40
1.0
 40
1.0
 10
39.97566029540724
 20
493.0360260645609
 30
0.0
 41
1.0
 10
39.98084137837057
 20
493.0389268514404
 30
0.0
 41
1.0
 10
39.98638034165501
 20
493.0417637885178
 30
0.0
 41
1.0
  0
SPLINE
  5
9B
330
73
100
AcDbEntity
  8
$DDT_AUDIT_GENERATED_(89)
  6
Continuous
 62
     7
100
AcDbSpline
210
0.0
220
0.0
230
1.0
 70
     8
 71
     3
 72
     8
 73
     4
 74
     0
 42
0.0000000952160553
 43
0.0000000001
 40
0.77816247683454
 40
0.77816247683454
 40
0.77816247683454
 40
0.77816247683454
 40
1.0
 40
1.0
 40
1.0
 40
1.0
 10
39.95339322014038
 20
493.033676456951
 30
0.0
 10
39.96194435491372
 20
493.0321209401149
 30
0.0
 10
39.96970410624168
 20
493.0326913108987
 30
0.0
 10
39.97566029540724
 20
493.0360260645609
 30
0.0
  0
ELLIPSE
  5
9C
330
73
100
AcDbEntity
  8
$DDT_AUDIT_GENERATED_(89)
  6
Continuous
 62
     7
100
AcDbEllipse
 10
40.4626871696
 20
492.5195228445
 30
0.0
 11
8.422375322854238
 21
0.0
 31
0.0
210
0.0
220
0.0
230
1.0
 40
0.3090169944
 41
5.958959273714203
 42
6.283185307179586
  0
ELLIPSE
  5
9D
330
73
100
AcDbEntity
  8
$DDT_AUDIT_GENERATED_(89)
  6
Continuous
 62
     7
100
AcDbEllipse
 10
40.4626871696
 20
492.5195228445
 30
0.0
 11
8.422375322854238
 21
0.0
 31
0.0
210
0.0
220
0.0
230
1.0
 40
0.3090169944
 41
3.111347573311718
 42
3.466470434542863
  0
ELLIPSE
  5
9E
330
73
100
AcDbEntity
  8
$DDT_AUDIT_GENERATED_(89)
  6
Continuous
 62
     7
100
AcDbEllipse
 10
40.4626871696
 20
492.4536555693
 30
0.0
 11
8.327218268566535
 21
0.0
 31
0.0
210
0.0
220
0.0
230
1.0
 40
0.3090169944
 41
4.14579817652438
 42
5.409531798712707
  0
ELLIPSE
  5
9F
330
73
100
AcDbEntity
  8
$DDT_AUDIT_GENERATED_(89)
  6
Continuous
 62
     7
100
AcDbEllipse
 10
40.4626871696
 20
492.5342997233
 30
0.0
 11
-4.650545274088401
 21
-1.387778780781446E-14
 31
0.0
210
0.0
220
0.0
230
1.0
 40
0.3090169944
 41
3.08719169672048
 42
3.141592653589784
  0
ELLIPSE
  5
A0
330
73
100
AcDbEntity
  8
$DDT_AUDIT_GENERATED_(89)
  6
Continuous
 62
     7
100
AcDbEllipse
 10
40.4626871696
 20
492.4536555693
 30
0.0
 11
4.537500000000001
 21
0.0
 31
0.0
210
0.0
220
0.0
230
1.0
 40
0.3090169944
 41
4.026284628595443
 42
5.351665275689134
  0
ELLIPSE
  5
A1
330
73
100
AcDbEntity
  8
$DDT_AUDIT_GENERATED_(89)
  6
Continuous
 62
     7
100
AcDbEllipse
 10
40.4626871696
 20
492.4536555693
 30
0.0
 11
4.537500000000001
 21
0.0
 31
0.0
210
0.0
220
0.0
230
1.0
 40
0.3090169944
 41
0.5306051195821258
 42
2.600015775165034
  0
ELLIPSE
  5
A2
330
73
100
AcDbEntity
  8
$DDT_AUDIT_GENERATED_(89)
  6
Continuous
 62
     7
100
AcDbEllipse
 10
40.4626871696
 20
492.5487612209
 30
0.0
 11
4.437500000000001
 21
0.0
 31
0.0
210
0.0
220
0.0
230
1.0
 40
0.3090169944
 41
3.141592653589793
 42
3.164612597017942
  0
ELLIPSE
  5
A3
330
73
100
AcDbEntity
  8
$DDT_AUDIT_GENERATED_(89)
  6
Continuous
 62
     7
100
AcDbEllipse
 10
40.4626871696
 20
492.5314950296
 30
0.0
 11
2.877609892686965
 21
0.0
 31
0.0
210
0.0
220
0.0
230
1.0
 40
0.3090169944
 41
6.200903155255938
 42
6.283185307179586
  0
ELLIPSE
  5
A4
330
73
100
AcDbEntity
  8
$DDT_AUDIT_GENERATED_(89)
  6
Continuous
 62
     7
100
AcDbEllipse
 10
40.4626871696
 20
492.4536555693
 30
0.0
 11
2.7625
 21
0.0
 31
0.0
210
0.0
220
0.0
230
1.0
 40
0.3090169944
 41
3.87510193660033
 42
5.329289712815943
  0
ELLIPSE
  5
A5
330
73
100
AcDbEntity
  8
$DDT_AUDIT_GENERATED_(89)
  6
Continuous
 62
     7
100
AcDbEllipse
 10
40.4626871696
 20
492.4536555693
 30
0.0
 11
2.7625
 21
0.0
 31
0.0
210
0.0
220
0.0
230
1.0
 40
0.3090169944
 41
0.5743842492870948
 42
2.597401065849218
  0
ELLIPSE
  5
A6
330
73
100
AcDbEntity
  8
$DDT_AUDIT_GENERATED_(89)
  6
Continuous
 62
     7
100
AcDbEllipse
 10
40.4626871696
 20
492.5487612209
 30
0.0
 11
2.6625
 21
0.0
 31
0.0
210
0.0
220
0.0
230
1.0
 40
0.3090169944
 41
3.141592653589793
 42
3.15366980266843
  0
ELLIPSE
  5
A7
330
73
100
AcDbEntity
  8
$DDT_AUDIT_GENERATED_(89)
  6
Continuous
 62
     7
100
AcDbEllipse
 10
-136.9892330856
 20
523.7811860462
 30
0.0
 11
63.09656879387477
 21
-197.7443382113057
 31
0.0
210
0.0
220
0.0
230
1.0
 40
0.8532626179
 41
1.152514837807192
 42
1.153578343652005
  0
SPLINE
  5
A8
330
73
100
AcDbEntity
  8
$DDT_AUDIT_GENERATED_(89)
  6
Continuous
 62
     7
100
AcDbSpline
210
0.0
220
0.0
230
1.0
 70
     8
 71
     3
 72
    20
 73
    16
 74
     0
 42
0.0000000796897933
 43
0.0000000001
 40
0.0
 40
0.0
 40
0.0
 40
0.0
 40
0.2315031754664697
 40
0.2315031754664697
 40
0.2315031754664697
 40
0.4629973077209971
 40
0.4629973077209971
 40
0.4629973077209971
 40
0.6946193130915668
 40
0.6946193130915668
 40
0.6946193130915668
 40
0.9262742376843552
 40
0.9262742376843552
 40
0.9262742376843552
 40
1.0
 40
1.0
 40
1.0
 40
1.0
 10
42.82154849637059
 20
492.6557598081416
 30
0.0
 10
42.82096208084335
 20
492.644840019699
 30
0.0
 10
42.8194774803224
 20
492.6334515124649
 30
0.0
 10
42.81720195994345
 20
492.6225404374276
 30
0.0
 10
42.81492649204971
 20
492.611629614056
 30
0.0
 10
42.81179635569966
 20
492.6008954911024
 30
0.0
 10
42.80804223041812
 20
492.5912302786517
 30
0.0
 10
42.80428608250893
 20
492.581559858829
 30
0.0
 10
42.79980020475139
 20
492.5726929973126
 30
0.0
 10
42.79492741978197
 20
492.5653685504083
 30
0.0
 10
42.7900540235701
 20
492.5580431847249
 30
0.0
 10
42.78465793344465
 20
492.5520587665226
 30
0.0
 10
42.77917059222521
 20
492.5479147997387
 30
0.0
 10
42.77740162655252
 20
492.5465789004942
 30
0.0
 10
42.77561327573508
 20
492.5454217550267
 30
0.0
 10
42.77382114044642
 20
492.544453563046
 30
0.0
  0
SPLINE
  5
A9
330
73
100
AcDbEntity
  8
$DDT_AUDIT_GENERATED_(89)
  6
Continuous
 62
     7
100
AcDbSpline
210
0.0
220
0.0
230
1.0
 70
    12
 71
     2
 72
     6
 73
     3
 74
     0
 42
0.0000008224310507
 43
0.0000000001
 40
0.0
 40
0.0
 40
0.0
 40
1.0
 40
1.0
 40
1.0
 10
42.77382114044645
 20
492.544453563046
 30
0.0
 41
1.0
 10
42.76849849719831
 20
492.5415780320849
 30
0.0
 41
1.0
 10
42.76310109419865
 20
492.5387158390891
 30
0.0
 41
1.0
  0
SPLINE
  5
AA
330
73
100
AcDbEntity
  8
$DDT_AUDIT_GENERATED_(89)
  6
Continuous
 62
     7
100
AcDbSpline
210
0.0
220
0.0
230
1.0
 70
     8
 71
     3
 72
    11
 73
     7
 74
     0
 42
0.0000001310011809
 43
0.0000000001
 40
0.0
 40
0.0
 40
0.0
 40
0.0
 40
0.231498784958019
 40
0.231498784958019
 40
0.231498784958019
 40
0.2460949334899661
 40
0.2460949334899661
 40
0.2460949334899661
 40
0.2460949334899661
 10
42.76310109419862
 20
492.538715839089
 30
0.0
 10
42.75746751583729
 20
492.5357284044788
 30
0.0
 10
42.75169197199358
 20
492.5345481454585
 30
0.0
 10
42.74626269900933
 20
492.5352704539499
 30
0.0
 10
42.74592037488589
 20
492.535315996626
 30
0.0
 10
42.74557883566427
 20
492.5353691806935
 30
0.0
 10
42.74523819609163
 20
492.5354299500679
 30
0.0
  0
ELLIPSE
  5
AB
330
73
100
AcDbEntity
  8
$DDT_AUDIT_GENERATED_(89)
  6
Continuous
 62
     7
100
AcDbEllipse
 10
-12.5698052814
 20
553.2829867483
 30
0.0
 11
-6.034808245476079
 21
-207.4791673938499
 31
0.0
210
0.0
220
0.0
230
1.0
 40
0.2794682995
 41
1.280364426576286
 42
1.283076106070608
  0
ARC
  5
AC
330
73
100
AcDbEntity
  8
$DDT_AUDIT_GENERATED_(89)
  6
Continuous
 62
     7
100
AcDbCircle
 10
41.1517767889
 20
492.2651566919
 30
0.0
 40
0.1065609008392418
100
AcDbArc
 50
275.5820369275
 51
352.9556449625
  0
LINE
  5
AD
330
73
100
AcDbEntity
  8
$DDT_AUDIT_GENERATED_(89)
  6
Continuous
 62
     7
100
AcDbLine
 10
41.1621420611
 20
492.1591011087
 30
0.0
 11
41.141432522
 21
492.1573863412
 31
0.0
  0
ARC
  5
AE
330
73
100
AcDbEntity
  8
$DDT_AUDIT_GENERATED_(89)
  6
Continuous
 62
     7
100
AcDbCircle
 10
41.1323403631
 20
492.2450143923
 30
0.0
 40
0.0880984829035278
100
AcDbArc
 50
220.7104601143
 51
275.9237293368
  0
ARC
  5
AF
330
73
100
AcDbEntity
  8
$DDT_AUDIT_GENERATED_(89)
  6
Continuous
 62
     7
100
AcDbCircle
 10
39.1535661648
 20
492.3120996384
 30
0.0
 40
0.0744339125107679
100
AcDbArc
 50
260.0710743469
 51
297.6691566774
  0
LINE
  5
B0
330
73
100
AcDbEntity
  8
$DDT_AUDIT_GENERATED_(89)
  6
Continuous
 62
     7
100
AcDbLine
 10
39.1407317926
 20
492.2387805671
 30
0.0
 11
39.1221641278
 21
492.2420932436
 31
0.0
  0
ARC
  5
B1
330
73
100
AcDbEntity
  8
$DDT_AUDIT_GENERATED_(89)
  6
Continuous
 62
     7
100
AcDbCircle
 10
39.1489166882
 20
492.3508421979
 30
0.0
 40
0.111991225387282
100
AcDbArc
 50
184.314963784
 51
256.1795026906
  0
ELLIPSE
  5
B2
330
73
100
AcDbEntity
  8
$DDT_AUDIT_GENERATED_(89)
  6
Continuous
 62
     7
100
AcDbEllipse
 10
142.9140840328
 20
546.9573605078
 30
0.0
 11
-11.11306922799464
 21
-207.2690179987516
 31
0.0
210
0.0
220
0.0
230
1.0
 40
0.5073777183
 41
-1.279452364407081
 42
-1.277053730680638
  0
LINE
  5
B3
330
73
100
AcDbEntity
  8
$DDT_AUDIT_GENERATED_(89)
  6
Continuous
 62
     7
100
AcDbLine
 10
46.9346013682
 20
492.9496475639
 30
0.0
 11
46.9346013682
 21
492.9562729168
 31
0.0
  0
ARC
  5
B4
330
73
100
AcDbEntity
  8
$DDT_AUDIT_GENERATED_(89)
  6
Continuous
 62
     7
100
AcDbCircle
 10
47.8286351134
 20
492.8947931927
 30
0.0
 40
0.896145130018445
100
AcDbArc
 50
168.6377317539
 51
176.0661530665
  0
ARC
  5
B5
330
73
100
AcDbEntity
  8
$DDT_AUDIT_GENERATED_(89)
  6
Continuous
 62
     7
100
AcDbCircle
 10
-509.0308181853
 20
596.0747700841
 30
0.0
 40
565.4418054132437
100
AcDbArc
 50
349.5041385299
 51
349.5470557799
  0
ARC
  5
B6
330
73
100
AcDbEntity
  8
$DDT_AUDIT_GENERATED_(89)
  6
Continuous
 62
     7
100
AcDbCircle
 10
442.1892128393
 20
555.4002668976
 30
0.0
 40
411.2083644741575
100
AcDbArc
 50
188.6804302603
 51
188.7182132298
  0
ARC
  5
B7
330
73
100
AcDbEntity
  8
$DDT_AUDIT_GENERATED_(89)
  6
Continuous
 62
     7
100
AcDbCircle
 10
34.6698349808
 20
492.8988719342
 30
0.0
 40
1.076127120553668
100
AcDbArc
 50
3.0576272478
 51
9.2226482748
  0
ARC
  5
B8
330
73
100
AcDbEntity
  8
$DDT_AUDIT_GENERATED_(89)
  6
Continuous
 62
     7
100
AcDbCircle
 10
36.1949835736
 20
492.9529602404
 30
0.0
 40
0.4505656346047088
100
AcDbArc
 50
179.5787426378
 51
180.4212573621
  0
SPLINE
  5
B9
330
73
100
AcDbEntity
  8
$DDT_AUDIT_GENERATED_(89)
  6
Continuous
 62
     7
100
AcDbSpline
210
0.0
220
0.0
230
1.0
 70
     8
 71
     3
 72
     8
 73
     4
 74
     0
 42
0.0000004025544638
 43
0.0000000001
 40
0.0
 40
0.0
 40
0.0
 40
0.0
 40
0.2108628017571917
 40
0.2108628017571917
 40
0.2108628017571917
 40
0.2108628017571917
 10
35.74443011698502
 20
492.9496475638803
 30
0.0
 10
35.74445337585821
 20
492.9464841503066
 30
0.0
 10
35.74426325684329
 20
492.9448186399217
 30
0.0
 10
35.74386998228896
 20
492.9447556117497
 30
0.0
  0
SPLINE
  5
BA
330
73
100
AcDbEntity
  8
$DDT_AUDIT_GENERATED_(89)
  6
Continuous
 62
     7
100
AcDbSpline
210
0.0
220
0.0
230
1.0
 70
     8
 71
     3
 72
    11
 73
     7
 74
     0
 42
0.0000004039866925
 43
0.0000000001
 40
0.7859730507901856
 40
0.7859730507901856
 40
0.7859730507901856
 40
0.7859730507901856
 40
0.9340165527280078
 40
0.9340165527280078
 40
0.9340165527280078
 40
1.0
 40
1.0
 40
1.0
 40
1.0
 10
46.93538506479211
 20
492.9447620663959
 30
0.0
 10
46.93501592729555
 20
492.9447615498825
 30
0.0
 10
46.93477293225494
 20
492.9455395460699
 30
0.0
 10
46.93466588163553
 20
492.9470870889822
 30
0.0
 10
46.93461752497144
 20
492.9477861415722
 30
0.0
 10
46.93459597663912
 20
492.9486417102959
 30
0.0
 10
46.93460136822232
 20
492.9496475638803
 30
0.0
  0
LINE
  5
BB
330
73
100
AcDbEntity
  8
$DDT_AUDIT_GENERATED_(89)
  6
Continuous
 62
     7
100
AcDbLine
 10
39.8296403251
 20
493.0201274722
 30
0.0
 11
39.8116657118
 21
493.0588111033
 31
0.0
  0
SPLINE
  5
BC
330
73
100
AcDbEntity
  8
$DDT_AUDIT_GENERATED_(89)
  6
Continuous
 62
     7
100
AcDbSpline
210
0.0
220
0.0
230
1.0
 70
    12
 71
     2
 72
     6
 73
     3
 74
     0
 42
0.0000011797244874
 43
0.0000000001
 40
0.0
 40
0.0
 40
0.0
 40
1.0
 40
1.0
 40
1.0
 10
39.92823215654485
 20
492.905277373753
 30
0.0
 41
1.0
 10
39.92525802259594
 20
492.9084606479657
 30
0.0
 41
1.0
 10
39.92268305227824
 20
492.911676973268
 30
0.0
 41
1.0
  0
ARC
  5
BD
330
73
100
AcDbEntity
  8
$DDT_AUDIT_GENERATED_(89)
  6
Continuous
 62
     7
100
AcDbCircle
 10
40.8439172398
 20
493.7961668748
 30
0.0
 40
1.277104073404982
100
AcDbArc
 50
217.4201777231
 51
223.8342615512
  0
SPLINE
  5
BE
330
73
100
AcDbEntity
  8
$DDT_AUDIT_GENERATED_(89)
  6
Continuous
 62
     7
100
AcDbSpline
210
0.0
220
0.0
230
1.0
 70
     8
 71
     3
 72
     8
 73
     4
 74
     0
 42
0.0000002991917053
 43
0.0000000001
 40
0.8001400704348155
 40
0.8001400704348155
 40
0.8001400704348155
 40
0.8001400704348155
 40
1.0
 40
1.0
 40
1.0
 40
1.0
 10
39.93218617747873
 20
492.9005068131495
 30
0.0
 10
39.93246979744748
 20
492.9004937188193
 30
0.0
 10
39.93131250028429
 20
492.9019804211088
 30
0.0
 10
39.92823215654486
 20
492.9052773737529
 30
0.0
  0
SPLINE
  5
BF
330
73
100
AcDbEntity
  8
$DDT_AUDIT_GENERATED_(89)
  6
Continuous
 62
     7
100
AcDbSpline
210
0.0
220
0.0
230
1.0
 70
     8
 71
     3
 72
    17
 73
    13
 74
     0
 42
0.0000000088163153
 43
0.0000000001
 40
0.0
 40
0.0
 40
0.0
 40
0.0
 40
0.0137487626277213
 40
0.1060155789670062
 40
0.2027226666239515
 40
0.3141545596853713
 40
0.4465917297572354
 40
0.5728705645910005
 40
0.7053537290844503
 40
0.8391155095585668
 40
0.9372436727376917
 40
1.0
 40
1.0
 40
1.0
 40
1.0
 10
40.99060301706611
 20
492.8998743575693
 30
0.0
 10
40.9864619416587
 20
492.8958803369334
 30
0.0
 10
40.9589827576998
 20
492.8694584226719
 30
0.0
 10
40.89028974673012
 20
492.8297832227847
 30
0.0
 10
40.78971344545147
 20
492.7857106363397
 30
0.0
 10
40.66730772041716
 20
492.7545909308262
 30
0.0
 10
40.5260469987934
 20
492.738387252335
 30
0.0
 10
40.37220726858712
 20
492.7401047399072
 30
0.0
 10
40.2236694146832
 20
492.7605360858843
 30
0.0
 10
40.09667058110806
 20
492.7997422135122
 30
0.0
 10
39.99572236099017
 20
492.8500078776401
 30
0.0
 10
39.9520965937114
 20
492.886877861926
 30
0.0
 10
39.93222786266629
 20
492.9039178300309
 30
0.0
  0
ARC
  5
C0
330
73
100
AcDbEntity
  8
$DDT_AUDIT_GENERATED_(89)
  6
Continuous
 62
     7
100
AcDbCircle
 10
40.6788578014
 20
493.2961980699
 30
0.0
 40
0.504239590339037
100
AcDbArc
 50
308.188320815
 51
323.1393373585
  0
ARC
  5
C1
330
73
100
AcDbEntity
  8
$DDT_AUDIT_GENERATED_(89)
  6
Continuous
 62
     7
100
AcDbCircle
 10
44.6110842815
 20
496.6040440544
 30
0.0
 40
6.244791529409247
100
AcDbArc
 50
281.4096044159
 51
307.5947118159
  0
ARC
  5
C2
330
73
100
AcDbEntity
  8
$DDT_AUDIT_GENERATED_(89)
  6
Continuous
 62
     7
100
AcDbCircle
 10
38.3346578427
 20
502.7729425796
 30
0.0
 40
12.71327957588149
100
AcDbArc
 50
255.3535129765
 51
259.2988284106
  0
ARC
  5
C3
330
73
100
AcDbEntity
  8
$DDT_AUDIT_GENERATED_(89)
  6
Continuous
 62
     7
100
AcDbCircle
 10
36.3336536208
 20
496.6346595736
 30
0.0
 40
6.280245196147842
100
AcDbArc
 50
232.4680900071
 51
258.8579773127
  0
SPLINE
  5
C4
330
73
100
AcDbEntity
  8
$DDT_AUDIT_GENERATED_(89)
  6
Continuous
 62
     7
100
AcDbSpline
210
0.0
220
0.0
230
1.0
 70
     8
 71
     3
 72
    16
 73
    12
 74
     0
 42
0.0000000051533319
 43
0.0000000001
 40
0.0
 40
0.0
 40
0.0
 40
0.0
 40
0.0513111607919647
 40
0.1768738808210792
 40
0.3027085608617748
 40
0.4288634776469804
 40
0.5553533316635205
 40
0.6820796694967455
 40
0.8084327470626905
 40
0.9332917515646784
 40
1.0
 40
1.0
 40
1.0
 40
1.0
 10
45.32856261624499
 20
491.211588491233
 30
0.0
 10
45.37617067773436
 20
491.228619830759
 30
0.0
 10
45.51562686493903
 20
491.2787624420462
 30
0.0
 10
45.74831425705995
 20
491.3805971865663
 30
0.0
 10
46.00395027531671
 20
491.5089758643641
 30
0.0
 10
46.23030967163418
 20
491.6458038853215
 30
0.0
 10
46.42423158984382
 20
491.7888438790942
 30
0.0
 10
46.58538127430511
 20
491.9387791438046
 30
0.0
 10
46.70905202227056
 20
492.093419767679
 30
0.0
 10
46.78971496735402
 20
492.2330582726789
 30
0.0
 10
46.81149489641874
 20
492.3130355094264
 30
0.0
 10
46.82012461849514
 20
492.3458506284007
 30
0.0
  0
SPLINE
  5
C5
330
73
100
AcDbEntity
  8
$DDT_AUDIT_GENERATED_(89)
  6
Continuous
 62
     7
100
AcDbSpline
210
0.0
220
0.0
230
1.0
 70
     8
 71
     3
 72
    16
 73
    12
 74
     0
 42
0.0000000050769801
 43
0.0000000001
 40
0.0
 40
0.0
 40
0.0
 40
0.0
 40
0.1065691222810297
 40
0.2204798300815377
 40
0.3347061763483828
 40
0.44933740790038
 40
0.5644532836987386
 40
0.6800348842418991
 40
0.7955041939763611
 40
0.9091556800726801
 40
1.0
 40
1.0
 40
1.0
 40
1.0
 10
43.5401998398881
 20
491.4089956724178
 30
0.0
 10
43.64382322604514
 20
491.4389539765551
 30
0.0
 10
43.82381792954533
 20
491.4916468411269
 30
0.0
 10
44.09317058917482
 20
491.5895056266576
 30
0.0
 10
44.33490949592033
 20
491.6944800966312
 30
0.0
 10
44.54913325595873
 20
491.8078326353483
 30
0.0
 10
44.7321100334262
 20
491.9283479871826
 30
0.0
 10
44.88308409271503
 20
492.0566170999396
 30
0.0
 10
44.99792327349925
 20
492.191048693522
 30
0.0
 10
45.07567034827539
 20
492.3272358721645
 30
0.0
 10
45.0942609799901
 20
492.4110753089702
 30
0.0
 10
45.10338379579563
 20
492.4552073148305
 30
0.0
  0
SPLINE
  5
C6
330
73
100
AcDbEntity
  8
$DDT_AUDIT_GENERATED_(89)
  6
Continuous
 62
     7
100
AcDbSpline
210
0.0
220
0.0
230
1.0
 70
     8
 71
     3
 72
    18
 73
    14
 74
     0
 42
0.0000000040675127
 43
0.0000000001
 40
0.0
 40
0.0
 40
0.0
 40
0.0
 40
0.0699286199146133
 40
0.1643514155335169
 40
0.2624776121012694
 40
0.3632661306443927
 40
0.4650596396802887
 40
0.5667432341765866
 40
0.6680610154519065
 40
0.7690252739528041
 40
0.8697016251741726
 40
0.9701565027705586
 40
1.0
 40
1.0
 40
1.0
 40
1.0
 10
35.84367494955098
 20
492.3718050783891
 30
0.0
 10
35.85687038645351
 20
492.3341553190019
 30
0.0
 10
35.88407997026695
 20
492.2593957464849
 30
0.0
 10
35.97017208698713
 20
492.1363529098625
 30
0.0
 10
36.09293758078664
 20
492.0096954566716
 30
0.0
 10
36.25267058841575
 20
491.8860897593545
 30
0.0
 10
36.4460228068145
 20
491.7682514574486
 30
0.0
 10
36.67103425647599
 20
491.6571787328594
 30
0.0
 10
36.92482280900935
 20
491.5539166581447
 30
0.0
 10
37.2059608439365
 20
491.4584785715488
 30
0.0
 10
37.509710761238
 20
491.373056387094
 30
0.0
 10
37.76545998698171
 20
491.3106836720467
 30
0.0
 10
37.90755243380126
 20
491.2834576909506
 30
0.0
 10
37.94567698881721
 20
491.2761871684147
 30
0.0
  0
SPLINE
  5
C7
330
73
100
AcDbEntity
  8
$DDT_AUDIT_GENERATED_(89)
  6
Continuous
 62
     7
100
AcDbSpline
210
0.0
220
0.0
230
1.0
 70
     8
 71
     3
 72
    13
 73
     9
 74
     0
 42
0.0000000113029243
 43
0.0000000001
 40
0.0
 40
0.0
 40
0.0
 40
0.0
 40
0.1525637066318608
 40
0.318806945192896
 40
0.484421045391676
 40
0.6500175210715659
 40
0.8172946662312381
 40
1.0
 40
1.0
 40
1.0
 40
1.0
 10
44.32901313393702
 20
493.1693947478706
 30
0.0
 10
44.39246687031519
 20
493.1347141750583
 30
0.0
 10
44.50317842177912
 20
493.0734195775343
 30
0.0
 10
44.6490791973301
 20
492.9673838693316
 30
0.0
 10
44.76261974031686
 20
492.8606417036907
 30
0.0
 10
44.84194400683353
 20
492.7554211246351
 30
0.0
 10
44.89103987238867
 20
492.6493620722479
 30
0.0
 10
44.8973460938893
 20
492.5871266608632
 30
0.0
 10
44.9001871696086
 20
492.5487612209259
 30
0.0
  0
SPLINE
  5
C8
330
73
100
AcDbEntity
  8
$DDT_AUDIT_GENERATED_(89)
  6
Continuous
 62
     7
100
AcDbSpline
210
0.0
220
0.0
230
1.0
 70
     8
 71
     3
 72
    14
 73
    10
 74
     0
 42
0.0000000097121513
 43
0.0000000001
 40
0.0
 40
0.0
 40
0.0
 40
0.0
 40
0.022858295877685
 40
0.1937092879350802
 40
0.3656252071533892
 40
0.5389683491311871
 40
0.7138149444060107
 40
0.8689586941735336
 40
1.0
 40
1.0
 40
1.0
 40
1.0
 10
42.52853921050252
 20
491.8696800646988
 30
0.0
 10
42.54005243222406
 20
491.873153139648
 30
0.0
 10
42.62379439214493
 20
491.8984763154593
 30
0.0
 10
42.77195640554723
 20
491.9588245839506
 30
0.0
 10
42.95161532838517
 20
492.045846245725
 30
0.0
 10
43.10220978819533
 20
492.1434389578859
 30
0.0
 10
43.2152957234211
 20
492.245359285796
 30
0.0
 10
43.29375731645915
 20
492.3506939153754
 30
0.0
 10
43.31620306723121
 20
492.4167546691002
 30
0.0
 10
43.32778836918661
 20
492.4526461809284
 30
0.0
  0
SPLINE
  5
C9
330
73
100
AcDbEntity
  8
$DDT_AUDIT_GENERATED_(89)
  6
Continuous
 62
     7
100
AcDbSpline
210
0.0
220
0.0
230
1.0
 70
     8
 71
     3
 72
    16
 73
    12
 74
     0
 42
0.0000000069960387
 43
0.0000000001
 40
0.0
 40
0.0
 40
0.0
 40
0.0
 40
0.0798702758846125
 40
0.1980418329765551
 40
0.32396409602804
 40
0.4571650288632549
 40
0.5931352232954031
 40
0.7285043801253045
 40
0.8629089726723841
 40
0.9965379506672103
 40
1.0
 40
1.0
 40
1.0
 40
1.0
 10
37.59748552185231
 20
492.4622509892943
 30
0.0
 10
37.60427974999186
 20
492.4338552736583
 30
0.0
 10
37.61930892831539
 20
492.3743196049724
 30
0.0
 10
37.68347671211756
 20
492.2772124987973
 30
0.0
 10
37.78196575351346
 20
492.1766875341584
 30
0.0
 10
37.91718459480488
 20
492.0794414021171
 30
0.0
 10
38.08614660301539
 20
491.9883242155895
 30
0.0
 10
38.28590694914228
 20
491.9043925885051
 30
0.0
 10
38.5112222575358
 20
491.8311084953262
 30
0.0
 10
38.68180885532412
 20
491.7831614730405
 30
0.0
 10
38.76966336101979
 20
491.7650531388569
 30
0.0
 10
38.77223545940784
 20
491.764523232619
 30
0.0
  0
SPLINE
  5
CA
330
73
100
AcDbEntity
  8
$DDT_AUDIT_GENERATED_(89)
  6
Continuous
 62
     7
100
AcDbSpline
210
0.0
220
0.0
230
1.0
 70
     8
 71
     3
 72
    13
 73
     9
 74
     0
 42
0.0000000177242623
 43
0.0000000001
 40
0.0
 40
0.0
 40
0.0
 40
0.0
 40
0.0326165237927872
 40
0.2296577170387338
 40
0.4247453468464222
 40
0.6183185227505035
 40
0.8125226795483802
 40
1.0
 40
1.0
 40
1.0
 40
1.0
 10
42.73795525669403
 20
492.9214108812554
 30
0.0
 10
42.74838437247626
 20
492.9168911934046
 30
0.0
 10
42.81127381252848
 20
492.8895650689605
 30
0.0
 10
42.90907476159568
 20
492.8302680214879
 30
0.0
 10
43.01420827186933
 20
492.7516611425441
 30
0.0
 10
43.08308515403181
 20
492.6750984260752
 30
0.0
 10
43.1194809761364
 20
492.6060245182509
 30
0.0
 10
43.1236382920143
 20
492.5696740969379
 30
0.0
 10
43.1251871696086
 20
492.5487612209259
 30
0.0
  0
SPLINE
  5
CB
330
73
100
AcDbEntity
  8
$DDT_AUDIT_GENERATED_(89)
  6
Continuous
 62
     7
100
AcDbSpline
210
0.0
220
0.0
230
1.0
 70
     8
 71
     3
 72
    13
 73
     9
 74
     0
 42
0.0000000191323562
 43
0.0000000001
 40
0.0
 40
0.0
 40
0.0
 40
0.0
 40
0.2001569442590382
 40
0.3981331237694933
 40
0.5888566812710235
 40
0.7909660888602618
 40
0.9920988543110407
 40
1.0
 40
1.0
 40
1.0
 40
1.0
 10
37.80188207340428
 20
492.5425325238893
 30
0.0
 10
37.80197441693639
 20
492.563948788128
 30
0.0
 10
37.80359973530452
 20
492.6003390880566
 30
0.0
 10
37.83772486299836
 20
492.6678890466858
 30
0.0
 10
37.90129949887796
 20
492.7424245323716
 30
0.0
 10
38.00054276945256
 20
492.8193729345801
 30
0.0
 10
38.08800631187007
 20
492.8754681482774
 30
0.0
 10
38.14180881667279
 20
492.8999417731991
 30
0.0
 10
38.1441686088471
 20
492.9010145850806
 30
0.0
  0
LINE
  5
CC
330
73
100
AcDbEntity
  8
$DDT_AUDIT_GENERATED_(89)
  6
Continuous
 62
     7
100
AcDbLine
 10
46.8412901875
 20
492.4130451513
 30
0.0
 11
46.9446894792
 21
492.9447532155
 31
0.0
  0
LINE
  5
CD
330
73
100
AcDbEntity
  8
$DDT_AUDIT_GENERATED_(89)
  6
Continuous
 62
     7
100
AcDbLine
 10
35.7398412041
 20
492.9447532155
 30
0.0
 11
35.8179558389
 21
492.4624626017
 31
0.0
  0
LINE
  5
CE
330
73
100
AcDbEntity
  8
$DDT_AUDIT_GENERATED_(89)
  6
Continuous
 62
     7
100
AcDbLine
 10
39.1883168299
 20
492.2459324478
 30
0.0
 11
40.1822011717
 21
492.7778922795
 31
0.0
  0
LINE
  5
CF
330
73
100
AcDbEntity
  8
$DDT_AUDIT_GENERATED_(89)
  6
Continuous
 62
     7
100
AcDbLine
 10
37.902303372
 20
492.7322921782
 30
0.0
 11
39.9322813365
 21
492.9003760874
 31
0.0
  0
LINE
  5
D0
330
73
100
AcDbEntity
  8
$DDT_AUDIT_GENERATED_(89)
  6
Continuous
 62
     7
100
AcDbLine
 10
39.0706632447
 20
493.1910141277
 30
0.0
 11
39.9532327481
 21
493.0335539804
 31
0.0
  0
LINE
  5
D1
330
73
100
AcDbEntity
  8
$DDT_AUDIT_GENERATED_(89)
  6
Continuous
 62
     7
100
AcDbLine
 10
40.1008138724
 20
493.2999590734
 30
0.0
 11
40.224394232
 21
493.1574379076
 31
0.0
  0
LINE
  5
D2
330
73
100
AcDbEntity
  8
$DDT_AUDIT_GENERATED_(89)
  6
Continuous
 62
     7
100
AcDbLine
 10
40.8043641787
 20
493.1108945361
 30
0.0
 11
41.1248496133
 21
493.2824289598
 31
0.0
  0
LINE
  5
D3
330
73
100
AcDbEntity
  8
$DDT_AUDIT_GENERATED_(89)
  6
Continuous
 62
     7
100
AcDbLine
 10
41.0155307421
 20
492.9900700634
 30
0.0
 11
42.2851458743
 21
493.0951952807
 31
0.0
  0
LINE
  5
D4
330
73
100
AcDbEntity
  8
$DDT_AUDIT_GENERATED_(89)
  6
Continuous
 62
     7
100
AcDbLine
 10
40.926555322
 20
492.859902483
 30
0.0
 11
42.7452082207
 21
492.5354347191
 31
0.0
  0
LINE
  5
D5
330
73
100
AcDbEntity
  8
$DDT_AUDIT_GENERATED_(89)
  6
Continuous
 62
     7
100
AcDbLine
 10
40.5794507336
 20
492.7479629174
 30
0.0
 11
41.0655036345
 21
492.1874140865
 31
0.0
  0
SPLINE
  5
D7
330
73
100
AcDbEntity
  8
$DDT_AUDIT_GENERATED_(D6)
  6
Continuous
 62
     7
100
AcDbSpline
210
0.0
220
0.0
230
1.0
 70
     8
 71
     5
 72
    12
 73
     6
 74
     0
 42
0.000000000677701
 43
0.0000000001
 40
0.0
 40
0.0
 40
0.0
 40
0.0
 40
0.0
 40
0.0
 40
1.0
 40
1.0
 40
1.0
 40
1.0
 40
1.0
 40
1.0
 10
28.23237016870935
 20
499.4631314761288
 30
0.0
 10
24.82223288588269
 20
499.9301387529719
 30
0.0
 10
21.52826717590183
 20
500.6887892627971
 30
0.0
 10
18.77622789353242
 20
501.912655293433
 30
0.0
 10
17.46268716770688
 20
503.8439652594197
 30
0.0
 10
17.46268764468661
 20
506.4299942401216
 30
0.0
  0
LINE
  5
D8
330
73
100
AcDbEntity
  8
$DDT_AUDIT_GENERATED_(D6)
  6
Continuous
 62
     7
100
AcDbLine
 10
17.4626868357
 20
419.740572877
 30
0.0
 11
17.4626876447
 21
506.4299942401
 31
0.0
  0
SPLINE
  5
D9
330
73
100
AcDbEntity
  8
$DDT_AUDIT_GENERATED_(D6)
  6
Continuous
 62
     7
100
AcDbSpline
210
0.0
220
0.0
230
1.0
 70
     8
 71
     3
 72
    25
 73
    21
 74
     0
 42
0.0000000004248771
 43
0.0000000001
 40
0.0
 40
0.0
 40
0.0
 40
0.0
 40
0.0420655794558337
 40
0.0856264160488378
 40
0.1308850115853877
 40
0.1777948649629102
 40
0.2259526916541033
 40
0.2755864947351331
 40
0.3270049685362535
 40
0.3804242911119575
 40
0.4350928046617029
 40
0.4911589858004135
 40
0.5490638680288242
 40
0.6089530785755264
 40
0.6699676300486593
 40
0.7325178187979727
 40
0.7972006904772866
 40
0.8632524651355004
 40
0.9305987042909621
 40
1.0
 40
1.0
 40
1.0
 40
1.0
 10
40.46268716960861
 20
517.8193310988468
 30
0.0
 10
39.95609639993778
 20
517.818135137723
 30
0.0
 10
38.9251194012654
 20
517.8157009181107
 30
0.0
 10
37.35627811975966
 20
517.7956092881715
 30
0.0
 10
35.74461744987976
 20
517.7620411101657
 30
0.0
 10
34.10311752292938
 20
517.7125751432463
 30
0.0
 10
32.44607916653528
 20
517.64644596131
 30
0.0
 10
30.78566329699679
 20
517.5623317792201
 30
0.0
 10
29.12920179866664
 20
517.4587900628071
 30
0.0
 10
27.4961759555749
 20
517.3351677721904
 30
0.0
 10
25.90927203601921
 20
517.1911566949465
 30
0.0
 10
24.39019348436517
 20
517.0265378304221
 30
0.0
 10
22.95618567212584
 20
516.8402591072356
 30
0.0
 10
21.63316782056982
 20
516.6328581019255
 30
0.0
 10
20.44589174108658
 20
516.4054461341425
 30
0.0
 10
19.41810377538892
 20
516.1588364458354
 30
0.0
 10
18.57619285911112
 20
515.8939224615451
 30
0.0
 10
17.95178064157588
 20
515.6130698880831
 30
0.0
 10
17.54169064717816
 20
515.318923434864
 30
0.0
 10
17.48928446100889
 20
515.118204191205
 30
0.0
 10
17.46268766246516
 20
515.016335687933
 30
0.0
  0
LINE
  5
DA
330
73
100
AcDbEntity
  8
$DDT_AUDIT_GENERATED_(D6)
  6
Continuous
 62
     7
100
AcDbLine
 10
17.4626876464
 20
515.0163483695
 30
0.0
 11
17.4626876464
 21
506.4300777638
 31
0.0
  0
SPLINE
  5
DB
330
73
100
AcDbEntity
  8
$DDT_AUDIT_GENERATED_(D6)
  6
Continuous
 62
     7
100
AcDbSpline
210
0.0
220
0.0
230
1.0
 70
     8
 71
     3
 72
    15
 73
    11
 74
     0
 42
0.0000000002049257
 43
0.0000000001
 40
0.0
 40
0.0
 40
0.0
 40
0.0
 40
0.1041000426336337
 40
0.2082003681205222
 40
0.3123008564141727
 40
0.4164013770008519
 40
0.5205017892173937
 40
0.6803344827156009
 40
0.8401672196429741
 40
1.0
 40
1.0
 40
1.0
 40
1.0
 10
17.46268683567805
 20
419.7405728769808
 30
0.0
 10
17.4628622638413
 20
418.0472632557273
 30
0.0
 10
17.46321149927769
 20
414.6607320727312
 30
0.0
 10
17.462863856921
 20
409.5808709569063
 30
0.0
 10
17.46278756290794
 20
404.5009737726643
 30
0.0
 10
17.46269998847127
 20
399.4210530876242
 30
0.0
 10
17.46268234073307
 20
393.4345759105589
 30
0.0
 10
17.46268919812677
 20
386.5415530841835
 30
0.0
 10
17.46268711892617
 20
378.7419809377809
 30
0.0
 10
17.46268745059164
 20
373.5422655265729
 30
0.0
 10
17.46268764644762
 20
370.9424074678398
 30
0.0
  0
SPLINE
  5
DC
330
73
100
AcDbEntity
  8
$DDT_AUDIT_GENERATED_(D6)
  6
Continuous
 62
     7
100
AcDbSpline
210
0.0
220
0.0
230
1.0
 70
     8
 71
     3
 72
    11
 73
     7
 74
     0
 42
0.0000000004222036
 43
0.0000000001
 40
0.0
 40
0.0
 40
0.0
 40
0.0
 40
0.2500007188940135
 40
0.5000014377880271
 40
0.7500021566820406
 40
1.0
 40
1.0
 40
1.0
 40
1.0
 10
40.46268716960861
 20
517.8193310988468
 30
0.0
 10
43.47307895349157
 20
517.8193295450865
 30
0.0
 10
49.49364905908062
 20
517.6733795318538
 30
0.0
 10
57.14962213863762
 20
517.0499437754088
 30
0.0
 10
62.26514102632066
 20
516.1169133022277
 30
0.0
 10
63.46268657090803
 20
515.3831939187763
 30
0.0
 10
63.46268667675206
 20
515.016335687933
 30
0.0
  0
LINE
  5
DD
330
73
100
AcDbEntity
  8
$DDT_AUDIT_GENERATED_(D6)
  6
Continuous
 62
     7
100
AcDbLine
 10
63.4626875035
 20
419.740572877
 30
0.0
 11
63.4626866945
 21
506.4299942401
 31
0.0
  0
SPLINE
  5
DE
330
73
100
AcDbEntity
  8
$DDT_AUDIT_GENERATED_(D6)
  6
Continuous
 62
     7
100
AcDbSpline
210
0.0
220
0.0
230
1.0
 70
     8
 71
     5
 72
    12
 73
     6
 74
     0
 42
0.000000000677701
 43
0.0000000001
 40
0.0
 40
0.0
 40
0.0
 40
0.0
 40
0.0
 40
0.0
 40
1.0
 40
1.0
 40
1.0
 40
1.0
 40
1.0
 40
1.0
 10
52.69300416977791
 20
499.4631314092284
 30
0.0
 10
56.10314127242771
 20
499.9301388175426
 30
0.0
 10
59.3971068238891
 20
500.6887893145786
 30
0.0
 10
62.14914600697072
 20
501.9126553246871
 30
0.0
 10
63.4626866946742
 20
503.8439652894724
 30
0.0
 10
63.46268669453062
 20
506.4299942401216
 30
0.0
  0
LINE
  5
DF
330
73
100
AcDbEntity
  8
$DDT_AUDIT_GENERATED_(D6)
  6
Continuous
 62
     7
100
AcDbLine
 10
63.4626866928
 20
515.0163483695
 30
0.0
 11
63.4626866928
 21
506.4300777638
 31
0.0
  0
LINE
  5
E0
330
73
100
AcDbEntity
  8
$DDT_AUDIT_GENERATED_(D6)
  6
Continuous
 62
     7
100
AcDbLine
 10
63.4626875035
 20
419.740572877
 30
0.0
 11
63.4626866928
 21
370.9424074678
 31
0.0
  0
SPLINE
  5
E1
330
73
100
AcDbEntity
  8
$DDT_AUDIT_GENERATED_(D6)
  6
Continuous
 62
     7
100
AcDbSpline
210
0.0
220
0.0
230
1.0
 70
     8
 71
     3
 72
     8
 73
     4
 74
     0
 42
0.0000000024330904
 43
0.0000000001
 40
0.0
 40
0.0
 40
0.0
 40
0.0
 40
0.1410963838155584
 40
0.1410963838155584
 40
0.1410963838155584
 40
0.1410963838155584
 10
52.69300416977791
 20
499.4631314092284
 30
0.0
 10
52.64373388106021
 20
499.3474080487207
 30
0.0
 10
52.50352290991533
 20
499.2206613997746
 30
0.0
 10
52.27426088620179
 20
499.0875103393524
 30
0.0
  0
SPLINE
  5
E2
330
73
100
AcDbEntity
  8
$DDT_AUDIT_GENERATED_(D6)
  6
Continuous
 62
     7
100
AcDbSpline
210
0.0
220
0.0
230
1.0
 70
     8
 71
     3
 72
     8
 73
     4
 74
     0
 42
0.000000002418543
 43
0.0000000001
 40
0.8594123423965733
 40
0.8594123423965733
 40
0.8594123423965733
 40
0.8594123423965733
 40
1.0
 40
1.0
 40
1.0
 40
1.0
 10
28.6527666085664
 20
499.0871987662173
 30
0.0
 10
28.42342334078723
 20
499.2204617740295
 30
0.0
 10
28.28145747441839
 20
499.3478378594507
 30
0.0
 10
28.23237016870935
 20
499.4631314761288
 30
0.0
  0
SPLINE
  5
E3
330
73
100
AcDbEntity
  8
$DDT_AUDIT_GENERATED_(D6)
  6
Continuous
 62
     7
100
AcDbSpline
210
0.0
220
0.0
230
1.0
 70
     8
 71
     3
 72
    26
 73
    22
 74
     0
 42
0.0000000003913118
 43
0.0000000001
 40
0.0
 40
0.0
 40
0.0
 40
0.0
 40
0.1249999999999994
 40
0.1249999999999994
 40
0.2499999999999988
 40
0.2499999999999988
 40
0.3124999999999988
 40
0.3124999999999988
 40
0.3749999999999988
 40
0.3749999999999988
 40
0.4999999999999988
 40
0.4999999999999988
 40
0.5624999999999988
 40
0.5624999999999988
 40
0.6249999999999988
 40
0.6249999999999988
 40
0.7499999999999992
 40
0.7499999999999992
 40
0.8749999999999996
 40
0.8749999999999996
 40
1.0
 40
1.0
 40
1.0
 40
1.0
 10
28.23237016870935
 20
499.4631314761288
 30
0.0
 10
28.13818999541602
 20
499.681732572171
 30
0.0
 10
28.38436536153733
 20
499.9022913945951
 30
0.0
 10
29.50920412591343
 20
500.3172047097132
 30
0.0
 10
30.39512659321322
 20
500.5119984118226
 30
0.0
 10
32.09255147330847
 20
500.7574830787241
 30
0.0
 10
32.73120174525811
 20
500.8331595281552
 30
0.0
 10
34.09078264997758
 20
500.963592441882
 30
0.0
 10
34.81427665882652
 20
501.0190793635124
 30
0.0
 10
37.11884612887695
 20
501.1561021521158
 30
0.0
 10
38.78542521251897
 20
501.203879615612
 30
0.0
 10
41.31135464574188
 20
501.2036927087744
 30
0.0
 10
42.14090052302908
 20
501.1919533625271
 30
0.0
 10
43.77575998107543
 20
501.1452908401779
 30
0.0
 10
44.58726461903486
 20
501.1097721272737
 30
0.0
 10
46.87919908739615
 20
500.9732284325465
 30
0.0
 10
48.27425299384479
 20
500.8384815762189
 30
0.0
 10
50.53438097747661
 20
500.5111824527813
 30
0.0
 10
51.41933952355497
 20
500.3163710553098
 30
0.0
 10
52.54224339089544
 20
499.901499353871
 30
0.0
 10
52.78718354799092
 20
499.6817307250199
 30
0.0
 10
52.69300416977791
 20
499.4631314092284
 30
0.0
  0
LINE
  5
E4
330
73
100
AcDbEntity
  8
$DDT_AUDIT_GENERATED_(D6)
  6
Continuous
 62
     7
100
AcDbLine
 10
17.4626876464
 20
370.9424074678
 30
0.0
 11
40.4626871696
 21
370.9424074678
 31
0.0
  0
LINE
  5
E5
330
73
100
AcDbEntity
  8
$DDT_AUDIT_GENERATED_(D6)
  6
Continuous
 62
     7
100
AcDbLine
 10
40.4626871696
 20
370.9424074678
 30
0.0
 11
63.4626866928
 21
370.9424074678
 31
0.0
  0
SPLINE
  5
E6
330
73
100
AcDbEntity
  8
$DDT_AUDIT_GENERATED_(D6)
  6
Continuous
 62
     7
100
AcDbSpline
210
0.0
220
0.0
230
1.0
 70
     8
 71
     3
 72
    60
 73
    56
 74
     0
 42
0.0000000004174159
 43
0.0000000001
 40
0.0
 40
0.0
 40
0.0
 40
0.0
 40
0.0349252112304905
 40
0.073002412964912
 40
0.1081818926102661
 40
0.1404604448523095
 40
0.1698350585850984
 40
0.196303486025791
 40
0.2242266684767419
 40
0.2485913591949057
 40
0.2707932583511164
 40
0.2908819869216908
 40
0.3088558094653704
 40
0.3280968128888104
 40
0.3494058105807113
 40
0.3729261219682973
 40
0.3994168014397537
 40
0.429106520157578
 40
0.4502855910142127
 40
0.4727855597507636
 40
0.4936969585007577
 40
0.5113968972463809
 40
0.5258794190733105
 40
0.5371391643693414
 40
0.5461409027777742
 40
0.5581182182465203
 40
0.5731425131599442
 40
0.5900279832695644
 40
0.6056337731835453
 40
0.623876370856663
 40
0.6412445335082981
 40
0.6616631670285626
 40
0.682357008702571
 40
0.7014465922864338
 40
0.7176489260271005
 40
0.7314041588701159
 40
0.746615063643504
 40
0.7641981675172274
 40
0.7905156242756248
 40
0.814169148757039
 40
0.834850849818507
 40
0.8541183521863955
 40
0.8735799647953141
 40
0.8880850420977077
 40
0.9045741715417821
 40
0.9205222971947481
 40
0.9341831061414085
 40
0.945563103787773
 40
0.9566100821271485
 40
0.9627364424952607
 40
0.9661041113139742
 40
0.9703740125503252
 40
0.9778331847917227
 40
0.9875911539667163
 40
1.0
 40
1.0
 40
1.0
 40
1.0
 10
40.46268446200641
 20
519.2578271294205
 30
0.0
 10
40.04848244297975
 20
519.2574275677673
 30
0.0
 10
39.31783075408369
 20
519.2563752370585
 30
0.0
 10
38.13053681219224
 20
519.2436639059362
 30
0.0
 10
37.00874636172369
 20
519.2242405224282
 30
0.0
 10
35.98127027942494
 20
519.1996579836999
 30
0.0
 10
35.05724159117838
 20
519.1719206040093
 30
0.0
 10
34.18820693859776
 20
519.1409184490853
 30
0.0
 10
33.38137207789476
 20
519.107559917426
 30
0.0
 10
32.62861803176555
 20
519.0721941082044
 30
0.0
 10
31.96454812881193
 20
519.0375367005502
 30
0.0
 10
31.37244884217527
 20
519.0037656161724
 30
0.0
 10
30.81693671641004
 20
518.9696003566535
 30
0.0
 10
30.25723575063111
 20
518.9326698459879
 30
0.0
 10
29.65409411534815
 20
518.8898393464484
 30
0.0
 10
28.99553708753842
 20
518.8392786218478
 30
0.0
 10
28.27607930617156
 20
518.7792063347053
 30
0.0
 10
27.59722699128435
 20
518.7171021371296
 30
0.0
 10
26.97150881955463
 20
518.6550388855071
 30
0.0
 10
26.43503260573026
 20
518.5980587845039
 30
0.0
 10
25.94153179116409
 20
518.5419807687061
 30
0.0
 10
25.52385477533385
 20
518.4915823192462
 30
0.0
 10
25.18958824592266
 20
518.4491783744745
 30
0.0
 10
24.92674930172382
 20
518.4144805868734
 30
0.0
 10
24.68520143981642
 20
518.3815756982923
 30
0.0
 10
24.41928985391286
 20
518.3441457518718
 30
0.0
 10
24.10189701325601
 20
518.2975390411433
 30
0.0
 10
23.76739066059687
 20
518.2458907439227
 30
0.0
 10
23.42017316316088
 20
518.1894480626252
 30
0.0
 10
23.08018518799341
 20
518.1311042934926
 30
0.0
 10
22.71979015402097
 20
518.06557340945
 30
0.0
 10
22.35632768660173
 20
517.9951972000532
 30
0.0
 10
21.99836488905323
 20
517.9208497946332
 30
0.0
 10
21.67881091344485
 20
517.8496692035119
 30
0.0
 10
21.40850245506622
 20
517.7854556067444
 30
0.0
 10
21.16491329560064
 20
517.7241919653197
 30
0.0
 10
20.92052248889818
 20
517.6590713348126
 30
0.0
 10
20.62239554116338
 20
517.5740102833402
 30
0.0
 10
20.3022765770123
 20
517.4735361030584
 30
0.0
 10
19.98617022920603
 20
517.3621738833982
 30
0.0
 10
19.7131324218382
 20
517.2545443802114
 30
0.0
 10
19.46962748584876
 20
517.1473448266881
 30
0.0
 10
19.25714027807483
 20
517.042480262601
 30
0.0
 10
19.05118881838166
 20
516.9280574186863
 30
0.0
 10
18.86652686939865
 20
516.8122706570222
 30
0.0
 10
18.6959433347427
 20
516.6906899962443
 30
0.0
 10
18.54636168865736
 20
516.5689244764986
 30
0.0
 10
18.42764729819399
 20
516.4618782719788
 30
0.0
 10
18.29651049224477
 20
516.3303629807546
 30
0.0
 10
18.18775564117125
 20
516.2065714992285
 30
0.0
 10
18.11286335226034
 20
516.1154852240293
 30
0.0
 10
18.0219936267511
 20
515.9987009242803
 30
0.0
 10
17.89460794947883
 20
515.8207731436289
 30
0.0
 10
17.72138948337683
 20
515.5554753016067
 30
0.0
 10
17.61114726013779
 20
515.3677181893123
 30
0.0
 10
17.53806494927706
 20
515.2421332577424
 30
0.0
  0
SPLINE
  5
E7
330
73
100
AcDbEntity
  8
$DDT_AUDIT_GENERATED_(D6)
  6
Continuous
 62
     7
100
AcDbSpline
210
0.0
220
0.0
230
1.0
 70
     8
 71
     3
 72
    65
 73
    61
 74
     0
 42
0.0000000004174159
 43
0.0000000001
 40
0.0
 40
0.0
 40
0.0
 40
0.0
 40
0.0104177009989108
 40
0.0188462407257821
 40
0.0255239542408058
 40
0.0333088533607891
 40
0.0410936412418669
 40
0.0583605283385036
 40
0.0722670452703603
 40
0.0829255462495254
 40
0.0933003156428788
 40
0.1053237920484835
 40
0.1185258370420185
 40
0.1335534310781277
 40
0.149077364983195
 40
0.1664960687938609
 40
0.1827618489359495
 40
0.196363149144034
 40
0.2075212513885777
 40
0.2198593974651179
 40
0.2343384743937691
 40
0.2511987316312168
 40
0.2689226588713172
 40
0.2842215421487013
 40
0.2969929884728179
 40
0.3072318828480518
 40
0.3183874693517949
 40
0.3317643825765285
 40
0.3473555715886479
 40
0.3698891518596187
 40
0.3896576375493021
 40
0.407437925099889
 40
0.4272490154167994
 40
0.4494472248451994
 40
0.4683871055332189
 40
0.4849166982496684
 40
0.4991118921611996
 40
0.5139825910431226
 40
0.531145176099134
 40
0.550595995737252
 40
0.5723309265424674
 40
0.5941480665419273
 40
0.6145158382118314
 40
0.6319222774001241
 40
0.6463725288004177
 40
0.6578709490640962
 40
0.667218834774699
 40
0.6790473023913427
 40
0.6925395556048586
 40
0.7076941497317474
 40
0.7250858280340601
 40
0.7463463275891069
 40
0.7715726413594486
 40
0.7963506477107256
 40
0.824039594096816
 40
0.8546374836914075
 40
0.8881413216651596
 40
0.9245470234784643
 40
0.9638500425569492
 40
1.0
 40
1.0
 40
1.0
 40
1.0
 10
63.38730938993983
 20
515.2421332577428
 30
0.0
 10
63.32572209545005
 20
515.3483813153383
 30
0.0
 10
63.23169244559615
 20
515.5094923479202
 30
0.0
 10
63.08310828022844
 20
515.7420760380792
 30
0.0
 10
62.94859375534906
 20
515.9379732995668
 30
0.0
 10
62.81433879979158
 20
516.1155351644895
 30
0.0
 10
62.65198467463301
 20
516.3071942623332
 30
0.0
 10
62.50563574673751
 20
516.4568651287906
 30
0.0
 10
62.32111134782013
 20
516.6184043078396
 30
0.0
 10
62.1852305225962
 20
516.7222972339913
 30
0.0
 10
62.06404964826602
 20
516.8075115906195
 30
0.0
 10
61.92994051565039
 20
516.893733369598
 30
0.0
 10
61.77454842730717
 20
516.9845429030403
 30
0.0
 10
61.60334782699059
 20
517.0751196067582
 30
0.0
 10
61.41305618040329
 20
517.166436280998
 30
0.0
 10
61.2117447122615
 20
517.254163294038
 30
0.0
 10
61.00774666497568
 20
517.3352346027671
 30
0.0
 10
60.82301316608704
 20
517.4031105022812
 30
0.0
 10
60.65286940633192
 20
517.4618810658891
 30
0.0
 10
60.47666235025284
 20
517.5194695566883
 30
0.0
 10
60.26765088167451
 20
517.5837871088029
 30
0.0
 10
60.02355916161677
 20
517.6539702099068
 30
0.0
 10
59.763890278562
 20
517.7234709277978
 30
0.0
 10
59.51613091015042
 20
517.7855737346666
 30
0.0
 10
59.3029254828973
 20
517.8362149134732
 30
0.0
 10
59.11094194548269
 20
517.8799259924803
 30
0.0
 10
58.91157304076668
 20
517.9236206172561
 30
0.0
 10
58.67463752361401
 20
517.9733629446919
 30
0.0
 10
58.36044414286914
 20
518.0361169266589
 30
0.0
 10
57.99287959363955
 20
518.1049589389264
 30
0.0
 10
57.59634423153937
 20
518.1742277469654
 30
0.0
 10
57.20626680770238
 20
518.238371759137
 30
0.0
 10
56.78659046858496
 20
518.3033939747085
 30
0.0
 10
56.34352128687012
 20
518.367657682178
 30
0.0
 10
55.91105792210111
 20
518.4264804199535
 30
0.0
 10
55.5294033464054
 20
518.4756019128367
 30
0.0
 10
55.17281810702863
 20
518.5193560163389
 30
0.0
 10
54.80477147490231
 20
518.5625216306047
 30
0.0
 10
54.38604692857626
 20
518.6092477999699
 30
0.0
 10
53.90042822820147
 20
518.6604362680232
 30
0.0
 10
53.36289790248958
 20
518.7135559281319
 30
0.0
 10
52.80396490004162
 20
518.7651037100211
 30
0.0
 10
52.27107709281142
 20
518.8110122432059
 30
0.0
 10
51.795285447414
 20
518.849522487771
 30
0.0
 10
51.3944868003366
 20
518.8802615448202
 30
0.0
 10
51.06454728235079
 20
518.9044555615528
 30
0.0
 10
50.75674719340189
 20
518.9262114501432
 30
0.0
 10
50.42747942562531
 20
518.9486154632064
 30
0.0
 10
50.03929950950972
 20
518.9738249153586
 30
0.0
 10
49.59298668903011
 20
519.0012754134339
 30
0.0
 10
49.06533969931001
 20
519.0317089742141
 30
0.0
 10
48.43117551080569
 20
519.0654667632722
 30
0.0
 10
47.71343415153736
 20
519.0999212221736
 30
0.0
 10
46.92012091332206
 20
519.1336986105481
 30
0.0
 10
46.06090325685926
 20
519.1655479612991
 30
0.0
 10
45.10021319065967
 20
519.195454341826
 30
0.0
 10
44.03482066641209
 20
519.2218467602911
 30
0.0
 10
42.87438151623453
 20
519.2426317494741
 30
0.0
 10
41.64674201841712
 20
519.2562194861445
 30
0.0
 10
40.89146736044062
 20
519.2573648837536
 30
0.0
 10
40.46268997484572
 20
519.257803949803
 30
0.0
  0
ARC
  5
E9
330
73
100
AcDbEntity
  8
$DDT_AUDIT_GENERATED_(E8)
  6
Continuous
 62
     7
100
AcDbCircle
 10
23.2496365123
 20
543.6984540411
 30
0.0
 40
1.909208396546914
100
AcDbArc
 50
179.1155874525
 51
180.1063440616
  0
ARC
  5
EA
330
73
100
AcDbEntity
  8
$DDT_AUDIT_GENERATED_(E8)
  6
Continuous
 62
     7
100
AcDbCircle
 10
57.687732586
 20
543.6944374445
 30
0.0
 40
1.897281099553349
100
AcDbArc
 50
0.0155468927
 51
1.0406410357
  0
SPLINE
  5
EB
330
73
100
AcDbEntity
  8
$DDT_AUDIT_GENERATED_(E8)
  6
Continuous
 62
     7
100
AcDbSpline
210
0.0
220
0.0
230
1.0
 70
     8
 71
     2
 72
     8
 73
     5
 74
     0
 42
0.0000000003989132
 43
0.0000000001
 40
0.0859374999999999
 40
0.0859374999999999
 40
0.0859374999999999
 40
0.09375
 40
0.09375
 40
0.0957031250032259
 40
0.0957031250032259
 40
0.0957031250032259
 10
59.5853394160245
 20
540.9888198396236
 30
0.0
 10
59.58534287252238
 20
540.8706528411376
 30
0.0
 10
59.58534910038335
 20
540.7523410380404
 30
0.0
 10
59.58534923563236
 20
540.7497716880752
 30
0.0
 10
59.58534935486338
 20
540.7440140817863
 30
0.0
  0
ELLIPSE
  5
EC
330
73
100
AcDbEntity
  8
$DDT_AUDIT_GENERATED_(E8)
  6
Continuous
 62
     7
100
AcDbEllipse
 10
40.4626871696
 20
545.0001892323
 30
0.0
 11
-18.96387979825001
 21
1.387778780781446E-13
 31
0.0
210
0.0
220
0.0
230
1.0
 40
0.2407663593
 41
-0.6253557117872219
 42
-0.3290474150432079
  0
ELLIPSE
  5
ED
330
73
100
AcDbEntity
  8
$DDT_AUDIT_GENERATED_(E8)
  6
Continuous
 62
     7
100
AcDbEllipse
 10
40.4626871696
 20
545.0001892323
 30
0.0
 11
-18.96387979825001
 21
1.387778780781446E-13
 31
0.0
210
0.0
220
0.0
230
1.0
 40
0.2407663593
 41
3.43499528916814
 42
3.778941155376708
  0
SPLINE
  5
EE
330
73
100
AcDbEntity
  8
$DDT_AUDIT_GENERATED_(E8)
  6
Continuous
 62
     7
100
AcDbSpline
210
0.0
220
0.0
230
1.0
 70
     8
 71
     3
 72
    12
 73
     8
 74
     0
 42
0.0000000012549591
 43
0.0000000001
 40
0.0
 40
0.0
 40
0.0
 40
0.0
 40
0.2499999999999998
 40
0.2499999999999998
 40
0.4999999999999998
 40
0.4999999999999998
 40
1.0
 40
1.0
 40
1.0
 40
1.0
 10
52.10182614403858
 20
522.0226673106118
 30
0.0
 10
52.90732976519327
 20
522.1648477393629
 30
0.0
 10
53.67098906446925
 20
522.3372884632222
 30
0.0
 10
55.09868577766588
 20
522.7445735818234
 30
0.0
 10
55.76264258980092
 20
522.979421795238
 30
0.0
 10
57.57492665307967
 20
523.7807140574033
 30
0.0
 10
58.54534598781402
 20
524.443661674064
 30
0.0
 10
59.17774384924858
 20
525.246310986075
 30
0.0
  0
ARC
  5
EF
330
73
100
AcDbEntity
  8
$DDT_AUDIT_GENERATED_(E8)
  6
Continuous
 62
     7
100
AcDbCircle
 10
23.2329189472
 20
526.3987077321
 30
0.0
 40
1.892376606489441
100
AcDbArc
 50
178.1986562706
 51
182.1992904778
  0
SPLINE
  5
F0
330
73
100
AcDbEntity
  8
$DDT_AUDIT_GENERATED_(E8)
  6
Continuous
 62
     7
100
AcDbSpline
210
0.0
220
0.0
230
1.0
 70
     8
 71
     3
 72
    18
 73
    14
 74
     0
 42
0.0000000012601531
 43
0.0000000001
 40
0.0
 40
0.0
 40
0.0
 40
0.0
 40
0.1170283922426849
 40
0.2553262046877482
 40
0.3936240171328114
 40
0.5319218295778746
 40
0.6010707358003492
 40
0.6702196420229379
 40
0.7393685482454123
 40
0.808517454468001
 40
0.8776663606904755
 40
0.9468152669130644
 40
1.0
 40
1.0
 40
1.0
 40
1.0
 10
28.82354872979858
 20
522.0226716095086
 30
0.0
 10
28.44646365130495
 20
522.0892182221959
 30
0.0
 10
27.64386065632402
 20
522.2489194651929
 30
0.0
 10
26.47939612289718
 20
522.5444712106514
 30
0.0
 10
25.34420559729003
 20
522.9133461351391
 30
0.0
 10
24.48326200416544
 20
523.2694237399452
 30
0.0
 10
23.85078379582009
 20
523.5840328210404
 30
0.0
 10
23.4060349984136
 20
523.8350190506192
 30
0.0
 10
22.992453287454
 20
524.10120427318
 30
0.0
 10
22.6115823483756
 20
524.3827557963797
 30
0.0
 10
22.26494391292218
 20
524.6798377515904
 30
0.0
 10
21.97810292100726
 20
524.968562016344
 30
0.0
 10
21.81450275981174
 20
525.1613239898404
 30
0.0
 10
21.74727891441858
 20
525.2467573839652
 30
0.0
  0
SPLINE
  5
F1
330
73
100
AcDbEntity
  8
$DDT_AUDIT_GENERATED_(E8)
  6
Continuous
 62
     7
100
AcDbSpline
210
0.0
220
0.0
230
1.0
 70
     8
 71
     3
 72
    15
 73
    11
 74
     0
 42
0.0000000022578195
 43
0.0000000001
 40
0.0266316126652639
 40
0.0266316126652639
 40
0.0266316126652639
 40
0.0266316126652639
 40
0.125000068696857
 40
0.250000057590095
 40
0.375000046483333
 40
0.500000035376571
 40
0.6250000242698089
 40
0.7500000131630469
 40
0.8750000020562849
 40
1.0
 40
1.0
 40
1.0
 40
1.0
 10
31.24804390119986
 20
518.9956609976505
 30
0.0
 10
31.24581654364309
 20
519.1384822999737
 30
0.0
 10
31.23880001199995
 20
519.4626697390729
 30
0.0
 10
31.17614014705775
 20
519.9675809400079
 30
0.0
 10
30.98530414711164
 20
520.4814481214742
 30
0.0
 10
30.6990917548292
 20
520.9476013865709
 30
0.0
 10
30.34608767317491
 20
521.3684581088509
 30
0.0
 10
29.9089936821806
 20
521.7141765553898
 30
0.0
 10
29.38093982392481
 20
521.9196275096207
 30
0.0
 10
29.00888388220779
 20
521.9871460435697
 30
0.0
 10
28.82354872979858
 20
522.0226716095086
 30
0.0
  0
SPLINE
  5
F2
330
73
100
AcDbEntity
  8
$DDT_AUDIT_GENERATED_(E8)
  6
Continuous
 62
     7
100
AcDbSpline
210
0.0
220
0.0
230
1.0
 70
     8
 71
     3
 72
    14
 73
    10
 74
     0
 42
0.0000000022545796
 43
0.0000000001
 40
0.0266184498536896
 40
0.0266184498536896
 40
0.0266184498536896
 40
0.0266184498536896
 40
0.25
 40
0.25
 40
0.5
 40
0.5
 40
0.75
 40
0.75
 40
1.0
 40
1.0
 40
1.0
 40
1.0
 10
49.67737526875581
 20
518.9957416843947
 30
0.0
 10
49.6826393553231
 20
519.3207783096321
 30
0.0
 10
49.69287011156837
 20
519.6477089964193
 30
0.0
 10
49.85589400854726
 20
520.3150993338242
 30
0.0
 10
50.02434270791217
 20
520.6443816409268
 30
0.0
 10
50.45048737023102
 20
521.2357210462233
 30
0.0
 10
50.70982556353864
 20
521.5070741286155
 30
0.0
 10
51.35325748709617
 20
521.8745193878278
 30
0.0
 10
51.73115557491778
 20
521.9516199604568
 30
0.0
 10
52.10182614403858
 20
522.0226673106118
 30
0.0
  0
ARC
  5
F3
330
73
100
AcDbEntity
  8
$DDT_AUDIT_GENERATED_(E8)
  6
Continuous
 62
     7
100
AcDbCircle
 10
28.5661481151
 20
519.1005007871
 30
0.0
 40
2.674373521573583
100
AcDbArc
 50
357.7354440221
 51
0.0
  0
ARC
  5
F4
330
73
100
AcDbEntity
  8
$DDT_AUDIT_GENERATED_(E8)
  6
Continuous
 62
     7
100
AcDbCircle
 10
52.3558972344
 20
519.1033889257
 30
0.0
 40
2.67121042458583
100
AcDbArc
 50
179.349591703
 51
182.3277726017
  0
LINE
  5
F5
330
73
100
AcDbEntity
  8
$DDT_AUDIT_GENERATED_(E8)
  6
Continuous
 62
     7
100
AcDbLine
 10
59.5838728025
 20
543.7468716192
 30
0.0
 11
59.5653013886
 21
544.7795192544
 31
0.0
  0
LINE
  5
F6
330
73
100
AcDbEntity
  8
$DDT_AUDIT_GENERATED_(E8)
  6
Continuous
 62
     7
100
AcDbLine
 10
21.3600729506
 20
544.7795192544
 30
0.0
 11
21.3415015368
 21
543.7468716192
 31
0.0
  0
LINE
  5
F7
330
73
100
AcDbEntity
  8
$DDT_AUDIT_GENERATED_(E8)
  6
Continuous
 62
     7
100
AcDbLine
 10
21.3444837473
 20
543.7468261444
 30
0.0
 11
21.3437933347
 21
543.6930189161
 31
0.0
  0
LINE
  5
F8
330
73
100
AcDbEntity
  8
$DDT_AUDIT_GENERATED_(E8)
  6
Continuous
 62
     7
100
AcDbLine
 10
59.5819003966
 20
543.6929271605
 30
0.0
 11
59.5798935204
 21
543.7468968286
 31
0.0
  0
LINE
  5
F9
330
73
100
AcDbEntity
  8
$DDT_AUDIT_GENERATED_(E8)
  6
Continuous
 62
     7
100
AcDbLine
 10
59.5856936088
 20
540.9532741027
 30
0.0
 11
59.5856936088
 21
543.6947810598
 31
0.0
  0
LINE
  5
FA
330
73
100
AcDbEntity
  8
$DDT_AUDIT_GENERATED_(E8)
  6
Continuous
 62
     7
100
AcDbLine
 10
59.5856936088
 20
526.5722590009
 30
0.0
 11
59.5856936088
 21
540.7070104567
 31
0.0
  0
ARC
  5
FB
330
73
100
AcDbEntity
  8
$DDT_AUDIT_GENERATED_(E8)
  6
Continuous
 62
     7
100
AcDbCircle
 10
38.2724573944
 20
513.0958420716
 30
0.0
 40
36.98524349387417
100
AcDbArc
 50
86.6050139541
 51
114.3900203427
  0
ARC
  5
FC
330
73
100
AcDbEntity
  8
$DDT_AUDIT_GENERATED_(E8)
  6
Continuous
 62
     7
100
AcDbCircle
 10
42.6389061277
 20
513.0202281782
 30
0.0
 40
37.05989957844879
100
AcDbArc
 50
65.6385256027
 51
93.366440096
  0
SPLINE
  5
FD
330
73
100
AcDbEntity
  8
$DDT_AUDIT_GENERATED_(E8)
  6
Continuous
 62
     7
100
AcDbSpline
210
0.0
220
0.0
230
1.0
 70
     8
 71
     3
 72
    16
 73
    12
 74
     0
 42
0.0000000047179126
 43
0.0000000001
 40
0.0
 40
0.0
 40
0.0
 40
0.0
 40
0.0515524137022065
 40
0.1883181160933981
 40
0.3250491758911903
 40
0.4609535715956133
 40
0.59485288760312
 40
0.7253964041814301
 40
0.851763067945831
 40
0.974285834633846
 40
1.0
 40
1.0
 40
1.0
 40
1.0
 10
22.49965902428682
 20
546.4618887854263
 30
0.0
 10
22.45856106259294
 20
546.4339751198659
 30
0.0
 10
22.33100180221056
 20
546.3469404035168
 30
0.0
 10
22.12443858935528
 20
546.1762540370332
 30
0.0
 10
21.90113681203137
 20
545.9628974509809
 30
0.0
 10
21.7136127285232
 20
545.7410034027463
 30
0.0
 10
21.56463671362006
 20
545.5146787477519
 30
0.0
 10
21.45484534564125
 20
545.2840865151718
 30
0.0
 10
21.38653156420527
 20
545.0551003011461
 30
0.0
 10
21.36097738850136
 20
544.8789587875065
 30
0.0
 10
21.36113271242042
 20
544.7917644361293
 30
0.0
 10
21.36122239304875
 20
544.7741012194873
 30
0.0
  0
ARC
  5
FE
330
73
100
AcDbEntity
  8
$DDT_AUDIT_GENERATED_(E8)
  6
Continuous
 62
     7
100
AcDbCircle
 10
57.5552917429
 20
544.603061527
 30
0.0
 40
2.013660435534175
100
AcDbArc
 50
5.0501858233
 51
56.9265691215
  0
LINE
  5
FF
330
73
100
AcDbEntity
  8
$DDT_AUDIT_GENERATED_(E8)
  6
Continuous
 62
     7
100
AcDbLine
 10
21.3396706032
 20
526.5746940511
 30
0.0
 11
21.3396684255
 21
526.467125251
 31
0.0
  0
LINE
  5
100
330
73
100
AcDbEntity
  8
$DDT_AUDIT_GENERATED_(E8)
  6
Continuous
 62
     7
100
AcDbLine
 10
21.3397100043
 20
543.6946731941
 30
0.0
 11
21.3396741377
 21
526.5722551807
 31
0.0
  0
LINE
  5
101
330
73
100
AcDbEntity
  8
$DDT_AUDIT_GENERATED_(E8)
  6
Continuous
 62
     7
100
AcDbLine
 10
59.5857826127
 20
526.4690355737
 30
0.0
 11
59.5857100216
 21
526.5762560305
 31
0.0
  0
LINE
  5
102
330
73
100
AcDbEntity
  8
$DDT_AUDIT_GENERATED_(E8)
  6
Continuous
 62
     7
100
AcDbLine
 10
59.5824932882
 20
526.3291530122
 30
0.0
 11
59.5856987951
 21
526.4695803314
 31
0.0
  0
LINE
  5
103
330
73
100
AcDbEntity
  8
$DDT_AUDIT_GENERATED_(E8)
  6
Continuous
 62
     7
100
AcDbLine
 10
21.3396714115
 20
526.469439855
 30
0.0
 11
21.3428244472
 21
526.3299674128
 31
0.0
  0
ARC
  5
104
330
73
100
AcDbEntity
  8
$DDT_AUDIT_GENERATED_(E8)
  6
Continuous
 62
     7
100
AcDbCircle
 10
45.6882926123
 20
539.8818059311
 30
0.0
 40
20.34666256847545
100
AcDbArc
 50
282.2498239285
 51
309.7834226106
  0
ARC
  5
105
330
73
100
AcDbEntity
  8
$DDT_AUDIT_GENERATED_(E8)
  6
Continuous
 62
     7
100
AcDbCircle
 10
35.3166848722
 20
540.0925043093
 30
0.0
 40
20.55756162292545
100
AcDbArc
 50
230.4068853331
 51
257.6553841792
  0
ARC
  5
106
330
73
100
AcDbEntity
  8
$DDT_AUDIT_GENERATED_(E8)
  6
Continuous
 62
     7
100
AcDbCircle
 10
24.6938714211
 20
526.5029940464
 30
0.0
 40
3.350492894072863
100
AcDbArc
 50
183.0255749991
 51
222.4672464967
  0
ARC
  5
107
330
73
100
AcDbEntity
  8
$DDT_AUDIT_GENERATED_(E8)
  6
Continuous
 62
     7
100
AcDbCircle
 10
56.19287218
 20
526.5270788421
 30
0.0
 40
3.395366453923034
100
AcDbArc
 50
317.5898394906
 51
356.6945659867
  0
SPLINE
  5
108
330
73
100
AcDbEntity
  8
$DDT_AUDIT_GENERATED_(E8)
  6
Continuous
 62
     7
100
AcDbSpline
210
0.0
220
0.0
230
1.0
 70
     8
 71
     3
 72
    20
 73
    16
 74
     0
 42
0.0000000020935612
 43
0.0000000001
 40
0.0543621131842205
 40
0.0543621131842205
 40
0.0543621131842205
 40
0.0543621131842205
 40
0.0654164971959571
 40
0.078590896794682
 40
0.0904128583287043
 40
0.1038513484948078
 40
0.1205246721825427
 40
0.1434328669005254
 40
0.1632215062562237
 40
0.1809440302756429
 40
0.200055015515151
 40
0.2270679428970441
 40
0.2639552155480931
 40
0.2995398821441321
 40
0.3086111896011405
 40
0.3086111896011405
 40
0.3086111896011405
 40
0.3086111896011405
 10
49.71133629741347
 20
519.448853463381
 30
0.0
 10
49.71690842694014
 20
519.4879359521472
 30
0.0
 10
49.73111216259901
 20
519.5707310464862
 30
0.0
 10
49.75935436097266
 20
519.6855317275168
 30
0.0
 10
49.77803397669705
 20
519.7440262871669
 30
0.0
 10
49.80258397495169
 20
519.812752125235
 30
0.0
 10
49.84365958412716
 20
519.9094323772284
 30
0.0
 10
49.89992697487452
 20
520.0193659905974
 30
0.0
 10
49.96124945439313
 20
520.1217174661332
 30
0.0
 10
50.02127917524945
 20
520.2112867993008
 30
0.0
 10
50.08507475995962
 20
520.2976213251357
 30
0.0
 10
50.16359405364055
 20
520.3937503018332
 30
0.0
 10
50.24833133254693
 20
520.4799634854475
 30
0.0
 10
50.26959782864674
 20
520.4973295307177
 30
0.0
 10
50.27153649407948
 20
520.499272071702
 30
0.0
 10
50.27154371640985
 20
520.4993797127231
 30
0.0
  0
SPLINE
  5
109
330
73
100
AcDbEntity
  8
$DDT_AUDIT_GENERATED_(E8)
  6
Continuous
 62
     7
100
AcDbSpline
210
0.0
220
0.0
230
1.0
 70
     8
 71
     3
 72
    20
 73
    16
 74
     0
 42
0.0000000020926196
 43
0.0000000001
 40
0.691485554768562
 40
0.691485554768562
 40
0.691485554768562
 40
0.691485554768562
 40
0.7004704728471485
 40
0.7360540306531034
 40
0.7729392169029528
 40
0.7978300004672773
 40
0.8161521698994371
 40
0.8313072060963251
 40
0.8513808225436653
 40
0.875948105267704
 40
0.8942374189177872
 40
0.9088363495675754
 40
0.9214118838794562
 40
0.9345859319238496
 40
0.945640900817
 40
0.945640900817
 40
0.945640900817
 40
0.945640900817
 10
30.65374923295402
 20
520.4994425493611
 30
0.0
 10
30.65379237465934
 20
520.4993064844692
 30
0.0
 10
30.65587780169173
 20
520.497242162503
 30
0.0
 10
30.6770152699988
 20
520.4799691683659
 30
0.0
 10
30.75991793520146
 20
520.3956789804733
 30
0.0
 10
30.8356063449637
 20
520.3034016019152
 30
0.0
 10
30.89326050207459
 20
520.2262749414203
 30
0.0
 10
30.94987456818343
 20
520.1436680091955
 30
0.0
 10
31.01133380380166
 20
520.0445407540822
 30
0.0
 10
31.07251172791469
 20
519.9292169264471
 30
0.0
 10
31.1186232524175
 20
519.8237536553072
 30
0.0
 10
31.14621252692247
 20
519.7475071686191
 30
0.0
 10
31.1654196759347
 20
519.6878878465012
 30
0.0
 10
31.19426280303272
 20
519.5707417818131
 30
0.0
 10
31.20846683579025
 20
519.4879411366283
 30
0.0
 10
31.21403896715841
 20
519.448852347455
 30
0.0
  0
ELLIPSE
  5
10B
330
73
100
AcDbEntity
  8
DV1_Standard
  6
Continuous
 62
     7
100
AcDbEllipse
 10
40.5004957488
 20
542.8362276971
 30
0.0
 11
18.67425083736454
 21
0.04865327101988283
 31
0.0
210
0.0
220
0.0
230
0.9999999999999998
 40
0.24749608
 41
0.0210578602606287
 42
3.099481769349013
  0
ENDBLK
  5
10D
330
73
100
AcDbEntity
  8
0
100
AcDbBlockEnd
  0
BLOCK
  5
19B
330
10E
100
AcDbEntity
  8
0
100
AcDbBlockBegin
  2
SE1
 70
     0
 10
0.0
 20
0.0
 30
0.0
  3
SE1
  1

  0
LINE
  5
110
330
10E
100
AcDbEntity
  8
$DDT_AUDIT_GENERATED_(75)
  6
Continuous
 62
     7
100
AcDbLine
 10
283.6085311045
 20
490.8911774349
 30
0.0
 11
304.0562462048
 21
497.535042814
 31
0.0
  0
SPLINE
  5
111
330
10E
100
AcDbEntity
  8
$DDT_AUDIT_GENERATED_(75)
  6
Continuous
 62
     7
100
AcDbSpline
210
0.0
220
0.0
230
1.0
 70
     8
 71
     3
 72
    10
 73
     6
 74
     0
 42
0.0000000019260148
 43
0.0000000001
 40
0.0
 40
0.0
 40
0.0
 40
0.0
 40
0.5
 40
0.5
 40
1.0
 40
1.0
 40
1.0
 40
1.0
 10
296.1941735226997
 20
495.3143846453493
 30
0.0
 10
295.409545551636
 20
494.9396632572085
 30
0.0
 10
294.6079656185715
 20
494.6168864906001
 30
0.0
 10
292.9680312652385
 20
494.0840182512609
 30
0.0
 10
292.1296763496023
 20
493.8739282964483
 30
0.0
 10
291.2743516372309
 20
493.7158376128028
 30
0.0
  0
LINE
  5
112
330
10E
100
AcDbEntity
  8
$DDT_AUDIT_GENERATED_(75)
  6
Continuous
 62
     7
100
AcDbLine
 10
296.9671396102
 20
498.3860391254
 30
0.0
 11
288.8435357329
 21
495.7465202213
 31
0.0
  0
LINE
  5
113
330
10E
100
AcDbEntity
  8
$DDT_AUDIT_GENERATED_(75)
  6
Continuous
 62
     7
100
AcDbLine
 10
296.9671396102
 20
498.3860391254
 30
0.0
 11
297.5284479513
 21
496.6585096847
 31
0.0
  0
SPLINE
  5
114
330
10E
100
AcDbEntity
  8
$DDT_AUDIT_GENERATED_(75)
  6
Continuous
 62
     7
100
AcDbSpline
210
0.0
220
0.0
230
1.0
 70
     8
 71
     3
 72
    14
 73
    10
 74
     0
 42
0.0000000049321089
 43
0.0000000001
 40
0.0
 40
0.0
 40
0.0
 40
0.0
 40
0.1250000000000004
 40
0.1250000000000004
 40
0.2500000000000009
 40
0.2500000000000009
 40
0.5000000000000008
 40
0.5000000000000008
 40
1.0
 40
1.0
 40
1.0
 40
1.0
 10
297.5284479512707
 20
496.658509684682
 30
0.0
 10
297.5544799442668
 20
496.5783914483977
 30
0.0
 10
297.5499209215453
 20
496.4884429875731
 30
0.0
 10
297.5018265076193
 20
496.32645483035
 30
0.0
 10
297.4600260544196
 20
496.2508205729513
 30
0.0
 10
297.3143167864286
 20
496.04457883501
 30
0.0
 10
297.1880271233683
 20
495.9284654693673
 30
0.0
 10
296.7932588672133
 20
495.6200061816039
 30
0.0
 10
296.4961779000018
 20
495.4586154192457
 30
0.0
 10
296.1941735226997
 20
495.3143846453493
 30
0.0
  0
SPLINE
  5
115
330
10E
100
AcDbEntity
  8
$DDT_AUDIT_GENERATED_(75)
  6
Continuous
 62
     7
100
AcDbSpline
210
0.0
220
0.0
230
1.0
 70
     8
 71
     3
 72
    18
 73
    14
 74
     0
 42
0.0000000049401632
 43
0.0000000001
 40
0.0
 40
0.0
 40
0.0
 40
0.0
 40
0.2499999999999998
 40
0.2499999999999998
 40
0.4999999999999997
 40
0.4999999999999997
 40
0.6249999999999992
 40
0.6249999999999992
 40
0.7499999999999989
 40
0.7499999999999989
 40
0.8749999999999994
 40
0.8749999999999994
 40
1.0
 40
1.0
 40
1.0
 40
1.0
 10
291.2743516372309
 20
493.7158376128028
 30
0.0
 10
291.1093076779687
 20
493.68533234156
 30
0.0
 10
290.9434914348802
 20
493.6599229373433
 30
0.0
 10
290.6093429249564
 20
493.6257059558709
 30
0.0
 10
290.4411117964504
 20
493.6167333533944
 30
0.0
 10
290.1906109331734
 20
493.6256924742145
 30
0.0
 10
290.1072782500934
 20
493.6324401591493
 30
0.0
 10
289.9411216405576
 20
493.6573528239616
 30
0.0
 10
289.8578220983875
 20
493.6756430136257
 30
0.0
 10
289.6993691832723
 20
493.7296189921248
 30
0.0
 10
289.6220870948404
 20
493.7656081128646
 30
0.0
 10
289.4870142952774
 20
493.8690917199254
 30
0.0
 10
289.4313425851013
 20
493.937436749188
 30
0.0
 10
289.4048440740005
 20
494.0189907805628
 30
0.0
  0
LINE
  5
116
330
10E
100
AcDbEntity
  8
$DDT_AUDIT_GENERATED_(75)
  6
Continuous
 62
     7
100
AcDbLine
 10
289.404844074
 20
494.0189907806
 30
0.0
 11
288.8435357329
 21
495.7465202213
 31
0.0
  0
LINE
  5
117
330
10E
100
AcDbEntity
  8
$DDT_AUDIT_GENERATED_(75)
  6
Continuous
 62
     7
100
AcDbLine
 10
282.9873239458
 20
491.0232190926
 30
0.0
 11
283.6085311045
 21
490.8911774349
 31
0.0
  0
LINE
  5
118
330
10E
100
AcDbEntity
  8
$DDT_AUDIT_GENERATED_(75)
  6
Continuous
 62
     7
100
AcDbLine
 10
304.0562462048
 20
497.535042814
 30
0.0
 11
304.4812012141
 21
498.0070031655
 31
0.0
  0
ARC
  5
119
330
10E
100
AcDbEntity
  8
$DDT_AUDIT_GENERATED_(75)
  6
Continuous
 62
     7
100
AcDbCircle
 10
283.1952356366
 20
492.0013666934
 30
0.0
 40
0.9999999999999993
100
AcDbArc
 50
198.0
 51
258.0
  0
ARC
  5
11A
330
10E
100
AcDbEntity
  8
$DDT_AUDIT_GENERATED_(75)
  6
Continuous
 62
     7
100
AcDbCircle
 10
303.7380563886
 20
498.6761337719
 30
0.0
 40
0.9999999999999902
100
AcDbArc
 50
318.0
 51
18.0
  0
LINE
  5
11B
330
10E
100
AcDbEntity
  8
$DDT_AUDIT_GENERATED_(75)
  6
Continuous
 62
     7
100
AcDbLine
 10
280.3709682392
 20
497.4574999896
 30
0.0
 11
282.2441791204
 21
491.692349699
 31
0.0
  0
LINE
  5
11C
330
10E
100
AcDbEntity
  8
$DDT_AUDIT_GENERATED_(75)
  6
Continuous
 62
     7
100
AcDbLine
 10
304.6891129049
 20
498.9851507662
 30
0.0
 11
303.9882710868
 21
501.1421200919
 31
0.0
  0
LINE
  5
11D
330
10E
100
AcDbEntity
  8
$DDT_AUDIT_GENERATED_(89)
  6
Continuous
 62
     7
100
AcDbLine
 10
302.3237252912
 20
495.0269075302
 30
0.0
 11
286.4844148973
 21
489.8804036084
 31
0.0
  0
SPLINE
  5
11E
330
10E
100
AcDbEntity
  8
$DDT_AUDIT_GENERATED_(89)
  6
Continuous
 62
     7
100
AcDbSpline
210
0.0
220
0.0
230
1.0
 70
     8
 71
     3
 72
    20
 73
    16
 74
     0
 42
0.0000000631015441
 43
0.0000000001
 40
0.0
 40
0.0
 40
0.0
 40
0.0
 40
0.2125265405902705
 40
0.2125265405902705
 40
0.2125265405902705
 40
0.4250001490954964
 40
0.4250001490954964
 40
0.4250001490954964
 40
0.638312117778163
 40
0.638312117778163
 40
0.638312117778163
 40
0.8534671345903798
 40
0.8534671345903798
 40
0.8534671345903798
 40
1.0
 40
1.0
 40
1.0
 40
1.0
 10
285.0970893817912
 20
491.1119737821411
 30
0.0
 10
285.1005248707256
 20
491.1014004344059
 30
0.0
 10
285.1058383508458
 20
491.0912761502632
 30
0.0
 10
285.11258397695
 20
491.0824390243158
 30
0.0
 10
285.1193286675163
 20
491.0736031239718
 30
0.0
 10
285.127689152796
 20
491.0658108304633
 30
0.0
 10
285.1369695724647
 20
491.0596921871088
 30
0.0
 10
285.1462870890576
 20
491.0535490855016
 30
0.0
 10
285.1567851551034
 20
491.0489242580077
 30
0.0
 10
285.1676027227461
 20
491.0461794368636
 30
0.0
 10
285.1785128062013
 20
491.0434111410008
 30
0.0
 10
285.1900452199978
 20
491.0424787365776
 30
0.0
 10
285.2012593748131
 20
491.0434462668165
 30
0.0
 10
285.2089543880087
 20
491.0441101740015
 30
0.0
 10
285.2166220701295
 20
491.0456660845013
 30
0.0
 10
285.2239676504771
 20
491.0480528082369
 30
0.0
  0
LINE
  5
11F
330
10E
100
AcDbEntity
  8
$DDT_AUDIT_GENERATED_(89)
  6
Continuous
 62
     7
100
AcDbLine
 10
285.0970893818
 20
491.1119737821
 30
0.0
 11
285.0198351332
 21
491.3497379112
 31
0.0
  0
LINE
  5
120
330
10E
100
AcDbEntity
  8
$DDT_AUDIT_GENERATED_(89)
  6
Continuous
 62
     7
100
AcDbLine
 10
285.3439655849
 20
491.0870425006
 30
0.0
 11
285.2239676505
 21
491.0480528082
 31
0.0
  0
SPLINE
  5
121
330
10E
100
AcDbEntity
  8
$DDT_AUDIT_GENERATED_(89)
  6
Continuous
 62
     7
100
AcDbSpline
210
0.0
220
0.0
230
1.0
 70
     8
 71
     3
 72
    20
 73
    16
 74
     0
 42
0.000000063088464
 43
0.0000000001
 40
0.0
 40
0.0
 40
0.0
 40
0.0
 40
0.2174785466303456
 40
0.2174785466303456
 40
0.2174785466303456
 40
0.4350168090148732
 40
0.4350168090148732
 40
0.4350168090148732
 40
0.6515958899074934
 40
0.6515958899074934
 40
0.6515958899074934
 40
0.8662118866631088
 40
0.8662118866631088
 40
0.8662118866631088
 40
1.0
 40
1.0
 40
1.0
 40
1.0
 10
285.3439655848848
 20
491.0870425006335
 30
0.0
 10
285.3331444259937
 20
491.0835264929738
 30
0.0
 10
285.3215687019492
 20
491.0818246126958
 30
0.0
 10
285.3101936078311
 20
491.0820835015026
 30
0.0
 10
285.2988167705636
 20
491.0823424299824
 30
0.0
 10
285.2873250107251
 20
491.0845713250977
 30
0.0
 10
285.2766816998084
 20
491.0885986570806
 30
0.0
 10
285.2660858307278
 20
491.0926080375046
 30
0.0
 10
285.256035633365
 20
491.098513337084
 30
0.0
 10
285.2473873446821
 20
491.1058314431104
 30
0.0
 10
285.2388165598285
 20
491.1130839660762
 30
0.0
 10
285.2313842016012
 20
491.1219271017219
 30
0.0
 10
285.2257249214726
 20
491.131624007971
 30
0.0
 10
285.222165724085
 20
491.1377225227299
 30
0.0
 10
285.2192450985069
 20
491.144240053312
 30
0.0
 10
285.2170630847113
 20
491.1509556012498
 30
0.0
  0
LINE
  5
122
330
10E
100
AcDbEntity
  8
$DDT_AUDIT_GENERATED_(89)
  6
Continuous
 62
     7
100
AcDbLine
 10
285.1398088361
 20
491.3887197303
 30
0.0
 11
285.2170630847
 21
491.1509556012
 31
0.0
  0
SPLINE
  5
123
330
10E
100
AcDbEntity
  8
$DDT_AUDIT_GENERATED_(89)
  6
Continuous
 62
     7
100
AcDbSpline
210
0.0
220
0.0
230
1.0
 70
     8
 71
     3
 72
    20
 73
    16
 74
     0
 42
0.0000000734542227
 43
0.0000000001
 40
0.0
 40
0.0
 40
0.0
 40
0.0
 40
0.2174093870011151
 40
0.2174093870011151
 40
0.2174093870011151
 40
0.4348768202247125
 40
0.4348768202247125
 40
0.4348768202247125
 40
0.6514121854904935
 40
0.6514121854904935
 40
0.6514121854904935
 40
0.8660380396115136
 40
0.8660380396115136
 40
0.8660380396115136
 40
1.0
 40
1.0
 40
1.0
 40
1.0
 10
286.9363707910892
 20
491.6044463165132
 30
0.0
 10
286.9287224853753
 20
491.6019612313439
 30
0.0
 10
286.9203636287784
 20
491.6013038255957
 30
0.0
 10
286.9119835157467
 20
491.6025342142935
 30
0.0
 10
286.9036021540621
 20
491.6037647863217
 30
0.0
 10
286.8949669352565
 20
491.6069191837368
 30
0.0
 10
286.8868002342875
 20
491.6117475362544
 30
0.0
 10
286.87866891939
 20
491.6165549676646
 30
0.0
 10
286.8707754252486
 20
491.6231574602764
 30
0.0
 10
286.8637900562136
 20
491.6310118393459
 30
0.0
 10
286.8568655929487
 20
491.6387977357048
 30
0.0
 10
286.850640768833
 20
491.6480315213245
 30
0.0
 10
286.8456451596336
 20
491.6579426500213
 30
0.0
 10
286.8424994727338
 20
491.6641835921087
 30
0.0
 10
286.8397879431894
 20
491.6707777652225
 30
0.0
 10
286.8376034087012
 20
491.6775010710538
 30
0.0
  0
LINE
  5
124
330
10E
100
AcDbEntity
  8
$DDT_AUDIT_GENERATED_(89)
  6
Continuous
 62
     7
100
AcDbLine
 10
286.7603491601
 20
491.9152652001
 30
0.0
 11
286.8376034087
 21
491.6775010711
 31
0.0
  0
LINE
  5
125
330
10E
100
AcDbEntity
  8
$DDT_AUDIT_GENERATED_(89)
  6
Continuous
 62
     7
100
AcDbLine
 10
288.5188496886
 20
492.2237711016
 30
0.0
 11
288.44159544
 21
492.4615352307
 31
0.0
  0
SPLINE
  5
126
330
10E
100
AcDbEntity
  8
$DDT_AUDIT_GENERATED_(89)
  6
Continuous
 62
     7
100
AcDbSpline
210
0.0
220
0.0
230
1.0
 70
     8
 71
     3
 72
    20
 73
    16
 74
     0
 42
0.0000000734876714
 43
0.0000000001
 40
0.0
 40
0.0
 40
0.0
 40
0.0
 40
0.2125265405902869
 40
0.2125265405902869
 40
0.2125265405902869
 40
0.4250001490955228
 40
0.4250001490955228
 40
0.4250001490955228
 40
0.6383121177781937
 40
0.6383121177781937
 40
0.6383121177781937
 40
0.8534671345904412
 40
0.8534671345904412
 40
0.8534671345904412
 40
1.0
 40
1.0
 40
1.0
 40
1.0
 10
288.5188496886111
 20
492.2237711016149
 30
0.0
 10
288.5222851775454
 20
492.2131977538796
 30
0.0
 10
288.5270624769523
 20
492.2028992540625
 30
0.0
 10
288.5327817144272
 20
492.1937286342333
 30
0.0
 10
288.5385001587124
 20
492.1845592862594
 30
0.0
 10
288.5453165014606
 20
492.1762652704287
 30
0.0
 10
288.5526649991322
 20
492.1695189075658
 30
0.0
 10
288.5600428711933
 20
492.1627455772465
 30
0.0
 10
288.5681578445893
 20
492.1573464360127
 30
0.0
 10
288.5763458464497
 20
492.1537472171534
 30
0.0
 10
288.58460387511
 20
492.1501172164523
 30
0.0
 10
288.5931613316279
 20
492.1482181898137
 30
0.0
 10
288.6013212989615
 20
492.1481933543839
 30
0.0
 10
288.6069205667925
 20
492.1481763126217
 30
0.0
 10
288.6124229613237
 20
492.1490286785356
 30
0.0
 10
288.6176170709991
 20
492.1507163470743
 30
0.0
  0
LINE
  5
127
330
10E
100
AcDbEntity
  8
$DDT_AUDIT_GENERATED_(89)
  6
Continuous
 62
     7
100
AcDbLine
 10
288.7024684241
 20
492.178286223
 30
0.0
 11
288.617617071
 21
492.1507163471
 31
0.0
  0
SPLINE
  5
128
330
10E
100
AcDbEntity
  8
$DDT_AUDIT_GENERATED_(89)
  6
Continuous
 62
     7
100
AcDbSpline
210
0.0
220
0.0
230
1.0
 70
     8
 71
     3
 72
    20
 73
    16
 74
     0
 42
0.0000000734471153
 43
0.0000000001
 40
0.0
 40
0.0
 40
0.0
 40
0.0
 40
0.2174785466303357
 40
0.2174785466303357
 40
0.2174785466303357
 40
0.4350168090148483
 40
0.4350168090148483
 40
0.4350168090148483
 40
0.6515958899074671
 40
0.6515958899074671
 40
0.6515958899074671
 40
0.8662118866630723
 40
0.8662118866630723
 40
0.8662118866630723
 40
1.0
 40
1.0
 40
1.0
 40
1.0
 10
288.7024684241471
 20
492.1782862229641
 30
0.0
 10
288.694816709315
 20
492.1758000301051
 30
0.0
 10
288.6864541734977
 20
492.1751421779697
 30
0.0
 10
288.6780703344925
 20
492.1763729844793
 30
0.0
 10
288.6696852107256
 20
492.1776039796009
 30
0.0
 10
288.6610460371137
 20
492.1807597361664
 30
0.0
 10
288.6528757296677
 20
492.1855905956859
 30
0.0
 10
288.6447418408127
 20
492.190399921977
 30
0.0
 10
288.6368458627971
 20
492.1970051698522
 30
0.0
 10
288.6298587804499
 20
492.2048630345365
 30
0.0
 10
288.6229343146107
 20
492.2126504789765
 30
0.0
 10
288.616709759802
 20
492.221886053742
 30
0.0
 10
288.6117150595773
 20
492.2317988950916
 30
0.0
 10
288.6085738254296
 20
492.2380332143394
 30
0.0
 10
288.6058659213057
 20
492.2446198623118
 30
0.0
 10
288.6036839075099
 20
492.2513354102496
 30
0.0
  0
LINE
  5
129
330
10E
100
AcDbEntity
  8
$DDT_AUDIT_GENERATED_(89)
  6
Continuous
 62
     7
100
AcDbLine
 10
288.5264296589
 20
492.4890995393
 30
0.0
 11
288.6036839075
 21
492.2513354102
 31
0.0
  0
LINE
  5
12A
330
10E
100
AcDbEntity
  8
$DDT_AUDIT_GENERATED_(89)
  6
Continuous
 62
     7
100
AcDbLine
 10
292.7517239573
 20
493.4939691008
 30
0.0
 11
292.7208222579
 21
493.5890747524
 31
0.0
  0
LINE
  5
12B
330
10E
100
AcDbEntity
  8
$DDT_AUDIT_GENERATED_(89)
  6
Continuous
 62
     7
100
AcDbLine
 10
292.6435680093
 20
493.8268388815
 30
0.0
 11
292.7208222579
 21
493.5890747524
 31
0.0
  0
LINE
  5
12C
330
10E
100
AcDbEntity
  8
$DDT_AUDIT_GENERATED_(89)
  6
Continuous
 62
     7
100
AcDbLine
 10
295.0984635486
 20
494.3616172383
 30
0.0
 11
295.0212093
 21
494.5993813674
 31
0.0
  0
LINE
  5
12D
330
10E
100
AcDbEntity
  8
$DDT_AUDIT_GENERATED_(89)
  6
Continuous
 62
     7
100
AcDbLine
 10
295.0984635486
 20
494.3616172383
 30
0.0
 11
295.1293652481
 21
494.2665115867
 31
0.0
  0
LINE
  5
12E
330
10E
100
AcDbEntity
  8
$DDT_AUDIT_GENERATED_(89)
  6
Continuous
 62
     7
100
AcDbLine
 10
299.1383476504
 20
495.9371207096
 30
0.0
 11
299.215601899
 21
495.6993565805
 31
0.0
  0
SPLINE
  5
12F
330
10E
100
AcDbEntity
  8
$DDT_AUDIT_GENERATED_(89)
  6
Continuous
 62
     7
100
AcDbSpline
210
0.0
220
0.0
230
1.0
 70
     8
 71
     3
 72
    20
 73
    16
 74
     0
 42
0.0000000734807071
 43
0.0000000001
 40
0.0
 40
0.0
 40
0.0
 40
0.0
 40
0.2124602044789375
 40
0.2124602044789375
 40
0.2124602044789375
 40
0.424866054904191
 40
0.424866054904191
 40
0.424866054904191
 40
0.6381326839798532
 40
0.6381326839798532
 40
0.6381326839798532
 40
0.8532925071046277
 40
0.8532925071046277
 40
0.8532925071046277
 40
1.0
 40
1.0
 40
1.0
 40
1.0
 10
299.2156018989836
 20
495.6993565804877
 30
0.0
 10
299.2190367532913
 20
495.6887851859322
 30
0.0
 10
299.2212246383114
 20
495.6776475253085
 30
0.0
 10
299.2219877895903
 20
495.6668686612564
 30
0.0
 10
299.2227508321503
 20
495.6560913327656
 30
0.0
 10
299.2221114365323
 20
495.6453769053379
 30
0.0
 10
299.2201323727492
 20
495.6356013640583
 30
0.0
 10
299.218145183786
 20
495.6257856886343
 30
0.0
 10
299.2147542503251
 20
495.6166483843683
 30
0.0
 10
299.2102466906903
 20
495.6089235696134
 30
0.0
 10
299.2056995229951
 20
495.6011308766819
 30
0.0
 10
299.1998926296415
 20
495.5945624678484
 30
0.0
 10
299.1933056171797
 20
495.5897435108595
 30
0.0
 10
299.1887804879232
 20
495.5864329959056
 30
0.0
 10
299.1838216605707
 20
495.5838843326518
 30
0.0
 10
299.1786207812212
 20
495.5821944645143
 30
0.0
  0
LINE
  5
130
330
10E
100
AcDbEntity
  8
$DDT_AUDIT_GENERATED_(89)
  6
Continuous
 62
     7
100
AcDbLine
 10
299.2634721344
 20
495.6097643404
 30
0.0
 11
299.1786207812
 21
495.5821944645
 31
0.0
  0
SPLINE
  5
131
330
10E
100
AcDbEntity
  8
$DDT_AUDIT_GENERATED_(89)
  6
Continuous
 62
     7
100
AcDbSpline
210
0.0
220
0.0
230
1.0
 70
     8
 71
     3
 72
    20
 73
    16
 74
     0
 42
0.0000000734542227
 43
0.0000000001
 40
0.0
 40
0.0
 40
0.0
 40
0.0
 40
0.2174093870011363
 40
0.2174093870011363
 40
0.2174093870011363
 40
0.4348768202247474
 40
0.4348768202247474
 40
0.4348768202247474
 40
0.6514121854905198
 40
0.6514121854905198
 40
0.6514121854905198
 40
0.8660380396115526
 40
0.8660380396115526
 40
0.8660380396115526
 40
1.0
 40
1.0
 40
1.0
 40
1.0
 10
299.2634721343694
 20
495.6097643404041
 30
0.0
 10
299.2711204400832
 20
495.6122494255733
 30
0.0
 10
299.2782693105272
 20
495.6166307857845
 30
0.0
 10
299.2843257600535
 20
495.6225518980033
 30
0.0
 10
299.2903831120024
 20
495.6284738924792
 30
0.0
 10
299.2955150424856
 20
495.6361015078592
 30
0.0
 10
299.2992840079549
 20
495.6448079934903
 30
0.0
 10
299.3030366426094
 20
495.653476754179
 30
0.0
 10
299.3055417657291
 20
495.6634579623525
 30
0.0
 10
299.3065763598074
 20
495.6739181854005
 30
0.0
 10
299.3076019332099
 20
495.6842872052586
 30
0.0
 10
299.3072104386965
 20
495.6954163545606
 30
0.0
 10
299.3054263561545
 20
495.7063709715234
 30
0.0
 10
299.3043029365961
 20
495.713268988101
 30
0.0
 10
299.3026206523709
 20
495.7201975832912
 30
0.0
 10
299.3004361178823
 20
495.7269208891225
 30
0.0
  0
LINE
  5
132
330
10E
100
AcDbEntity
  8
$DDT_AUDIT_GENERATED_(89)
  6
Continuous
 62
     7
100
AcDbLine
 10
299.2231818693
 20
495.9646850182
 30
0.0
 11
299.3004361179
 21
495.7269208891
 31
0.0
  0
LINE
  5
133
330
10E
100
AcDbEntity
  8
$DDT_AUDIT_GENERATED_(89)
  6
Continuous
 62
     7
100
AcDbLine
 10
300.9816823978
 20
496.2731909197
 30
0.0
 11
300.9044281492
 21
496.5109550488
 31
0.0
  0
SPLINE
  5
134
330
10E
100
AcDbEntity
  8
$DDT_AUDIT_GENERATED_(89)
  6
Continuous
 62
     7
100
AcDbSpline
210
0.0
220
0.0
230
1.0
 70
     8
 71
     3
 72
    20
 73
    16
 74
     0
 42
0.0000000734876714
 43
0.0000000001
 40
0.0
 40
0.0
 40
0.0
 40
0.0
 40
0.2125265405902722
 40
0.2125265405902722
 40
0.2125265405902722
 40
0.4250001490954936
 40
0.4250001490954936
 40
0.4250001490954936
 40
0.6383121177781517
 40
0.6383121177781517
 40
0.6383121177781517
 40
0.8534671345903888
 40
0.8534671345903888
 40
0.8534671345903888
 40
1.0
 40
1.0
 40
1.0
 40
1.0
 10
300.9816823977922
 20
496.2731909196835
 30
0.0
 10
300.9851178867265
 20
496.2626175719482
 30
0.0
 10
300.9873062766324
 20
496.2514778844425
 30
0.0
 10
300.9880696714102
 20
496.2406970137097
 30
0.0
 10
300.9888329603143
 20
496.2299176381546
 30
0.0
 10
300.9881935233792
 20
496.2192010926538
 30
0.0
 10
300.9862138764772
 20
496.2094238318897
 30
0.0
 10
300.984226316268
 20
496.199607488162
 30
0.0
 10
300.9808347004739
 20
496.190469629464
 30
0.0
 10
300.9763260355842
 20
496.1827450135011
 30
0.0
 10
300.971778810936
 20
496.1749543337847
 30
0.0
 10
300.9659719030361
 20
496.1683880422229
 30
0.0
 10
300.959384948689
 20
496.1635716414803
 30
0.0
 10
300.9548650627543
 20
496.1602666873503
 30
0.0
 10
300.9499125239551
 20
496.1577220395023
 30
0.0
 10
300.9447184142792
 20
496.1560343709651
 30
0.0
  0
LINE
  5
135
330
10E
100
AcDbEntity
  8
$DDT_AUDIT_GENERATED_(89)
  6
Continuous
 62
     7
100
AcDbLine
 10
302.5249684732
 20
497.0375005186
 30
0.0
 11
302.6022227218
 21
496.7997363895
 31
0.0
  0
SPLINE
  5
136
330
10E
100
AcDbEntity
  8
$DDT_AUDIT_GENERATED_(89)
  6
Continuous
 62
     7
100
AcDbSpline
210
0.0
220
0.0
230
1.0
 70
     8
 71
     3
 72
    20
 73
    16
 74
     0
 42
0.0000000630935676
 43
0.0000000001
 40
0.0
 40
0.0
 40
0.0
 40
0.0
 40
0.2124602044789328
 40
0.2124602044789328
 40
0.2124602044789328
 40
0.4248660549041722
 40
0.4248660549041722
 40
0.4248660549041722
 40
0.6381326839798376
 40
0.6381326839798376
 40
0.6381326839798376
 40
0.8532925071045689
 40
0.8532925071045689
 40
0.8532925071045689
 40
1.0
 40
1.0
 40
1.0
 40
1.0
 10
302.6022227217821
 20
496.7997363894875
 30
0.0
 10
302.6056575760898
 20
496.7891649949319
 30
0.0
 10
302.6073093379772
 20
496.7778531373427
 30
0.0
 10
302.6070462536797
 20
496.7667408291389
 30
0.0
 10
302.6067832068612
 20
496.755630103999
 30
0.0
 10
302.6045999420339
 20
496.7444140430567
 30
0.0
 10
302.600689384045
 20
496.7340109212666
 30
0.0
 10
302.5967627709963
 20
496.7235650887578
 30
0.0
 10
302.5909890680218
 20
496.7136535757453
 30
0.0
 10
302.5838523324994
 20
496.7050744899596
 30
0.0
 10
302.5766528862699
 20
496.6964200194923
 30
0.0
 10
302.5678707833432
 20
496.6888849064682
 30
0.0
 10
302.5582292504436
 20
496.6830734756265
 30
0.0
 10
302.5516057344179
 20
496.679081153481
 30
0.0
 10
302.5444787745958
 20
496.6758280212838
 30
0.0
 10
302.5371236204837
 20
496.6734381868447
 30
0.0
  0
LINE
  5
137
330
10E
100
AcDbEntity
  8
$DDT_AUDIT_GENERATED_(89)
  6
Continuous
 62
     7
100
AcDbLine
 10
302.6571215549
 20
496.7124278792
 30
0.0
 11
302.5371236205
 21
496.6734381868
 31
0.0
  0
SPLINE
  5
138
330
10E
100
AcDbEntity
  8
$DDT_AUDIT_GENERATED_(89)
  6
Continuous
 62
     7
100
AcDbSpline
210
0.0
220
0.0
230
1.0
 70
     8
 71
     3
 72
    20
 73
    16
 74
     0
 42
0.0000000630965777
 43
0.0000000001
 40
0.0
 40
0.0
 40
0.0
 40
0.0
 40
0.2174093870011214
 40
0.2174093870011214
 40
0.2174093870011214
 40
0.4348768202247293
 40
0.4348768202247293
 40
0.4348768202247293
 40
0.6514121854905003
 40
0.6514121854905003
 40
0.6514121854905003
 40
0.8660380396115237
 40
0.8660380396115237
 40
0.8660380396115237
 40
1.0
 40
1.0
 40
1.0
 40
1.0
 10
302.6571215548913
 20
496.712427879241
 30
0.0
 10
302.6679378925611
 20
496.7159423203911
 30
0.0
 10
302.678298518436
 20
496.7213672432013
 30
0.0
 10
302.6873448779652
 20
496.72825983607
 30
0.0
 10
302.6963925854191
 20
496.7351534559481
 30
0.0
 10
302.7043757858777
 20
496.7437075051025
 30
0.0
 10
302.7106167088044
 20
496.7532171783997
 30
0.0
 10
302.7168305899982
 20
496.7626856465664
 30
0.0
 10
302.7214893372676
 20
496.7733666096444
 30
0.0
 10
302.7241849200915
 20
496.7843665206511
 30
0.0
 10
302.7268569999987
 20
496.7952705229024
 30
0.0
 10
302.7276736276028
 20
496.8067922148758
 30
0.0
 10
302.7265546740094
 20
496.8179629453347
 30
0.0
 10
302.7258500797309
 20
496.824997046495
 30
0.0
 10
302.7243809591908
 20
496.831994902765
 30
0.0
 10
302.7221964247021
 20
496.8387182085962
 30
0.0
  0
LINE
  5
139
330
10E
100
AcDbEntity
  8
$DDT_AUDIT_GENERATED_(89)
  6
Continuous
 62
     7
100
AcDbLine
 10
302.6449421761
 20
497.0764823377
 30
0.0
 11
302.7221964247
 21
496.8387182086
 31
0.0
  0
LINE
  5
13A
330
10E
100
AcDbEntity
  8
$DDT_AUDIT_GENERATED_(89)
  6
Continuous
 62
     7
100
AcDbLine
 10
288.617617071
 20
492.1507163471
 30
0.0
 11
286.9363707911
 21
491.6044463165
 31
0.0
  0
LINE
  5
13B
330
10E
100
AcDbEntity
  8
$DDT_AUDIT_GENERATED_(89)
  6
Continuous
 62
     7
100
AcDbLine
 10
286.9192213211
 20
491.5988741159
 30
0.0
 11
285.3439655849
 21
491.0870425006
 31
0.0
  0
LINE
  5
13C
330
10E
100
AcDbEntity
  8
$DDT_AUDIT_GENERATED_(89)
  6
Continuous
 62
     7
100
AcDbLine
 10
302.5371236205
 20
496.6734381868
 30
0.0
 11
300.9617443627
 21
496.161566437
 31
0.0
  0
LINE
  5
13D
330
10E
100
AcDbEntity
  8
$DDT_AUDIT_GENERATED_(89)
  6
Continuous
 62
     7
100
AcDbLine
 10
300.9447184143
 20
496.156034371
 30
0.0
 11
299.2634721344
 21
495.6097643404
 31
0.0
  0
LINE
  5
13E
330
10E
100
AcDbEntity
  8
$DDT_AUDIT_GENERATED_(89)
  6
Continuous
 62
     7
100
AcDbLine
 10
299.1786207812
 20
495.5821944645
 30
0.0
 11
295.1293652481
 21
494.2665115867
 31
0.0
  0
LINE
  5
13F
330
10E
100
AcDbEntity
  8
$DDT_AUDIT_GENERATED_(89)
  6
Continuous
 62
     7
100
AcDbLine
 10
295.1293652481
 20
494.2665115867
 30
0.0
 11
292.7517239573
 21
493.4939691008
 31
0.0
  0
LINE
  5
140
330
10E
100
AcDbEntity
  8
$DDT_AUDIT_GENERATED_(89)
  6
Continuous
 62
     7
100
AcDbLine
 10
292.7517239573
 20
493.4939691008
 30
0.0
 11
288.7024684241
 21
492.178286223
 31
0.0
  0
ARC
  5
141
330
10E
100
AcDbEntity
  8
$DDT_AUDIT_GENERATED_(89)
  6
Continuous
 62
     7
100
AcDbCircle
 10
302.2928235917
 20
495.1220131818
 30
0.0
 40
0.0999999999999969
100
AcDbArc
 50
288.0
 51
0.0955524937
  0
ARC
  5
142
330
10E
100
AcDbEntity
  8
$DDT_AUDIT_GENERATED_(89)
  6
Continuous
 62
     7
100
AcDbCircle
 10
286.4535131979
 20
489.9755092601
 30
0.0
 40
0.1000000000000125
100
AcDbArc
 50
215.9044475063
 51
288.0
  0
LINE
  5
143
330
10E
100
AcDbEntity
  8
$DDT_AUDIT_GENERATED_(89)
  6
Continuous
 62
     7
100
AcDbLine
 10
285.4907732464
 20
491.1347432014
 30
0.0
 11
286.3725135857
 21
489.9168657367
 31
0.0
  0
LINE
  5
144
330
10E
100
AcDbEntity
  8
$DDT_AUDIT_GENERATED_(89)
  6
Continuous
 62
     7
100
AcDbLine
 10
302.3928234527
 20
495.1221799523
 30
0.0
 11
302.390315959
 21
496.6257374861
 31
0.0
  0
ARC
  5
145
330
10E
100
AcDbEntity
  8
$DDT_AUDIT_GENERATED_(89)
  6
Continuous
 62
     7
100
AcDbCircle
 10
285.1123701275
 20
491.1169387974
 30
0.0
 40
0.0999999999999969
100
AcDbArc
 50
198.0
 51
288.0
  0
LINE
  5
146
330
10E
100
AcDbEntity
  8
$DDT_AUDIT_GENERATED_(89)
  6
Continuous
 62
     7
100
AcDbLine
 10
284.9400102273
 20
491.323801227
 30
0.0
 11
285.0172644759
 21
491.086037098
 31
0.0
  0
LINE
  5
147
330
10E
100
AcDbEntity
  8
$DDT_AUDIT_GENERATED_(89)
  6
Continuous
 62
     7
100
AcDbLine
 10
302.8020213306
 20
496.8646548928
 30
0.0
 11
302.724767082
 21
497.1024190218
 31
0.0
  0
ARC
  5
148
330
10E
100
AcDbEntity
  8
$DDT_AUDIT_GENERATED_(89)
  6
Continuous
 62
     7
100
AcDbCircle
 10
302.706915679
 20
496.8337531933
 30
0.0
 40
0.0999999999999969
100
AcDbArc
 50
288.0
 51
18.0
  0
LINE
  5
14A
330
10E
100
AcDbEntity
  8
$DDT_AUDIT_GENERATED_(149)
  6
Continuous
 62
     7
100
AcDbLine
 10
209.4487949367
 20
507.1376894941
 30
0.0
 11
206.0698867139
 21
506.7228117317
 31
0.0
  0
LINE
  5
14B
330
10E
100
AcDbEntity
  8
$DDT_AUDIT_GENERATED_(149)
  6
Continuous
 62
     7
100
AcDbLine
 10
183.3595772127
 20
503.9343363516
 30
0.0
 11
176.9601375391
 21
503.1485839613
 31
0.0
  0
SPLINE
  5
14C
330
10E
100
AcDbEntity
  8
$DDT_AUDIT_GENERATED_(149)
  6
Continuous
 62
     7
100
AcDbSpline
210
0.0
220
0.0
230
1.0
 70
     8
 71
     3
 72
     8
 73
     4
 74
     0
 42
0.0000000379207791
 43
0.0000000001
 40
0.9287250179051256
 40
0.9287250179051256
 40
0.9287250179051256
 40
0.9287250179051256
 40
0.988742489230761
 40
0.988742489230761
 40
0.988742489230761
 40
0.988742489230761
 10
209.467523159722
 20
507.1399383967263
 30
0.0
 10
209.4623776480234
 20
507.139320236798
 30
0.0
 10
209.4571455183745
 20
507.1386919458521
 30
0.0
 10
209.4518089959466
 20
507.1380513070218
 30
0.0
  0
SPLINE
  5
14D
330
10E
100
AcDbEntity
  8
$DDT_AUDIT_GENERATED_(149)
  6
Continuous
 62
     7
100
AcDbSpline
210
0.0
220
0.0
230
1.0
 70
     8
 71
     3
 72
    11
 73
     7
 74
     0
 42
0.0000000031961701
 43
0.0000000001
 40
0.5349872033647719
 40
0.5349872033647719
 40
0.5349872033647719
 40
0.5349872033647719
 40
0.6608932495686913
 40
0.8431419460437551
 40
0.9885680994384992
 40
1.0
 40
1.0
 40
1.0
 40
1.0
 10
211.1447368514912
 20
507.2465706226206
 30
0.0
 10
211.0133260687263
 20
507.2459669087248
 30
0.0
 10
210.69135437133
 20
507.241365233964
 30
0.0
 10
210.2237436136288
 20
507.2208006237653
 30
0.0
 10
209.859779176477
 20
507.187835535382
 30
0.0
 10
209.7060412454056
 20
507.169220726483
 30
0.0
 10
209.6930251481284
 20
507.1676396069556
 30
0.0
  0
SPLINE
  5
14E
330
10E
100
AcDbEntity
  8
$DDT_AUDIT_GENERATED_(149)
  6
Continuous
 62
     7
100
AcDbSpline
210
0.0
220
0.0
230
1.0
 70
     8
 71
     3
 72
    11
 73
     7
 74
     0
 42
0.0000000031805918
 43
0.0000000001
 40
0.0
 40
0.0
 40
0.0
 40
0.0
 40
0.0113763521237
 40
0.1926202088048393
 40
0.4101107997929991
 40
0.627538775778614
 40
0.627538775778614
 40
0.627538775778614
 40
0.627538775778614
 10
176.7159164206169
 20
503.1185597920013
 30
0.0
 10
176.7029044900697
 20
503.1169447406945
 30
0.0
 10
176.5131493919893
 20
503.0933216628313
 30
0.0
 10
176.0746165661295
 20
503.0223259779767
 30
0.0
 10
175.4487414883627
 20
502.8866454262453
 30
0.0
 10
175.0085707680848
 20
502.7748090222603
 30
0.0
 10
174.7866397656349
 20
502.7148726366025
 30
0.0
  0
LINE
  5
14F
330
10E
100
AcDbEntity
  8
$DDT_AUDIT_GENERATED_(149)
  6
Continuous
 62
     7
100
AcDbLine
 10
209.6930251481
 20
507.167639607
 30
0.0
 11
176.7159164206
 21
503.118559792
 31
0.0
  0
ARC
  5
151
330
10E
100
AcDbEntity
  8
$DDT_AUDIT_GENERATED_(150)
  6
Continuous
 62
     7
100
AcDbCircle
 10
195.1067369857
 20
489.0010099551
 30
0.0
 40
18.99999999995406
100
AcDbArc
 50
105.880379282
 51
128.1902419413
  0
SPLINE
  5
152
330
10E
100
AcDbEntity
  8
$DDT_AUDIT_GENERATED_(D6)
  6
Continuous
 62
     7
100
AcDbSpline
210
0.0
220
0.0
230
1.0
 70
     8
 71
     3
 72
    25
 73
    21
 74
     0
 42
0.0000000004231362
 43
0.0000000001
 40
0.0278725610757803
 40
0.0278725610757803
 40
0.0278725610757803
 40
0.0278725610757803
 40
0.0420655794558337
 40
0.0856264160488378
 40
0.1308850115853877
 40
0.1777948649629102
 40
0.2259526916541033
 40
0.2755864947351331
 40
0.3270049685362535
 40
0.3804242911119575
 40
0.4350928046617029
 40
0.4911589858004135
 40
0.5490638680288242
 40
0.6089530785755264
 40
0.6699676300486593
 40
0.7325178187979727
 40
0.7972006904772866
 40
0.8632524651355004
 40
0.9305987042909621
 40
1.0
 40
1.0
 40
1.0
 40
1.0
 10
312.2915622124731
 20
517.8162019564121
 30
0.0
 10
312.2851612416043
 20
517.8154155785264
 30
0.0
 10
312.2526563464408
 20
517.8114223137402
 30
0.0
 10
312.1239354159823
 20
517.7956092881715
 30
0.0
 10
311.8506557471596
 20
517.7620411101657
 30
0.0
 10
311.4479147615012
 20
517.7125751432463
 30
0.0
 10
310.9094751964262
 20
517.64644596131
 30
0.0
 10
310.2245526085038
 20
517.5623317792201
 30
0.0
 10
309.3813827657436
 20
517.4587900628071
 30
0.0
 10
308.3746193504777
 20
517.3351677721904
 30
0.0
 10
307.2017838961311
 20
517.1911566949465
 30
0.0
 10
305.8610774481874
 20
517.0265378304221
 30
0.0
 10
304.3439133354238
 20
516.8402591072356
 30
0.0
 10
302.6546517408797
 20
516.6328581019255
 30
0.0
 10
300.8024142122849
 20
516.4054461341425
 30
0.0
 10
298.7938080843331
 20
516.1588364458354
 30
0.0
 10
296.6360755531824
 20
515.8939224615451
 30
0.0
 10
294.3485704722734
 20
515.6130698880831
 30
0.0
 10
291.952859212575
 20
515.318923434864
 30
0.0
 10
290.3181232364171
 20
515.118204191205
 30
0.0
 10
289.4884717663379
 20
515.016335687933
 30
0.0
  0
LINE
  5
153
330
10E
100
AcDbEntity
  8
$DDT_AUDIT_GENERATED_(D6)
  6
Continuous
 62
     7
100
AcDbLine
 10
313.3698275278
 20
509.2329053743
 30
0.0
 11
312.3170319894
 21
517.8193310988
 31
0.0
  0
LINE
  5
154
330
10E
100
AcDbEntity
  8
$DDT_AUDIT_GENERATED_(D6)
  6
Continuous
 62
     7
100
AcDbLine
 10
193.2117040932
 20
503.1950312255
 30
0.0
 11
289.4884719023
 21
515.0163351541
 31
0.0
  0
LINE
  5
155
330
10E
100
AcDbEntity
  8
$DDT_AUDIT_GENERATED_(D6)
  6
Continuous
 62
     7
100
AcDbLine
 10
170.3831430086
 20
500.3920375773
 30
0.0
 11
170.3830409999
 21
415.8113841455
 31
0.0
  0
LINE
  5
156
330
10E
100
AcDbEntity
  8
$DDT_AUDIT_GENERATED_(D6)
  6
Continuous
 62
     7
100
AcDbLine
 10
193.2117039981
 20
503.1950320001
 30
0.0
 11
170.3831430086
 21
500.3920375773
 31
0.0
  0
LINE
  5
157
330
10E
100
AcDbEntity
  8
$DDT_AUDIT_GENERATED_(D6)
  6
Continuous
 62
     7
100
AcDbLine
 10
289.2630141862
 20
516.8525413738
 30
0.0
 11
213.6309819091
 21
507.5660929194
 31
0.0
  0
SPLINE
  5
158
330
10E
100
AcDbEntity
  8
$DDT_AUDIT_GENERATED_(D6)
  6
Continuous
 62
     7
100
AcDbSpline
210
0.0
220
0.0
230
1.0
 70
     8
 71
     5
 72
    16
 73
    10
 74
     0
 42
0.0000000000800493
 43
0.0000000001
 40
0.0
 40
0.0
 40
0.0
 40
0.0
 40
0.0
 40
0.0
 40
0.1678687479711719
 40
0.375901560978379
 40
0.5839343739855859
 40
0.791967186992793
 40
1.0
 40
1.0
 40
1.0
 40
1.0
 40
1.0
 40
1.0
 10
279.928139319922
 20
497.3641566743512
 30
0.0
 10
270.6359290833051
 20
496.2098719044109
 30
0.0
 10
251.550751498311
 20
493.7623919316648
 30
0.0
 10
228.4542315037464
 20
489.9888348416197
 30
0.0
 10
223.2629067689118
 20
481.4150559131575
 30
0.0
 10
218.0108392945865
 20
469.922875254174
 30
0.0
 10
216.7386786847739
 20
455.4344116896428
 30
0.0
 10
216.4286575490874
 20
439.1174808632648
 30
0.0
 10
216.3794500699258
 20
430.6461676905422
 30
0.0
 10
216.3793414928629
 20
419.724868348277
 30
0.0
  0
LINE
  5
159
330
10E
100
AcDbEntity
  8
$DDT_AUDIT_GENERATED_(D6)
  6
Continuous
 62
     7
100
AcDbLine
 10
213.6309819091
 20
507.5660929194
 30
0.0
 11
213.5569393436
 21
507.5570016329
 31
0.0
  0
SPLINE
  5
15A
330
10E
100
AcDbEntity
  8
$DDT_AUDIT_GENERATED_(D6)
  6
Continuous
 62
     7
100
AcDbSpline
210
0.0
220
0.0
230
1.0
 70
     8
 71
     3
 72
    12
 73
     8
 74
     0
 42
0.0000000002049916
 43
0.0000000001
 40
0.0
 40
0.0
 40
0.0
 40
0.0
 40
0.4999999999999999
 40
0.7499999999999998
 40
0.8749999999999998
 40
0.8749999999999998
 40
1.0
 40
1.0
 40
1.0
 40
1.0
 10
216.3707313774664
 20
370.9424074678398
 30
0.0
 10
216.3703628278529
 20
379.0728189151662
 30
0.0
 10
216.3698099971327
 20
391.2684360861556
 30
0.0
 10
216.3691650167286
 20
405.4966561189757
 30
0.0
 10
216.3688885941263
 20
411.5944647044708
 30
0.0
 10
216.3687043118492
 20
415.6596704281348
 30
0.0
 10
216.3792682688924
 20
417.6922656095618
 30
0.0
 10
216.3793414928629
 20
419.724868348277
 30
0.0
  0
SPLINE
  5
15B
330
10E
100
AcDbEntity
  8
$DDT_AUDIT_GENERATED_(D6)
  6
Continuous
 62
     7
100
AcDbSpline
210
0.0
220
0.0
230
1.0
 70
     8
 71
     3
 72
    12
 73
     8
 74
     0
 42
0.0000000023507498
 43
0.0000000001
 40
0.0
 40
0.0
 40
0.0
 40
0.0
 40
0.1250000000000012
 40
0.1250000000000012
 40
0.2500000000000025
 40
0.2500000000000025
 40
0.2695009522702794
 40
0.2695009522702794
 40
0.2695009522702794
 40
0.2695009522702794
 10
312.317031989416
 20
517.8193310988468
 30
0.0
 10
312.2122862852611
 20
517.9624769807957
 30
0.0
 10
312.1037457330768
 20
518.1024512173049
 30
0.0
 10
311.8773686000023
 20
518.3746287875647
 30
0.0
 10
311.7590257903859
 20
518.5073291791214
 30
0.0
 10
311.6105982987726
 20
518.6486426578535
 30
0.0
 10
311.5903458191216
 20
518.6674129901523
 30
0.0
 10
311.5698515085749
 20
518.6858554723436
 30
0.0
  0
SPLINE
  5
15C
330
10E
100
AcDbEntity
  8
$DDT_AUDIT_GENERATED_(D6)
  6
Continuous
 62
     7
100
AcDbSpline
210
0.0
220
0.0
230
1.0
 70
     8
 71
     3
 72
     8
 73
     4
 74
     0
 42
0.0000000023700152
 43
0.0000000001
 40
0.7819766190668183
 40
0.7819766190668183
 40
0.7819766190668183
 40
0.7819766190668183
 40
0.9999266046725908
 40
0.9999266046725908
 40
0.9999266046725908
 40
0.9999266046725908
 10
309.5417876301256
 20
519.248764631586
 30
0.0
 10
309.2363421362718
 20
519.2321364948904
 30
0.0
 10
308.931629630317
 20
519.1969451090363
 30
0.0
 10
308.626685905652
 20
519.1616578909882
 30
0.0
  0
ARC
  5
15D
330
10E
100
AcDbEntity
  8
$DDT_AUDIT_GENERATED_(D6)
  6
Continuous
 62
     7
100
AcDbCircle
 10
311.2954893633
 20
358.3576483935
 30
0.0
 40
142.5016490892937
100
AcDbArc
 50
98.0269662795
 51
102.7160347094
  0
SPLINE
  5
15E
330
10E
100
AcDbEntity
  8
$DDT_AUDIT_GENERATED_(D6)
  6
Continuous
 62
     7
100
AcDbSpline
210
0.0
220
0.0
230
1.0
 70
     8
 71
     3
 72
    16
 73
    12
 74
     0
 42
0.0000000003798044
 43
0.0000000001
 40
0.0
 40
0.0
 40
0.0
 40
0.0
 40
0.1249999999999994
 40
0.1249999999999994
 40
0.2499999999999988
 40
0.2499999999999988
 40
0.3124999999999988
 40
0.3124999999999988
 40
0.3749999999999988
 40
0.3749999999999988
 40
0.4998372318338405
 40
0.4998372318338405
 40
0.4998372318338405
 40
0.4998372318338405
 10
291.3966794191007
 20
499.4631314761288
 30
0.0
 10
293.0704157246359
 20
499.681732572171
 30
0.0
 10
294.745299937828
 20
499.9022913945951
 30
0.0
 10
297.8713143146967
 20
500.3172047097132
 30
0.0
 10
299.3272875365955
 20
500.5119984118226
 30
0.0
 10
301.1508843207806
 20
500.7574830787241
 30
0.0
 10
301.7104894432957
 20
500.8331595281552
 30
0.0
 10
302.6744930388517
 20
500.963592441882
 30
0.0
 10
303.0843159039807
 20
501.0190793635124
 30
0.0
 10
304.0914003862493
 20
501.1559832030597
 30
0.0
 10
304.441415213612
 20
501.2037551153319
 30
0.0
 10
304.4414026017218
 20
501.2037552541573
 30
0.0
  0
ARC
  5
15F
330
10E
100
AcDbEntity
  8
$DDT_AUDIT_GENERATED_(D6)
  6
Continuous
 62
     7
100
AcDbCircle
 10
180.4663752094
 20
628.4585763541
 30
0.0
 40
124.1536484877972
100
AcDbArc
 50
275.7929127702
 51
278.6679013862
  0
SPLINE
  5
160
330
10E
100
AcDbEntity
  8
$DDT_AUDIT_GENERATED_(D6)
  6
Continuous
 62
     7
100
AcDbSpline
210
0.0
220
0.0
230
1.0
 70
     8
 71
     3
 72
    16
 73
    12
 74
     0
 42
0.0000000028075128
 43
0.0000000001
 40
0.0
 40
0.0
 40
0.0
 40
0.0
 40
0.2500000000000073
 40
0.2500000000000073
 40
0.5000000000000147
 40
0.5000000000000147
 40
0.625000000000011
 40
0.625000000000011
 40
0.7500000000000073
 40
0.7500000000000073
 40
1.0
 40
1.0
 40
1.0
 40
1.0
 10
172.9646285141741
 20
502.4919015290563
 30
0.0
 10
172.6724291663818
 20
502.4440142174329
 30
0.0
 10
172.3827498821453
 20
502.3851147077927
 30
0.0
 10
171.8189685085751
 20
502.1992463120788
 30
0.0
 10
171.5490847421338
 20
502.0709882788856
 30
0.0
 10
171.2023967476109
 20
501.7875470813427
 30
0.0
 10
171.100329940938
 20
501.681307547793
 30
0.0
 10
170.9179315189645
 20
501.4498902973867
 30
0.0
 10
170.8370620604705
 20
501.324193029373
 30
0.0
 10
170.6171356900961
 20
500.9371940509477
 30
0.0
 10
170.4953187331609
 20
500.6669884146313
 30
0.0
 10
170.3831430085736
 20
500.3920375773139
 30
0.0
  0
SPLINE
  5
161
330
10E
100
AcDbEntity
  8
$DDT_AUDIT_GENERATED_(D6)
  6
Continuous
 62
     7
100
AcDbSpline
210
0.0
220
0.0
230
1.0
 70
     8
 71
     3
 72
    20
 73
    16
 74
     0
 42
0.000000000495494
 43
0.0000000001
 40
0.0
 40
0.0
 40
0.0
 40
0.0
 40
0.2499999999999998
 40
0.2499999999999998
 40
0.3749999999999998
 40
0.3749999999999998
 40
0.4999999999999999
 40
0.4999999999999999
 40
0.6249999999999999
 40
0.6249999999999999
 40
0.7499999999999999
 40
0.7499999999999999
 40
0.875
 40
0.875
 40
1.0
 40
1.0
 40
1.0
 40
1.0
 10
192.9976044825939
 20
504.9389555412933
 30
0.0
 10
190.3532354742145
 20
504.6163935672783
 30
0.0
 10
187.7084726632124
 20
504.293572925085
 30
0.0
 10
184.0917524219212
 20
503.8519106855849
 30
0.0
 10
182.9208374270038
 20
503.7088115634718
 30
0.0
 10
180.7405977552574
 20
503.4424457462825
 30
0.0
 10
179.7344718680203
 20
503.3195620967893
 30
0.0
 10
177.8882894019094
 20
503.0939239472059
 30
0.0
 10
177.0448167143719
 20
502.9907524965002
 30
0.0
 10
175.5980791388246
 20
502.8138799547021
 30
0.0
 10
174.9845335390345
 20
502.7389168592204
 30
0.0
 10
173.9812992620934
 20
502.6162401310594
 30
0.0
 10
173.5997721364577
 20
502.5695245778711
 30
0.0
 10
173.0939570915333
 20
502.5076644645707
 30
0.0
 10
172.9646285149519
 20
502.4919015299578
 30
0.0
 10
172.9646285141741
 20
502.4919015290563
 30
0.0
  0
ARC
  5
162
330
10E
100
AcDbEntity
  8
$DDT_AUDIT_GENERATED_(D6)
  6
Continuous
 62
     7
100
AcDbCircle
 10
-147.9337388918
 20
3283.4523602988
 30
0.0
 40
2799.333254378689
100
AcDbArc
 50
277.1228790478
 51
277.4176398342
  0
LINE
  5
163
330
10E
100
AcDbEntity
  8
$DDT_AUDIT_GENERATED_(D6)
  6
Continuous
 62
     7
100
AcDbLine
 10
193.2116007406
 20
370.9424074678
 30
0.0
 11
193.2980787469
 21
370.9424074678
 31
0.0
  0
LINE
  5
164
330
10E
100
AcDbEntity
  8
$DDT_AUDIT_GENERATED_(D6)
  6
Continuous
 62
     7
100
AcDbLine
 10
193.2980787469
 20
370.9424074678
 30
0.0
 11
216.3707313775
 21
370.9424074678
 31
0.0
  0
LINE
  5
165
330
10E
100
AcDbEntity
  8
$DDT_AUDIT_GENERATED_(D6)
  6
Continuous
 62
     7
100
AcDbLine
 10
170.3829868855
 20
370.9424074678
 30
0.0
 11
193.2116007406
 21
370.9424074678
 31
0.0
  0
LINE
  5
166
330
10E
100
AcDbEntity
  8
$DDT_AUDIT_GENERATED_(D6)
  6
Continuous
 62
     7
100
AcDbLine
 10
170.3830214856
 20
399.6311043168
 30
0.0
 11
170.3829868855
 21
370.9424074678
 31
0.0
  0
ARC
  5
167
330
10E
100
AcDbEntity
  8
$DDT_AUDIT_GENERATED_(D6)
  6
Continuous
 62
     7
100
AcDbCircle
 10
-71.9631548241
 20
407.7215365135
 30
0.0
 40
242.481183321669
100
AcDbArc
 50
358.0879602186
 51
358.1027555129
  0
ARC
  5
168
330
10E
100
AcDbEntity
  8
$DDT_AUDIT_GENERATED_(D6)
  6
Continuous
 62
     7
100
AcDbCircle
 10
-72.0068770629
 20
407.7215365662
 30
0.0
 40
242.5248812232383
100
AcDbArc
 50
358.0883048435
 51
1.911556953
  0
SPLINE
  5
169
330
10E
100
AcDbEntity
  8
$DDT_AUDIT_GENERATED_(D6)
  6
Continuous
 62
     7
100
AcDbSpline
210
0.0
220
0.0
230
1.0
 70
     8
 71
     3
 72
    15
 73
    11
 74
     0
 42
0.0000000007564416
 43
0.0000000001
 40
0.0
 40
0.0
 40
0.0
 40
0.0
 40
0.10337692384385
 40
0.2726815224377664
 40
0.4266574540310661
 40
0.5634014302739947
 40
0.6837085570437096
 40
0.7917293942763908
 40
0.8945722322929891
 40
1.0
 40
1.0
 40
1.0
 40
1.0
 10
304.414705750728
 20
501.2136147490955
 30
0.0
 10
304.8946383454906
 20
501.3472461354627
 30
0.0
 10
305.9668404126216
 20
501.6515290640376
 30
0.0
 10
307.7656249546438
 20
502.3147243612341
 30
0.0
 10
309.58054755322
 20
503.1707749813876
 30
0.0
 10
311.1024517412465
 20
504.1505376658704
 30
0.0
 10
312.2758160047607
 20
505.2578451868288
 30
0.0
 10
313.0617828635195
 20
506.4898266947192
 30
0.0
 10
313.4485931165492
 20
507.872349934394
 30
0.0
 10
313.4061697068632
 20
508.7261341118858
 30
0.0
 10
313.3698275278027
 20
509.2329053742698
 30
0.0
  0
SPLINE
  5
16A
330
10E
100
AcDbEntity
  8
$DDT_AUDIT_GENERATED_(D6)
  6
Continuous
 62
     7
100
AcDbSpline
210
0.0
220
0.0
230
1.0
 70
     8
 71
     3
 72
    12
 73
     8
 74
     0
 42
0.0000000023246854
 43
0.0000000001
 40
0.0
 40
0.0
 40
0.0
 40
0.0
 40
0.2691959687937428
 40
0.4590448185890553
 40
0.6385439045476691
 40
0.7710637436510239
 40
1.0
 40
1.0
 40
1.0
 40
1.0
 10
312.2949130885074
 20
517.8166152391627
 30
0.0
 10
312.0504655431889
 20
518.1585728410847
 30
0.0
 10
311.6780788433493
 20
518.6386784194166
 30
0.0
 10
310.8882378951804
 20
519.157767129784
 30
0.0
 10
310.1754208316327
 20
519.26334519759
 30
0.0
 10
309.3976809918829
 20
519.251099547662
 30
0.0
 10
308.9275901719074
 20
519.1994009239518
 30
0.0
 10
308.5731044879282
 20
519.1553253092122
 30
0.0
  0
LINE
  5
16B
330
10E
100
AcDbEntity
  8
$DDT_AUDIT_GENERATED_(D6)
  6
Continuous
 62
     7
100
AcDbLine
 10
308.6260698035
 20
519.1615865973
 30
0.0
 11
289.2630141862
 21
516.8525413738
 31
0.0
  0
LINE
  5
16C
330
10E
100
AcDbEntity
  8
$DDT_AUDIT_GENERATED_(D6)
  6
Continuous
 62
     7
100
AcDbLine
 10
213.5569393435
 20
507.5570016341
 30
0.0
 11
213.4627020471
 21
507.5454307458
 31
0.0
  0
LINE
  5
16D
330
10E
100
AcDbEntity
  8
$DDT_AUDIT_GENERATED_(E8)
  6
Continuous
 62
     7
100
AcDbLine
 10
266.3836141152
 20
546.2252118419
 30
0.0
 11
197.3751554775
 21
529.1067236949
 31
0.0
  0
LINE
  5
16E
330
10E
100
AcDbEntity
  8
$DDT_AUDIT_GENERATED_(E8)
  6
Continuous
 62
     7
100
AcDbLine
 10
268.2808530266
 20
538.5770169887
 30
0.0
 11
224.7046732191
 21
527.7673520251
 31
0.0
  0
SPLINE
  5
16F
330
10E
100
AcDbEntity
  8
$DDT_AUDIT_GENERATED_(E8)
  6
Continuous
 62
     7
100
AcDbSpline
210
0.0
220
0.0
230
1.0
 70
     8
 71
     3
 72
    20
 73
    16
 74
     0
 42
0.000000000402927
 43
0.0000000001
 40
0.0
 40
0.0
 40
0.0
 40
0.0
 40
0.0389818907635452
 40
0.1048369482894279
 40
0.1706920058153506
 40
0.2365470633412733
 40
0.302402120867196
 40
0.3682571783931187
 40
0.4999672934449641
 40
0.6316774084968095
 40
0.7633875235486549
 40
0.8292425810745777
 40
0.8950976386005004
 40
0.9609526961264231
 40
1.0
 40
1.0
 40
1.0
 40
1.0
 10
206.9041225613211
 20
513.450876941606
 30
0.0
 10
206.9417086731179
 20
513.7532897403349
 30
0.0
 10
207.0415903980534
 20
514.5589839223801
 30
0.0
 10
207.244915291031
 20
515.8334239026143
 30
0.0
 10
207.6239137690672
 20
517.2452707082058
 30
0.0
 10
208.1883262587945
 20
518.5884260827027
 30
0.0
 10
208.9673752111714
 20
519.858956929195
 30
0.0
 10
210.2887229031458
 20
521.4497015176253
 30
0.0
 10
212.4451787210477
 20
523.2335681493292
 30
0.0
 10
215.6216275968108
 20
524.9771982055566
 30
0.0
 10
218.4871977201716
 20
526.0547269450548
 30
0.0
 10
220.7230281512745
 20
526.7343629716628
 30
0.0
 10
222.3370690894864
 20
527.1729472206803
 30
0.0
 10
223.6539279283125
 20
527.5067050109429
 30
0.0
 10
224.4233013424811
 20
527.697559528928
 30
0.0
 10
224.7046732191465
 20
527.767352025148
 30
0.0
  0
SPLINE
  5
170
330
10E
100
AcDbEntity
  8
$DDT_AUDIT_GENERATED_(E8)
  6
Continuous
 62
     7
100
AcDbSpline
210
0.0
220
0.0
230
1.0
 70
    12
 71
     3
 72
     8
 73
     4
 74
     0
 42
0.0000000151832197
 43
0.0000000001
 40
0.0
 40
0.0
 40
0.0
 40
0.0
 40
0.746616814432764
 40
0.746616814432764
 40
0.746616814432764
 40
0.746616814432764
 10
187.9717310324781
 20
507.4577950995607
 30
0.0
 41
1.249040884531065
 10
187.9715471668448
 20
507.2986994648164
 30
0.0
 41
0.9876569289888489
 10
188.0774455775935
 20
507.1734063552304
 30
0.0
 41
0.9320270577915826
 10
188.2453850918613
 20
507.1585986180623
 30
0.0
 41
1.082151270939266
  0
ARC
  5
171
330
10E
100
AcDbEntity
  8
$DDT_AUDIT_GENERATED_(E8)
  6
Continuous
 62
     7
100
AcDbCircle
 10
8.4716429336
 20
-1264.2218645723
 30
0.0
 40
1780.511439433665
100
AcDbArc
 50
83.9236803408
 51
84.1956697733
  0
LINE
  5
172
330
10E
100
AcDbEntity
  8
$DDT_AUDIT_GENERATED_(E8)
  6
Continuous
 62
     7
100
AcDbLine
 10
285.5622187862
 20
548.3307188074
 30
0.0
 11
285.2880264021
 21
549.3589143901
 31
0.0
  0
ARC
  5
173
330
10E
100
AcDbEntity
  8
$DDT_AUDIT_GENERATED_(E8)
  6
Continuous
 62
     7
100
AcDbCircle
 10
283.629752133
 20
547.8153814089
 30
0.0
 40
2.000000000000081
100
AcDbArc
 50
336.9026693788
 51
14.931775853
  0
SPLINE
  5
174
330
10E
100
AcDbEntity
  8
$DDT_AUDIT_GENERATED_(E8)
  6
Continuous
 62
     7
100
AcDbSpline
210
0.0
220
0.0
230
1.0
 70
     8
 71
     3
 72
    11
 73
     7
 74
     0
 42
0.0000000017659398
 43
0.0000000001
 40
0.0
 40
0.0
 40
0.0
 40
0.0
 40
0.2830525734212405
 40
0.5528765571880635
 40
0.7696017857259829
 40
1.0
 40
1.0
 40
1.0
 40
1.0
 10
285.0935189632954
 20
549.5660535297095
 30
0.0
 10
284.5344255733901
 20
549.7382546972603
 30
0.0
 10
283.6018244588221
 20
550.0070245984507
 30
0.0
 10
282.1192711191235
 20
550.0414511334262
 30
0.0
 10
280.7732015135749
 20
549.7938714280932
 30
0.0
 10
280.0156124638519
 20
549.6109896742472
 30
0.0
 10
279.5544268257051
 20
549.4924113377901
 30
0.0
  0
ARC
  5
175
330
10E
100
AcDbEntity
  8
$DDT_AUDIT_GENERATED_(E8)
  6
Continuous
 62
     7
100
AcDbCircle
 10
284.9981564099
 20
549.2816137586
 30
0.0
 40
0.2999999999994509
100
AcDbArc
 50
14.9317801503
 51
71.4655267751
  0
SPLINE
  5
176
330
10E
100
AcDbEntity
  8
$DDT_AUDIT_GENERATED_(E8)
  6
Continuous
 62
     7
100
AcDbSpline
210
0.0
220
0.0
230
1.0
 70
     8
 71
     3
 72
    11
 73
     7
 74
     0
 42
0.0000000017357564
 43
0.0000000001
 40
0.0
 40
0.0
 40
0.0
 40
0.0
 40
0.2900957110109568
 40
0.5612001370052752
 40
0.7753917652245056
 40
1.0
 40
1.0
 40
1.0
 40
1.0
 10
184.2043427670258
 20
525.8395241990994
 30
0.0
 10
183.6098714050047
 20
525.7012297118678
 30
0.0
 10
182.6459257468605
 20
525.453833875268
 30
0.0
 10
181.2261868867266
 20
524.925302626805
 30
0.0
 10
180.0884576870079
 20
524.1308323991672
 30
0.0
 10
179.5340077447775
 20
523.5815132293494
 30
0.0
 10
179.2042402604378
 20
523.2430319639436
 30
0.0
  0
ARC
  5
177
330
10E
100
AcDbEntity
  8
$DDT_AUDIT_GENERATED_(E8)
  6
Continuous
 62
     7
100
AcDbCircle
 10
179.4229777016
 20
523.0801193917
 30
0.0
 40
0.2710428318089602
100
AcDbArc
 50
135.1941147802
 51
174.4567729746
  0
SPLINE
  5
178
330
10E
100
AcDbEntity
  8
$DDT_AUDIT_GENERATED_(E8)
  6
Continuous
 62
     7
100
AcDbSpline
210
0.0
220
0.0
230
1.0
 70
     8
 71
     3
 72
    15
 73
    11
 74
     0
 42
0.0000000005070674
 43
0.0000000001
 40
0.0
 40
0.0
 40
0.0
 40
0.0
 40
0.1408056354943555
 40
0.2981455622207457
 40
0.4619167992254288
 40
0.6184548199822986
 40
0.7306663247736922
 40
0.8317073619143539
 40
0.9210926355598478
 40
1.0
 40
1.0
 40
1.0
 40
1.0
 10
268.2808530266165
 20
538.5770169887032
 30
0.0
 10
269.2671420855002
 20
538.8205169722906
 30
0.0
 10
271.0281060136942
 20
539.2608981067759
 30
0.0
 10
274.0130472285998
 20
540.068112697978
 30
0.0
 10
276.9840661452541
 20
541.0116218011638
 30
0.0
 10
279.6208723259474
 20
542.0783389393256
 30
0.0
 10
281.7652823940099
 20
543.2304452612177
 30
0.0
 10
283.380308273299
 20
544.3692751743462
 30
0.0
 10
284.6990776377501
 20
545.6255466254291
 30
0.0
 10
285.1997633808808
 20
546.5316068622953
 30
0.0
 10
285.4701963871243
 20
547.0325869825434
 30
0.0
  0
LINE
  5
179
330
10E
100
AcDbEntity
  8
$DDT_AUDIT_GENERATED_(E8)
  6
Continuous
 62
     7
100
AcDbLine
 10
179.1511055146
 20
523.1093198007
 30
0.0
 11
178.9841943938
 21
521.7631910146
 31
0.0
  0
ARC
  5
17A
330
10E
100
AcDbEntity
  8
$DDT_AUDIT_GENERATED_(E8)
  6
Continuous
 62
     7
100
AcDbCircle
 10
184.8360970142
 20
529.3501698821
 30
0.0
 40
10.09156406839332
100
AcDbArc
 50
236.7104583621
 51
271.5276433221
  0
ARC
  5
17B
330
10E
100
AcDbEntity
  8
$DDT_AUDIT_GENERATED_(E8)
  6
Continuous
 62
     7
100
AcDbCircle
 10
179.9777458514
 20
521.6490351617
 30
0.0
 40
1.000047564602058
100
AcDbArc
 50
172.4274814383
 51
230.8944877119
  0
LINE
  5
17C
330
10E
100
AcDbEntity
  8
$DDT_AUDIT_GENERATED_(E8)
  6
Continuous
 62
     7
100
AcDbLine
 10
206.0698819814
 20
506.7227735641
 30
0.0
 11
206.9041225616
 21
513.4508769436
 31
0.0
  0
LINE
  5
17D
330
10E
100
AcDbEntity
  8
$DDT_AUDIT_GENERATED_(E8)
  6
Continuous
 62
     7
100
AcDbLine
 10
196.9407731377
 20
506.2541851786
 30
0.0
 11
199.7882006075
 21
505.9514800749
 31
0.0
  0
ARC
  5
17E
330
10E
100
AcDbEntity
  8
$DDT_AUDIT_GENERATED_(E8)
  6
Continuous
 62
     7
100
AcDbCircle
 10
188.2738900881
 20
507.4610126773
 30
0.0
 40
0.3038165624900689
100
AcDbArc
 50
217.570301941
 51
238.8935968006
  0
ARC
  5
17F
330
10E
100
AcDbEntity
  8
$DDT_AUDIT_GENERATED_(E8)
  6
Continuous
 62
     7
100
AcDbCircle
 10
188.2738900881
 20
507.4610126773
 30
0.0
 40
0.3038165624900689
100
AcDbArc
 50
243.4416180453
 51
265.2206403856
  0
LINE
  5
180
330
10E
100
AcDbEntity
  8
$DDT_AUDIT_GENERATED_(E8)
  6
Continuous
 62
     7
100
AcDbLine
 10
188.2453326867
 20
507.1585780091
 30
0.0
 11
188.2420529485
 21
507.1589083198
 31
0.0
  0
LINE
  5
181
330
10E
100
AcDbEntity
  8
$DDT_AUDIT_GENERATED_(E8)
  6
Continuous
 62
     7
100
AcDbLine
 10
188.2765957346
 20
507.155429428
 30
0.0
 11
188.3328426086
 21
507.1497364395
 31
0.0
  0
LINE
  5
182
330
10E
100
AcDbEntity
  8
$DDT_AUDIT_GENERATED_(E8)
  6
Continuous
 62
     7
100
AcDbLine
 10
187.9822009274
 20
516.2594957951
 30
0.0
 11
187.9716883619
 21
507.4308641431
 31
0.0
  0
SPLINE
  5
183
330
10E
100
AcDbEntity
  8
$DDT_AUDIT_GENERATED_(E8)
  6
Continuous
 62
     7
100
AcDbSpline
210
0.0
220
0.0
230
1.0
 70
     8
 71
     3
 72
    13
 73
     9
 74
     0
 42
0.0000000019914011
 43
0.0000000001
 40
0.0
 40
0.0
 40
0.0
 40
0.0
 40
0.2457554551527834
 40
0.3612871934916484
 40
0.475760008874942
 40
0.593068686960824
 40
0.7161180718355852
 40
1.0
 40
1.0
 40
1.0
 40
1.0
 10
185.066628346199
 20
519.2607526128817
 30
0.0
 10
185.5140594552759
 20
519.2413524693935
 30
0.0
 10
186.0657519865092
 20
519.2013295303534
 30
0.0
 10
186.8396734198407
 20
518.9932845863101
 30
0.0
 10
187.3477588002371
 20
518.701664261437
 30
0.0
 10
187.7083028968009
 20
518.2179347609859
 30
0.0
 10
187.9627240085736
 20
517.367917566454
 30
0.0
 10
187.9850498949913
 20
516.7428640460273
 30
0.0
 10
187.9821255133966
 20
516.2255411854793
 30
0.0
  0
LINE
  5
185
330
10E
100
AcDbEntity
  8
$DDT_AUDIT_GENERATED_(184)
  6
Continuous
 62
     7
100
AcDbLine
 10
198.3892123378
 20
530.881071527
 30
0.0
 11
197.3824512834
 21
530.6487896047
 31
0.0
  0
LINE
  5
186
330
10E
100
AcDbEntity
  8
$DDT_AUDIT_GENERATED_(184)
  6
Continuous
 62
     7
100
AcDbLine
 10
199.2641736884
 20
531.0589984319
 30
0.0
 11
198.6354478279
 21
530.9333782463
 31
0.0
  0
LINE
  5
187
330
10E
100
AcDbEntity
  8
$DDT_AUDIT_GENERATED_(184)
  6
Continuous
 62
     7
100
AcDbLine
 10
200.1455589656
 20
531.216083727
 30
0.0
 11
199.5122659861
 21
531.1054491725
 31
0.0
  0
LINE
  5
188
330
10E
100
AcDbEntity
  8
$DDT_AUDIT_GENERATED_(184)
  6
Continuous
 62
     7
100
AcDbLine
 10
197.3824512834
 20
530.6487896047
 30
0.0
 11
197.2966668845
 21
530.6276159959
 31
0.0
  0
LINE
  5
189
330
10E
100
AcDbEntity
  8
$DDT_AUDIT_GENERATED_(184)
  6
Continuous
 62
     7
100
AcDbLine
 10
198.6354478279
 20
530.9333782463
 30
0.0
 11
198.3892123378
 21
530.881071527
 31
0.0
  0
LINE
  5
18A
330
10E
100
AcDbEntity
  8
$DDT_AUDIT_GENERATED_(184)
  6
Continuous
 62
     7
100
AcDbLine
 10
199.5122659861
 20
531.1054491725
 30
0.0
 11
199.2641736884
 21
531.0589984319
 31
0.0
  0
LINE
  5
18B
330
10E
100
AcDbEntity
  8
$DDT_AUDIT_GENERATED_(184)
  6
Continuous
 62
     7
100
AcDbLine
 10
200.3947482953
 20
531.2565060931
 30
0.0
 11
200.1455589656
 21
531.216083727
 31
0.0
  0
SPLINE
  5
18C
330
10E
100
AcDbEntity
  8
$DDT_AUDIT_GENERATED_(184)
  6
Continuous
 62
     7
100
AcDbSpline
210
0.0
220
0.0
230
1.0
 70
     8
 71
     3
 72
     8
 73
     4
 74
     0
 42
0.0000000014055845
 43
0.0000000001
 40
0.0
 40
0.0
 40
0.0
 40
0.0
 40
1.0
 40
1.0
 40
1.0
 40
1.0
 10
207.4738884166459
 20
531.6867852770217
 30
0.0
 10
205.1074095761147
 20
531.7735639087484
 30
0.0
 10
202.7332230045456
 20
531.6276337315724
 30
0.0
 10
200.3947482952527
 20
531.2565060930864
 30
0.0
  0
SPLINE
  5
18D
330
10E
100
AcDbEntity
  8
$DDT_AUDIT_GENERATED_(184)
  6
Continuous
 62
     7
100
AcDbSpline
210
0.0
220
0.0
230
1.0
 70
     8
 71
     3
 72
     8
 73
     4
 74
     0
 42
0.0000000013027423
 43
0.0000000001
 40
0.0
 40
0.0
 40
0.0
 40
0.0
 40
1.0
 40
1.0
 40
1.0
 40
1.0
 10
188.0052768886839
 20
526.9224712166467
 30
0.0
 10
190.2263223658963
 20
528.1840312256421
 30
0.0
 10
192.580255237601
 20
529.2098903158355
 30
0.0
 10
195.0144921659842
 20
529.9829135556637
 30
0.0
  0
SPLINE
  5
18E
330
10E
100
AcDbEntity
  8
$DDT_AUDIT_GENERATED_(184)
  6
Continuous
 62
     7
100
AcDbSpline
210
0.0
220
0.0
230
1.0
 70
     8
 71
     3
 72
     8
 73
     4
 74
     0
 42
0.000000004216321
 43
0.0000000001
 40
0.0
 40
0.0
 40
0.0
 40
0.0
 40
1.0
 40
1.0
 40
1.0
 40
1.0
 10
195.0144921659842
 20
529.9829135556637
 30
0.0
 10
195.7678597879938
 20
530.2221551320106
 30
0.0
 10
196.5289191694634
 20
530.4371793446983
 30
0.0
 10
197.296111547115
 20
530.6274782467495
 30
0.0
  0
LINE
  5
190
330
10E
100
AcDbEntity
  8
$DDT_AUDIT_GENERATED_(18F)
  6
Continuous
 62
     7
100
AcDbLine
 10
149.0858716525
 20
423.11090916
 30
0.0
 11
149.0858716525
 21
427.11090916
 31
0.0
  0
LINE
  5
191
330
10E
100
AcDbEntity
  8
$DDT_AUDIT_GENERATED_(18F)
  6
Continuous
 62
     7
100
AcDbLine
 10
162.5531590125
 20
427.11090916
 30
0.0
 11
149.0858716525
 21
427.11090916
 31
0.0
  0
LINE
  5
192
330
10E
100
AcDbEntity
  8
$DDT_AUDIT_GENERATED_(18F)
  6
Continuous
 62
     7
100
AcDbLine
 10
149.0858716525
 20
423.11090916
 30
0.0
 11
162.5531590125
 21
423.11090916
 31
0.0
  0
ARC
  5
193
330
10E
100
AcDbEntity
  8
$DDT_AUDIT_GENERATED_(18F)
  6
Continuous
 62
     7
100
AcDbCircle
 10
162.5531590125
 20
422.11090916
 30
0.0
 40
0.9999999999999454
100
AcDbArc
 50
18.0
 51
90.0
  0
ARC
  5
194
330
10E
100
AcDbEntity
  8
$DDT_AUDIT_GENERATED_(18F)
  6
Continuous
 62
     7
100
AcDbCircle
 10
162.5531590125
 20
422.11090916
 30
0.0
 40
4.999999999999967
100
AcDbArc
 50
18.0
 51
90.0
  0
LINE
  5
195
330
10E
100
AcDbEntity
  8
$DDT_AUDIT_GENERATED_(18F)
  6
Continuous
 62
     7
100
AcDbLine
 10
170.4311609562
 20
414.0452521594
 30
0.0
 11
167.308441594
 21
423.6559941318
 31
0.0
  0
LINE
  5
196
330
10E
100
AcDbEntity
  8
$DDT_AUDIT_GENERATED_(18F)
  6
Continuous
 62
     7
100
AcDbLine
 10
163.5042155288
 20
422.4199261543
 30
0.0
 11
170.4312660623
 21
401.1006567661
 31
0.0
  0
LINE
  5
198
330
10E
100
AcDbEntity
  8
DV2_Standard
  6
Continuous
 62
     7
100
AcDbLine
 10
184.204342767
 20
525.8395241991
 30
0.0
 11
197.3751554775
 21
529.1067236949
 31
0.0
  0
SPLINE
  5
199
330
10E
100
AcDbEntity
  8
DV2_Standard
  6
Continuous
 62
     7
100
AcDbSpline
210
0.0
220
0.0
230
1.0
 70
     8
 71
     3
 72
    13
 73
     9
 74
     0
 42
0.0000000000916689
 43
0.0000000001
 40
0.0
 40
0.0
 40
0.0
 40
0.0
 40
0.0368723297471938
 40
0.2552272815793793
 40
0.5830180428547554
 40
0.8561556358742493
 40
0.9714578873411809
 40
1.0
 40
1.0
 40
1.0
 40
1.0
 10
179.6024569939123
 20
520.7218051769917
 30
0.0
 10
180.9626752123674
 20
521.3372643484498
 30
0.0
 10
189.0512465304132
 20
525.0137476370019
 30
0.0
 10
211.0135222139024
 20
528.7151722438947
 30
0.0
 10
240.030083813682
 20
536.7575388175898
 30
0.0
 10
264.2722155819221
 20
542.2622820576224
 30
0.0
 10
281.9659995497395
 20
547.109942881637
 30
0.0
 10
284.4458105873393
 20
546.0489278465024
 30
0.0
 10
284.6230858282937
 20
545.6621384330997
 30
0.0
  0
LINE
  5
19A
330
10E
100
AcDbEntity
  8
DV2_Standard
  6
Continuous
 62
     7
100
AcDbLine
 10
266.3836141152
 20
546.2252118419
 30
0.0
 11
279.5544268257
 21
549.4924113378
 31
0.0
  0
ENDBLK
  5
19C
330
10E
100
AcDbEntity
  8
0
100
AcDbBlockEnd
  0
BLOCK
  5
1D8
330
19D
100
AcDbEntity
  8
0
100
AcDbBlockBegin
  2
SE2
 70
     0
 10
0.0
 20
0.0
 30
0.0
  3
SE2
  1

  0
ELLIPSE
  5
19F
330
19D
100
AcDbEntity
  8
$DDT_AUDIT_GENERATED_(149)
  6
Continuous
 62
     7
100
AcDbEllipse
 10
40.4626871696
 20
226.3956022724
 30
0.0
 11
19.97999999999995
 21
5.697692480582245E-12
 31
0.0
210
0.0
220
0.0
230
1.0
 40
0.9925461516
 41
3.141592653589793
 42
3.435539758693742
  0
ELLIPSE
  5
1A0
330
19D
100
AcDbEntity
  8
$DDT_AUDIT_GENERATED_(149)
  6
Continuous
 62
     7
100
AcDbEllipse
 10
40.4626871696
 20
226.3956022724
 30
0.0
 11
19.97999999999995
 21
5.697692480582245E-12
 31
0.0
210
0.0
220
0.0
230
1.0
 40
0.9925461516
 41
5.989237163076814
 42
6.283185307179585
  0
ELLIPSE
  5
1A1
330
19D
100
AcDbEntity
  8
$DDT_AUDIT_GENERATED_(149)
  6
Continuous
 62
     7
100
AcDbEllipse
 10
40.4626871696
 20
226.465684342
 30
0.0
 11
19.97999999999986
 21
-1.216360996300625E-11
 31
0.0
210
0.0
220
0.0
230
1.0
 40
0.9925461516
 41
0.0
 42
3.141592653590411
  0
LINE
  5
1A2
330
19D
100
AcDbEntity
  8
$DDT_AUDIT_GENERATED_(149)
  6
Continuous
 62
     7
100
AcDbLine
 10
60.4426871696
 20
226.3956022724
 30
0.0
 11
60.4426871696
 21
226.465684342
 31
0.0
  0
LINE
  5
1A3
330
19D
100
AcDbEntity
  8
$DDT_AUDIT_GENERATED_(149)
  6
Continuous
 62
     7
100
AcDbLine
 10
20.4826871696
 20
226.465684342
 30
0.0
 11
20.4826871696
 21
226.3956022724
 31
0.0
  0
SPLINE
  5
1A4
330
19D
100
AcDbEntity
  8
$DDT_AUDIT_GENERATED_(D6)
  6
Continuous
 62
     7
100
AcDbSpline
210
0.0
220
0.0
230
1.0
 70
     8
 71
     5
 72
    12
 73
     6
 74
     0
 42
0.0000000054800154
 43
0.0000000001
 40
0.9371152404997579
 40
0.9371152404997579
 40
0.9371152404997579
 40
0.9371152404997579
 40
0.9371152404997579
 40
0.9371152404997579
 40
1.0
 40
1.0
 40
1.0
 40
1.0
 40
1.0
 40
1.0
 10
17.51486372405393
 20
129.1107033122954
 30
0.0
 10
17.49396218303592
 20
129.1293582553745
 30
0.0
 10
17.47830179715072
 20
129.1483320263003
 30
0.0
 10
17.46788197415911
 20
129.1676239532491
 30
0.0
 10
17.46268761469184
 20
129.1872328318456
 30
0.0
 10
17.4626876446866
 20
129.2071568805803
 30
0.0
  0
LINE
  5
1A5
330
19D
100
AcDbEntity
  8
$DDT_AUDIT_GENERATED_(D6)
  6
Continuous
 62
     7
100
AcDbLine
 10
17.4626876464
 20
130.2605281777
 30
0.0
 11
17.4626876464
 21
129.2064764994
 31
0.0
  0
LINE
  5
1A6
330
19D
100
AcDbEntity
  8
$DDT_AUDIT_GENERATED_(D6)
  6
Continuous
 62
     7
100
AcDbLine
 10
17.4626876464
 20
226.5373991544
 30
0.0
 11
17.4626876464
 21
130.2606313453
 31
0.0
  0
ARC
  5
1A7
330
19D
100
AcDbEntity
  8
$DDT_AUDIT_GENERATED_(D6)
  6
Continuous
 62
     7
100
AcDbCircle
 10
40.3798343154
 20
226.4487920275
 30
0.0
 40
22.9173179847413
100
AcDbArc
 50
89.792855622
 51
179.778471787
  0
ARC
  5
1A8
330
19D
100
AcDbEntity
  8
$DDT_AUDIT_GENERATED_(D6)
  6
Continuous
 62
     7
100
AcDbCircle
 10
40.5480873416
 20
226.451358467
 30
0.0
 40
22.9147609057419
100
AcDbArc
 50
0.2151357942
 51
90.2135311994
  0
SPLINE
  5
1A9
330
19D
100
AcDbEntity
  8
$DDT_AUDIT_GENERATED_(D6)
  6
Continuous
 62
     7
100
AcDbSpline
210
0.0
220
0.0
230
1.0
 70
     8
 71
     5
 72
    12
 73
     6
 74
     0
 42
0.0000000054800127
 43
0.0000000001
 40
0.9371152275614866
 40
0.9371152275614866
 40
0.9371152275614866
 40
0.9371152275614866
 40
0.9371152275614866
 40
0.9371152275614866
 40
1.0
 40
1.0
 40
1.0
 40
1.0
 40
1.0
 40
1.0
 10
63.41051046300297
 20
129.1107032941387
 30
0.0
 10
63.43141203512419
 20
129.1293582406093
 30
0.0
 10
63.44707245167414
 20
129.1483320150483
 30
0.0
 10
63.4574923049856
 20
129.1676239456304
 30
0.0
 10
63.46268669453964
 20
129.1872328279783
 30
0.0
 10
63.4626866945306
 20
129.2071568805803
 30
0.0
  0
LINE
  5
1AA
330
19D
100
AcDbEntity
  8
$DDT_AUDIT_GENERATED_(D6)
  6
Continuous
 62
     7
100
AcDbLine
 10
63.4626866928
 20
226.5373991544
 30
0.0
 11
63.4626866928
 21
130.2606313453
 31
0.0
  0
LINE
  5
1AB
330
19D
100
AcDbEntity
  8
$DDT_AUDIT_GENERATED_(D6)
  6
Continuous
 62
     7
100
AcDbLine
 10
63.4626866928
 20
130.2605281777
 30
0.0
 11
63.4626866928
 21
129.2064764994
 31
0.0
  0
ARC
  5
1AC
330
19D
100
AcDbEntity
  8
$DDT_AUDIT_GENERATED_(D6)
  6
Continuous
 62
     7
100
AcDbCircle
 10
40.4626871696
 20
129.2986046701
 30
0.0
 40
22.94860467012864
100
AcDbArc
 50
180.4678755699
 51
359.5321244301
  0
SPLINE
  5
1AD
330
19D
100
AcDbEntity
  8
$DDT_AUDIT_GENERATED_(E8)
  6
Continuous
 62
     7
100
AcDbSpline
210
0.0
220
0.0
230
1.0
 70
     8
 71
     3
 72
     8
 73
     4
 74
     0
 42
0.0000000312889248
 43
0.0000000001
 40
0.0
 40
0.0
 40
0.0
 40
0.0
 40
0.025644524957248
 40
0.025644524957248
 40
0.025644524957248
 40
0.025644524957248
 10
21.34065556222765
 20
152.7459990572139
 30
0.0
 10
21.34048708584988
 20
152.7432693951525
 30
0.0
 10
21.34041410447693
 20
152.7405393393435
 30
0.0
 10
21.34043646947495
 20
152.7378092793856
 30
0.0
  0
SPLINE
  5
1AE
330
19D
100
AcDbEntity
  8
$DDT_AUDIT_GENERATED_(E8)
  6
Continuous
 62
     7
100
AcDbSpline
210
0.0
220
0.0
230
1.0
 70
     8
 71
     3
 72
     8
 73
     4
 74
     0
 42
0.000000031229296
 43
0.0000000001
 40
0.0
 40
0.0
 40
0.0
 40
0.0
 40
0.0263370196537729
 40
0.0263370196537729
 40
0.0263370196537729
 40
0.0263370196537729
 10
59.58470075614844
 20
152.7462413555286
 30
0.0
 10
59.5849417230577
 20
152.7434350927482
 30
0.0
 10
59.58507794092408
 20
152.7406284104199
 30
0.0
 10
59.5851097725692
 20
152.7378217326014
 30
0.0
  0
SPLINE
  5
1AF
330
19D
100
AcDbEntity
  8
$DDT_AUDIT_GENERATED_(E8)
  6
Continuous
 62
     7
100
AcDbSpline
210
0.0
220
0.0
230
1.0
 70
     8
 71
     2
 72
     6
 73
     3
 74
     0
 42
0.0000000000821404
 43
0.0000000001
 40
0.0898437500000001
 40
0.0898437500000001
 40
0.0898437500000001
 40
0.09375
 40
0.09375
 40
0.09375
 10
59.58534356536315
 20
164.2780335900538
 30
0.0
 10
59.58534598645286
 20
164.5158169879532
 30
0.0
 10
59.58534910038334
 20
164.7535914027701
 30
0.0
  0
ARC
  5
1B0
330
19D
100
AcDbEntity
  8
$DDT_AUDIT_GENERATED_(E8)
  6
Continuous
 62
     7
100
AcDbCircle
 10
40.4626869181
 20
221.5696297498
 30
0.0
 40
19.13941256865717
100
AcDbArc
 50
2.4996828634
 51
177.500914345
  0
ELLIPSE
  5
1B1
330
19D
100
AcDbEntity
  8
$DDT_AUDIT_GENERATED_(E8)
  6
Continuous
 62
     7
100
AcDbEllipse
 10
40.4626871696
 20
222.0202487624
 30
0.0
 11
10.42500000000002
 21
4.935288289154016E-13
 31
0.0
210
0.0
220
0.0
230
1.0
 40
0.9705831032
 41
2.611884785640262
 42
3.667736071661923
  0
ELLIPSE
  5
1B2
330
19D
100
AcDbEntity
  8
$DDT_AUDIT_GENERATED_(E8)
  6
Continuous
 62
     7
100
AcDbEllipse
 10
40.4626871696
 20
222.0202487624
 30
0.0
 11
10.42500000000002
 21
4.935288289154016E-13
 31
0.0
210
0.0
220
0.0
230
1.0
 40
0.9705831032
 41
5.787825960866451
 42
6.283185307179585
  0
LINE
  5
1B3
330
19D
100
AcDbEntity
  8
$DDT_AUDIT_GENERATED_(E8)
  6
Continuous
 62
     7
100
AcDbLine
 10
59.5810589805
 20
152.6615979158
 30
0.0
 11
59.5823085933
 21
152.7373634475
 31
0.0
  0
ARC
  5
1B4
330
19D
100
AcDbEntity
  8
$DDT_AUDIT_GENERATED_(E8)
  6
Continuous
 62
     7
100
AcDbCircle
 10
40.4619476761
 20
153.2934607266
 30
0.0
 40
19.12954959436405
100
AcDbArc
 50
181.8656777882
 51
186.5461092087
  0
ARC
  5
1B5
330
19D
100
AcDbEntity
  8
$DDT_AUDIT_GENERATED_(E8)
  6
Continuous
 62
     7
100
AcDbCircle
 10
40.4619476761
 20
153.2934607266
 30
0.0
 40
19.12954959436405
100
AcDbArc
 50
186.829160174
 51
358.1071348052
  0
LINE
  5
1B6
330
19D
100
AcDbEntity
  8
$DDT_AUDIT_GENERATED_(E8)
  6
Continuous
 62
     7
100
AcDbLine
 10
21.3422401162
 20
152.7373504754
 30
0.0
 11
21.342538699
 21
152.6706701915
 31
0.0
  0
LINE
  5
1B7
330
19D
100
AcDbEntity
  8
$DDT_AUDIT_GENERATED_(E8)
  6
Continuous
 62
     7
100
AcDbLine
 10
59.5856936088
 20
164.7486393663
 30
0.0
 11
59.5856936088
 21
221.7625015499
 31
0.0
  0
LINE
  5
1B8
330
19D
100
AcDbEntity
  8
$DDT_AUDIT_GENERATED_(E8)
  6
Continuous
 62
     7
100
AcDbLine
 10
59.5856936088
 20
152.7377813102
 30
0.0
 11
59.5856936088
 21
164.2650392528
 31
0.0
  0
LINE
  5
1B9
330
19D
100
AcDbEntity
  8
$DDT_AUDIT_GENERATED_(E8)
  6
Continuous
 62
     7
100
AcDbLine
 10
21.3396684251
 20
222.1847710703
 30
0.0
 11
21.3396706028
 21
221.7458590256
 31
0.0
  0
LINE
  5
1BA
330
19D
100
AcDbEntity
  8
$DDT_AUDIT_GENERATED_(E8)
  6
Continuous
 62
     7
100
AcDbLine
 10
21.3396741377
 20
221.7625559499
 30
0.0
 11
21.3397100043
 21
152.7377535109
 31
0.0
  0
LINE
  5
1BB
330
19D
100
AcDbEntity
  8
$DDT_AUDIT_GENERATED_(E8)
  6
Continuous
 62
     7
100
AcDbLine
 10
59.5857104521
 20
221.7459243608
 30
0.0
 11
59.5857830707
 21
222.1848053375
 31
0.0
  0
LINE
  5
1BC
330
19D
100
AcDbEntity
  8
$DDT_AUDIT_GENERATED_(E8)
  6
Continuous
 62
     7
100
AcDbLine
 10
59.5856988086
 20
222.176172374
 30
0.0
 11
59.5843832555
 21
222.3963453803
 31
0.0
  0
LINE
  5
1BD
330
19D
100
AcDbEntity
  8
$DDT_AUDIT_GENERATED_(E8)
  6
Continuous
 62
     7
100
AcDbLine
 10
21.3409674484
 20
222.394904531
 30
0.0
 11
21.3396713866
 21
222.1761610273
 31
0.0
  0
ARC
  5
1BE
330
19D
100
AcDbEntity
  8
$DDT_AUDIT_GENERATED_(E8)
  6
Continuous
 62
     7
100
AcDbCircle
 10
40.5239097881
 20
222.386331094
 30
0.0
 40
10.4757650140535
100
AcDbArc
 50
269.6651492644
 51
330.438566766
  0
ARC
  5
1BF
330
19D
100
AcDbEntity
  8
$DDT_AUDIT_GENERATED_(E8)
  6
Continuous
 62
     7
100
AcDbCircle
 10
40.4065949039
 20
222.3941118518
 30
0.0
 40
10.48351693374139
100
AcDbArc
 50
211.2974036658
 51
270.3065636698
  0
ARC
  5
1C0
330
19D
100
AcDbEntity
  8
$DDT_AUDIT_GENERATED_(184)
  6
Continuous
 62
     7
100
AcDbCircle
 10
40.7129003124
 20
221.9427374466
 30
0.0
 40
10.10026057471058
100
AcDbArc
 50
0.5549230395
 51
33.5579916037
  0
LINE
  5
1C1
330
19D
100
AcDbEntity
  8
$DDT_AUDIT_GENERATED_(184)
  6
Continuous
 62
     7
100
AcDbLine
 10
50.8126871696
 20
221.8403197881
 30
0.0
 11
50.8126871696
 21
222.040568607
 31
0.0
  0
ARC
  5
1C2
330
19D
100
AcDbEntity
  8
$DDT_AUDIT_GENERATED_(184)
  6
Continuous
 62
     7
100
AcDbCircle
 10
40.6012061053
 20
221.7838869585
 30
0.0
 40
10.28477437736353
100
AcDbArc
 50
33.9963915742
 51
76.748442213
  0
ARC
  5
1C3
330
19D
100
AcDbEntity
  8
$DDT_AUDIT_GENERATED_(184)
  6
Continuous
 62
     7
100
AcDbCircle
 10
40.3488215878
 20
221.7552132209
 30
0.0
 40
10.3198425334979
100
AcDbArc
 50
103.346509759
 51
146.0592278246
  0
SPLINE
  5
1C4
330
19D
100
AcDbEntity
  8
$DDT_AUDIT_GENERATED_(184)
  6
Continuous
 62
     7
100
AcDbSpline
210
0.0
220
0.0
230
1.0
 70
     8
 71
     3
 72
    11
 73
     7
 74
     0
 42
0.0000000402730922
 43
0.0000000001
 40
0.0
 40
0.0
 40
0.0
 40
0.0
 40
0.1236338653523743
 40
0.4100025763001284
 40
0.751728160366556
 40
1.0
 40
1.0
 40
1.0
 40
1.0
 10
42.95911377972451
 20
231.7969368014778
 30
0.0
 10
42.94830041475362
 20
231.7999748627593
 30
0.0
 10
42.91757614287935
 20
231.8084609712088
 30
0.0
 10
42.8551146719438
 20
231.8086398000439
 30
0.0
 10
42.7836780615263
 20
231.8008140586915
 30
0.0
 10
42.73629335271658
 20
231.7978791516403
 30
0.0
 10
42.71295252011729
 20
231.7962615908564
 30
0.0
  0
ARC
  5
1C5
330
19D
100
AcDbEntity
  8
$DDT_AUDIT_GENERATED_(184)
  6
Continuous
 62
     7
100
AcDbCircle
 10
42.6817367882
 20
231.935214259
 30
0.0
 40
0.1411267016871686
100
AcDbArc
 50
266.0994549183
 51
282.6759354179
  0
ARC
  5
1C6
330
19D
100
AcDbEntity
  8
$DDT_AUDIT_GENERATED_(184)
  6
Continuous
 62
     7
100
AcDbCircle
 10
40.4747010966
 20
183.8159331236
 30
0.0
 40
48.02643360336356
100
AcDbArc
 50
87.3779492454
 51
90.0143417699
  0
ARC
  5
1C7
330
19D
100
AcDbEntity
  8
$DDT_AUDIT_GENERATED_(184)
  6
Continuous
 62
     7
100
AcDbCircle
 10
40.4244316726
 20
186.7059751509
 30
0.0
 40
45.13897449776429
100
AcDbArc
 50
89.9514358995
 51
92.7565772295
  0
ARC
  5
1C8
330
19D
100
AcDbEntity
  8
$DDT_AUDIT_GENERATED_(184)
  6
Continuous
 62
     7
100
AcDbCircle
 10
38.2241415479
 20
231.951277998
 30
0.0
 40
0.1568887465996522
100
AcDbArc
 50
265.6042284122
 51
280.6623773267
  0
SPLINE
  5
1C9
330
19D
100
AcDbEntity
  8
$DDT_AUDIT_GENERATED_(184)
  6
Continuous
 62
     7
100
AcDbSpline
210
0.0
220
0.0
230
1.0
 70
     8
 71
     3
 72
    10
 73
     6
 74
     0
 42
0.0000000374407335
 43
0.0000000001
 40
0.0
 40
0.0
 40
0.0
 40
0.0
 40
0.2094834183892679
 40
0.6694240469944416
 40
1.0
 40
1.0
 40
1.0
 40
1.0
 10
38.23146288565866
 20
231.7933949398537
 30
0.0
 10
38.21040237391656
 20
231.7951270140643
 30
0.0
 10
38.15321111402911
 20
231.7989740353056
 30
0.0
 10
38.06185711827673
 20
231.8130295567374
 30
0.0
 10
37.99816131247872
 20
231.8029611148952
 30
0.0
 10
37.96678915649786
 20
231.7982692579103
 30
0.0
  0
LINE
  5
1CA
330
19D
100
AcDbEntity
  8
$DDT_AUDIT_GENERATED_(18F)
  6
Continuous
 62
     7
100
AcDbLine
 10
38.4626871696
 20
270.6632315951
 30
0.0
 11
42.4626871696
 21
270.6632315951
 31
0.0
  0
LINE
  5
1CB
330
19D
100
AcDbEntity
  8
$DDT_AUDIT_GENERATED_(18F)
  6
Continuous
 62
     7
100
AcDbLine
 10
42.4626871696
 20
257.1959442351
 30
0.0
 11
42.4626871696
 21
270.6632315951
 31
0.0
  0
LINE
  5
1CC
330
19D
100
AcDbEntity
  8
$DDT_AUDIT_GENERATED_(18F)
  6
Continuous
 62
     7
100
AcDbLine
 10
38.4626871696
 20
270.6632315951
 30
0.0
 11
38.4626871696
 21
257.1959442351
 31
0.0
  0
LINE
  5
1CD
330
19D
100
AcDbEntity
  8
$DDT_AUDIT_GENERATED_(18F)
  6
Continuous
 62
     7
100
AcDbLine
 10
38.4626871696
 20
257.1959442351
 30
0.0
 11
38.4626871696
 21
254.3427746862
 31
0.0
  0
LINE
  5
1CE
330
19D
100
AcDbEntity
  8
$DDT_AUDIT_GENERATED_(18F)
  6
Continuous
 62
     7
100
AcDbLine
 10
42.4626871696
 20
254.3427746862
 30
0.0
 11
42.4626871696
 21
257.1959442351
 31
0.0
  0
LINE
  5
1CF
330
19D
100
AcDbEntity
  8
$DDT_AUDIT_GENERATED_(18F)
  6
Continuous
 62
     7
100
AcDbLine
 10
42.4626871696
 20
249.2812237144
 30
0.0
 11
42.4626871696
 21
254.3427746862
 31
0.0
  0
LINE
  5
1D0
330
19D
100
AcDbEntity
  8
$DDT_AUDIT_GENERATED_(18F)
  6
Continuous
 62
     7
100
AcDbLine
 10
38.4626871696
 20
254.3427746862
 30
0.0
 11
38.4626871696
 21
249.2802761712
 31
0.0
  0
LINE
  5
1D2
330
19D
100
AcDbEntity
  8
$DDT_AUDIT_GENERATED_(1D1)
  6
Continuous
 62
     7
100
AcDbLine
 10
15.4626871696
 20
224.8660641434
 30
0.0
 11
15.4626871696
 21
238.3660641434
 31
0.0
  0
LINE
  5
1D3
330
19D
100
AcDbEntity
  8
$DDT_AUDIT_GENERATED_(1D1)
  6
Continuous
 62
     7
100
AcDbLine
 10
15.4626871696
 20
238.3660641434
 30
0.0
 11
20.7942020777
 21
238.3660641434
 31
0.0
  0
LINE
  5
1D4
330
19D
100
AcDbEntity
  8
$DDT_AUDIT_GENERATED_(1D1)
  6
Continuous
 62
     7
100
AcDbLine
 10
65.4626871696
 20
238.3660641434
 30
0.0
 11
65.4626871696
 21
224.8660641434
 31
0.0
  0
ARC
  5
1D5
330
19D
100
AcDbEntity
  8
$DDT_AUDIT_GENERATED_(1D1)
  6
Continuous
 62
     7
100
AcDbCircle
 10
40.4626871696
 20
224.8660641434
 30
0.0
 40
25.0
100
AcDbArc
 50
336.9381310691
 51
0.0
  0
ARC
  5
1D6
330
19D
100
AcDbEntity
  8
$DDT_AUDIT_GENERATED_(1D1)
  6
Continuous
 62
     7
100
AcDbCircle
 10
40.4626871696
 20
224.8660641434
 30
0.0
 40
25.0
100
AcDbArc
 50
180.0
 51
202.9930535272
  0
LINE
  5
1D7
330
19D
100
AcDbEntity
  8
$DDT_AUDIT_GENERATED_(1D1)
  6
Continuous
 62
     7
100
AcDbLine
 10
60.1283497421
 20
238.3660641434
 30
0.0
 11
65.4626871696
 21
238.3660641434
 31
0.0
  0
ENDBLK
  5
1D9
330
19D
100
AcDbEntity
  8
0
100
AcDbBlockEnd
  0
ENDSEC
  0
SECTION
  2
ENTITIES
  0
INSERT
  5
5F
330
1F
100
AcDbEntity
  8
Default
100
AcDbBlockReference
  2
SEANNOT_GROUP
 10
0.0
 20
0.0
 30
0.0
  0
INSERT
  5
65
330
1F
100
AcDbEntity
  8
Default
100
AcDbBlockReference
  2
SEANNOT_GROUP1
 10
0.0
 20
0.0
 30
0.0
  0
INSERT
  5
6A
330
1F
100
AcDbEntity
  8
Default
100
AcDbBlockReference
  2
SEANNOT_GROUP2
 10
0.0
 20
0.0
 30
0.0
  0
INSERT
  5
6F
330
1F
100
AcDbEntity
  8
Default
100
AcDbBlockReference
  2
SEANNOT_GROUP3
 10
0.0
 20
0.0
 30
0.0
  0
INSERT
  5
74
330
1F
100
AcDbEntity
  8
Default
100
AcDbBlockReference
  2
SE
 10
0.0
 20
0.0
 30
0.0
  0
INSERT
  5
10F
330
1F
100
AcDbEntity
  8
Default
100
AcDbBlockReference
  2
SE1
 10
0.0
 20
0.0
 30
0.0
  0
INSERT
  5
19E
330
1F
100
AcDbEntity
  8
Default
100
AcDbBlockReference
  2
SE2
 10
0.0
 20
0.0
 30
0.0
  0
TEXT
  5
1DB
330
1F
100
AcDbEntity
  8
Default
  6
Continuous
 62
     7
100
AcDbText
 10
5.9362635081
 20
53.4225120485
 30
0.0
 40
10.0
  1
Grohe AG^J
  7
SEACAD_seiso_ttf
 11
5.9362635081
 21
63.4225120485
 31
0.0
100
AcDbText
 73
     3
  0
TEXT
  5
1DC
330
1F
100
AcDbEntity
  8
Default
  6
Continuous
 62
     7
100
AcDbText
 10
5.9362635081
 20
37.0588756849
 30
0.0
 40
10.0
  1
 
  7
SEACAD_seiso_ttf
 11
5.9362635081
 21
47.0588756849
 31
0.0
100
AcDbText
 73
     3
  0
TEXT
  5
1DD
330
1F
100
AcDbEntity
  8
Default
  6
Continuous
 62
     7
100
AcDbText
 10
5.9362635081
 20
20.6952393213
 30
0.0
 40
10.0
  1
ecn: 
  7
SEACAD_seiso_ttf
 11
5.9362635081
 21
30.6952393213
 31
0.0
100
AcDbText
 73
     3
  0
TEXT
  5
1DE
330
1F
100
AcDbEntity
  8
Default
  6
Continuous
 62
     7
100
AcDbText
 10
5.9362635081
 20
4.3316029576
 30
0.0
 40
10.0
  1
unit: mm
  7
SEACAD_seiso_ttf
 11
5.9362635081
 21
14.3316029576
 31
0.0
100
AcDbText
 73
     3
  0
LINE
  5
1DF
330
1F
100
AcDbEntity
  8
Default
  6
Continuous
 62
     7
100
AcDbLine
 10
0.0
 20
0.0
 30
0.0
 11
100.0
 21
0.0
 31
0.0
  0
LINE
  5
1E0
330
1F
100
AcDbEntity
  8
Default
  6
Continuous
 62
     7
100
AcDbLine
 10
0.0
 20
0.0
 30
0.0
 11
0.0
 21
100.0
 31
0.0
  0
TEXT
  5
1E1
330
1F
100
AcDbEntity
  8
Default
  6
Continuous
 62
     7
100
AcDbText
 10
24.3923665681
 20
-18.2375342018
 30
0.0
 40
10.0
  1
100 mm
  7
SEACAD_seiso_ttf
 11
24.3923665681
 21
-8.2375342018
 31
0.0
100
AcDbText
 73
     3
  0
TEXT
  5
1E2
330
1F
100
AcDbEntity
  8
Default
  6
Continuous
 62
     7
100
AcDbText
 10
-7.6150308803
 20
24.6231930421
 30
0.0
 40
10.0
  1
100 mm
 50
90.0
  7
SEACAD_seiso_ttf
 11
-17.6150308803
 21
24.6231930421
 31
0.0
100
AcDbText
 73
     3
  0
TEXT
  5
1E3
330
1F
100
AcDbEntity
  8
Default
  6
Continuous
 62
     7
100
AcDbText
 10
28.4878128572
 20
20.0907663715
 30
0.0
 40
10.0
  1
219417
  7
SEACAD_seiso_ttf
 11
28.4878128572
 21
30.0907663715
 31
0.0
100
AcDbText
 73
     3
  0
TEXT
  5
1E4
330
1F
100
AcDbEntity
  8
Default
  6
Continuous
 62
     7
100
AcDbText
 10
5.9012241913
 20
36.7242780188
 30
0.0
 40
10.0
  1
23064000
  7
SEACAD_seiso_ttf
 11
5.9012241913
 21
46.7242780188
 31
0.0
100
AcDbText
 73
     3
  0
ENDSEC
  0
SECTION
  2
OBJECTS
  0
DICTIONARY
  5
C
330
0
100
AcDbDictionary
281
     1
  3
ACAD_GROUP
350
D
  3
ACAD_LAYOUT
350
1A
  3
ACAD_MLEADERSTYLE
350
1E8
  3
ACAD_MLINESTYLE
350
17
  3
ACAD_PLOTSETTINGS
350
19
  3
ACAD_PLOTSTYLENAME
350
E
  3
ACAD_SCALELIST
350
3B
  3
ACAD_TABLESTYLE
350
1E7
  3
ACAD_VISUALSTYLE
350
2A
  3
AcDbVariableDictionary
350
1E5
  0
DICTIONARY
  5
D
102
{ACAD_REACTORS
330
C
102
}
330
C
100
AcDbDictionary
281
     1
  0
DICTIONARY
  5
1A
102
{ACAD_REACTORS
330
C
102
}
330
C
100
AcDbDictionary
281
     1
  3
Layout1
350
1E
  3
Model
350
22
  0
DICTIONARY
  5
1E8
102
{ACAD_REACTORS
330
C
102
}
330
C
100
AcDbDictionary
281
     1
  0
DICTIONARY
  5
17
102
{ACAD_REACTORS
330
C
102
}
330
C
100
AcDbDictionary
281
     1
  3
Standard
350
18
  0
DICTIONARY
  5
19
102
{ACAD_REACTORS
330
C
102
}
330
C
100
AcDbDictionary
281
     1
  0
ACDBDICTIONARYWDFLT
  5
E
102
{ACAD_REACTORS
330
C
102
}
330
C
100
AcDbDictionary
281
     1
  3
Normal
350
F
100
AcDbDictionaryWithDefault
340
F
  0
DICTIONARY
  5
3B
102
{ACAD_REACTORS
330
C
102
}
330
C
100
AcDbDictionary
281
     1
  3
A0
350
3C
  3
A1
350
3D
  3
A2
350
3E
  3
A3
350
3F
  3
A4
350
40
  3
A5
350
41
  3
A6
350
42
  3
A7
350
43
  3
A8
350
44
  3
A9
350
45
  3
B0
350
46
  3
B1
350
47
  3
B2
350
48
  3
B3
350
49
  3
B4
350
4A
  3
B5
350
4B
  3
B6
350
4C
  3
B7
350
4D
  3
B8
350
4E
  3
B9
350
4F
  3
C0
350
50
  3
C1
350
51
  3
C2
350
52
  3
C3
350
53
  3
C4
350
54
  3
C5
350
55
  3
C6
350
56
  3
C7
350
57
  3
C8
350
58
  3
C9
350
59
  3
D0
350
5A
  3
D1
350
5B
  3
D2
350
5C
  0
DICTIONARY
  5
1E7
102
{ACAD_REACTORS
330
C
102
}
330
C
100
AcDbDictionary
281
     1
  0
DICTIONARY
  5
2A
102
{ACAD_REACTORS
330
C
102
}
330
C
100
AcDbDictionary
281
     1
  3
2dWireframe
350
2F
  3
3D Hidden
350
31
  3
3dWireframe
350
30
  3
Basic
350
32
  3
Brighten
350
36
  3
ColorChange
350
3A
  3
Conceptual
350
34
  3
Dim
350
35
  3
Facepattern
350
39
  3
Flat
350
2B
  3
FlatWithEdges
350
2C
  3
Gouraud
350
2D
  3
GouraudWithEdges
350
2E
  3
Linepattern
350
38
  3
Realistic
350
33
  3
Thicken
350
37
  0
DICTIONARY
  5
1E5
102
{ACAD_REACTORS
330
C
102
}
330
C
100
AcDbDictionary
281
     1
  3
CANNOSCALE
350
1E6
  3
PSOLHEIGHT
350
1EA
  3
PSOLWIDTH
350
1E9
  0
LAYOUT
  5
1E
102
{ACAD_REACTORS
330
1A
102
}
330
1A
100
AcDbPlotSettings
  1

  2
none_device
  4

  6

 40
0.0
 41
0.0
 42
0.0
 43
0.0
 44
0.0
 45
0.0
 46
0.0
 47
0.0
 48
0.0
 49
0.0
140
0.0
141
0.0
142
1.0
143
1.0
 70
   688
 72
     0
 73
     0
 74
     5
  7

 75
    16
147
1.0
148
0.0
149
0.0
100
AcDbLayout
  1
Layout1
 70
     1
 71
     1
 10
0.0
 20
0.0
 11
1682.0
 21
2378.0
 12
0.0
 22
0.0
 32
0.0
 14
0.0
 24
0.0
 34
0.0
 15
1682.0
 25
2378.0
 35
0.0
146
0.0
 13
0.0
 23
0.0
 33
0.0
 16
1.0
 26
0.0
 36
0.0
 17
0.0
 27
1.0
 37
0.0
 76
     0
330
1B
  0
LAYOUT
  5
22
102
{ACAD_REACTORS
330
1A
102
}
330
1A
100
AcDbPlotSettings
  1

  2
none_device
  4

  6

 40
0.0
 41
0.0
 42
0.0
 43
0.0
 44
0.0
 45
0.0
 46
0.0
 47
0.0
 48
0.0
 49
0.0
140
0.0
141
0.0
142
1.0
143
1.0
 70
  1712
 72
     0
 73
     0
 74
     0
  7

 75
     0
147
1.0
148
0.0
149
0.0
100
AcDbLayout
  1
Model
 70
     1
 71
     0
 10
0.0
 20
0.0
 11
1682.0
 21
2378.0
 12
0.0
 22
0.0
 32
0.0
 14
0.0
 24
0.0
 34
0.0
 15
1682.0
 25
2378.0
 35
0.0
146
0.0
 13
0.0
 23
0.0
 33
0.0
 16
1.0
 26
0.0
 36
0.0
 17
0.0
 27
1.0
 37
0.0
 76
     0
330
1F
331
29
  0
MLINESTYLE
  5
18
102
{ACAD_REACTORS
330
17
102
}
330
17
100
AcDbMlineStyle
  2
Standard
 70
     0
  3

 62
   256
 51
90.0
 52
90.0
 71
     2
 49
0.5
 62
   256
  6
BYLAYER
 49
-0.5
 62
   256
  6
BYLAYER
  0
ACDBPLACEHOLDER
  5
F
102
{ACAD_REACTORS
330
E
102
}
330
E
  0
SCALE
  5
3C
102
{ACAD_REACTORS
330
3B
102
}
330
3B
100
AcDbScale
 70
     0
300
1:1
140
1.0
141
1.0
290
     1
  0
SCALE
  5
3D
102
{ACAD_REACTORS
330
3B
102
}
330
3B
100
AcDbScale
 70
     0
300
1:2
140
1.0
141
2.0
290
     0
  0
SCALE
  5
3E
102
{ACAD_REACTORS
330
3B
102
}
330
3B
100
AcDbScale
 70
     0
300
1:4
140
1.0
141
4.0
290
     0
  0
SCALE
  5
3F
102
{ACAD_REACTORS
330
3B
102
}
330
3B
100
AcDbScale
 70
     0
300
1:5
140
1.0
141
5.0
290
     0
  0
SCALE
  5
40
102
{ACAD_REACTORS
330
3B
102
}
330
3B
100
AcDbScale
 70
     0
300
1:8
140
1.0
141
8.0
290
     0
  0
SCALE
  5
41
102
{ACAD_REACTORS
330
3B
102
}
330
3B
100
AcDbScale
 70
     0
300
1:10
140
1.0
141
10.0
290
     0
  0
SCALE
  5
42
102
{ACAD_REACTORS
330
3B
102
}
330
3B
100
AcDbScale
 70
     0
300
1:16
140
1.0
141
16.0
290
     0
  0
SCALE
  5
43
102
{ACAD_REACTORS
330
3B
102
}
330
3B
100
AcDbScale
 70
     0
300
1:20
140
1.0
141
20.0
290
     0
  0
SCALE
  5
44
102
{ACAD_REACTORS
330
3B
102
}
330
3B
100
AcDbScale
 70
     0
300
1:30
140
1.0
141
30.0
290
     0
  0
SCALE
  5
45
102
{ACAD_REACTORS
330
3B
102
}
330
3B
100
AcDbScale
 70
     0
300
1:40
140
1.0
141
40.0
290
     0
  0
SCALE
  5
46
102
{ACAD_REACTORS
330
3B
102
}
330
3B
100
AcDbScale
 70
     0
300
1:50
140
1.0
141
50.0
290
     0
  0
SCALE
  5
47
102
{ACAD_REACTORS
330
3B
102
}
330
3B
100
AcDbScale
 70
     0
300
1:100
140
1.0
141
100.0
290
     0
  0
SCALE
  5
48
102
{ACAD_REACTORS
330
3B
102
}
330
3B
100
AcDbScale
 70
     0
300
2:1
140
2.0
141
1.0
290
     0
  0
SCALE
  5
49
102
{ACAD_REACTORS
330
3B
102
}
330
3B
100
AcDbScale
 70
     0
300
4:1
140
4.0
141
1.0
290
     0
  0
SCALE
  5
4A
102
{ACAD_REACTORS
330
3B
102
}
330
3B
100
AcDbScale
 70
     0
300
8:1
140
8.0
141
1.0
290
     0
  0
SCALE
  5
4B
102
{ACAD_REACTORS
330
3B
102
}
330
3B
100
AcDbScale
 70
     0
300
10:1
140
10.0
141
1.0
290
     0
  0
SCALE
  5
4C
102
{ACAD_REACTORS
330
3B
102
}
330
3B
100
AcDbScale
 70
     0
300
100:1
140
100.0
141
1.0
290
     0
  0
SCALE
  5
4D
102
{ACAD_REACTORS
330
3B
102
}
330
3B
100
AcDbScale
 70
     0
300
1/128" = 1'-0"
140
0.0078125
141
12.0
290
     0
  0
SCALE
  5
4E
102
{ACAD_REACTORS
330
3B
102
}
330
3B
100
AcDbScale
 70
     0
300
1/64" = 1'-0"
140
0.015625
141
12.0
290
     0
  0
SCALE
  5
4F
102
{ACAD_REACTORS
330
3B
102
}
330
3B
100
AcDbScale
 70
     0
300
1/32" = 1'-0"
140
0.03125
141
12.0
290
     0
  0
SCALE
  5
50
102
{ACAD_REACTORS
330
3B
102
}
330
3B
100
AcDbScale
 70
     0
300
1/16" = 1'-0"
140
0.0625
141
12.0
290
     0
  0
SCALE
  5
51
102
{ACAD_REACTORS
330
3B
102
}
330
3B
100
AcDbScale
 70
     0
300
3/32" = 1'-0"
140
0.09375
141
12.0
290
     0
  0
SCALE
  5
52
102
{ACAD_REACTORS
330
3B
102
}
330
3B
100
AcDbScale
 70
     0
300
1/8" = 1'-0"
140
0.125
141
12.0
290
     0
  0
SCALE
  5
53
102
{ACAD_REACTORS
330
3B
102
}
330
3B
100
AcDbScale
 70
     0
300
3/16" = 1'-0"
140
0.1875
141
12.0
290
     0
  0
SCALE
  5
54
102
{ACAD_REACTORS
330
3B
102
}
330
3B
100
AcDbScale
 70
     0
300
1/4" = 1'-0"
140
0.25
141
12.0
290
     0
  0
SCALE
  5
55
102
{ACAD_REACTORS
330
3B
102
}
330
3B
100
AcDbScale
 70
     0
300
3/8" = 1'-0"
140
0.375
141
12.0
290
     0
  0
SCALE
  5
56
102
{ACAD_REACTORS
330
3B
102
}
330
3B
100
AcDbScale
 70
     0
300
1/2" = 1'-0"
140
0.5
141
12.0
290
     0
  0
SCALE
  5
57
102
{ACAD_REACTORS
330
3B
102
}
330
3B
100
AcDbScale
 70
     0
300
3/4" = 1'-0"
140
0.75
141
12.0
290
     0
  0
SCALE
  5
58
102
{ACAD_REACTORS
330
3B
102
}
330
3B
100
AcDbScale
 70
     0
300
1" = 1'-0"
140
1.0
141
12.0
290
     0
  0
SCALE
  5
59
102
{ACAD_REACTORS
330
3B
102
}
330
3B
100
AcDbScale
 70
     0
300
1-1/2" = 1'-0"
140
1.5
141
12.0
290
     0
  0
SCALE
  5
5A
102
{ACAD_REACTORS
330
3B
102
}
330
3B
100
AcDbScale
 70
     0
300
3" = 1'-0"
140
3.0
141
12.0
290
     0
  0
SCALE
  5
5B
102
{ACAD_REACTORS
330
3B
102
}
330
3B
100
AcDbScale
 70
     0
300
6" = 1'-0"
140
6.0
141
12.0
290
     0
  0
SCALE
  5
5C
102
{ACAD_REACTORS
330
3B
102
}
330
3B
100
AcDbScale
 70
     0
300
1'-0" = 1'-0"
140
12.0
141
12.0
290
     0
  0
VISUALSTYLE
  5
2F
102
{ACAD_REACTORS
330
2A
102
}
330
2A
100
AcDbVisualStyle
  2
2dWireframe
 70
     4
 71
     0
 72
     2
 73
     0
 90
        0
 40
-0.6
 41
-30.0
 62
     5
 63
     7
 74
     1
 91
        4
 64
     7
 65
   257
 75
     1
175
     1
 42
1.0
 92
        0
 66
   257
 43
1.0
 76
     1
 77
     6
 78
     2
 67
     7
 79
     5
170
     0
171
     0
290
     0
174
     0
 93
        1
 44
0.0
173
     0
291
     0
 45
0.0
1001
ACAD
1000
AcDbSavedByObjectVersion
1070
     0
  0
VISUALSTYLE
  5
31
102
{ACAD_REACTORS
330
2A
102
}
330
2A
100
AcDbVisualStyle
  2
3D Hidden
 70
     6
 71
     1
 72
     2
 73
     2
 90
        0
 40
-0.6
 41
-30.0
 62
     5
 63
     7
 74
     2
 91
        2
 64
     7
 65
   257
 75
     2
175
     1
 42
40.0
 92
        0
 66
   257
 43
1.0
 76
     1
 77
     6
 78
     2
 67
     7
 79
     3
170
     0
171
     0
290
     0
174
     0
 93
        1
 44
0.0
173
     0
291
     0
 45
0.0
1001
ACAD
1000
AcDbSavedByObjectVersion
1070
     0
  0
VISUALSTYLE
  5
30
102
{ACAD_REACTORS
330
2A
102
}
330
2A
100
AcDbVisualStyle
  2
3dWireframe
 70
     5
 71
     0
 72
     2
 73
     0
 90
        0
 40
-0.6
 41
-30.0
 62
     5
 63
     7
 74
     1
 91
        4
 64
     7
 65
   257
 75
     1
175
     1
 42
1.0
 92
        0
 66
   257
 43
1.0
 76
     1
 77
     6
 78
     2
 67
     7
 79
     5
170
     0
171
     0
290
     0
174
     0
 93
        1
 44
0.0
173
     0
291
     0
 45
0.0
1001
ACAD
1000
AcDbSavedByObjectVersion
1070
     0
  0
VISUALSTYLE
  5
32
102
{ACAD_REACTORS
330
2A
102
}
330
2A
100
AcDbVisualStyle
  2
Basic
 70
     7
 71
     1
 72
     0
 73
     1
 90
        0
 40
-0.6
 41
-30.0
 62
     5
 63
     7
 74
     0
 91
        4
 64
     7
 65
   257
 75
     1
175
     1
 42
1.0
 92
        8
 66
     7
 43
1.0
 76
     1
 77
     6
 78
     2
 67
     7
 79
     5
170
     0
171
     0
290
     0
174
     0
 93
        1
 44
0.0
173
     0
291
     1
 45
0.0
1001
ACAD
1000
AcDbSavedByObjectVersion
1070
     0
  0
VISUALSTYLE
  5
36
102
{ACAD_REACTORS
330
2A
102
}
330
2A
100
AcDbVisualStyle
  2
Brighten
 70
    12
 71
     2
 72
     2
 73
     0
 90
        0
 40
-0.6
 41
-30.0
 62
     5
 63
     7
 74
     1
 91
        4
 64
     7
 65
   257
 75
     1
175
     1
 42
1.0
 92
        8
 66
     7
 43
1.0
 76
     1
 77
     6
 78
     2
 67
     7
 79
     5
170
     0
171
     0
290
     0
174
     0
 93
        1
 44
50.0
173
     0
291
     1
 45
0.0
1001
ACAD
1000
AcDbSavedByObjectVersion
1070
     0
  0
VISUALSTYLE
  5
3A
102
{ACAD_REACTORS
330
2A
102
}
330
2A
100
AcDbVisualStyle
  2
ColorChange
 70
    16
 71
     2
 72
     2
 73
     3
 90
        0
 40
-0.6
 41
-30.0
 62
     5
 63
     8
 74
     1
 91
        4
 64
     7
 65
   257
 75
     1
175
     1
 42
1.0
 92
        8
 66
     8
 43
1.0
 76
     1
 77
     6
 78
     2
 67
     7
 79
     5
170
     0
171
     0
290
     0
174
     0
 93
        1
 44
0.0
173
     0
291
     1
 45
0.0
1001
ACAD
1000
AcDbSavedByObjectVersion
1070
     0
  0
VISUALSTYLE
  5
34
102
{ACAD_REACTORS
330
2A
102
}
330
2A
100
AcDbVisualStyle
  2
Conceptual
 70
     9
 71
     3
 72
     2
 73
     0
 90
        0
 40
-0.6
 41
-30.0
 62
     5
 63
     7
 74
     2
 91
        2
 64
     7
 65
   257
 75
     1
175
     1
 42
40.0
 92
        8
 66
     7
 43
1.0
 76
     1
 77
     6
 78
     2
 67
     7
 79
     3
170
     0
171
     0
290
     0
174
     0
 93
        1
 44
0.0
173
     0
291
     0
 45
0.0
1001
ACAD
1000
AcDbSavedByObjectVersion
1070
     0
  0
VISUALSTYLE
  5
35
102
{ACAD_REACTORS
330
2A
102
}
330
2A
100
AcDbVisualStyle
  2
Dim
 70
    11
 71
     2
 72
     2
 73
     0
 90
        0
 40
-0.6
 41
-30.0
 62
     5
 63
     7
 74
     1
 91
        4
 64
     7
 65
   257
 75
     1
175
     1
 42
1.0
 92
        8
 66
     7
 43
1.0
 76
     1
 77
     6
 78
     2
 67
     7
 79
     5
170
     0
171
     0
290
     0
174
     0
 93
        1
 44
-50.0
173
     0
291
     1
 45
0.0
1001
ACAD
1000
AcDbSavedByObjectVersion
1070
     0
  0
VISUALSTYLE
  5
39
102
{ACAD_REACTORS
330
2A
102
}
330
2A
100
AcDbVisualStyle
  2
Facepattern
 70
    15
 71
     2
 72
     2
 73
     0
 90
        0
 40
-0.6
 41
-30.0
 62
     5
 63
     7
 74
     1
 91
        4
 64
     7
 65
   257
 75
     1
175
     1
 42
1.0
 92
        8
 66
     7
 43
1.0
 76
     1
 77
     6
 78
     2
 67
     7
 79
     5
170
     0
171
     0
290
     0
174
     0
 93
        1
 44
0.0
173
     0
291
     1
 45
0.0
1001
ACAD
1000
AcDbSavedByObjectVersion
1070
     0
  0
VISUALSTYLE
  5
2B
102
{ACAD_REACTORS
330
2A
102
}
330
2A
100
AcDbVisualStyle
  2
Flat
 70
     0
 71
     2
 72
     1
 73
     1
 90
        2
 40
-0.6
 41
30.0
 62
     5
 63
     7
 74
     0
 91
        4
 64
     7
 65
   257
 75
     1
175
     1
 42
1.0
 92
        8
 66
     7
 43
1.0
 76
     1
 77
     6
 78
     2
 67
     7
 79
     5
170
     0
171
     0
290
     0
174
     0
 93
       13
 44
0.0
173
     0
291
     1
 45
0.0
1001
ACAD
1000
AcDbSavedByObjectVersion
1070
     0
  0
VISUALSTYLE
  5
2C
102
{ACAD_REACTORS
330
2A
102
}
330
2A
100
AcDbVisualStyle
  2
FlatWithEdges
 70
     1
 71
     2
 72
     1
 73
     1
 90
        2
 40
-0.6
 41
30.0
 62
     5
 63
     7
 74
     1
 91
        4
 64
     7
 65
   257
 75
     1
175
     1
 42
1.0
 92
        0
 66
   257
 43
1.0
 76
     1
 77
     6
 78
     2
 67
     7
 79
     5
170
     0
171
     0
290
     0
174
     0
 93
       13
 44
0.0
173
     0
291
     1
 45
0.0
1001
ACAD
1000
AcDbSavedByObjectVersion
1070
     0
  0
VISUALSTYLE
  5
2D
102
{ACAD_REACTORS
330
2A
102
}
330
2A
100
AcDbVisualStyle
  2
Gouraud
 70
     2
 71
     2
 72
     2
 73
     1
 90
        2
 40
-0.6
 41
30.0
 62
     5
 63
     7
 74
     0
 91
        4
 64
     7
 65
   257
 75
     1
175
     1
 42
1.0
 92
        0
 66
     7
 43
1.0
 76
     1
 77
     6
 78
     2
 67
     7
 79
     5
170
     0
171
     0
290
     0
174
     0
 93
       13
 44
0.0
173
     0
291
     1
 45
0.0
1001
ACAD
1000
AcDbSavedByObjectVersion
1070
     0
  0
VISUALSTYLE
  5
2E
102
{ACAD_REACTORS
330
2A
102
}
330
2A
100
AcDbVisualStyle
  2
GouraudWithEdges
 70
     3
 71
     2
 72
     2
 73
     1
 90
        2
 40
-0.6
 41
30.0
 62
     5
 63
     7
 74
     1
 91
        4
 64
     7
 65
   257
 75
     1
175
     1
 42
1.0
 92
        0
 66
   257
 43
1.0
 76
     1
 77
     6
 78
     2
 67
     7
 79
     5
170
     0
171
     0
290
     0
174
     0
 93
       13
 44
0.0
173
     0
291
     1
 45
0.0
1001
ACAD
1000
AcDbSavedByObjectVersion
1070
     0
  0
VISUALSTYLE
  5
38
102
{ACAD_REACTORS
330
2A
102
}
330
2A
100
AcDbVisualStyle
  2
Linepattern
 70
    14
 71
     2
 72
     2
 73
     0
 90
        0
 40
-0.6
 41
-30.0
 62
     5
 63
     7
 74
     1
 91
        4
 64
     7
 65
   257
 75
     7
175
     7
 42
1.0
 92
        8
 66
     7
 43
1.0
 76
     1
 77
     6
 78
     2
 67
     7
 79
     5
170
     0
171
     0
290
     0
174
     0
 93
        1
 44
0.0
173
     0
291
     1
 45
0.0
1001
ACAD
1000
AcDbSavedByObjectVersion
1070
     0
  0
VISUALSTYLE
  5
33
102
{ACAD_REACTORS
330
2A
102
}
330
2A
100
AcDbVisualStyle
  2
Realistic
 70
     8
 71
     2
 72
     2
 73
     0
 90
        0
 40
-0.6
 41
-30.0
 62
     5
 63
     7
 74
     1
 91
        0
 64
     7
 65
   257
 75
     1
175
     1
 42
1.0
 92
        8
 66
     8
 43
1.0
 76
     1
 77
     6
 78
     2
 67
     7
 79
     5
170
     0
171
     0
290
     0
174
     0
 93
       13
 44
0.0
173
     0
291
     0
 45
0.0
1001
ACAD
1000
AcDbSavedByObjectVersion
1070
     0
  0
VISUALSTYLE
  5
37
102
{ACAD_REACTORS
330
2A
102
}
330
2A
100
AcDbVisualStyle
  2
Thicken
 70
    13
 71
     2
 72
     2
 73
     0
 90
        0
 40
-0.6
 41
-30.0
 62
     5
 63
     7
 74
     1
 91
        4
 64
     7
 65
   257
 75
     1
175
     1
 42
1.0
 92
       12
 66
     7
 43
1.0
 76
     1
 77
     6
 78
     2
 67
     7
 79
     5
170
     0
171
     0
290
     0
174
     0
 93
        1
 44
0.0
173
     0
291
     1
 45
0.0
1001
ACAD
1000
AcDbSavedByObjectVersion
1070
     0
  0
DICTIONARYVAR
  5
1E6
102
{ACAD_REACTORS
330
1E5
102
}
330
1E5
100
DictionaryVariables
280
     0
  1
1:1
  0
DICTIONARYVAR
  5
1EA
102
{ACAD_REACTORS
330
1E5
102
}
330
1E5
100
DictionaryVariables
280
     0
  1
80.000000
  0
DICTIONARYVAR
  5
1E9
102
{ACAD_REACTORS
330
1E5
102
}
330
1E5
100
DictionaryVariables
280
     0
  1
5.000000
  0
ENDSEC
  0
EOF
