  0
SECTION
  2
HEADER
  9
$ACADVER
  1
AC1009
  9
$DWGCODEPAGE
  3
ansi_1252
  9
$INSBASE
 10
0.0
 20
0.0
 30
0.0
  9
$EXTMIN
 10
1.000000000000000E+20
 20
1.000000000000000E+20
 30
1.000000000000000E+20
  9
$EXTMAX
 10
-1.000000000000000E+20
 20
-1.000000000000000E+20
 30
-1.000000000000000E+20
  9
$LIMMIN
 10
0.0
 20
0.0
  9
$LIMMAX
 10
12.0
 20
9.0
  9
$ORTHOMODE
 70
     0
  9
$REGENMODE
 70
     1
  9
$FILLMODE
 70
     1
  9
$QTEXTMODE
 70
     0
  9
$MIRRTEXT
 70
     1
  9
$DRAGMODE
 70
     2
  9
$LTSCALE
 40
1.0
  9
$OSMODE
 70
    37
  9
$ATTMODE
 70
     1
  9
$TEXTSIZE
 40
0.2
  9
$TRACEWID
 40
0.05
  9
$TEXTSTYLE
  7
STANDARD
  9
$CLAYER
  8
0
  9
$CELTYPE
  6
BYLAYER
  9
$CECOLOR
 62
   256
  9
$DIMSCALE
 40
1.0
  9
$DIMASZ
 40
0.18
  9
$DIMEXO
 40
0.0625
  9
$DIMDLI
 40
0.38
  9
$DIMRND
 40
0.0
  9
$DIMDLE
 40
0.0
  9
$DIMEXE
 40
0.18
  9
$DIMTP
 40
0.0
  9
$DIMTM
 40
0.0
  9
$DIMTXT
 40
0.18
  9
$DIMCEN
 40
0.09
  9
$DIMTSZ
 40
0.0
  9
$DIMTOL
 70
     0
  9
$DIMLIM
 70
     0
  9
$DIMTIH
 70
     1
  9
$DIMTOH
 70
     1
  9
$DIMSE1
 70
     0
  9
$DIMSE2
 70
     0
  9
$DIMTAD
 70
     0
  9
$DIMZIN
 70
     0
  9
$DIMBLK
  1

  9
$DIMASO
 70
     1
  9
$DIMSHO
 70
     1
  9
$DIMPOST
  1

  9
$DIMAPOST
  1

  9
$DIMALT
 70
     0
  9
$DIMALTD
 70
     2
  9
$DIMALTF
 40
25.4
  9
$DIMLFAC
 40
1.0
  9
$DIMTOFL
 70
     0
  9
$DIMTVP
 40
0.0
  9
$DIMTIX
 70
     0
  9
$DIMSOXD
 70
     0
  9
$DIMSAH
 70
     0
  9
$DIMBLK1
  1

  9
$DIMBLK2
  1

  9
$DIMSTYLE
  2
STANDARD
  9
$DIMCLRD
 70
     0
  9
$DIMCLRE
 70
     0
  9
$DIMCLRT
 70
     0
  9
$DIMTFAC
 40
1.0
  9
$DIMGAP
 40
0.09
  9
$LUNITS
 70
     2
  9
$LUPREC
 70
     4
  9
$SKETCHINC
 40
0.1
  9
$FILLETRAD
 40
0.5
  9
$AUNITS
 70
     0
  9
$AUPREC
 70
     0
  9
$MENU
  1
.
  9
$ELEVATION
 40
0.0
  9
$PELEVATION
 40
0.0
  9
$THICKNESS
 40
0.0
  9
$LIMCHECK
 70
     0
  9
$CHAMFERA
 40
0.5
  9
$CHAMFERB
 40
0.5
  9
$SKPOLY
 70
     0
  9
$TDCREATE
 40
2455360.549284213
  9
$TDUPDATE
 40
2455360.549284213
  9
$TDINDWG
 40
0.0000000116
  9
$TDUSRTIMER
 40
0.0000000116
  9
$USRTIMER
 70
     1
  9
$ANGBASE
 50
0.0
  9
$ANGDIR
 70
     0
  9
$PDMODE
 70
     0
  9
$PDSIZE
 40
0.0
  9
$PLINEWID
 40
0.0
  9
$COORDS
 70
     1
  9
$SPLFRAME
 70
     0
  9
$SPLINETYPE
 70
     6
  9
$SPLINESEGS
 70
     8
  9
$ATTDIA
 70
     0
  9
$ATTREQ
 70
     1
  9
$HANDLING
 70
     1
  9
$HANDSEED
  5
C87
  9
$SURFTAB1
 70
     6
  9
$SURFTAB2
 70
     6
  9
$SURFTYPE
 70
     6
  9
$SURFU
 70
     6
  9
$SURFV
 70
     6
  9
$UCSNAME
  2

  9
$UCSORG
 10
0.0
 20
0.0
 30
0.0
  9
$UCSXDIR
 10
1.0
 20
0.0
 30
0.0
  9
$UCSYDIR
 10
0.0
 20
1.0
 30
0.0
  9
$PUCSNAME
  2

  9
$PUCSORG
 10
0.0
 20
0.0
 30
0.0
  9
$PUCSXDIR
 10
1.0
 20
0.0
 30
0.0
  9
$PUCSYDIR
 10
0.0
 20
1.0
 30
0.0
  9
$USERI1
 70
     0
  9
$USERI2
 70
     0
  9
$USERI3
 70
     0
  9
$USERI4
 70
     0
  9
$USERI5
 70
     0
  9
$USERR1
 40
0.0
  9
$USERR2
 40
0.0
  9
$USERR3
 40
0.0
  9
$USERR4
 40
0.0
  9
$USERR5
 40
0.0
  9
$WORLDVIEW
 70
     1
  9
$SHADEDGE
 70
     3
  9
$SHADEDIF
 70
    70
  9
$TILEMODE
 70
     1
  9
$MAXACTVP
 70
    64
  9
$PLIMCHECK
 70
     0
  9
$PEXTMIN
 10
1.000000000000000E+20
 20
1.000000000000000E+20
 30
1.000000000000000E+20
  9
$PEXTMAX
 10
-1.000000000000000E+20
 20
-1.000000000000000E+20
 30
-1.000000000000000E+20
  9
$PLIMMIN
 10
0.0
 20
0.0
  9
$PLIMMAX
 10
12.0
 20
9.0
  9
$UNITMODE
 70
     0
  9
$VISRETAIN
 70
     1
  9
$PLINEGEN
 70
     0
  9
$PSLTSCALE
 70
     1
  0
ENDSEC
  0
SECTION
  2
TABLES
  0
TABLE
  2
VPORT
 70
     1
  0
VPORT
  2
*ACTIVE
 70
     0
 10
0.0
 20
0.0
 11
1.0
 21
1.0
 12
0.0
 22
0.0
 13
0.0
 23
0.0
 14
0.5
 24
0.5
 15
0.5
 25
0.5
 16
424.1222229003906
 26
242.3346862792969
 36
424.1222229003906
 17
81.04400634765625
 27
-14.1614990234375
 37
61.91500854492188
 40
232.0947282491236
 41
1.972972972850329
 42
50.0
 43
0.0
 44
0.0
 50
0.0
 51
0.0
 71
     0
 72
   100
 73
     1
 74
     3
 75
     0
 76
     0
 77
     0
 78
     0
  0
ENDTAB
  0
TABLE
  2
LTYPE
 70
     1
  0
LTYPE
  2
CONTINUOUS
 70
     0
  3
Solid line
 72
    65
 73
     0
 40
0.0
  0
ENDTAB
  0
TABLE
  2
LAYER
 70
     2
  0
LAYER
  2
0
 70
     0
 62
     7
  6
CONTINUOUS
  0
LAYER
  2
LAYER_1
 70
     0
 62
     7
  6
CONTINUOUS
  0
ENDTAB
  0
TABLE
  2
STYLE
 70
     1
  0
STYLE
  2
STANDARD
 70
     0
 40
0.0
 41
1.0
 50
0.0
 71
     0
 42
0.2
  3
txt
  4

  0
ENDTAB
  0
TABLE
  2
VIEW
 70
     0
  0
ENDTAB
  0
TABLE
  2
UCS
 70
     0
  0
ENDTAB
  0
TABLE
  2
APPID
 70
     1
  0
APPID
  2
ACAD
 70
     0
  0
ENDTAB
  0
TABLE
  2
DIMSTYLE
 70
     1
  0
DIMSTYLE
  2
STANDARD
 70
     0
  3

  4

  5

  6

  7

 40
1.0
 41
0.18
 42
0.0625
 43
0.38
 44
0.18
 45
0.0
 46
0.0
 47
0.0
 48
0.0
140
0.18
141
0.09
142
0.0
143
25.4
144
1.0
145
0.0
146
1.0
147
0.09
 71
     0
 72
     0
 73
     1
 74
     1
 75
     0
 76
     0
 77
     0
 78
     0
170
     0
171
     2
172
     0
173
     0
174
     0
175
     0
176
     0
177
     0
178
     0
  0
ENDTAB
  0
ENDSEC
  0
SECTION
  2
BLOCKS
  0
BLOCK
  8
0
  2
$MODEL_SPACE
 70
     0
 10
0.0
 20
0.0
 30
0.0
  3
$MODEL_SPACE
  1

  0
ENDBLK
  5
21
  8
0
  0
BLOCK
 67
     1
  8
0
  2
$PAPER_SPACE
 70
     0
 10
0.0
 20
0.0
 30
0.0
  3
$PAPER_SPACE
  1

  0
ENDBLK
  5
1D
 67
     1
  8
0
  0
BLOCK
  8
0
  2
E3_NODE
 70
     0
 10
0.0
 20
0.0
 30
0.0
  3
E3_NODE
  1

  0
POLYLINE
  5
3C
  8
0
 62
     9
 66
     1
 10
0.0
 20
0.0
 30
0.0
 70
    64
 71
    21
 72
    19
  0
VERTEX
  5
3D
  8
0
 10
-22.75699996948242
 20
14.07499980926514
 30
53.25400161743164
 70
   192
  0
VERTEX
  5
3E
  8
0
 10
-7.544000148773193
 20
-25.92499923706055
 30
43.71799850463867
 70
   192
  0
VERTEX
  5
3F
  8
0
 10
-14.69400024414062
 20
-22.65200042724609
 30
48.19900131225586
 70
   192
  0
VERTEX
  5
40
  8
0
 10
-26.34600067138672
 20
-4.907999992370605
 30
55.50299835205078
 70
   192
  0
VERTEX
  5
41
  8
0
 10
-26.50099945068359
 20
4.948999881744385
 30
55.59999847412109
 70
   192
  0
VERTEX
  5
42
  8
0
 10
-24.1200008392334
 20
12.13399982452393
 30
54.10800170898438
 70
   192
  0
VERTEX
  5
43
  8
0
 10
-26.81100082397461
 20
-3.191999912261963
 30
55.79499816894531
 70
   192
  0
VERTEX
  5
44
  8
0
 10
-26.5930004119873
 20
4.669000148773193
 30
55.65800094604492
 70
   192
  0
VERTEX
  5
45
  8
0
 10
-7.386000156402588
 20
-25.94700050354004
 30
43.61899948120117
 70
   192
  0
VERTEX
  5
46
  8
0
 10
1.73800003528595
 20
-26.94400024414062
 30
37.90000152587891
 70
   192
  0
VERTEX
  5
47
  8
0
 10
0.2460000067949295
 20
-26.99900054931641
 30
38.83499908447266
 70
   192
  0
VERTEX
  5
48
  8
0
 10
-22.71199989318848
 20
-14.06099987030029
 30
53.22499847412109
 70
   192
  0
VERTEX
  5
49
  8
0
 10
-24.75399971008301
 20
-10.7819995880127
 30
54.50500106811523
 70
   192
  0
VERTEX
  5
4A
  8
0
 10
-16.13199996948242
 20
-21.38599967956543
 30
49.10100173950195
 70
   192
  0
VERTEX
  5
4B
  8
0
 10
-20.59700012207031
 20
-17.45700073242188
 30
51.90000152587891
 70
   192
  0
VERTEX
  5
4C
  8
0
 10
-19.60099983215332
 20
18.56900024414062
 30
51.2760009765625
 70
   192
  0
VERTEX
  5
4D
  8
0
 10
-16.09600067138672
 20
21.32399940490723
 30
49.07899856567383
 70
   192
  0
VERTEX
  5
4E
  8
0
 10
-13.41899967193604
 20
23.42900085449219
 30
47.4010009765625
 70
   192
  0
VERTEX
  5
4F
  8
0
 10
-7.330999851226807
 20
25.81900024414062
 30
43.58499908447266
 70
   192
  0
VERTEX
  5
50
  8
0
 10
-6.098999977111816
 20
26.30200004577637
 30
42.8129997253418
 70
   192
  0
VERTEX
  5
51
  8
0
 10
1.738999962806702
 20
26.94400024414062
 30
37.90000152587891
 70
   192
  0
VERTEX
  5
52
  8
0
 62
     9
 10
0.0
 20
0.0
 30
0.0
 70
   128
 71
     3
 72
     2
 73
     1
  0
VERTEX
  5
53
  8
0
 62
     9
 10
0.0
 20
0.0
 30
0.0
 70
   128
 71
     6
 72
     5
 73
     4
  0
VERTEX
  5
54
  8
0
 62
     9
 10
0.0
 20
0.0
 30
0.0
 70
   128
 71
     8
 72
     7
 73
     4
  0
VERTEX
  5
55
  8
0
 62
     9
 10
0.0
 20
0.0
 30
0.0
 70
   128
 71
     2
 72
     9
 73
     1
  0
VERTEX
  5
56
  8
0
 62
     9
 10
0.0
 20
0.0
 30
0.0
 70
   128
 71
    11
 72
    10
 73
     1
  0
VERTEX
  5
57
  8
0
 62
     9
 10
0.0
 20
0.0
 30
0.0
 70
   128
 71
     4
 72
     5
 73
     8
  0
VERTEX
  5
58
  8
0
 62
     9
 10
0.0
 20
0.0
 30
0.0
 70
   128
 71
    13
 72
    12
 73
     1
  0
VERTEX
  5
59
  8
0
 62
     9
 10
0.0
 20
0.0
 30
0.0
 70
   128
 71
    15
 72
    14
 73
     1
  0
VERTEX
  5
5A
  8
0
 62
     9
 10
0.0
 20
0.0
 30
0.0
 70
   128
 71
     1
 72
     9
 73
    11
  0
VERTEX
  5
5B
  8
0
 62
     9
 10
0.0
 20
0.0
 30
0.0
 70
   128
 71
     1
 72
     4
 73
    13
  0
VERTEX
  5
5C
  8
0
 62
     9
 10
0.0
 20
0.0
 30
0.0
 70
   128
 71
     1
 72
    14
 73
     3
  0
VERTEX
  5
5D
  8
0
 62
     9
 10
0.0
 20
0.0
 30
0.0
 70
   128
 71
    16
 72
     1
 73
    10
  0
VERTEX
  5
5E
  8
0
 62
     9
 10
0.0
 20
0.0
 30
0.0
 70
   128
 71
     1
 72
    12
 73
    15
  0
VERTEX
  5
5F
  8
0
 62
     9
 10
0.0
 20
0.0
 30
0.0
 70
   128
 71
    18
 72
    17
 73
    10
  0
VERTEX
  5
60
  8
0
 62
     9
 10
0.0
 20
0.0
 30
0.0
 70
   128
 71
     4
 72
     1
 73
     6
  0
VERTEX
  5
61
  8
0
 62
     9
 10
0.0
 20
0.0
 30
0.0
 70
   128
 71
    20
 72
    19
 73
    10
  0
VERTEX
  5
62
  8
0
 62
     9
 10
0.0
 20
0.0
 30
0.0
 70
   128
 71
    10
 72
    17
 73
    16
  0
VERTEX
  5
63
  8
0
 62
     9
 10
0.0
 20
0.0
 30
0.0
 70
   128
 71
    10
 72
    19
 73
    18
  0
VERTEX
  5
64
  8
0
 62
     9
 10
0.0
 20
0.0
 30
0.0
 70
   128
 71
    10
 72
    21
 73
    20
  0
SEQEND
  5
65
  8
0
 62
     9
  0
ENDBLK
  5
69
  8
0
  0
BLOCK
  8
0
  2
E3_NODE_1_
 70
     0
 10
0.0
 20
0.0
 30
0.0
  3
E3_NODE_1_
  1

  0
POLYLINE
  5
6B
  8
0
 62
     9
 66
     1
 10
0.0
 20
0.0
 30
0.0
 70
    64
 71
    11
 72
     9
  0
VERTEX
  5
6C
  8
0
 10
25.17700004577637
 20
-9.753999710083008
 30
37.90000152587891
 70
   192
  0
VERTEX
  5
6D
  8
0
 10
19.95400047302246
 20
18.18899917602539
 30
37.90000152587891
 70
   192
  0
VERTEX
  5
6E
  8
0
 10
25.17700004577637
 20
9.753000259399414
 30
37.90000152587891
 70
   192
  0
VERTEX
  5
6F
  8
0
 10
2.492000102996826
 20
26.88500022888184
 30
37.90000152587891
 70
   192
  0
VERTEX
  5
70
  8
0
 10
19.95299911499023
 20
-18.19000053405762
 30
37.90000152587891
 70
   192
  0
VERTEX
  5
71
  8
0
 10
12.03499984741211
 20
-24.17000007629395
 30
37.90000152587891
 70
   192
  0
VERTEX
  5
72
  8
0
 10
12.03499984741211
 20
24.16900062561035
 30
37.90000152587891
 70
   192
  0
VERTEX
  5
73
  8
0
 10
27.0
 20
0.0
 30
37.90000152587891
 70
   192
  0
VERTEX
  5
74
  8
0
 10
2.490999937057495
 20
-26.88500022888184
 30
37.90000152587891
 70
   192
  0
VERTEX
  5
75
  8
0
 10
1.73800003528595
 20
-26.94400024414062
 30
37.90000152587891
 70
   192
  0
VERTEX
  5
76
  8
0
 10
1.738999962806702
 20
26.94400024414062
 30
37.90000152587891
 70
   192
  0
VERTEX
  5
77
  8
0
 62
     9
 10
0.0
 20
0.0
 30
0.0
 70
   128
 71
     3
 72
     2
 73
     1
  0
VERTEX
  5
78
  8
0
 62
     9
 10
0.0
 20
0.0
 30
0.0
 70
   128
 71
     6
 72
     5
 73
     4
  0
VERTEX
  5
79
  8
0
 62
     9
 10
0.0
 20
0.0
 30
0.0
 70
   128
 71
     2
 72
     7
 73
     1
  0
VERTEX
  5
7A
  8
0
 62
     9
 10
0.0
 20
0.0
 30
0.0
 70
   128
 71
     5
 72
     1
 73
     4
  0
VERTEX
  5
7B
  8
0
 62
     9
 10
0.0
 20
0.0
 30
0.0
 70
   128
 71
     7
 72
     4
 73
     1
  0
VERTEX
  5
7C
  8
0
 62
     9
 10
0.0
 20
0.0
 30
0.0
 70
   128
 71
     1
 72
     8
 73
     3
  0
VERTEX
  5
7D
  8
0
 62
     9
 10
0.0
 20
0.0
 30
0.0
 70
   128
 71
     4
 72
     9
 73
     6
  0
VERTEX
  5
7E
  8
0
 62
     9
 10
0.0
 20
0.0
 30
0.0
 70
   128
 71
     4
 72
    11
 73
    10
  0
VERTEX
  5
7F
  8
0
 62
     9
 10
0.0
 20
0.0
 30
0.0
 70
   128
 71
     4
 72
    10
 73
     9
  0
SEQEND
  5
80
  8
0
 62
     9
  0
ENDBLK
  5
83
  8
0
  0
BLOCK
  8
0
  2
E3_NODE_2_
 70
     0
 10
0.0
 20
0.0
 30
0.0
  3
E3_NODE_2_
  1

  0
POLYLINE
  5
85
  8
0
 62
     9
 66
     1
 10
0.0
 20
0.0
 30
0.0
 70
    64
 71
   129
 72
   129
  0
VERTEX
  5
86
  8
0
 10
19.95299911499023
 20
-18.19000053405762
 30
37.90000152587891
 70
   192
  0
VERTEX
  5
87
  8
0
 10
22.375
 20
-15.11200046539307
 30
59.39699935913086
 70
   192
  0
VERTEX
  5
88
  8
0
 10
21.31800079345703
 20
-16.5310001373291
 30
60.79600143432617
 70
   192
  0
VERTEX
  5
89
  8
0
 10
23.75
 20
-12.8430004119873
 30
57.95500183105469
 70
   192
  0
VERTEX
  5
8A
  8
0
 10
22.80500030517578
 20
-14.40200042724609
 30
58.94599914550781
 70
   192
  0
VERTEX
  5
8B
  8
0
 10
24.94000053405762
 20
-10.3439998626709
 30
56.99100112915039
 70
   192
  0
VERTEX
  5
8C
  8
0
 10
24.23299980163574
 20
-11.82900047302246
 30
57.56399917602539
 70
   192
  0
VERTEX
  5
8D
  8
0
 10
25.17700004577637
 20
-9.753999710083008
 30
37.90000152587891
 70
   192
  0
VERTEX
  5
8E
  8
0
 10
25.14800071716309
 20
-9.744000434875488
 30
56.89699935913086
 70
   192
  0
VERTEX
  5
8F
  8
0
 10
20.88400077819824
 20
-17.11300086975098
 30
61.36999893188477
 70
   192
  0
VERTEX
  5
90
  8
0
 10
17.29999923706055
 20
-20.72900009155273
 30
69.9749984741211
 70
   192
  0
VERTEX
  5
91
  8
0
 10
16.6919994354248
 20
-21.22200012207031
 30
73.11100006103516
 70
   192
  0
VERTEX
  5
92
  8
0
 10
14.48200035095215
 20
-22.78700065612793
 30
72.7229995727539
 70
   192
  0
VERTEX
  5
93
  8
0
 10
13.38199996948242
 20
-23.45100021362305
 30
72.54499816894531
 70
   192
  0
VERTEX
  5
94
  8
0
 10
12.00599956512451
 20
-24.11100006103516
 30
72.34600067138672
 70
   192
  0
VERTEX
  5
95
  8
0
 10
12.03499984741211
 20
-24.17000007629395
 30
37.90000152587891
 70
   192
  0
VERTEX
  5
96
  8
0
 10
18.1879997253418
 20
-19.95400047302246
 30
66.7969970703125
 70
   192
  0
VERTEX
  5
97
  8
0
 10
17.33399963378906
 20
-20.70000076293945
 30
69.85299682617188
 70
   192
  0
VERTEX
  5
98
  8
0
 10
19.44799995422363
 20
-18.72900009155273
 30
63.84000015258789
 70
   192
  0
VERTEX
  5
99
  8
0
 10
18.50799942016602
 20
-19.64299964904785
 30
66.0469970703125
 70
   192
  0
VERTEX
  5
9A
  8
0
 10
19.9379997253418
 20
-18.17700004577637
 30
62.99700164794922
 70
   192
  0
VERTEX
  5
9B
  8
0
 10
19.8430004119873
 20
-18.28400039672852
 30
63.1609992980957
 70
   192
  0
VERTEX
  5
9C
  8
0
 10
4.940000057220459
 20
-26.54400062561035
 30
71.46800231933594
 70
   192
  0
VERTEX
  5
9D
  8
0
 10
4.381999969482422
 20
-26.60799980163574
 30
71.41899871826172
 70
   192
  0
VERTEX
  5
9E
  8
0
 10
2.490999937057495
 20
-26.88500022888184
 30
37.90000152587891
 70
   192
  0
VERTEX
  5
9F
  8
0
 10
9.920000076293945
 20
-25.11100006103516
 30
72.04399871826172
 70
   192
  0
VERTEX
  5
A0
  8
0
 10
6.23799991607666
 20
-26.27000045776367
 30
71.60199737548828
 70
   192
  0
VERTEX
  5
A1
  8
0
 10
12.03499984741211
 20
24.16900062561035
 30
37.90000152587891
 70
   192
  0
VERTEX
  5
A2
  8
0
 10
8.718999862670898
 20
25.55400085449219
 30
71.88800048828125
 70
   192
  0
VERTEX
  5
A3
  8
0
 10
10.05000019073486
 20
25.05999946594238
 30
72.05899810791016
 70
   192
  0
VERTEX
  5
A4
  8
0
 10
5.000999927520752
 20
26.53300094604492
 30
71.47200012207031
 70
   192
  0
VERTEX
  5
A5
  8
0
 10
2.492000102996826
 20
26.88500022888184
 30
37.90000152587891
 70
   192
  0
VERTEX
  5
A6
  8
0
 10
4.382999897003174
 20
26.60400009155273
 30
71.41799926757812
 70
   192
  0
VERTEX
  5
A7
  8
0
 10
2.484999895095825
 20
26.82500076293945
 30
71.2509994506836
 70
   192
  0
VERTEX
  5
A8
  8
0
 10
19.82399940490723
 20
18.32200050354004
 30
63.14799880981445
 70
   192
  0
VERTEX
  5
A9
  8
0
 10
19.94499969482422
 20
18.18199920654297
 30
62.95199966430664
 70
   192
  0
VERTEX
  5
AA
  8
0
 10
19.73299980163574
 20
18.42900085449219
 30
63.29600143432617
 70
   192
  0
VERTEX
  5
AB
  8
0
 10
18.59199905395508
 20
19.57900047302246
 30
65.73699951171875
 70
   192
  0
VERTEX
  5
AC
  8
0
 10
12.00599956512451
 20
24.10899925231934
 30
72.34400177001953
 70
   192
  0
VERTEX
  5
AD
  8
0
 10
17.57600021362305
 20
20.49600028991699
 30
68.83300018310547
 70
   192
  0
VERTEX
  5
AE
  8
0
 10
18.48800086975098
 20
19.67300033569336
 30
66.05699920654297
 70
   192
  0
VERTEX
  5
AF
  8
0
 10
13.49899959564209
 20
23.38400077819824
 30
72.56199645996094
 70
   192
  0
VERTEX
  5
B0
  8
0
 10
16.69300079345703
 20
21.22200012207031
 30
73.11000061035156
 70
   192
  0
VERTEX
  5
B1
  8
0
 10
17.36000061035156
 20
20.67300033569336
 30
69.87799835205078
 70
   192
  0
VERTEX
  5
B2
  8
0
 10
19.95400047302246
 20
18.18899917602539
 30
37.90000152587891
 70
   192
  0
VERTEX
  5
B3
  8
0
 10
24.23999977111816
 20
11.85599994659424
 30
57.54199981689453
 70
   192
  0
VERTEX
  5
B4
  8
0
 10
25.14699935913086
 20
9.831000328063965
 30
56.86600112915039
 70
   192
  0
VERTEX
  5
B5
  8
0
 10
24.08200073242188
 20
12.20800018310547
 30
57.65999984741211
 70
   192
  0
VERTEX
  5
B6
  8
0
 10
22.65800094604492
 20
14.68299961090088
 30
59.07500076293945
 70
   192
  0
VERTEX
  5
B7
  8
0
 10
22.80299949645996
 20
14.43200016021729
 30
58.93099975585938
 70
   192
  0
VERTEX
  5
B8
  8
0
 10
25.17700004577637
 20
9.753000259399414
 30
37.90000152587891
 70
   192
  0
VERTEX
  5
B9
  8
0
 10
21.20199966430664
 20
16.71699905395508
 30
60.9109992980957
 70
   192
  0
VERTEX
  5
BA
  8
0
 10
21.31100082397461
 20
16.56599998474121
 30
60.77399826049805
 70
   192
  0
VERTEX
  5
BB
  8
0
 10
26.73299980163574
 20
3.694999933242798
 30
56.13299942016602
 70
   192
  0
VERTEX
  5
BC
  8
0
 10
26.77099990844727
 20
3.507999897003174
 30
56.11299896240234
 70
   192
  0
VERTEX
  5
BD
  8
0
 10
26.00200080871582
 20
7.27400016784668
 30
56.51100158691406
 70
   192
  0
VERTEX
  5
BE
  8
0
 10
25.17300033569336
 20
9.751999855041504
 30
56.85499954223633
 70
   192
  0
VERTEX
  5
BF
  8
0
 10
27.0
 20
0.0
 30
37.90000152587891
 70
   192
  0
VERTEX
  5
C0
  8
0
 10
26.69799995422363
 20
-4.026000022888184
 30
56.15299987792969
 70
   192
  0
VERTEX
  5
C1
  8
0
 10
26.00200080871582
 20
-7.27400016784668
 30
56.51200103759766
 70
   192
  0
VERTEX
  5
C2
  8
0
 10
26.72500038146973
 20
-3.687000036239624
 30
56.13899993896484
 70
   192
  0
VERTEX
  5
C3
  8
0
 10
26.99900054931641
 20
-0.2010000050067902
 30
55.99100112915039
 70
   192
  0
VERTEX
  5
C4
  8
0
 10
26.98699951171875
 20
-0.0010000000474975
 30
55.99700164794922
 70
   192
  0
VERTEX
  5
C5
  8
0
 10
26.98699951171875
 20
-0.0099999997764826
 30
55.99700164794922
 70
   192
  0
VERTEX
  5
C6
  8
0
 10
1.203999996185303
 20
26.97299957275391
 30
71.13800048828125
 70
   192
  0
VERTEX
  5
C7
  8
0
 10
1.738999962806702
 20
26.94400024414062
 30
37.90000152587891
 70
   192
  0
VERTEX
  5
C8
  8
0
 10
-0.2870000004768372
 20
26.99799919128418
 30
71.02999877929688
 70
   192
  0
VERTEX
  5
C9
  8
0
 10
-6.098999977111816
 20
26.30200004577637
 30
42.8129997253418
 70
   192
  0
VERTEX
  5
CA
  8
0
 10
-4.125
 20
26.6830005645752
 30
70.80999755859375
 70
   192
  0
VERTEX
  5
CB
  8
0
 10
-7.330999851226807
 20
25.81900024414062
 30
43.58499908447266
 70
   192
  0
VERTEX
  5
CC
  8
0
 10
-7.381999969482422
 20
25.94000053405762
 30
70.68900299072266
 70
   192
  0
VERTEX
  5
CD
  8
0
 10
-13.41899967193604
 20
23.42900085449219
 30
47.4010009765625
 70
   192
  0
VERTEX
  5
CE
  8
0
 10
-12.7180004119873
 20
23.8169994354248
 30
70.59100341796875
 70
   192
  0
VERTEX
  5
CF
  8
0
 10
-11.68200016021729
 20
24.27799987792969
 30
70.6050033569336
 70
   192
  0
VERTEX
  5
D0
  8
0
 10
-9.187999725341797
 20
25.38800048828125
 30
70.63899993896484
 70
   192
  0
VERTEX
  5
D1
  8
0
 10
-16.09600067138672
 20
21.32399940490723
 30
49.07899856567383
 70
   192
  0
VERTEX
  5
D2
  8
0
 10
-16.26700019836426
 20
21.54199981689453
 30
70.59700012207031
 70
   192
  0
VERTEX
  5
D3
  8
0
 10
-15.9709997177124
 20
21.77000045776367
 30
70.59400177001953
 70
   192
  0
VERTEX
  5
D4
  8
0
 10
-7.860000133514404
 20
25.83099937438965
 30
70.6709976196289
 70
   192
  0
VERTEX
  5
D5
  8
0
 10
-19.84099960327148
 20
18.3129997253418
 30
70.64800262451172
 70
   192
  0
VERTEX
  5
D6
  8
0
 10
-19.60099983215332
 20
18.56900024414062
 30
51.2760009765625
 70
   192
  0
VERTEX
  5
D7
  8
0
 10
-22.75699996948242
 20
14.07499980926514
 30
53.25400161743164
 70
   192
  0
VERTEX
  5
D8
  8
0
 10
-22.95499992370605
 20
14.21399974822998
 30
70.7239990234375
 70
   192
  0
VERTEX
  5
D9
  8
0
 10
-22.24300003051758
 20
15.30500030517578
 30
70.7040023803711
 70
   192
  0
VERTEX
  5
DA
  8
0
 10
-17.01700019836426
 20
20.96199989318848
 30
70.60399627685547
 70
   192
  0
VERTEX
  5
DB
  8
0
 10
-24.1200008392334
 20
12.13399982452393
 30
54.10800170898438
 70
   192
  0
VERTEX
  5
DC
  8
0
 10
-23.65200042724609
 20
12.88700008392334
 30
70.74500274658203
 70
   192
  0
VERTEX
  5
DD
  8
0
 10
-22.97800064086914
 20
14.17800045013428
 30
70.7239990234375
 70
   192
  0
VERTEX
  5
DE
  8
0
 10
-26.50099945068359
 20
4.948999881744385
 30
55.59999847412109
 70
   192
  0
VERTEX
  5
DF
  8
0
 10
-26.04599952697754
 20
7.114999771118164
 30
70.81999969482422
 70
   192
  0
VERTEX
  5
E0
  8
0
 10
-24.77000045776367
 20
10.74499988555908
 30
70.77799987792969
 70
   192
  0
VERTEX
  5
E1
  8
0
 10
-26.49399948120117
 20
4.954999923706055
 30
70.83599853515625
 70
   192
  0
VERTEX
  5
E2
  8
0
 10
-26.375
 20
5.77400016784668
 30
70.83200073242188
 70
   192
  0
VERTEX
  5
E3
  8
0
 10
-26.5930004119873
 20
4.669000148773193
 30
55.65800094604492
 70
   192
  0
VERTEX
  5
E4
  8
0
 10
-26.81100082397461
 20
-3.191999912261963
 30
55.79499816894531
 70
   192
  0
VERTEX
  5
E5
  8
0
 10
-26.93099975585938
 20
-0.028999999165535
 30
70.85099792480469
 70
   192
  0
VERTEX
  5
E6
  8
0
 10
-26.93000030517578
 20
1.942000031471252
 30
70.85099792480469
 70
   192
  0
VERTEX
  5
E7
  8
0
 10
-26.79999923706055
 20
-3.280999898910522
 30
70.84600067138672
 70
   192
  0
VERTEX
  5
E8
  8
0
 10
-26.9330005645752
 20
-1.904999971389771
 30
70.85099792480469
 70
   192
  0
VERTEX
  5
E9
  8
0
 10
-26.47299957275391
 20
-4.947999954223633
 30
70.83499908447266
 70
   192
  0
VERTEX
  5
EA
  8
0
 10
-24.75399971008301
 20
-10.7819995880127
 30
54.50500106811523
 70
   192
  0
VERTEX
  5
EB
  8
0
 10
-24.78400039672852
 20
-10.71300029754639
 30
70.77899932861328
 70
   192
  0
VERTEX
  5
EC
  8
0
 10
-26.05500030517578
 20
-7.080999851226807
 30
70.82099914550781
 70
   192
  0
VERTEX
  5
ED
  8
0
 10
-26.34600067138672
 20
-4.907999992370605
 30
55.50299835205078
 70
   192
  0
VERTEX
  5
EE
  8
0
 10
-24.20599937438965
 20
-11.96199989318848
 30
70.76100158691406
 70
   192
  0
VERTEX
  5
EF
  8
0
 10
-23.62700080871582
 20
-12.94799995422363
 30
70.74400329589844
 70
   192
  0
VERTEX
  5
F0
  8
0
 10
-22.90299987792969
 20
-14.18200016021729
 30
70.7229995727539
 70
   192
  0
VERTEX
  5
F1
  8
0
 10
-19.8439998626709
 20
-18.30900001525879
 30
70.64800262451172
 70
   192
  0
VERTEX
  5
F2
  8
0
 10
-22.2450008392334
 20
-15.30200004577637
 30
70.70500183105469
 70
   192
  0
VERTEX
  5
F3
  8
0
 10
-22.71199989318848
 20
-14.06099987030029
 30
53.22499847412109
 70
   192
  0
VERTEX
  5
F4
  8
0
 10
-20.59700012207031
 20
-17.45700073242188
 30
51.90000152587891
 70
   192
  0
VERTEX
  5
F5
  8
0
 10
-18.88400077819824
 20
-19.29700088500977
 30
70.63099670410156
 70
   192
  0
VERTEX
  5
F6
  8
0
 10
-16.25399971008301
 20
-21.52599906921387
 30
70.5979995727539
 70
   192
  0
VERTEX
  5
F7
  8
0
 10
-7.382999897003174
 20
-25.94099998474121
 30
70.69000244140625
 70
   192
  0
VERTEX
  5
F8
  8
0
 10
-14.69400024414062
 20
-22.65200042724609
 30
48.19900131225586
 70
   192
  0
VERTEX
  5
F9
  8
0
 10
-7.544000148773193
 20
-25.92499923706055
 30
43.71799850463867
 70
   192
  0
VERTEX
  5
FA
  8
0
 10
-12.68000030517578
 20
-23.83699989318848
 30
70.59200286865234
 70
   192
  0
VERTEX
  5
FB
  8
0
 10
-15.93400001525879
 20
-21.79700088500977
 30
70.59500122070312
 70
   192
  0
VERTEX
  5
FC
  8
0
 10
-16.13199996948242
 20
-21.38599967956543
 30
49.10100173950195
 70
   192
  0
VERTEX
  5
FD
  8
0
 10
-11.43099975585938
 20
-24.46100044250488
 30
70.60299682617188
 70
   192
  0
VERTEX
  5
FE
  8
0
 10
-11.68299961090088
 20
-24.33499908447266
 30
70.60099792480469
 70
   192
  0
VERTEX
  5
FF
  8
0
 10
-7.828999996185303
 20
-25.84000015258789
 30
70.67400360107422
 70
   192
  0
VERTEX
  5
100
  8
0
 10
-4.093999862670898
 20
-26.6879997253418
 30
70.81300354003906
 70
   192
  0
VERTEX
  5
101
  8
0
 10
-7.386000156402588
 20
-25.94700050354004
 30
43.61899948120117
 70
   192
  0
VERTEX
  5
102
  8
0
 10
0.2460000067949295
 20
-26.99900054931641
 30
38.83499908447266
 70
   192
  0
VERTEX
  5
103
  8
0
 10
-2.713000059127808
 20
-26.86300086975098
 30
70.88300323486328
 70
   192
  0
VERTEX
  5
104
  8
0
 10
1.13699996471405
 20
-26.97599983215332
 30
71.13500213623047
 70
   192
  0
VERTEX
  5
105
  8
0
 10
1.73800003528595
 20
-26.94400024414062
 30
37.90000152587891
 70
   192
  0
VERTEX
  5
106
  8
0
 10
2.483999967575073
 20
-26.82299995422363
 30
71.25299835205078
 70
   192
  0
VERTEX
  5
107
  8
0
 62
     9
 10
0.0
 20
0.0
 30
0.0
 70
   128
 71
     3
 72
     2
 73
     1
  0
VERTEX
  5
108
  8
0
 62
     9
 10
0.0
 20
0.0
 30
0.0
 70
   128
 71
     5
 72
     4
 73
     1
  0
VERTEX
  5
109
  8
0
 62
     9
 10
0.0
 20
0.0
 30
0.0
 70
   128
 71
     7
 72
     6
 73
     1
  0
VERTEX
  5
10A
  8
0
 62
     9
 10
0.0
 20
0.0
 30
0.0
 70
   128
 71
     1
 72
     4
 73
     7
  0
VERTEX
  5
10B
  8
0
 62
     9
 10
0.0
 20
0.0
 30
0.0
 70
   128
 71
     1
 72
     2
 73
     5
  0
VERTEX
  5
10C
  8
0
 62
     9
 10
0.0
 20
0.0
 30
0.0
 70
   128
 71
     6
 72
     9
 73
     8
  0
VERTEX
  5
10D
  8
0
 62
     9
 10
0.0
 20
0.0
 30
0.0
 70
   128
 71
     8
 72
     1
 73
     6
  0
VERTEX
  5
10E
  8
0
 62
     9
 10
0.0
 20
0.0
 30
0.0
 70
   128
 71
     1
 72
    10
 73
     3
  0
VERTEX
  5
10F
  8
0
 62
     9
 10
0.0
 20
0.0
 30
0.0
 70
   128
 71
    13
 72
    12
 73
    11
  0
VERTEX
  5
110
  8
0
 62
     9
 10
0.0
 20
0.0
 30
0.0
 70
   128
 71
    11
 72
    14
 73
    13
  0
VERTEX
  5
111
  8
0
 62
     9
 10
0.0
 20
0.0
 30
0.0
 70
   128
 71
    17
 72
    16
 73
    15
  0
VERTEX
  5
112
  8
0
 62
     9
 10
0.0
 20
0.0
 30
0.0
 70
   128
 71
    15
 72
    18
 73
    17
  0
VERTEX
  5
113
  8
0
 62
     9
 10
0.0
 20
0.0
 30
0.0
 70
   128
 71
    15
 72
    11
 73
    18
  0
VERTEX
  5
114
  8
0
 62
     9
 10
0.0
 20
0.0
 30
0.0
 70
   128
 71
    20
 72
    19
 73
    16
  0
VERTEX
  5
115
  8
0
 62
     9
 10
0.0
 20
0.0
 30
0.0
 70
   128
 71
    21
 72
     1
 73
    16
  0
VERTEX
  5
116
  8
0
 62
     9
 10
0.0
 20
0.0
 30
0.0
 70
   128
 71
    16
 72
    22
 73
    21
  0
VERTEX
  5
117
  8
0
 62
     9
 10
0.0
 20
0.0
 30
0.0
 70
   128
 71
    16
 72
    19
 73
    22
  0
VERTEX
  5
118
  8
0
 62
     9
 10
0.0
 20
0.0
 30
0.0
 70
   128
 71
    16
 72
    17
 73
    20
  0
VERTEX
  5
119
  8
0
 62
     9
 10
0.0
 20
0.0
 30
0.0
 70
   128
 71
    24
 72
    23
 73
    16
  0
VERTEX
  5
11A
  8
0
 62
     9
 10
0.0
 20
0.0
 30
0.0
 70
   128
 71
    16
 72
    25
 73
    24
  0
VERTEX
  5
11B
  8
0
 62
     9
 10
0.0
 20
0.0
 30
0.0
 70
   128
 71
    27
 72
    26
 73
    16
  0
VERTEX
  5
11C
  8
0
 62
     9
 10
0.0
 20
0.0
 30
0.0
 70
   128
 71
    16
 72
    23
 73
    27
  0
VERTEX
  5
11D
  8
0
 62
     9
 10
0.0
 20
0.0
 30
0.0
 70
   128
 71
    26
 72
    15
 73
    16
  0
VERTEX
  5
11E
  8
0
 62
     9
 10
0.0
 20
0.0
 30
0.0
 70
   128
 71
    30
 72
    29
 73
    28
  0
VERTEX
  5
11F
  8
0
 62
     9
 10
0.0
 20
0.0
 30
0.0
 70
   128
 71
    29
 72
    31
 73
    28
  0
VERTEX
  5
120
  8
0
 62
     9
 10
0.0
 20
0.0
 30
0.0
 70
   128
 71
    33
 72
    32
 73
    28
  0
VERTEX
  5
121
  8
0
 62
     9
 10
0.0
 20
0.0
 30
0.0
 70
   128
 71
    33
 72
    34
 73
    32
  0
VERTEX
  5
122
  8
0
 62
     9
 10
0.0
 20
0.0
 30
0.0
 70
   128
 71
    28
 72
    31
 73
    33
  0
VERTEX
  5
123
  8
0
 62
     9
 10
0.0
 20
0.0
 30
0.0
 70
   128
 71
    36
 72
    35
 73
    28
  0
VERTEX
  5
124
  8
0
 62
     9
 10
0.0
 20
0.0
 30
0.0
 70
   128
 71
    35
 72
    37
 73
    28
  0
VERTEX
  5
125
  8
0
 62
     9
 10
0.0
 20
0.0
 30
0.0
 70
   128
 71
    37
 72
    38
 73
    28
  0
VERTEX
  5
126
  8
0
 62
     9
 10
0.0
 20
0.0
 30
0.0
 70
   128
 71
    40
 72
    39
 73
    28
  0
VERTEX
  5
127
  8
0
 62
     9
 10
0.0
 20
0.0
 30
0.0
 70
   128
 71
    28
 72
    41
 73
    40
  0
VERTEX
  5
128
  8
0
 62
     9
 10
0.0
 20
0.0
 30
0.0
 70
   128
 71
    44
 72
    43
 73
    42
  0
VERTEX
  5
129
  8
0
 62
     9
 10
0.0
 20
0.0
 30
0.0
 70
   128
 71
    42
 72
    39
 73
    40
  0
VERTEX
  5
12A
  8
0
 62
     9
 10
0.0
 20
0.0
 30
0.0
 70
   128
 71
    42
 72
    40
 73
    44
  0
VERTEX
  5
12B
  8
0
 62
     9
 10
0.0
 20
0.0
 30
0.0
 70
   128
 71
    28
 72
    38
 73
    41
  0
VERTEX
  5
12C
  8
0
 62
     9
 10
0.0
 20
0.0
 30
0.0
 70
   128
 71
    47
 72
    46
 73
    45
  0
VERTEX
  5
12D
  8
0
 62
     9
 10
0.0
 20
0.0
 30
0.0
 70
   128
 71
    46
 72
    48
 73
    45
  0
VERTEX
  5
12E
  8
0
 62
     9
 10
0.0
 20
0.0
 30
0.0
 70
   128
 71
    50
 72
    49
 73
    45
  0
VERTEX
  5
12F
  8
0
 62
     9
 10
0.0
 20
0.0
 30
0.0
 70
   128
 71
    45
 72
    48
 73
    50
  0
VERTEX
  5
130
  8
0
 62
     9
 10
0.0
 20
0.0
 30
0.0
 70
   128
 71
    45
 72
    51
 73
    47
  0
VERTEX
  5
131
  8
0
 62
     9
 10
0.0
 20
0.0
 30
0.0
 70
   128
 71
    53
 72
    52
 73
    45
  0
VERTEX
  5
132
  8
0
 62
     9
 10
0.0
 20
0.0
 30
0.0
 70
   128
 71
    45
 72
    49
 73
    53
  0
VERTEX
  5
133
  8
0
 62
     9
 10
0.0
 20
0.0
 30
0.0
 70
   128
 71
    52
 72
    36
 73
    45
  0
VERTEX
  5
134
  8
0
 62
     9
 10
0.0
 20
0.0
 30
0.0
 70
   128
 71
    55
 72
    54
 73
    51
  0
VERTEX
  5
135
  8
0
 62
     9
 10
0.0
 20
0.0
 30
0.0
 70
   128
 71
    54
 72
    56
 73
    51
  0
VERTEX
  5
136
  8
0
 62
     9
 10
0.0
 20
0.0
 30
0.0
 70
   128
 71
    56
 72
    57
 73
    51
  0
VERTEX
  5
137
  8
0
 62
     9
 10
0.0
 20
0.0
 30
0.0
 70
   128
 71
    51
 72
    58
 73
    55
  0
VERTEX
  5
138
  8
0
 62
     9
 10
0.0
 20
0.0
 30
0.0
 70
   128
 71
    60
 72
    59
 73
     8
  0
VERTEX
  5
139
  8
0
 62
     9
 10
0.0
 20
0.0
 30
0.0
 70
   128
 71
    59
 72
    61
 73
    58
  0
VERTEX
  5
13A
  8
0
 62
     9
 10
0.0
 20
0.0
 30
0.0
 70
   128
 71
    61
 72
    62
 73
    58
  0
VERTEX
  5
13B
  8
0
 62
     9
 10
0.0
 20
0.0
 30
0.0
 70
   128
 71
    58
 72
     8
 73
    59
  0
VERTEX
  5
13C
  8
0
 62
     9
 10
0.0
 20
0.0
 30
0.0
 70
   128
 71
    64
 72
    63
 73
    58
  0
VERTEX
  5
13D
  8
0
 62
     9
 10
0.0
 20
0.0
 30
0.0
 70
   128
 71
    58
 72
    62
 73
    64
  0
VERTEX
  5
13E
  8
0
 62
     9
 10
0.0
 20
0.0
 30
0.0
 70
   128
 71
    66
 72
    32
 73
    65
  0
VERTEX
  5
13F
  8
0
 62
     9
 10
0.0
 20
0.0
 30
0.0
 70
   128
 71
    68
 72
    66
 73
    67
  0
VERTEX
  5
140
  8
0
 62
     9
 10
0.0
 20
0.0
 30
0.0
 70
   128
 71
    67
 72
    69
 73
    68
  0
VERTEX
  5
141
  8
0
 62
     9
 10
0.0
 20
0.0
 30
0.0
 70
   128
 71
    65
 72
    67
 73
    66
  0
VERTEX
  5
142
  8
0
 62
     9
 10
0.0
 20
0.0
 30
0.0
 70
   128
 71
    70
 72
    68
 73
    69
  0
VERTEX
  5
143
  8
0
 62
     9
 10
0.0
 20
0.0
 30
0.0
 70
   128
 71
    69
 72
    71
 73
    70
  0
VERTEX
  5
144
  8
0
 62
     9
 10
0.0
 20
0.0
 30
0.0
 70
   128
 71
    74
 72
    73
 73
    72
  0
VERTEX
  5
145
  8
0
 62
     9
 10
0.0
 20
0.0
 30
0.0
 70
   128
 71
    72
 72
    75
 73
    74
  0
VERTEX
  5
146
  8
0
 62
     9
 10
0.0
 20
0.0
 30
0.0
 70
   128
 71
    76
 72
    72
 73
    73
  0
VERTEX
  5
147
  8
0
 62
     9
 10
0.0
 20
0.0
 30
0.0
 70
   128
 71
    78
 72
    77
 73
    76
  0
VERTEX
  5
148
  8
0
 62
     9
 10
0.0
 20
0.0
 30
0.0
 70
   128
 71
    73
 72
    78
 73
    76
  0
VERTEX
  5
149
  8
0
 62
     9
 10
0.0
 20
0.0
 30
0.0
 70
   128
 71
    72
 72
    79
 73
    75
  0
VERTEX
  5
14A
  8
0
 62
     9
 10
0.0
 20
0.0
 30
0.0
 70
   128
 71
    72
 72
    70
 73
    71
  0
VERTEX
  5
14B
  8
0
 62
     9
 10
0.0
 20
0.0
 30
0.0
 70
   128
 71
    82
 72
    81
 73
    80
  0
VERTEX
  5
14C
  8
0
 62
     9
 10
0.0
 20
0.0
 30
0.0
 70
   128
 71
    84
 72
    83
 73
    82
  0
VERTEX
  5
14D
  8
0
 62
     9
 10
0.0
 20
0.0
 30
0.0
 70
   128
 71
    80
 72
    84
 73
    82
  0
VERTEX
  5
14E
  8
0
 62
     9
 10
0.0
 20
0.0
 30
0.0
 70
   128
 71
    81
 72
    85
 73
    80
  0
VERTEX
  5
14F
  8
0
 62
     9
 10
0.0
 20
0.0
 30
0.0
 70
   128
 71
    81
 72
    76
 73
    77
  0
VERTEX
  5
150
  8
0
 62
     9
 10
0.0
 20
0.0
 30
0.0
 70
   128
 71
    88
 72
    87
 73
    86
  0
VERTEX
  5
151
  8
0
 62
     9
 10
0.0
 20
0.0
 30
0.0
 70
   128
 71
    90
 72
    89
 73
    86
  0
VERTEX
  5
152
  8
0
 62
     9
 10
0.0
 20
0.0
 30
0.0
 70
   128
 71
    86
 72
    91
 73
    90
  0
VERTEX
  5
153
  8
0
 62
     9
 10
0.0
 20
0.0
 30
0.0
 70
   128
 71
    93
 72
    92
 73
    89
  0
VERTEX
  5
154
  8
0
 62
     9
 10
0.0
 20
0.0
 30
0.0
 70
   128
 71
    89
 72
    90
 73
    93
  0
VERTEX
  5
155
  8
0
 62
     9
 10
0.0
 20
0.0
 30
0.0
 70
   128
 71
    86
 72
    87
 73
    91
  0
VERTEX
  5
156
  8
0
 62
     9
 10
0.0
 20
0.0
 30
0.0
 70
   128
 71
    86
 72
    82
 73
    83
  0
VERTEX
  5
157
  8
0
 62
     9
 10
0.0
 20
0.0
 30
0.0
 70
   128
 71
    96
 72
    95
 73
    94
  0
VERTEX
  5
158
  8
0
 62
     9
 10
0.0
 20
0.0
 30
0.0
 70
   128
 71
    94
 72
    97
 73
    96
  0
VERTEX
  5
159
  8
0
 62
     9
 10
0.0
 20
0.0
 30
0.0
 70
   128
 71
    99
 72
    98
 73
    95
  0
VERTEX
  5
15A
  8
0
 62
     9
 10
0.0
 20
0.0
 30
0.0
 70
   128
 71
    98
 72
   100
 73
    95
  0
VERTEX
  5
15B
  8
0
 62
     9
 10
0.0
 20
0.0
 30
0.0
 70
   128
 71
    95
 72
    96
 73
    99
  0
VERTEX
  5
15C
  8
0
 62
     9
 10
0.0
 20
0.0
 30
0.0
 70
   128
 71
    94
 72
    92
 73
    97
  0
VERTEX
  5
15D
  8
0
 62
     9
 10
0.0
 20
0.0
 30
0.0
 70
   128
 71
    94
 72
    89
 73
    92
  0
VERTEX
  5
15E
  8
0
 62
     9
 10
0.0
 20
0.0
 30
0.0
 70
   128
 71
   103
 72
   102
 73
   101
  0
VERTEX
  5
15F
  8
0
 62
     9
 10
0.0
 20
0.0
 30
0.0
 70
   128
 71
   101
 72
   104
 73
   103
  0
VERTEX
  5
160
  8
0
 62
     9
 10
0.0
 20
0.0
 30
0.0
 70
   128
 71
   102
 72
   105
 73
   101
  0
VERTEX
  5
161
  8
0
 62
     9
 10
0.0
 20
0.0
 30
0.0
 70
   128
 71
   105
 72
   106
 73
   101
  0
VERTEX
  5
162
  8
0
 62
     9
 10
0.0
 20
0.0
 30
0.0
 70
   128
 71
   106
 72
   107
 73
   101
  0
VERTEX
  5
163
  8
0
 62
     9
 10
0.0
 20
0.0
 30
0.0
 70
   128
 71
   104
 72
   100
 73
   103
  0
VERTEX
  5
164
  8
0
 62
     9
 10
0.0
 20
0.0
 30
0.0
 70
   128
 71
   110
 72
   109
 73
   108
  0
VERTEX
  5
165
  8
0
 62
     9
 10
0.0
 20
0.0
 30
0.0
 70
   128
 71
   108
 72
   111
 73
   110
  0
VERTEX
  5
166
  8
0
 62
     9
 10
0.0
 20
0.0
 30
0.0
 70
   128
 71
   108
 72
   112
 73
   111
  0
VERTEX
  5
167
  8
0
 62
     9
 10
0.0
 20
0.0
 30
0.0
 70
   128
 71
   112
 72
   113
 73
   111
  0
VERTEX
  5
168
  8
0
 62
     9
 10
0.0
 20
0.0
 30
0.0
 70
   128
 71
   110
 72
   107
 73
   109
  0
VERTEX
  5
169
  8
0
 62
     9
 10
0.0
 20
0.0
 30
0.0
 70
   128
 71
   116
 72
   115
 73
   114
  0
VERTEX
  5
16A
  8
0
 62
     9
 10
0.0
 20
0.0
 30
0.0
 70
   128
 71
   119
 72
   118
 73
   117
  0
VERTEX
  5
16B
  8
0
 62
     9
 10
0.0
 20
0.0
 30
0.0
 70
   128
 71
   121
 72
   120
 73
   115
  0
VERTEX
  5
16C
  8
0
 62
     9
 10
0.0
 20
0.0
 30
0.0
 70
   128
 71
   115
 72
   117
 73
   121
  0
VERTEX
  5
16D
  8
0
 62
     9
 10
0.0
 20
0.0
 30
0.0
 70
   128
 71
   117
 72
   115
 73
   119
  0
VERTEX
  5
16E
  8
0
 62
     9
 10
0.0
 20
0.0
 30
0.0
 70
   128
 71
   120
 72
   122
 73
   115
  0
VERTEX
  5
16F
  8
0
 62
     9
 10
0.0
 20
0.0
 30
0.0
 70
   128
 71
   122
 72
   114
 73
   115
  0
VERTEX
  5
170
  8
0
 62
     9
 10
0.0
 20
0.0
 30
0.0
 70
   128
 71
   119
 72
   113
 73
   118
  0
VERTEX
  5
171
  8
0
 62
     9
 10
0.0
 20
0.0
 30
0.0
 70
   128
 71
   124
 72
   114
 73
   123
  0
VERTEX
  5
172
  8
0
 62
     9
 10
0.0
 20
0.0
 30
0.0
 70
   128
 71
   123
 72
   126
 73
   125
  0
VERTEX
  5
173
  8
0
 62
     9
 10
0.0
 20
0.0
 30
0.0
 70
   128
 71
   125
 72
   126
 73
   127
  0
VERTEX
  5
174
  8
0
 62
     9
 10
0.0
 20
0.0
 30
0.0
 70
   128
 71
   127
 72
   128
 73
   125
  0
VERTEX
  5
175
  8
0
 62
     9
 10
0.0
 20
0.0
 30
0.0
 70
   128
 71
   127
 72
    25
 73
   128
  0
VERTEX
  5
176
  8
0
 62
     9
 10
0.0
 20
0.0
 30
0.0
 70
   128
 71
   127
 72
   129
 73
    25
  0
VERTEX
  5
177
  8
0
 62
     9
 10
0.0
 20
0.0
 30
0.0
 70
   128
 71
   123
 72
   125
 73
   124
  0
VERTEX
  5
178
  8
0
 62
     9
 10
0.0
 20
0.0
 30
0.0
 70
   128
 71
   114
 72
   124
 73
   116
  0
VERTEX
  5
179
  8
0
 62
     9
 10
0.0
 20
0.0
 30
0.0
 70
   128
 71
   113
 72
   119
 73
   111
  0
VERTEX
  5
17A
  8
0
 62
     9
 10
0.0
 20
0.0
 30
0.0
 70
   128
 71
   107
 72
   110
 73
   101
  0
VERTEX
  5
17B
  8
0
 62
     9
 10
0.0
 20
0.0
 30
0.0
 70
   128
 71
   100
 72
   104
 73
    95
  0
VERTEX
  5
17C
  8
0
 62
     9
 10
0.0
 20
0.0
 30
0.0
 70
   128
 71
    86
 72
    83
 73
    88
  0
VERTEX
  5
17D
  8
0
 62
     9
 10
0.0
 20
0.0
 30
0.0
 70
   128
 71
    81
 72
    77
 73
    85
  0
VERTEX
  5
17E
  8
0
 62
     9
 10
0.0
 20
0.0
 30
0.0
 70
   128
 71
    72
 72
    71
 73
    79
  0
VERTEX
  5
17F
  8
0
 62
     9
 10
0.0
 20
0.0
 30
0.0
 70
   128
 71
    32
 72
    34
 73
    65
  0
VERTEX
  5
180
  8
0
 62
     9
 10
0.0
 20
0.0
 30
0.0
 70
   128
 71
     8
 72
     9
 73
    60
  0
VERTEX
  5
181
  8
0
 62
     9
 10
0.0
 20
0.0
 30
0.0
 70
   128
 71
    58
 72
    63
 73
    55
  0
VERTEX
  5
182
  8
0
 62
     9
 10
0.0
 20
0.0
 30
0.0
 70
   128
 71
    51
 72
    57
 73
    47
  0
VERTEX
  5
183
  8
0
 62
     9
 10
0.0
 20
0.0
 30
0.0
 70
   128
 71
    28
 72
    45
 73
    36
  0
VERTEX
  5
184
  8
0
 62
     9
 10
0.0
 20
0.0
 30
0.0
 70
   128
 71
    28
 72
    39
 73
    30
  0
VERTEX
  5
185
  8
0
 62
     9
 10
0.0
 20
0.0
 30
0.0
 70
   128
 71
    25
 72
   129
 73
    24
  0
VERTEX
  5
186
  8
0
 62
     9
 10
0.0
 20
0.0
 30
0.0
 70
   128
 71
    11
 72
    15
 73
    14
  0
VERTEX
  5
187
  8
0
 62
     9
 10
0.0
 20
0.0
 30
0.0
 70
   128
 71
     1
 72
    21
 73
    10
  0
SEQEND
  5
188
  8
0
 62
     9
  0
ENDBLK
  5
18B
  8
0
  0
BLOCK
  8
0
  2
E3_NODE_3_
 70
     0
 10
0.0
 20
0.0
 30
0.0
  3
E3_NODE_3_
  1

  0
POLYLINE
  5
18D
  8
0
 62
     9
 66
     1
 10
0.0
 20
0.0
 30
0.0
 70
    64
 71
    64
 72
    78
  0
VERTEX
  5
18E
  8
0
 10
24.23800086975098
 20
-13.14500045776367
 30
61.79999923706055
 70
   192
  0
VERTEX
  5
18F
  8
0
 10
26.52000045776367
 20
-12.49400043487549
 30
64.56400299072266
 70
   192
  0
VERTEX
  5
190
  8
0
 10
25.39100074768066
 20
-14.23600006103516
 30
65.73200225830078
 70
   192
  0
VERTEX
  5
191
  8
0
 10
30.5669994354248
 20
-10.88000011444092
 30
66.05999755859375
 70
   192
  0
VERTEX
  5
192
  8
0
 10
32.72800064086914
 20
-13.15299987792969
 30
68.01100158691406
 70
   192
  0
VERTEX
  5
193
  8
0
 10
31.69000053405762
 20
-14.19099998474121
 30
68.9260025024414
 70
   192
  0
VERTEX
  5
194
  8
0
 10
33.74900054931641
 20
-11.82900047302246
 30
67.31999969482422
 70
   192
  0
VERTEX
  5
195
  8
0
 10
28.21500015258789
 20
-14.11699962615967
 30
67.8219985961914
 70
   192
  0
VERTEX
  5
196
  8
0
 10
27.58799934387207
 20
-10.51099967956543
 30
63.7760009765625
 70
   192
  0
VERTEX
  5
197
  8
0
 10
25.38400077819824
 20
-10.87800025939941
 30
60.73799896240234
 70
   192
  0
VERTEX
  5
198
  8
0
 10
27.64800071716309
 20
-7.184999942779541
 30
61.85200119018555
 70
   192
  0
VERTEX
  5
199
  8
0
 10
28.90500068664551
 20
-7.375999927520752
 30
63.40800094604492
 70
   192
  0
VERTEX
  5
19A
  8
0
 10
26.78400039672852
 20
-7.125
 30
60.08399963378906
 70
   192
  0
VERTEX
  5
19B
  8
0
 10
23.01799964904785
 20
-15.0959997177124
 30
63.2859992980957
 70
   192
  0
VERTEX
  5
19C
  8
0
 10
21.31800079345703
 20
-16.5310001373291
 30
60.79600143432617
 70
   192
  0
VERTEX
  5
19D
  8
0
 10
22.375
 20
-15.11200046539307
 30
59.39699935913086
 70
   192
  0
VERTEX
  5
19E
  8
0
 10
22.80500030517578
 20
-14.40200042724609
 30
58.94599914550781
 70
   192
  0
VERTEX
  5
19F
  8
0
 10
23.75
 20
-12.8430004119873
 30
57.95500183105469
 70
   192
  0
VERTEX
  5
1A0
  8
0
 10
31.05400085449219
 20
-7.798999786376953
 30
65.13400268554688
 70
   192
  0
VERTEX
  5
1A1
  8
0
 10
32.11000061035156
 20
-8.04699993133545
 30
65.59700012207031
 70
   192
  0
VERTEX
  5
1A2
  8
0
 10
29.05100059509277
 20
-7.39799976348877
 30
63.5890007019043
 70
   192
  0
VERTEX
  5
1A3
  8
0
 10
26.02499961853027
 20
-16.35400009155273
 30
70.65899658203125
 70
   192
  0
VERTEX
  5
1A4
  8
0
 10
29.48299980163574
 20
-16.00399971008301
 30
71.16100311279297
 70
   192
  0
VERTEX
  5
1A5
  8
0
 10
29.36599922180176
 20
-16.07600021362305
 30
71.33599853515625
 70
   192
  0
VERTEX
  5
1A6
  8
0
 10
31.05200004577637
 20
-14.82900047302246
 30
69.48899841308594
 70
   192
  0
VERTEX
  5
1A7
  8
0
 10
31.17900085449219
 20
-14.70199966430664
 30
69.37699890136719
 70
   192
  0
VERTEX
  5
1A8
  8
0
 10
25.21500015258789
 20
-17.07399940490723
 30
72.58799743652344
 70
   192
  0
VERTEX
  5
1A9
  8
0
 10
28.3439998626709
 20
-16.69799995422363
 30
72.8550033569336
 70
   192
  0
VERTEX
  5
1AA
  8
0
 10
28.95199966430664
 20
-16.32799911499023
 30
71.95099639892578
 70
   192
  0
VERTEX
  5
1AB
  8
0
 10
23.2140007019043
 20
-16.92499923706055
 30
69.2040023803711
 70
   192
  0
VERTEX
  5
1AC
  8
0
 10
24.24799919128418
 20
-15.73400020599365
 30
67.28900146484375
 70
   192
  0
VERTEX
  5
1AD
  8
0
 10
21.78300094604492
 20
-16.75200080871582
 30
65.23300170898438
 70
   192
  0
VERTEX
  5
1AE
  8
0
 10
20.65200042724609
 20
-18.0629997253418
 30
67.625
 70
   192
  0
VERTEX
  5
1AF
  8
0
 10
22.36000061035156
 20
-17.82399940490723
 30
71.71600341796875
 70
   192
  0
VERTEX
  5
1B0
  8
0
 10
18.50799942016602
 20
-19.64299964904785
 30
66.0469970703125
 70
   192
  0
VERTEX
  5
1B1
  8
0
 10
19.44799995422363
 20
-18.72900009155273
 30
63.84000015258789
 70
   192
  0
VERTEX
  5
1B2
  8
0
 10
19.69499969482422
 20
-19.05500030517578
 30
70.79000091552734
 70
   192
  0
VERTEX
  5
1B3
  8
0
 10
17.33399963378906
 20
-20.70000076293945
 30
69.85299682617188
 70
   192
  0
VERTEX
  5
1B4
  8
0
 10
18.1879997253418
 20
-19.95400047302246
 30
66.7969970703125
 70
   192
  0
VERTEX
  5
1B5
  8
0
 10
19.9379997253418
 20
-18.17700004577637
 30
62.99700164794922
 70
   192
  0
VERTEX
  5
1B6
  8
0
 10
20.88400077819824
 20
-17.11300086975098
 30
61.36999893188477
 70
   192
  0
VERTEX
  5
1B7
  8
0
 10
19.8430004119873
 20
-18.28400039672852
 30
63.1609992980957
 70
   192
  0
VERTEX
  5
1B8
  8
0
 10
28.18899917602539
 20
-16.80699920654297
 30
73.38899993896484
 70
   192
  0
VERTEX
  5
1B9
  8
0
 10
28.00600051879883
 20
-16.93600082397461
 30
74.02200317382812
 70
   192
  0
VERTEX
  5
1BA
  8
0
 10
25.60400009155273
 20
-17.20400047302246
 30
73.98600006103516
 70
   192
  0
VERTEX
  5
1BB
  8
0
 10
25.0319995880127
 20
-17.35400009155273
 30
73.95700073242188
 70
   192
  0
VERTEX
  5
1BC
  8
0
 10
22.49300003051758
 20
-18.02000045776367
 30
73.82599639892578
 70
   192
  0
VERTEX
  5
1BD
  8
0
 10
20.42200088500977
 20
-18.95100021362305
 30
73.625
 70
   192
  0
VERTEX
  5
1BE
  8
0
 10
19.48900032043457
 20
-19.3700008392334
 30
73.53500366210938
 70
   192
  0
VERTEX
  5
1BF
  8
0
 10
22.09099960327148
 20
-18.20000076293945
 30
73.78700256347656
 70
   192
  0
VERTEX
  5
1C0
  8
0
 10
17.29999923706055
 20
-20.72900009155273
 30
69.9749984741211
 70
   192
  0
VERTEX
  5
1C1
  8
0
 10
19.2810001373291
 20
-19.50799942016602
 30
73.50299835205078
 70
   192
  0
VERTEX
  5
1C2
  8
0
 10
16.6919994354248
 20
-21.22200012207031
 30
73.11100006103516
 70
   192
  0
VERTEX
  5
1C3
  8
0
 10
26.58799934387207
 20
-7.111999988555908
 30
59.68299865722656
 70
   192
  0
VERTEX
  5
1C4
  8
0
 10
24.23299980163574
 20
-11.82900047302246
 30
57.56399917602539
 70
   192
  0
VERTEX
  5
1C5
  8
0
 10
26.0629997253418
 20
-7.199999809265137
 30
57.39699935913086
 70
   192
  0
VERTEX
  5
1C6
  8
0
 10
24.94000053405762
 20
-10.3439998626709
 30
56.99100112915039
 70
   192
  0
VERTEX
  5
1C7
  8
0
 10
25.14800071716309
 20
-9.744000434875488
 30
56.89699935913086
 70
   192
  0
VERTEX
  5
1C8
  8
0
 10
26.00200080871582
 20
-7.27400016784668
 30
56.51200103759766
 70
   192
  0
VERTEX
  5
1C9
  8
0
 10
34.22299957275391
 20
-11.21399974822998
 30
66.9990005493164
 70
   192
  0
VERTEX
  5
1CA
  8
0
 10
33.15000152587891
 20
-8.291000366210938
 30
66.0530014038086
 70
   192
  0
VERTEX
  5
1CB
  8
0
 10
35.43199920654297
 20
-9.118000030517578
 30
66.47899627685547
 70
   192
  0
VERTEX
  5
1CC
  8
0
 10
33.87799835205078
 20
-11.66199970245361
 30
67.23200225830078
 70
   192
  0
VERTEX
  5
1CD
  8
0
 10
35.55599975585938
 20
-8.923999786376953
 30
66.45700073242188
 70
   192
  0
VERTEX
  5
1CE
  8
0
 62
     9
 10
0.0
 20
0.0
 30
0.0
 70
   128
 71
     3
 72
     2
 73
     1
  0
VERTEX
  5
1CF
  8
0
 62
     9
 10
0.0
 20
0.0
 30
0.0
 70
   128
 71
     6
 72
     5
 73
     4
  0
VERTEX
  5
1D0
  8
0
 62
     9
 10
0.0
 20
0.0
 30
0.0
 70
   128
 71
     5
 72
     7
 73
     4
  0
VERTEX
  5
1D1
  8
0
 62
     9
 10
0.0
 20
0.0
 30
0.0
 70
   128
 71
     4
 72
     8
 73
     6
  0
VERTEX
  5
1D2
  8
0
 62
     9
 10
0.0
 20
0.0
 30
0.0
 70
   128
 71
    11
 72
    10
 73
     9
  0
VERTEX
  5
1D3
  8
0
 62
     9
 10
0.0
 20
0.0
 30
0.0
 70
   128
 71
     9
 72
    12
 73
    11
  0
VERTEX
  5
1D4
  8
0
 62
     9
 10
0.0
 20
0.0
 30
0.0
 70
   128
 71
    11
 72
    13
 73
    10
  0
VERTEX
  5
1D5
  8
0
 62
     9
 10
0.0
 20
0.0
 30
0.0
 70
   128
 71
    16
 72
    15
 73
    14
  0
VERTEX
  5
1D6
  8
0
 62
     9
 10
0.0
 20
0.0
 30
0.0
 70
   128
 71
    14
 72
     1
 73
    16
  0
VERTEX
  5
1D7
  8
0
 62
     9
 10
0.0
 20
0.0
 30
0.0
 70
   128
 71
     2
 72
     9
 73
    10
  0
VERTEX
  5
1D8
  8
0
 62
     9
 10
0.0
 20
0.0
 30
0.0
 70
   128
 71
    18
 72
    17
 73
     1
  0
VERTEX
  5
1D9
  8
0
 62
     9
 10
0.0
 20
0.0
 30
0.0
 70
   128
 71
     1
 72
    10
 73
    18
  0
VERTEX
  5
1DA
  8
0
 62
     9
 10
0.0
 20
0.0
 30
0.0
 70
   128
 71
     2
 72
     8
 73
     4
  0
VERTEX
  5
1DB
  8
0
 62
     9
 10
0.0
 20
0.0
 30
0.0
 70
   128
 71
     2
 72
     3
 73
     8
  0
VERTEX
  5
1DC
  8
0
 62
     9
 10
0.0
 20
0.0
 30
0.0
 70
   128
 71
    20
 72
    19
 73
     4
  0
VERTEX
  5
1DD
  8
0
 62
     9
 10
0.0
 20
0.0
 30
0.0
 70
   128
 71
    19
 72
    21
 73
     9
  0
VERTEX
  5
1DE
  8
0
 62
     9
 10
0.0
 20
0.0
 30
0.0
 70
   128
 71
    21
 72
    12
 73
     9
  0
VERTEX
  5
1DF
  8
0
 62
     9
 10
0.0
 20
0.0
 30
0.0
 70
   128
 71
     9
 72
     4
 73
    19
  0
VERTEX
  5
1E0
  8
0
 62
     9
 10
0.0
 20
0.0
 30
0.0
 70
   128
 71
    24
 72
    23
 73
    22
  0
VERTEX
  5
1E1
  8
0
 62
     9
 10
0.0
 20
0.0
 30
0.0
 70
   128
 71
    23
 72
    25
 73
     8
  0
VERTEX
  5
1E2
  8
0
 62
     9
 10
0.0
 20
0.0
 30
0.0
 70
   128
 71
    25
 72
    26
 73
     8
  0
VERTEX
  5
1E3
  8
0
 62
     9
 10
0.0
 20
0.0
 30
0.0
 70
   128
 71
     8
 72
    22
 73
    23
  0
VERTEX
  5
1E4
  8
0
 62
     9
 10
0.0
 20
0.0
 30
0.0
 70
   128
 71
    28
 72
    22
 73
    27
  0
VERTEX
  5
1E5
  8
0
 62
     9
 10
0.0
 20
0.0
 30
0.0
 70
   128
 71
    28
 72
    29
 73
    22
  0
VERTEX
  5
1E6
  8
0
 62
     9
 10
0.0
 20
0.0
 30
0.0
 70
   128
 71
    27
 72
    22
 73
    30
  0
VERTEX
  5
1E7
  8
0
 62
     9
 10
0.0
 20
0.0
 30
0.0
 70
   128
 71
    31
 72
    22
 73
     8
  0
VERTEX
  5
1E8
  8
0
 62
     9
 10
0.0
 20
0.0
 30
0.0
 70
   128
 71
    31
 72
    30
 73
    22
  0
VERTEX
  5
1E9
  8
0
 62
     9
 10
0.0
 20
0.0
 30
0.0
 70
   128
 71
    30
 72
    31
 73
    32
  0
VERTEX
  5
1EA
  8
0
 62
     9
 10
0.0
 20
0.0
 30
0.0
 70
   128
 71
    34
 72
    30
 73
    33
  0
VERTEX
  5
1EB
  8
0
 62
     9
 10
0.0
 20
0.0
 30
0.0
 70
   128
 71
    31
 72
     3
 73
    14
  0
VERTEX
  5
1EC
  8
0
 62
     9
 10
0.0
 20
0.0
 30
0.0
 70
   128
 71
    36
 72
    35
 73
    33
  0
VERTEX
  5
1ED
  8
0
 62
     9
 10
0.0
 20
0.0
 30
0.0
 70
   128
 71
    33
 72
    32
 73
    36
  0
VERTEX
  5
1EE
  8
0
 62
     9
 10
0.0
 20
0.0
 30
0.0
 70
   128
 71
    39
 72
    38
 73
    37
  0
VERTEX
  5
1EF
  8
0
 62
     9
 10
0.0
 20
0.0
 30
0.0
 70
   128
 71
    37
 72
    33
 73
    39
  0
VERTEX
  5
1F0
  8
0
 62
     9
 10
0.0
 20
0.0
 30
0.0
 70
   128
 71
    41
 72
    40
 73
    32
  0
VERTEX
  5
1F1
  8
0
 62
     9
 10
0.0
 20
0.0
 30
0.0
 70
   128
 71
    32
 72
    14
 73
    41
  0
VERTEX
  5
1F2
  8
0
 62
     9
 10
0.0
 20
0.0
 30
0.0
 70
   128
 71
    40
 72
    42
 73
    32
  0
VERTEX
  5
1F3
  8
0
 62
     9
 10
0.0
 20
0.0
 30
0.0
 70
   128
 71
    44
 72
    43
 73
    27
  0
VERTEX
  5
1F4
  8
0
 62
     9
 10
0.0
 20
0.0
 30
0.0
 70
   128
 71
    27
 72
    45
 73
    44
  0
VERTEX
  5
1F5
  8
0
 62
     9
 10
0.0
 20
0.0
 30
0.0
 70
   128
 71
    46
 72
    27
 73
    34
  0
VERTEX
  5
1F6
  8
0
 62
     9
 10
0.0
 20
0.0
 30
0.0
 70
   128
 71
    34
 72
    47
 73
    46
  0
VERTEX
  5
1F7
  8
0
 62
     9
 10
0.0
 20
0.0
 30
0.0
 70
   128
 71
    49
 72
    48
 73
    37
  0
VERTEX
  5
1F8
  8
0
 62
     9
 10
0.0
 20
0.0
 30
0.0
 70
   128
 71
    48
 72
    50
 73
    34
  0
VERTEX
  5
1F9
  8
0
 62
     9
 10
0.0
 20
0.0
 30
0.0
 70
   128
 71
    34
 72
    37
 73
    48
  0
VERTEX
  5
1FA
  8
0
 62
     9
 10
0.0
 20
0.0
 30
0.0
 70
   128
 71
    52
 72
    37
 73
    51
  0
VERTEX
  5
1FB
  8
0
 62
     9
 10
0.0
 20
0.0
 30
0.0
 70
   128
 71
    51
 72
    53
 73
    52
  0
VERTEX
  5
1FC
  8
0
 62
     9
 10
0.0
 20
0.0
 30
0.0
 70
   128
 71
    13
 72
    54
 73
    10
  0
VERTEX
  5
1FD
  8
0
 62
     9
 10
0.0
 20
0.0
 30
0.0
 70
   128
 71
    54
 72
    56
 73
    55
  0
VERTEX
  5
1FE
  8
0
 62
     9
 10
0.0
 20
0.0
 30
0.0
 70
   128
 71
    57
 72
    55
 73
    56
  0
VERTEX
  5
1FF
  8
0
 62
     9
 10
0.0
 20
0.0
 30
0.0
 70
   128
 71
    56
 72
    58
 73
    57
  0
VERTEX
  5
200
  8
0
 62
     9
 10
0.0
 20
0.0
 30
0.0
 70
   128
 71
    56
 72
    59
 73
    58
  0
VERTEX
  5
201
  8
0
 62
     9
 10
0.0
 20
0.0
 30
0.0
 70
   128
 71
    55
 72
    10
 73
    54
  0
VERTEX
  5
202
  8
0
 62
     9
 10
0.0
 20
0.0
 30
0.0
 70
   128
 71
    61
 72
     4
 73
    60
  0
VERTEX
  5
203
  8
0
 62
     9
 10
0.0
 20
0.0
 30
0.0
 70
   128
 71
    60
 72
    62
 73
    61
  0
VERTEX
  5
204
  8
0
 62
     9
 10
0.0
 20
0.0
 30
0.0
 70
   128
 71
    61
 72
    20
 73
     4
  0
VERTEX
  5
205
  8
0
 62
     9
 10
0.0
 20
0.0
 30
0.0
 70
   128
 71
     4
 72
    63
 73
    60
  0
VERTEX
  5
206
  8
0
 62
     9
 10
0.0
 20
0.0
 30
0.0
 70
   128
 71
    62
 72
    64
 73
    61
  0
VERTEX
  5
207
  8
0
 62
     9
 10
0.0
 20
0.0
 30
0.0
 70
   128
 71
     4
 72
     7
 73
    63
  0
VERTEX
  5
208
  8
0
 62
     9
 10
0.0
 20
0.0
 30
0.0
 70
   128
 71
    37
 72
    38
 73
    51
  0
VERTEX
  5
209
  8
0
 62
     9
 10
0.0
 20
0.0
 30
0.0
 70
   128
 71
    37
 72
    52
 73
    49
  0
VERTEX
  5
20A
  8
0
 62
     9
 10
0.0
 20
0.0
 30
0.0
 70
   128
 71
    34
 72
    50
 73
    47
  0
VERTEX
  5
20B
  8
0
 62
     9
 10
0.0
 20
0.0
 30
0.0
 70
   128
 71
    27
 72
    46
 73
    45
  0
VERTEX
  5
20C
  8
0
 62
     9
 10
0.0
 20
0.0
 30
0.0
 70
   128
 71
    14
 72
    15
 73
    41
  0
VERTEX
  5
20D
  8
0
 62
     9
 10
0.0
 20
0.0
 30
0.0
 70
   128
 71
    33
 72
    35
 73
    39
  0
VERTEX
  5
20E
  8
0
 62
     9
 10
0.0
 20
0.0
 30
0.0
 70
   128
 71
    32
 72
    42
 73
    36
  0
VERTEX
  5
20F
  8
0
 62
     9
 10
0.0
 20
0.0
 30
0.0
 70
   128
 71
    14
 72
    32
 73
    31
  0
VERTEX
  5
210
  8
0
 62
     9
 10
0.0
 20
0.0
 30
0.0
 70
   128
 71
    33
 72
    37
 73
    34
  0
VERTEX
  5
211
  8
0
 62
     9
 10
0.0
 20
0.0
 30
0.0
 70
   128
 71
    32
 72
    33
 73
    30
  0
VERTEX
  5
212
  8
0
 62
     9
 10
0.0
 20
0.0
 30
0.0
 70
   128
 71
     8
 72
     3
 73
    31
  0
VERTEX
  5
213
  8
0
 62
     9
 10
0.0
 20
0.0
 30
0.0
 70
   128
 71
    30
 72
    34
 73
    27
  0
VERTEX
  5
214
  8
0
 62
     9
 10
0.0
 20
0.0
 30
0.0
 70
   128
 71
    27
 72
    43
 73
    28
  0
VERTEX
  5
215
  8
0
 62
     9
 10
0.0
 20
0.0
 30
0.0
 70
   128
 71
    22
 72
    29
 73
    24
  0
VERTEX
  5
216
  8
0
 62
     9
 10
0.0
 20
0.0
 30
0.0
 70
   128
 71
     4
 72
     9
 73
     2
  0
VERTEX
  5
217
  8
0
 62
     9
 10
0.0
 20
0.0
 30
0.0
 70
   128
 71
    10
 72
    55
 73
    18
  0
VERTEX
  5
218
  8
0
 62
     9
 10
0.0
 20
0.0
 30
0.0
 70
   128
 71
    10
 72
     1
 73
     2
  0
VERTEX
  5
219
  8
0
 62
     9
 10
0.0
 20
0.0
 30
0.0
 70
   128
 71
     1
 72
    17
 73
    16
  0
VERTEX
  5
21A
  8
0
 62
     9
 10
0.0
 20
0.0
 30
0.0
 70
   128
 71
     8
 72
    26
 73
     6
  0
VERTEX
  5
21B
  8
0
 62
     9
 10
0.0
 20
0.0
 30
0.0
 70
   128
 71
     1
 72
    14
 73
     3
  0
SEQEND
  5
21C
  8
0
 62
     9
  0
ENDBLK
  5
21F
  8
0
  0
BLOCK
  8
0
  2
E3_NODE_4_
 70
     0
 10
0.0
 20
0.0
 30
0.0
  3
E3_NODE_4_
  1

  0
POLYLINE
  5
221
  8
0
 62
     9
 66
     1
 10
0.0
 20
0.0
 30
0.0
 70
    64
 71
    49
 72
    56
  0
VERTEX
  5
222
  8
0
 10
29.93000030517578
 20
-0.0080000003799796
 30
63.0620002746582
 70
   192
  0
VERTEX
  5
223
  8
0
 10
27.70199966430664
 20
-0.0080000003799796
 30
59.67200088500977
 70
   192
  0
VERTEX
  5
224
  8
0
 10
27.45800018310547
 20
3.605000019073486
 30
59.78499984741211
 70
   192
  0
VERTEX
  5
225
  8
0
 10
33.32099914550781
 20
-0.0080000003799796
 30
65.28900146484375
 70
   192
  0
VERTEX
  5
226
  8
0
 10
33.00400161743164
 20
4.072999954223633
 30
65.38600158691406
 70
   192
  0
VERTEX
  5
227
  8
0
 10
36.81900024414062
 20
3.216000080108643
 30
66.0510025024414
 70
   192
  0
VERTEX
  5
228
  8
0
 10
36.57199859619141
 20
4.519999980926514
 30
66.13099670410156
 70
   192
  0
VERTEX
  5
229
  8
0
 10
36.95500183105469
 20
-0.0010000000474975
 30
66.00599670410156
 70
   192
  0
VERTEX
  5
22A
  8
0
 10
27.46199989318848
 20
-3.595000028610229
 30
59.78400039672852
 70
   192
  0
VERTEX
  5
22B
  8
0
 10
29.66799926757812
 20
-3.720999956130981
 30
63.15599822998047
 70
   192
  0
VERTEX
  5
22C
  8
0
 10
27.64800071716309
 20
-7.184999942779541
 30
61.85200119018555
 70
   192
  0
VERTEX
  5
22D
  8
0
 10
26.78400039672852
 20
-7.125
 30
60.08399963378906
 70
   192
  0
VERTEX
  5
22E
  8
0
 10
28.90500068664551
 20
-7.375999927520752
 30
63.40800094604492
 70
   192
  0
VERTEX
  5
22F
  8
0
 10
33.00899887084961
 20
-4.060999870300293
 30
65.38600158691406
 70
   192
  0
VERTEX
  5
230
  8
0
 10
33.15000152587891
 20
-8.291000366210938
 30
66.0530014038086
 70
   192
  0
VERTEX
  5
231
  8
0
 10
32.11000061035156
 20
-8.04699993133545
 30
65.59700012207031
 70
   192
  0
VERTEX
  5
232
  8
0
 10
36.57199859619141
 20
-4.901000022888184
 30
66.13300323486328
 70
   192
  0
VERTEX
  5
233
  8
0
 10
35.55599975585938
 20
-8.923999786376953
 30
66.45700073242188
 70
   192
  0
VERTEX
  5
234
  8
0
 10
36.61100006103516
 20
-4.517000198364258
 30
66.12000274658203
 70
   192
  0
VERTEX
  5
235
  8
0
 10
26.79500007629395
 20
7.125999927520752
 30
60.10400009155273
 70
   192
  0
VERTEX
  5
236
  8
0
 10
27.64800071716309
 20
7.184999942779541
 30
61.85100173950195
 70
   192
  0
VERTEX
  5
237
  8
0
 10
26.78400039672852
 20
7.125
 30
60.08200073242188
 70
   192
  0
VERTEX
  5
238
  8
0
 10
29.66300010681152
 20
3.730999946594238
 30
63.15599822998047
 70
   192
  0
VERTEX
  5
239
  8
0
 10
29.05100059509277
 20
7.39799976348877
 30
63.5880012512207
 70
   192
  0
VERTEX
  5
23A
  8
0
 10
31.05299949645996
 20
7.798999786376953
 30
65.13300323486328
 70
   192
  0
VERTEX
  5
23B
  8
0
 10
28.90399932861328
 20
7.375999927520752
 30
63.40599822998047
 70
   192
  0
VERTEX
  5
23C
  8
0
 10
28.93499946594238
 20
7.380000114440918
 30
63.44400024414062
 70
   192
  0
VERTEX
  5
23D
  8
0
 10
36.9900016784668
 20
-0.8370000123977661
 30
65.99500274658203
 70
   192
  0
VERTEX
  5
23E
  8
0
 10
36.95500183105469
 20
-0.0120000001043081
 30
66.00599670410156
 70
   192
  0
VERTEX
  5
23F
  8
0
 10
29.05100059509277
 20
-7.39799976348877
 30
63.5890007019043
 70
   192
  0
VERTEX
  5
240
  8
0
 10
31.05400085449219
 20
-7.798999786376953
 30
65.13400268554688
 70
   192
  0
VERTEX
  5
241
  8
0
 10
26.0629997253418
 20
-7.199999809265137
 30
57.39699935913086
 70
   192
  0
VERTEX
  5
242
  8
0
 10
26.00200080871582
 20
-7.27400016784668
 30
56.51200103759766
 70
   192
  0
VERTEX
  5
243
  8
0
 10
26.69799995422363
 20
-4.026000022888184
 30
56.15299987792969
 70
   192
  0
VERTEX
  5
244
  8
0
 10
26.58799934387207
 20
-7.111999988555908
 30
59.68299865722656
 70
   192
  0
VERTEX
  5
245
  8
0
 10
26.72500038146973
 20
-3.687000036239624
 30
56.13899993896484
 70
   192
  0
VERTEX
  5
246
  8
0
 10
26.99900054931641
 20
-0.2010000050067902
 30
55.99100112915039
 70
   192
  0
VERTEX
  5
247
  8
0
 10
26.98699951171875
 20
-0.0010000000474975
 30
55.99700164794922
 70
   192
  0
VERTEX
  5
248
  8
0
 10
26.77099990844727
 20
3.507999897003174
 30
56.11299896240234
 70
   192
  0
VERTEX
  5
249
  8
0
 10
26.98699951171875
 20
-0.0099999997764826
 30
55.99700164794922
 70
   192
  0
VERTEX
  5
24A
  8
0
 10
26.73299980163574
 20
3.694999933242798
 30
56.13299942016602
 70
   192
  0
VERTEX
  5
24B
  8
0
 10
26.0629997253418
 20
7.199999809265137
 30
57.39599990844727
 70
   192
  0
VERTEX
  5
24C
  8
0
 10
26.00200080871582
 20
7.27400016784668
 30
56.51100158691406
 70
   192
  0
VERTEX
  5
24D
  8
0
 10
26.58799934387207
 20
7.111999988555908
 30
59.68199920654297
 70
   192
  0
VERTEX
  5
24E
  8
0
 10
33.15000152587891
 20
8.291000366210938
 30
66.052001953125
 70
   192
  0
VERTEX
  5
24F
  8
0
 10
35.55599975585938
 20
8.92199993133545
 30
66.45600128173828
 70
   192
  0
VERTEX
  5
250
  8
0
 10
36.0629997253418
 20
7.216000080108643
 30
66.29499816894531
 70
   192
  0
VERTEX
  5
251
  8
0
 10
32.11000061035156
 20
8.04699993133545
 30
65.59600067138672
 70
   192
  0
VERTEX
  5
252
  8
0
 10
32.17200088500977
 20
8.060999870300293
 30
65.62300109863281
 70
   192
  0
VERTEX
  5
253
  8
0
 62
     9
 10
0.0
 20
0.0
 30
0.0
 70
   128
 71
     3
 72
     2
 73
     1
  0
VERTEX
  5
254
  8
0
 62
     9
 10
0.0
 20
0.0
 30
0.0
 70
   128
 71
     6
 72
     5
 73
     4
  0
VERTEX
  5
255
  8
0
 62
     9
 10
0.0
 20
0.0
 30
0.0
 70
   128
 71
     6
 72
     7
 73
     5
  0
VERTEX
  5
256
  8
0
 62
     9
 10
0.0
 20
0.0
 30
0.0
 70
   128
 71
     4
 72
     8
 73
     6
  0
VERTEX
  5
257
  8
0
 62
     9
 10
0.0
 20
0.0
 30
0.0
 70
   128
 71
    11
 72
    10
 73
     9
  0
VERTEX
  5
258
  8
0
 62
     9
 10
0.0
 20
0.0
 30
0.0
 70
   128
 71
     9
 72
    12
 73
    11
  0
VERTEX
  5
259
  8
0
 62
     9
 10
0.0
 20
0.0
 30
0.0
 70
   128
 71
    11
 72
    13
 73
    10
  0
VERTEX
  5
25A
  8
0
 62
     9
 10
0.0
 20
0.0
 30
0.0
 70
   128
 71
    16
 72
    15
 73
    14
  0
VERTEX
  5
25B
  8
0
 62
     9
 10
0.0
 20
0.0
 30
0.0
 70
   128
 71
    15
 72
    18
 73
    17
  0
VERTEX
  5
25C
  8
0
 62
     9
 10
0.0
 20
0.0
 30
0.0
 70
   128
 71
    17
 72
    19
 73
    14
  0
VERTEX
  5
25D
  8
0
 62
     9
 10
0.0
 20
0.0
 30
0.0
 70
   128
 71
    17
 72
    14
 73
    15
  0
VERTEX
  5
25E
  8
0
 62
     9
 10
0.0
 20
0.0
 30
0.0
 70
   128
 71
    21
 72
    20
 73
     3
  0
VERTEX
  5
25F
  8
0
 62
     9
 10
0.0
 20
0.0
 30
0.0
 70
   128
 71
    20
 72
    22
 73
     3
  0
VERTEX
  5
260
  8
0
 62
     9
 10
0.0
 20
0.0
 30
0.0
 70
   128
 71
     3
 72
    23
 73
    21
  0
VERTEX
  5
261
  8
0
 62
     9
 10
0.0
 20
0.0
 30
0.0
 70
   128
 71
     1
 72
     4
 73
     5
  0
VERTEX
  5
262
  8
0
 62
     9
 10
0.0
 20
0.0
 30
0.0
 70
   128
 71
    25
 72
    24
 73
    23
  0
VERTEX
  5
263
  8
0
 62
     9
 10
0.0
 20
0.0
 30
0.0
 70
   128
 71
    27
 72
    26
 73
    23
  0
VERTEX
  5
264
  8
0
 62
     9
 10
0.0
 20
0.0
 30
0.0
 70
   128
 71
    23
 72
    24
 73
    27
  0
VERTEX
  5
265
  8
0
 62
     9
 10
0.0
 20
0.0
 30
0.0
 70
   128
 71
    23
 72
     5
 73
    25
  0
VERTEX
  5
266
  8
0
 62
     9
 10
0.0
 20
0.0
 30
0.0
 70
   128
 71
    28
 72
     4
 73
    14
  0
VERTEX
  5
267
  8
0
 62
     9
 10
0.0
 20
0.0
 30
0.0
 70
   128
 71
    28
 72
    29
 73
     4
  0
VERTEX
  5
268
  8
0
 62
     9
 10
0.0
 20
0.0
 30
0.0
 70
   128
 71
    13
 72
    30
 73
    10
  0
VERTEX
  5
269
  8
0
 62
     9
 10
0.0
 20
0.0
 30
0.0
 70
   128
 71
    31
 72
    14
 73
    10
  0
VERTEX
  5
26A
  8
0
 62
     9
 10
0.0
 20
0.0
 30
0.0
 70
   128
 71
    10
 72
    30
 73
    31
  0
VERTEX
  5
26B
  8
0
 62
     9
 10
0.0
 20
0.0
 30
0.0
 70
   128
 71
    31
 72
    16
 73
    14
  0
VERTEX
  5
26C
  8
0
 62
     9
 10
0.0
 20
0.0
 30
0.0
 70
   128
 71
     1
 72
    10
 73
    14
  0
VERTEX
  5
26D
  8
0
 62
     9
 10
0.0
 20
0.0
 30
0.0
 70
   128
 71
    34
 72
    33
 73
    32
  0
VERTEX
  5
26E
  8
0
 62
     9
 10
0.0
 20
0.0
 30
0.0
 70
   128
 71
    32
 72
    35
 73
     9
  0
VERTEX
  5
26F
  8
0
 62
     9
 10
0.0
 20
0.0
 30
0.0
 70
   128
 71
     9
 72
    36
 73
    32
  0
VERTEX
  5
270
  8
0
 62
     9
 10
0.0
 20
0.0
 30
0.0
 70
   128
 71
    35
 72
    12
 73
     9
  0
VERTEX
  5
271
  8
0
 62
     9
 10
0.0
 20
0.0
 30
0.0
 70
   128
 71
     9
 72
    10
 73
     1
  0
VERTEX
  5
272
  8
0
 62
     9
 10
0.0
 20
0.0
 30
0.0
 70
   128
 71
    37
 72
    36
 73
     9
  0
VERTEX
  5
273
  8
0
 62
     9
 10
0.0
 20
0.0
 30
0.0
 70
   128
 71
     9
 72
     2
 73
    37
  0
VERTEX
  5
274
  8
0
 62
     9
 10
0.0
 20
0.0
 30
0.0
 70
   128
 71
    39
 72
    38
 73
     3
  0
VERTEX
  5
275
  8
0
 62
     9
 10
0.0
 20
0.0
 30
0.0
 70
   128
 71
    38
 72
    40
 73
     2
  0
VERTEX
  5
276
  8
0
 62
     9
 10
0.0
 20
0.0
 30
0.0
 70
   128
 71
     2
 72
     3
 73
    38
  0
VERTEX
  5
277
  8
0
 62
     9
 10
0.0
 20
0.0
 30
0.0
 70
   128
 71
     3
 72
    41
 73
    39
  0
VERTEX
  5
278
  8
0
 62
     9
 10
0.0
 20
0.0
 30
0.0
 70
   128
 71
    42
 72
    41
 73
     3
  0
VERTEX
  5
279
  8
0
 62
     9
 10
0.0
 20
0.0
 30
0.0
 70
   128
 71
    42
 72
    43
 73
    41
  0
VERTEX
  5
27A
  8
0
 62
     9
 10
0.0
 20
0.0
 30
0.0
 70
   128
 71
     3
 72
    44
 73
    42
  0
VERTEX
  5
27B
  8
0
 62
     9
 10
0.0
 20
0.0
 30
0.0
 70
   128
 71
    47
 72
    46
 73
    45
  0
VERTEX
  5
27C
  8
0
 62
     9
 10
0.0
 20
0.0
 30
0.0
 70
   128
 71
    45
 72
     5
 73
    47
  0
VERTEX
  5
27D
  8
0
 62
     9
 10
0.0
 20
0.0
 30
0.0
 70
   128
 71
    49
 72
    48
 73
     5
  0
VERTEX
  5
27E
  8
0
 62
     9
 10
0.0
 20
0.0
 30
0.0
 70
   128
 71
     5
 72
    45
 73
    49
  0
VERTEX
  5
27F
  8
0
 62
     9
 10
0.0
 20
0.0
 30
0.0
 70
   128
 71
     5
 72
     7
 73
    47
  0
VERTEX
  5
280
  8
0
 62
     9
 10
0.0
 20
0.0
 30
0.0
 70
   128
 71
     3
 72
    22
 73
    44
  0
VERTEX
  5
281
  8
0
 62
     9
 10
0.0
 20
0.0
 30
0.0
 70
   128
 71
     2
 72
    40
 73
    37
  0
VERTEX
  5
282
  8
0
 62
     9
 10
0.0
 20
0.0
 30
0.0
 70
   128
 71
     1
 72
     2
 73
     9
  0
VERTEX
  5
283
  8
0
 62
     9
 10
0.0
 20
0.0
 30
0.0
 70
   128
 71
    32
 72
    36
 73
    34
  0
VERTEX
  5
284
  8
0
 62
     9
 10
0.0
 20
0.0
 30
0.0
 70
   128
 71
    14
 72
     4
 73
     1
  0
VERTEX
  5
285
  8
0
 62
     9
 10
0.0
 20
0.0
 30
0.0
 70
   128
 71
    14
 72
    19
 73
    28
  0
VERTEX
  5
286
  8
0
 62
     9
 10
0.0
 20
0.0
 30
0.0
 70
   128
 71
     5
 72
    48
 73
    25
  0
VERTEX
  5
287
  8
0
 62
     9
 10
0.0
 20
0.0
 30
0.0
 70
   128
 71
     5
 72
    23
 73
     1
  0
VERTEX
  5
288
  8
0
 62
     9
 10
0.0
 20
0.0
 30
0.0
 70
   128
 71
    23
 72
    26
 73
    21
  0
VERTEX
  5
289
  8
0
 62
     9
 10
0.0
 20
0.0
 30
0.0
 70
   128
 71
     4
 72
    29
 73
     8
  0
VERTEX
  5
28A
  8
0
 62
     9
 10
0.0
 20
0.0
 30
0.0
 70
   128
 71
     1
 72
    23
 73
     3
  0
SEQEND
  5
28B
  8
0
 62
     9
  0
ENDBLK
  5
28E
  8
0
  0
BLOCK
  8
0
  2
E3_NODE_5_
 70
     0
 10
0.0
 20
0.0
 30
0.0
  3
E3_NODE_5_
  1

  0
POLYLINE
  5
290
  8
0
 62
     9
 66
     1
 10
0.0
 20
0.0
 30
0.0
 70
    64
 71
    61
 72
    68
  0
VERTEX
  5
291
  8
0
 10
62.20299911499023
 20
-14.07900047302246
 30
69.53500366210938
 70
   192
  0
VERTEX
  5
292
  8
0
 10
44.95399856567383
 20
-15.23700046539307
 30
70.98699951171875
 70
   192
  0
VERTEX
  5
293
  8
0
 10
44.79399871826172
 20
-13.57699966430664
 30
68.68199920654297
 70
   192
  0
VERTEX
  5
294
  8
0
 10
44.61000061035156
 20
-11.23600006103516
 30
67.06999969482422
 70
   192
  0
VERTEX
  5
295
  8
0
 10
49.70700073242188
 20
-8.428999900817871
 30
66.09600067138672
 70
   192
  0
VERTEX
  5
296
  8
0
 10
53.34700012207031
 20
-8.288000106811523
 30
65.95099639892578
 70
   192
  0
VERTEX
  5
297
  8
0
 10
44.43099975585938
 20
-8.633000373840332
 30
66.30699920654297
 70
   192
  0
VERTEX
  5
298
  8
0
 10
61.56600189208984
 20
-10.32199954986572
 30
65.93800354003906
 70
   192
  0
VERTEX
  5
299
  8
0
 10
64.13800048828125
 20
-7.749000072479248
 30
64.98899841308594
 70
   192
  0
VERTEX
  5
29A
  8
0
 10
64.14900207519531
 20
-7.748000144958496
 30
64.98699951171875
 70
   192
  0
VERTEX
  5
29B
  8
0
 10
78.30699920654297
 20
-9.199000358581543
 30
63.60499954223633
 70
   192
  0
VERTEX
  5
29C
  8
0
 10
75.62899780273438
 20
-7.039999961853027
 30
63.39699935913086
 70
   192
  0
VERTEX
  5
29D
  8
0
 10
61.32199859619141
 20
-7.888999938964844
 30
65.23999786376953
 70
   192
  0
VERTEX
  5
29E
  8
0
 10
61.87400054931641
 20
-12.51299953460693
 30
67.41300201416016
 70
   192
  0
VERTEX
  5
29F
  8
0
 10
78.7229995727539
 20
-11.29199981689453
 30
65.01100158691406
 70
   192
  0
VERTEX
  5
2A0
  8
0
 10
78.01100158691406
 20
-6.861999988555908
 30
62.95999908447266
 70
   192
  0
VERTEX
  5
2A1
  8
0
 10
91.76200103759766
 20
-7.467000007629395
 30
60.78200149536133
 70
   192
  0
VERTEX
  5
2A2
  8
0
 10
78.48999786376953
 20
-6.827000141143799
 30
62.87200164794922
 70
   192
  0
VERTEX
  5
2A3
  8
0
 10
90.90499877929688
 20
-5.901999950408936
 30
60.59099960327148
 70
   192
  0
VERTEX
  5
2A4
  8
0
 10
91.84300231933594
 20
-5.84499979019165
 30
60.40200042724609
 70
   192
  0
VERTEX
  5
2A5
  8
0
 10
91.875
 20
-8.119000434875488
 30
61.10200119018555
 70
   192
  0
VERTEX
  5
2A6
  8
0
 10
92.05699920654297
 20
-9.182000160217285
 30
61.62200164794922
 70
   192
  0
VERTEX
  5
2A7
  8
0
 10
92.16999816894531
 20
-9.489999771118164
 30
61.83700180053711
 70
   192
  0
VERTEX
  5
2A8
  8
0
 10
79.20700073242188
 20
-12.76399993896484
 30
67.04100036621094
 70
   192
  0
VERTEX
  5
2A9
  8
0
 10
92.58100128173828
 20
-10.15200042724609
 30
62.45899963378906
 70
   192
  0
VERTEX
  5
2AA
  8
0
 10
92.9000015258789
 20
-10.66600036621094
 30
62.94300079345703
 70
   192
  0
VERTEX
  5
2AB
  8
0
 10
93.0469970703125
 20
-10.81700038909912
 30
63.13299942016602
 70
   192
  0
VERTEX
  5
2AC
  8
0
 10
94.59600067138672
 20
-11.68599987030029
 30
64.8290023803711
 70
   192
  0
VERTEX
  5
2AD
  8
0
 10
96.1709976196289
 20
-11.85799980163574
 30
66.21199798583984
 70
   192
  0
VERTEX
  5
2AE
  8
0
 10
92.94599914550781
 20
-12.17899990081787
 30
66.83000183105469
 70
   192
  0
VERTEX
  5
2AF
  8
0
 10
94.18599700927734
 20
-11.54699993133545
 30
64.4209976196289
 70
   192
  0
VERTEX
  5
2B0
  8
0
 10
92.76000213623047
 20
-12.19799995422363
 30
66.86599731445312
 70
   192
  0
VERTEX
  5
2B1
  8
0
 10
84.98799896240234
 20
-12.93099975585938
 30
68.30000305175781
 70
   192
  0
VERTEX
  5
2B2
  8
0
 10
94.08399963378906
 20
-11.48200035095215
 30
64.30599975585938
 70
   192
  0
VERTEX
  5
2B3
  8
0
 10
82.70899963378906
 20
-13.14599990844727
 30
68.72100067138672
 70
   192
  0
VERTEX
  5
2B4
  8
0
 10
79.65399932861328
 20
-13.4040002822876
 30
69.21499633789062
 70
   192
  0
VERTEX
  5
2B5
  8
0
 10
68.92400360107422
 20
-14.31099987030029
 30
70.95099639892578
 70
   192
  0
VERTEX
  5
2B6
  8
0
 10
67.3759994506836
 20
-14.44200038909912
 30
71.20099639892578
 70
   192
  0
VERTEX
  5
2B7
  8
0
 10
62.48300170898438
 20
-14.80000019073486
 30
71.78500366210938
 70
   192
  0
VERTEX
  5
2B8
  8
0
 10
53.99599838256836
 20
-15.42199993133545
 30
72.7979965209961
 70
   192
  0
VERTEX
  5
2B9
  8
0
 10
52.81399917602539
 20
-15.49600028991699
 30
72.88400268554688
 70
   192
  0
VERTEX
  5
2BA
  8
0
 10
36.62200164794922
 20
-16.47699928283691
 30
73.83200073242188
 70
   192
  0
VERTEX
  5
2BB
  8
0
 10
28.18899917602539
 20
-16.80699920654297
 30
73.38899993896484
 70
   192
  0
VERTEX
  5
2BC
  8
0
 10
28.3439998626709
 20
-16.69799995422363
 30
72.8550033569336
 70
   192
  0
VERTEX
  5
2BD
  8
0
 10
28.00600051879883
 20
-16.93600082397461
 30
74.02200317382812
 70
   192
  0
VERTEX
  5
2BE
  8
0
 10
28.95199966430664
 20
-16.32799911499023
 30
71.95099639892578
 70
   192
  0
VERTEX
  5
2BF
  8
0
 10
40.24399948120117
 20
-16.28499984741211
 30
73.75299835205078
 70
   192
  0
VERTEX
  5
2C0
  8
0
 10
45.06000137329102
 20
-15.98799991607666
 30
73.44499969482422
 70
   192
  0
VERTEX
  5
2C1
  8
0
 10
41.86999893188477
 20
-16.19000053405762
 30
73.6760025024414
 70
   192
  0
VERTEX
  5
2C2
  8
0
 10
29.36599922180176
 20
-16.07600021362305
 30
71.33599853515625
 70
   192
  0
VERTEX
  5
2C3
  8
0
 10
31.17900085449219
 20
-14.70199966430664
 30
69.37699890136719
 70
   192
  0
VERTEX
  5
2C4
  8
0
 10
31.69000053405762
 20
-14.19099998474121
 30
68.9260025024414
 70
   192
  0
VERTEX
  5
2C5
  8
0
 10
29.48299980163574
 20
-16.00399971008301
 30
71.16100311279297
 70
   192
  0
VERTEX
  5
2C6
  8
0
 10
31.05200004577637
 20
-14.82900047302246
 30
69.48899841308594
 70
   192
  0
VERTEX
  5
2C7
  8
0
 10
33.74900054931641
 20
-11.82900047302246
 30
67.31999969482422
 70
   192
  0
VERTEX
  5
2C8
  8
0
 10
33.87799835205078
 20
-11.66199970245361
 30
67.23200225830078
 70
   192
  0
VERTEX
  5
2C9
  8
0
 10
32.72800064086914
 20
-13.15299987792969
 30
68.01100158691406
 70
   192
  0
VERTEX
  5
2CA
  8
0
 10
35.43199920654297
 20
-9.118000030517578
 30
66.47899627685547
 70
   192
  0
VERTEX
  5
2CB
  8
0
 10
35.55599975585938
 20
-8.923999786376953
 30
66.45700073242188
 70
   192
  0
VERTEX
  5
2CC
  8
0
 10
41.52199935913086
 20
-8.746000289916992
 30
66.4229965209961
 70
   192
  0
VERTEX
  5
2CD
  8
0
 10
34.22299957275391
 20
-11.21399974822998
 30
66.9990005493164
 70
   192
  0
VERTEX
  5
2CE
  8
0
 62
     9
 10
0.0
 20
0.0
 30
0.0
 70
   128
 71
     3
 72
     2
 73
     1
  0
VERTEX
  5
2CF
  8
0
 62
     9
 10
0.0
 20
0.0
 30
0.0
 70
   128
 71
     6
 72
     5
 73
     4
  0
VERTEX
  5
2D0
  8
0
 62
     9
 10
0.0
 20
0.0
 30
0.0
 70
   128
 71
     5
 72
     7
 73
     4
  0
VERTEX
  5
2D1
  8
0
 62
     9
 10
0.0
 20
0.0
 30
0.0
 70
   128
 71
     4
 72
     8
 73
     6
  0
VERTEX
  5
2D2
  8
0
 62
     9
 10
0.0
 20
0.0
 30
0.0
 70
   128
 71
     8
 72
     4
 73
     3
  0
VERTEX
  5
2D3
  8
0
 62
     9
 10
0.0
 20
0.0
 30
0.0
 70
   128
 71
    10
 72
     9
 73
     8
  0
VERTEX
  5
2D4
  8
0
 62
     9
 10
0.0
 20
0.0
 30
0.0
 70
   128
 71
     8
 72
    11
 73
    10
  0
VERTEX
  5
2D5
  8
0
 62
     9
 10
0.0
 20
0.0
 30
0.0
 70
   128
 71
    11
 72
    12
 73
    10
  0
VERTEX
  5
2D6
  8
0
 62
     9
 10
0.0
 20
0.0
 30
0.0
 70
   128
 71
     9
 72
    13
 73
     8
  0
VERTEX
  5
2D7
  8
0
 62
     9
 10
0.0
 20
0.0
 30
0.0
 70
   128
 71
    11
 72
     8
 73
    14
  0
VERTEX
  5
2D8
  8
0
 62
     9
 10
0.0
 20
0.0
 30
0.0
 70
   128
 71
    15
 72
    14
 73
     1
  0
VERTEX
  5
2D9
  8
0
 62
     9
 10
0.0
 20
0.0
 30
0.0
 70
   128
 71
    17
 72
    16
 73
    11
  0
VERTEX
  5
2DA
  8
0
 62
     9
 10
0.0
 20
0.0
 30
0.0
 70
   128
 71
    18
 72
    16
 73
    17
  0
VERTEX
  5
2DB
  8
0
 62
     9
 10
0.0
 20
0.0
 30
0.0
 70
   128
 71
    17
 72
    19
 73
    18
  0
VERTEX
  5
2DC
  8
0
 62
     9
 10
0.0
 20
0.0
 30
0.0
 70
   128
 71
    17
 72
    20
 73
    19
  0
VERTEX
  5
2DD
  8
0
 62
     9
 10
0.0
 20
0.0
 30
0.0
 70
   128
 71
    22
 72
    21
 73
    11
  0
VERTEX
  5
2DE
  8
0
 62
     9
 10
0.0
 20
0.0
 30
0.0
 70
   128
 71
    11
 72
    15
 73
    22
  0
VERTEX
  5
2DF
  8
0
 62
     9
 10
0.0
 20
0.0
 30
0.0
 70
   128
 71
    15
 72
    23
 73
    22
  0
VERTEX
  5
2E0
  8
0
 62
     9
 10
0.0
 20
0.0
 30
0.0
 70
   128
 71
    25
 72
    15
 73
    24
  0
VERTEX
  5
2E1
  8
0
 62
     9
 10
0.0
 20
0.0
 30
0.0
 70
   128
 71
    24
 72
    26
 73
    25
  0
VERTEX
  5
2E2
  8
0
 62
     9
 10
0.0
 20
0.0
 30
0.0
 70
   128
 71
    24
 72
    27
 73
    26
  0
VERTEX
  5
2E3
  8
0
 62
     9
 10
0.0
 20
0.0
 30
0.0
 70
   128
 71
    30
 72
    29
 73
    28
  0
VERTEX
  5
2E4
  8
0
 62
     9
 10
0.0
 20
0.0
 30
0.0
 70
   128
 71
    32
 72
    28
 73
    31
  0
VERTEX
  5
2E5
  8
0
 62
     9
 10
0.0
 20
0.0
 30
0.0
 70
   128
 71
    31
 72
    33
 73
    32
  0
VERTEX
  5
2E6
  8
0
 62
     9
 10
0.0
 20
0.0
 30
0.0
 70
   128
 71
    33
 72
    31
 73
    34
  0
VERTEX
  5
2E7
  8
0
 62
     9
 10
0.0
 20
0.0
 30
0.0
 70
   128
 71
    34
 72
    24
 73
    33
  0
VERTEX
  5
2E8
  8
0
 62
     9
 10
0.0
 20
0.0
 30
0.0
 70
   128
 71
    24
 72
    35
 73
    33
  0
VERTEX
  5
2E9
  8
0
 62
     9
 10
0.0
 20
0.0
 30
0.0
 70
   128
 71
    24
 72
    36
 73
    35
  0
VERTEX
  5
2EA
  8
0
 62
     9
 10
0.0
 20
0.0
 30
0.0
 70
   128
 71
    38
 72
    37
 73
     1
  0
VERTEX
  5
2EB
  8
0
 62
     9
 10
0.0
 20
0.0
 30
0.0
 70
   128
 71
    37
 72
    36
 73
    24
  0
VERTEX
  5
2EC
  8
0
 62
     9
 10
0.0
 20
0.0
 30
0.0
 70
   128
 71
    24
 72
     1
 73
    37
  0
VERTEX
  5
2ED
  8
0
 62
     9
 10
0.0
 20
0.0
 30
0.0
 70
   128
 71
    40
 72
    39
 73
     1
  0
VERTEX
  5
2EE
  8
0
 62
     9
 10
0.0
 20
0.0
 30
0.0
 70
   128
 71
     1
 72
     2
 73
    40
  0
VERTEX
  5
2EF
  8
0
 62
     9
 10
0.0
 20
0.0
 30
0.0
 70
   128
 71
     2
 72
    41
 73
    40
  0
VERTEX
  5
2F0
  8
0
 62
     9
 10
0.0
 20
0.0
 30
0.0
 70
   128
 71
    44
 72
    43
 73
    42
  0
VERTEX
  5
2F1
  8
0
 62
     9
 10
0.0
 20
0.0
 30
0.0
 70
   128
 71
    43
 72
    45
 73
    42
  0
VERTEX
  5
2F2
  8
0
 62
     9
 10
0.0
 20
0.0
 30
0.0
 70
   128
 71
    42
 72
    46
 73
    44
  0
VERTEX
  5
2F3
  8
0
 62
     9
 10
0.0
 20
0.0
 30
0.0
 70
   128
 71
    42
 72
    47
 73
     2
  0
VERTEX
  5
2F4
  8
0
 62
     9
 10
0.0
 20
0.0
 30
0.0
 70
   128
 71
    49
 72
    48
 73
     2
  0
VERTEX
  5
2F5
  8
0
 62
     9
 10
0.0
 20
0.0
 30
0.0
 70
   128
 71
     2
 72
    47
 73
    49
  0
VERTEX
  5
2F6
  8
0
 62
     9
 10
0.0
 20
0.0
 30
0.0
 70
   128
 71
     2
 72
    50
 73
    42
  0
VERTEX
  5
2F7
  8
0
 62
     9
 10
0.0
 20
0.0
 30
0.0
 70
   128
 71
    52
 72
    51
 73
     2
  0
VERTEX
  5
2F8
  8
0
 62
     9
 10
0.0
 20
0.0
 30
0.0
 70
   128
 71
    53
 72
    50
 73
     2
  0
VERTEX
  5
2F9
  8
0
 62
     9
 10
0.0
 20
0.0
 30
0.0
 70
   128
 71
     2
 72
    54
 73
    53
  0
VERTEX
  5
2FA
  8
0
 62
     9
 10
0.0
 20
0.0
 30
0.0
 70
   128
 71
     2
 72
    51
 73
    54
  0
VERTEX
  5
2FB
  8
0
 62
     9
 10
0.0
 20
0.0
 30
0.0
 70
   128
 71
    56
 72
    55
 73
     3
  0
VERTEX
  5
2FC
  8
0
 62
     9
 10
0.0
 20
0.0
 30
0.0
 70
   128
 71
    55
 72
    57
 73
     3
  0
VERTEX
  5
2FD
  8
0
 62
     9
 10
0.0
 20
0.0
 30
0.0
 70
   128
 71
    57
 72
    52
 73
     3
  0
VERTEX
  5
2FE
  8
0
 62
     9
 10
0.0
 20
0.0
 30
0.0
 70
   128
 71
    60
 72
    59
 73
    58
  0
VERTEX
  5
2FF
  8
0
 62
     9
 10
0.0
 20
0.0
 30
0.0
 70
   128
 71
    58
 72
    61
 73
     4
  0
VERTEX
  5
300
  8
0
 62
     9
 10
0.0
 20
0.0
 30
0.0
 70
   128
 71
    58
 72
     4
 73
    60
  0
VERTEX
  5
301
  8
0
 62
     9
 10
0.0
 20
0.0
 30
0.0
 70
   128
 71
    61
 72
    56
 73
     4
  0
VERTEX
  5
302
  8
0
 62
     9
 10
0.0
 20
0.0
 30
0.0
 70
   128
 71
     4
 72
     7
 73
    60
  0
VERTEX
  5
303
  8
0
 62
     9
 10
0.0
 20
0.0
 30
0.0
 70
   128
 71
     3
 72
     4
 73
    56
  0
VERTEX
  5
304
  8
0
 62
     9
 10
0.0
 20
0.0
 30
0.0
 70
   128
 71
     2
 72
     3
 73
    52
  0
VERTEX
  5
305
  8
0
 62
     9
 10
0.0
 20
0.0
 30
0.0
 70
   128
 71
    42
 72
    50
 73
    46
  0
VERTEX
  5
306
  8
0
 62
     9
 10
0.0
 20
0.0
 30
0.0
 70
   128
 71
     2
 72
    48
 73
    41
  0
VERTEX
  5
307
  8
0
 62
     9
 10
0.0
 20
0.0
 30
0.0
 70
   128
 71
     1
 72
    39
 73
    38
  0
VERTEX
  5
308
  8
0
 62
     9
 10
0.0
 20
0.0
 30
0.0
 70
   128
 71
    28
 72
    32
 73
    30
  0
VERTEX
  5
309
  8
0
 62
     9
 10
0.0
 20
0.0
 30
0.0
 70
   128
 71
    24
 72
    34
 73
    27
  0
VERTEX
  5
30A
  8
0
 62
     9
 10
0.0
 20
0.0
 30
0.0
 70
   128
 71
    15
 72
    25
 73
    23
  0
VERTEX
  5
30B
  8
0
 62
     9
 10
0.0
 20
0.0
 30
0.0
 70
   128
 71
    11
 72
    21
 73
    17
  0
VERTEX
  5
30C
  8
0
 62
     9
 10
0.0
 20
0.0
 30
0.0
 70
   128
 71
     1
 72
    24
 73
    15
  0
VERTEX
  5
30D
  8
0
 62
     9
 10
0.0
 20
0.0
 30
0.0
 70
   128
 71
    14
 72
    15
 73
    11
  0
VERTEX
  5
30E
  8
0
 62
     9
 10
0.0
 20
0.0
 30
0.0
 70
   128
 71
    11
 72
    16
 73
    12
  0
VERTEX
  5
30F
  8
0
 62
     9
 10
0.0
 20
0.0
 30
0.0
 70
   128
 71
     3
 72
    14
 73
     8
  0
VERTEX
  5
310
  8
0
 62
     9
 10
0.0
 20
0.0
 30
0.0
 70
   128
 71
     8
 72
    13
 73
     6
  0
VERTEX
  5
311
  8
0
 62
     9
 10
0.0
 20
0.0
 30
0.0
 70
   128
 71
     1
 72
    14
 73
     3
  0
SEQEND
  5
312
  8
0
 62
     9
  0
ENDBLK
  5
315
  8
0
  0
BLOCK
  8
0
  2
E3_NODE_6_
 70
     0
 10
0.0
 20
0.0
 30
0.0
  3
E3_NODE_6_
  1

  0
POLYLINE
  5
317
  8
0
 62
     9
 66
     1
 10
0.0
 20
0.0
 30
0.0
 70
    64
 71
   148
 72
   175
  0
VERTEX
  5
318
  8
0
 10
36.63199996948242
 20
-0.0309999994933605
 30
75.45700073242188
 70
   192
  0
VERTEX
  5
319
  8
0
 10
52.92699813842773
 20
-0.0280000008642673
 30
74.5979995727539
 70
   192
  0
VERTEX
  5
31A
  8
0
 10
52.90900039672852
 20
6.152999877929688
 30
74.33399963378906
 70
   192
  0
VERTEX
  5
31B
  8
0
 10
85.32499694824219
 20
-0.0270000007003546
 30
70.00900268554688
 70
   192
  0
VERTEX
  5
31C
  8
0
 10
85.25299835205078
 20
6.026000022888184
 30
69.6449966430664
 70
   192
  0
VERTEX
  5
31D
  8
0
 10
69.1240005493164
 20
5.980000019073486
 30
72.43499755859375
 70
   192
  0
VERTEX
  5
31E
  8
0
 10
69.16500091552734
 20
-0.0260000005364418
 30
72.73899841308594
 70
   192
  0
VERTEX
  5
31F
  8
0
 10
36.63100051879883
 20
6.489999771118164
 30
75.21499633789062
 70
   192
  0
VERTEX
  5
320
  8
0
 10
52.85699844360352
 20
12.28899955749512
 30
73.54000091552734
 70
   192
  0
VERTEX
  5
321
  8
0
 10
69.0009994506836
 20
11.92199993133545
 30
71.52300262451172
 70
   192
  0
VERTEX
  5
322
  8
0
 10
85.03800201416016
 20
11.98400020599365
 30
68.55699920654297
 70
   192
  0
VERTEX
  5
323
  8
0
 10
36.63100051879883
 20
-6.552000045776367
 30
75.21099853515625
 70
   192
  0
VERTEX
  5
324
  8
0
 10
36.62699890136719
 20
-13.03800010681152
 30
74.47899627685547
 70
   192
  0
VERTEX
  5
325
  8
0
 10
52.85599899291992
 20
-12.34500026702881
 30
73.53099822998047
 70
   192
  0
VERTEX
  5
326
  8
0
 10
85.25199890136719
 20
-6.079999923706055
 30
69.63899993896484
 70
   192
  0
VERTEX
  5
327
  8
0
 10
69.12300109863281
 20
-6.032999992370605
 30
72.43000030517578
 70
   192
  0
VERTEX
  5
328
  8
0
 10
68.9990005493164
 20
-11.97399997711182
 30
71.51300048828125
 70
   192
  0
VERTEX
  5
329
  8
0
 10
52.90900039672852
 20
-6.209000110626221
 30
74.3290023803711
 70
   192
  0
VERTEX
  5
32A
  8
0
 10
4.157000064849854
 20
-0.0350000001490116
 30
74.46199798583984
 70
   192
  0
VERTEX
  5
32B
  8
0
 10
-11.92199993133545
 20
-0.0329999998211861
 30
72.8280029296875
 70
   192
  0
VERTEX
  5
32C
  8
0
 10
-11.84899997711182
 20
-13.50599956512451
 30
72.14600372314453
 70
   192
  0
VERTEX
  5
32D
  8
0
 10
4.217999935150146
 20
-13.89200019836426
 30
73.64099884033203
 70
   192
  0
VERTEX
  5
32E
  8
0
 10
20.38800048828125
 20
-13.68200016021729
 30
74.4739990234375
 70
   192
  0
VERTEX
  5
32F
  8
0
 10
20.35199928283691
 20
-0.034000001847744
 30
75.38500213623047
 70
   192
  0
VERTEX
  5
330
  8
0
 10
20.38800048828125
 20
13.61400032043457
 30
74.48200225830078
 70
   192
  0
VERTEX
  5
331
  8
0
 10
4.217999935150146
 20
13.82299995422363
 30
73.64900207519531
 70
   192
  0
VERTEX
  5
332
  8
0
 10
-11.84899997711182
 20
13.44099998474121
 30
72.1520004272461
 70
   192
  0
VERTEX
  5
333
  8
0
 10
45.06000137329102
 20
-15.98799991607666
 30
73.44499969482422
 70
   192
  0
VERTEX
  5
334
  8
0
 10
40.24399948120117
 20
-16.28499984741211
 30
73.75299835205078
 70
   192
  0
VERTEX
  5
335
  8
0
 10
41.86999893188477
 20
-16.19000053405762
 30
73.6760025024414
 70
   192
  0
VERTEX
  5
336
  8
0
 10
36.62200164794922
 20
-16.47699928283691
 30
73.83200073242188
 70
   192
  0
VERTEX
  5
337
  8
0
 10
62.48300170898438
 20
-14.80000019073486
 30
71.78500366210938
 70
   192
  0
VERTEX
  5
338
  8
0
 10
67.3759994506836
 20
-14.44200038909912
 30
71.20099639892578
 70
   192
  0
VERTEX
  5
339
  8
0
 10
53.99599838256836
 20
-15.42199993133545
 30
72.7979965209961
 70
   192
  0
VERTEX
  5
33A
  8
0
 10
52.81399917602539
 20
-15.49600028991699
 30
72.88400268554688
 70
   192
  0
VERTEX
  5
33B
  8
0
 10
85.03600311279297
 20
-12.03600025177002
 30
68.54399871826172
 70
   192
  0
VERTEX
  5
33C
  8
0
 10
79.65399932861328
 20
-13.4040002822876
 30
69.21499633789062
 70
   192
  0
VERTEX
  5
33D
  8
0
 10
82.70899963378906
 20
-13.14599990844727
 30
68.72100067138672
 70
   192
  0
VERTEX
  5
33E
  8
0
 10
68.92400360107422
 20
-14.31099987030029
 30
70.95099639892578
 70
   192
  0
VERTEX
  5
33F
  8
0
 10
84.98799896240234
 20
-12.93099975585938
 30
68.30000305175781
 70
   192
  0
VERTEX
  5
340
  8
0
 10
92.76000213623047
 20
-12.19799995422363
 30
66.86599731445312
 70
   192
  0
VERTEX
  5
341
  8
0
 10
92.94599914550781
 20
-12.17899990081787
 30
66.83000183105469
 70
   192
  0
VERTEX
  5
342
  8
0
 10
96.1709976196289
 20
-11.85799980163574
 30
66.21199798583984
 70
   192
  0
VERTEX
  5
343
  8
0
 10
97.79499816894531
 20
-9.47599983215332
 30
66.45600128173828
 70
   192
  0
VERTEX
  5
344
  8
0
 10
99.34700012207031
 20
-6.361999988555908
 30
66.70099639892578
 70
   192
  0
VERTEX
  5
345
  8
0
 10
100.0370025634766
 20
-4.103000164031982
 30
66.81400299072266
 70
   192
  0
VERTEX
  5
346
  8
0
 10
100.4540023803711
 20
-2.210000038146973
 30
66.88300323486328
 70
   192
  0
VERTEX
  5
347
  8
0
 10
99.38999938964844
 20
-6.239999771118164
 30
66.70800018310547
 70
   192
  0
VERTEX
  5
348
  8
0
 10
99.86199951171875
 20
-4.896999835968018
 30
66.78500366210938
 70
   192
  0
VERTEX
  5
349
  8
0
 10
100.0380020141602
 20
4.099999904632568
 30
66.81500244140625
 70
   192
  0
VERTEX
  5
34A
  8
0
 10
99.4020004272461
 20
6.184999942779541
 30
66.70999908447266
 70
   192
  0
VERTEX
  5
34B
  8
0
 10
100.5510025024414
 20
-0.0280000008642673
 30
66.9000015258789
 70
   192
  0
VERTEX
  5
34C
  8
0
 10
100.5859985351562
 20
0.7820000052452087
 30
66.90599822998047
 70
   192
  0
VERTEX
  5
34D
  8
0
 10
100.2360000610352
 20
3.450000047683716
 30
66.84700012207031
 70
   192
  0
VERTEX
  5
34E
  8
0
 10
93.35399627685547
 20
12.13500022888184
 30
66.75299835205078
 70
   192
  0
VERTEX
  5
34F
  8
0
 10
99.3499984741211
 20
6.353000164031982
 30
66.7020034790039
 70
   192
  0
VERTEX
  5
350
  8
0
 10
98.08200073242188
 20
8.984000205993652
 30
66.5009994506836
 70
   192
  0
VERTEX
  5
351
  8
0
 10
96.1729965209961
 20
11.85499954223633
 30
66.21299743652344
 70
   192
  0
VERTEX
  5
352
  8
0
 10
92.79000091552734
 20
12.19200038909912
 30
66.86100006103516
 70
   192
  0
VERTEX
  5
353
  8
0
 10
82.58499908447266
 20
13.15499973297119
 30
68.74400329589844
 70
   192
  0
VERTEX
  5
354
  8
0
 10
79.63099670410156
 20
13.4040002822876
 30
69.22100067138672
 70
   192
  0
VERTEX
  5
355
  8
0
 10
84.98899841308594
 20
12.92800045013428
 30
68.3010025024414
 70
   192
  0
VERTEX
  5
356
  8
0
 10
62.41600036621094
 20
14.80300045013428
 30
71.79299926757812
 70
   192
  0
VERTEX
  5
357
  8
0
 10
68.92400360107422
 20
14.30799961090088
 30
70.94999694824219
 70
   192
  0
VERTEX
  5
358
  8
0
 10
67.27400207519531
 20
14.44699954986572
 30
71.21600341796875
 70
   192
  0
VERTEX
  5
359
  8
0
 10
53.76300048828125
 20
15.4350004196167
 30
72.82099914550781
 70
   192
  0
VERTEX
  5
35A
  8
0
 10
36.62799835205078
 20
12.97700023651123
 30
74.48799896240234
 70
   192
  0
VERTEX
  5
35B
  8
0
 10
44.99800109863281
 20
15.98999977111816
 30
73.4469985961914
 70
   192
  0
VERTEX
  5
35C
  8
0
 10
41.63600158691406
 20
16.20299911499023
 30
73.68800354003906
 70
   192
  0
VERTEX
  5
35D
  8
0
 10
40.24900054931641
 20
16.28400039672852
 30
73.75199890136719
 70
   192
  0
VERTEX
  5
35E
  8
0
 10
52.81499862670898
 20
15.49499988555908
 30
72.88899993896484
 70
   192
  0
VERTEX
  5
35F
  8
0
 10
24.88699913024902
 20
17.3430004119873
 30
73.95999908447266
 70
   192
  0
VERTEX
  5
360
  8
0
 10
22.11899948120117
 20
18.17600059509277
 30
73.79199981689453
 70
   192
  0
VERTEX
  5
361
  8
0
 10
28.00600051879883
 20
16.93499946594238
 30
74.02100372314453
 70
   192
  0
VERTEX
  5
362
  8
0
 10
25.07799911499023
 20
17.31800079345703
 30
73.96399688720703
 70
   192
  0
VERTEX
  5
363
  8
0
 10
36.62300109863281
 20
16.47599983215332
 30
73.83200073242188
 70
   192
  0
VERTEX
  5
364
  8
0
 10
21.88299942016602
 20
18.24699974060059
 30
73.77799987792969
 70
   192
  0
VERTEX
  5
365
  8
0
 10
8.718999862670898
 20
25.55400085449219
 30
71.88800048828125
 70
   192
  0
VERTEX
  5
366
  8
0
 10
5.000999927520752
 20
26.53300094604492
 30
71.47200012207031
 70
   192
  0
VERTEX
  5
367
  8
0
 10
10.05000019073486
 20
25.05999946594238
 30
72.05899810791016
 70
   192
  0
VERTEX
  5
368
  8
0
 10
12.00599956512451
 20
24.10899925231934
 30
72.34400177001953
 70
   192
  0
VERTEX
  5
369
  8
0
 10
16.69300079345703
 20
21.22200012207031
 30
73.11000061035156
 70
   192
  0
VERTEX
  5
36A
  8
0
 10
13.49899959564209
 20
23.38400077819824
 30
72.56199645996094
 70
   192
  0
VERTEX
  5
36B
  8
0
 10
18.90299987792969
 20
19.70499992370605
 30
73.45899963378906
 70
   192
  0
VERTEX
  5
36C
  8
0
 10
19.30200004577637
 20
19.51000022888184
 30
73.5009994506836
 70
   192
  0
VERTEX
  5
36D
  8
0
 10
20.42300033569336
 20
18.96199989318848
 30
73.62100219726562
 70
   192
  0
VERTEX
  5
36E
  8
0
 10
-9.187999725341797
 20
25.38800048828125
 30
70.63899993896484
 70
   192
  0
VERTEX
  5
36F
  8
0
 10
-7.860000133514404
 20
25.83099937438965
 30
70.6709976196289
 70
   192
  0
VERTEX
  5
370
  8
0
 10
-7.381999969482422
 20
25.94000053405762
 30
70.68900299072266
 70
   192
  0
VERTEX
  5
371
  8
0
 10
-0.2870000004768372
 20
26.99799919128418
 30
71.02999877929688
 70
   192
  0
VERTEX
  5
372
  8
0
 10
-4.125
 20
26.6830005645752
 30
70.80999755859375
 70
   192
  0
VERTEX
  5
373
  8
0
 10
1.203999996185303
 20
26.97299957275391
 30
71.13800048828125
 70
   192
  0
VERTEX
  5
374
  8
0
 10
2.484999895095825
 20
26.82500076293945
 30
71.2509994506836
 70
   192
  0
VERTEX
  5
375
  8
0
 10
4.382999897003174
 20
26.60400009155273
 30
71.41799926757812
 70
   192
  0
VERTEX
  5
376
  8
0
 10
-22.95499992370605
 20
14.21399974822998
 30
70.7239990234375
 70
   192
  0
VERTEX
  5
377
  8
0
 10
-22.97800064086914
 20
14.17800045013428
 30
70.7239990234375
 70
   192
  0
VERTEX
  5
378
  8
0
 10
-17.01700019836426
 20
20.96199989318848
 30
70.60399627685547
 70
   192
  0
VERTEX
  5
379
  8
0
 10
-19.84099960327148
 20
18.3129997253418
 30
70.64800262451172
 70
   192
  0
VERTEX
  5
37A
  8
0
 10
-16.26700019836426
 20
21.54199981689453
 30
70.59700012207031
 70
   192
  0
VERTEX
  5
37B
  8
0
 10
-22.24300003051758
 20
15.30500030517578
 30
70.7040023803711
 70
   192
  0
VERTEX
  5
37C
  8
0
 10
-11.68200016021729
 20
24.27799987792969
 30
70.6050033569336
 70
   192
  0
VERTEX
  5
37D
  8
0
 10
-12.7180004119873
 20
23.8169994354248
 30
70.59100341796875
 70
   192
  0
VERTEX
  5
37E
  8
0
 10
-15.9709997177124
 20
21.77000045776367
 30
70.59400177001953
 70
   192
  0
VERTEX
  5
37F
  8
0
 10
-26.49399948120117
 20
4.954999923706055
 30
70.83599853515625
 70
   192
  0
VERTEX
  5
380
  8
0
 10
-26.93000030517578
 20
1.942000031471252
 30
70.85099792480469
 70
   192
  0
VERTEX
  5
381
  8
0
 10
-26.04599952697754
 20
7.114999771118164
 30
70.81999969482422
 70
   192
  0
VERTEX
  5
382
  8
0
 10
-26.375
 20
5.77400016784668
 30
70.83200073242188
 70
   192
  0
VERTEX
  5
383
  8
0
 10
-23.65200042724609
 20
12.88700008392334
 30
70.74500274658203
 70
   192
  0
VERTEX
  5
384
  8
0
 10
-24.77000045776367
 20
10.74499988555908
 30
70.77799987792969
 70
   192
  0
VERTEX
  5
385
  8
0
 10
-24.20599937438965
 20
-11.96199989318848
 30
70.76100158691406
 70
   192
  0
VERTEX
  5
386
  8
0
 10
-23.62700080871582
 20
-12.94799995422363
 30
70.74400329589844
 70
   192
  0
VERTEX
  5
387
  8
0
 10
-24.78400039672852
 20
-10.71300029754639
 30
70.77899932861328
 70
   192
  0
VERTEX
  5
388
  8
0
 10
-26.47299957275391
 20
-4.947999954223633
 30
70.83499908447266
 70
   192
  0
VERTEX
  5
389
  8
0
 10
-26.05500030517578
 20
-7.080999851226807
 30
70.82099914550781
 70
   192
  0
VERTEX
  5
38A
  8
0
 10
-26.9330005645752
 20
-1.904999971389771
 30
70.85099792480469
 70
   192
  0
VERTEX
  5
38B
  8
0
 10
-26.79999923706055
 20
-3.280999898910522
 30
70.84600067138672
 70
   192
  0
VERTEX
  5
38C
  8
0
 10
-26.93099975585938
 20
-0.028999999165535
 30
70.85099792480469
 70
   192
  0
VERTEX
  5
38D
  8
0
 10
-16.25399971008301
 20
-21.52599906921387
 30
70.5979995727539
 70
   192
  0
VERTEX
  5
38E
  8
0
 10
-15.93400001525879
 20
-21.79700088500977
 30
70.59500122070312
 70
   192
  0
VERTEX
  5
38F
  8
0
 10
-12.68000030517578
 20
-23.83699989318848
 30
70.59200286865234
 70
   192
  0
VERTEX
  5
390
  8
0
 10
-19.8439998626709
 20
-18.30900001525879
 30
70.64800262451172
 70
   192
  0
VERTEX
  5
391
  8
0
 10
-18.88400077819824
 20
-19.29700088500977
 30
70.63099670410156
 70
   192
  0
VERTEX
  5
392
  8
0
 10
-22.90299987792969
 20
-14.18200016021729
 30
70.7229995727539
 70
   192
  0
VERTEX
  5
393
  8
0
 10
-22.2450008392334
 20
-15.30200004577637
 30
70.70500183105469
 70
   192
  0
VERTEX
  5
394
  8
0
 10
-2.713000059127808
 20
-26.86300086975098
 30
70.88300323486328
 70
   192
  0
VERTEX
  5
395
  8
0
 10
1.13699996471405
 20
-26.97599983215332
 30
71.13500213623047
 70
   192
  0
VERTEX
  5
396
  8
0
 10
-4.093999862670898
 20
-26.6879997253418
 30
70.81300354003906
 70
   192
  0
VERTEX
  5
397
  8
0
 10
-7.382999897003174
 20
-25.94099998474121
 30
70.69000244140625
 70
   192
  0
VERTEX
  5
398
  8
0
 10
-11.43099975585938
 20
-24.46100044250488
 30
70.60299682617188
 70
   192
  0
VERTEX
  5
399
  8
0
 10
-7.828999996185303
 20
-25.84000015258789
 30
70.67400360107422
 70
   192
  0
VERTEX
  5
39A
  8
0
 10
-11.68299961090088
 20
-24.33499908447266
 30
70.60099792480469
 70
   192
  0
VERTEX
  5
39B
  8
0
 10
2.483999967575073
 20
-26.82299995422363
 30
71.25299835205078
 70
   192
  0
VERTEX
  5
39C
  8
0
 10
19.2810001373291
 20
-19.50799942016602
 30
73.50299835205078
 70
   192
  0
VERTEX
  5
39D
  8
0
 10
19.48900032043457
 20
-19.3700008392334
 30
73.53500366210938
 70
   192
  0
VERTEX
  5
39E
  8
0
 10
16.6919994354248
 20
-21.22200012207031
 30
73.11100006103516
 70
   192
  0
VERTEX
  5
39F
  8
0
 10
12.00599956512451
 20
-24.11100006103516
 30
72.34600067138672
 70
   192
  0
VERTEX
  5
3A0
  8
0
 10
13.38199996948242
 20
-23.45100021362305
 30
72.54499816894531
 70
   192
  0
VERTEX
  5
3A1
  8
0
 10
14.48200035095215
 20
-22.78700065612793
 30
72.7229995727539
 70
   192
  0
VERTEX
  5
3A2
  8
0
 10
6.23799991607666
 20
-26.27000045776367
 30
71.60199737548828
 70
   192
  0
VERTEX
  5
3A3
  8
0
 10
9.920000076293945
 20
-25.11100006103516
 30
72.04399871826172
 70
   192
  0
VERTEX
  5
3A4
  8
0
 10
4.940000057220459
 20
-26.54400062561035
 30
71.46800231933594
 70
   192
  0
VERTEX
  5
3A5
  8
0
 10
4.381999969482422
 20
-26.60799980163574
 30
71.41899871826172
 70
   192
  0
VERTEX
  5
3A6
  8
0
 10
28.00600051879883
 20
-16.93600082397461
 30
74.02200317382812
 70
   192
  0
VERTEX
  5
3A7
  8
0
 10
25.60400009155273
 20
-17.20400047302246
 30
73.98600006103516
 70
   192
  0
VERTEX
  5
3A8
  8
0
 10
22.49300003051758
 20
-18.02000045776367
 30
73.82599639892578
 70
   192
  0
VERTEX
  5
3A9
  8
0
 10
25.0319995880127
 20
-17.35400009155273
 30
73.95700073242188
 70
   192
  0
VERTEX
  5
3AA
  8
0
 10
20.42200088500977
 20
-18.95100021362305
 30
73.625
 70
   192
  0
VERTEX
  5
3AB
  8
0
 10
22.09099960327148
 20
-18.20000076293945
 30
73.78700256347656
 70
   192
  0
VERTEX
  5
3AC
  8
0
 62
     9
 10
0.0
 20
0.0
 30
0.0
 70
   128
 71
     3
 72
     2
 73
     1
  0
VERTEX
  5
3AD
  8
0
 62
     9
 10
0.0
 20
0.0
 30
0.0
 70
   128
 71
     6
 72
     5
 73
     4
  0
VERTEX
  5
3AE
  8
0
 62
     9
 10
0.0
 20
0.0
 30
0.0
 70
   128
 71
     6
 72
     7
 73
     2
  0
VERTEX
  5
3AF
  8
0
 62
     9
 10
0.0
 20
0.0
 30
0.0
 70
   128
 71
     9
 72
     3
 73
     8
  0
VERTEX
  5
3B0
  8
0
 62
     9
 10
0.0
 20
0.0
 30
0.0
 70
   128
 71
    10
 72
     6
 73
     3
  0
VERTEX
  5
3B1
  8
0
 62
     9
 10
0.0
 20
0.0
 30
0.0
 70
   128
 71
    10
 72
    11
 73
     5
  0
VERTEX
  5
3B2
  8
0
 62
     9
 10
0.0
 20
0.0
 30
0.0
 70
   128
 71
    14
 72
    13
 73
    12
  0
VERTEX
  5
3B3
  8
0
 62
     9
 10
0.0
 20
0.0
 30
0.0
 70
   128
 71
    17
 72
    16
 73
    15
  0
VERTEX
  5
3B4
  8
0
 62
     9
 10
0.0
 20
0.0
 30
0.0
 70
   128
 71
    18
 72
    12
 73
     1
  0
VERTEX
  5
3B5
  8
0
 62
     9
 10
0.0
 20
0.0
 30
0.0
 70
   128
 71
    17
 72
    14
 73
    18
  0
VERTEX
  5
3B6
  8
0
 62
     9
 10
0.0
 20
0.0
 30
0.0
 70
   128
 71
    16
 72
    18
 73
     2
  0
VERTEX
  5
3B7
  8
0
 62
     9
 10
0.0
 20
0.0
 30
0.0
 70
   128
 71
    16
 72
     7
 73
     4
  0
VERTEX
  5
3B8
  8
0
 62
     9
 10
0.0
 20
0.0
 30
0.0
 70
   128
 71
    21
 72
    20
 73
    19
  0
VERTEX
  5
3B9
  8
0
 62
     9
 10
0.0
 20
0.0
 30
0.0
 70
   128
 71
    23
 72
    22
 73
    19
  0
VERTEX
  5
3BA
  8
0
 62
     9
 10
0.0
 20
0.0
 30
0.0
 70
   128
 71
    12
 72
    13
 73
    23
  0
VERTEX
  5
3BB
  8
0
 62
     9
 10
0.0
 20
0.0
 30
0.0
 70
   128
 71
    23
 72
    24
 73
    12
  0
VERTEX
  5
3BC
  8
0
 62
     9
 10
0.0
 20
0.0
 30
0.0
 70
   128
 71
    25
 72
    24
 73
    19
  0
VERTEX
  5
3BD
  8
0
 62
     9
 10
0.0
 20
0.0
 30
0.0
 70
   128
 71
    27
 72
    26
 73
    19
  0
VERTEX
  5
3BE
  8
0
 62
     9
 10
0.0
 20
0.0
 30
0.0
 70
   128
 71
     8
 72
    24
 73
    25
  0
VERTEX
  5
3BF
  8
0
 62
     9
 10
0.0
 20
0.0
 30
0.0
 70
   128
 71
     8
 72
     1
 73
    24
  0
VERTEX
  5
3C0
  8
0
 62
     9
 10
0.0
 20
0.0
 30
0.0
 70
   128
 71
    28
 72
    13
 73
    14
  0
VERTEX
  5
3C1
  8
0
 62
     9
 10
0.0
 20
0.0
 30
0.0
 70
   128
 71
    30
 72
    29
 73
    13
  0
VERTEX
  5
3C2
  8
0
 62
     9
 10
0.0
 20
0.0
 30
0.0
 70
   128
 71
    29
 72
    31
 73
    13
  0
VERTEX
  5
3C3
  8
0
 62
     9
 10
0.0
 20
0.0
 30
0.0
 70
   128
 71
    13
 72
    28
 73
    30
  0
VERTEX
  5
3C4
  8
0
 62
     9
 10
0.0
 20
0.0
 30
0.0
 70
   128
 71
    33
 72
    32
 73
    17
  0
VERTEX
  5
3C5
  8
0
 62
     9
 10
0.0
 20
0.0
 30
0.0
 70
   128
 71
    32
 72
    34
 73
    14
  0
VERTEX
  5
3C6
  8
0
 62
     9
 10
0.0
 20
0.0
 30
0.0
 70
   128
 71
    14
 72
    17
 73
    32
  0
VERTEX
  5
3C7
  8
0
 62
     9
 10
0.0
 20
0.0
 30
0.0
 70
   128
 71
    34
 72
    35
 73
    14
  0
VERTEX
  5
3C8
  8
0
 62
     9
 10
0.0
 20
0.0
 30
0.0
 70
   128
 71
    37
 72
    17
 73
    36
  0
VERTEX
  5
3C9
  8
0
 62
     9
 10
0.0
 20
0.0
 30
0.0
 70
   128
 71
    36
 72
    38
 73
    37
  0
VERTEX
  5
3CA
  8
0
 62
     9
 10
0.0
 20
0.0
 30
0.0
 70
   128
 71
    37
 72
    39
 73
    17
  0
VERTEX
  5
3CB
  8
0
 62
     9
 10
0.0
 20
0.0
 30
0.0
 70
   128
 71
    41
 72
    40
 73
    36
  0
VERTEX
  5
3CC
  8
0
 62
     9
 10
0.0
 20
0.0
 30
0.0
 70
   128
 71
    44
 72
    43
 73
    42
  0
VERTEX
  5
3CD
  8
0
 62
     9
 10
0.0
 20
0.0
 30
0.0
 70
   128
 71
    42
 72
    36
 73
    15
  0
VERTEX
  5
3CE
  8
0
 62
     9
 10
0.0
 20
0.0
 30
0.0
 70
   128
 71
    15
 72
    45
 73
    42
  0
VERTEX
  5
3CF
  8
0
 62
     9
 10
0.0
 20
0.0
 30
0.0
 70
   128
 71
    42
 72
    45
 73
    44
  0
VERTEX
  5
3D0
  8
0
 62
     9
 10
0.0
 20
0.0
 30
0.0
 70
   128
 71
    47
 72
    46
 73
     4
  0
VERTEX
  5
3D1
  8
0
 62
     9
 10
0.0
 20
0.0
 30
0.0
 70
   128
 71
    48
 72
    15
 73
     4
  0
VERTEX
  5
3D2
  8
0
 62
     9
 10
0.0
 20
0.0
 30
0.0
 70
   128
 71
     4
 72
    49
 73
    48
  0
VERTEX
  5
3D3
  8
0
 62
     9
 10
0.0
 20
0.0
 30
0.0
 70
   128
 71
     4
 72
    46
 73
    49
  0
VERTEX
  5
3D4
  8
0
 62
     9
 10
0.0
 20
0.0
 30
0.0
 70
   128
 71
    51
 72
    50
 73
     4
  0
VERTEX
  5
3D5
  8
0
 62
     9
 10
0.0
 20
0.0
 30
0.0
 70
   128
 71
    53
 72
    52
 73
     4
  0
VERTEX
  5
3D6
  8
0
 62
     9
 10
0.0
 20
0.0
 30
0.0
 70
   128
 71
     4
 72
    54
 73
    53
  0
VERTEX
  5
3D7
  8
0
 62
     9
 10
0.0
 20
0.0
 30
0.0
 70
   128
 71
     4
 72
    50
 73
    54
  0
VERTEX
  5
3D8
  8
0
 62
     9
 10
0.0
 20
0.0
 30
0.0
 70
   128
 71
    55
 72
    51
 73
     5
  0
VERTEX
  5
3D9
  8
0
 62
     9
 10
0.0
 20
0.0
 30
0.0
 70
   128
 71
    56
 72
    51
 73
    55
  0
VERTEX
  5
3DA
  8
0
 62
     9
 10
0.0
 20
0.0
 30
0.0
 70
   128
 71
    55
 72
    57
 73
    56
  0
VERTEX
  5
3DB
  8
0
 62
     9
 10
0.0
 20
0.0
 30
0.0
 70
   128
 71
    55
 72
    58
 73
    57
  0
VERTEX
  5
3DC
  8
0
 62
     9
 10
0.0
 20
0.0
 30
0.0
 70
   128
 71
    59
 72
    55
 73
    11
  0
VERTEX
  5
3DD
  8
0
 62
     9
 10
0.0
 20
0.0
 30
0.0
 70
   128
 71
    61
 72
    60
 73
    11
  0
VERTEX
  5
3DE
  8
0
 62
     9
 10
0.0
 20
0.0
 30
0.0
 70
   128
 71
    60
 72
    62
 73
    11
  0
VERTEX
  5
3DF
  8
0
 62
     9
 10
0.0
 20
0.0
 30
0.0
 70
   128
 71
    11
 72
    10
 73
    61
  0
VERTEX
  5
3E0
  8
0
 62
     9
 10
0.0
 20
0.0
 30
0.0
 70
   128
 71
    63
 72
    10
 73
     9
  0
VERTEX
  5
3E1
  8
0
 62
     9
 10
0.0
 20
0.0
 30
0.0
 70
   128
 71
    65
 72
    64
 73
    10
  0
VERTEX
  5
3E2
  8
0
 62
     9
 10
0.0
 20
0.0
 30
0.0
 70
   128
 71
    10
 72
    63
 73
    65
  0
VERTEX
  5
3E3
  8
0
 62
     9
 10
0.0
 20
0.0
 30
0.0
 70
   128
 71
     9
 72
    66
 73
    63
  0
VERTEX
  5
3E4
  8
0
 62
     9
 10
0.0
 20
0.0
 30
0.0
 70
   128
 71
    69
 72
    68
 73
    67
  0
VERTEX
  5
3E5
  8
0
 62
     9
 10
0.0
 20
0.0
 30
0.0
 70
   128
 71
    67
 72
    70
 73
    69
  0
VERTEX
  5
3E6
  8
0
 62
     9
 10
0.0
 20
0.0
 30
0.0
 70
   128
 71
    68
 72
    71
 73
     9
  0
VERTEX
  5
3E7
  8
0
 62
     9
 10
0.0
 20
0.0
 30
0.0
 70
   128
 71
     9
 72
    67
 73
    68
  0
VERTEX
  5
3E8
  8
0
 62
     9
 10
0.0
 20
0.0
 30
0.0
 70
   128
 71
    73
 72
    72
 73
    25
  0
VERTEX
  5
3E9
  8
0
 62
     9
 10
0.0
 20
0.0
 30
0.0
 70
   128
 71
    75
 72
    74
 73
    25
  0
VERTEX
  5
3EA
  8
0
 62
     9
 10
0.0
 20
0.0
 30
0.0
 70
   128
 71
    74
 72
    76
 73
    67
  0
VERTEX
  5
3EB
  8
0
 62
     9
 10
0.0
 20
0.0
 30
0.0
 70
   128
 71
    67
 72
    25
 73
    74
  0
VERTEX
  5
3EC
  8
0
 62
     9
 10
0.0
 20
0.0
 30
0.0
 70
   128
 71
    25
 72
    72
 73
    75
  0
VERTEX
  5
3ED
  8
0
 62
     9
 10
0.0
 20
0.0
 30
0.0
 70
   128
 71
    25
 72
    77
 73
    73
  0
VERTEX
  5
3EE
  8
0
 62
     9
 10
0.0
 20
0.0
 30
0.0
 70
   128
 71
    79
 72
    78
 73
    26
  0
VERTEX
  5
3EF
  8
0
 62
     9
 10
0.0
 20
0.0
 30
0.0
 70
   128
 71
    78
 72
    80
 73
    26
  0
VERTEX
  5
3F0
  8
0
 62
     9
 10
0.0
 20
0.0
 30
0.0
 70
   128
 71
    80
 72
    81
 73
    26
  0
VERTEX
  5
3F1
  8
0
 62
     9
 10
0.0
 20
0.0
 30
0.0
 70
   128
 71
    83
 72
    82
 73
    26
  0
VERTEX
  5
3F2
  8
0
 62
     9
 10
0.0
 20
0.0
 30
0.0
 70
   128
 71
    82
 72
    84
 73
    26
  0
VERTEX
  5
3F3
  8
0
 62
     9
 10
0.0
 20
0.0
 30
0.0
 70
   128
 71
    26
 72
    81
 73
    83
  0
VERTEX
  5
3F4
  8
0
 62
     9
 10
0.0
 20
0.0
 30
0.0
 70
   128
 71
    84
 72
    85
 73
    25
  0
VERTEX
  5
3F5
  8
0
 62
     9
 10
0.0
 20
0.0
 30
0.0
 70
   128
 71
    85
 72
    86
 73
    25
  0
VERTEX
  5
3F6
  8
0
 62
     9
 10
0.0
 20
0.0
 30
0.0
 70
   128
 71
    25
 72
    26
 73
    84
  0
VERTEX
  5
3F7
  8
0
 62
     9
 10
0.0
 20
0.0
 30
0.0
 70
   128
 71
    87
 72
    26
 73
    27
  0
VERTEX
  5
3F8
  8
0
 62
     9
 10
0.0
 20
0.0
 30
0.0
 70
   128
 71
    87
 72
    88
 73
    26
  0
VERTEX
  5
3F9
  8
0
 62
     9
 10
0.0
 20
0.0
 30
0.0
 70
   128
 71
    88
 72
    89
 73
    26
  0
VERTEX
  5
3FA
  8
0
 62
     9
 10
0.0
 20
0.0
 30
0.0
 70
   128
 71
    91
 72
    90
 73
    26
  0
VERTEX
  5
3FB
  8
0
 62
     9
 10
0.0
 20
0.0
 30
0.0
 70
   128
 71
    90
 72
    92
 73
    26
  0
VERTEX
  5
3FC
  8
0
 62
     9
 10
0.0
 20
0.0
 30
0.0
 70
   128
 71
    92
 72
    93
 73
    26
  0
VERTEX
  5
3FD
  8
0
 62
     9
 10
0.0
 20
0.0
 30
0.0
 70
   128
 71
    26
 72
    89
 73
    91
  0
VERTEX
  5
3FE
  8
0
 62
     9
 10
0.0
 20
0.0
 30
0.0
 70
   128
 71
    93
 72
    94
 73
    26
  0
VERTEX
  5
3FF
  8
0
 62
     9
 10
0.0
 20
0.0
 30
0.0
 70
   128
 71
    96
 72
    95
 73
    27
  0
VERTEX
  5
400
  8
0
 62
     9
 10
0.0
 20
0.0
 30
0.0
 70
   128
 71
    98
 72
    97
 73
    27
  0
VERTEX
  5
401
  8
0
 62
     9
 10
0.0
 20
0.0
 30
0.0
 70
   128
 71
    97
 72
    99
 73
    27
  0
VERTEX
  5
402
  8
0
 62
     9
 10
0.0
 20
0.0
 30
0.0
 70
   128
 71
    27
 72
   100
 73
    98
  0
VERTEX
  5
403
  8
0
 62
     9
 10
0.0
 20
0.0
 30
0.0
 70
   128
 71
    27
 72
    95
 73
   100
  0
VERTEX
  5
404
  8
0
 62
     9
 10
0.0
 20
0.0
 30
0.0
 70
   128
 71
   102
 72
   101
 73
    27
  0
VERTEX
  5
405
  8
0
 62
     9
 10
0.0
 20
0.0
 30
0.0
 70
   128
 71
    27
 72
   103
 73
   102
  0
VERTEX
  5
406
  8
0
 62
     9
 10
0.0
 20
0.0
 30
0.0
 70
   128
 71
    27
 72
    99
 73
   103
  0
VERTEX
  5
407
  8
0
 62
     9
 10
0.0
 20
0.0
 30
0.0
 70
   128
 71
   105
 72
   104
 73
    20
  0
VERTEX
  5
408
  8
0
 62
     9
 10
0.0
 20
0.0
 30
0.0
 70
   128
 71
   107
 72
   106
 73
    20
  0
VERTEX
  5
409
  8
0
 62
     9
 10
0.0
 20
0.0
 30
0.0
 70
   128
 71
   108
 72
    27
 73
    20
  0
VERTEX
  5
40A
  8
0
 62
     9
 10
0.0
 20
0.0
 30
0.0
 70
   128
 71
    20
 72
   109
 73
   108
  0
VERTEX
  5
40B
  8
0
 62
     9
 10
0.0
 20
0.0
 30
0.0
 70
   128
 71
    20
 72
   106
 73
   109
  0
VERTEX
  5
40C
  8
0
 62
     9
 10
0.0
 20
0.0
 30
0.0
 70
   128
 71
    20
 72
   104
 73
   107
  0
VERTEX
  5
40D
  8
0
 62
     9
 10
0.0
 20
0.0
 30
0.0
 70
   128
 71
   111
 72
   110
 73
    20
  0
VERTEX
  5
40E
  8
0
 62
     9
 10
0.0
 20
0.0
 30
0.0
 70
   128
 71
   110
 72
   112
 73
    20
  0
VERTEX
  5
40F
  8
0
 62
     9
 10
0.0
 20
0.0
 30
0.0
 70
   128
 71
   114
 72
   113
 73
    20
  0
VERTEX
  5
410
  8
0
 62
     9
 10
0.0
 20
0.0
 30
0.0
 70
   128
 71
    20
 72
   112
 73
   114
  0
VERTEX
  5
411
  8
0
 62
     9
 10
0.0
 20
0.0
 30
0.0
 70
   128
 71
   116
 72
   115
 73
    20
  0
VERTEX
  5
412
  8
0
 62
     9
 10
0.0
 20
0.0
 30
0.0
 70
   128
 71
   115
 72
   117
 73
    20
  0
VERTEX
  5
413
  8
0
 62
     9
 10
0.0
 20
0.0
 30
0.0
 70
   128
 71
    20
 72
   113
 73
   116
  0
VERTEX
  5
414
  8
0
 62
     9
 10
0.0
 20
0.0
 30
0.0
 70
   128
 71
   119
 72
   118
 73
    21
  0
VERTEX
  5
415
  8
0
 62
     9
 10
0.0
 20
0.0
 30
0.0
 70
   128
 71
    21
 72
   120
 73
   119
  0
VERTEX
  5
416
  8
0
 62
     9
 10
0.0
 20
0.0
 30
0.0
 70
   128
 71
   122
 72
   121
 73
    21
  0
VERTEX
  5
417
  8
0
 62
     9
 10
0.0
 20
0.0
 30
0.0
 70
   128
 71
   124
 72
   123
 73
    21
  0
VERTEX
  5
418
  8
0
 62
     9
 10
0.0
 20
0.0
 30
0.0
 70
   128
 71
    21
 72
   121
 73
   124
  0
VERTEX
  5
419
  8
0
 62
     9
 10
0.0
 20
0.0
 30
0.0
 70
   128
 71
   123
 72
   111
 73
    21
  0
VERTEX
  5
41A
  8
0
 62
     9
 10
0.0
 20
0.0
 30
0.0
 70
   128
 71
    21
 72
   118
 73
   122
  0
VERTEX
  5
41B
  8
0
 62
     9
 10
0.0
 20
0.0
 30
0.0
 70
   128
 71
   126
 72
   125
 73
    22
  0
VERTEX
  5
41C
  8
0
 62
     9
 10
0.0
 20
0.0
 30
0.0
 70
   128
 71
   125
 72
   127
 73
    22
  0
VERTEX
  5
41D
  8
0
 62
     9
 10
0.0
 20
0.0
 30
0.0
 70
   128
 71
   127
 72
   128
 73
    22
  0
VERTEX
  5
41E
  8
0
 62
     9
 10
0.0
 20
0.0
 30
0.0
 70
   128
 71
   130
 72
   129
 73
    21
  0
VERTEX
  5
41F
  8
0
 62
     9
 10
0.0
 20
0.0
 30
0.0
 70
   128
 71
    21
 72
    22
 73
   130
  0
VERTEX
  5
420
  8
0
 62
     9
 10
0.0
 20
0.0
 30
0.0
 70
   128
 71
   129
 72
   131
 73
    21
  0
VERTEX
  5
421
  8
0
 62
     9
 10
0.0
 20
0.0
 30
0.0
 70
   128
 71
    22
 72
   128
 73
   130
  0
VERTEX
  5
422
  8
0
 62
     9
 10
0.0
 20
0.0
 30
0.0
 70
   128
 71
    22
 72
   132
 73
   126
  0
VERTEX
  5
423
  8
0
 62
     9
 10
0.0
 20
0.0
 30
0.0
 70
   128
 71
   134
 72
   133
 73
    22
  0
VERTEX
  5
424
  8
0
 62
     9
 10
0.0
 20
0.0
 30
0.0
 70
   128
 71
   133
 72
   135
 73
    22
  0
VERTEX
  5
425
  8
0
 62
     9
 10
0.0
 20
0.0
 30
0.0
 70
   128
 71
   137
 72
   136
 73
    22
  0
VERTEX
  5
426
  8
0
 62
     9
 10
0.0
 20
0.0
 30
0.0
 70
   128
 71
    22
 72
   138
 73
   137
  0
VERTEX
  5
427
  8
0
 62
     9
 10
0.0
 20
0.0
 30
0.0
 70
   128
 71
   140
 72
   139
 73
    22
  0
VERTEX
  5
428
  8
0
 62
     9
 10
0.0
 20
0.0
 30
0.0
 70
   128
 71
   139
 72
   141
 73
    22
  0
VERTEX
  5
429
  8
0
 62
     9
 10
0.0
 20
0.0
 30
0.0
 70
   128
 71
   141
 72
   142
 73
    22
  0
VERTEX
  5
42A
  8
0
 62
     9
 10
0.0
 20
0.0
 30
0.0
 70
   128
 71
    22
 72
   136
 73
   140
  0
VERTEX
  5
42B
  8
0
 62
     9
 10
0.0
 20
0.0
 30
0.0
 70
   128
 71
    22
 72
   135
 73
   138
  0
VERTEX
  5
42C
  8
0
 62
     9
 10
0.0
 20
0.0
 30
0.0
 70
   128
 71
    22
 72
    23
 73
   134
  0
VERTEX
  5
42D
  8
0
 62
     9
 10
0.0
 20
0.0
 30
0.0
 70
   128
 71
   143
 72
    23
 73
    13
  0
VERTEX
  5
42E
  8
0
 62
     9
 10
0.0
 20
0.0
 30
0.0
 70
   128
 71
   143
 72
   144
 73
    23
  0
VERTEX
  5
42F
  8
0
 62
     9
 10
0.0
 20
0.0
 30
0.0
 70
   128
 71
   146
 72
   145
 73
    23
  0
VERTEX
  5
430
  8
0
 62
     9
 10
0.0
 20
0.0
 30
0.0
 70
   128
 71
    23
 72
   144
 73
   146
  0
VERTEX
  5
431
  8
0
 62
     9
 10
0.0
 20
0.0
 30
0.0
 70
   128
 71
   148
 72
   147
 73
    23
  0
VERTEX
  5
432
  8
0
 62
     9
 10
0.0
 20
0.0
 30
0.0
 70
   128
 71
    23
 72
   145
 73
   148
  0
VERTEX
  5
433
  8
0
 62
     9
 10
0.0
 20
0.0
 30
0.0
 70
   128
 71
    13
 72
    31
 73
   143
  0
VERTEX
  5
434
  8
0
 62
     9
 10
0.0
 20
0.0
 30
0.0
 70
   128
 71
    23
 72
   147
 73
   134
  0
VERTEX
  5
435
  8
0
 62
     9
 10
0.0
 20
0.0
 30
0.0
 70
   128
 71
    22
 72
   142
 73
   132
  0
VERTEX
  5
436
  8
0
 62
     9
 10
0.0
 20
0.0
 30
0.0
 70
   128
 71
    21
 72
   131
 73
   120
  0
VERTEX
  5
437
  8
0
 62
     9
 10
0.0
 20
0.0
 30
0.0
 70
   128
 71
    20
 72
    21
 73
   111
  0
VERTEX
  5
438
  8
0
 62
     9
 10
0.0
 20
0.0
 30
0.0
 70
   128
 71
    20
 72
   117
 73
   105
  0
VERTEX
  5
439
  8
0
 62
     9
 10
0.0
 20
0.0
 30
0.0
 70
   128
 71
    27
 72
   108
 73
    96
  0
VERTEX
  5
43A
  8
0
 62
     9
 10
0.0
 20
0.0
 30
0.0
 70
   128
 71
    27
 72
   101
 73
    87
  0
VERTEX
  5
43B
  8
0
 62
     9
 10
0.0
 20
0.0
 30
0.0
 70
   128
 71
    26
 72
    94
 73
    79
  0
VERTEX
  5
43C
  8
0
 62
     9
 10
0.0
 20
0.0
 30
0.0
 70
   128
 71
    25
 72
    86
 73
    77
  0
VERTEX
  5
43D
  8
0
 62
     9
 10
0.0
 20
0.0
 30
0.0
 70
   128
 71
    67
 72
    76
 73
    70
  0
VERTEX
  5
43E
  8
0
 62
     9
 10
0.0
 20
0.0
 30
0.0
 70
   128
 71
     9
 72
    71
 73
    66
  0
VERTEX
  5
43F
  8
0
 62
     9
 10
0.0
 20
0.0
 30
0.0
 70
   128
 71
    10
 72
    64
 73
    61
  0
VERTEX
  5
440
  8
0
 62
     9
 10
0.0
 20
0.0
 30
0.0
 70
   128
 71
    11
 72
    62
 73
    59
  0
VERTEX
  5
441
  8
0
 62
     9
 10
0.0
 20
0.0
 30
0.0
 70
   128
 71
     5
 72
    11
 73
    55
  0
VERTEX
  5
442
  8
0
 62
     9
 10
0.0
 20
0.0
 30
0.0
 70
   128
 71
     4
 72
     5
 73
    51
  0
VERTEX
  5
443
  8
0
 62
     9
 10
0.0
 20
0.0
 30
0.0
 70
   128
 71
     4
 72
    52
 73
    47
  0
VERTEX
  5
444
  8
0
 62
     9
 10
0.0
 20
0.0
 30
0.0
 70
   128
 71
    15
 72
    48
 73
    45
  0
VERTEX
  5
445
  8
0
 62
     9
 10
0.0
 20
0.0
 30
0.0
 70
   128
 71
    36
 72
    42
 73
    41
  0
VERTEX
  5
446
  8
0
 62
     9
 10
0.0
 20
0.0
 30
0.0
 70
   128
 71
    36
 72
    40
 73
    38
  0
VERTEX
  5
447
  8
0
 62
     9
 10
0.0
 20
0.0
 30
0.0
 70
   128
 71
    17
 72
    39
 73
    33
  0
VERTEX
  5
448
  8
0
 62
     9
 10
0.0
 20
0.0
 30
0.0
 70
   128
 71
    14
 72
    35
 73
    28
  0
VERTEX
  5
449
  8
0
 62
     9
 10
0.0
 20
0.0
 30
0.0
 70
   128
 71
    25
 72
    67
 73
     8
  0
VERTEX
  5
44A
  8
0
 62
     9
 10
0.0
 20
0.0
 30
0.0
 70
   128
 71
    19
 72
    20
 73
    27
  0
VERTEX
  5
44B
  8
0
 62
     9
 10
0.0
 20
0.0
 30
0.0
 70
   128
 71
    19
 72
    26
 73
    25
  0
VERTEX
  5
44C
  8
0
 62
     9
 10
0.0
 20
0.0
 30
0.0
 70
   128
 71
    24
 72
     1
 73
    12
  0
VERTEX
  5
44D
  8
0
 62
     9
 10
0.0
 20
0.0
 30
0.0
 70
   128
 71
    19
 72
    24
 73
    23
  0
VERTEX
  5
44E
  8
0
 62
     9
 10
0.0
 20
0.0
 30
0.0
 70
   128
 71
    19
 72
    22
 73
    21
  0
VERTEX
  5
44F
  8
0
 62
     9
 10
0.0
 20
0.0
 30
0.0
 70
   128
 71
     4
 72
    15
 73
    16
  0
VERTEX
  5
450
  8
0
 62
     9
 10
0.0
 20
0.0
 30
0.0
 70
   128
 71
     2
 72
     7
 73
    16
  0
VERTEX
  5
451
  8
0
 62
     9
 10
0.0
 20
0.0
 30
0.0
 70
   128
 71
    18
 72
    16
 73
    17
  0
VERTEX
  5
452
  8
0
 62
     9
 10
0.0
 20
0.0
 30
0.0
 70
   128
 71
     1
 72
     2
 73
    18
  0
VERTEX
  5
453
  8
0
 62
     9
 10
0.0
 20
0.0
 30
0.0
 70
   128
 71
    15
 72
    36
 73
    17
  0
VERTEX
  5
454
  8
0
 62
     9
 10
0.0
 20
0.0
 30
0.0
 70
   128
 71
    12
 72
    18
 73
    14
  0
VERTEX
  5
455
  8
0
 62
     9
 10
0.0
 20
0.0
 30
0.0
 70
   128
 71
     5
 72
     6
 73
    10
  0
VERTEX
  5
456
  8
0
 62
     9
 10
0.0
 20
0.0
 30
0.0
 70
   128
 71
     3
 72
     9
 73
    10
  0
VERTEX
  5
457
  8
0
 62
     9
 10
0.0
 20
0.0
 30
0.0
 70
   128
 71
     8
 72
    67
 73
     9
  0
VERTEX
  5
458
  8
0
 62
     9
 10
0.0
 20
0.0
 30
0.0
 70
   128
 71
     2
 72
     3
 73
     6
  0
VERTEX
  5
459
  8
0
 62
     9
 10
0.0
 20
0.0
 30
0.0
 70
   128
 71
     4
 72
     7
 73
     6
  0
VERTEX
  5
45A
  8
0
 62
     9
 10
0.0
 20
0.0
 30
0.0
 70
   128
 71
     1
 72
     8
 73
     3
  0
SEQEND
  5
45B
  8
0
 62
     9
  0
ENDBLK
  5
45E
  8
0
  0
BLOCK
  8
0
  2
E3_NODE_7_
 70
     0
 10
0.0
 20
0.0
 30
0.0
  3
E3_NODE_7_
  1

  0
POLYLINE
  5
460
  8
0
 62
     9
 66
     1
 10
0.0
 20
0.0
 30
0.0
 70
    64
 71
    43
 72
    44
  0
VERTEX
  5
461
  8
0
 10
49.69200134277344
 20
0.0
 30
65.69999694824219
 70
   192
  0
VERTEX
  5
462
  8
0
 10
49.70600128173828
 20
8.4350004196167
 30
66.1259994506836
 70
   192
  0
VERTEX
  5
463
  8
0
 10
59.51100158691406
 20
7.989999771118164
 30
65.46399688720703
 70
   192
  0
VERTEX
  5
464
  8
0
 10
64.10900115966797
 20
0.0010000000474975
 30
64.5719985961914
 70
   192
  0
VERTEX
  5
465
  8
0
 10
61.25699996948242
 20
7.890999794006348
 30
65.25900268554688
 70
   192
  0
VERTEX
  5
466
  8
0
 10
78.44499969482422
 20
0.0020000000949949
 30
62.56800079345703
 70
   192
  0
VERTEX
  5
467
  8
0
 10
70.42900085449219
 20
7.370999813079834
 30
64.17900085449219
 70
   192
  0
VERTEX
  5
468
  8
0
 10
64.13999938964844
 20
7.728000164031982
 30
64.91999816894531
 70
   192
  0
VERTEX
  5
469
  8
0
 10
77.98500061035156
 20
6.855000019073486
 30
62.94699859619141
 70
   192
  0
VERTEX
  5
46A
  8
0
 10
90.90299987792969
 20
5.894999980926514
 30
60.5880012512207
 70
   192
  0
VERTEX
  5
46B
  8
0
 10
92.03099822998047
 20
4.10099983215332
 30
60.22299957275391
 70
   192
  0
VERTEX
  5
46C
  8
0
 10
92.16699981689453
 20
2.493000030517578
 30
60.09700012207031
 70
   192
  0
VERTEX
  5
46D
  8
0
 10
91.84200286865234
 20
5.831999778747559
 30
60.39799880981445
 70
   192
  0
VERTEX
  5
46E
  8
0
 10
91.9749984741211
 20
4.769000053405762
 30
60.2760009765625
 70
   192
  0
VERTEX
  5
46F
  8
0
 10
92.19100189208984
 20
0.0020000000949949
 30
60.07600021362305
 70
   192
  0
VERTEX
  5
470
  8
0
 10
82.625
 20
6.538000106811523
 30
62.18999862670898
 70
   192
  0
VERTEX
  5
471
  8
0
 10
78.48899841308594
 20
6.820000171661377
 30
62.8650016784668
 70
   192
  0
VERTEX
  5
472
  8
0
 10
90.90499877929688
 20
-5.901999950408936
 30
60.59099960327148
 70
   192
  0
VERTEX
  5
473
  8
0
 10
92.20700073242188
 20
-1.677000045776367
 30
60.06100082397461
 70
   192
  0
VERTEX
  5
474
  8
0
 10
91.99600219726562
 20
-4.098000049591064
 30
60.25899887084961
 70
   192
  0
VERTEX
  5
475
  8
0
 10
91.84300231933594
 20
-5.84499979019165
 30
60.40200042724609
 70
   192
  0
VERTEX
  5
476
  8
0
 10
75.62899780273438
 20
-7.039999961853027
 30
63.39699935913086
 70
   192
  0
VERTEX
  5
477
  8
0
 10
78.01100158691406
 20
-6.861999988555908
 30
62.95999908447266
 70
   192
  0
VERTEX
  5
478
  8
0
 10
78.48999786376953
 20
-6.827000141143799
 30
62.87200164794922
 70
   192
  0
VERTEX
  5
479
  8
0
 10
61.32199859619141
 20
-7.888999938964844
 30
65.23999786376953
 70
   192
  0
VERTEX
  5
47A
  8
0
 10
53.34700012207031
 20
-8.288000106811523
 30
65.95099639892578
 70
   192
  0
VERTEX
  5
47B
  8
0
 10
64.14900207519531
 20
-7.748000144958496
 30
64.98699951171875
 70
   192
  0
VERTEX
  5
47C
  8
0
 10
64.13800048828125
 20
-7.749000072479248
 30
64.98899841308594
 70
   192
  0
VERTEX
  5
47D
  8
0
 10
36.9900016784668
 20
-0.8370000123977661
 30
65.99500274658203
 70
   192
  0
VERTEX
  5
47E
  8
0
 10
36.95500183105469
 20
-0.0120000001043081
 30
66.00599670410156
 70
   192
  0
VERTEX
  5
47F
  8
0
 10
49.70700073242188
 20
-8.428999900817871
 30
66.09600067138672
 70
   192
  0
VERTEX
  5
480
  8
0
 10
36.61100006103516
 20
-4.517000198364258
 30
66.12000274658203
 70
   192
  0
VERTEX
  5
481
  8
0
 10
36.57199859619141
 20
-4.901000022888184
 30
66.13300323486328
 70
   192
  0
VERTEX
  5
482
  8
0
 10
44.43099975585938
 20
-8.633000373840332
 30
66.30699920654297
 70
   192
  0
VERTEX
  5
483
  8
0
 10
41.52199935913086
 20
-8.746000289916992
 30
66.4229965209961
 70
   192
  0
VERTEX
  5
484
  8
0
 10
35.55599975585938
 20
-8.923999786376953
 30
66.45700073242188
 70
   192
  0
VERTEX
  5
485
  8
0
 10
36.57199859619141
 20
4.519999980926514
 30
66.13099670410156
 70
   192
  0
VERTEX
  5
486
  8
0
 10
36.0629997253418
 20
7.216000080108643
 30
66.29499816894531
 70
   192
  0
VERTEX
  5
487
  8
0
 10
44.37200164794922
 20
8.628000259399414
 30
66.29000091552734
 70
   192
  0
VERTEX
  5
488
  8
0
 10
48.39899826049805
 20
8.494000434875488
 30
66.21399688720703
 70
   192
  0
VERTEX
  5
489
  8
0
 10
36.81900024414062
 20
3.216000080108643
 30
66.0510025024414
 70
   192
  0
VERTEX
  5
48A
  8
0
 10
36.95500183105469
 20
-0.0010000000474975
 30
66.00599670410156
 70
   192
  0
VERTEX
  5
48B
  8
0
 10
35.55599975585938
 20
8.92199993133545
 30
66.45600128173828
 70
   192
  0
VERTEX
  5
48C
  8
0
 62
     9
 10
0.0
 20
0.0
 30
0.0
 70
   128
 71
     3
 72
     2
 73
     1
  0
VERTEX
  5
48D
  8
0
 62
     9
 10
0.0
 20
0.0
 30
0.0
 70
   128
 71
     1
 72
     4
 73
     3
  0
VERTEX
  5
48E
  8
0
 62
     9
 10
0.0
 20
0.0
 30
0.0
 70
   128
 71
     4
 72
     5
 73
     3
  0
VERTEX
  5
48F
  8
0
 62
     9
 10
0.0
 20
0.0
 30
0.0
 70
   128
 71
     7
 72
     4
 73
     6
  0
VERTEX
  5
490
  8
0
 62
     9
 10
0.0
 20
0.0
 30
0.0
 70
   128
 71
     7
 72
     8
 73
     4
  0
VERTEX
  5
491
  8
0
 62
     9
 10
0.0
 20
0.0
 30
0.0
 70
   128
 71
     6
 72
     9
 73
     7
  0
VERTEX
  5
492
  8
0
 62
     9
 10
0.0
 20
0.0
 30
0.0
 70
   128
 71
    12
 72
    11
 73
    10
  0
VERTEX
  5
493
  8
0
 62
     9
 10
0.0
 20
0.0
 30
0.0
 70
   128
 71
    14
 72
    13
 73
    10
  0
VERTEX
  5
494
  8
0
 62
     9
 10
0.0
 20
0.0
 30
0.0
 70
   128
 71
    10
 72
    11
 73
    14
  0
VERTEX
  5
495
  8
0
 62
     9
 10
0.0
 20
0.0
 30
0.0
 70
   128
 71
    16
 72
     6
 73
    15
  0
VERTEX
  5
496
  8
0
 62
     9
 10
0.0
 20
0.0
 30
0.0
 70
   128
 71
    16
 72
    17
 73
     6
  0
VERTEX
  5
497
  8
0
 62
     9
 10
0.0
 20
0.0
 30
0.0
 70
   128
 71
    15
 72
    10
 73
    16
  0
VERTEX
  5
498
  8
0
 62
     9
 10
0.0
 20
0.0
 30
0.0
 70
   128
 71
    18
 72
    15
 73
     6
  0
VERTEX
  5
499
  8
0
 62
     9
 10
0.0
 20
0.0
 30
0.0
 70
   128
 71
    19
 72
    15
 73
    18
  0
VERTEX
  5
49A
  8
0
 62
     9
 10
0.0
 20
0.0
 30
0.0
 70
   128
 71
    18
 72
    20
 73
    19
  0
VERTEX
  5
49B
  8
0
 62
     9
 10
0.0
 20
0.0
 30
0.0
 70
   128
 71
    18
 72
    21
 73
    20
  0
VERTEX
  5
49C
  8
0
 62
     9
 10
0.0
 20
0.0
 30
0.0
 70
   128
 71
    22
 72
     6
 73
     4
  0
VERTEX
  5
49D
  8
0
 62
     9
 10
0.0
 20
0.0
 30
0.0
 70
   128
 71
    22
 72
    23
 73
     6
  0
VERTEX
  5
49E
  8
0
 62
     9
 10
0.0
 20
0.0
 30
0.0
 70
   128
 71
    23
 72
    24
 73
     6
  0
VERTEX
  5
49F
  8
0
 62
     9
 10
0.0
 20
0.0
 30
0.0
 70
   128
 71
    25
 72
     4
 73
     1
  0
VERTEX
  5
4A0
  8
0
 62
     9
 10
0.0
 20
0.0
 30
0.0
 70
   128
 71
     1
 72
    26
 73
    25
  0
VERTEX
  5
4A1
  8
0
 62
     9
 10
0.0
 20
0.0
 30
0.0
 70
   128
 71
    28
 72
    27
 73
     4
  0
VERTEX
  5
4A2
  8
0
 62
     9
 10
0.0
 20
0.0
 30
0.0
 70
   128
 71
     4
 72
    25
 73
    28
  0
VERTEX
  5
4A3
  8
0
 62
     9
 10
0.0
 20
0.0
 30
0.0
 70
   128
 71
    30
 72
    29
 73
     1
  0
VERTEX
  5
4A4
  8
0
 62
     9
 10
0.0
 20
0.0
 30
0.0
 70
   128
 71
    32
 72
    31
 73
     1
  0
VERTEX
  5
4A5
  8
0
 62
     9
 10
0.0
 20
0.0
 30
0.0
 70
   128
 71
    32
 72
    33
 73
    31
  0
VERTEX
  5
4A6
  8
0
 62
     9
 10
0.0
 20
0.0
 30
0.0
 70
   128
 71
    35
 72
    34
 73
    33
  0
VERTEX
  5
4A7
  8
0
 62
     9
 10
0.0
 20
0.0
 30
0.0
 70
   128
 71
    34
 72
    31
 73
    33
  0
VERTEX
  5
4A8
  8
0
 62
     9
 10
0.0
 20
0.0
 30
0.0
 70
   128
 71
    33
 72
    36
 73
    35
  0
VERTEX
  5
4A9
  8
0
 62
     9
 10
0.0
 20
0.0
 30
0.0
 70
   128
 71
     1
 72
    29
 73
    32
  0
VERTEX
  5
4AA
  8
0
 62
     9
 10
0.0
 20
0.0
 30
0.0
 70
   128
 71
    39
 72
    38
 73
    37
  0
VERTEX
  5
4AB
  8
0
 62
     9
 10
0.0
 20
0.0
 30
0.0
 70
   128
 71
    37
 72
    40
 73
    39
  0
VERTEX
  5
4AC
  8
0
 62
     9
 10
0.0
 20
0.0
 30
0.0
 70
   128
 71
    37
 72
    41
 73
     2
  0
VERTEX
  5
4AD
  8
0
 62
     9
 10
0.0
 20
0.0
 30
0.0
 70
   128
 71
    37
 72
     2
 73
    40
  0
VERTEX
  5
4AE
  8
0
 62
     9
 10
0.0
 20
0.0
 30
0.0
 70
   128
 71
    41
 72
    42
 73
     1
  0
VERTEX
  5
4AF
  8
0
 62
     9
 10
0.0
 20
0.0
 30
0.0
 70
   128
 71
     1
 72
     2
 73
    41
  0
VERTEX
  5
4B0
  8
0
 62
     9
 10
0.0
 20
0.0
 30
0.0
 70
   128
 71
    39
 72
    43
 73
    38
  0
VERTEX
  5
4B1
  8
0
 62
     9
 10
0.0
 20
0.0
 30
0.0
 70
   128
 71
     1
 72
    42
 73
    30
  0
VERTEX
  5
4B2
  8
0
 62
     9
 10
0.0
 20
0.0
 30
0.0
 70
   128
 71
     1
 72
    31
 73
    26
  0
VERTEX
  5
4B3
  8
0
 62
     9
 10
0.0
 20
0.0
 30
0.0
 70
   128
 71
     4
 72
    27
 73
    22
  0
VERTEX
  5
4B4
  8
0
 62
     9
 10
0.0
 20
0.0
 30
0.0
 70
   128
 71
     6
 72
    24
 73
    18
  0
VERTEX
  5
4B5
  8
0
 62
     9
 10
0.0
 20
0.0
 30
0.0
 70
   128
 71
    10
 72
    15
 73
    12
  0
VERTEX
  5
4B6
  8
0
 62
     9
 10
0.0
 20
0.0
 30
0.0
 70
   128
 71
     6
 72
    17
 73
     9
  0
VERTEX
  5
4B7
  8
0
 62
     9
 10
0.0
 20
0.0
 30
0.0
 70
   128
 71
     4
 72
     8
 73
     5
  0
SEQEND
  5
4B8
  8
0
 62
     9
  0
ENDBLK
  5
4BB
  8
0
  0
BLOCK
  8
0
  2
E3_NODE_8_
 70
     0
 10
0.0
 20
0.0
 30
0.0
  3
E3_NODE_8_
  1

  0
POLYLINE
  5
4BD
  8
0
 62
     9
 66
     1
 10
0.0
 20
0.0
 30
0.0
 70
    64
 71
    42
 72
    40
  0
VERTEX
  5
4BE
  8
0
 10
100.0370025634766
 20
-4.103000164031982
 30
66.81400299072266
 70
   192
  0
VERTEX
  5
4BF
  8
0
 10
91.875
 20
-8.119000434875488
 30
61.10200119018555
 70
   192
  0
VERTEX
  5
4C0
  8
0
 10
91.76200103759766
 20
-7.467000007629395
 30
60.78200149536133
 70
   192
  0
VERTEX
  5
4C1
  8
0
 10
91.84300231933594
 20
-5.84499979019165
 30
60.40200042724609
 70
   192
  0
VERTEX
  5
4C2
  8
0
 10
92.16999816894531
 20
-9.489999771118164
 30
61.83700180053711
 70
   192
  0
VERTEX
  5
4C3
  8
0
 10
92.05699920654297
 20
-9.182000160217285
 30
61.62200164794922
 70
   192
  0
VERTEX
  5
4C4
  8
0
 10
92.58100128173828
 20
-10.15200042724609
 30
62.45899963378906
 70
   192
  0
VERTEX
  5
4C5
  8
0
 10
93.0469970703125
 20
-10.81700038909912
 30
63.13299942016602
 70
   192
  0
VERTEX
  5
4C6
  8
0
 10
92.9000015258789
 20
-10.66600036621094
 30
62.94300079345703
 70
   192
  0
VERTEX
  5
4C7
  8
0
 10
94.08399963378906
 20
-11.48200035095215
 30
64.30599975585938
 70
   192
  0
VERTEX
  5
4C8
  8
0
 10
97.79499816894531
 20
-9.47599983215332
 30
66.45600128173828
 70
   192
  0
VERTEX
  5
4C9
  8
0
 10
94.59600067138672
 20
-11.68599987030029
 30
64.8290023803711
 70
   192
  0
VERTEX
  5
4CA
  8
0
 10
94.18599700927734
 20
-11.54699993133545
 30
64.4209976196289
 70
   192
  0
VERTEX
  5
4CB
  8
0
 10
96.1709976196289
 20
-11.85799980163574
 30
66.21199798583984
 70
   192
  0
VERTEX
  5
4CC
  8
0
 10
99.34700012207031
 20
-6.361999988555908
 30
66.70099639892578
 70
   192
  0
VERTEX
  5
4CD
  8
0
 10
99.38999938964844
 20
-6.239999771118164
 30
66.70800018310547
 70
   192
  0
VERTEX
  5
4CE
  8
0
 10
99.86199951171875
 20
-4.896999835968018
 30
66.78500366210938
 70
   192
  0
VERTEX
  5
4CF
  8
0
 10
92.16699981689453
 20
2.493000030517578
 30
60.09700012207031
 70
   192
  0
VERTEX
  5
4D0
  8
0
 10
92.03099822998047
 20
4.10099983215332
 30
60.22299957275391
 70
   192
  0
VERTEX
  5
4D1
  8
0
 10
100.0380020141602
 20
4.099999904632568
 30
66.81500244140625
 70
   192
  0
VERTEX
  5
4D2
  8
0
 10
100.5510025024414
 20
-0.0280000008642673
 30
66.9000015258789
 70
   192
  0
VERTEX
  5
4D3
  8
0
 10
100.4540023803711
 20
-2.210000038146973
 30
66.88300323486328
 70
   192
  0
VERTEX
  5
4D4
  8
0
 10
92.20700073242188
 20
-1.677000045776367
 30
60.06100082397461
 70
   192
  0
VERTEX
  5
4D5
  8
0
 10
100.5859985351562
 20
0.7820000052452087
 30
66.90599822998047
 70
   192
  0
VERTEX
  5
4D6
  8
0
 10
92.19100189208984
 20
0.0020000000949949
 30
60.07600021362305
 70
   192
  0
VERTEX
  5
4D7
  8
0
 10
100.2360000610352
 20
3.450000047683716
 30
66.84700012207031
 70
   192
  0
VERTEX
  5
4D8
  8
0
 10
91.99600219726562
 20
-4.098000049591064
 30
60.25899887084961
 70
   192
  0
VERTEX
  5
4D9
  8
0
 10
94.08399963378906
 20
11.48099994659424
 30
64.30699920654297
 70
   192
  0
VERTEX
  5
4DA
  8
0
 10
98.08200073242188
 20
8.984000205993652
 30
66.5009994506836
 70
   192
  0
VERTEX
  5
4DB
  8
0
 10
99.3499984741211
 20
6.353000164031982
 30
66.7020034790039
 70
   192
  0
VERTEX
  5
4DC
  8
0
 10
94.1719970703125
 20
11.53899955749512
 30
64.40699768066406
 70
   192
  0
VERTEX
  5
4DD
  8
0
 10
95.69599914550781
 20
11.85299968719482
 30
65.81999969482422
 70
   192
  0
VERTEX
  5
4DE
  8
0
 10
96.1729965209961
 20
11.85499954223633
 30
66.21299743652344
 70
   192
  0
VERTEX
  5
4DF
  8
0
 10
99.4020004272461
 20
6.184999942779541
 30
66.70999908447266
 70
   192
  0
VERTEX
  5
4E0
  8
0
 10
92.58799743652344
 20
10.14099979400635
 30
62.46200180053711
 70
   192
  0
VERTEX
  5
4E1
  8
0
 10
92.99600219726562
 20
10.76599979400635
 30
63.06800079345703
 70
   192
  0
VERTEX
  5
4E2
  8
0
 10
92.10299682617188
 20
9.319000244140625
 30
61.7140007019043
 70
   192
  0
VERTEX
  5
4E3
  8
0
 10
92.17900085449219
 20
9.513999938964844
 30
61.85400009155273
 70
   192
  0
VERTEX
  5
4E4
  8
0
 10
91.85199737548828
 20
8.125
 30
61.08000183105469
 70
   192
  0
VERTEX
  5
4E5
  8
0
 10
91.84200286865234
 20
5.831999778747559
 30
60.39799880981445
 70
   192
  0
VERTEX
  5
4E6
  8
0
 10
91.77999877929688
 20
7.782000064849854
 30
60.89699935913086
 70
   192
  0
VERTEX
  5
4E7
  8
0
 10
91.9749984741211
 20
4.769000053405762
 30
60.2760009765625
 70
   192
  0
VERTEX
  5
4E8
  8
0
 62
     9
 10
0.0
 20
0.0
 30
0.0
 70
   128
 71
     3
 72
     2
 73
     1
  0
VERTEX
  5
4E9
  8
0
 62
     9
 10
0.0
 20
0.0
 30
0.0
 70
   128
 71
     1
 72
     4
 73
     3
  0
VERTEX
  5
4EA
  8
0
 62
     9
 10
0.0
 20
0.0
 30
0.0
 70
   128
 71
     6
 72
     5
 73
     1
  0
VERTEX
  5
4EB
  8
0
 62
     9
 10
0.0
 20
0.0
 30
0.0
 70
   128
 71
     5
 72
     7
 73
     1
  0
VERTEX
  5
4EC
  8
0
 62
     9
 10
0.0
 20
0.0
 30
0.0
 70
   128
 71
     1
 72
     2
 73
     6
  0
VERTEX
  5
4ED
  8
0
 62
     9
 10
0.0
 20
0.0
 30
0.0
 70
   128
 71
     9
 72
     8
 73
     1
  0
VERTEX
  5
4EE
  8
0
 62
     9
 10
0.0
 20
0.0
 30
0.0
 70
   128
 71
     8
 72
    10
 73
     1
  0
VERTEX
  5
4EF
  8
0
 62
     9
 10
0.0
 20
0.0
 30
0.0
 70
   128
 71
     1
 72
     7
 73
     9
  0
VERTEX
  5
4F0
  8
0
 62
     9
 10
0.0
 20
0.0
 30
0.0
 70
   128
 71
    13
 72
    12
 73
    11
  0
VERTEX
  5
4F1
  8
0
 62
     9
 10
0.0
 20
0.0
 30
0.0
 70
   128
 71
    12
 72
    14
 73
    11
  0
VERTEX
  5
4F2
  8
0
 62
     9
 10
0.0
 20
0.0
 30
0.0
 70
   128
 71
    11
 72
    15
 73
    10
  0
VERTEX
  5
4F3
  8
0
 62
     9
 10
0.0
 20
0.0
 30
0.0
 70
   128
 71
    15
 72
    16
 73
    10
  0
VERTEX
  5
4F4
  8
0
 62
     9
 10
0.0
 20
0.0
 30
0.0
 70
   128
 71
    17
 72
     1
 73
    10
  0
VERTEX
  5
4F5
  8
0
 62
     9
 10
0.0
 20
0.0
 30
0.0
 70
   128
 71
    10
 72
    16
 73
    17
  0
VERTEX
  5
4F6
  8
0
 62
     9
 10
0.0
 20
0.0
 30
0.0
 70
   128
 71
    11
 72
    10
 73
    13
  0
VERTEX
  5
4F7
  8
0
 62
     9
 10
0.0
 20
0.0
 30
0.0
 70
   128
 71
    20
 72
    19
 73
    18
  0
VERTEX
  5
4F8
  8
0
 62
     9
 10
0.0
 20
0.0
 30
0.0
 70
   128
 71
    23
 72
    22
 73
    21
  0
VERTEX
  5
4F9
  8
0
 62
     9
 10
0.0
 20
0.0
 30
0.0
 70
   128
 71
    18
 72
    25
 73
    24
  0
VERTEX
  5
4FA
  8
0
 62
     9
 10
0.0
 20
0.0
 30
0.0
 70
   128
 71
    24
 72
    26
 73
    18
  0
VERTEX
  5
4FB
  8
0
 62
     9
 10
0.0
 20
0.0
 30
0.0
 70
   128
 71
    25
 72
    21
 73
    24
  0
VERTEX
  5
4FC
  8
0
 62
     9
 10
0.0
 20
0.0
 30
0.0
 70
   128
 71
    21
 72
    25
 73
    23
  0
VERTEX
  5
4FD
  8
0
 62
     9
 10
0.0
 20
0.0
 30
0.0
 70
   128
 71
     1
 72
    22
 73
    23
  0
VERTEX
  5
4FE
  8
0
 62
     9
 10
0.0
 20
0.0
 30
0.0
 70
   128
 71
    23
 72
    27
 73
     1
  0
VERTEX
  5
4FF
  8
0
 62
     9
 10
0.0
 20
0.0
 30
0.0
 70
   128
 71
    30
 72
    29
 73
    28
  0
VERTEX
  5
500
  8
0
 62
     9
 10
0.0
 20
0.0
 30
0.0
 70
   128
 71
    31
 72
    28
 73
    29
  0
VERTEX
  5
501
  8
0
 62
     9
 10
0.0
 20
0.0
 30
0.0
 70
   128
 71
    29
 72
    32
 73
    31
  0
VERTEX
  5
502
  8
0
 62
     9
 10
0.0
 20
0.0
 30
0.0
 70
   128
 71
    29
 72
    33
 73
    32
  0
VERTEX
  5
503
  8
0
 62
     9
 10
0.0
 20
0.0
 30
0.0
 70
   128
 71
    36
 72
    35
 73
    34
  0
VERTEX
  5
504
  8
0
 62
     9
 10
0.0
 20
0.0
 30
0.0
 70
   128
 71
    38
 72
    37
 73
    34
  0
VERTEX
  5
505
  8
0
 62
     9
 10
0.0
 20
0.0
 30
0.0
 70
   128
 71
    37
 72
    39
 73
    34
  0
VERTEX
  5
506
  8
0
 62
     9
 10
0.0
 20
0.0
 30
0.0
 70
   128
 71
    34
 72
    35
 73
    38
  0
VERTEX
  5
507
  8
0
 62
     9
 10
0.0
 20
0.0
 30
0.0
 70
   128
 71
    41
 72
    40
 73
    34
  0
VERTEX
  5
508
  8
0
 62
     9
 10
0.0
 20
0.0
 30
0.0
 70
   128
 71
    40
 72
    42
 73
    34
  0
VERTEX
  5
509
  8
0
 62
     9
 10
0.0
 20
0.0
 30
0.0
 70
   128
 71
    34
 72
    39
 73
    41
  0
VERTEX
  5
50A
  8
0
 62
     9
 10
0.0
 20
0.0
 30
0.0
 70
   128
 71
    34
 72
    28
 73
    36
  0
VERTEX
  5
50B
  8
0
 62
     9
 10
0.0
 20
0.0
 30
0.0
 70
   128
 71
    28
 72
    34
 73
    30
  0
VERTEX
  5
50C
  8
0
 62
     9
 10
0.0
 20
0.0
 30
0.0
 70
   128
 71
    42
 72
    19
 73
    20
  0
VERTEX
  5
50D
  8
0
 62
     9
 10
0.0
 20
0.0
 30
0.0
 70
   128
 71
    42
 72
    20
 73
    34
  0
VERTEX
  5
50E
  8
0
 62
     9
 10
0.0
 20
0.0
 30
0.0
 70
   128
 71
    18
 72
    26
 73
    20
  0
VERTEX
  5
50F
  8
0
 62
     9
 10
0.0
 20
0.0
 30
0.0
 70
   128
 71
     1
 72
    27
 73
     4
  0
SEQEND
  5
510
  8
0
 62
     9
  0
ENDBLK
  5
513
  8
0
  0
BLOCK
  8
0
  2
E3_NODE_9_
 70
     0
 10
0.0
 20
0.0
 30
0.0
  3
E3_NODE_9_
  1

  0
POLYLINE
  5
515
  8
0
 62
     9
 66
     1
 10
0.0
 20
0.0
 30
0.0
 70
    64
 71
    58
 72
    65
  0
VERTEX
  5
516
  8
0
 10
62.13800048828125
 20
14.08300018310547
 30
69.54399871826172
 70
   192
  0
VERTEX
  5
517
  8
0
 10
79.18299865722656
 20
12.76399993896484
 30
67.0459976196289
 70
   192
  0
VERTEX
  5
518
  8
0
 10
78.6989974975586
 20
11.29199981689453
 30
65.01300048828125
 70
   192
  0
VERTEX
  5
519
  8
0
 10
61.50199890136719
 20
10.32400035858154
 30
65.94100189208984
 70
   192
  0
VERTEX
  5
51A
  8
0
 10
78.28299713134766
 20
9.196999549865723
 30
63.60499954223633
 70
   192
  0
VERTEX
  5
51B
  8
0
 10
70.42900085449219
 20
7.370999813079834
 30
64.17900085449219
 70
   192
  0
VERTEX
  5
51C
  8
0
 10
64.13999938964844
 20
7.728000164031982
 30
64.91999816894531
 70
   192
  0
VERTEX
  5
51D
  8
0
 10
77.98500061035156
 20
6.855000019073486
 30
62.94699859619141
 70
   192
  0
VERTEX
  5
51E
  8
0
 10
61.81000137329102
 20
12.51700019836426
 30
67.41899871826172
 70
   192
  0
VERTEX
  5
51F
  8
0
 10
59.51100158691406
 20
7.989999771118164
 30
65.46399688720703
 70
   192
  0
VERTEX
  5
520
  8
0
 10
49.70600128173828
 20
8.4350004196167
 30
66.1259994506836
 70
   192
  0
VERTEX
  5
521
  8
0
 10
44.5629997253418
 20
11.23700046539307
 30
67.06999969482422
 70
   192
  0
VERTEX
  5
522
  8
0
 10
61.25699996948242
 20
7.890999794006348
 30
65.25900268554688
 70
   192
  0
VERTEX
  5
523
  8
0
 10
48.39899826049805
 20
8.494000434875488
 30
66.21399688720703
 70
   192
  0
VERTEX
  5
524
  8
0
 10
44.75099945068359
 20
13.57900047302246
 30
68.68299865722656
 70
   192
  0
VERTEX
  5
525
  8
0
 10
44.37200164794922
 20
8.628000259399414
 30
66.29000091552734
 70
   192
  0
VERTEX
  5
526
  8
0
 10
35.55599975585938
 20
8.92199993133545
 30
66.45600128173828
 70
   192
  0
VERTEX
  5
527
  8
0
 10
34.36800003051758
 20
10.99499988555908
 30
66.91799926757812
 70
   192
  0
VERTEX
  5
528
  8
0
 10
33.86999893188477
 20
11.65900039672852
 30
67.24099731445312
 70
   192
  0
VERTEX
  5
529
  8
0
 10
33.73899841308594
 20
11.83199977874756
 30
67.32499694824219
 70
   192
  0
VERTEX
  5
52A
  8
0
 10
32.93099975585938
 20
12.9069995880127
 30
67.8479995727539
 70
   192
  0
VERTEX
  5
52B
  8
0
 10
44.90599822998047
 20
15.23999977111816
 30
70.98999786376953
 70
   192
  0
VERTEX
  5
52C
  8
0
 10
31.22599983215332
 20
14.67099952697754
 30
69.31400299072266
 70
   192
  0
VERTEX
  5
52D
  8
0
 10
29.65800094604492
 20
15.88700008392334
 30
70.9520034790039
 70
   192
  0
VERTEX
  5
52E
  8
0
 10
31.68400001525879
 20
14.19699954986572
 30
68.9209976196289
 70
   192
  0
VERTEX
  5
52F
  8
0
 10
36.62300109863281
 20
16.47599983215332
 30
73.83200073242188
 70
   192
  0
VERTEX
  5
530
  8
0
 10
28.93400001525879
 20
16.33600044250488
 30
71.95700073242188
 70
   192
  0
VERTEX
  5
531
  8
0
 10
28.48699951171875
 20
16.61300086975098
 30
72.57599639892578
 70
   192
  0
VERTEX
  5
532
  8
0
 10
28.21100044250488
 20
16.79800033569336
 30
73.40599822998047
 70
   192
  0
VERTEX
  5
533
  8
0
 10
40.24900054931641
 20
16.28400039672852
 30
73.75199890136719
 70
   192
  0
VERTEX
  5
534
  8
0
 10
41.63600158691406
 20
16.20299911499023
 30
73.68800354003906
 70
   192
  0
VERTEX
  5
535
  8
0
 10
29.37700080871582
 20
16.06100082397461
 30
71.34100341796875
 70
   192
  0
VERTEX
  5
536
  8
0
 10
44.99800109863281
 20
15.98999977111816
 30
73.4469985961914
 70
   192
  0
VERTEX
  5
537
  8
0
 10
53.76300048828125
 20
15.4350004196167
 30
72.82099914550781
 70
   192
  0
VERTEX
  5
538
  8
0
 10
52.81499862670898
 20
15.49499988555908
 30
72.88899993896484
 70
   192
  0
VERTEX
  5
539
  8
0
 10
68.92400360107422
 20
14.30799961090088
 30
70.94999694824219
 70
   192
  0
VERTEX
  5
53A
  8
0
 10
62.41600036621094
 20
14.80300045013428
 30
71.79299926757812
 70
   192
  0
VERTEX
  5
53B
  8
0
 10
67.27400207519531
 20
14.44699954986572
 30
71.21600341796875
 70
   192
  0
VERTEX
  5
53C
  8
0
 10
94.08399963378906
 20
11.48099994659424
 30
64.30699920654297
 70
   192
  0
VERTEX
  5
53D
  8
0
 10
84.98899841308594
 20
12.92800045013428
 30
68.3010025024414
 70
   192
  0
VERTEX
  5
53E
  8
0
 10
82.58499908447266
 20
13.15499973297119
 30
68.74400329589844
 70
   192
  0
VERTEX
  5
53F
  8
0
 10
79.63099670410156
 20
13.4040002822876
 30
69.22100067138672
 70
   192
  0
VERTEX
  5
540
  8
0
 10
94.1719970703125
 20
11.53899955749512
 30
64.40699768066406
 70
   192
  0
VERTEX
  5
541
  8
0
 10
92.79000091552734
 20
12.19200038909912
 30
66.86100006103516
 70
   192
  0
VERTEX
  5
542
  8
0
 10
93.35399627685547
 20
12.13500022888184
 30
66.75299835205078
 70
   192
  0
VERTEX
  5
543
  8
0
 10
96.1729965209961
 20
11.85499954223633
 30
66.21299743652344
 70
   192
  0
VERTEX
  5
544
  8
0
 10
95.69599914550781
 20
11.85299968719482
 30
65.81999969482422
 70
   192
  0
VERTEX
  5
545
  8
0
 10
92.99600219726562
 20
10.76599979400635
 30
63.06800079345703
 70
   192
  0
VERTEX
  5
546
  8
0
 10
92.58799743652344
 20
10.14099979400635
 30
62.46200180053711
 70
   192
  0
VERTEX
  5
547
  8
0
 10
92.10299682617188
 20
9.319000244140625
 30
61.7140007019043
 70
   192
  0
VERTEX
  5
548
  8
0
 10
92.17900085449219
 20
9.513999938964844
 30
61.85400009155273
 70
   192
  0
VERTEX
  5
549
  8
0
 10
91.77999877929688
 20
7.782000064849854
 30
60.89699935913086
 70
   192
  0
VERTEX
  5
54A
  8
0
 10
82.625
 20
6.538000106811523
 30
62.18999862670898
 70
   192
  0
VERTEX
  5
54B
  8
0
 10
78.48899841308594
 20
6.820000171661377
 30
62.8650016784668
 70
   192
  0
VERTEX
  5
54C
  8
0
 10
91.84200286865234
 20
5.831999778747559
 30
60.39799880981445
 70
   192
  0
VERTEX
  5
54D
  8
0
 10
90.90299987792969
 20
5.894999980926514
 30
60.5880012512207
 70
   192
  0
VERTEX
  5
54E
  8
0
 10
91.85199737548828
 20
8.125
 30
61.08000183105469
 70
   192
  0
VERTEX
  5
54F
  8
0
 10
28.00600051879883
 20
16.93499946594238
 30
74.02100372314453
 70
   192
  0
VERTEX
  5
550
  8
0
 62
     9
 10
0.0
 20
0.0
 30
0.0
 70
   128
 71
     3
 72
     2
 73
     1
  0
VERTEX
  5
551
  8
0
 62
     9
 10
0.0
 20
0.0
 30
0.0
 70
   128
 71
     6
 72
     5
 73
     4
  0
VERTEX
  5
552
  8
0
 62
     9
 10
0.0
 20
0.0
 30
0.0
 70
   128
 71
     4
 72
     7
 73
     6
  0
VERTEX
  5
553
  8
0
 62
     9
 10
0.0
 20
0.0
 30
0.0
 70
   128
 71
     6
 72
     8
 73
     5
  0
VERTEX
  5
554
  8
0
 62
     9
 10
0.0
 20
0.0
 30
0.0
 70
   128
 71
     5
 72
     3
 73
     9
  0
VERTEX
  5
555
  8
0
 62
     9
 10
0.0
 20
0.0
 30
0.0
 70
   128
 71
    11
 72
    10
 73
     4
  0
VERTEX
  5
556
  8
0
 62
     9
 10
0.0
 20
0.0
 30
0.0
 70
   128
 71
     4
 72
    12
 73
    11
  0
VERTEX
  5
557
  8
0
 62
     9
 10
0.0
 20
0.0
 30
0.0
 70
   128
 71
    10
 72
    13
 73
     4
  0
VERTEX
  5
558
  8
0
 62
     9
 10
0.0
 20
0.0
 30
0.0
 70
   128
 71
    12
 72
    14
 73
    11
  0
VERTEX
  5
559
  8
0
 62
     9
 10
0.0
 20
0.0
 30
0.0
 70
   128
 71
     4
 72
     9
 73
    15
  0
VERTEX
  5
55A
  8
0
 62
     9
 10
0.0
 20
0.0
 30
0.0
 70
   128
 71
    15
 72
     9
 73
     1
  0
VERTEX
  5
55B
  8
0
 62
     9
 10
0.0
 20
0.0
 30
0.0
 70
   128
 71
    17
 72
    16
 73
    12
  0
VERTEX
  5
55C
  8
0
 62
     9
 10
0.0
 20
0.0
 30
0.0
 70
   128
 71
    12
 72
    18
 73
    17
  0
VERTEX
  5
55D
  8
0
 62
     9
 10
0.0
 20
0.0
 30
0.0
 70
   128
 71
    19
 72
    12
 73
    15
  0
VERTEX
  5
55E
  8
0
 62
     9
 10
0.0
 20
0.0
 30
0.0
 70
   128
 71
    15
 72
    20
 73
    19
  0
VERTEX
  5
55F
  8
0
 62
     9
 10
0.0
 20
0.0
 30
0.0
 70
   128
 71
    15
 72
    21
 73
    20
  0
VERTEX
  5
560
  8
0
 62
     9
 10
0.0
 20
0.0
 30
0.0
 70
   128
 71
    24
 72
    23
 73
    22
  0
VERTEX
  5
561
  8
0
 62
     9
 10
0.0
 20
0.0
 30
0.0
 70
   128
 71
    25
 72
    15
 73
    22
  0
VERTEX
  5
562
  8
0
 62
     9
 10
0.0
 20
0.0
 30
0.0
 70
   128
 71
    22
 72
    23
 73
    25
  0
VERTEX
  5
563
  8
0
 62
     9
 10
0.0
 20
0.0
 30
0.0
 70
   128
 71
    28
 72
    27
 73
    26
  0
VERTEX
  5
564
  8
0
 62
     9
 10
0.0
 20
0.0
 30
0.0
 70
   128
 71
    26
 72
    29
 73
    28
  0
VERTEX
  5
565
  8
0
 62
     9
 10
0.0
 20
0.0
 30
0.0
 70
   128
 71
    31
 72
    30
 73
    22
  0
VERTEX
  5
566
  8
0
 62
     9
 10
0.0
 20
0.0
 30
0.0
 70
   128
 71
    26
 72
    27
 73
    32
  0
VERTEX
  5
567
  8
0
 62
     9
 10
0.0
 20
0.0
 30
0.0
 70
   128
 71
    32
 72
    22
 73
    26
  0
VERTEX
  5
568
  8
0
 62
     9
 10
0.0
 20
0.0
 30
0.0
 70
   128
 71
    22
 72
    30
 73
    26
  0
VERTEX
  5
569
  8
0
 62
     9
 10
0.0
 20
0.0
 30
0.0
 70
   128
 71
    22
 72
    33
 73
    31
  0
VERTEX
  5
56A
  8
0
 62
     9
 10
0.0
 20
0.0
 30
0.0
 70
   128
 71
    34
 72
    22
 73
     1
  0
VERTEX
  5
56B
  8
0
 62
     9
 10
0.0
 20
0.0
 30
0.0
 70
   128
 71
    34
 72
    35
 73
    22
  0
VERTEX
  5
56C
  8
0
 62
     9
 10
0.0
 20
0.0
 30
0.0
 70
   128
 71
    35
 72
    33
 73
    22
  0
VERTEX
  5
56D
  8
0
 62
     9
 10
0.0
 20
0.0
 30
0.0
 70
   128
 71
    36
 72
     1
 73
     2
  0
VERTEX
  5
56E
  8
0
 62
     9
 10
0.0
 20
0.0
 30
0.0
 70
   128
 71
    38
 72
    37
 73
     1
  0
VERTEX
  5
56F
  8
0
 62
     9
 10
0.0
 20
0.0
 30
0.0
 70
   128
 71
     1
 72
    36
 73
    38
  0
VERTEX
  5
570
  8
0
 62
     9
 10
0.0
 20
0.0
 30
0.0
 70
   128
 71
    40
 72
     2
 73
    39
  0
VERTEX
  5
571
  8
0
 62
     9
 10
0.0
 20
0.0
 30
0.0
 70
   128
 71
    40
 72
    41
 73
     2
  0
VERTEX
  5
572
  8
0
 62
     9
 10
0.0
 20
0.0
 30
0.0
 70
   128
 71
    41
 72
    42
 73
     2
  0
VERTEX
  5
573
  8
0
 62
     9
 10
0.0
 20
0.0
 30
0.0
 70
   128
 71
    45
 72
    44
 73
    43
  0
VERTEX
  5
574
  8
0
 62
     9
 10
0.0
 20
0.0
 30
0.0
 70
   128
 71
    44
 72
    40
 73
    43
  0
VERTEX
  5
575
  8
0
 62
     9
 10
0.0
 20
0.0
 30
0.0
 70
   128
 71
    47
 72
    46
 73
    45
  0
VERTEX
  5
576
  8
0
 62
     9
 10
0.0
 20
0.0
 30
0.0
 70
   128
 71
    43
 72
    47
 73
    45
  0
VERTEX
  5
577
  8
0
 62
     9
 10
0.0
 20
0.0
 30
0.0
 70
   128
 71
    49
 72
    48
 73
     2
  0
VERTEX
  5
578
  8
0
 62
     9
 10
0.0
 20
0.0
 30
0.0
 70
   128
 71
    48
 72
    39
 73
     2
  0
VERTEX
  5
579
  8
0
 62
     9
 10
0.0
 20
0.0
 30
0.0
 70
   128
 71
    50
 72
     3
 73
     5
  0
VERTEX
  5
57A
  8
0
 62
     9
 10
0.0
 20
0.0
 30
0.0
 70
   128
 71
    50
 72
    51
 73
     3
  0
VERTEX
  5
57B
  8
0
 62
     9
 10
0.0
 20
0.0
 30
0.0
 70
   128
 71
    51
 72
    49
 73
     3
  0
VERTEX
  5
57C
  8
0
 62
     9
 10
0.0
 20
0.0
 30
0.0
 70
   128
 71
    54
 72
    53
 73
    52
  0
VERTEX
  5
57D
  8
0
 62
     9
 10
0.0
 20
0.0
 30
0.0
 70
   128
 71
    56
 72
    55
 73
    52
  0
VERTEX
  5
57E
  8
0
 62
     9
 10
0.0
 20
0.0
 30
0.0
 70
   128
 71
    52
 72
    53
 73
    56
  0
VERTEX
  5
57F
  8
0
 62
     9
 10
0.0
 20
0.0
 30
0.0
 70
   128
 71
    52
 72
    57
 73
     5
  0
VERTEX
  5
580
  8
0
 62
     9
 10
0.0
 20
0.0
 30
0.0
 70
   128
 71
     5
 72
     8
 73
    52
  0
VERTEX
  5
581
  8
0
 62
     9
 10
0.0
 20
0.0
 30
0.0
 70
   128
 71
    52
 72
     8
 73
    54
  0
VERTEX
  5
582
  8
0
 62
     9
 10
0.0
 20
0.0
 30
0.0
 70
   128
 71
     5
 72
    57
 73
    50
  0
VERTEX
  5
583
  8
0
 62
     9
 10
0.0
 20
0.0
 30
0.0
 70
   128
 71
     2
 72
     3
 73
    49
  0
VERTEX
  5
584
  8
0
 62
     9
 10
0.0
 20
0.0
 30
0.0
 70
   128
 71
    39
 72
    43
 73
    40
  0
VERTEX
  5
585
  8
0
 62
     9
 10
0.0
 20
0.0
 30
0.0
 70
   128
 71
     2
 72
    42
 73
    36
  0
VERTEX
  5
586
  8
0
 62
     9
 10
0.0
 20
0.0
 30
0.0
 70
   128
 71
     1
 72
    37
 73
    34
  0
VERTEX
  5
587
  8
0
 62
     9
 10
0.0
 20
0.0
 30
0.0
 70
   128
 71
    26
 72
    58
 73
    29
  0
VERTEX
  5
588
  8
0
 62
     9
 10
0.0
 20
0.0
 30
0.0
 70
   128
 71
    22
 72
    32
 73
    24
  0
VERTEX
  5
589
  8
0
 62
     9
 10
0.0
 20
0.0
 30
0.0
 70
   128
 71
    15
 72
    25
 73
    21
  0
VERTEX
  5
58A
  8
0
 62
     9
 10
0.0
 20
0.0
 30
0.0
 70
   128
 71
    12
 72
    19
 73
    18
  0
VERTEX
  5
58B
  8
0
 62
     9
 10
0.0
 20
0.0
 30
0.0
 70
   128
 71
     1
 72
    22
 73
    15
  0
VERTEX
  5
58C
  8
0
 62
     9
 10
0.0
 20
0.0
 30
0.0
 70
   128
 71
    15
 72
    12
 73
     4
  0
VERTEX
  5
58D
  8
0
 62
     9
 10
0.0
 20
0.0
 30
0.0
 70
   128
 71
    12
 72
    16
 73
    14
  0
VERTEX
  5
58E
  8
0
 62
     9
 10
0.0
 20
0.0
 30
0.0
 70
   128
 71
     9
 72
     4
 73
     5
  0
VERTEX
  5
58F
  8
0
 62
     9
 10
0.0
 20
0.0
 30
0.0
 70
   128
 71
     4
 72
    13
 73
     7
  0
VERTEX
  5
590
  8
0
 62
     9
 10
0.0
 20
0.0
 30
0.0
 70
   128
 71
     1
 72
     9
 73
     3
  0
SEQEND
  5
591
  8
0
 62
     9
  0
ENDBLK
  5
594
  8
0
  0
BLOCK
  8
0
  2
E3_NODE_10_
 70
     0
 10
0.0
 20
0.0
 30
0.0
  3
E3_NODE_10_
  1

  0
POLYLINE
  5
596
  8
0
 62
     9
 66
     1
 10
0.0
 20
0.0
 30
0.0
 70
    64
 71
    65
 72
    79
  0
VERTEX
  5
597
  8
0
 10
23.02700042724609
 20
15.0939998626709
 30
63.30799865722656
 70
   192
  0
VERTEX
  5
598
  8
0
 10
21.79100036621094
 20
16.75
 30
65.25800323486328
 70
   192
  0
VERTEX
  5
599
  8
0
 10
24.27400016784668
 20
15.73099994659424
 30
67.3219985961914
 70
   192
  0
VERTEX
  5
59A
  8
0
 10
27.61599922180176
 20
10.51799964904785
 30
63.81000137329102
 70
   192
  0
VERTEX
  5
59B
  8
0
 10
28.90399932861328
 20
7.375999927520752
 30
63.40599822998047
 70
   192
  0
VERTEX
  5
59C
  8
0
 10
27.64800071716309
 20
7.184999942779541
 30
61.85100173950195
 70
   192
  0
VERTEX
  5
59D
  8
0
 10
28.93499946594238
 20
7.380000114440918
 30
63.44400024414062
 70
   192
  0
VERTEX
  5
59E
  8
0
 10
25.38999938964844
 20
10.88300037384033
 30
60.76100158691406
 70
   192
  0
VERTEX
  5
59F
  8
0
 10
20.65900039672852
 20
18.0620002746582
 30
67.65799713134766
 70
   192
  0
VERTEX
  5
5A0
  8
0
 10
19.70800018310547
 20
19.04800033569336
 30
70.80699920654297
 70
   192
  0
VERTEX
  5
5A1
  8
0
 10
22.39100074768066
 20
17.81399917602539
 30
71.73500061035156
 70
   192
  0
VERTEX
  5
5A2
  8
0
 10
21.20199966430664
 20
16.71699905395508
 30
60.9109992980957
 70
   192
  0
VERTEX
  5
5A3
  8
0
 10
19.94499969482422
 20
18.18199920654297
 30
62.95199966430664
 70
   192
  0
VERTEX
  5
5A4
  8
0
 10
21.31100082397461
 20
16.56599998474121
 30
60.77399826049805
 70
   192
  0
VERTEX
  5
5A5
  8
0
 10
23.23699951171875
 20
16.92200088500977
 30
69.23999786376953
 70
   192
  0
VERTEX
  5
5A6
  8
0
 10
19.73299980163574
 20
18.42900085449219
 30
63.29600143432617
 70
   192
  0
VERTEX
  5
5A7
  8
0
 10
18.59199905395508
 20
19.57900047302246
 30
65.73699951171875
 70
   192
  0
VERTEX
  5
5A8
  8
0
 10
19.82399940490723
 20
18.32200050354004
 30
63.14799880981445
 70
   192
  0
VERTEX
  5
5A9
  8
0
 10
18.48800086975098
 20
19.67300033569336
 30
66.05699920654297
 70
   192
  0
VERTEX
  5
5AA
  8
0
 10
17.57600021362305
 20
20.49600028991699
 30
68.83300018310547
 70
   192
  0
VERTEX
  5
5AB
  8
0
 10
28.26199913024902
 20
14.12600040435791
 30
67.85900115966797
 70
   192
  0
VERTEX
  5
5AC
  8
0
 10
25.41799926757812
 20
14.23499965667725
 30
65.76499938964844
 70
   192
  0
VERTEX
  5
5AD
  8
0
 10
26.06599998474121
 20
16.35499954223633
 30
70.6969985961914
 70
   192
  0
VERTEX
  5
5AE
  8
0
 10
25.26499938964844
 20
17.06599998474121
 30
72.60900115966797
 70
   192
  0
VERTEX
  5
5AF
  8
0
 10
30.61800003051758
 20
10.89900016784668
 30
66.09200286865234
 70
   192
  0
VERTEX
  5
5B0
  8
0
 10
31.05299949645996
 20
7.798999786376953
 30
65.13300323486328
 70
   192
  0
VERTEX
  5
5B1
  8
0
 10
29.05100059509277
 20
7.39799976348877
 30
63.5880012512207
 70
   192
  0
VERTEX
  5
5B2
  8
0
 10
32.17200088500977
 20
8.060999870300293
 30
65.62300109863281
 70
   192
  0
VERTEX
  5
5B3
  8
0
 10
32.11000061035156
 20
8.04699993133545
 30
65.59600067138672
 70
   192
  0
VERTEX
  5
5B4
  8
0
 10
26.54500007629395
 20
12.49899959564209
 30
64.5999984741211
 70
   192
  0
VERTEX
  5
5B5
  8
0
 10
26.0629997253418
 20
7.199999809265137
 30
57.39599990844727
 70
   192
  0
VERTEX
  5
5B6
  8
0
 10
25.17300033569336
 20
9.751999855041504
 30
56.85499954223633
 70
   192
  0
VERTEX
  5
5B7
  8
0
 10
25.14699935913086
 20
9.831000328063965
 30
56.86600112915039
 70
   192
  0
VERTEX
  5
5B8
  8
0
 10
26.00200080871582
 20
7.27400016784668
 30
56.51100158691406
 70
   192
  0
VERTEX
  5
5B9
  8
0
 10
24.23999977111816
 20
11.85599994659424
 30
57.54199981689453
 70
   192
  0
VERTEX
  5
5BA
  8
0
 10
26.58799934387207
 20
7.111999988555908
 30
59.68199920654297
 70
   192
  0
VERTEX
  5
5BB
  8
0
 10
26.79500007629395
 20
7.125999927520752
 30
60.10400009155273
 70
   192
  0
VERTEX
  5
5BC
  8
0
 10
26.78400039672852
 20
7.125
 30
60.08200073242188
 70
   192
  0
VERTEX
  5
5BD
  8
0
 10
24.24399948120117
 20
13.14799976348877
 30
61.82500076293945
 70
   192
  0
VERTEX
  5
5BE
  8
0
 10
24.08200073242188
 20
12.20800018310547
 30
57.65999984741211
 70
   192
  0
VERTEX
  5
5BF
  8
0
 10
22.80299949645996
 20
14.43200016021729
 30
58.93099975585938
 70
   192
  0
VERTEX
  5
5C0
  8
0
 10
22.65800094604492
 20
14.68299961090088
 30
59.07500076293945
 70
   192
  0
VERTEX
  5
5C1
  8
0
 10
17.36000061035156
 20
20.67300033569336
 30
69.87799835205078
 70
   192
  0
VERTEX
  5
5C2
  8
0
 10
16.69300079345703
 20
21.22200012207031
 30
73.11000061035156
 70
   192
  0
VERTEX
  5
5C3
  8
0
 10
18.90299987792969
 20
19.70499992370605
 30
73.45899963378906
 70
   192
  0
VERTEX
  5
5C4
  8
0
 10
20.42300033569336
 20
18.96199989318848
 30
73.62100219726562
 70
   192
  0
VERTEX
  5
5C5
  8
0
 10
21.88299942016602
 20
18.24699974060059
 30
73.77799987792969
 70
   192
  0
VERTEX
  5
5C6
  8
0
 10
19.30200004577637
 20
19.51000022888184
 30
73.5009994506836
 70
   192
  0
VERTEX
  5
5C7
  8
0
 10
22.11899948120117
 20
18.17600059509277
 30
73.79199981689453
 70
   192
  0
VERTEX
  5
5C8
  8
0
 10
24.88699913024902
 20
17.3430004119873
 30
73.95999908447266
 70
   192
  0
VERTEX
  5
5C9
  8
0
 10
25.07799911499023
 20
17.31800079345703
 30
73.96399688720703
 70
   192
  0
VERTEX
  5
5CA
  8
0
 10
28.00600051879883
 20
16.93499946594238
 30
74.02100372314453
 70
   192
  0
VERTEX
  5
5CB
  8
0
 10
28.21100044250488
 20
16.79800033569336
 30
73.40599822998047
 70
   192
  0
VERTEX
  5
5CC
  8
0
 10
28.48699951171875
 20
16.61300086975098
 30
72.57599639892578
 70
   192
  0
VERTEX
  5
5CD
  8
0
 10
29.37700080871582
 20
16.06100082397461
 30
71.34100341796875
 70
   192
  0
VERTEX
  5
5CE
  8
0
 10
29.65800094604492
 20
15.88700008392334
 30
70.9520034790039
 70
   192
  0
VERTEX
  5
5CF
  8
0
 10
28.93400001525879
 20
16.33600044250488
 30
71.95700073242188
 70
   192
  0
VERTEX
  5
5D0
  8
0
 10
31.68400001525879
 20
14.19699954986572
 30
68.9209976196289
 70
   192
  0
VERTEX
  5
5D1
  8
0
 10
32.93099975585938
 20
12.9069995880127
 30
67.8479995727539
 70
   192
  0
VERTEX
  5
5D2
  8
0
 10
31.22599983215332
 20
14.67099952697754
 30
69.31400299072266
 70
   192
  0
VERTEX
  5
5D3
  8
0
 10
33.73899841308594
 20
11.83199977874756
 30
67.32499694824219
 70
   192
  0
VERTEX
  5
5D4
  8
0
 10
33.15000152587891
 20
8.291000366210938
 30
66.052001953125
 70
   192
  0
VERTEX
  5
5D5
  8
0
 10
33.86999893188477
 20
11.65900039672852
 30
67.24099731445312
 70
   192
  0
VERTEX
  5
5D6
  8
0
 10
34.36800003051758
 20
10.99499988555908
 30
66.91799926757812
 70
   192
  0
VERTEX
  5
5D7
  8
0
 10
35.55599975585938
 20
8.92199993133545
 30
66.45600128173828
 70
   192
  0
VERTEX
  5
5D8
  8
0
 62
     9
 10
0.0
 20
0.0
 30
0.0
 70
   128
 71
     3
 72
     2
 73
     1
  0
VERTEX
  5
5D9
  8
0
 62
     9
 10
0.0
 20
0.0
 30
0.0
 70
   128
 71
     6
 72
     5
 73
     4
  0
VERTEX
  5
5DA
  8
0
 62
     9
 10
0.0
 20
0.0
 30
0.0
 70
   128
 71
     5
 72
     7
 73
     4
  0
VERTEX
  5
5DB
  8
0
 62
     9
 10
0.0
 20
0.0
 30
0.0
 70
   128
 71
     4
 72
     8
 73
     6
  0
VERTEX
  5
5DC
  8
0
 62
     9
 10
0.0
 20
0.0
 30
0.0
 70
   128
 71
    11
 72
    10
 73
     9
  0
VERTEX
  5
5DD
  8
0
 62
     9
 10
0.0
 20
0.0
 30
0.0
 70
   128
 71
    13
 72
    12
 73
     1
  0
VERTEX
  5
5DE
  8
0
 62
     9
 10
0.0
 20
0.0
 30
0.0
 70
   128
 71
    12
 72
    14
 73
     1
  0
VERTEX
  5
5DF
  8
0
 62
     9
 10
0.0
 20
0.0
 30
0.0
 70
   128
 71
     1
 72
     2
 73
    13
  0
VERTEX
  5
5E0
  8
0
 62
     9
 10
0.0
 20
0.0
 30
0.0
 70
   128
 71
    15
 72
     9
 73
     2
  0
VERTEX
  5
5E1
  8
0
 62
     9
 10
0.0
 20
0.0
 30
0.0
 70
   128
 71
    17
 72
    16
 73
     2
  0
VERTEX
  5
5E2
  8
0
 62
     9
 10
0.0
 20
0.0
 30
0.0
 70
   128
 71
     2
 72
     9
 73
    17
  0
VERTEX
  5
5E3
  8
0
 62
     9
 10
0.0
 20
0.0
 30
0.0
 70
   128
 71
    16
 72
    18
 73
     2
  0
VERTEX
  5
5E4
  8
0
 62
     9
 10
0.0
 20
0.0
 30
0.0
 70
   128
 71
    20
 72
    19
 73
     9
  0
VERTEX
  5
5E5
  8
0
 62
     9
 10
0.0
 20
0.0
 30
0.0
 70
   128
 71
     9
 72
    10
 73
    20
  0
VERTEX
  5
5E6
  8
0
 62
     9
 10
0.0
 20
0.0
 30
0.0
 70
   128
 71
     3
 72
    22
 73
    21
  0
VERTEX
  5
5E7
  8
0
 62
     9
 10
0.0
 20
0.0
 30
0.0
 70
   128
 71
    21
 72
    23
 73
     3
  0
VERTEX
  5
5E8
  8
0
 62
     9
 10
0.0
 20
0.0
 30
0.0
 70
   128
 71
    24
 72
    11
 73
    15
  0
VERTEX
  5
5E9
  8
0
 62
     9
 10
0.0
 20
0.0
 30
0.0
 70
   128
 71
    26
 72
    25
 73
     4
  0
VERTEX
  5
5EA
  8
0
 62
     9
 10
0.0
 20
0.0
 30
0.0
 70
   128
 71
     4
 72
    27
 73
    26
  0
VERTEX
  5
5EB
  8
0
 62
     9
 10
0.0
 20
0.0
 30
0.0
 70
   128
 71
    29
 72
    28
 73
    25
  0
VERTEX
  5
5EC
  8
0
 62
     9
 10
0.0
 20
0.0
 30
0.0
 70
   128
 71
    25
 72
    26
 73
    29
  0
VERTEX
  5
5ED
  8
0
 62
     9
 10
0.0
 20
0.0
 30
0.0
 70
   128
 71
    30
 72
     4
 73
    25
  0
VERTEX
  5
5EE
  8
0
 62
     9
 10
0.0
 20
0.0
 30
0.0
 70
   128
 71
    25
 72
    21
 73
    30
  0
VERTEX
  5
5EF
  8
0
 62
     9
 10
0.0
 20
0.0
 30
0.0
 70
   128
 71
    33
 72
    32
 73
    31
  0
VERTEX
  5
5F0
  8
0
 62
     9
 10
0.0
 20
0.0
 30
0.0
 70
   128
 71
    32
 72
    34
 73
    31
  0
VERTEX
  5
5F1
  8
0
 62
     9
 10
0.0
 20
0.0
 30
0.0
 70
   128
 71
    36
 72
     8
 73
    35
  0
VERTEX
  5
5F2
  8
0
 62
     9
 10
0.0
 20
0.0
 30
0.0
 70
   128
 71
    35
 72
    31
 73
    36
  0
VERTEX
  5
5F3
  8
0
 62
     9
 10
0.0
 20
0.0
 30
0.0
 70
   128
 71
    38
 72
    37
 73
     8
  0
VERTEX
  5
5F4
  8
0
 62
     9
 10
0.0
 20
0.0
 30
0.0
 70
   128
 71
     8
 72
    36
 73
    38
  0
VERTEX
  5
5F5
  8
0
 62
     9
 10
0.0
 20
0.0
 30
0.0
 70
   128
 71
    30
 72
    39
 73
     8
  0
VERTEX
  5
5F6
  8
0
 62
     9
 10
0.0
 20
0.0
 30
0.0
 70
   128
 71
    22
 72
     1
 73
    39
  0
VERTEX
  5
5F7
  8
0
 62
     9
 10
0.0
 20
0.0
 30
0.0
 70
   128
 71
    39
 72
    41
 73
    40
  0
VERTEX
  5
5F8
  8
0
 62
     9
 10
0.0
 20
0.0
 30
0.0
 70
   128
 71
    40
 72
    35
 73
     8
  0
VERTEX
  5
5F9
  8
0
 62
     9
 10
0.0
 20
0.0
 30
0.0
 70
   128
 71
     1
 72
    14
 73
    42
  0
VERTEX
  5
5FA
  8
0
 62
     9
 10
0.0
 20
0.0
 30
0.0
 70
   128
 71
    42
 72
    41
 73
    39
  0
VERTEX
  5
5FB
  8
0
 62
     9
 10
0.0
 20
0.0
 30
0.0
 70
   128
 71
    45
 72
    44
 73
    43
  0
VERTEX
  5
5FC
  8
0
 62
     9
 10
0.0
 20
0.0
 30
0.0
 70
   128
 71
    43
 72
    10
 73
    45
  0
VERTEX
  5
5FD
  8
0
 62
     9
 10
0.0
 20
0.0
 30
0.0
 70
   128
 71
    46
 72
    10
 73
    11
  0
VERTEX
  5
5FE
  8
0
 62
     9
 10
0.0
 20
0.0
 30
0.0
 70
   128
 71
    11
 72
    47
 73
    46
  0
VERTEX
  5
5FF
  8
0
 62
     9
 10
0.0
 20
0.0
 30
0.0
 70
   128
 71
    46
 72
    48
 73
    10
  0
VERTEX
  5
600
  8
0
 62
     9
 10
0.0
 20
0.0
 30
0.0
 70
   128
 71
    50
 72
    49
 73
    11
  0
VERTEX
  5
601
  8
0
 62
     9
 10
0.0
 20
0.0
 30
0.0
 70
   128
 71
    11
 72
    24
 73
    50
  0
VERTEX
  5
602
  8
0
 62
     9
 10
0.0
 20
0.0
 30
0.0
 70
   128
 71
    52
 72
    51
 73
    24
  0
VERTEX
  5
603
  8
0
 62
     9
 10
0.0
 20
0.0
 30
0.0
 70
   128
 71
    54
 72
    53
 73
    24
  0
VERTEX
  5
604
  8
0
 62
     9
 10
0.0
 20
0.0
 30
0.0
 70
   128
 71
    24
 72
    23
 73
    54
  0
VERTEX
  5
605
  8
0
 62
     9
 10
0.0
 20
0.0
 30
0.0
 70
   128
 71
    56
 72
    55
 73
    23
  0
VERTEX
  5
606
  8
0
 62
     9
 10
0.0
 20
0.0
 30
0.0
 70
   128
 71
    55
 72
    57
 73
    23
  0
VERTEX
  5
607
  8
0
 62
     9
 10
0.0
 20
0.0
 30
0.0
 70
   128
 71
    23
 72
    21
 73
    56
  0
VERTEX
  5
608
  8
0
 62
     9
 10
0.0
 20
0.0
 30
0.0
 70
   128
 71
    58
 72
    21
 73
    25
  0
VERTEX
  5
609
  8
0
 62
     9
 10
0.0
 20
0.0
 30
0.0
 70
   128
 71
    25
 72
    59
 73
    58
  0
VERTEX
  5
60A
  8
0
 62
     9
 10
0.0
 20
0.0
 30
0.0
 70
   128
 71
    58
 72
    60
 73
    21
  0
VERTEX
  5
60B
  8
0
 62
     9
 10
0.0
 20
0.0
 30
0.0
 70
   128
 71
    62
 72
    61
 73
    25
  0
VERTEX
  5
60C
  8
0
 62
     9
 10
0.0
 20
0.0
 30
0.0
 70
   128
 71
    64
 72
    63
 73
    62
  0
VERTEX
  5
60D
  8
0
 62
     9
 10
0.0
 20
0.0
 30
0.0
 70
   128
 71
    63
 72
    61
 73
    62
  0
VERTEX
  5
60E
  8
0
 62
     9
 10
0.0
 20
0.0
 30
0.0
 70
   128
 71
    62
 72
    65
 73
    64
  0
VERTEX
  5
60F
  8
0
 62
     9
 10
0.0
 20
0.0
 30
0.0
 70
   128
 71
    25
 72
    28
 73
    62
  0
VERTEX
  5
610
  8
0
 62
     9
 10
0.0
 20
0.0
 30
0.0
 70
   128
 71
    25
 72
    61
 73
    59
  0
VERTEX
  5
611
  8
0
 62
     9
 10
0.0
 20
0.0
 30
0.0
 70
   128
 71
    21
 72
    60
 73
    56
  0
VERTEX
  5
612
  8
0
 62
     9
 10
0.0
 20
0.0
 30
0.0
 70
   128
 71
    23
 72
    57
 73
    54
  0
VERTEX
  5
613
  8
0
 62
     9
 10
0.0
 20
0.0
 30
0.0
 70
   128
 71
    24
 72
    53
 73
    52
  0
VERTEX
  5
614
  8
0
 62
     9
 10
0.0
 20
0.0
 30
0.0
 70
   128
 71
    24
 72
    51
 73
    50
  0
VERTEX
  5
615
  8
0
 62
     9
 10
0.0
 20
0.0
 30
0.0
 70
   128
 71
    11
 72
    49
 73
    47
  0
VERTEX
  5
616
  8
0
 62
     9
 10
0.0
 20
0.0
 30
0.0
 70
   128
 71
    10
 72
    48
 73
    45
  0
VERTEX
  5
617
  8
0
 62
     9
 10
0.0
 20
0.0
 30
0.0
 70
   128
 71
    42
 72
    39
 73
     1
  0
VERTEX
  5
618
  8
0
 62
     9
 10
0.0
 20
0.0
 30
0.0
 70
   128
 71
    40
 72
     8
 73
    39
  0
VERTEX
  5
619
  8
0
 62
     9
 10
0.0
 20
0.0
 30
0.0
 70
   128
 71
    39
 72
    30
 73
    22
  0
VERTEX
  5
61A
  8
0
 62
     9
 10
0.0
 20
0.0
 30
0.0
 70
   128
 71
     8
 72
     4
 73
    30
  0
VERTEX
  5
61B
  8
0
 62
     9
 10
0.0
 20
0.0
 30
0.0
 70
   128
 71
    31
 72
    35
 73
    33
  0
VERTEX
  5
61C
  8
0
 62
     9
 10
0.0
 20
0.0
 30
0.0
 70
   128
 71
    21
 72
    22
 73
    30
  0
VERTEX
  5
61D
  8
0
 62
     9
 10
0.0
 20
0.0
 30
0.0
 70
   128
 71
     4
 72
     7
 73
    27
  0
VERTEX
  5
61E
  8
0
 62
     9
 10
0.0
 20
0.0
 30
0.0
 70
   128
 71
    15
 72
    23
 73
    24
  0
VERTEX
  5
61F
  8
0
 62
     9
 10
0.0
 20
0.0
 30
0.0
 70
   128
 71
    23
 72
    15
 73
     3
  0
VERTEX
  5
620
  8
0
 62
     9
 10
0.0
 20
0.0
 30
0.0
 70
   128
 71
    10
 72
    43
 73
    20
  0
VERTEX
  5
621
  8
0
 62
     9
 10
0.0
 20
0.0
 30
0.0
 70
   128
 71
     9
 72
    19
 73
    17
  0
VERTEX
  5
622
  8
0
 62
     9
 10
0.0
 20
0.0
 30
0.0
 70
   128
 71
     2
 72
     3
 73
    15
  0
VERTEX
  5
623
  8
0
 62
     9
 10
0.0
 20
0.0
 30
0.0
 70
   128
 71
     2
 72
    18
 73
    13
  0
VERTEX
  5
624
  8
0
 62
     9
 10
0.0
 20
0.0
 30
0.0
 70
   128
 71
     9
 72
    15
 73
    11
  0
VERTEX
  5
625
  8
0
 62
     9
 10
0.0
 20
0.0
 30
0.0
 70
   128
 71
     8
 72
    37
 73
     6
  0
VERTEX
  5
626
  8
0
 62
     9
 10
0.0
 20
0.0
 30
0.0
 70
   128
 71
     1
 72
    22
 73
     3
  0
SEQEND
  5
627
  8
0
 62
     9
  0
ENDBLK
  5
62A
  8
0
  0
BLOCK
  8
0
  2
E3_NODE_11_
 70
     0
 10
0.0
 20
0.0
 30
0.0
  3
E3_NODE_11_
  1

  0
POLYLINE
  5
62C
  8
0
 62
     9
 66
     1
 10
0.0
 20
0.0
 30
0.0
 70
    64
 71
    26
 72
    26
  0
VERTEX
  5
62D
  8
0
 10
0.0
 20
-41.99700164794922
 30
18.5
 70
   192
  0
VERTEX
  5
62E
  8
0
 10
0.0
 20
-41.99700164794922
 30
-14.0
 70
   192
  0
VERTEX
  5
62F
  8
0
 10
-7.298999786376953
 20
-44.13999938964844
 30
-14.0
 70
   192
  0
VERTEX
  5
630
  8
0
 10
-9.545999526977539
 20
-45.95100021362305
 30
18.5
 70
   192
  0
VERTEX
  5
631
  8
0
 10
-13.5
 20
-55.49700164794922
 30
18.5
 70
   192
  0
VERTEX
  5
632
  8
0
 10
-12.27999973297119
 20
-49.88800048828125
 30
-14.0
 70
   192
  0
VERTEX
  5
633
  8
0
 10
-9.159000396728516
 20
-46.2859992980957
 30
-14.0
 70
   192
  0
VERTEX
  5
634
  8
0
 10
-9.545999526977539
 20
-65.04199981689453
 30
18.5
 70
   192
  0
VERTEX
  5
635
  8
0
 10
-13.36299991607666
 20
-57.41799926757812
 30
-14.0
 70
   192
  0
VERTEX
  5
636
  8
0
 10
-10.20300006866455
 20
-64.33699798583984
 30
-14.0
 70
   192
  0
VERTEX
  5
637
  8
0
 10
-13.09500026702881
 20
-55.55500030517578
 30
-14.0
 70
   192
  0
VERTEX
  5
638
  8
0
 10
-9.416999816894531
 20
-64.84200286865234
 30
-14.0
 70
   192
  0
VERTEX
  5
639
  8
0
 10
-3.802999973297119
 20
-68.44999694824219
 30
-14.0
 70
   192
  0
VERTEX
  5
63A
  8
0
 10
0.0
 20
-68.99700164794922
 30
18.5
 70
   192
  0
VERTEX
  5
63B
  8
0
 10
9.545999526977539
 20
-65.04199981689453
 30
18.5
 70
   192
  0
VERTEX
  5
63C
  8
0
 10
3.802999973297119
 20
-68.44999694824219
 30
-14.0
 70
   192
  0
VERTEX
  5
63D
  8
0
 10
0.0
 20
-68.44999694824219
 30
-14.0
 70
   192
  0
VERTEX
  5
63E
  8
0
 10
10.20300006866455
 20
-64.33699798583984
 30
-14.0
 70
   192
  0
VERTEX
  5
63F
  8
0
 10
13.36299991607666
 20
-57.41799926757812
 30
-14.0
 70
   192
  0
VERTEX
  5
640
  8
0
 10
9.416999816894531
 20
-64.84200286865234
 30
-14.0
 70
   192
  0
VERTEX
  5
641
  8
0
 10
13.5
 20
-55.49700164794922
 30
18.5
 70
   192
  0
VERTEX
  5
642
  8
0
 10
13.09500026702881
 20
-55.55500030517578
 30
-14.0
 70
   192
  0
VERTEX
  5
643
  8
0
 10
12.27999973297119
 20
-49.88800048828125
 30
-14.0
 70
   192
  0
VERTEX
  5
644
  8
0
 10
9.545999526977539
 20
-45.95100021362305
 30
18.5
 70
   192
  0
VERTEX
  5
645
  8
0
 10
7.298999786376953
 20
-44.13999938964844
 30
-14.0
 70
   192
  0
VERTEX
  5
646
  8
0
 10
9.159000396728516
 20
-46.2859992980957
 30
-14.0
 70
   192
  0
VERTEX
  5
647
  8
0
 62
     9
 10
0.0
 20
0.0
 30
0.0
 70
   128
 71
     3
 72
     2
 73
     1
  0
VERTEX
  5
648
  8
0
 62
     9
 10
0.0
 20
0.0
 30
0.0
 70
   128
 71
     1
 72
     4
 73
     3
  0
VERTEX
  5
649
  8
0
 62
     9
 10
0.0
 20
0.0
 30
0.0
 70
   128
 71
     6
 72
     4
 73
     5
  0
VERTEX
  5
64A
  8
0
 62
     9
 10
0.0
 20
0.0
 30
0.0
 70
   128
 71
     6
 72
     7
 73
     4
  0
VERTEX
  5
64B
  8
0
 62
     9
 10
0.0
 20
0.0
 30
0.0
 70
   128
 71
     9
 72
     5
 73
     8
  0
VERTEX
  5
64C
  8
0
 62
     9
 10
0.0
 20
0.0
 30
0.0
 70
   128
 71
     8
 72
    10
 73
     9
  0
VERTEX
  5
64D
  8
0
 62
     9
 10
0.0
 20
0.0
 30
0.0
 70
   128
 71
     9
 72
    11
 73
     5
  0
VERTEX
  5
64E
  8
0
 62
     9
 10
0.0
 20
0.0
 30
0.0
 70
   128
 71
    13
 72
    12
 73
     8
  0
VERTEX
  5
64F
  8
0
 62
     9
 10
0.0
 20
0.0
 30
0.0
 70
   128
 71
     8
 72
    14
 73
    13
  0
VERTEX
  5
650
  8
0
 62
     9
 10
0.0
 20
0.0
 30
0.0
 70
   128
 71
    16
 72
    14
 73
    15
  0
VERTEX
  5
651
  8
0
 62
     9
 10
0.0
 20
0.0
 30
0.0
 70
   128
 71
    16
 72
    17
 73
    14
  0
VERTEX
  5
652
  8
0
 62
     9
 10
0.0
 20
0.0
 30
0.0
 70
   128
 71
    19
 72
    18
 73
    15
  0
VERTEX
  5
653
  8
0
 62
     9
 10
0.0
 20
0.0
 30
0.0
 70
   128
 71
    18
 72
    20
 73
    15
  0
VERTEX
  5
654
  8
0
 62
     9
 10
0.0
 20
0.0
 30
0.0
 70
   128
 71
    15
 72
    21
 73
    19
  0
VERTEX
  5
655
  8
0
 62
     9
 10
0.0
 20
0.0
 30
0.0
 70
   128
 71
    23
 72
    22
 73
    21
  0
VERTEX
  5
656
  8
0
 62
     9
 10
0.0
 20
0.0
 30
0.0
 70
   128
 71
    21
 72
    24
 73
    23
  0
VERTEX
  5
657
  8
0
 62
     9
 10
0.0
 20
0.0
 30
0.0
 70
   128
 71
    25
 72
    24
 73
     1
  0
VERTEX
  5
658
  8
0
 62
     9
 10
0.0
 20
0.0
 30
0.0
 70
   128
 71
    25
 72
    26
 73
    24
  0
VERTEX
  5
659
  8
0
 62
     9
 10
0.0
 20
0.0
 30
0.0
 70
   128
 71
     1
 72
     2
 73
    25
  0
VERTEX
  5
65A
  8
0
 62
     9
 10
0.0
 20
0.0
 30
0.0
 70
   128
 71
    24
 72
    26
 73
    23
  0
VERTEX
  5
65B
  8
0
 62
     9
 10
0.0
 20
0.0
 30
0.0
 70
   128
 71
    21
 72
    22
 73
    19
  0
VERTEX
  5
65C
  8
0
 62
     9
 10
0.0
 20
0.0
 30
0.0
 70
   128
 71
    15
 72
    20
 73
    16
  0
VERTEX
  5
65D
  8
0
 62
     9
 10
0.0
 20
0.0
 30
0.0
 70
   128
 71
    14
 72
    17
 73
    13
  0
VERTEX
  5
65E
  8
0
 62
     9
 10
0.0
 20
0.0
 30
0.0
 70
   128
 71
     8
 72
    12
 73
    10
  0
VERTEX
  5
65F
  8
0
 62
     9
 10
0.0
 20
0.0
 30
0.0
 70
   128
 71
     5
 72
    11
 73
     6
  0
VERTEX
  5
660
  8
0
 62
     9
 10
0.0
 20
0.0
 30
0.0
 70
   128
 71
     4
 72
     7
 73
     3
  0
SEQEND
  5
661
  8
0
 62
     9
  0
ENDBLK
  5
664
  8
0
  0
BLOCK
  8
0
  2
E3_NODE_12_
 70
     0
 10
0.0
 20
0.0
 30
0.0
  3
E3_NODE_12_
  1

  0
POLYLINE
  5
666
  8
0
 62
     9
 66
     1
 10
0.0
 20
0.0
 30
0.0
 70
    64
 71
    80
 72
   124
  0
VERTEX
  5
667
  8
0
 10
7.298999786376953
 20
-36.99700164794922
 30
-21.14299964904785
 70
   192
  0
VERTEX
  5
668
  8
0
 10
0.0
 20
-36.99700164794922
 30
-19.0
 70
   192
  0
VERTEX
  5
669
  8
0
 10
0.0
 20
-38.54199981689453
 30
-18.7549991607666
 70
   192
  0
VERTEX
  5
66A
  8
0
 10
0.0
 20
-39.93500137329102
 30
-18.04500007629395
 70
   192
  0
VERTEX
  5
66B
  8
0
 10
7.298999786376953
 20
-41.19499969482422
 30
-19.77899932861328
 70
   192
  0
VERTEX
  5
66C
  8
0
 10
0.0
 20
-41.04199981689453
 30
-16.93899917602539
 70
   192
  0
VERTEX
  5
66D
  8
0
 10
7.298999786376953
 20
-42.77500152587891
 30
-18.19899940490723
 70
   192
  0
VERTEX
  5
66E
  8
0
 10
0.0
 20
-41.75199890136719
 30
-15.54500007629395
 70
   192
  0
VERTEX
  5
66F
  8
0
 10
7.298999786376953
 20
-43.79000091552734
 30
-16.20700073242188
 70
   192
  0
VERTEX
  5
670
  8
0
 10
0.0
 20
-41.99700164794922
 30
-14.0
 70
   192
  0
VERTEX
  5
671
  8
0
 10
7.298999786376953
 20
-39.20399856567383
 30
-20.79299926757812
 70
   192
  0
VERTEX
  5
672
  8
0
 10
12.27999973297119
 20
-40.97999954223633
 30
-26.26099967956543
 70
   192
  0
VERTEX
  5
673
  8
0
 10
9.159000396728516
 20
-36.99700164794922
 30
-23.29000091552734
 70
   192
  0
VERTEX
  5
674
  8
0
 10
12.27999973297119
 20
-36.99700164794922
 30
-26.89200019836426
 70
   192
  0
VERTEX
  5
675
  8
0
 10
12.27999973297119
 20
-44.57400131225586
 30
-24.43000030517578
 70
   192
  0
VERTEX
  5
676
  8
0
 10
12.27999973297119
 20
-47.42599868774414
 30
-21.57799911499023
 70
   192
  0
VERTEX
  5
677
  8
0
 10
12.27999973297119
 20
-49.25699996948242
 30
-17.98399925231934
 70
   192
  0
VERTEX
  5
678
  8
0
 10
7.298999786376953
 20
-44.13999938964844
 30
-14.0
 70
   192
  0
VERTEX
  5
679
  8
0
 10
9.159000396728516
 20
-46.2859992980957
 30
-14.0
 70
   192
  0
VERTEX
  5
67A
  8
0
 10
13.09500026702881
 20
-36.99700164794922
 30
-32.55799865722656
 70
   192
  0
VERTEX
  5
67B
  8
0
 10
13.36299991607666
 20
-43.30699920654297
 30
-33.42200088500977
 70
   192
  0
VERTEX
  5
67C
  8
0
 10
13.36299991607666
 20
-36.99700164794922
 30
-34.42100143432617
 70
   192
  0
VERTEX
  5
67D
  8
0
 10
13.36299991607666
 20
-49.0
 30
-30.52099990844727
 70
   192
  0
VERTEX
  5
67E
  8
0
 10
13.36299991607666
 20
-53.51800155639648
 30
-26.00300025939941
 70
   192
  0
VERTEX
  5
67F
  8
0
 10
13.36299991607666
 20
-56.41799926757812
 30
-20.31100082397461
 70
   192
  0
VERTEX
  5
680
  8
0
 10
13.09500026702881
 20
-55.55500030517578
 30
-14.0
 70
   192
  0
VERTEX
  5
681
  8
0
 10
12.27999973297119
 20
-49.88800048828125
 30
-14.0
 70
   192
  0
VERTEX
  5
682
  8
0
 10
10.20300006866455
 20
-36.99700164794922
 30
-41.34099960327148
 70
   192
  0
VERTEX
  5
683
  8
0
 10
10.20300006866455
 20
-53.06700134277344
 30
-36.11899948120117
 70
   192
  0
VERTEX
  5
684
  8
0
 10
10.20300006866455
 20
-59.11600112915039
 30
-30.06999969482422
 70
   192
  0
VERTEX
  5
685
  8
0
 10
10.20300006866455
 20
-62.99900054931641
 30
-22.44899940490723
 70
   192
  0
VERTEX
  5
686
  8
0
 10
10.20300006866455
 20
-64.33699798583984
 30
-14.0
 70
   192
  0
VERTEX
  5
687
  8
0
 10
3.802999973297119
 20
-46.71599960327148
 30
-43.91400146484375
 70
   192
  0
VERTEX
  5
688
  8
0
 10
3.802999973297119
 20
-36.99700164794922
 30
-45.45299911499023
 70
   192
  0
VERTEX
  5
689
  8
0
 10
9.416999816894531
 20
-36.99700164794922
 30
-41.84500122070312
 70
   192
  0
VERTEX
  5
68A
  8
0
 10
10.20300006866455
 20
-45.44499969482422
 30
-40.00199890136719
 70
   192
  0
VERTEX
  5
68B
  8
0
 10
3.802999973297119
 20
-55.48400115966797
 30
-39.44599914550781
 70
   192
  0
VERTEX
  5
68C
  8
0
 10
3.802999973297119
 20
-62.44300079345703
 30
-32.48799896240234
 70
   192
  0
VERTEX
  5
68D
  8
0
 10
3.802999973297119
 20
-66.91000366210938
 30
-23.71999931335449
 70
   192
  0
VERTEX
  5
68E
  8
0
 10
9.416999816894531
 20
-64.84200286865234
 30
-14.0
 70
   192
  0
VERTEX
  5
68F
  8
0
 10
-3.802999973297119
 20
-46.71599960327148
 30
-43.91400146484375
 70
   192
  0
VERTEX
  5
690
  8
0
 10
0.0
 20
-36.99700164794922
 30
-45.45299911499023
 70
   192
  0
VERTEX
  5
691
  8
0
 10
-3.802999973297119
 20
-36.99700164794922
 30
-45.45299911499023
 70
   192
  0
VERTEX
  5
692
  8
0
 10
-3.802999973297119
 20
-55.48400115966797
 30
-39.44599914550781
 70
   192
  0
VERTEX
  5
693
  8
0
 10
-3.802999973297119
 20
-62.44300079345703
 30
-32.48799896240234
 70
   192
  0
VERTEX
  5
694
  8
0
 10
-3.802999973297119
 20
-66.91000366210938
 30
-23.71999931335449
 70
   192
  0
VERTEX
  5
695
  8
0
 10
0.0
 20
-68.44999694824219
 30
-14.0
 70
   192
  0
VERTEX
  5
696
  8
0
 10
3.802999973297119
 20
-68.44999694824219
 30
-14.0
 70
   192
  0
VERTEX
  5
697
  8
0
 10
-10.20300006866455
 20
-45.44499969482422
 30
-40.00199890136719
 70
   192
  0
VERTEX
  5
698
  8
0
 10
-9.416999816894531
 20
-36.99700164794922
 30
-41.84500122070312
 70
   192
  0
VERTEX
  5
699
  8
0
 10
-10.20300006866455
 20
-36.99700164794922
 30
-41.34099960327148
 70
   192
  0
VERTEX
  5
69A
  8
0
 10
-10.20300006866455
 20
-53.06700134277344
 30
-36.11899948120117
 70
   192
  0
VERTEX
  5
69B
  8
0
 10
-10.20300006866455
 20
-59.11600112915039
 30
-30.06999969482422
 70
   192
  0
VERTEX
  5
69C
  8
0
 10
-10.20300006866455
 20
-62.99900054931641
 30
-22.44899940490723
 70
   192
  0
VERTEX
  5
69D
  8
0
 10
-3.802999973297119
 20
-68.44999694824219
 30
-14.0
 70
   192
  0
VERTEX
  5
69E
  8
0
 10
-9.416999816894531
 20
-64.84200286865234
 30
-14.0
 70
   192
  0
VERTEX
  5
69F
  8
0
 10
-13.36299991607666
 20
-43.30699920654297
 30
-33.42200088500977
 70
   192
  0
VERTEX
  5
6A0
  8
0
 10
-13.36299991607666
 20
-49.0
 30
-30.52099990844727
 70
   192
  0
VERTEX
  5
6A1
  8
0
 10
-13.36299991607666
 20
-53.51800155639648
 30
-26.00300025939941
 70
   192
  0
VERTEX
  5
6A2
  8
0
 10
-13.36299991607666
 20
-56.41799926757812
 30
-20.31100082397461
 70
   192
  0
VERTEX
  5
6A3
  8
0
 10
-10.20300006866455
 20
-64.33699798583984
 30
-14.0
 70
   192
  0
VERTEX
  5
6A4
  8
0
 10
-13.36299991607666
 20
-57.41799926757812
 30
-14.0
 70
   192
  0
VERTEX
  5
6A5
  8
0
 10
-13.09500026702881
 20
-36.99700164794922
 30
-32.55799865722656
 70
   192
  0
VERTEX
  5
6A6
  8
0
 10
-12.27999973297119
 20
-40.97999954223633
 30
-26.26099967956543
 70
   192
  0
VERTEX
  5
6A7
  8
0
 10
-12.27999973297119
 20
-36.99700164794922
 30
-26.89200019836426
 70
   192
  0
VERTEX
  5
6A8
  8
0
 10
-12.27999973297119
 20
-44.57400131225586
 30
-24.43000030517578
 70
   192
  0
VERTEX
  5
6A9
  8
0
 10
-12.27999973297119
 20
-47.42599868774414
 30
-21.57799911499023
 70
   192
  0
VERTEX
  5
6AA
  8
0
 10
-12.27999973297119
 20
-49.25699996948242
 30
-17.98399925231934
 70
   192
  0
VERTEX
  5
6AB
  8
0
 10
-13.09500026702881
 20
-55.55500030517578
 30
-14.0
 70
   192
  0
VERTEX
  5
6AC
  8
0
 10
-12.27999973297119
 20
-49.88800048828125
 30
-14.0
 70
   192
  0
VERTEX
  5
6AD
  8
0
 10
-7.298999786376953
 20
-39.20399856567383
 30
-20.79299926757812
 70
   192
  0
VERTEX
  5
6AE
  8
0
 10
-7.298999786376953
 20
-36.99700164794922
 30
-21.14299964904785
 70
   192
  0
VERTEX
  5
6AF
  8
0
 10
-9.159000396728516
 20
-36.99700164794922
 30
-23.29000091552734
 70
   192
  0
VERTEX
  5
6B0
  8
0
 10
-7.298999786376953
 20
-41.19499969482422
 30
-19.77899932861328
 70
   192
  0
VERTEX
  5
6B1
  8
0
 10
-7.298999786376953
 20
-42.77500152587891
 30
-18.19899940490723
 70
   192
  0
VERTEX
  5
6B2
  8
0
 10
-7.298999786376953
 20
-43.79000091552734
 30
-16.20700073242188
 70
   192
  0
VERTEX
  5
6B3
  8
0
 10
-9.159000396728516
 20
-46.2859992980957
 30
-14.0
 70
   192
  0
VERTEX
  5
6B4
  8
0
 10
-7.298999786376953
 20
-44.13999938964844
 30
-14.0
 70
   192
  0
VERTEX
  5
6B5
  8
0
 10
-13.36299991607666
 20
-36.99700164794922
 30
-34.42100143432617
 70
   192
  0
VERTEX
  5
6B6
  8
0
 10
13.36299991607666
 20
-57.41799926757812
 30
-14.0
 70
   192
  0
VERTEX
  5
6B7
  8
0
 62
     9
 10
0.0
 20
0.0
 30
0.0
 70
   128
 71
     3
 72
     2
 73
     1
  0
VERTEX
  5
6B8
  8
0
 62
     9
 10
0.0
 20
0.0
 30
0.0
 70
   128
 71
     5
 72
     4
 73
     3
  0
VERTEX
  5
6B9
  8
0
 62
     9
 10
0.0
 20
0.0
 30
0.0
 70
   128
 71
     7
 72
     6
 73
     4
  0
VERTEX
  5
6BA
  8
0
 62
     9
 10
0.0
 20
0.0
 30
0.0
 70
   128
 71
     9
 72
     8
 73
     6
  0
VERTEX
  5
6BB
  8
0
 62
     9
 10
0.0
 20
0.0
 30
0.0
 70
   128
 71
    10
 72
     8
 73
     9
  0
VERTEX
  5
6BC
  8
0
 62
     9
 10
0.0
 20
0.0
 30
0.0
 70
   128
 71
    13
 72
    12
 73
    11
  0
VERTEX
  5
6BD
  8
0
 62
     9
 10
0.0
 20
0.0
 30
0.0
 70
   128
 71
    13
 72
    14
 73
    12
  0
VERTEX
  5
6BE
  8
0
 62
     9
 10
0.0
 20
0.0
 30
0.0
 70
   128
 71
    15
 72
     5
 73
    11
  0
VERTEX
  5
6BF
  8
0
 62
     9
 10
0.0
 20
0.0
 30
0.0
 70
   128
 71
    16
 72
     7
 73
     5
  0
VERTEX
  5
6C0
  8
0
 62
     9
 10
0.0
 20
0.0
 30
0.0
 70
   128
 71
    17
 72
     9
 73
     7
  0
VERTEX
  5
6C1
  8
0
 62
     9
 10
0.0
 20
0.0
 30
0.0
 70
   128
 71
    19
 72
    18
 73
     9
  0
VERTEX
  5
6C2
  8
0
 62
     9
 10
0.0
 20
0.0
 30
0.0
 70
   128
 71
     9
 72
    17
 73
    19
  0
VERTEX
  5
6C3
  8
0
 62
     9
 10
0.0
 20
0.0
 30
0.0
 70
   128
 71
    12
 72
    14
 73
    20
  0
VERTEX
  5
6C4
  8
0
 62
     9
 10
0.0
 20
0.0
 30
0.0
 70
   128
 71
    20
 72
    22
 73
    21
  0
VERTEX
  5
6C5
  8
0
 62
     9
 10
0.0
 20
0.0
 30
0.0
 70
   128
 71
    23
 72
    15
 73
    12
  0
VERTEX
  5
6C6
  8
0
 62
     9
 10
0.0
 20
0.0
 30
0.0
 70
   128
 71
    24
 72
    16
 73
    15
  0
VERTEX
  5
6C7
  8
0
 62
     9
 10
0.0
 20
0.0
 30
0.0
 70
   128
 71
    25
 72
    17
 73
    16
  0
VERTEX
  5
6C8
  8
0
 62
     9
 10
0.0
 20
0.0
 30
0.0
 70
   128
 71
    17
 72
    25
 73
    26
  0
VERTEX
  5
6C9
  8
0
 62
     9
 10
0.0
 20
0.0
 30
0.0
 70
   128
 71
    26
 72
    27
 73
    17
  0
VERTEX
  5
6CA
  8
0
 62
     9
 10
0.0
 20
0.0
 30
0.0
 70
   128
 71
    21
 72
    22
 73
    28
  0
VERTEX
  5
6CB
  8
0
 62
     9
 10
0.0
 20
0.0
 30
0.0
 70
   128
 71
    29
 72
    23
 73
    21
  0
VERTEX
  5
6CC
  8
0
 62
     9
 10
0.0
 20
0.0
 30
0.0
 70
   128
 71
    30
 72
    24
 73
    23
  0
VERTEX
  5
6CD
  8
0
 62
     9
 10
0.0
 20
0.0
 30
0.0
 70
   128
 71
    31
 72
    25
 73
    24
  0
VERTEX
  5
6CE
  8
0
 62
     9
 10
0.0
 20
0.0
 30
0.0
 70
   128
 71
    25
 72
    31
 73
    32
  0
VERTEX
  5
6CF
  8
0
 62
     9
 10
0.0
 20
0.0
 30
0.0
 70
   128
 71
    35
 72
    34
 73
    33
  0
VERTEX
  5
6D0
  8
0
 62
     9
 10
0.0
 20
0.0
 30
0.0
 70
   128
 71
    33
 72
    36
 73
    35
  0
VERTEX
  5
6D1
  8
0
 62
     9
 10
0.0
 20
0.0
 30
0.0
 70
   128
 71
    37
 72
    29
 73
    36
  0
VERTEX
  5
6D2
  8
0
 62
     9
 10
0.0
 20
0.0
 30
0.0
 70
   128
 71
    38
 72
    30
 73
    29
  0
VERTEX
  5
6D3
  8
0
 62
     9
 10
0.0
 20
0.0
 30
0.0
 70
   128
 71
    39
 72
    31
 73
    30
  0
VERTEX
  5
6D4
  8
0
 62
     9
 10
0.0
 20
0.0
 30
0.0
 70
   128
 71
    40
 72
    31
 73
    39
  0
VERTEX
  5
6D5
  8
0
 62
     9
 10
0.0
 20
0.0
 30
0.0
 70
   128
 71
    40
 72
    32
 73
    31
  0
VERTEX
  5
6D6
  8
0
 62
     9
 10
0.0
 20
0.0
 30
0.0
 70
   128
 71
    42
 72
    41
 73
    33
  0
VERTEX
  5
6D7
  8
0
 62
     9
 10
0.0
 20
0.0
 30
0.0
 70
   128
 71
    42
 72
    43
 73
    41
  0
VERTEX
  5
6D8
  8
0
 62
     9
 10
0.0
 20
0.0
 30
0.0
 70
   128
 71
    44
 72
    37
 73
    33
  0
VERTEX
  5
6D9
  8
0
 62
     9
 10
0.0
 20
0.0
 30
0.0
 70
   128
 71
    45
 72
    38
 73
    37
  0
VERTEX
  5
6DA
  8
0
 62
     9
 10
0.0
 20
0.0
 30
0.0
 70
   128
 71
    46
 72
    39
 73
    38
  0
VERTEX
  5
6DB
  8
0
 62
     9
 10
0.0
 20
0.0
 30
0.0
 70
   128
 71
    47
 72
    39
 73
    46
  0
VERTEX
  5
6DC
  8
0
 62
     9
 10
0.0
 20
0.0
 30
0.0
 70
   128
 71
    47
 72
    48
 73
    39
  0
VERTEX
  5
6DD
  8
0
 62
     9
 10
0.0
 20
0.0
 30
0.0
 70
   128
 71
    50
 72
    49
 73
    41
  0
VERTEX
  5
6DE
  8
0
 62
     9
 10
0.0
 20
0.0
 30
0.0
 70
   128
 71
    50
 72
    51
 73
    49
  0
VERTEX
  5
6DF
  8
0
 62
     9
 10
0.0
 20
0.0
 30
0.0
 70
   128
 71
    52
 72
    44
 73
    41
  0
VERTEX
  5
6E0
  8
0
 62
     9
 10
0.0
 20
0.0
 30
0.0
 70
   128
 71
    53
 72
    45
 73
    44
  0
VERTEX
  5
6E1
  8
0
 62
     9
 10
0.0
 20
0.0
 30
0.0
 70
   128
 71
    54
 72
    46
 73
    45
  0
VERTEX
  5
6E2
  8
0
 62
     9
 10
0.0
 20
0.0
 30
0.0
 70
   128
 71
    56
 72
    55
 73
    46
  0
VERTEX
  5
6E3
  8
0
 62
     9
 10
0.0
 20
0.0
 30
0.0
 70
   128
 71
    46
 72
    54
 73
    56
  0
VERTEX
  5
6E4
  8
0
 62
     9
 10
0.0
 20
0.0
 30
0.0
 70
   128
 71
    57
 72
    49
 73
    51
  0
VERTEX
  5
6E5
  8
0
 62
     9
 10
0.0
 20
0.0
 30
0.0
 70
   128
 71
    58
 72
    52
 73
    49
  0
VERTEX
  5
6E6
  8
0
 62
     9
 10
0.0
 20
0.0
 30
0.0
 70
   128
 71
    59
 72
    53
 73
    52
  0
VERTEX
  5
6E7
  8
0
 62
     9
 10
0.0
 20
0.0
 30
0.0
 70
   128
 71
    60
 72
    54
 73
    53
  0
VERTEX
  5
6E8
  8
0
 62
     9
 10
0.0
 20
0.0
 30
0.0
 70
   128
 71
    60
 72
    62
 73
    61
  0
VERTEX
  5
6E9
  8
0
 62
     9
 10
0.0
 20
0.0
 30
0.0
 70
   128
 71
    64
 72
    57
 73
    63
  0
VERTEX
  5
6EA
  8
0
 62
     9
 10
0.0
 20
0.0
 30
0.0
 70
   128
 71
    63
 72
    65
 73
    64
  0
VERTEX
  5
6EB
  8
0
 62
     9
 10
0.0
 20
0.0
 30
0.0
 70
   128
 71
    66
 72
    58
 73
    57
  0
VERTEX
  5
6EC
  8
0
 62
     9
 10
0.0
 20
0.0
 30
0.0
 70
   128
 71
    67
 72
    59
 73
    58
  0
VERTEX
  5
6ED
  8
0
 62
     9
 10
0.0
 20
0.0
 30
0.0
 70
   128
 71
    68
 72
    60
 73
    59
  0
VERTEX
  5
6EE
  8
0
 62
     9
 10
0.0
 20
0.0
 30
0.0
 70
   128
 71
    68
 72
    70
 73
    69
  0
VERTEX
  5
6EF
  8
0
 62
     9
 10
0.0
 20
0.0
 30
0.0
 70
   128
 71
    69
 72
    62
 73
    60
  0
VERTEX
  5
6F0
  8
0
 62
     9
 10
0.0
 20
0.0
 30
0.0
 70
   128
 71
    73
 72
    72
 73
    71
  0
VERTEX
  5
6F1
  8
0
 62
     9
 10
0.0
 20
0.0
 30
0.0
 70
   128
 71
    71
 72
    64
 73
    73
  0
VERTEX
  5
6F2
  8
0
 62
     9
 10
0.0
 20
0.0
 30
0.0
 70
   128
 71
    74
 72
    66
 73
    64
  0
VERTEX
  5
6F3
  8
0
 62
     9
 10
0.0
 20
0.0
 30
0.0
 70
   128
 71
    75
 72
    67
 73
    66
  0
VERTEX
  5
6F4
  8
0
 62
     9
 10
0.0
 20
0.0
 30
0.0
 70
   128
 71
    76
 72
    68
 73
    67
  0
VERTEX
  5
6F5
  8
0
 62
     9
 10
0.0
 20
0.0
 30
0.0
 70
   128
 71
    77
 72
    68
 73
    76
  0
VERTEX
  5
6F6
  8
0
 62
     9
 10
0.0
 20
0.0
 30
0.0
 70
   128
 71
    77
 72
    70
 73
    68
  0
VERTEX
  5
6F7
  8
0
 62
     9
 10
0.0
 20
0.0
 30
0.0
 70
   128
 71
     3
 72
    71
 73
    72
  0
VERTEX
  5
6F8
  8
0
 62
     9
 10
0.0
 20
0.0
 30
0.0
 70
   128
 71
     4
 72
    74
 73
    71
  0
VERTEX
  5
6F9
  8
0
 62
     9
 10
0.0
 20
0.0
 30
0.0
 70
   128
 71
     6
 72
    75
 73
    74
  0
VERTEX
  5
6FA
  8
0
 62
     9
 10
0.0
 20
0.0
 30
0.0
 70
   128
 71
     8
 72
    76
 73
    75
  0
VERTEX
  5
6FB
  8
0
 62
     9
 10
0.0
 20
0.0
 30
0.0
 70
   128
 71
    10
 72
    78
 73
    76
  0
VERTEX
  5
6FC
  8
0
 62
     9
 10
0.0
 20
0.0
 30
0.0
 70
   128
 71
    76
 72
     8
 73
    10
  0
VERTEX
  5
6FD
  8
0
 62
     9
 10
0.0
 20
0.0
 30
0.0
 70
   128
 71
    75
 72
     6
 73
     8
  0
VERTEX
  5
6FE
  8
0
 62
     9
 10
0.0
 20
0.0
 30
0.0
 70
   128
 71
    74
 72
     4
 73
     6
  0
VERTEX
  5
6FF
  8
0
 62
     9
 10
0.0
 20
0.0
 30
0.0
 70
   128
 71
    71
 72
     3
 73
     4
  0
VERTEX
  5
700
  8
0
 62
     9
 10
0.0
 20
0.0
 30
0.0
 70
   128
 71
    72
 72
     2
 73
     3
  0
VERTEX
  5
701
  8
0
 62
     9
 10
0.0
 20
0.0
 30
0.0
 70
   128
 71
    76
 72
    78
 73
    77
  0
VERTEX
  5
702
  8
0
 62
     9
 10
0.0
 20
0.0
 30
0.0
 70
   128
 71
    67
 72
    75
 73
    76
  0
VERTEX
  5
703
  8
0
 62
     9
 10
0.0
 20
0.0
 30
0.0
 70
   128
 71
    66
 72
    74
 73
    75
  0
VERTEX
  5
704
  8
0
 62
     9
 10
0.0
 20
0.0
 30
0.0
 70
   128
 71
    64
 72
    71
 73
    74
  0
VERTEX
  5
705
  8
0
 62
     9
 10
0.0
 20
0.0
 30
0.0
 70
   128
 71
    64
 72
    65
 73
    73
  0
VERTEX
  5
706
  8
0
 62
     9
 10
0.0
 20
0.0
 30
0.0
 70
   128
 71
    69
 72
    60
 73
    68
  0
VERTEX
  5
707
  8
0
 62
     9
 10
0.0
 20
0.0
 30
0.0
 70
   128
 71
    59
 72
    67
 73
    68
  0
VERTEX
  5
708
  8
0
 62
     9
 10
0.0
 20
0.0
 30
0.0
 70
   128
 71
    58
 72
    66
 73
    67
  0
VERTEX
  5
709
  8
0
 62
     9
 10
0.0
 20
0.0
 30
0.0
 70
   128
 71
    57
 72
    64
 73
    66
  0
VERTEX
  5
70A
  8
0
 62
     9
 10
0.0
 20
0.0
 30
0.0
 70
   128
 71
    57
 72
    79
 73
    63
  0
VERTEX
  5
70B
  8
0
 62
     9
 10
0.0
 20
0.0
 30
0.0
 70
   128
 71
    61
 72
    54
 73
    60
  0
VERTEX
  5
70C
  8
0
 62
     9
 10
0.0
 20
0.0
 30
0.0
 70
   128
 71
    53
 72
    59
 73
    60
  0
VERTEX
  5
70D
  8
0
 62
     9
 10
0.0
 20
0.0
 30
0.0
 70
   128
 71
    52
 72
    58
 73
    59
  0
VERTEX
  5
70E
  8
0
 62
     9
 10
0.0
 20
0.0
 30
0.0
 70
   128
 71
    49
 72
    57
 73
    58
  0
VERTEX
  5
70F
  8
0
 62
     9
 10
0.0
 20
0.0
 30
0.0
 70
   128
 71
    51
 72
    79
 73
    57
  0
VERTEX
  5
710
  8
0
 62
     9
 10
0.0
 20
0.0
 30
0.0
 70
   128
 71
    54
 72
    61
 73
    56
  0
VERTEX
  5
711
  8
0
 62
     9
 10
0.0
 20
0.0
 30
0.0
 70
   128
 71
    45
 72
    53
 73
    54
  0
VERTEX
  5
712
  8
0
 62
     9
 10
0.0
 20
0.0
 30
0.0
 70
   128
 71
    44
 72
    52
 73
    53
  0
VERTEX
  5
713
  8
0
 62
     9
 10
0.0
 20
0.0
 30
0.0
 70
   128
 71
    41
 72
    49
 73
    52
  0
VERTEX
  5
714
  8
0
 62
     9
 10
0.0
 20
0.0
 30
0.0
 70
   128
 71
    41
 72
    43
 73
    50
  0
VERTEX
  5
715
  8
0
 62
     9
 10
0.0
 20
0.0
 30
0.0
 70
   128
 71
    46
 72
    55
 73
    47
  0
VERTEX
  5
716
  8
0
 62
     9
 10
0.0
 20
0.0
 30
0.0
 70
   128
 71
    38
 72
    45
 73
    46
  0
VERTEX
  5
717
  8
0
 62
     9
 10
0.0
 20
0.0
 30
0.0
 70
   128
 71
    37
 72
    44
 73
    45
  0
VERTEX
  5
718
  8
0
 62
     9
 10
0.0
 20
0.0
 30
0.0
 70
   128
 71
    33
 72
    41
 73
    44
  0
VERTEX
  5
719
  8
0
 62
     9
 10
0.0
 20
0.0
 30
0.0
 70
   128
 71
    33
 72
    34
 73
    42
  0
VERTEX
  5
71A
  8
0
 62
     9
 10
0.0
 20
0.0
 30
0.0
 70
   128
 71
    39
 72
    48
 73
    40
  0
VERTEX
  5
71B
  8
0
 62
     9
 10
0.0
 20
0.0
 30
0.0
 70
   128
 71
    30
 72
    38
 73
    39
  0
VERTEX
  5
71C
  8
0
 62
     9
 10
0.0
 20
0.0
 30
0.0
 70
   128
 71
    29
 72
    37
 73
    38
  0
VERTEX
  5
71D
  8
0
 62
     9
 10
0.0
 20
0.0
 30
0.0
 70
   128
 71
    36
 72
    33
 73
    37
  0
VERTEX
  5
71E
  8
0
 62
     9
 10
0.0
 20
0.0
 30
0.0
 70
   128
 71
    36
 72
    28
 73
    35
  0
VERTEX
  5
71F
  8
0
 62
     9
 10
0.0
 20
0.0
 30
0.0
 70
   128
 71
    32
 72
    80
 73
    25
  0
VERTEX
  5
720
  8
0
 62
     9
 10
0.0
 20
0.0
 30
0.0
 70
   128
 71
    24
 72
    30
 73
    31
  0
VERTEX
  5
721
  8
0
 62
     9
 10
0.0
 20
0.0
 30
0.0
 70
   128
 71
    23
 72
    29
 73
    30
  0
VERTEX
  5
722
  8
0
 62
     9
 10
0.0
 20
0.0
 30
0.0
 70
   128
 71
    21
 72
    36
 73
    29
  0
VERTEX
  5
723
  8
0
 62
     9
 10
0.0
 20
0.0
 30
0.0
 70
   128
 71
    28
 72
    36
 73
    21
  0
VERTEX
  5
724
  8
0
 62
     9
 10
0.0
 20
0.0
 30
0.0
 70
   128
 71
    25
 72
    80
 73
    26
  0
VERTEX
  5
725
  8
0
 62
     9
 10
0.0
 20
0.0
 30
0.0
 70
   128
 71
    16
 72
    24
 73
    25
  0
VERTEX
  5
726
  8
0
 62
     9
 10
0.0
 20
0.0
 30
0.0
 70
   128
 71
    15
 72
    23
 73
    24
  0
VERTEX
  5
727
  8
0
 62
     9
 10
0.0
 20
0.0
 30
0.0
 70
   128
 71
    12
 72
    21
 73
    23
  0
VERTEX
  5
728
  8
0
 62
     9
 10
0.0
 20
0.0
 30
0.0
 70
   128
 71
    20
 72
    21
 73
    12
  0
VERTEX
  5
729
  8
0
 62
     9
 10
0.0
 20
0.0
 30
0.0
 70
   128
 71
    17
 72
    27
 73
    19
  0
VERTEX
  5
72A
  8
0
 62
     9
 10
0.0
 20
0.0
 30
0.0
 70
   128
 71
     7
 72
    16
 73
    17
  0
VERTEX
  5
72B
  8
0
 62
     9
 10
0.0
 20
0.0
 30
0.0
 70
   128
 71
     5
 72
    15
 73
    16
  0
VERTEX
  5
72C
  8
0
 62
     9
 10
0.0
 20
0.0
 30
0.0
 70
   128
 71
    11
 72
    12
 73
    15
  0
VERTEX
  5
72D
  8
0
 62
     9
 10
0.0
 20
0.0
 30
0.0
 70
   128
 71
    11
 72
     1
 73
    13
  0
VERTEX
  5
72E
  8
0
 62
     9
 10
0.0
 20
0.0
 30
0.0
 70
   128
 71
     9
 72
    18
 73
    10
  0
VERTEX
  5
72F
  8
0
 62
     9
 10
0.0
 20
0.0
 30
0.0
 70
   128
 71
     6
 72
     7
 73
     9
  0
VERTEX
  5
730
  8
0
 62
     9
 10
0.0
 20
0.0
 30
0.0
 70
   128
 71
     4
 72
     5
 73
     7
  0
VERTEX
  5
731
  8
0
 62
     9
 10
0.0
 20
0.0
 30
0.0
 70
   128
 71
     3
 72
    11
 73
     5
  0
VERTEX
  5
732
  8
0
 62
     9
 10
0.0
 20
0.0
 30
0.0
 70
   128
 71
     1
 72
    11
 73
     3
  0
SEQEND
  5
733
  8
0
 62
     9
  0
ENDBLK
  5
736
  8
0
  0
BLOCK
  8
0
  2
E3_NODE_13_
 70
     0
 10
0.0
 20
0.0
 30
0.0
  3
E3_NODE_13_
  1

  0
POLYLINE
  5
738
  8
0
 62
     9
 66
     1
 10
0.0
 20
0.0
 30
0.0
 70
    64
 71
    26
 72
    26
  0
VERTEX
  5
739
  8
0
 10
0.0
 20
-11.99699974060059
 30
-19.0
 70
   192
  0
VERTEX
  5
73A
  8
0
 10
-9.545999526977539
 20
-11.99699974060059
 30
-22.95400047302246
 70
   192
  0
VERTEX
  5
73B
  8
0
 10
-7.298999786376953
 20
-36.99700164794922
 30
-21.14299964904785
 70
   192
  0
VERTEX
  5
73C
  8
0
 10
-9.159000396728516
 20
-36.99700164794922
 30
-23.29000091552734
 70
   192
  0
VERTEX
  5
73D
  8
0
 10
-13.5
 20
-11.99699974060059
 30
-32.5
 70
   192
  0
VERTEX
  5
73E
  8
0
 10
-13.09500026702881
 20
-36.99700164794922
 30
-32.55799865722656
 70
   192
  0
VERTEX
  5
73F
  8
0
 10
-12.27999973297119
 20
-36.99700164794922
 30
-26.89200019836426
 70
   192
  0
VERTEX
  5
740
  8
0
 10
-9.545999526977539
 20
-11.99699974060059
 30
-42.04600143432617
 70
   192
  0
VERTEX
  5
741
  8
0
 10
-10.20300006866455
 20
-36.99700164794922
 30
-41.34099960327148
 70
   192
  0
VERTEX
  5
742
  8
0
 10
-13.36299991607666
 20
-36.99700164794922
 30
-34.42100143432617
 70
   192
  0
VERTEX
  5
743
  8
0
 10
-9.416999816894531
 20
-36.99700164794922
 30
-41.84500122070312
 70
   192
  0
VERTEX
  5
744
  8
0
 10
0.0
 20
-11.99699974060059
 30
-46.0
 70
   192
  0
VERTEX
  5
745
  8
0
 10
-3.802999973297119
 20
-36.99700164794922
 30
-45.45299911499023
 70
   192
  0
VERTEX
  5
746
  8
0
 10
0.0
 20
-36.99700164794922
 30
-45.45299911499023
 70
   192
  0
VERTEX
  5
747
  8
0
 10
9.545999526977539
 20
-11.99699974060059
 30
-42.04600143432617
 70
   192
  0
VERTEX
  5
748
  8
0
 10
9.416999816894531
 20
-36.99700164794922
 30
-41.84500122070312
 70
   192
  0
VERTEX
  5
749
  8
0
 10
3.802999973297119
 20
-36.99700164794922
 30
-45.45299911499023
 70
   192
  0
VERTEX
  5
74A
  8
0
 10
13.5
 20
-11.99699974060059
 30
-32.5
 70
   192
  0
VERTEX
  5
74B
  8
0
 10
13.36299991607666
 20
-36.99700164794922
 30
-34.42100143432617
 70
   192
  0
VERTEX
  5
74C
  8
0
 10
13.09500026702881
 20
-36.99700164794922
 30
-32.55799865722656
 70
   192
  0
VERTEX
  5
74D
  8
0
 10
10.20300006866455
 20
-36.99700164794922
 30
-41.34099960327148
 70
   192
  0
VERTEX
  5
74E
  8
0
 10
9.545999526977539
 20
-11.99699974060059
 30
-22.95400047302246
 70
   192
  0
VERTEX
  5
74F
  8
0
 10
12.27999973297119
 20
-36.99700164794922
 30
-26.89200019836426
 70
   192
  0
VERTEX
  5
750
  8
0
 10
9.159000396728516
 20
-36.99700164794922
 30
-23.29000091552734
 70
   192
  0
VERTEX
  5
751
  8
0
 10
0.0
 20
-36.99700164794922
 30
-19.0
 70
   192
  0
VERTEX
  5
752
  8
0
 10
7.298999786376953
 20
-36.99700164794922
 30
-21.14299964904785
 70
   192
  0
VERTEX
  5
753
  8
0
 62
     9
 10
0.0
 20
0.0
 30
0.0
 70
   128
 71
     3
 72
     2
 73
     1
  0
VERTEX
  5
754
  8
0
 62
     9
 10
0.0
 20
0.0
 30
0.0
 70
   128
 71
     3
 72
     4
 73
     2
  0
VERTEX
  5
755
  8
0
 62
     9
 10
0.0
 20
0.0
 30
0.0
 70
   128
 71
     7
 72
     6
 73
     5
  0
VERTEX
  5
756
  8
0
 62
     9
 10
0.0
 20
0.0
 30
0.0
 70
   128
 71
     5
 72
     2
 73
     7
  0
VERTEX
  5
757
  8
0
 62
     9
 10
0.0
 20
0.0
 30
0.0
 70
   128
 71
    10
 72
     9
 73
     8
  0
VERTEX
  5
758
  8
0
 62
     9
 10
0.0
 20
0.0
 30
0.0
 70
   128
 71
     8
 72
     5
 73
    10
  0
VERTEX
  5
759
  8
0
 62
     9
 10
0.0
 20
0.0
 30
0.0
 70
   128
 71
     9
 72
    11
 73
     8
  0
VERTEX
  5
75A
  8
0
 62
     9
 10
0.0
 20
0.0
 30
0.0
 70
   128
 71
    13
 72
    12
 73
     8
  0
VERTEX
  5
75B
  8
0
 62
     9
 10
0.0
 20
0.0
 30
0.0
 70
   128
 71
    13
 72
    14
 73
    12
  0
VERTEX
  5
75C
  8
0
 62
     9
 10
0.0
 20
0.0
 30
0.0
 70
   128
 71
    17
 72
    16
 73
    15
  0
VERTEX
  5
75D
  8
0
 62
     9
 10
0.0
 20
0.0
 30
0.0
 70
   128
 71
    15
 72
    12
 73
    17
  0
VERTEX
  5
75E
  8
0
 62
     9
 10
0.0
 20
0.0
 30
0.0
 70
   128
 71
    19
 72
    18
 73
    15
  0
VERTEX
  5
75F
  8
0
 62
     9
 10
0.0
 20
0.0
 30
0.0
 70
   128
 71
    19
 72
    20
 73
    18
  0
VERTEX
  5
760
  8
0
 62
     9
 10
0.0
 20
0.0
 30
0.0
 70
   128
 71
    15
 72
    21
 73
    19
  0
VERTEX
  5
761
  8
0
 62
     9
 10
0.0
 20
0.0
 30
0.0
 70
   128
 71
    23
 72
    22
 73
    18
  0
VERTEX
  5
762
  8
0
 62
     9
 10
0.0
 20
0.0
 30
0.0
 70
   128
 71
    23
 72
    24
 73
    22
  0
VERTEX
  5
763
  8
0
 62
     9
 10
0.0
 20
0.0
 30
0.0
 70
   128
 71
    26
 72
    25
 73
     1
  0
VERTEX
  5
764
  8
0
 62
     9
 10
0.0
 20
0.0
 30
0.0
 70
   128
 71
     1
 72
    22
 73
    26
  0
VERTEX
  5
765
  8
0
 62
     9
 10
0.0
 20
0.0
 30
0.0
 70
   128
 71
    22
 72
    24
 73
    26
  0
VERTEX
  5
766
  8
0
 62
     9
 10
0.0
 20
0.0
 30
0.0
 70
   128
 71
    18
 72
    20
 73
    23
  0
VERTEX
  5
767
  8
0
 62
     9
 10
0.0
 20
0.0
 30
0.0
 70
   128
 71
    15
 72
    16
 73
    21
  0
VERTEX
  5
768
  8
0
 62
     9
 10
0.0
 20
0.0
 30
0.0
 70
   128
 71
    12
 72
    14
 73
    17
  0
VERTEX
  5
769
  8
0
 62
     9
 10
0.0
 20
0.0
 30
0.0
 70
   128
 71
     8
 72
    11
 73
    13
  0
VERTEX
  5
76A
  8
0
 62
     9
 10
0.0
 20
0.0
 30
0.0
 70
   128
 71
     5
 72
     6
 73
    10
  0
VERTEX
  5
76B
  8
0
 62
     9
 10
0.0
 20
0.0
 30
0.0
 70
   128
 71
     2
 72
     4
 73
     7
  0
VERTEX
  5
76C
  8
0
 62
     9
 10
0.0
 20
0.0
 30
0.0
 70
   128
 71
     1
 72
    25
 73
     3
  0
SEQEND
  5
76D
  8
0
 62
     9
  0
ENDBLK
  5
770
  8
0
  0
BLOCK
  8
0
  2
E3_NODE_14_
 70
     0
 10
0.0
 20
0.0
 30
0.0
  3
E3_NODE_14_
  1

  0
POLYLINE
  5
772
  8
0
 62
     9
 66
     1
 10
0.0
 20
0.0
 30
0.0
 70
    64
 71
    14
 72
    14
  0
VERTEX
  5
773
  8
0
 10
167.0879974365234
 20
-48.01499938964844
 30
93.66699981689453
 70
   192
  0
VERTEX
  5
774
  8
0
 10
164.8309936523438
 20
-48.01499938964844
 30
106.4690017700195
 70
   192
  0
VERTEX
  5
775
  8
0
 10
174.0700073242188
 20
-43.49700164794922
 30
108.0979995727539
 70
   192
  0
VERTEX
  5
776
  8
0
 10
162.5489959716797
 20
-58.16699981689453
 30
106.0670013427734
 70
   192
  0
VERTEX
  5
777
  8
0
 10
171.1999969482422
 20
-66.30799865722656
 30
94.39199829101562
 70
   192
  0
VERTEX
  5
778
  8
0
 10
168.9429931640625
 20
-66.30799865722656
 30
107.1940002441406
 70
   192
  0
VERTEX
  5
779
  8
0
 10
181.4550018310547
 20
-66.30799865722656
 30
96.19999694824219
 70
   192
  0
VERTEX
  5
77A
  8
0
 10
179.197998046875
 20
-66.30799865722656
 30
109.0019989013672
 70
   192
  0
VERTEX
  5
77B
  8
0
 10
187.8489990234375
 20
-58.16699981689453
 30
97.3270034790039
 70
   192
  0
VERTEX
  5
77C
  8
0
 10
185.5919952392578
 20
-58.16699981689453
 30
110.129997253418
 70
   192
  0
VERTEX
  5
77D
  8
0
 10
185.5670013427734
 20
-48.01499938964844
 30
96.92500305175781
 70
   192
  0
VERTEX
  5
77E
  8
0
 10
183.3099975585938
 20
-48.01499938964844
 30
109.7269973754883
 70
   192
  0
VERTEX
  5
77F
  8
0
 10
176.3280029296875
 20
-43.49700164794922
 30
95.2959976196289
 70
   192
  0
VERTEX
  5
780
  8
0
 10
164.8059997558594
 20
-58.16699981689453
 30
93.26399993896484
 70
   192
  0
VERTEX
  5
781
  8
0
 62
     9
 10
0.0
 20
0.0
 30
0.0
 70
   128
 71
     3
 72
     2
 73
     1
  0
VERTEX
  5
782
  8
0
 62
     9
 10
0.0
 20
0.0
 30
0.0
 70
   128
 71
     1
 72
     2
 73
     4
  0
VERTEX
  5
783
  8
0
 62
     9
 10
0.0
 20
0.0
 30
0.0
 70
   128
 71
     4
 72
     6
 73
     5
  0
VERTEX
  5
784
  8
0
 62
     9
 10
0.0
 20
0.0
 30
0.0
 70
   128
 71
     6
 72
     8
 73
     7
  0
VERTEX
  5
785
  8
0
 62
     9
 10
0.0
 20
0.0
 30
0.0
 70
   128
 71
     8
 72
    10
 73
     9
  0
VERTEX
  5
786
  8
0
 62
     9
 10
0.0
 20
0.0
 30
0.0
 70
   128
 71
    10
 72
    12
 73
    11
  0
VERTEX
  5
787
  8
0
 62
     9
 10
0.0
 20
0.0
 30
0.0
 70
   128
 71
    11
 72
    12
 73
     3
  0
VERTEX
  5
788
  8
0
 62
     9
 10
0.0
 20
0.0
 30
0.0
 70
   128
 71
     3
 72
    13
 73
    11
  0
VERTEX
  5
789
  8
0
 62
     9
 10
0.0
 20
0.0
 30
0.0
 70
   128
 71
    11
 72
     9
 73
    10
  0
VERTEX
  5
78A
  8
0
 62
     9
 10
0.0
 20
0.0
 30
0.0
 70
   128
 71
     9
 72
     7
 73
     8
  0
VERTEX
  5
78B
  8
0
 62
     9
 10
0.0
 20
0.0
 30
0.0
 70
   128
 71
     7
 72
     5
 73
     6
  0
VERTEX
  5
78C
  8
0
 62
     9
 10
0.0
 20
0.0
 30
0.0
 70
   128
 71
     5
 72
    14
 73
     4
  0
VERTEX
  5
78D
  8
0
 62
     9
 10
0.0
 20
0.0
 30
0.0
 70
   128
 71
     4
 72
    14
 73
     1
  0
VERTEX
  5
78E
  8
0
 62
     9
 10
0.0
 20
0.0
 30
0.0
 70
   128
 71
     1
 72
    13
 73
     3
  0
SEQEND
  5
78F
  8
0
 62
     9
  0
ENDBLK
  5
792
  8
0
  0
BLOCK
  8
0
  2
E3_NODE_15_
 70
     0
 10
0.0
 20
0.0
 30
0.0
  3
E3_NODE_15_
  1

  0
POLYLINE
  5
794
  8
0
 62
     9
 66
     1
 10
0.0
 20
0.0
 30
0.0
 70
    64
 71
     7
 72
     5
  0
VERTEX
  5
795
  8
0
 10
167.0879974365234
 20
-48.01499938964844
 30
93.66699981689453
 70
   192
  0
VERTEX
  5
796
  8
0
 10
181.4550018310547
 20
-66.30799865722656
 30
96.19999694824219
 70
   192
  0
VERTEX
  5
797
  8
0
 10
171.1999969482422
 20
-66.30799865722656
 30
94.39199829101562
 70
   192
  0
VERTEX
  5
798
  8
0
 10
164.8059997558594
 20
-58.16699981689453
 30
93.26399993896484
 70
   192
  0
VERTEX
  5
799
  8
0
 10
176.3280029296875
 20
-43.49700164794922
 30
95.2959976196289
 70
   192
  0
VERTEX
  5
79A
  8
0
 10
185.5670013427734
 20
-48.01499938964844
 30
96.92500305175781
 70
   192
  0
VERTEX
  5
79B
  8
0
 10
187.8489990234375
 20
-58.16699981689453
 30
97.3270034790039
 70
   192
  0
VERTEX
  5
79C
  8
0
 62
     9
 10
0.0
 20
0.0
 30
0.0
 70
   128
 71
     3
 72
     2
 73
     1
  0
VERTEX
  5
79D
  8
0
 62
     9
 10
0.0
 20
0.0
 30
0.0
 70
   128
 71
     1
 72
     4
 73
     3
  0
VERTEX
  5
79E
  8
0
 62
     9
 10
0.0
 20
0.0
 30
0.0
 70
   128
 71
     6
 72
     5
 73
     2
  0
VERTEX
  5
79F
  8
0
 62
     9
 10
0.0
 20
0.0
 30
0.0
 70
   128
 71
     2
 72
     7
 73
     6
  0
VERTEX
  5
7A0
  8
0
 62
     9
 10
0.0
 20
0.0
 30
0.0
 70
   128
 71
     2
 72
     5
 73
     1
  0
SEQEND
  5
7A1
  8
0
 62
     9
  0
ENDBLK
  5
7A4
  8
0
  0
BLOCK
  8
0
  2
E3_NODE_16_
 70
     0
 10
0.0
 20
0.0
 30
0.0
  3
E3_NODE_16_
  1

  0
POLYLINE
  5
7A6
  8
0
 62
     9
 66
     1
 10
0.0
 20
0.0
 30
0.0
 70
    64
 71
     8
 72
     6
  0
VERTEX
  5
7A7
  8
0
 10
189.02099609375
 20
-55.49700164794922
 30
103.9309997558594
 70
   192
  0
VERTEX
  5
7A8
  8
0
 10
184.9830017089844
 20
-65.39600372314453
 30
103.2190017700195
 70
   192
  0
VERTEX
  5
7A9
  8
0
 10
175.2339935302734
 20
-69.49700164794922
 30
101.5
 70
   192
  0
VERTEX
  5
7AA
  8
0
 10
165.4850006103516
 20
-45.59700012207031
 30
99.78099822998047
 70
   192
  0
VERTEX
  5
7AB
  8
0
 10
175.2339935302734
 20
-41.49700164794922
 30
101.5
 70
   192
  0
VERTEX
  5
7AC
  8
0
 10
184.9830017089844
 20
-45.59700012207031
 30
103.2190017700195
 70
   192
  0
VERTEX
  5
7AD
  8
0
 10
165.4850006103516
 20
-65.39600372314453
 30
99.78099822998047
 70
   192
  0
VERTEX
  5
7AE
  8
0
 10
161.4470062255859
 20
-55.49700164794922
 30
99.06900024414062
 70
   192
  0
VERTEX
  5
7AF
  8
0
 62
     9
 10
0.0
 20
0.0
 30
0.0
 70
   128
 71
     3
 72
     2
 73
     1
  0
VERTEX
  5
7B0
  8
0
 62
     9
 10
0.0
 20
0.0
 30
0.0
 70
   128
 71
     6
 72
     5
 73
     4
  0
VERTEX
  5
7B1
  8
0
 62
     9
 10
0.0
 20
0.0
 30
0.0
 70
   128
 71
     1
 72
     7
 73
     3
  0
VERTEX
  5
7B2
  8
0
 62
     9
 10
0.0
 20
0.0
 30
0.0
 70
   128
 71
     4
 72
     8
 73
     1
  0
VERTEX
  5
7B3
  8
0
 62
     9
 10
0.0
 20
0.0
 30
0.0
 70
   128
 71
     4
 72
     1
 73
     6
  0
VERTEX
  5
7B4
  8
0
 62
     9
 10
0.0
 20
0.0
 30
0.0
 70
   128
 71
     1
 72
     8
 73
     7
  0
SEQEND
  5
7B5
  8
0
 62
     9
  0
ENDBLK
  5
7B8
  8
0
  0
BLOCK
  8
0
  2
E3_NODE_17_
 70
     0
 10
0.0
 20
0.0
 30
0.0
  3
E3_NODE_17_
  1

  0
POLYLINE
  5
7BA
  8
0
 62
     9
 66
     1
 10
0.0
 20
0.0
 30
0.0
 70
    64
 71
    26
 72
    26
  0
VERTEX
  5
7BB
  8
0
 10
184.9830017089844
 20
-45.59700012207031
 30
103.2190017700195
 70
   192
  0
VERTEX
  5
7BC
  8
0
 10
183.6060028076172
 20
-45.73099899291992
 30
109.8300018310547
 70
   192
  0
VERTEX
  5
7BD
  8
0
 10
187.2910003662109
 20
-51.55199813842773
 30
110.4800033569336
 70
   192
  0
VERTEX
  5
7BE
  8
0
 10
189.02099609375
 20
-55.49700164794922
 30
103.9309997558594
 70
   192
  0
VERTEX
  5
7BF
  8
0
 10
175.2339935302734
 20
-41.49700164794922
 30
101.5
 70
   192
  0
VERTEX
  5
7C0
  8
0
 10
176.0240020751953
 20
-41.63899993896484
 30
108.4929962158203
 70
   192
  0
VERTEX
  5
7C1
  8
0
 10
174.1210021972656
 20
-41.91699981689453
 30
108.1579971313477
 70
   192
  0
VERTEX
  5
7C2
  8
0
 10
183.0899963378906
 20
-44.91600036621094
 30
109.7389984130859
 70
   192
  0
VERTEX
  5
7C3
  8
0
 10
165.4850006103516
 20
-45.59700012207031
 30
99.78099822998047
 70
   192
  0
VERTEX
  5
7C4
  8
0
 10
168.3339996337891
 20
-42.76200103759766
 30
107.1380004882812
 70
   192
  0
VERTEX
  5
7C5
  8
0
 10
164.6549987792969
 20
-45.99900054931641
 30
106.4889984130859
 70
   192
  0
VERTEX
  5
7C6
  8
0
 10
161.4470062255859
 20
-55.49700164794922
 30
99.06900024414062
 70
   192
  0
VERTEX
  5
7C7
  8
0
 10
160.2740020751953
 20
-55.49700164794922
 30
105.7160034179688
 70
   192
  0
VERTEX
  5
7C8
  8
0
 10
162.4629974365234
 20
-47.92800140380859
 30
106.1019973754883
 70
   192
  0
VERTEX
  5
7C9
  8
0
 10
165.4850006103516
 20
-65.39600372314453
 30
99.78099822998047
 70
   192
  0
VERTEX
  5
7CA
  8
0
 10
162.4629974365234
 20
-63.06600189208984
 30
106.1019973754883
 70
   192
  0
VERTEX
  5
7CB
  8
0
 10
164.6549987792969
 20
-64.99400329589844
 30
106.4889984130859
 70
   192
  0
VERTEX
  5
7CC
  8
0
 10
175.2339935302734
 20
-69.49700164794922
 30
101.5
 70
   192
  0
VERTEX
  5
7CD
  8
0
 10
174.1210021972656
 20
-69.07599639892578
 30
108.1579971313477
 70
   192
  0
VERTEX
  5
7CE
  8
0
 10
168.3339996337891
 20
-68.23100280761719
 30
107.1380004882812
 70
   192
  0
VERTEX
  5
7CF
  8
0
 10
184.9830017089844
 20
-65.39600372314453
 30
103.2190017700195
 70
   192
  0
VERTEX
  5
7D0
  8
0
 10
183.0899963378906
 20
-66.0770034790039
 30
109.7389984130859
 70
   192
  0
VERTEX
  5
7D1
  8
0
 10
176.0240020751953
 20
-69.35399627685547
 30
108.4929962158203
 70
   192
  0
VERTEX
  5
7D2
  8
0
 10
183.6060028076172
 20
-65.26200103759766
 30
109.8300018310547
 70
   192
  0
VERTEX
  5
7D3
  8
0
 10
187.2910003662109
 20
-59.44100189208984
 30
110.4800033569336
 70
   192
  0
VERTEX
  5
7D4
  8
0
 10
187.2910003662109
 20
-55.49700164794922
 30
110.4800033569336
 70
   192
  0
VERTEX
  5
7D5
  8
0
 62
     9
 10
0.0
 20
0.0
 30
0.0
 70
   128
 71
     3
 72
     2
 73
     1
  0
VERTEX
  5
7D6
  8
0
 62
     9
 10
0.0
 20
0.0
 30
0.0
 70
   128
 71
     1
 72
     4
 73
     3
  0
VERTEX
  5
7D7
  8
0
 62
     9
 10
0.0
 20
0.0
 30
0.0
 70
   128
 71
     6
 72
     5
 73
     1
  0
VERTEX
  5
7D8
  8
0
 62
     9
 10
0.0
 20
0.0
 30
0.0
 70
   128
 71
     6
 72
     7
 73
     5
  0
VERTEX
  5
7D9
  8
0
 62
     9
 10
0.0
 20
0.0
 30
0.0
 70
   128
 71
     1
 72
     8
 73
     6
  0
VERTEX
  5
7DA
  8
0
 62
     9
 10
0.0
 20
0.0
 30
0.0
 70
   128
 71
    10
 72
     9
 73
     5
  0
VERTEX
  5
7DB
  8
0
 62
     9
 10
0.0
 20
0.0
 30
0.0
 70
   128
 71
    10
 72
    11
 73
     9
  0
VERTEX
  5
7DC
  8
0
 62
     9
 10
0.0
 20
0.0
 30
0.0
 70
   128
 71
    14
 72
    13
 73
    12
  0
VERTEX
  5
7DD
  8
0
 62
     9
 10
0.0
 20
0.0
 30
0.0
 70
   128
 71
    12
 72
     9
 73
    14
  0
VERTEX
  5
7DE
  8
0
 62
     9
 10
0.0
 20
0.0
 30
0.0
 70
   128
 71
    16
 72
    15
 73
    12
  0
VERTEX
  5
7DF
  8
0
 62
     9
 10
0.0
 20
0.0
 30
0.0
 70
   128
 71
    16
 72
    17
 73
    15
  0
VERTEX
  5
7E0
  8
0
 62
     9
 10
0.0
 20
0.0
 30
0.0
 70
   128
 71
    20
 72
    19
 73
    18
  0
VERTEX
  5
7E1
  8
0
 62
     9
 10
0.0
 20
0.0
 30
0.0
 70
   128
 71
    18
 72
    15
 73
    20
  0
VERTEX
  5
7E2
  8
0
 62
     9
 10
0.0
 20
0.0
 30
0.0
 70
   128
 71
    23
 72
    22
 73
    21
  0
VERTEX
  5
7E3
  8
0
 62
     9
 10
0.0
 20
0.0
 30
0.0
 70
   128
 71
    21
 72
    18
 73
    23
  0
VERTEX
  5
7E4
  8
0
 62
     9
 10
0.0
 20
0.0
 30
0.0
 70
   128
 71
    22
 72
    24
 73
    21
  0
VERTEX
  5
7E5
  8
0
 62
     9
 10
0.0
 20
0.0
 30
0.0
 70
   128
 71
    25
 72
     4
 73
    21
  0
VERTEX
  5
7E6
  8
0
 62
     9
 10
0.0
 20
0.0
 30
0.0
 70
   128
 71
    25
 72
    26
 73
     4
  0
VERTEX
  5
7E7
  8
0
 62
     9
 10
0.0
 20
0.0
 30
0.0
 70
   128
 71
    21
 72
    24
 73
    25
  0
VERTEX
  5
7E8
  8
0
 62
     9
 10
0.0
 20
0.0
 30
0.0
 70
   128
 71
    18
 72
    19
 73
    23
  0
VERTEX
  5
7E9
  8
0
 62
     9
 10
0.0
 20
0.0
 30
0.0
 70
   128
 71
    15
 72
    17
 73
    20
  0
VERTEX
  5
7EA
  8
0
 62
     9
 10
0.0
 20
0.0
 30
0.0
 70
   128
 71
    12
 72
    13
 73
    16
  0
VERTEX
  5
7EB
  8
0
 62
     9
 10
0.0
 20
0.0
 30
0.0
 70
   128
 71
     9
 72
    11
 73
    14
  0
VERTEX
  5
7EC
  8
0
 62
     9
 10
0.0
 20
0.0
 30
0.0
 70
   128
 71
     5
 72
     7
 73
    10
  0
VERTEX
  5
7ED
  8
0
 62
     9
 10
0.0
 20
0.0
 30
0.0
 70
   128
 71
     1
 72
     2
 73
     8
  0
VERTEX
  5
7EE
  8
0
 62
     9
 10
0.0
 20
0.0
 30
0.0
 70
   128
 71
     4
 72
    26
 73
     3
  0
SEQEND
  5
7EF
  8
0
 62
     9
  0
ENDBLK
  5
7F2
  8
0
  0
BLOCK
  8
0
  2
E3_NODE_18_
 70
     0
 10
0.0
 20
0.0
 30
0.0
  3
E3_NODE_18_
  1

  0
POLYLINE
  5
7F4
  8
0
 62
     9
 66
     1
 10
0.0
 20
0.0
 30
0.0
 70
    64
 71
    51
 72
    73
  0
VERTEX
  5
7F5
  8
0
 10
162.4629974365234
 20
-47.92800140380859
 30
106.1019973754883
 70
   192
  0
VERTEX
  5
7F6
  8
0
 10
160.2740020751953
 20
-55.49700164794922
 30
105.7160034179688
 70
   192
  0
VERTEX
  5
7F7
  8
0
 10
158.1369934082031
 20
-55.49700164794922
 30
113.5849990844727
 70
   192
  0
VERTEX
  5
7F8
  8
0
 10
154.6139984130859
 20
-55.49700164794922
 30
120.9390029907227
 70
   192
  0
VERTEX
  5
7F9
  8
0
 10
156.5240020751953
 20
-47.92800140380859
 30
122.0759963989258
 70
   192
  0
VERTEX
  5
7FA
  8
0
 10
149.822998046875
 20
-55.49700164794922
 30
127.536003112793
 70
   192
  0
VERTEX
  5
7FB
  8
0
 10
165.8079986572266
 20
-42.76200103759766
 30
116.4369964599609
 70
   192
  0
VERTEX
  5
7FC
  8
0
 10
168.3339996337891
 20
-42.76200103759766
 30
107.1380004882812
 70
   192
  0
VERTEX
  5
7FD
  8
0
 10
164.6549987792969
 20
-45.99900054931641
 30
106.4889984130859
 70
   192
  0
VERTEX
  5
7FE
  8
0
 10
160.2200012207031
 20
-47.92800140380859
 30
114.3600006103516
 70
   192
  0
VERTEX
  5
7FF
  8
0
 10
161.6450042724609
 20
-42.76200103759766
 30
125.1279983520508
 70
   192
  0
VERTEX
  5
800
  8
0
 10
155.9819946289062
 20
-42.76200103759766
 30
132.9259948730469
 70
   192
  0
VERTEX
  5
801
  8
0
 10
174.1210021972656
 20
-41.91699981689453
 30
108.1579971313477
 70
   192
  0
VERTEX
  5
802
  8
0
 10
173.1269989013672
 20
-41.63899993896484
 30
119.1579971313477
 70
   192
  0
VERTEX
  5
803
  8
0
 10
176.0240020751953
 20
-41.63899993896484
 30
108.4929962158203
 70
   192
  0
VERTEX
  5
804
  8
0
 10
168.3520050048828
 20
-41.63899993896484
 30
129.1260070800781
 70
   192
  0
VERTEX
  5
805
  8
0
 10
161.8580017089844
 20
-41.63899993896484
 30
138.0679931640625
 70
   192
  0
VERTEX
  5
806
  8
0
 10
183.0899963378906
 20
-44.91600036621094
 30
109.7389984130859
 70
   192
  0
VERTEX
  5
807
  8
0
 10
174.5169982910156
 20
-44.91600036621094
 30
132.7989959716797
 70
   192
  0
VERTEX
  5
808
  8
0
 10
183.8500061035156
 20
-51.55199813842773
 30
123.1449966430664
 70
   192
  0
VERTEX
  5
809
  8
0
 10
187.2910003662109
 20
-51.55199813842773
 30
110.4800033569336
 70
   192
  0
VERTEX
  5
80A
  8
0
 10
183.6060028076172
 20
-45.73099899291992
 30
109.8300018310547
 70
   192
  0
VERTEX
  5
80B
  8
0
 10
179.8520050048828
 20
-44.91600036621094
 30
121.6589965820312
 70
   192
  0
VERTEX
  5
80C
  8
0
 10
178.1799926757812
 20
-51.55199813842773
 30
134.9819946289062
 70
   192
  0
VERTEX
  5
80D
  8
0
 10
167.2579956054688
 20
-44.91600036621094
 30
142.7929992675781
 70
   192
  0
VERTEX
  5
80E
  8
0
 10
183.8500061035156
 20
-59.44100189208984
 30
123.1449966430664
 70
   192
  0
VERTEX
  5
80F
  8
0
 10
187.2910003662109
 20
-55.49700164794922
 30
110.4800033569336
 70
   192
  0
VERTEX
  5
810
  8
0
 10
187.2910003662109
 20
-59.44100189208984
 30
110.4800033569336
 70
   192
  0
VERTEX
  5
811
  8
0
 10
178.1799926757812
 20
-59.44100189208984
 30
134.9819946289062
 70
   192
  0
VERTEX
  5
812
  8
0
 10
170.4680023193359
 20
-51.55199813842773
 30
145.6009979248047
 70
   192
  0
VERTEX
  5
813
  8
0
 10
170.4680023193359
 20
-59.44100189208984
 30
145.6009979248047
 70
   192
  0
VERTEX
  5
814
  8
0
 10
179.8520050048828
 20
-66.0770034790039
 30
121.6589965820312
 70
   192
  0
VERTEX
  5
815
  8
0
 10
183.6060028076172
 20
-65.26200103759766
 30
109.8300018310547
 70
   192
  0
VERTEX
  5
816
  8
0
 10
183.0899963378906
 20
-66.0770034790039
 30
109.7389984130859
 70
   192
  0
VERTEX
  5
817
  8
0
 10
174.5169982910156
 20
-66.0770034790039
 30
132.7989959716797
 70
   192
  0
VERTEX
  5
818
  8
0
 10
167.2579956054688
 20
-66.0770034790039
 30
142.7929992675781
 70
   192
  0
VERTEX
  5
819
  8
0
 10
173.1269989013672
 20
-69.35399627685547
 30
119.1579971313477
 70
   192
  0
VERTEX
  5
81A
  8
0
 10
168.3520050048828
 20
-69.35399627685547
 30
129.1260070800781
 70
   192
  0
VERTEX
  5
81B
  8
0
 10
161.8580017089844
 20
-69.35399627685547
 30
138.0679931640625
 70
   192
  0
VERTEX
  5
81C
  8
0
 10
174.1210021972656
 20
-69.07599639892578
 30
108.1579971313477
 70
   192
  0
VERTEX
  5
81D
  8
0
 10
165.8079986572266
 20
-68.23100280761719
 30
116.4369964599609
 70
   192
  0
VERTEX
  5
81E
  8
0
 10
168.3339996337891
 20
-68.23100280761719
 30
107.1380004882812
 70
   192
  0
VERTEX
  5
81F
  8
0
 10
161.6450042724609
 20
-68.23100280761719
 30
125.1279983520508
 70
   192
  0
VERTEX
  5
820
  8
0
 10
155.9819946289062
 20
-68.23100280761719
 30
132.9259948730469
 70
   192
  0
VERTEX
  5
821
  8
0
 10
160.2200012207031
 20
-63.06600189208984
 30
114.3600006103516
 70
   192
  0
VERTEX
  5
822
  8
0
 10
164.6549987792969
 20
-64.99400329589844
 30
106.4889984130859
 70
   192
  0
VERTEX
  5
823
  8
0
 10
162.4629974365234
 20
-63.06600189208984
 30
106.1019973754883
 70
   192
  0
VERTEX
  5
824
  8
0
 10
156.5240020751953
 20
-63.06600189208984
 30
122.0759963989258
 70
   192
  0
VERTEX
  5
825
  8
0
 10
151.4960021972656
 20
-63.06600189208984
 30
129.0
 70
   192
  0
VERTEX
  5
826
  8
0
 10
176.0240020751953
 20
-69.35399627685547
 30
108.4929962158203
 70
   192
  0
VERTEX
  5
827
  8
0
 10
151.4960021972656
 20
-47.92800140380859
 30
129.0
 70
   192
  0
VERTEX
  5
828
  8
0
 62
     9
 10
0.0
 20
0.0
 30
0.0
 70
   128
 71
     3
 72
     2
 73
     1
  0
VERTEX
  5
829
  8
0
 62
     9
 10
0.0
 20
0.0
 30
0.0
 70
   128
 71
     5
 72
     4
 73
     3
  0
VERTEX
  5
82A
  8
0
 62
     9
 10
0.0
 20
0.0
 30
0.0
 70
   128
 71
     6
 72
     4
 73
     5
  0
VERTEX
  5
82B
  8
0
 62
     9
 10
0.0
 20
0.0
 30
0.0
 70
   128
 71
     9
 72
     8
 73
     7
  0
VERTEX
  5
82C
  8
0
 62
     9
 10
0.0
 20
0.0
 30
0.0
 70
   128
 71
     7
 72
    10
 73
     9
  0
VERTEX
  5
82D
  8
0
 62
     9
 10
0.0
 20
0.0
 30
0.0
 70
   128
 71
    11
 72
     5
 73
    10
  0
VERTEX
  5
82E
  8
0
 62
     9
 10
0.0
 20
0.0
 30
0.0
 70
   128
 71
     5
 72
    11
 73
    12
  0
VERTEX
  5
82F
  8
0
 62
     9
 10
0.0
 20
0.0
 30
0.0
 70
   128
 71
     7
 72
     8
 73
    13
  0
VERTEX
  5
830
  8
0
 62
     9
 10
0.0
 20
0.0
 30
0.0
 70
   128
 71
    13
 72
    15
 73
    14
  0
VERTEX
  5
831
  8
0
 62
     9
 10
0.0
 20
0.0
 30
0.0
 70
   128
 71
    16
 72
    11
 73
     7
  0
VERTEX
  5
832
  8
0
 62
     9
 10
0.0
 20
0.0
 30
0.0
 70
   128
 71
    11
 72
    16
 73
    17
  0
VERTEX
  5
833
  8
0
 62
     9
 10
0.0
 20
0.0
 30
0.0
 70
   128
 71
    14
 72
    15
 73
    18
  0
VERTEX
  5
834
  8
0
 62
     9
 10
0.0
 20
0.0
 30
0.0
 70
   128
 71
    19
 72
    16
 73
    14
  0
VERTEX
  5
835
  8
0
 62
     9
 10
0.0
 20
0.0
 30
0.0
 70
   128
 71
    17
 72
    16
 73
    19
  0
VERTEX
  5
836
  8
0
 62
     9
 10
0.0
 20
0.0
 30
0.0
 70
   128
 71
    22
 72
    21
 73
    20
  0
VERTEX
  5
837
  8
0
 62
     9
 10
0.0
 20
0.0
 30
0.0
 70
   128
 71
    20
 72
    23
 73
    22
  0
VERTEX
  5
838
  8
0
 62
     9
 10
0.0
 20
0.0
 30
0.0
 70
   128
 71
    24
 72
    19
 73
    23
  0
VERTEX
  5
839
  8
0
 62
     9
 10
0.0
 20
0.0
 30
0.0
 70
   128
 71
    25
 72
    19
 73
    24
  0
VERTEX
  5
83A
  8
0
 62
     9
 10
0.0
 20
0.0
 30
0.0
 70
   128
 71
    27
 72
    26
 73
    20
  0
VERTEX
  5
83B
  8
0
 62
     9
 10
0.0
 20
0.0
 30
0.0
 70
   128
 71
    27
 72
    28
 73
    26
  0
VERTEX
  5
83C
  8
0
 62
     9
 10
0.0
 20
0.0
 30
0.0
 70
   128
 71
    29
 72
    24
 73
    20
  0
VERTEX
  5
83D
  8
0
 62
     9
 10
0.0
 20
0.0
 30
0.0
 70
   128
 71
    31
 72
    30
 73
    24
  0
VERTEX
  5
83E
  8
0
 62
     9
 10
0.0
 20
0.0
 30
0.0
 70
   128
 71
    33
 72
    32
 73
    26
  0
VERTEX
  5
83F
  8
0
 62
     9
 10
0.0
 20
0.0
 30
0.0
 70
   128
 71
    33
 72
    34
 73
    32
  0
VERTEX
  5
840
  8
0
 62
     9
 10
0.0
 20
0.0
 30
0.0
 70
   128
 71
    35
 72
    29
 73
    26
  0
VERTEX
  5
841
  8
0
 62
     9
 10
0.0
 20
0.0
 30
0.0
 70
   128
 71
    36
 72
    31
 73
    29
  0
VERTEX
  5
842
  8
0
 62
     9
 10
0.0
 20
0.0
 30
0.0
 70
   128
 71
    37
 72
    32
 73
    34
  0
VERTEX
  5
843
  8
0
 62
     9
 10
0.0
 20
0.0
 30
0.0
 70
   128
 71
    38
 72
    35
 73
    32
  0
VERTEX
  5
844
  8
0
 62
     9
 10
0.0
 20
0.0
 30
0.0
 70
   128
 71
    39
 72
    36
 73
    35
  0
VERTEX
  5
845
  8
0
 62
     9
 10
0.0
 20
0.0
 30
0.0
 70
   128
 71
    41
 72
    37
 73
    40
  0
VERTEX
  5
846
  8
0
 62
     9
 10
0.0
 20
0.0
 30
0.0
 70
   128
 71
    40
 72
    42
 73
    41
  0
VERTEX
  5
847
  8
0
 62
     9
 10
0.0
 20
0.0
 30
0.0
 70
   128
 71
    43
 72
    38
 73
    37
  0
VERTEX
  5
848
  8
0
 62
     9
 10
0.0
 20
0.0
 30
0.0
 70
   128
 71
    43
 72
    44
 73
    39
  0
VERTEX
  5
849
  8
0
 62
     9
 10
0.0
 20
0.0
 30
0.0
 70
   128
 71
    46
 72
    45
 73
    41
  0
VERTEX
  5
84A
  8
0
 62
     9
 10
0.0
 20
0.0
 30
0.0
 70
   128
 71
    46
 72
    47
 73
    45
  0
VERTEX
  5
84B
  8
0
 62
     9
 10
0.0
 20
0.0
 30
0.0
 70
   128
 71
    48
 72
    43
 73
    41
  0
VERTEX
  5
84C
  8
0
 62
     9
 10
0.0
 20
0.0
 30
0.0
 70
   128
 71
    48
 72
    49
 73
    44
  0
VERTEX
  5
84D
  8
0
 62
     9
 10
0.0
 20
0.0
 30
0.0
 70
   128
 71
     3
 72
    45
 73
    47
  0
VERTEX
  5
84E
  8
0
 62
     9
 10
0.0
 20
0.0
 30
0.0
 70
   128
 71
     4
 72
    48
 73
    45
  0
VERTEX
  5
84F
  8
0
 62
     9
 10
0.0
 20
0.0
 30
0.0
 70
   128
 71
     6
 72
    49
 73
    48
  0
VERTEX
  5
850
  8
0
 62
     9
 10
0.0
 20
0.0
 30
0.0
 70
   128
 71
    48
 72
     4
 73
     6
  0
VERTEX
  5
851
  8
0
 62
     9
 10
0.0
 20
0.0
 30
0.0
 70
   128
 71
    45
 72
     3
 73
     4
  0
VERTEX
  5
852
  8
0
 62
     9
 10
0.0
 20
0.0
 30
0.0
 70
   128
 71
    47
 72
     2
 73
     3
  0
VERTEX
  5
853
  8
0
 62
     9
 10
0.0
 20
0.0
 30
0.0
 70
   128
 71
    44
 72
    43
 73
    48
  0
VERTEX
  5
854
  8
0
 62
     9
 10
0.0
 20
0.0
 30
0.0
 70
   128
 71
    41
 72
    45
 73
    48
  0
VERTEX
  5
855
  8
0
 62
     9
 10
0.0
 20
0.0
 30
0.0
 70
   128
 71
    41
 72
    42
 73
    46
  0
VERTEX
  5
856
  8
0
 62
     9
 10
0.0
 20
0.0
 30
0.0
 70
   128
 71
    39
 72
    38
 73
    43
  0
VERTEX
  5
857
  8
0
 62
     9
 10
0.0
 20
0.0
 30
0.0
 70
   128
 71
    37
 72
    41
 73
    43
  0
VERTEX
  5
858
  8
0
 62
     9
 10
0.0
 20
0.0
 30
0.0
 70
   128
 71
    37
 72
    50
 73
    40
  0
VERTEX
  5
859
  8
0
 62
     9
 10
0.0
 20
0.0
 30
0.0
 70
   128
 71
    35
 72
    38
 73
    39
  0
VERTEX
  5
85A
  8
0
 62
     9
 10
0.0
 20
0.0
 30
0.0
 70
   128
 71
    32
 72
    37
 73
    38
  0
VERTEX
  5
85B
  8
0
 62
     9
 10
0.0
 20
0.0
 30
0.0
 70
   128
 71
    34
 72
    50
 73
    37
  0
VERTEX
  5
85C
  8
0
 62
     9
 10
0.0
 20
0.0
 30
0.0
 70
   128
 71
    29
 72
    35
 73
    36
  0
VERTEX
  5
85D
  8
0
 62
     9
 10
0.0
 20
0.0
 30
0.0
 70
   128
 71
    26
 72
    32
 73
    35
  0
VERTEX
  5
85E
  8
0
 62
     9
 10
0.0
 20
0.0
 30
0.0
 70
   128
 71
    26
 72
    28
 73
    33
  0
VERTEX
  5
85F
  8
0
 62
     9
 10
0.0
 20
0.0
 30
0.0
 70
   128
 71
    24
 72
    29
 73
    31
  0
VERTEX
  5
860
  8
0
 62
     9
 10
0.0
 20
0.0
 30
0.0
 70
   128
 71
    20
 72
    26
 73
    29
  0
VERTEX
  5
861
  8
0
 62
     9
 10
0.0
 20
0.0
 30
0.0
 70
   128
 71
    20
 72
    21
 73
    27
  0
VERTEX
  5
862
  8
0
 62
     9
 10
0.0
 20
0.0
 30
0.0
 70
   128
 71
    24
 72
    30
 73
    25
  0
VERTEX
  5
863
  8
0
 62
     9
 10
0.0
 20
0.0
 30
0.0
 70
   128
 71
    23
 72
    20
 73
    24
  0
VERTEX
  5
864
  8
0
 62
     9
 10
0.0
 20
0.0
 30
0.0
 70
   128
 71
    23
 72
    18
 73
    22
  0
VERTEX
  5
865
  8
0
 62
     9
 10
0.0
 20
0.0
 30
0.0
 70
   128
 71
    19
 72
    25
 73
    17
  0
VERTEX
  5
866
  8
0
 62
     9
 10
0.0
 20
0.0
 30
0.0
 70
   128
 71
    14
 72
    23
 73
    19
  0
VERTEX
  5
867
  8
0
 62
     9
 10
0.0
 20
0.0
 30
0.0
 70
   128
 71
    18
 72
    23
 73
    14
  0
VERTEX
  5
868
  8
0
 62
     9
 10
0.0
 20
0.0
 30
0.0
 70
   128
 71
    17
 72
    12
 73
    11
  0
VERTEX
  5
869
  8
0
 62
     9
 10
0.0
 20
0.0
 30
0.0
 70
   128
 71
     7
 72
    14
 73
    16
  0
VERTEX
  5
86A
  8
0
 62
     9
 10
0.0
 20
0.0
 30
0.0
 70
   128
 71
    13
 72
    14
 73
     7
  0
VERTEX
  5
86B
  8
0
 62
     9
 10
0.0
 20
0.0
 30
0.0
 70
   128
 71
    12
 72
    51
 73
     5
  0
VERTEX
  5
86C
  8
0
 62
     9
 10
0.0
 20
0.0
 30
0.0
 70
   128
 71
    10
 72
     7
 73
    11
  0
VERTEX
  5
86D
  8
0
 62
     9
 10
0.0
 20
0.0
 30
0.0
 70
   128
 71
    10
 72
     1
 73
     9
  0
VERTEX
  5
86E
  8
0
 62
     9
 10
0.0
 20
0.0
 30
0.0
 70
   128
 71
     5
 72
    51
 73
     6
  0
VERTEX
  5
86F
  8
0
 62
     9
 10
0.0
 20
0.0
 30
0.0
 70
   128
 71
     3
 72
    10
 73
     5
  0
VERTEX
  5
870
  8
0
 62
     9
 10
0.0
 20
0.0
 30
0.0
 70
   128
 71
     1
 72
    10
 73
     3
  0
SEQEND
  5
871
  8
0
 62
     9
  0
ENDBLK
  5
874
  8
0
  0
BLOCK
  8
0
  2
E3_NODE_19_
 70
     0
 10
0.0
 20
0.0
 30
0.0
  3
E3_NODE_19_
  1

  0
POLYLINE
  5
876
  8
0
 62
     9
 66
     1
 10
0.0
 20
0.0
 30
0.0
 70
    64
 71
   150
 72
   271
  0
VERTEX
  5
877
  8
0
 10
139.7489929199219
 20
-47.92800140380859
 30
139.9640045166016
 70
   192
  0
VERTEX
  5
878
  8
0
 10
151.4960021972656
 20
-47.92800140380859
 30
129.0
 70
   192
  0
VERTEX
  5
879
  8
0
 10
149.822998046875
 20
-55.49700164794922
 30
127.536003112793
 70
   192
  0
VERTEX
  5
87A
  8
0
 10
138.4040069580078
 20
-55.49700164794922
 30
138.1950073242188
 70
   192
  0
VERTEX
  5
87B
  8
0
 10
125.0800018310547
 20
-55.49700164794922
 30
146.3470001220703
 70
   192
  0
VERTEX
  5
87C
  8
0
 10
126.0429992675781
 20
-47.92800140380859
 30
148.3500061035156
 70
   192
  0
VERTEX
  5
87D
  8
0
 10
110.3919982910156
 20
-55.49700164794922
 30
151.6620025634766
 70
   192
  0
VERTEX
  5
87E
  8
0
 10
110.9339981079102
 20
-47.92800140380859
 30
153.8170013427734
 70
   192
  0
VERTEX
  5
87F
  8
0
 10
94.93699645996094
 20
-55.49700164794922
 30
153.9239959716797
 70
   192
  0
VERTEX
  5
880
  8
0
 10
95.03500366210938
 20
-47.92800140380859
 30
156.1439971923828
 70
   192
  0
VERTEX
  5
881
  8
0
 10
79.34100341796875
 20
-55.49700164794922
 30
153.0399932861328
 70
   192
  0
VERTEX
  5
882
  8
0
 10
78.99299621582031
 20
-47.92800140380859
 30
155.2350006103516
 70
   192
  0
VERTEX
  5
883
  8
0
 10
64.23999786376953
 20
-55.49700164794922
 30
149.0480041503906
 70
   192
  0
VERTEX
  5
884
  8
0
 10
63.45800018310547
 20
-47.92800140380859
 30
151.1280059814453
 70
   192
  0
VERTEX
  5
885
  8
0
 10
50.24599838256836
 20
-55.49700164794922
 30
142.1080017089844
 70
   192
  0
VERTEX
  5
886
  8
0
 10
49.0629997253418
 20
-47.92800140380859
 30
143.9889984130859
 70
   192
  0
VERTEX
  5
887
  8
0
 10
37.92800140380859
 20
-55.49700164794922
 30
132.5030059814453
 70
   192
  0
VERTEX
  5
888
  8
0
 10
36.39199829101562
 20
-47.92800140380859
 30
134.1089935302734
 70
   192
  0
VERTEX
  5
889
  8
0
 10
27.7859992980957
 20
-55.49700164794922
 30
120.6230010986328
 70
   192
  0
VERTEX
  5
88A
  8
0
 10
25.95899963378906
 20
-47.92800140380859
 30
121.8880004882812
 70
   192
  0
VERTEX
  5
88B
  8
0
 10
20.23299980163574
 20
-55.49700164794922
 30
106.9499969482422
 70
   192
  0
VERTEX
  5
88C
  8
0
 10
18.18899917602539
 20
-47.92800140380859
 30
107.822998046875
 70
   192
  0
VERTEX
  5
88D
  8
0
 10
15.57400035858154
 20
-55.49700164794922
 30
92.04100036621094
 70
   192
  0
VERTEX
  5
88E
  8
0
 10
13.39700031280518
 20
-47.92800140380859
 30
92.48600006103516
 70
   192
  0
VERTEX
  5
88F
  8
0
 10
11.77799987792969
 20
-47.92800140380859
 30
76.5
 70
   192
  0
VERTEX
  5
890
  8
0
 10
143.3580017089844
 20
-42.76200103759766
 30
144.7100067138672
 70
   192
  0
VERTEX
  5
891
  8
0
 10
155.9819946289062
 20
-42.76200103759766
 30
132.9259948730469
 70
   192
  0
VERTEX
  5
892
  8
0
 10
128.6260070800781
 20
-42.76200103759766
 30
153.7230072021484
 70
   192
  0
VERTEX
  5
893
  8
0
 10
112.3870010375977
 20
-42.76200103759766
 30
159.5989990234375
 70
   192
  0
VERTEX
  5
894
  8
0
 10
95.29900360107422
 20
-42.76200103759766
 30
162.1000061035156
 70
   192
  0
VERTEX
  5
895
  8
0
 10
78.05699920654297
 20
-42.76200103759766
 30
161.1230010986328
 70
   192
  0
VERTEX
  5
896
  8
0
 10
61.36100006103516
 20
-42.76200103759766
 30
156.7089996337891
 70
   192
  0
VERTEX
  5
897
  8
0
 10
45.88999938964844
 20
-42.76200103759766
 30
149.0359954833984
 70
   192
  0
VERTEX
  5
898
  8
0
 10
32.27099990844727
 20
-42.76200103759766
 30
138.4170074462891
 70
   192
  0
VERTEX
  5
899
  8
0
 10
21.0580005645752
 20
-42.76200103759766
 30
125.2819976806641
 70
   192
  0
VERTEX
  5
89A
  8
0
 10
12.70699977874756
 20
-42.76200103759766
 30
110.1660003662109
 70
   192
  0
VERTEX
  5
89B
  8
0
 10
7.556000232696533
 20
-42.76200103759766
 30
93.68199920654297
 70
   192
  0
VERTEX
  5
89C
  8
0
 10
9.550999641418457
 20
-45.99900054931641
 30
76.5
 70
   192
  0
VERTEX
  5
89D
  8
0
 10
161.8580017089844
 20
-41.63899993896484
 30
138.0679931640625
 70
   192
  0
VERTEX
  5
89E
  8
0
 10
132.0099945068359
 20
-41.63899993896484
 30
160.7599945068359
 70
   192
  0
VERTEX
  5
89F
  8
0
 10
114.2910003662109
 20
-41.63899993896484
 30
167.1719970703125
 70
   192
  0
VERTEX
  5
8A0
  8
0
 10
95.64600372314453
 20
-41.63899993896484
 30
169.8999938964844
 70
   192
  0
VERTEX
  5
8A1
  8
0
 10
76.83200073242188
 20
-41.63899993896484
 30
168.8350067138672
 70
   192
  0
VERTEX
  5
8A2
  8
0
 10
58.6150016784668
 20
-41.63899993896484
 30
164.0180053710938
 70
   192
  0
VERTEX
  5
8A3
  8
0
 10
41.73300170898438
 20
-41.63899993896484
 30
155.64599609375
 70
   192
  0
VERTEX
  5
8A4
  8
0
 10
26.87299919128418
 20
-41.63899993896484
 30
144.0590057373047
 70
   192
  0
VERTEX
  5
8A5
  8
0
 10
14.63899993896484
 20
-41.63899993896484
 30
129.7270050048828
 70
   192
  0
VERTEX
  5
8A6
  8
0
 10
5.526000022888184
 20
-41.63899993896484
 30
113.234001159668
 70
   192
  0
VERTEX
  5
8A7
  8
0
 10
-0.0930000022053719
 20
-41.63899993896484
 30
95.24800109863281
 70
   192
  0
VERTEX
  5
8A8
  8
0
 10
-0.0599999986588955
 20
-41.91699981689453
 30
76.5
 70
   192
  0
VERTEX
  5
8A9
  8
0
 10
5.815999984741211
 20
-42.76200103759766
 30
76.5
 70
   192
  0
VERTEX
  5
8AA
  8
0
 10
167.2579956054688
 20
-44.91600036621094
 30
142.7929992675781
 70
   192
  0
VERTEX
  5
8AB
  8
0
 10
148.0829925537109
 20
-41.63899993896484
 30
150.9259948730469
 70
   192
  0
VERTEX
  5
8AC
  8
0
 10
135.1190032958984
 20
-44.91600036621094
 30
167.2270050048828
 70
   192
  0
VERTEX
  5
8AD
  8
0
 10
116.0400009155273
 20
-44.91600036621094
 30
174.1309967041016
 70
   192
  0
VERTEX
  5
8AE
  8
0
 10
95.96399688720703
 20
-44.91600036621094
 30
177.0690002441406
 70
   192
  0
VERTEX
  5
8AF
  8
0
 10
75.70700073242188
 20
-44.91600036621094
 30
175.9210052490234
 70
   192
  0
VERTEX
  5
8B0
  8
0
 10
56.09099960327148
 20
-44.91600036621094
 30
170.7350006103516
 70
   192
  0
VERTEX
  5
8B1
  8
0
 10
37.91299819946289
 20
-44.91600036621094
 30
161.7209930419922
 70
   192
  0
VERTEX
  5
8B2
  8
0
 10
21.91300010681152
 20
-44.91600036621094
 30
149.2440032958984
 70
   192
  0
VERTEX
  5
8B3
  8
0
 10
8.73900032043457
 20
-44.91600036621094
 30
133.8130035400391
 70
   192
  0
VERTEX
  5
8B4
  8
0
 10
-1.072000026702881
 20
-44.91600036621094
 30
116.0530014038086
 70
   192
  0
VERTEX
  5
8B5
  8
0
 10
-7.123000144958496
 20
-44.91600036621094
 30
96.68599700927734
 70
   192
  0
VERTEX
  5
8B6
  8
0
 10
-1.991999983787537
 20
-41.63899993896484
 30
76.5
 70
   192
  0
VERTEX
  5
8B7
  8
0
 10
170.4680023193359
 20
-51.55199813842773
 30
145.6009979248047
 70
   192
  0
VERTEX
  5
8B8
  8
0
 10
152.4259948730469
 20
-44.91600036621094
 30
156.6380004882812
 70
   192
  0
VERTEX
  5
8B9
  8
0
 10
136.9669952392578
 20
-51.55199813842773
 30
171.0709991455078
 70
   192
  0
VERTEX
  5
8BA
  8
0
 10
117.0790023803711
 20
-51.55199813842773
 30
178.2669982910156
 70
   192
  0
VERTEX
  5
8BB
  8
0
 10
96.15299987792969
 20
-51.55199813842773
 30
181.3300018310547
 70
   192
  0
VERTEX
  5
8BC
  8
0
 10
75.03700256347656
 20
-51.55199813842773
 30
180.1329956054688
 70
   192
  0
VERTEX
  5
8BD
  8
0
 10
54.59099960327148
 20
-51.55199813842773
 30
174.7270050048828
 70
   192
  0
VERTEX
  5
8BE
  8
0
 10
35.64300155639648
 20
-51.55199813842773
 30
165.3309936523438
 70
   192
  0
VERTEX
  5
8BF
  8
0
 10
18.96500015258789
 20
-51.55199813842773
 30
152.3260040283203
 70
   192
  0
VERTEX
  5
8C0
  8
0
 10
5.232999801635742
 20
-51.55199813842773
 30
136.2409973144531
 70
   192
  0
VERTEX
  5
8C1
  8
0
 10
-4.99399995803833
 20
-51.55199813842773
 30
117.7289962768555
 70
   192
  0
VERTEX
  5
8C2
  8
0
 10
-11.30200004577637
 20
-51.55199813842773
 30
97.54199981689453
 70
   192
  0
VERTEX
  5
8C3
  8
0
 10
-9.692000389099121
 20
-45.73099899291992
 30
76.5
 70
   192
  0
VERTEX
  5
8C4
  8
0
 10
-9.168000221252441
 20
-44.91600036621094
 30
76.5
 70
   192
  0
VERTEX
  5
8C5
  8
0
 10
155.0070037841797
 20
-51.55199813842773
 30
160.0330047607422
 70
   192
  0
VERTEX
  5
8C6
  8
0
 10
155.0070037841797
 20
-59.44100189208984
 30
160.0330047607422
 70
   192
  0
VERTEX
  5
8C7
  8
0
 10
136.9669952392578
 20
-59.44100189208984
 30
171.0709991455078
 70
   192
  0
VERTEX
  5
8C8
  8
0
 10
117.0790023803711
 20
-59.44100189208984
 30
178.2669982910156
 70
   192
  0
VERTEX
  5
8C9
  8
0
 10
96.15299987792969
 20
-59.44100189208984
 30
181.3300018310547
 70
   192
  0
VERTEX
  5
8CA
  8
0
 10
75.03700256347656
 20
-59.44100189208984
 30
180.1329956054688
 70
   192
  0
VERTEX
  5
8CB
  8
0
 10
54.59099960327148
 20
-59.44100189208984
 30
174.7270050048828
 70
   192
  0
VERTEX
  5
8CC
  8
0
 10
35.64300155639648
 20
-59.44100189208984
 30
165.3309936523438
 70
   192
  0
VERTEX
  5
8CD
  8
0
 10
18.96500015258789
 20
-59.44100189208984
 30
152.3260040283203
 70
   192
  0
VERTEX
  5
8CE
  8
0
 10
5.232999801635742
 20
-59.44100189208984
 30
136.2409973144531
 70
   192
  0
VERTEX
  5
8CF
  8
0
 10
-4.99399995803833
 20
-59.44100189208984
 30
117.7289962768555
 70
   192
  0
VERTEX
  5
8D0
  8
0
 10
-11.30200004577637
 20
-59.44100189208984
 30
97.54199981689453
 70
   192
  0
VERTEX
  5
8D1
  8
0
 10
-13.43299961090088
 20
-51.55199813842773
 30
76.5
 70
   192
  0
VERTEX
  5
8D2
  8
0
 10
-13.43299961090088
 20
-55.49700164794922
 30
76.5
 70
   192
  0
VERTEX
  5
8D3
  8
0
 10
152.4259948730469
 20
-66.0770034790039
 30
156.6380004882812
 70
   192
  0
VERTEX
  5
8D4
  8
0
 10
167.2579956054688
 20
-66.0770034790039
 30
142.7929992675781
 70
   192
  0
VERTEX
  5
8D5
  8
0
 10
135.1190032958984
 20
-66.0770034790039
 30
167.2270050048828
 70
   192
  0
VERTEX
  5
8D6
  8
0
 10
116.0400009155273
 20
-66.0770034790039
 30
174.1309967041016
 70
   192
  0
VERTEX
  5
8D7
  8
0
 10
95.96399688720703
 20
-66.0770034790039
 30
177.0690002441406
 70
   192
  0
VERTEX
  5
8D8
  8
0
 10
75.70700073242188
 20
-66.0770034790039
 30
175.9210052490234
 70
   192
  0
VERTEX
  5
8D9
  8
0
 10
56.09099960327148
 20
-66.0770034790039
 30
170.7350006103516
 70
   192
  0
VERTEX
  5
8DA
  8
0
 10
37.91299819946289
 20
-66.0770034790039
 30
161.7209930419922
 70
   192
  0
VERTEX
  5
8DB
  8
0
 10
21.91300010681152
 20
-66.0770034790039
 30
149.2440032958984
 70
   192
  0
VERTEX
  5
8DC
  8
0
 10
8.73900032043457
 20
-66.0770034790039
 30
133.8130035400391
 70
   192
  0
VERTEX
  5
8DD
  8
0
 10
-1.072000026702881
 20
-66.0770034790039
 30
116.0530014038086
 70
   192
  0
VERTEX
  5
8DE
  8
0
 10
-7.123000144958496
 20
-66.0770034790039
 30
96.68599700927734
 70
   192
  0
VERTEX
  5
8DF
  8
0
 10
-13.43299961090088
 20
-59.44100189208984
 30
76.5
 70
   192
  0
VERTEX
  5
8E0
  8
0
 10
-9.692000389099121
 20
-65.26200103759766
 30
76.5
 70
   192
  0
VERTEX
  5
8E1
  8
0
 10
148.0829925537109
 20
-69.35399627685547
 30
150.9259948730469
 70
   192
  0
VERTEX
  5
8E2
  8
0
 10
132.0099945068359
 20
-69.35399627685547
 30
160.7599945068359
 70
   192
  0
VERTEX
  5
8E3
  8
0
 10
114.2910003662109
 20
-69.35399627685547
 30
167.1719970703125
 70
   192
  0
VERTEX
  5
8E4
  8
0
 10
95.64600372314453
 20
-69.35399627685547
 30
169.8999938964844
 70
   192
  0
VERTEX
  5
8E5
  8
0
 10
76.83200073242188
 20
-69.35399627685547
 30
168.8350067138672
 70
   192
  0
VERTEX
  5
8E6
  8
0
 10
58.6150016784668
 20
-69.35399627685547
 30
164.0180053710938
 70
   192
  0
VERTEX
  5
8E7
  8
0
 10
41.73300170898438
 20
-69.35399627685547
 30
155.64599609375
 70
   192
  0
VERTEX
  5
8E8
  8
0
 10
26.87299919128418
 20
-69.35399627685547
 30
144.0590057373047
 70
   192
  0
VERTEX
  5
8E9
  8
0
 10
14.63899993896484
 20
-69.35399627685547
 30
129.7270050048828
 70
   192
  0
VERTEX
  5
8EA
  8
0
 10
5.526000022888184
 20
-69.35399627685547
 30
113.234001159668
 70
   192
  0
VERTEX
  5
8EB
  8
0
 10
-0.0930000022053719
 20
-69.35399627685547
 30
95.24800109863281
 70
   192
  0
VERTEX
  5
8EC
  8
0
 10
-9.168000221252441
 20
-66.0770034790039
 30
76.5
 70
   192
  0
VERTEX
  5
8ED
  8
0
 10
-1.991999983787537
 20
-69.35399627685547
 30
76.5
 70
   192
  0
VERTEX
  5
8EE
  8
0
 10
143.3580017089844
 20
-68.23100280761719
 30
144.7100067138672
 70
   192
  0
VERTEX
  5
8EF
  8
0
 10
155.9819946289062
 20
-68.23100280761719
 30
132.9259948730469
 70
   192
  0
VERTEX
  5
8F0
  8
0
 10
128.6260070800781
 20
-68.23100280761719
 30
153.7230072021484
 70
   192
  0
VERTEX
  5
8F1
  8
0
 10
112.3870010375977
 20
-68.23100280761719
 30
159.5989990234375
 70
   192
  0
VERTEX
  5
8F2
  8
0
 10
95.29900360107422
 20
-68.23100280761719
 30
162.1000061035156
 70
   192
  0
VERTEX
  5
8F3
  8
0
 10
78.05699920654297
 20
-68.23100280761719
 30
161.1230010986328
 70
   192
  0
VERTEX
  5
8F4
  8
0
 10
61.36100006103516
 20
-68.23100280761719
 30
156.7089996337891
 70
   192
  0
VERTEX
  5
8F5
  8
0
 10
45.88999938964844
 20
-68.23100280761719
 30
149.0359954833984
 70
   192
  0
VERTEX
  5
8F6
  8
0
 10
32.27099990844727
 20
-68.23100280761719
 30
138.4170074462891
 70
   192
  0
VERTEX
  5
8F7
  8
0
 10
21.0580005645752
 20
-68.23100280761719
 30
125.2819976806641
 70
   192
  0
VERTEX
  5
8F8
  8
0
 10
12.70699977874756
 20
-68.23100280761719
 30
110.1660003662109
 70
   192
  0
VERTEX
  5
8F9
  8
0
 10
7.556000232696533
 20
-68.23100280761719
 30
93.68199920654297
 70
   192
  0
VERTEX
  5
8FA
  8
0
 10
-0.0599999986588955
 20
-69.07599639892578
 30
76.5
 70
   192
  0
VERTEX
  5
8FB
  8
0
 10
5.815999984741211
 20
-68.23100280761719
 30
76.5
 70
   192
  0
VERTEX
  5
8FC
  8
0
 10
139.7489929199219
 20
-63.06600189208984
 30
139.9640045166016
 70
   192
  0
VERTEX
  5
8FD
  8
0
 10
151.4960021972656
 20
-63.06600189208984
 30
129.0
 70
   192
  0
VERTEX
  5
8FE
  8
0
 10
126.0429992675781
 20
-63.06600189208984
 30
148.3500061035156
 70
   192
  0
VERTEX
  5
8FF
  8
0
 10
110.9339981079102
 20
-63.06600189208984
 30
153.8170013427734
 70
   192
  0
VERTEX
  5
900
  8
0
 10
95.03500366210938
 20
-63.06600189208984
 30
156.1439971923828
 70
   192
  0
VERTEX
  5
901
  8
0
 10
78.99299621582031
 20
-63.06600189208984
 30
155.2350006103516
 70
   192
  0
VERTEX
  5
902
  8
0
 10
63.45800018310547
 20
-63.06600189208984
 30
151.1280059814453
 70
   192
  0
VERTEX
  5
903
  8
0
 10
49.0629997253418
 20
-63.06600189208984
 30
143.9889984130859
 70
   192
  0
VERTEX
  5
904
  8
0
 10
36.39199829101562
 20
-63.06600189208984
 30
134.1089935302734
 70
   192
  0
VERTEX
  5
905
  8
0
 10
25.95899963378906
 20
-63.06600189208984
 30
121.8880004882812
 70
   192
  0
VERTEX
  5
906
  8
0
 10
18.18899917602539
 20
-63.06600189208984
 30
107.822998046875
 70
   192
  0
VERTEX
  5
907
  8
0
 10
13.39700031280518
 20
-63.06600189208984
 30
92.48600006103516
 70
   192
  0
VERTEX
  5
908
  8
0
 10
9.550999641418457
 20
-64.99400329589844
 30
76.5
 70
   192
  0
VERTEX
  5
909
  8
0
 10
11.77799987792969
 20
-63.06600189208984
 30
76.5
 70
   192
  0
VERTEX
  5
90A
  8
0
 10
14.0
 20
-55.49700164794922
 30
76.5
 70
   192
  0
VERTEX
  5
90B
  8
0
 10
161.8580017089844
 20
-69.35399627685547
 30
138.0679931640625
 70
   192
  0
VERTEX
  5
90C
  8
0
 10
170.4680023193359
 20
-59.44100189208984
 30
145.6009979248047
 70
   192
  0
VERTEX
  5
90D
  8
0
 62
     9
 10
0.0
 20
0.0
 30
0.0
 70
   128
 71
     3
 72
     2
 73
     1
  0
VERTEX
  5
90E
  8
0
 62
     9
 10
0.0
 20
0.0
 30
0.0
 70
   128
 71
     6
 72
     5
 73
     4
  0
VERTEX
  5
90F
  8
0
 62
     9
 10
0.0
 20
0.0
 30
0.0
 70
   128
 71
     8
 72
     7
 73
     5
  0
VERTEX
  5
910
  8
0
 62
     9
 10
0.0
 20
0.0
 30
0.0
 70
   128
 71
    10
 72
     9
 73
     7
  0
VERTEX
  5
911
  8
0
 62
     9
 10
0.0
 20
0.0
 30
0.0
 70
   128
 71
    12
 72
    11
 73
     9
  0
VERTEX
  5
912
  8
0
 62
     9
 10
0.0
 20
0.0
 30
0.0
 70
   128
 71
    14
 72
    13
 73
    11
  0
VERTEX
  5
913
  8
0
 62
     9
 10
0.0
 20
0.0
 30
0.0
 70
   128
 71
    16
 72
    15
 73
    13
  0
VERTEX
  5
914
  8
0
 62
     9
 10
0.0
 20
0.0
 30
0.0
 70
   128
 71
    18
 72
    17
 73
    15
  0
VERTEX
  5
915
  8
0
 62
     9
 10
0.0
 20
0.0
 30
0.0
 70
   128
 71
    20
 72
    19
 73
    17
  0
VERTEX
  5
916
  8
0
 62
     9
 10
0.0
 20
0.0
 30
0.0
 70
   128
 71
    22
 72
    21
 73
    19
  0
VERTEX
  5
917
  8
0
 62
     9
 10
0.0
 20
0.0
 30
0.0
 70
   128
 71
    24
 72
    23
 73
    21
  0
VERTEX
  5
918
  8
0
 62
     9
 10
0.0
 20
0.0
 30
0.0
 70
   128
 71
    23
 72
    24
 73
    25
  0
VERTEX
  5
919
  8
0
 62
     9
 10
0.0
 20
0.0
 30
0.0
 70
   128
 71
     2
 72
    27
 73
    26
  0
VERTEX
  5
91A
  8
0
 62
     9
 10
0.0
 20
0.0
 30
0.0
 70
   128
 71
    28
 72
     6
 73
     1
  0
VERTEX
  5
91B
  8
0
 62
     9
 10
0.0
 20
0.0
 30
0.0
 70
   128
 71
    29
 72
     8
 73
     6
  0
VERTEX
  5
91C
  8
0
 62
     9
 10
0.0
 20
0.0
 30
0.0
 70
   128
 71
    30
 72
    10
 73
     8
  0
VERTEX
  5
91D
  8
0
 62
     9
 10
0.0
 20
0.0
 30
0.0
 70
   128
 71
    31
 72
    12
 73
    10
  0
VERTEX
  5
91E
  8
0
 62
     9
 10
0.0
 20
0.0
 30
0.0
 70
   128
 71
    32
 72
    14
 73
    12
  0
VERTEX
  5
91F
  8
0
 62
     9
 10
0.0
 20
0.0
 30
0.0
 70
   128
 71
    33
 72
    16
 73
    14
  0
VERTEX
  5
920
  8
0
 62
     9
 10
0.0
 20
0.0
 30
0.0
 70
   128
 71
    34
 72
    18
 73
    16
  0
VERTEX
  5
921
  8
0
 62
     9
 10
0.0
 20
0.0
 30
0.0
 70
   128
 71
    35
 72
    20
 73
    18
  0
VERTEX
  5
922
  8
0
 62
     9
 10
0.0
 20
0.0
 30
0.0
 70
   128
 71
    36
 72
    22
 73
    20
  0
VERTEX
  5
923
  8
0
 62
     9
 10
0.0
 20
0.0
 30
0.0
 70
   128
 71
    37
 72
    24
 73
    22
  0
VERTEX
  5
924
  8
0
 62
     9
 10
0.0
 20
0.0
 30
0.0
 70
   128
 71
    38
 72
    25
 73
    24
  0
VERTEX
  5
925
  8
0
 62
     9
 10
0.0
 20
0.0
 30
0.0
 70
   128
 71
    24
 72
    37
 73
    38
  0
VERTEX
  5
926
  8
0
 62
     9
 10
0.0
 20
0.0
 30
0.0
 70
   128
 71
    26
 72
    27
 73
    39
  0
VERTEX
  5
927
  8
0
 62
     9
 10
0.0
 20
0.0
 30
0.0
 70
   128
 71
    40
 72
    28
 73
    26
  0
VERTEX
  5
928
  8
0
 62
     9
 10
0.0
 20
0.0
 30
0.0
 70
   128
 71
    41
 72
    29
 73
    28
  0
VERTEX
  5
929
  8
0
 62
     9
 10
0.0
 20
0.0
 30
0.0
 70
   128
 71
    42
 72
    30
 73
    29
  0
VERTEX
  5
92A
  8
0
 62
     9
 10
0.0
 20
0.0
 30
0.0
 70
   128
 71
    43
 72
    31
 73
    30
  0
VERTEX
  5
92B
  8
0
 62
     9
 10
0.0
 20
0.0
 30
0.0
 70
   128
 71
    44
 72
    32
 73
    31
  0
VERTEX
  5
92C
  8
0
 62
     9
 10
0.0
 20
0.0
 30
0.0
 70
   128
 71
    45
 72
    33
 73
    32
  0
VERTEX
  5
92D
  8
0
 62
     9
 10
0.0
 20
0.0
 30
0.0
 70
   128
 71
    46
 72
    34
 73
    33
  0
VERTEX
  5
92E
  8
0
 62
     9
 10
0.0
 20
0.0
 30
0.0
 70
   128
 71
    47
 72
    35
 73
    34
  0
VERTEX
  5
92F
  8
0
 62
     9
 10
0.0
 20
0.0
 30
0.0
 70
   128
 71
    48
 72
    36
 73
    35
  0
VERTEX
  5
930
  8
0
 62
     9
 10
0.0
 20
0.0
 30
0.0
 70
   128
 71
    49
 72
    37
 73
    36
  0
VERTEX
  5
931
  8
0
 62
     9
 10
0.0
 20
0.0
 30
0.0
 70
   128
 71
    37
 72
    49
 73
    50
  0
VERTEX
  5
932
  8
0
 62
     9
 10
0.0
 20
0.0
 30
0.0
 70
   128
 71
    50
 72
    51
 73
    37
  0
VERTEX
  5
933
  8
0
 62
     9
 10
0.0
 20
0.0
 30
0.0
 70
   128
 71
    53
 72
    39
 73
    52
  0
VERTEX
  5
934
  8
0
 62
     9
 10
0.0
 20
0.0
 30
0.0
 70
   128
 71
    54
 72
    40
 73
    53
  0
VERTEX
  5
935
  8
0
 62
     9
 10
0.0
 20
0.0
 30
0.0
 70
   128
 71
    55
 72
    41
 73
    40
  0
VERTEX
  5
936
  8
0
 62
     9
 10
0.0
 20
0.0
 30
0.0
 70
   128
 71
    56
 72
    42
 73
    41
  0
VERTEX
  5
937
  8
0
 62
     9
 10
0.0
 20
0.0
 30
0.0
 70
   128
 71
    57
 72
    43
 73
    42
  0
VERTEX
  5
938
  8
0
 62
     9
 10
0.0
 20
0.0
 30
0.0
 70
   128
 71
    58
 72
    44
 73
    43
  0
VERTEX
  5
939
  8
0
 62
     9
 10
0.0
 20
0.0
 30
0.0
 70
   128
 71
    59
 72
    45
 73
    44
  0
VERTEX
  5
93A
  8
0
 62
     9
 10
0.0
 20
0.0
 30
0.0
 70
   128
 71
    60
 72
    46
 73
    45
  0
VERTEX
  5
93B
  8
0
 62
     9
 10
0.0
 20
0.0
 30
0.0
 70
   128
 71
    61
 72
    47
 73
    46
  0
VERTEX
  5
93C
  8
0
 62
     9
 10
0.0
 20
0.0
 30
0.0
 70
   128
 71
    62
 72
    48
 73
    47
  0
VERTEX
  5
93D
  8
0
 62
     9
 10
0.0
 20
0.0
 30
0.0
 70
   128
 71
    63
 72
    49
 73
    48
  0
VERTEX
  5
93E
  8
0
 62
     9
 10
0.0
 20
0.0
 30
0.0
 70
   128
 71
    64
 72
    49
 73
    63
  0
VERTEX
  5
93F
  8
0
 62
     9
 10
0.0
 20
0.0
 30
0.0
 70
   128
 71
    66
 72
    52
 73
    65
  0
VERTEX
  5
940
  8
0
 62
     9
 10
0.0
 20
0.0
 30
0.0
 70
   128
 71
    67
 72
    54
 73
    66
  0
VERTEX
  5
941
  8
0
 62
     9
 10
0.0
 20
0.0
 30
0.0
 70
   128
 71
    68
 72
    55
 73
    54
  0
VERTEX
  5
942
  8
0
 62
     9
 10
0.0
 20
0.0
 30
0.0
 70
   128
 71
    69
 72
    56
 73
    55
  0
VERTEX
  5
943
  8
0
 62
     9
 10
0.0
 20
0.0
 30
0.0
 70
   128
 71
    70
 72
    57
 73
    56
  0
VERTEX
  5
944
  8
0
 62
     9
 10
0.0
 20
0.0
 30
0.0
 70
   128
 71
    71
 72
    58
 73
    57
  0
VERTEX
  5
945
  8
0
 62
     9
 10
0.0
 20
0.0
 30
0.0
 70
   128
 71
    72
 72
    59
 73
    58
  0
VERTEX
  5
946
  8
0
 62
     9
 10
0.0
 20
0.0
 30
0.0
 70
   128
 71
    73
 72
    60
 73
    59
  0
VERTEX
  5
947
  8
0
 62
     9
 10
0.0
 20
0.0
 30
0.0
 70
   128
 71
    74
 72
    61
 73
    60
  0
VERTEX
  5
948
  8
0
 62
     9
 10
0.0
 20
0.0
 30
0.0
 70
   128
 71
    75
 72
    62
 73
    61
  0
VERTEX
  5
949
  8
0
 62
     9
 10
0.0
 20
0.0
 30
0.0
 70
   128
 71
    76
 72
    63
 73
    62
  0
VERTEX
  5
94A
  8
0
 62
     9
 10
0.0
 20
0.0
 30
0.0
 70
   128
 71
    77
 72
    63
 73
    76
  0
VERTEX
  5
94B
  8
0
 62
     9
 10
0.0
 20
0.0
 30
0.0
 70
   128
 71
    77
 72
    78
 73
    63
  0
VERTEX
  5
94C
  8
0
 62
     9
 10
0.0
 20
0.0
 30
0.0
 70
   128
 71
    80
 72
    79
 73
    65
  0
VERTEX
  5
94D
  8
0
 62
     9
 10
0.0
 20
0.0
 30
0.0
 70
   128
 71
    81
 72
    67
 73
    79
  0
VERTEX
  5
94E
  8
0
 62
     9
 10
0.0
 20
0.0
 30
0.0
 70
   128
 71
    82
 72
    68
 73
    67
  0
VERTEX
  5
94F
  8
0
 62
     9
 10
0.0
 20
0.0
 30
0.0
 70
   128
 71
    83
 72
    69
 73
    68
  0
VERTEX
  5
950
  8
0
 62
     9
 10
0.0
 20
0.0
 30
0.0
 70
   128
 71
    84
 72
    70
 73
    69
  0
VERTEX
  5
951
  8
0
 62
     9
 10
0.0
 20
0.0
 30
0.0
 70
   128
 71
    85
 72
    71
 73
    70
  0
VERTEX
  5
952
  8
0
 62
     9
 10
0.0
 20
0.0
 30
0.0
 70
   128
 71
    86
 72
    72
 73
    71
  0
VERTEX
  5
953
  8
0
 62
     9
 10
0.0
 20
0.0
 30
0.0
 70
   128
 71
    87
 72
    73
 73
    72
  0
VERTEX
  5
954
  8
0
 62
     9
 10
0.0
 20
0.0
 30
0.0
 70
   128
 71
    88
 72
    74
 73
    73
  0
VERTEX
  5
955
  8
0
 62
     9
 10
0.0
 20
0.0
 30
0.0
 70
   128
 71
    89
 72
    75
 73
    74
  0
VERTEX
  5
956
  8
0
 62
     9
 10
0.0
 20
0.0
 30
0.0
 70
   128
 71
    90
 72
    76
 73
    75
  0
VERTEX
  5
957
  8
0
 62
     9
 10
0.0
 20
0.0
 30
0.0
 70
   128
 71
    92
 72
    91
 73
    76
  0
VERTEX
  5
958
  8
0
 62
     9
 10
0.0
 20
0.0
 30
0.0
 70
   128
 71
    76
 72
    90
 73
    92
  0
VERTEX
  5
959
  8
0
 62
     9
 10
0.0
 20
0.0
 30
0.0
 70
   128
 71
    94
 72
    93
 73
    80
  0
VERTEX
  5
95A
  8
0
 62
     9
 10
0.0
 20
0.0
 30
0.0
 70
   128
 71
    95
 72
    81
 73
    80
  0
VERTEX
  5
95B
  8
0
 62
     9
 10
0.0
 20
0.0
 30
0.0
 70
   128
 71
    96
 72
    82
 73
    81
  0
VERTEX
  5
95C
  8
0
 62
     9
 10
0.0
 20
0.0
 30
0.0
 70
   128
 71
    97
 72
    83
 73
    82
  0
VERTEX
  5
95D
  8
0
 62
     9
 10
0.0
 20
0.0
 30
0.0
 70
   128
 71
    98
 72
    84
 73
    83
  0
VERTEX
  5
95E
  8
0
 62
     9
 10
0.0
 20
0.0
 30
0.0
 70
   128
 71
    99
 72
    85
 73
    84
  0
VERTEX
  5
95F
  8
0
 62
     9
 10
0.0
 20
0.0
 30
0.0
 70
   128
 71
   100
 72
    86
 73
    85
  0
VERTEX
  5
960
  8
0
 62
     9
 10
0.0
 20
0.0
 30
0.0
 70
   128
 71
   101
 72
    87
 73
    86
  0
VERTEX
  5
961
  8
0
 62
     9
 10
0.0
 20
0.0
 30
0.0
 70
   128
 71
   102
 72
    88
 73
    87
  0
VERTEX
  5
962
  8
0
 62
     9
 10
0.0
 20
0.0
 30
0.0
 70
   128
 71
   103
 72
    89
 73
    88
  0
VERTEX
  5
963
  8
0
 62
     9
 10
0.0
 20
0.0
 30
0.0
 70
   128
 71
   104
 72
    90
 73
    89
  0
VERTEX
  5
964
  8
0
 62
     9
 10
0.0
 20
0.0
 30
0.0
 70
   128
 71
   106
 72
   105
 73
    90
  0
VERTEX
  5
965
  8
0
 62
     9
 10
0.0
 20
0.0
 30
0.0
 70
   128
 71
    90
 72
   104
 73
   106
  0
VERTEX
  5
966
  8
0
 62
     9
 10
0.0
 20
0.0
 30
0.0
 70
   128
 71
   107
 72
    93
 73
    94
  0
VERTEX
  5
967
  8
0
 62
     9
 10
0.0
 20
0.0
 30
0.0
 70
   128
 71
   108
 72
    95
 73
    93
  0
VERTEX
  5
968
  8
0
 62
     9
 10
0.0
 20
0.0
 30
0.0
 70
   128
 71
   109
 72
    96
 73
    95
  0
VERTEX
  5
969
  8
0
 62
     9
 10
0.0
 20
0.0
 30
0.0
 70
   128
 71
   110
 72
    97
 73
    96
  0
VERTEX
  5
96A
  8
0
 62
     9
 10
0.0
 20
0.0
 30
0.0
 70
   128
 71
   111
 72
    98
 73
    97
  0
VERTEX
  5
96B
  8
0
 62
     9
 10
0.0
 20
0.0
 30
0.0
 70
   128
 71
   112
 72
    99
 73
    98
  0
VERTEX
  5
96C
  8
0
 62
     9
 10
0.0
 20
0.0
 30
0.0
 70
   128
 71
   113
 72
   100
 73
    99
  0
VERTEX
  5
96D
  8
0
 62
     9
 10
0.0
 20
0.0
 30
0.0
 70
   128
 71
   114
 72
   101
 73
   100
  0
VERTEX
  5
96E
  8
0
 62
     9
 10
0.0
 20
0.0
 30
0.0
 70
   128
 71
   115
 72
   102
 73
   101
  0
VERTEX
  5
96F
  8
0
 62
     9
 10
0.0
 20
0.0
 30
0.0
 70
   128
 71
   116
 72
   103
 73
   102
  0
VERTEX
  5
970
  8
0
 62
     9
 10
0.0
 20
0.0
 30
0.0
 70
   128
 71
   117
 72
   104
 73
   103
  0
VERTEX
  5
971
  8
0
 62
     9
 10
0.0
 20
0.0
 30
0.0
 70
   128
 71
   119
 72
   118
 73
   104
  0
VERTEX
  5
972
  8
0
 62
     9
 10
0.0
 20
0.0
 30
0.0
 70
   128
 71
   121
 72
   120
 73
   107
  0
VERTEX
  5
973
  8
0
 62
     9
 10
0.0
 20
0.0
 30
0.0
 70
   128
 71
   122
 72
   108
 73
   107
  0
VERTEX
  5
974
  8
0
 62
     9
 10
0.0
 20
0.0
 30
0.0
 70
   128
 71
   123
 72
   109
 73
   108
  0
VERTEX
  5
975
  8
0
 62
     9
 10
0.0
 20
0.0
 30
0.0
 70
   128
 71
   124
 72
   110
 73
   109
  0
VERTEX
  5
976
  8
0
 62
     9
 10
0.0
 20
0.0
 30
0.0
 70
   128
 71
   125
 72
   111
 73
   110
  0
VERTEX
  5
977
  8
0
 62
     9
 10
0.0
 20
0.0
 30
0.0
 70
   128
 71
   126
 72
   112
 73
   111
  0
VERTEX
  5
978
  8
0
 62
     9
 10
0.0
 20
0.0
 30
0.0
 70
   128
 71
   127
 72
   113
 73
   112
  0
VERTEX
  5
979
  8
0
 62
     9
 10
0.0
 20
0.0
 30
0.0
 70
   128
 71
   128
 72
   114
 73
   113
  0
VERTEX
  5
97A
  8
0
 62
     9
 10
0.0
 20
0.0
 30
0.0
 70
   128
 71
   129
 72
   115
 73
   114
  0
VERTEX
  5
97B
  8
0
 62
     9
 10
0.0
 20
0.0
 30
0.0
 70
   128
 71
   130
 72
   116
 73
   115
  0
VERTEX
  5
97C
  8
0
 62
     9
 10
0.0
 20
0.0
 30
0.0
 70
   128
 71
   131
 72
   117
 73
   116
  0
VERTEX
  5
97D
  8
0
 62
     9
 10
0.0
 20
0.0
 30
0.0
 70
   128
 71
   131
 72
   133
 73
   132
  0
VERTEX
  5
97E
  8
0
 62
     9
 10
0.0
 20
0.0
 30
0.0
 70
   128
 71
   132
 72
   119
 73
   117
  0
VERTEX
  5
97F
  8
0
 62
     9
 10
0.0
 20
0.0
 30
0.0
 70
   128
 71
   135
 72
   134
 73
   120
  0
VERTEX
  5
980
  8
0
 62
     9
 10
0.0
 20
0.0
 30
0.0
 70
   128
 71
   136
 72
   122
 73
   120
  0
VERTEX
  5
981
  8
0
 62
     9
 10
0.0
 20
0.0
 30
0.0
 70
   128
 71
   137
 72
   123
 73
   122
  0
VERTEX
  5
982
  8
0
 62
     9
 10
0.0
 20
0.0
 30
0.0
 70
   128
 71
   138
 72
   124
 73
   123
  0
VERTEX
  5
983
  8
0
 62
     9
 10
0.0
 20
0.0
 30
0.0
 70
   128
 71
   139
 72
   125
 73
   124
  0
VERTEX
  5
984
  8
0
 62
     9
 10
0.0
 20
0.0
 30
0.0
 70
   128
 71
   140
 72
   126
 73
   125
  0
VERTEX
  5
985
  8
0
 62
     9
 10
0.0
 20
0.0
 30
0.0
 70
   128
 71
   141
 72
   127
 73
   126
  0
VERTEX
  5
986
  8
0
 62
     9
 10
0.0
 20
0.0
 30
0.0
 70
   128
 71
   142
 72
   128
 73
   127
  0
VERTEX
  5
987
  8
0
 62
     9
 10
0.0
 20
0.0
 30
0.0
 70
   128
 71
   143
 72
   129
 73
   128
  0
VERTEX
  5
988
  8
0
 62
     9
 10
0.0
 20
0.0
 30
0.0
 70
   128
 71
   144
 72
   130
 73
   129
  0
VERTEX
  5
989
  8
0
 62
     9
 10
0.0
 20
0.0
 30
0.0
 70
   128
 71
   145
 72
   131
 73
   130
  0
VERTEX
  5
98A
  8
0
 62
     9
 10
0.0
 20
0.0
 30
0.0
 70
   128
 71
   146
 72
   131
 73
   145
  0
VERTEX
  5
98B
  8
0
 62
     9
 10
0.0
 20
0.0
 30
0.0
 70
   128
 71
   146
 72
   133
 73
   131
  0
VERTEX
  5
98C
  8
0
 62
     9
 10
0.0
 20
0.0
 30
0.0
 70
   128
 71
     3
 72
     4
 73
   134
  0
VERTEX
  5
98D
  8
0
 62
     9
 10
0.0
 20
0.0
 30
0.0
 70
   128
 71
     5
 72
   136
 73
   134
  0
VERTEX
  5
98E
  8
0
 62
     9
 10
0.0
 20
0.0
 30
0.0
 70
   128
 71
     7
 72
   137
 73
   136
  0
VERTEX
  5
98F
  8
0
 62
     9
 10
0.0
 20
0.0
 30
0.0
 70
   128
 71
     9
 72
   138
 73
   137
  0
VERTEX
  5
990
  8
0
 62
     9
 10
0.0
 20
0.0
 30
0.0
 70
   128
 71
    11
 72
   139
 73
   138
  0
VERTEX
  5
991
  8
0
 62
     9
 10
0.0
 20
0.0
 30
0.0
 70
   128
 71
    13
 72
   140
 73
   139
  0
VERTEX
  5
992
  8
0
 62
     9
 10
0.0
 20
0.0
 30
0.0
 70
   128
 71
    15
 72
   141
 73
   140
  0
VERTEX
  5
993
  8
0
 62
     9
 10
0.0
 20
0.0
 30
0.0
 70
   128
 71
    17
 72
   142
 73
   141
  0
VERTEX
  5
994
  8
0
 62
     9
 10
0.0
 20
0.0
 30
0.0
 70
   128
 71
    19
 72
   143
 73
   142
  0
VERTEX
  5
995
  8
0
 62
     9
 10
0.0
 20
0.0
 30
0.0
 70
   128
 71
    21
 72
   144
 73
   143
  0
VERTEX
  5
996
  8
0
 62
     9
 10
0.0
 20
0.0
 30
0.0
 70
   128
 71
    23
 72
   145
 73
   144
  0
VERTEX
  5
997
  8
0
 62
     9
 10
0.0
 20
0.0
 30
0.0
 70
   128
 71
    23
 72
   148
 73
   147
  0
VERTEX
  5
998
  8
0
 62
     9
 10
0.0
 20
0.0
 30
0.0
 70
   128
 71
   147
 72
   145
 73
    23
  0
VERTEX
  5
999
  8
0
 62
     9
 10
0.0
 20
0.0
 30
0.0
 70
   128
 71
   144
 72
    21
 73
    23
  0
VERTEX
  5
99A
  8
0
 62
     9
 10
0.0
 20
0.0
 30
0.0
 70
   128
 71
   143
 72
    19
 73
    21
  0
VERTEX
  5
99B
  8
0
 62
     9
 10
0.0
 20
0.0
 30
0.0
 70
   128
 71
   142
 72
    17
 73
    19
  0
VERTEX
  5
99C
  8
0
 62
     9
 10
0.0
 20
0.0
 30
0.0
 70
   128
 71
   141
 72
    15
 73
    17
  0
VERTEX
  5
99D
  8
0
 62
     9
 10
0.0
 20
0.0
 30
0.0
 70
   128
 71
   140
 72
    13
 73
    15
  0
VERTEX
  5
99E
  8
0
 62
     9
 10
0.0
 20
0.0
 30
0.0
 70
   128
 71
   139
 72
    11
 73
    13
  0
VERTEX
  5
99F
  8
0
 62
     9
 10
0.0
 20
0.0
 30
0.0
 70
   128
 71
   138
 72
     9
 73
    11
  0
VERTEX
  5
9A0
  8
0
 62
     9
 10
0.0
 20
0.0
 30
0.0
 70
   128
 71
   137
 72
     7
 73
     9
  0
VERTEX
  5
9A1
  8
0
 62
     9
 10
0.0
 20
0.0
 30
0.0
 70
   128
 71
   136
 72
     5
 73
     7
  0
VERTEX
  5
9A2
  8
0
 62
     9
 10
0.0
 20
0.0
 30
0.0
 70
   128
 71
   134
 72
     4
 73
     5
  0
VERTEX
  5
9A3
  8
0
 62
     9
 10
0.0
 20
0.0
 30
0.0
 70
   128
 71
   134
 72
   135
 73
     3
  0
VERTEX
  5
9A4
  8
0
 62
     9
 10
0.0
 20
0.0
 30
0.0
 70
   128
 71
   145
 72
   147
 73
   146
  0
VERTEX
  5
9A5
  8
0
 62
     9
 10
0.0
 20
0.0
 30
0.0
 70
   128
 71
   130
 72
   144
 73
   145
  0
VERTEX
  5
9A6
  8
0
 62
     9
 10
0.0
 20
0.0
 30
0.0
 70
   128
 71
   129
 72
   143
 73
   144
  0
VERTEX
  5
9A7
  8
0
 62
     9
 10
0.0
 20
0.0
 30
0.0
 70
   128
 71
   128
 72
   142
 73
   143
  0
VERTEX
  5
9A8
  8
0
 62
     9
 10
0.0
 20
0.0
 30
0.0
 70
   128
 71
   127
 72
   141
 73
   142
  0
VERTEX
  5
9A9
  8
0
 62
     9
 10
0.0
 20
0.0
 30
0.0
 70
   128
 71
   126
 72
   140
 73
   141
  0
VERTEX
  5
9AA
  8
0
 62
     9
 10
0.0
 20
0.0
 30
0.0
 70
   128
 71
   125
 72
   139
 73
   140
  0
VERTEX
  5
9AB
  8
0
 62
     9
 10
0.0
 20
0.0
 30
0.0
 70
   128
 71
   124
 72
   138
 73
   139
  0
VERTEX
  5
9AC
  8
0
 62
     9
 10
0.0
 20
0.0
 30
0.0
 70
   128
 71
   123
 72
   137
 73
   138
  0
VERTEX
  5
9AD
  8
0
 62
     9
 10
0.0
 20
0.0
 30
0.0
 70
   128
 71
   122
 72
   136
 73
   137
  0
VERTEX
  5
9AE
  8
0
 62
     9
 10
0.0
 20
0.0
 30
0.0
 70
   128
 71
   120
 72
   134
 73
   136
  0
VERTEX
  5
9AF
  8
0
 62
     9
 10
0.0
 20
0.0
 30
0.0
 70
   128
 71
   120
 72
   121
 73
   135
  0
VERTEX
  5
9B0
  8
0
 62
     9
 10
0.0
 20
0.0
 30
0.0
 70
   128
 71
   132
 72
   117
 73
   131
  0
VERTEX
  5
9B1
  8
0
 62
     9
 10
0.0
 20
0.0
 30
0.0
 70
   128
 71
   116
 72
   130
 73
   131
  0
VERTEX
  5
9B2
  8
0
 62
     9
 10
0.0
 20
0.0
 30
0.0
 70
   128
 71
   115
 72
   129
 73
   130
  0
VERTEX
  5
9B3
  8
0
 62
     9
 10
0.0
 20
0.0
 30
0.0
 70
   128
 71
   114
 72
   128
 73
   129
  0
VERTEX
  5
9B4
  8
0
 62
     9
 10
0.0
 20
0.0
 30
0.0
 70
   128
 71
   113
 72
   127
 73
   128
  0
VERTEX
  5
9B5
  8
0
 62
     9
 10
0.0
 20
0.0
 30
0.0
 70
   128
 71
   112
 72
   126
 73
   127
  0
VERTEX
  5
9B6
  8
0
 62
     9
 10
0.0
 20
0.0
 30
0.0
 70
   128
 71
   111
 72
   125
 73
   126
  0
VERTEX
  5
9B7
  8
0
 62
     9
 10
0.0
 20
0.0
 30
0.0
 70
   128
 71
   110
 72
   124
 73
   125
  0
VERTEX
  5
9B8
  8
0
 62
     9
 10
0.0
 20
0.0
 30
0.0
 70
   128
 71
   109
 72
   123
 73
   124
  0
VERTEX
  5
9B9
  8
0
 62
     9
 10
0.0
 20
0.0
 30
0.0
 70
   128
 71
   108
 72
   122
 73
   123
  0
VERTEX
  5
9BA
  8
0
 62
     9
 10
0.0
 20
0.0
 30
0.0
 70
   128
 71
   107
 72
   120
 73
   122
  0
VERTEX
  5
9BB
  8
0
 62
     9
 10
0.0
 20
0.0
 30
0.0
 70
   128
 71
   107
 72
   149
 73
   121
  0
VERTEX
  5
9BC
  8
0
 62
     9
 10
0.0
 20
0.0
 30
0.0
 70
   128
 71
   104
 72
   117
 73
   119
  0
VERTEX
  5
9BD
  8
0
 62
     9
 10
0.0
 20
0.0
 30
0.0
 70
   128
 71
   103
 72
   116
 73
   117
  0
VERTEX
  5
9BE
  8
0
 62
     9
 10
0.0
 20
0.0
 30
0.0
 70
   128
 71
   102
 72
   115
 73
   116
  0
VERTEX
  5
9BF
  8
0
 62
     9
 10
0.0
 20
0.0
 30
0.0
 70
   128
 71
   101
 72
   114
 73
   115
  0
VERTEX
  5
9C0
  8
0
 62
     9
 10
0.0
 20
0.0
 30
0.0
 70
   128
 71
   100
 72
   113
 73
   114
  0
VERTEX
  5
9C1
  8
0
 62
     9
 10
0.0
 20
0.0
 30
0.0
 70
   128
 71
    99
 72
   112
 73
   113
  0
VERTEX
  5
9C2
  8
0
 62
     9
 10
0.0
 20
0.0
 30
0.0
 70
   128
 71
    98
 72
   111
 73
   112
  0
VERTEX
  5
9C3
  8
0
 62
     9
 10
0.0
 20
0.0
 30
0.0
 70
   128
 71
    97
 72
   110
 73
   111
  0
VERTEX
  5
9C4
  8
0
 62
     9
 10
0.0
 20
0.0
 30
0.0
 70
   128
 71
    96
 72
   109
 73
   110
  0
VERTEX
  5
9C5
  8
0
 62
     9
 10
0.0
 20
0.0
 30
0.0
 70
   128
 71
    95
 72
   108
 73
   109
  0
VERTEX
  5
9C6
  8
0
 62
     9
 10
0.0
 20
0.0
 30
0.0
 70
   128
 71
    93
 72
   107
 73
   108
  0
VERTEX
  5
9C7
  8
0
 62
     9
 10
0.0
 20
0.0
 30
0.0
 70
   128
 71
    94
 72
   149
 73
   107
  0
VERTEX
  5
9C8
  8
0
 62
     9
 10
0.0
 20
0.0
 30
0.0
 70
   128
 71
   104
 72
   118
 73
   106
  0
VERTEX
  5
9C9
  8
0
 62
     9
 10
0.0
 20
0.0
 30
0.0
 70
   128
 71
    89
 72
   103
 73
   104
  0
VERTEX
  5
9CA
  8
0
 62
     9
 10
0.0
 20
0.0
 30
0.0
 70
   128
 71
    88
 72
   102
 73
   103
  0
VERTEX
  5
9CB
  8
0
 62
     9
 10
0.0
 20
0.0
 30
0.0
 70
   128
 71
    87
 72
   101
 73
   102
  0
VERTEX
  5
9CC
  8
0
 62
     9
 10
0.0
 20
0.0
 30
0.0
 70
   128
 71
    86
 72
   100
 73
   101
  0
VERTEX
  5
9CD
  8
0
 62
     9
 10
0.0
 20
0.0
 30
0.0
 70
   128
 71
    85
 72
    99
 73
   100
  0
VERTEX
  5
9CE
  8
0
 62
     9
 10
0.0
 20
0.0
 30
0.0
 70
   128
 71
    84
 72
    98
 73
    99
  0
VERTEX
  5
9CF
  8
0
 62
     9
 10
0.0
 20
0.0
 30
0.0
 70
   128
 71
    83
 72
    97
 73
    98
  0
VERTEX
  5
9D0
  8
0
 62
     9
 10
0.0
 20
0.0
 30
0.0
 70
   128
 71
    82
 72
    96
 73
    97
  0
VERTEX
  5
9D1
  8
0
 62
     9
 10
0.0
 20
0.0
 30
0.0
 70
   128
 71
    81
 72
    95
 73
    96
  0
VERTEX
  5
9D2
  8
0
 62
     9
 10
0.0
 20
0.0
 30
0.0
 70
   128
 71
    80
 72
    93
 73
    95
  0
VERTEX
  5
9D3
  8
0
 62
     9
 10
0.0
 20
0.0
 30
0.0
 70
   128
 71
    80
 72
   150
 73
    94
  0
VERTEX
  5
9D4
  8
0
 62
     9
 10
0.0
 20
0.0
 30
0.0
 70
   128
 71
    90
 72
   105
 73
    92
  0
VERTEX
  5
9D5
  8
0
 62
     9
 10
0.0
 20
0.0
 30
0.0
 70
   128
 71
    75
 72
    89
 73
    90
  0
VERTEX
  5
9D6
  8
0
 62
     9
 10
0.0
 20
0.0
 30
0.0
 70
   128
 71
    74
 72
    88
 73
    89
  0
VERTEX
  5
9D7
  8
0
 62
     9
 10
0.0
 20
0.0
 30
0.0
 70
   128
 71
    73
 72
    87
 73
    88
  0
VERTEX
  5
9D8
  8
0
 62
     9
 10
0.0
 20
0.0
 30
0.0
 70
   128
 71
    72
 72
    86
 73
    87
  0
VERTEX
  5
9D9
  8
0
 62
     9
 10
0.0
 20
0.0
 30
0.0
 70
   128
 71
    71
 72
    85
 73
    86
  0
VERTEX
  5
9DA
  8
0
 62
     9
 10
0.0
 20
0.0
 30
0.0
 70
   128
 71
    70
 72
    84
 73
    85
  0
VERTEX
  5
9DB
  8
0
 62
     9
 10
0.0
 20
0.0
 30
0.0
 70
   128
 71
    69
 72
    83
 73
    84
  0
VERTEX
  5
9DC
  8
0
 62
     9
 10
0.0
 20
0.0
 30
0.0
 70
   128
 71
    68
 72
    82
 73
    83
  0
VERTEX
  5
9DD
  8
0
 62
     9
 10
0.0
 20
0.0
 30
0.0
 70
   128
 71
    67
 72
    81
 73
    82
  0
VERTEX
  5
9DE
  8
0
 62
     9
 10
0.0
 20
0.0
 30
0.0
 70
   128
 71
    79
 72
    80
 73
    81
  0
VERTEX
  5
9DF
  8
0
 62
     9
 10
0.0
 20
0.0
 30
0.0
 70
   128
 71
    65
 72
   150
 73
    80
  0
VERTEX
  5
9E0
  8
0
 62
     9
 10
0.0
 20
0.0
 30
0.0
 70
   128
 71
    76
 72
    91
 73
    77
  0
VERTEX
  5
9E1
  8
0
 62
     9
 10
0.0
 20
0.0
 30
0.0
 70
   128
 71
    62
 72
    75
 73
    76
  0
VERTEX
  5
9E2
  8
0
 62
     9
 10
0.0
 20
0.0
 30
0.0
 70
   128
 71
    61
 72
    74
 73
    75
  0
VERTEX
  5
9E3
  8
0
 62
     9
 10
0.0
 20
0.0
 30
0.0
 70
   128
 71
    60
 72
    73
 73
    74
  0
VERTEX
  5
9E4
  8
0
 62
     9
 10
0.0
 20
0.0
 30
0.0
 70
   128
 71
    59
 72
    72
 73
    73
  0
VERTEX
  5
9E5
  8
0
 62
     9
 10
0.0
 20
0.0
 30
0.0
 70
   128
 71
    58
 72
    71
 73
    72
  0
VERTEX
  5
9E6
  8
0
 62
     9
 10
0.0
 20
0.0
 30
0.0
 70
   128
 71
    57
 72
    70
 73
    71
  0
VERTEX
  5
9E7
  8
0
 62
     9
 10
0.0
 20
0.0
 30
0.0
 70
   128
 71
    56
 72
    69
 73
    70
  0
VERTEX
  5
9E8
  8
0
 62
     9
 10
0.0
 20
0.0
 30
0.0
 70
   128
 71
    55
 72
    68
 73
    69
  0
VERTEX
  5
9E9
  8
0
 62
     9
 10
0.0
 20
0.0
 30
0.0
 70
   128
 71
    54
 72
    67
 73
    68
  0
VERTEX
  5
9EA
  8
0
 62
     9
 10
0.0
 20
0.0
 30
0.0
 70
   128
 71
    66
 72
    79
 73
    67
  0
VERTEX
  5
9EB
  8
0
 62
     9
 10
0.0
 20
0.0
 30
0.0
 70
   128
 71
    65
 72
    79
 73
    66
  0
VERTEX
  5
9EC
  8
0
 62
     9
 10
0.0
 20
0.0
 30
0.0
 70
   128
 71
    63
 72
    78
 73
    64
  0
VERTEX
  5
9ED
  8
0
 62
     9
 10
0.0
 20
0.0
 30
0.0
 70
   128
 71
    48
 72
    62
 73
    63
  0
VERTEX
  5
9EE
  8
0
 62
     9
 10
0.0
 20
0.0
 30
0.0
 70
   128
 71
    47
 72
    61
 73
    62
  0
VERTEX
  5
9EF
  8
0
 62
     9
 10
0.0
 20
0.0
 30
0.0
 70
   128
 71
    46
 72
    60
 73
    61
  0
VERTEX
  5
9F0
  8
0
 62
     9
 10
0.0
 20
0.0
 30
0.0
 70
   128
 71
    45
 72
    59
 73
    60
  0
VERTEX
  5
9F1
  8
0
 62
     9
 10
0.0
 20
0.0
 30
0.0
 70
   128
 71
    44
 72
    58
 73
    59
  0
VERTEX
  5
9F2
  8
0
 62
     9
 10
0.0
 20
0.0
 30
0.0
 70
   128
 71
    43
 72
    57
 73
    58
  0
VERTEX
  5
9F3
  8
0
 62
     9
 10
0.0
 20
0.0
 30
0.0
 70
   128
 71
    42
 72
    56
 73
    57
  0
VERTEX
  5
9F4
  8
0
 62
     9
 10
0.0
 20
0.0
 30
0.0
 70
   128
 71
    41
 72
    55
 73
    56
  0
VERTEX
  5
9F5
  8
0
 62
     9
 10
0.0
 20
0.0
 30
0.0
 70
   128
 71
    40
 72
    54
 73
    55
  0
VERTEX
  5
9F6
  8
0
 62
     9
 10
0.0
 20
0.0
 30
0.0
 70
   128
 71
    53
 72
    66
 73
    54
  0
VERTEX
  5
9F7
  8
0
 62
     9
 10
0.0
 20
0.0
 30
0.0
 70
   128
 71
    52
 72
    66
 73
    53
  0
VERTEX
  5
9F8
  8
0
 62
     9
 10
0.0
 20
0.0
 30
0.0
 70
   128
 71
    49
 72
    64
 73
    50
  0
VERTEX
  5
9F9
  8
0
 62
     9
 10
0.0
 20
0.0
 30
0.0
 70
   128
 71
    36
 72
    48
 73
    49
  0
VERTEX
  5
9FA
  8
0
 62
     9
 10
0.0
 20
0.0
 30
0.0
 70
   128
 71
    35
 72
    47
 73
    48
  0
VERTEX
  5
9FB
  8
0
 62
     9
 10
0.0
 20
0.0
 30
0.0
 70
   128
 71
    34
 72
    46
 73
    47
  0
VERTEX
  5
9FC
  8
0
 62
     9
 10
0.0
 20
0.0
 30
0.0
 70
   128
 71
    33
 72
    45
 73
    46
  0
VERTEX
  5
9FD
  8
0
 62
     9
 10
0.0
 20
0.0
 30
0.0
 70
   128
 71
    32
 72
    44
 73
    45
  0
VERTEX
  5
9FE
  8
0
 62
     9
 10
0.0
 20
0.0
 30
0.0
 70
   128
 71
    31
 72
    43
 73
    44
  0
VERTEX
  5
9FF
  8
0
 62
     9
 10
0.0
 20
0.0
 30
0.0
 70
   128
 71
    30
 72
    42
 73
    43
  0
VERTEX
  5
A00
  8
0
 62
     9
 10
0.0
 20
0.0
 30
0.0
 70
   128
 71
    29
 72
    41
 73
    42
  0
VERTEX
  5
A01
  8
0
 62
     9
 10
0.0
 20
0.0
 30
0.0
 70
   128
 71
    28
 72
    40
 73
    41
  0
VERTEX
  5
A02
  8
0
 62
     9
 10
0.0
 20
0.0
 30
0.0
 70
   128
 71
    26
 72
    53
 73
    40
  0
VERTEX
  5
A03
  8
0
 62
     9
 10
0.0
 20
0.0
 30
0.0
 70
   128
 71
    39
 72
    53
 73
    26
  0
VERTEX
  5
A04
  8
0
 62
     9
 10
0.0
 20
0.0
 30
0.0
 70
   128
 71
    37
 72
    51
 73
    38
  0
VERTEX
  5
A05
  8
0
 62
     9
 10
0.0
 20
0.0
 30
0.0
 70
   128
 71
    22
 72
    36
 73
    37
  0
VERTEX
  5
A06
  8
0
 62
     9
 10
0.0
 20
0.0
 30
0.0
 70
   128
 71
    20
 72
    35
 73
    36
  0
VERTEX
  5
A07
  8
0
 62
     9
 10
0.0
 20
0.0
 30
0.0
 70
   128
 71
    18
 72
    34
 73
    35
  0
VERTEX
  5
A08
  8
0
 62
     9
 10
0.0
 20
0.0
 30
0.0
 70
   128
 71
    16
 72
    33
 73
    34
  0
VERTEX
  5
A09
  8
0
 62
     9
 10
0.0
 20
0.0
 30
0.0
 70
   128
 71
    14
 72
    32
 73
    33
  0
VERTEX
  5
A0A
  8
0
 62
     9
 10
0.0
 20
0.0
 30
0.0
 70
   128
 71
    12
 72
    31
 73
    32
  0
VERTEX
  5
A0B
  8
0
 62
     9
 10
0.0
 20
0.0
 30
0.0
 70
   128
 71
    10
 72
    30
 73
    31
  0
VERTEX
  5
A0C
  8
0
 62
     9
 10
0.0
 20
0.0
 30
0.0
 70
   128
 71
     8
 72
    29
 73
    30
  0
VERTEX
  5
A0D
  8
0
 62
     9
 10
0.0
 20
0.0
 30
0.0
 70
   128
 71
     6
 72
    28
 73
    29
  0
VERTEX
  5
A0E
  8
0
 62
     9
 10
0.0
 20
0.0
 30
0.0
 70
   128
 71
     1
 72
    26
 73
    28
  0
VERTEX
  5
A0F
  8
0
 62
     9
 10
0.0
 20
0.0
 30
0.0
 70
   128
 71
    26
 72
     1
 73
     2
  0
VERTEX
  5
A10
  8
0
 62
     9
 10
0.0
 20
0.0
 30
0.0
 70
   128
 71
    25
 72
   148
 73
    23
  0
VERTEX
  5
A11
  8
0
 62
     9
 10
0.0
 20
0.0
 30
0.0
 70
   128
 71
    21
 72
    22
 73
    24
  0
VERTEX
  5
A12
  8
0
 62
     9
 10
0.0
 20
0.0
 30
0.0
 70
   128
 71
    19
 72
    20
 73
    22
  0
VERTEX
  5
A13
  8
0
 62
     9
 10
0.0
 20
0.0
 30
0.0
 70
   128
 71
    17
 72
    18
 73
    20
  0
VERTEX
  5
A14
  8
0
 62
     9
 10
0.0
 20
0.0
 30
0.0
 70
   128
 71
    15
 72
    16
 73
    18
  0
VERTEX
  5
A15
  8
0
 62
     9
 10
0.0
 20
0.0
 30
0.0
 70
   128
 71
    13
 72
    14
 73
    16
  0
VERTEX
  5
A16
  8
0
 62
     9
 10
0.0
 20
0.0
 30
0.0
 70
   128
 71
    11
 72
    12
 73
    14
  0
VERTEX
  5
A17
  8
0
 62
     9
 10
0.0
 20
0.0
 30
0.0
 70
   128
 71
     9
 72
    10
 73
    12
  0
VERTEX
  5
A18
  8
0
 62
     9
 10
0.0
 20
0.0
 30
0.0
 70
   128
 71
     7
 72
     8
 73
    10
  0
VERTEX
  5
A19
  8
0
 62
     9
 10
0.0
 20
0.0
 30
0.0
 70
   128
 71
     5
 72
     6
 73
     8
  0
VERTEX
  5
A1A
  8
0
 62
     9
 10
0.0
 20
0.0
 30
0.0
 70
   128
 71
     4
 72
     1
 73
     6
  0
VERTEX
  5
A1B
  8
0
 62
     9
 10
0.0
 20
0.0
 30
0.0
 70
   128
 71
     1
 72
     4
 73
     3
  0
SEQEND
  5
A1C
  8
0
 62
     9
  0
ENDBLK
  5
A1F
  8
0
  0
BLOCK
  8
0
  2
E3_NODE_20_
 70
     0
 10
0.0
 20
0.0
 30
0.0
  3
E3_NODE_20_
  1

  0
POLYLINE
  5
A21
  8
0
 62
     9
 66
     1
 10
0.0
 20
0.0
 30
0.0
 70
    64
 71
    26
 72
    26
  0
VERTEX
  5
A22
  8
0
 10
-9.89900016784668
 20
-45.59700012207031
 30
18.5
 70
   192
  0
VERTEX
  5
A23
  8
0
 10
-14.0
 20
-55.49700164794922
 30
18.5
 70
   192
  0
VERTEX
  5
A24
  8
0
 10
-13.43299961090088
 20
-51.55199813842773
 30
76.5
 70
   192
  0
VERTEX
  5
A25
  8
0
 10
-13.43299961090088
 20
-55.49700164794922
 30
76.5
 70
   192
  0
VERTEX
  5
A26
  8
0
 10
-9.168000221252441
 20
-44.91600036621094
 30
76.5
 70
   192
  0
VERTEX
  5
A27
  8
0
 10
-1.991999983787537
 20
-41.63899993896484
 30
76.5
 70
   192
  0
VERTEX
  5
A28
  8
0
 10
0.0
 20
-41.49700164794922
 30
18.5
 70
   192
  0
VERTEX
  5
A29
  8
0
 10
-9.692000389099121
 20
-45.73099899291992
 30
76.5
 70
   192
  0
VERTEX
  5
A2A
  8
0
 10
-0.0599999986588955
 20
-41.91699981689453
 30
76.5
 70
   192
  0
VERTEX
  5
A2B
  8
0
 10
5.815999984741211
 20
-42.76200103759766
 30
76.5
 70
   192
  0
VERTEX
  5
A2C
  8
0
 10
9.89900016784668
 20
-45.59700012207031
 30
18.5
 70
   192
  0
VERTEX
  5
A2D
  8
0
 10
14.0
 20
-55.49700164794922
 30
18.5
 70
   192
  0
VERTEX
  5
A2E
  8
0
 10
11.77799987792969
 20
-47.92800140380859
 30
76.5
 70
   192
  0
VERTEX
  5
A2F
  8
0
 10
9.550999641418457
 20
-45.99900054931641
 30
76.5
 70
   192
  0
VERTEX
  5
A30
  8
0
 10
14.0
 20
-55.49700164794922
 30
76.5
 70
   192
  0
VERTEX
  5
A31
  8
0
 10
11.77799987792969
 20
-63.06600189208984
 30
76.5
 70
   192
  0
VERTEX
  5
A32
  8
0
 10
9.89900016784668
 20
-65.39600372314453
 30
18.5
 70
   192
  0
VERTEX
  5
A33
  8
0
 10
0.0
 20
-69.49700164794922
 30
18.5
 70
   192
  0
VERTEX
  5
A34
  8
0
 10
5.815999984741211
 20
-68.23100280761719
 30
76.5
 70
   192
  0
VERTEX
  5
A35
  8
0
 10
9.550999641418457
 20
-64.99400329589844
 30
76.5
 70
   192
  0
VERTEX
  5
A36
  8
0
 10
-9.89900016784668
 20
-65.39600372314453
 30
18.5
 70
   192
  0
VERTEX
  5
A37
  8
0
 10
-1.991999983787537
 20
-69.35399627685547
 30
76.5
 70
   192
  0
VERTEX
  5
A38
  8
0
 10
-9.168000221252441
 20
-66.0770034790039
 30
76.5
 70
   192
  0
VERTEX
  5
A39
  8
0
 10
-0.0599999986588955
 20
-69.07599639892578
 30
76.5
 70
   192
  0
VERTEX
  5
A3A
  8
0
 10
-9.692000389099121
 20
-65.26200103759766
 30
76.5
 70
   192
  0
VERTEX
  5
A3B
  8
0
 10
-13.43299961090088
 20
-59.44100189208984
 30
76.5
 70
   192
  0
VERTEX
  5
A3C
  8
0
 62
     9
 10
0.0
 20
0.0
 30
0.0
 70
   128
 71
     3
 72
     2
 73
     1
  0
VERTEX
  5
A3D
  8
0
 62
     9
 10
0.0
 20
0.0
 30
0.0
 70
   128
 71
     3
 72
     4
 73
     2
  0
VERTEX
  5
A3E
  8
0
 62
     9
 10
0.0
 20
0.0
 30
0.0
 70
   128
 71
     6
 72
     5
 73
     1
  0
VERTEX
  5
A3F
  8
0
 62
     9
 10
0.0
 20
0.0
 30
0.0
 70
   128
 71
     1
 72
     7
 73
     6
  0
VERTEX
  5
A40
  8
0
 62
     9
 10
0.0
 20
0.0
 30
0.0
 70
   128
 71
     5
 72
     8
 73
     1
  0
VERTEX
  5
A41
  8
0
 62
     9
 10
0.0
 20
0.0
 30
0.0
 70
   128
 71
    10
 72
     9
 73
     7
  0
VERTEX
  5
A42
  8
0
 62
     9
 10
0.0
 20
0.0
 30
0.0
 70
   128
 71
     7
 72
    11
 73
    10
  0
VERTEX
  5
A43
  8
0
 62
     9
 10
0.0
 20
0.0
 30
0.0
 70
   128
 71
    13
 72
    11
 73
    12
  0
VERTEX
  5
A44
  8
0
 62
     9
 10
0.0
 20
0.0
 30
0.0
 70
   128
 71
    13
 72
    14
 73
    11
  0
VERTEX
  5
A45
  8
0
 62
     9
 10
0.0
 20
0.0
 30
0.0
 70
   128
 71
    16
 72
    15
 73
    12
  0
VERTEX
  5
A46
  8
0
 62
     9
 10
0.0
 20
0.0
 30
0.0
 70
   128
 71
    12
 72
    17
 73
    16
  0
VERTEX
  5
A47
  8
0
 62
     9
 10
0.0
 20
0.0
 30
0.0
 70
   128
 71
    19
 72
    17
 73
    18
  0
VERTEX
  5
A48
  8
0
 62
     9
 10
0.0
 20
0.0
 30
0.0
 70
   128
 71
    19
 72
    20
 73
    17
  0
VERTEX
  5
A49
  8
0
 62
     9
 10
0.0
 20
0.0
 30
0.0
 70
   128
 71
    22
 72
    18
 73
    21
  0
VERTEX
  5
A4A
  8
0
 62
     9
 10
0.0
 20
0.0
 30
0.0
 70
   128
 71
    21
 72
    23
 73
    22
  0
VERTEX
  5
A4B
  8
0
 62
     9
 10
0.0
 20
0.0
 30
0.0
 70
   128
 71
    22
 72
    24
 73
    18
  0
VERTEX
  5
A4C
  8
0
 62
     9
 10
0.0
 20
0.0
 30
0.0
 70
   128
 71
    26
 72
    25
 73
    21
  0
VERTEX
  5
A4D
  8
0
 62
     9
 10
0.0
 20
0.0
 30
0.0
 70
   128
 71
    21
 72
     2
 73
    26
  0
VERTEX
  5
A4E
  8
0
 62
     9
 10
0.0
 20
0.0
 30
0.0
 70
   128
 71
     2
 72
     4
 73
    26
  0
VERTEX
  5
A4F
  8
0
 62
     9
 10
0.0
 20
0.0
 30
0.0
 70
   128
 71
    21
 72
    25
 73
    23
  0
VERTEX
  5
A50
  8
0
 62
     9
 10
0.0
 20
0.0
 30
0.0
 70
   128
 71
    18
 72
    24
 73
    19
  0
VERTEX
  5
A51
  8
0
 62
     9
 10
0.0
 20
0.0
 30
0.0
 70
   128
 71
    17
 72
    20
 73
    16
  0
VERTEX
  5
A52
  8
0
 62
     9
 10
0.0
 20
0.0
 30
0.0
 70
   128
 71
    12
 72
    15
 73
    13
  0
VERTEX
  5
A53
  8
0
 62
     9
 10
0.0
 20
0.0
 30
0.0
 70
   128
 71
    11
 72
    14
 73
    10
  0
VERTEX
  5
A54
  8
0
 62
     9
 10
0.0
 20
0.0
 30
0.0
 70
   128
 71
     7
 72
     9
 73
     6
  0
VERTEX
  5
A55
  8
0
 62
     9
 10
0.0
 20
0.0
 30
0.0
 70
   128
 71
     1
 72
     8
 73
     3
  0
SEQEND
  5
A56
  8
0
 62
     9
  0
ENDBLK
  5
A59
  8
0
  0
BLOCK
  8
0
  2
E3_NODE_21_
 70
     0
 10
0.0
 20
0.0
 30
0.0
  3
E3_NODE_21_
  1

  0
POLYLINE
  5
A5B
  8
0
 62
     9
 66
     1
 10
0.0
 20
0.0
 30
0.0
 70
    64
 71
     8
 72
     6
  0
VERTEX
  5
A5C
  8
0
 10
0.0
 20
-69.49700164794922
 30
18.5
 70
   192
  0
VERTEX
  5
A5D
  8
0
 10
0.0
 20
-41.49700164794922
 30
18.5
 70
   192
  0
VERTEX
  5
A5E
  8
0
 10
9.89900016784668
 20
-45.59700012207031
 30
18.5
 70
   192
  0
VERTEX
  5
A5F
  8
0
 10
-9.89900016784668
 20
-65.39600372314453
 30
18.5
 70
   192
  0
VERTEX
  5
A60
  8
0
 10
-14.0
 20
-55.49700164794922
 30
18.5
 70
   192
  0
VERTEX
  5
A61
  8
0
 10
-9.89900016784668
 20
-45.59700012207031
 30
18.5
 70
   192
  0
VERTEX
  5
A62
  8
0
 10
14.0
 20
-55.49700164794922
 30
18.5
 70
   192
  0
VERTEX
  5
A63
  8
0
 10
9.89900016784668
 20
-65.39600372314453
 30
18.5
 70
   192
  0
VERTEX
  5
A64
  8
0
 62
     9
 10
0.0
 20
0.0
 30
0.0
 70
   128
 71
     3
 72
     2
 73
     1
  0
VERTEX
  5
A65
  8
0
 62
     9
 10
0.0
 20
0.0
 30
0.0
 70
   128
 71
     6
 72
     5
 73
     4
  0
VERTEX
  5
A66
  8
0
 62
     9
 10
0.0
 20
0.0
 30
0.0
 70
   128
 71
     1
 72
     7
 73
     3
  0
VERTEX
  5
A67
  8
0
 62
     9
 10
0.0
 20
0.0
 30
0.0
 70
   128
 71
     4
 72
     1
 73
     2
  0
VERTEX
  5
A68
  8
0
 62
     9
 10
0.0
 20
0.0
 30
0.0
 70
   128
 71
     4
 72
     2
 73
     6
  0
VERTEX
  5
A69
  8
0
 62
     9
 10
0.0
 20
0.0
 30
0.0
 70
   128
 71
     1
 72
     8
 73
     7
  0
SEQEND
  5
A6A
  8
0
 62
     9
  0
ENDBLK
  5
A6D
  8
0
  0
BLOCK
  8
0
  2
E3_NODE_22_
 70
     0
 10
0.0
 20
0.0
 30
0.0
  3
E3_NODE_22_
  1

  0
POLYLINE
  5
A6F
  8
0
 62
     9
 66
     1
 10
0.0
 20
0.0
 30
0.0
 70
    64
 71
     4
 72
     2
  0
VERTEX
  5
A70
  8
0
 10
-5.574999809265137
 20
9.347000122070312
 30
-57.5
 70
   192
  0
VERTEX
  5
A71
  8
0
 10
-6.749000072479248
 20
7.061999797821045
 30
-57.5
 70
   192
  0
VERTEX
  5
A72
  8
0
 10
-8.907999992370605
 20
8.454000473022461
 30
-57.5
 70
   192
  0
VERTEX
  5
A73
  8
0
 10
-7.734000205993652
 20
10.73900032043457
 30
-57.5
 70
   192
  0
VERTEX
  5
A74
  8
0
 62
     9
 10
0.0
 20
0.0
 30
0.0
 70
   128
 71
     3
 72
     2
 73
     1
  0
VERTEX
  5
A75
  8
0
 62
     9
 10
0.0
 20
0.0
 30
0.0
 70
   128
 71
     1
 72
     4
 73
     3
  0
SEQEND
  5
A76
  8
0
 62
     9
  0
ENDBLK
  5
A79
  8
0
  0
BLOCK
  8
0
  2
E3_NODE_23_
 70
     0
 10
0.0
 20
0.0
 30
0.0
  3
E3_NODE_23_
  1

  0
POLYLINE
  5
A7B
  8
0
 62
     9
 66
     1
 10
0.0
 20
0.0
 30
0.0
 70
    64
 71
     8
 72
     8
  0
VERTEX
  5
A7C
  8
0
 10
-13.3769998550415
 20
31.79999923706055
 30
-2.578999996185303
 70
   192
  0
VERTEX
  5
A7D
  8
0
 10
-6.749000072479248
 20
7.061999797821045
 30
-57.5
 70
   192
  0
VERTEX
  5
A7E
  8
0
 10
-5.574999809265137
 20
9.347000122070312
 30
-57.5
 70
   192
  0
VERTEX
  5
A7F
  8
0
 10
-12.11600017547607
 20
33.75699996948242
 30
-3.308000087738037
 70
   192
  0
VERTEX
  5
A80
  8
0
 10
-7.734000205993652
 20
10.73900032043457
 30
-57.5
 70
   192
  0
VERTEX
  5
A81
  8
0
 10
-15.44799995422363
 20
32.86399841308594
 30
-3.308000087738037
 70
   192
  0
VERTEX
  5
A82
  8
0
 10
-14.18599987030029
 20
34.81999969482422
 30
-4.037000179290771
 70
   192
  0
VERTEX
  5
A83
  8
0
 10
-8.907999992370605
 20
8.454000473022461
 30
-57.5
 70
   192
  0
VERTEX
  5
A84
  8
0
 62
     9
 10
0.0
 20
0.0
 30
0.0
 70
   128
 71
     3
 72
     2
 73
     1
  0
VERTEX
  5
A85
  8
0
 62
     9
 10
0.0
 20
0.0
 30
0.0
 70
   128
 71
     5
 72
     3
 73
     4
  0
VERTEX
  5
A86
  8
0
 62
     9
 10
0.0
 20
0.0
 30
0.0
 70
   128
 71
     5
 72
     7
 73
     6
  0
VERTEX
  5
A87
  8
0
 62
     9
 10
0.0
 20
0.0
 30
0.0
 70
   128
 71
     8
 72
     6
 73
     1
  0
VERTEX
  5
A88
  8
0
 62
     9
 10
0.0
 20
0.0
 30
0.0
 70
   128
 71
     1
 72
     2
 73
     8
  0
VERTEX
  5
A89
  8
0
 62
     9
 10
0.0
 20
0.0
 30
0.0
 70
   128
 71
     6
 72
     8
 73
     5
  0
VERTEX
  5
A8A
  8
0
 62
     9
 10
0.0
 20
0.0
 30
0.0
 70
   128
 71
     4
 72
     7
 73
     5
  0
VERTEX
  5
A8B
  8
0
 62
     9
 10
0.0
 20
0.0
 30
0.0
 70
   128
 71
     1
 72
     4
 73
     3
  0
SEQEND
  5
A8C
  8
0
 62
     9
  0
ENDBLK
  5
A8F
  8
0
  0
BLOCK
  8
0
  2
E3_NODE_24_
 70
     0
 10
0.0
 20
0.0
 30
0.0
  3
E3_NODE_24_
  1

  0
POLYLINE
  5
A91
  8
0
 62
     9
 66
     1
 10
0.0
 20
0.0
 30
0.0
 70
    64
 71
    25
 72
    40
  0
VERTEX
  5
A92
  8
0
 10
-7.922999858856201
 20
31.22800064086914
 30
1.243000030517578
 70
   192
  0
VERTEX
  5
A93
  8
0
 10
-12.37100028991699
 20
28.04700088500977
 30
2.140000104904175
 70
   192
  0
VERTEX
  5
A94
  8
0
 10
-12.39999961853027
 20
28.15399932861328
 30
-3.57699990272522
 70
   192
  0
VERTEX
  5
A95
  8
0
 10
-7.076000213623047
 20
36.25899887084961
 30
-0.9210000038146973
 70
   192
  0
VERTEX
  5
A96
  8
0
 10
-9.49899959564209
 20
30.22999954223633
 30
-4.162000179290771
 70
   192
  0
VERTEX
  5
A97
  8
0
 10
-10.32499980926514
 20
40.19300079345703
 30
-3.084000110626221
 70
   192
  0
VERTEX
  5
A98
  8
0
 10
-8.946000099182129
 20
33.51200103759766
 30
-5.572999954223633
 70
   192
  0
VERTEX
  5
A99
  8
0
 10
-15.76799964904785
 20
40.7239990234375
 30
-3.980999946594238
 70
   192
  0
VERTEX
  5
A9A
  8
0
 10
-11.06599998474121
 20
36.07799911499023
 30
-6.985000133514404
 70
   192
  0
VERTEX
  5
A9B
  8
0
 10
-20.21599960327148
 20
37.54199981689453
 30
-3.084000110626221
 70
   192
  0
VERTEX
  5
A9C
  8
0
 10
-14.61600017547607
 20
36.42499923706055
 30
-7.570000171661377
 70
   192
  0
VERTEX
  5
A9D
  8
0
 10
-21.06399917602539
 20
32.51100158691406
 30
-0.9210000038146973
 70
   192
  0
VERTEX
  5
A9E
  8
0
 10
-17.51799964904785
 20
34.3489990234375
 30
-6.985000133514404
 70
   192
  0
VERTEX
  5
A9F
  8
0
 10
-17.81399917602539
 20
28.57799911499023
 30
1.243000030517578
 70
   192
  0
VERTEX
  5
AA0
  8
0
 10
-18.07099914550781
 20
31.0669994354248
 30
-5.572999954223633
 70
   192
  0
VERTEX
  5
AA1
  8
0
 10
-15.95100021362305
 20
28.50099945068359
 30
-4.162000179290771
 70
   192
  0
VERTEX
  5
AA2
  8
0
 10
-10.19600009918213
 20
34.28300094604492
 30
5.508999824523926
 70
   192
  0
VERTEX
  5
AA3
  8
0
 10
-9.581000328063965
 20
37.93399810791016
 30
3.938999891281128
 70
   192
  0
VERTEX
  5
AA4
  8
0
 10
-11.93900012969971
 20
40.78799819946289
 30
2.36899995803833
 70
   192
  0
VERTEX
  5
AA5
  8
0
 10
-15.88899993896484
 20
41.17399978637695
 30
1.718000054359436
 70
   192
  0
VERTEX
  5
AA6
  8
0
 10
-19.11700057983398
 20
38.8650016784668
 30
2.36899995803833
 70
   192
  0
VERTEX
  5
AA7
  8
0
 10
-19.73200035095215
 20
35.2140007019043
 30
3.938999891281128
 70
   192
  0
VERTEX
  5
AA8
  8
0
 10
-17.37400054931641
 20
32.36000061035156
 30
5.508999824523926
 70
   192
  0
VERTEX
  5
AA9
  8
0
 10
-13.42399978637695
 20
31.97400093078613
 30
6.158999919891357
 70
   192
  0
VERTEX
  5
AAA
  8
0
 10
-14.90299987792969
 20
37.49399948120117
 30
5.98199987411499
 70
   192
  0
VERTEX
  5
AAB
  8
0
 62
     9
 10
0.0
 20
0.0
 30
0.0
 70
   128
 71
     3
 72
     2
 73
     1
  0
VERTEX
  5
AAC
  8
0
 62
     9
 10
0.0
 20
0.0
 30
0.0
 70
   128
 71
     5
 72
     1
 73
     4
  0
VERTEX
  5
AAD
  8
0
 62
     9
 10
0.0
 20
0.0
 30
0.0
 70
   128
 71
     7
 72
     4
 73
     6
  0
VERTEX
  5
AAE
  8
0
 62
     9
 10
0.0
 20
0.0
 30
0.0
 70
   128
 71
     9
 72
     6
 73
     8
  0
VERTEX
  5
AAF
  8
0
 62
     9
 10
0.0
 20
0.0
 30
0.0
 70
   128
 71
    11
 72
     8
 73
    10
  0
VERTEX
  5
AB0
  8
0
 62
     9
 10
0.0
 20
0.0
 30
0.0
 70
   128
 71
    13
 72
    10
 73
    12
  0
VERTEX
  5
AB1
  8
0
 62
     9
 10
0.0
 20
0.0
 30
0.0
 70
   128
 71
    15
 72
    12
 73
    14
  0
VERTEX
  5
AB2
  8
0
 62
     9
 10
0.0
 20
0.0
 30
0.0
 70
   128
 71
    16
 72
    14
 73
     2
  0
VERTEX
  5
AB3
  8
0
 62
     9
 10
0.0
 20
0.0
 30
0.0
 70
   128
 71
    17
 72
     1
 73
     2
  0
VERTEX
  5
AB4
  8
0
 62
     9
 10
0.0
 20
0.0
 30
0.0
 70
   128
 71
    18
 72
     4
 73
     1
  0
VERTEX
  5
AB5
  8
0
 62
     9
 10
0.0
 20
0.0
 30
0.0
 70
   128
 71
    19
 72
     6
 73
     4
  0
VERTEX
  5
AB6
  8
0
 62
     9
 10
0.0
 20
0.0
 30
0.0
 70
   128
 71
    20
 72
     8
 73
     6
  0
VERTEX
  5
AB7
  8
0
 62
     9
 10
0.0
 20
0.0
 30
0.0
 70
   128
 71
    21
 72
    10
 73
     8
  0
VERTEX
  5
AB8
  8
0
 62
     9
 10
0.0
 20
0.0
 30
0.0
 70
   128
 71
    22
 72
    12
 73
    10
  0
VERTEX
  5
AB9
  8
0
 62
     9
 10
0.0
 20
0.0
 30
0.0
 70
   128
 71
    23
 72
    14
 73
    12
  0
VERTEX
  5
ABA
  8
0
 62
     9
 10
0.0
 20
0.0
 30
0.0
 70
   128
 71
    24
 72
     2
 73
    14
  0
VERTEX
  5
ABB
  8
0
 62
     9
 10
0.0
 20
0.0
 30
0.0
 70
   128
 71
    24
 72
    23
 73
    25
  0
VERTEX
  5
ABC
  8
0
 62
     9
 10
0.0
 20
0.0
 30
0.0
 70
   128
 71
    23
 72
    22
 73
    25
  0
VERTEX
  5
ABD
  8
0
 62
     9
 10
0.0
 20
0.0
 30
0.0
 70
   128
 71
    22
 72
    21
 73
    25
  0
VERTEX
  5
ABE
  8
0
 62
     9
 10
0.0
 20
0.0
 30
0.0
 70
   128
 71
    21
 72
    20
 73
    25
  0
VERTEX
  5
ABF
  8
0
 62
     9
 10
0.0
 20
0.0
 30
0.0
 70
   128
 71
    20
 72
    19
 73
    25
  0
VERTEX
  5
AC0
  8
0
 62
     9
 10
0.0
 20
0.0
 30
0.0
 70
   128
 71
    19
 72
    18
 73
    25
  0
VERTEX
  5
AC1
  8
0
 62
     9
 10
0.0
 20
0.0
 30
0.0
 70
   128
 71
    18
 72
    17
 73
    25
  0
VERTEX
  5
AC2
  8
0
 62
     9
 10
0.0
 20
0.0
 30
0.0
 70
   128
 71
    17
 72
    24
 73
    25
  0
VERTEX
  5
AC3
  8
0
 62
     9
 10
0.0
 20
0.0
 30
0.0
 70
   128
 71
    14
 72
    23
 73
    24
  0
VERTEX
  5
AC4
  8
0
 62
     9
 10
0.0
 20
0.0
 30
0.0
 70
   128
 71
    12
 72
    22
 73
    23
  0
VERTEX
  5
AC5
  8
0
 62
     9
 10
0.0
 20
0.0
 30
0.0
 70
   128
 71
    10
 72
    21
 73
    22
  0
VERTEX
  5
AC6
  8
0
 62
     9
 10
0.0
 20
0.0
 30
0.0
 70
   128
 71
     8
 72
    20
 73
    21
  0
VERTEX
  5
AC7
  8
0
 62
     9
 10
0.0
 20
0.0
 30
0.0
 70
   128
 71
     6
 72
    19
 73
    20
  0
VERTEX
  5
AC8
  8
0
 62
     9
 10
0.0
 20
0.0
 30
0.0
 70
   128
 71
     4
 72
    18
 73
    19
  0
VERTEX
  5
AC9
  8
0
 62
     9
 10
0.0
 20
0.0
 30
0.0
 70
   128
 71
     1
 72
    17
 73
    18
  0
VERTEX
  5
ACA
  8
0
 62
     9
 10
0.0
 20
0.0
 30
0.0
 70
   128
 71
     2
 72
    24
 73
    17
  0
VERTEX
  5
ACB
  8
0
 62
     9
 10
0.0
 20
0.0
 30
0.0
 70
   128
 71
     2
 72
     3
 73
    16
  0
VERTEX
  5
ACC
  8
0
 62
     9
 10
0.0
 20
0.0
 30
0.0
 70
   128
 71
    14
 72
    16
 73
    15
  0
VERTEX
  5
ACD
  8
0
 62
     9
 10
0.0
 20
0.0
 30
0.0
 70
   128
 71
    12
 72
    15
 73
    13
  0
VERTEX
  5
ACE
  8
0
 62
     9
 10
0.0
 20
0.0
 30
0.0
 70
   128
 71
    10
 72
    13
 73
    11
  0
VERTEX
  5
ACF
  8
0
 62
     9
 10
0.0
 20
0.0
 30
0.0
 70
   128
 71
     8
 72
    11
 73
     9
  0
VERTEX
  5
AD0
  8
0
 62
     9
 10
0.0
 20
0.0
 30
0.0
 70
   128
 71
     6
 72
     9
 73
     7
  0
VERTEX
  5
AD1
  8
0
 62
     9
 10
0.0
 20
0.0
 30
0.0
 70
   128
 71
     4
 72
     7
 73
     5
  0
VERTEX
  5
AD2
  8
0
 62
     9
 10
0.0
 20
0.0
 30
0.0
 70
   128
 71
     1
 72
     5
 73
     3
  0
SEQEND
  5
AD3
  8
0
 62
     9
  0
ENDBLK
  5
AD6
  8
0
  0
BLOCK
  8
0
  2
E3_NODE_25_
 70
     0
 10
0.0
 20
0.0
 30
0.0
  3
E3_NODE_25_
  1

  0
POLYLINE
  5
AD8
  8
0
 62
     9
 66
     1
 10
0.0
 20
0.0
 30
0.0
 70
    64
 71
     8
 72
     6
  0
VERTEX
  5
AD9
  8
0
 10
-8.946000099182129
 20
33.51200103759766
 30
-5.572999954223633
 70
   192
  0
VERTEX
  5
ADA
  8
0
 10
-12.39999961853027
 20
28.15399932861328
 30
-3.57699990272522
 70
   192
  0
VERTEX
  5
ADB
  8
0
 10
-15.95100021362305
 20
28.50099945068359
 30
-4.162000179290771
 70
   192
  0
VERTEX
  5
ADC
  8
0
 10
-17.51799964904785
 20
34.3489990234375
 30
-6.985000133514404
 70
   192
  0
VERTEX
  5
ADD
  8
0
 10
-14.61600017547607
 20
36.42499923706055
 30
-7.570000171661377
 70
   192
  0
VERTEX
  5
ADE
  8
0
 10
-9.49899959564209
 20
30.22999954223633
 30
-4.162000179290771
 70
   192
  0
VERTEX
  5
ADF
  8
0
 10
-18.07099914550781
 20
31.0669994354248
 30
-5.572999954223633
 70
   192
  0
VERTEX
  5
AE0
  8
0
 10
-11.06599998474121
 20
36.07799911499023
 30
-6.985000133514404
 70
   192
  0
VERTEX
  5
AE1
  8
0
 62
     9
 10
0.0
 20
0.0
 30
0.0
 70
   128
 71
     3
 72
     2
 73
     1
  0
VERTEX
  5
AE2
  8
0
 62
     9
 10
0.0
 20
0.0
 30
0.0
 70
   128
 71
     5
 72
     4
 73
     1
  0
VERTEX
  5
AE3
  8
0
 62
     9
 10
0.0
 20
0.0
 30
0.0
 70
   128
 71
     2
 72
     6
 73
     1
  0
VERTEX
  5
AE4
  8
0
 62
     9
 10
0.0
 20
0.0
 30
0.0
 70
   128
 71
     4
 72
     7
 73
     1
  0
VERTEX
  5
AE5
  8
0
 62
     9
 10
0.0
 20
0.0
 30
0.0
 70
   128
 71
     1
 72
     8
 73
     5
  0
VERTEX
  5
AE6
  8
0
 62
     9
 10
0.0
 20
0.0
 30
0.0
 70
   128
 71
     1
 72
     7
 73
     3
  0
SEQEND
  5
AE7
  8
0
 62
     9
  0
ENDBLK
  5
AEA
  8
0
  0
BLOCK
  8
0
  2
E3_NODE_26_
 70
     0
 10
0.0
 20
0.0
 30
0.0
  3
E3_NODE_26_
  1

  0
POLYLINE
  5
AEC
  8
0
 62
     9
 66
     1
 10
0.0
 20
0.0
 30
0.0
 70
    64
 71
    11
 72
     9
  0
VERTEX
  5
AED
  8
0
 10
-3.700000047683716
 20
25.73500061035156
 30
0.0
 70
   192
  0
VERTEX
  5
AEE
  8
0
 10
-24.94700050354004
 20
-7.324999809265137
 30
0.0
 70
   192
  0
VERTEX
  5
AEF
  8
0
 10
-24.94700050354004
 20
7.324999809265137
 30
0.0
 70
   192
  0
VERTEX
  5
AF0
  8
0
 10
21.87299919128418
 20
-14.05700016021729
 30
0.0
 70
   192
  0
VERTEX
  5
AF1
  8
0
 10
10.80099964141846
 20
23.64999961853027
 30
0.0
 70
   192
  0
VERTEX
  5
AF2
  8
0
 10
21.87299919128418
 20
14.05700016021729
 30
0.0
 70
   192
  0
VERTEX
  5
AF3
  8
0
 10
-17.02599906921387
 20
-19.64900016784668
 30
0.0
 70
   192
  0
VERTEX
  5
AF4
  8
0
 10
-3.700000047683716
 20
-25.73500061035156
 30
0.0
 70
   192
  0
VERTEX
  5
AF5
  8
0
 10
26.0
 20
0.0
 30
0.0
 70
   192
  0
VERTEX
  5
AF6
  8
0
 10
10.80099964141846
 20
-23.64999961853027
 30
0.0
 70
   192
  0
VERTEX
  5
AF7
  8
0
 10
-17.02599906921387
 20
19.64900016784668
 30
0.0
 70
   192
  0
VERTEX
  5
AF8
  8
0
 62
     9
 10
0.0
 20
0.0
 30
0.0
 70
   128
 71
     3
 72
     2
 73
     1
  0
VERTEX
  5
AF9
  8
0
 62
     9
 10
0.0
 20
0.0
 30
0.0
 70
   128
 71
     6
 72
     5
 73
     4
  0
VERTEX
  5
AFA
  8
0
 62
     9
 10
0.0
 20
0.0
 30
0.0
 70
   128
 71
     2
 72
     7
 73
     1
  0
VERTEX
  5
AFB
  8
0
 62
     9
 10
0.0
 20
0.0
 30
0.0
 70
   128
 71
     5
 72
     1
 73
     4
  0
VERTEX
  5
AFC
  8
0
 62
     9
 10
0.0
 20
0.0
 30
0.0
 70
   128
 71
     7
 72
     8
 73
     1
  0
VERTEX
  5
AFD
  8
0
 62
     9
 10
0.0
 20
0.0
 30
0.0
 70
   128
 71
     4
 72
     9
 73
     6
  0
VERTEX
  5
AFE
  8
0
 62
     9
 10
0.0
 20
0.0
 30
0.0
 70
   128
 71
     8
 72
    10
 73
     1
  0
VERTEX
  5
AFF
  8
0
 62
     9
 10
0.0
 20
0.0
 30
0.0
 70
   128
 71
     1
 72
    11
 73
     3
  0
VERTEX
  5
B00
  8
0
 62
     9
 10
0.0
 20
0.0
 30
0.0
 70
   128
 71
     1
 72
    10
 73
     4
  0
SEQEND
  5
B01
  8
0
 62
     9
  0
ENDBLK
  5
B04
  8
0
  0
BLOCK
  8
0
  2
E3_NODE_27_
 70
     0
 10
0.0
 20
0.0
 30
0.0
  3
E3_NODE_27_
  1

  0
POLYLINE
  5
B06
  8
0
 62
     9
 66
     1
 10
0.0
 20
0.0
 30
0.0
 70
    64
 71
    32
 72
    32
  0
VERTEX
  5
B07
  8
0
 10
21.87299919128418
 20
-14.05700016021729
 30
0.0
 70
   192
  0
VERTEX
  5
B08
  8
0
 10
26.0
 20
0.0
 30
0.0
 70
   192
  0
VERTEX
  5
B09
  8
0
 10
24.64500045776367
 20
-7.236999988555908
 30
36.0
 70
   192
  0
VERTEX
  5
B0A
  8
0
 10
25.68600082397461
 20
0.0
 30
36.0
 70
   192
  0
VERTEX
  5
B0B
  8
0
 10
21.60799980163574
 20
-13.88700008392334
 30
36.0
 70
   192
  0
VERTEX
  5
B0C
  8
0
 10
16.82099914550781
 20
-19.41200065612793
 30
36.0
 70
   192
  0
VERTEX
  5
B0D
  8
0
 10
10.80099964141846
 20
-23.64999961853027
 30
0.0
 70
   192
  0
VERTEX
  5
B0E
  8
0
 10
-3.700000047683716
 20
-25.73500061035156
 30
0.0
 70
   192
  0
VERTEX
  5
B0F
  8
0
 10
3.654999971389771
 20
-25.42399978637695
 30
36.0
 70
   192
  0
VERTEX
  5
B10
  8
0
 10
10.67000007629395
 20
-23.36499977111816
 30
36.0
 70
   192
  0
VERTEX
  5
B11
  8
0
 10
-17.02599906921387
 20
-19.64900016784668
 30
0.0
 70
   192
  0
VERTEX
  5
B12
  8
0
 10
-10.67000007629395
 20
-23.36499977111816
 30
36.0
 70
   192
  0
VERTEX
  5
B13
  8
0
 10
-3.654999971389771
 20
-25.42399978637695
 30
36.0
 70
   192
  0
VERTEX
  5
B14
  8
0
 10
-16.82099914550781
 20
-19.41200065612793
 30
36.0
 70
   192
  0
VERTEX
  5
B15
  8
0
 10
-21.60799980163574
 20
-13.88700008392334
 30
36.0
 70
   192
  0
VERTEX
  5
B16
  8
0
 10
-24.94700050354004
 20
-7.324999809265137
 30
0.0
 70
   192
  0
VERTEX
  5
B17
  8
0
 10
-24.64500045776367
 20
-7.236999988555908
 30
36.0
 70
   192
  0
VERTEX
  5
B18
  8
0
 10
-24.64500045776367
 20
7.236999988555908
 30
36.0
 70
   192
  0
VERTEX
  5
B19
  8
0
 10
-17.02599906921387
 20
19.64900016784668
 30
0.0
 70
   192
  0
VERTEX
  5
B1A
  8
0
 10
-24.94700050354004
 20
7.324999809265137
 30
0.0
 70
   192
  0
VERTEX
  5
B1B
  8
0
 10
-21.60799980163574
 20
13.88700008392334
 30
36.0
 70
   192
  0
VERTEX
  5
B1C
  8
0
 10
-16.82099914550781
 20
19.41200065612793
 30
36.0
 70
   192
  0
VERTEX
  5
B1D
  8
0
 10
-10.67000007629395
 20
23.36499977111816
 30
36.0
 70
   192
  0
VERTEX
  5
B1E
  8
0
 10
-3.700000047683716
 20
25.73500061035156
 30
0.0
 70
   192
  0
VERTEX
  5
B1F
  8
0
 10
-3.654999971389771
 20
25.42399978637695
 30
36.0
 70
   192
  0
VERTEX
  5
B20
  8
0
 10
3.654999971389771
 20
25.42399978637695
 30
36.0
 70
   192
  0
VERTEX
  5
B21
  8
0
 10
10.80099964141846
 20
23.64999961853027
 30
0.0
 70
   192
  0
VERTEX
  5
B22
  8
0
 10
21.87299919128418
 20
14.05700016021729
 30
0.0
 70
   192
  0
VERTEX
  5
B23
  8
0
 10
16.82099914550781
 20
19.41200065612793
 30
36.0
 70
   192
  0
VERTEX
  5
B24
  8
0
 10
10.67000007629395
 20
23.36499977111816
 30
36.0
 70
   192
  0
VERTEX
  5
B25
  8
0
 10
24.64500045776367
 20
7.236999988555908
 30
36.0
 70
   192
  0
VERTEX
  5
B26
  8
0
 10
21.60799980163574
 20
13.88700008392334
 30
36.0
 70
   192
  0
VERTEX
  5
B27
  8
0
 62
     9
 10
0.0
 20
0.0
 30
0.0
 70
   128
 71
     3
 72
     2
 73
     1
  0
VERTEX
  5
B28
  8
0
 62
     9
 10
0.0
 20
0.0
 30
0.0
 70
   128
 71
     3
 72
     4
 73
     2
  0
VERTEX
  5
B29
  8
0
 62
     9
 10
0.0
 20
0.0
 30
0.0
 70
   128
 71
     6
 72
     5
 73
     1
  0
VERTEX
  5
B2A
  8
0
 62
     9
 10
0.0
 20
0.0
 30
0.0
 70
   128
 71
     1
 72
     7
 73
     6
  0
VERTEX
  5
B2B
  8
0
 62
     9
 10
0.0
 20
0.0
 30
0.0
 70
   128
 71
     9
 72
     7
 73
     8
  0
VERTEX
  5
B2C
  8
0
 62
     9
 10
0.0
 20
0.0
 30
0.0
 70
   128
 71
     9
 72
    10
 73
     7
  0
VERTEX
  5
B2D
  8
0
 62
     9
 10
0.0
 20
0.0
 30
0.0
 70
   128
 71
    12
 72
     8
 73
    11
  0
VERTEX
  5
B2E
  8
0
 62
     9
 10
0.0
 20
0.0
 30
0.0
 70
   128
 71
    12
 72
    13
 73
     8
  0
VERTEX
  5
B2F
  8
0
 62
     9
 10
0.0
 20
0.0
 30
0.0
 70
   128
 71
    15
 72
    14
 73
    11
  0
VERTEX
  5
B30
  8
0
 62
     9
 10
0.0
 20
0.0
 30
0.0
 70
   128
 71
    11
 72
    16
 73
    15
  0
VERTEX
  5
B31
  8
0
 62
     9
 10
0.0
 20
0.0
 30
0.0
 70
   128
 71
    18
 72
    17
 73
    16
  0
VERTEX
  5
B32
  8
0
 62
     9
 10
0.0
 20
0.0
 30
0.0
 70
   128
 71
    21
 72
    20
 73
    19
  0
VERTEX
  5
B33
  8
0
 62
     9
 10
0.0
 20
0.0
 30
0.0
 70
   128
 71
    21
 72
    18
 73
    20
  0
VERTEX
  5
B34
  8
0
 62
     9
 10
0.0
 20
0.0
 30
0.0
 70
   128
 71
    23
 72
    22
 73
    19
  0
VERTEX
  5
B35
  8
0
 62
     9
 10
0.0
 20
0.0
 30
0.0
 70
   128
 71
    19
 72
    24
 73
    23
  0
VERTEX
  5
B36
  8
0
 62
     9
 10
0.0
 20
0.0
 30
0.0
 70
   128
 71
    26
 72
    25
 73
    24
  0
VERTEX
  5
B37
  8
0
 62
     9
 10
0.0
 20
0.0
 30
0.0
 70
   128
 71
    24
 72
    27
 73
    26
  0
VERTEX
  5
B38
  8
0
 62
     9
 10
0.0
 20
0.0
 30
0.0
 70
   128
 71
    29
 72
    27
 73
    28
  0
VERTEX
  5
B39
  8
0
 62
     9
 10
0.0
 20
0.0
 30
0.0
 70
   128
 71
    29
 72
    30
 73
    27
  0
VERTEX
  5
B3A
  8
0
 62
     9
 10
0.0
 20
0.0
 30
0.0
 70
   128
 71
    31
 72
    28
 73
     2
  0
VERTEX
  5
B3B
  8
0
 62
     9
 10
0.0
 20
0.0
 30
0.0
 70
   128
 71
    31
 72
    32
 73
    28
  0
VERTEX
  5
B3C
  8
0
 62
     9
 10
0.0
 20
0.0
 30
0.0
 70
   128
 71
     2
 72
     4
 73
    31
  0
VERTEX
  5
B3D
  8
0
 62
     9
 10
0.0
 20
0.0
 30
0.0
 70
   128
 71
    28
 72
    32
 73
    29
  0
VERTEX
  5
B3E
  8
0
 62
     9
 10
0.0
 20
0.0
 30
0.0
 70
   128
 71
    27
 72
    30
 73
    26
  0
VERTEX
  5
B3F
  8
0
 62
     9
 10
0.0
 20
0.0
 30
0.0
 70
   128
 71
    24
 72
    25
 73
    23
  0
VERTEX
  5
B40
  8
0
 62
     9
 10
0.0
 20
0.0
 30
0.0
 70
   128
 71
    19
 72
    22
 73
    21
  0
VERTEX
  5
B41
  8
0
 62
     9
 10
0.0
 20
0.0
 30
0.0
 70
   128
 71
    16
 72
    20
 73
    18
  0
VERTEX
  5
B42
  8
0
 62
     9
 10
0.0
 20
0.0
 30
0.0
 70
   128
 71
    16
 72
    17
 73
    15
  0
VERTEX
  5
B43
  8
0
 62
     9
 10
0.0
 20
0.0
 30
0.0
 70
   128
 71
    11
 72
    14
 73
    12
  0
VERTEX
  5
B44
  8
0
 62
     9
 10
0.0
 20
0.0
 30
0.0
 70
   128
 71
     8
 72
    13
 73
     9
  0
VERTEX
  5
B45
  8
0
 62
     9
 10
0.0
 20
0.0
 30
0.0
 70
   128
 71
     7
 72
    10
 73
     6
  0
VERTEX
  5
B46
  8
0
 62
     9
 10
0.0
 20
0.0
 30
0.0
 70
   128
 71
     1
 72
     5
 73
     3
  0
SEQEND
  5
B47
  8
0
 62
     9
  0
ENDBLK
  5
B4A
  8
0
  0
BLOCK
  8
0
  2
E3_NODE_28_
 70
     0
 10
0.0
 20
0.0
 30
0.0
  3
E3_NODE_28_
  1

  0
POLYLINE
  5
B4C
  8
0
 62
     9
 66
     1
 10
0.0
 20
0.0
 30
0.0
 70
    64
 71
    46
 72
    46
  0
VERTEX
  5
B4D
  8
0
 10
16.82099914550781
 20
19.41200065612793
 30
36.0
 70
   192
  0
VERTEX
  5
B4E
  8
0
 10
10.67000007629395
 20
23.36499977111816
 30
36.0
 70
   192
  0
VERTEX
  5
B4F
  8
0
 10
12.51099967956543
 20
21.66900062561035
 30
36.0
 70
   192
  0
VERTEX
  5
B50
  8
0
 10
3.654999971389771
 20
25.42399978637695
 30
36.0
 70
   192
  0
VERTEX
  5
B51
  8
0
 10
2.615000009536743
 20
24.88500022888184
 30
36.0
 70
   192
  0
VERTEX
  5
B52
  8
0
 10
7.73199987411499
 20
23.79700088500977
 30
36.0
 70
   192
  0
VERTEX
  5
B53
  8
0
 10
-3.654999971389771
 20
25.42399978637695
 30
36.0
 70
   192
  0
VERTEX
  5
B54
  8
0
 10
-2.615000009536743
 20
24.88500022888184
 30
36.0
 70
   192
  0
VERTEX
  5
B55
  8
0
 10
21.60799980163574
 20
13.88700008392334
 30
36.0
 70
   192
  0
VERTEX
  5
B56
  8
0
 10
20.24300003051758
 20
14.70699977874756
 30
36.0
 70
   192
  0
VERTEX
  5
B57
  8
0
 10
22.85799980163574
 20
10.17700004577637
 30
36.0
 70
   192
  0
VERTEX
  5
B58
  8
0
 10
16.74300003051758
 20
18.59499931335449
 30
36.0
 70
   192
  0
VERTEX
  5
B59
  8
0
 10
16.82099914550781
 20
-19.41200065612793
 30
36.0
 70
   192
  0
VERTEX
  5
B5A
  8
0
 10
21.60799980163574
 20
-13.88700008392334
 30
36.0
 70
   192
  0
VERTEX
  5
B5B
  8
0
 10
20.24300003051758
 20
-14.70699977874756
 30
36.0
 70
   192
  0
VERTEX
  5
B5C
  8
0
 10
24.64500045776367
 20
-7.236999988555908
 30
36.0
 70
   192
  0
VERTEX
  5
B5D
  8
0
 10
22.85799980163574
 20
-10.17700004577637
 30
36.0
 70
   192
  0
VERTEX
  5
B5E
  8
0
 10
25.68600082397461
 20
0.0
 30
36.0
 70
   192
  0
VERTEX
  5
B5F
  8
0
 10
25.02199935913086
 20
0.0
 30
36.0
 70
   192
  0
VERTEX
  5
B60
  8
0
 10
24.47500038146973
 20
-5.202000141143799
 30
36.0
 70
   192
  0
VERTEX
  5
B61
  8
0
 10
-16.82099914550781
 20
19.41200065612793
 30
36.0
 70
   192
  0
VERTEX
  5
B62
  8
0
 10
-16.74300003051758
 20
18.59499931335449
 30
36.0
 70
   192
  0
VERTEX
  5
B63
  8
0
 10
-12.51099967956543
 20
21.66900062561035
 30
36.0
 70
   192
  0
VERTEX
  5
B64
  8
0
 10
-21.60799980163574
 20
13.88700008392334
 30
36.0
 70
   192
  0
VERTEX
  5
B65
  8
0
 10
-20.24300003051758
 20
14.70699977874756
 30
36.0
 70
   192
  0
VERTEX
  5
B66
  8
0
 10
-24.64500045776367
 20
7.236999988555908
 30
36.0
 70
   192
  0
VERTEX
  5
B67
  8
0
 10
-22.85799980163574
 20
10.17700004577637
 30
36.0
 70
   192
  0
VERTEX
  5
B68
  8
0
 10
10.67000007629395
 20
-23.36499977111816
 30
36.0
 70
   192
  0
VERTEX
  5
B69
  8
0
 10
12.51099967956543
 20
-21.66900062561035
 30
36.0
 70
   192
  0
VERTEX
  5
B6A
  8
0
 10
7.73199987411499
 20
-23.79700088500977
 30
36.0
 70
   192
  0
VERTEX
  5
B6B
  8
0
 10
16.74300003051758
 20
-18.59499931335449
 30
36.0
 70
   192
  0
VERTEX
  5
B6C
  8
0
 10
24.64500045776367
 20
7.236999988555908
 30
36.0
 70
   192
  0
VERTEX
  5
B6D
  8
0
 10
-24.47500038146973
 20
5.202000141143799
 30
36.0
 70
   192
  0
VERTEX
  5
B6E
  8
0
 10
-10.67000007629395
 20
23.36499977111816
 30
36.0
 70
   192
  0
VERTEX
  5
B6F
  8
0
 10
-24.64500045776367
 20
-7.236999988555908
 30
36.0
 70
   192
  0
VERTEX
  5
B70
  8
0
 10
-24.47500038146973
 20
-5.202000141143799
 30
36.0
 70
   192
  0
VERTEX
  5
B71
  8
0
 10
-16.82099914550781
 20
-19.41200065612793
 30
36.0
 70
   192
  0
VERTEX
  5
B72
  8
0
 10
-16.74300003051758
 20
-18.59499931335449
 30
36.0
 70
   192
  0
VERTEX
  5
B73
  8
0
 10
-20.24300003051758
 20
-14.70699977874756
 30
36.0
 70
   192
  0
VERTEX
  5
B74
  8
0
 10
-10.67000007629395
 20
-23.36499977111816
 30
36.0
 70
   192
  0
VERTEX
  5
B75
  8
0
 10
-12.51099967956543
 20
-21.66900062561035
 30
36.0
 70
   192
  0
VERTEX
  5
B76
  8
0
 10
-3.654999971389771
 20
-25.42399978637695
 30
36.0
 70
   192
  0
VERTEX
  5
B77
  8
0
 10
-2.615000009536743
 20
-24.88500022888184
 30
36.0
 70
   192
  0
VERTEX
  5
B78
  8
0
 10
-7.73199987411499
 20
-23.79700088500977
 30
36.0
 70
   192
  0
VERTEX
  5
B79
  8
0
 10
3.654999971389771
 20
-25.42399978637695
 30
36.0
 70
   192
  0
VERTEX
  5
B7A
  8
0
 10
-21.60799980163574
 20
-13.88700008392334
 30
36.0
 70
   192
  0
VERTEX
  5
B7B
  8
0
 62
     9
 10
0.0
 20
0.0
 30
0.0
 70
   128
 71
     3
 72
     2
 73
     1
  0
VERTEX
  5
B7C
  8
0
 62
     9
 10
0.0
 20
0.0
 30
0.0
 70
   128
 71
     6
 72
     5
 73
     4
  0
VERTEX
  5
B7D
  8
0
 62
     9
 10
0.0
 20
0.0
 30
0.0
 70
   128
 71
     8
 72
     7
 73
     4
  0
VERTEX
  5
B7E
  8
0
 62
     9
 10
0.0
 20
0.0
 30
0.0
 70
   128
 71
    11
 72
    10
 73
     9
  0
VERTEX
  5
B7F
  8
0
 62
     9
 10
0.0
 20
0.0
 30
0.0
 70
   128
 71
    10
 72
    12
 73
     1
  0
VERTEX
  5
B80
  8
0
 62
     9
 10
0.0
 20
0.0
 30
0.0
 70
   128
 71
     3
 72
     6
 73
     2
  0
VERTEX
  5
B81
  8
0
 62
     9
 10
0.0
 20
0.0
 30
0.0
 70
   128
 71
     4
 72
     5
 73
     8
  0
VERTEX
  5
B82
  8
0
 62
     9
 10
0.0
 20
0.0
 30
0.0
 70
   128
 71
    15
 72
    14
 73
    13
  0
VERTEX
  5
B83
  8
0
 62
     9
 10
0.0
 20
0.0
 30
0.0
 70
   128
 71
    17
 72
    16
 73
    14
  0
VERTEX
  5
B84
  8
0
 62
     9
 10
0.0
 20
0.0
 30
0.0
 70
   128
 71
    20
 72
    19
 73
    18
  0
VERTEX
  5
B85
  8
0
 62
     9
 10
0.0
 20
0.0
 30
0.0
 70
   128
 71
     1
 72
     9
 73
    10
  0
VERTEX
  5
B86
  8
0
 62
     9
 10
0.0
 20
0.0
 30
0.0
 70
   128
 71
     4
 72
     2
 73
     6
  0
VERTEX
  5
B87
  8
0
 62
     9
 10
0.0
 20
0.0
 30
0.0
 70
   128
 71
    23
 72
    22
 73
    21
  0
VERTEX
  5
B88
  8
0
 62
     9
 10
0.0
 20
0.0
 30
0.0
 70
   128
 71
    25
 72
    24
 73
    21
  0
VERTEX
  5
B89
  8
0
 62
     9
 10
0.0
 20
0.0
 30
0.0
 70
   128
 71
    27
 72
    26
 73
    24
  0
VERTEX
  5
B8A
  8
0
 62
     9
 10
0.0
 20
0.0
 30
0.0
 70
   128
 71
    30
 72
    29
 73
    28
  0
VERTEX
  5
B8B
  8
0
 62
     9
 10
0.0
 20
0.0
 30
0.0
 70
   128
 71
    29
 72
    31
 73
    13
  0
VERTEX
  5
B8C
  8
0
 62
     9
 10
0.0
 20
0.0
 30
0.0
 70
   128
 71
    14
 72
    15
 73
    17
  0
VERTEX
  5
B8D
  8
0
 62
     9
 10
0.0
 20
0.0
 30
0.0
 70
   128
 71
    18
 72
    16
 73
    20
  0
VERTEX
  5
B8E
  8
0
 62
     9
 10
0.0
 20
0.0
 30
0.0
 70
   128
 71
    32
 72
    18
 73
    19
  0
VERTEX
  5
B8F
  8
0
 62
     9
 10
0.0
 20
0.0
 30
0.0
 70
   128
 71
     1
 72
    12
 73
     3
  0
VERTEX
  5
B90
  8
0
 62
     9
 10
0.0
 20
0.0
 30
0.0
 70
   128
 71
    21
 72
    22
 73
    25
  0
VERTEX
  5
B91
  8
0
 62
     9
 10
0.0
 20
0.0
 30
0.0
 70
   128
 71
    27
 72
    33
 73
    26
  0
VERTEX
  5
B92
  8
0
 62
     9
 10
0.0
 20
0.0
 30
0.0
 70
   128
 71
    13
 72
    28
 73
    29
  0
VERTEX
  5
B93
  8
0
 62
     9
 10
0.0
 20
0.0
 30
0.0
 70
   128
 71
    16
 72
    17
 73
    20
  0
VERTEX
  5
B94
  8
0
 62
     9
 10
0.0
 20
0.0
 30
0.0
 70
   128
 71
     9
 72
    32
 73
    11
  0
VERTEX
  5
B95
  8
0
 62
     9
 10
0.0
 20
0.0
 30
0.0
 70
   128
 71
    34
 72
     7
 73
     8
  0
VERTEX
  5
B96
  8
0
 62
     9
 10
0.0
 20
0.0
 30
0.0
 70
   128
 71
    24
 72
    25
 73
    27
  0
VERTEX
  5
B97
  8
0
 62
     9
 10
0.0
 20
0.0
 30
0.0
 70
   128
 71
    33
 72
    36
 73
    35
  0
VERTEX
  5
B98
  8
0
 62
     9
 10
0.0
 20
0.0
 30
0.0
 70
   128
 71
    39
 72
    38
 73
    37
  0
VERTEX
  5
B99
  8
0
 62
     9
 10
0.0
 20
0.0
 30
0.0
 70
   128
 71
    41
 72
    40
 73
    37
  0
VERTEX
  5
B9A
  8
0
 62
     9
 10
0.0
 20
0.0
 30
0.0
 70
   128
 71
    44
 72
    43
 73
    42
  0
VERTEX
  5
B9B
  8
0
 62
     9
 10
0.0
 20
0.0
 30
0.0
 70
   128
 71
    43
 72
    30
 73
    45
  0
VERTEX
  5
B9C
  8
0
 62
     9
 10
0.0
 20
0.0
 30
0.0
 70
   128
 71
    13
 72
    31
 73
    15
  0
VERTEX
  5
B9D
  8
0
 62
     9
 10
0.0
 20
0.0
 30
0.0
 70
   128
 71
     8
 72
    23
 73
    34
  0
VERTEX
  5
B9E
  8
0
 62
     9
 10
0.0
 20
0.0
 30
0.0
 70
   128
 71
    35
 72
    26
 73
    33
  0
VERTEX
  5
B9F
  8
0
 62
     9
 10
0.0
 20
0.0
 30
0.0
 70
   128
 71
    37
 72
    38
 73
    41
  0
VERTEX
  5
BA0
  8
0
 62
     9
 10
0.0
 20
0.0
 30
0.0
 70
   128
 71
    42
 72
    40
 73
    44
  0
VERTEX
  5
BA1
  8
0
 62
     9
 10
0.0
 20
0.0
 30
0.0
 70
   128
 71
    28
 72
    45
 73
    30
  0
VERTEX
  5
BA2
  8
0
 62
     9
 10
0.0
 20
0.0
 30
0.0
 70
   128
 71
    21
 72
    34
 73
    23
  0
VERTEX
  5
BA3
  8
0
 62
     9
 10
0.0
 20
0.0
 30
0.0
 70
   128
 71
    35
 72
    36
 73
    39
  0
VERTEX
  5
BA4
  8
0
 62
     9
 10
0.0
 20
0.0
 30
0.0
 70
   128
 71
    40
 72
    41
 73
    44
  0
VERTEX
  5
BA5
  8
0
 62
     9
 10
0.0
 20
0.0
 30
0.0
 70
   128
 71
    19
 72
    11
 73
    32
  0
VERTEX
  5
BA6
  8
0
 62
     9
 10
0.0
 20
0.0
 30
0.0
 70
   128
 71
    37
 72
    46
 73
    39
  0
VERTEX
  5
BA7
  8
0
 62
     9
 10
0.0
 20
0.0
 30
0.0
 70
   128
 71
    39
 72
    46
 73
    35
  0
VERTEX
  5
BA8
  8
0
 62
     9
 10
0.0
 20
0.0
 30
0.0
 70
   128
 71
    45
 72
    42
 73
    43
  0
SEQEND
  5
BA9
  8
0
 62
     9
  0
ENDBLK
  5
BAC
  8
0
  0
BLOCK
  8
0
  2
E3_NODE_29_
 70
     0
 10
0.0
 20
0.0
 30
0.0
  3
E3_NODE_29_
  1

  0
POLYLINE
  5
BAE
  8
0
 62
     9
 66
     1
 10
0.0
 20
0.0
 30
0.0
 70
    64
 71
    55
 72
    70
  0
VERTEX
  5
BAF
  8
0
 10
19.29299926757812
 20
-8.59000015258789
 30
43.57400131225586
 70
   192
  0
VERTEX
  5
BB0
  8
0
 10
21.11899948120117
 20
0.0
 30
43.57400131225586
 70
   192
  0
VERTEX
  5
BB1
  8
0
 10
15.0
 20
0.0
 30
49.50299835205078
 70
   192
  0
VERTEX
  5
BB2
  8
0
 10
14.13099956512451
 20
-15.69499969482422
 30
43.57400131225586
 70
   192
  0
VERTEX
  5
BB3
  8
0
 10
13.70300006866455
 20
-6.10099983215332
 30
49.50299835205078
 70
   192
  0
VERTEX
  5
BB4
  8
0
 10
10.03699970245361
 20
-11.14700031280518
 30
49.50299835205078
 70
   192
  0
VERTEX
  5
BB5
  8
0
 10
4.635000228881836
 20
-14.26599979400635
 30
49.50299835205078
 70
   192
  0
VERTEX
  5
BB6
  8
0
 10
-2.20799994468689
 20
-21.00300025939941
 30
43.57400131225586
 70
   192
  0
VERTEX
  5
BB7
  8
0
 10
6.526000022888184
 20
-20.08499908447266
 30
43.57400131225586
 70
   192
  0
VERTEX
  5
BB8
  8
0
 10
-1.567999958992004
 20
-14.91800022125244
 30
49.50299835205078
 70
   192
  0
VERTEX
  5
BB9
  8
0
 10
-7.5
 20
-12.98999977111816
 30
49.50299835205078
 70
   192
  0
VERTEX
  5
BBA
  8
0
 10
-17.08600044250488
 20
-12.41300010681152
 30
43.57400131225586
 70
   192
  0
VERTEX
  5
BBB
  8
0
 10
-10.5600004196167
 20
-18.29000091552734
 30
43.57400131225586
 70
   192
  0
VERTEX
  5
BBC
  8
0
 10
-12.13500022888184
 20
-8.817000389099121
 30
49.50299835205078
 70
   192
  0
VERTEX
  5
BBD
  8
0
 10
-14.67199993133545
 20
-3.11899995803833
 30
49.50299835205078
 70
   192
  0
VERTEX
  5
BBE
  8
0
 10
-20.65800094604492
 20
4.390999794006348
 30
43.57400131225586
 70
   192
  0
VERTEX
  5
BBF
  8
0
 10
-20.65800094604492
 20
-4.390999794006348
 30
43.57400131225586
 70
   192
  0
VERTEX
  5
BC0
  8
0
 10
-17.08600044250488
 20
12.41300010681152
 30
43.57400131225586
 70
   192
  0
VERTEX
  5
BC1
  8
0
 10
-14.67199993133545
 20
3.11899995803833
 30
49.50299835205078
 70
   192
  0
VERTEX
  5
BC2
  8
0
 10
-10.5600004196167
 20
18.29000091552734
 30
43.57400131225586
 70
   192
  0
VERTEX
  5
BC3
  8
0
 10
-12.13500022888184
 20
8.817000389099121
 30
49.50299835205078
 70
   192
  0
VERTEX
  5
BC4
  8
0
 10
-2.20799994468689
 20
21.00300025939941
 30
43.57400131225586
 70
   192
  0
VERTEX
  5
BC5
  8
0
 10
-7.5
 20
12.98999977111816
 30
49.50299835205078
 70
   192
  0
VERTEX
  5
BC6
  8
0
 10
6.526000022888184
 20
20.08499908447266
 30
43.57400131225586
 70
   192
  0
VERTEX
  5
BC7
  8
0
 10
-1.567999958992004
 20
14.91800022125244
 30
49.50299835205078
 70
   192
  0
VERTEX
  5
BC8
  8
0
 10
14.13099956512451
 20
15.69499969482422
 30
43.57400131225586
 70
   192
  0
VERTEX
  5
BC9
  8
0
 10
4.635000228881836
 20
14.26599979400635
 30
49.50299835205078
 70
   192
  0
VERTEX
  5
BCA
  8
0
 10
19.29299926757812
 20
8.59000015258789
 30
43.57400131225586
 70
   192
  0
VERTEX
  5
BCB
  8
0
 10
10.03699970245361
 20
11.14700031280518
 30
49.50299835205078
 70
   192
  0
VERTEX
  5
BCC
  8
0
 10
13.70300006866455
 20
6.10099983215332
 30
49.50299835205078
 70
   192
  0
VERTEX
  5
BCD
  8
0
 10
22.85799980163574
 20
-10.17700004577637
 30
36.0
 70
   192
  0
VERTEX
  5
BCE
  8
0
 10
24.47500038146973
 20
-5.202000141143799
 30
36.0
 70
   192
  0
VERTEX
  5
BCF
  8
0
 10
16.74300003051758
 20
-18.59499931335449
 30
36.0
 70
   192
  0
VERTEX
  5
BD0
  8
0
 10
20.24300003051758
 20
-14.70699977874756
 30
36.0
 70
   192
  0
VERTEX
  5
BD1
  8
0
 10
7.73199987411499
 20
-23.79700088500977
 30
36.0
 70
   192
  0
VERTEX
  5
BD2
  8
0
 10
12.51099967956543
 20
-21.66900062561035
 30
36.0
 70
   192
  0
VERTEX
  5
BD3
  8
0
 10
-2.615000009536743
 20
-24.88500022888184
 30
36.0
 70
   192
  0
VERTEX
  5
BD4
  8
0
 10
-12.51099967956543
 20
-21.66900062561035
 30
36.0
 70
   192
  0
VERTEX
  5
BD5
  8
0
 10
-7.73199987411499
 20
-23.79700088500977
 30
36.0
 70
   192
  0
VERTEX
  5
BD6
  8
0
 10
-20.24300003051758
 20
-14.70699977874756
 30
36.0
 70
   192
  0
VERTEX
  5
BD7
  8
0
 10
-16.74300003051758
 20
-18.59499931335449
 30
36.0
 70
   192
  0
VERTEX
  5
BD8
  8
0
 10
-24.47500038146973
 20
-5.202000141143799
 30
36.0
 70
   192
  0
VERTEX
  5
BD9
  8
0
 10
-20.24300003051758
 20
14.70699977874756
 30
36.0
 70
   192
  0
VERTEX
  5
BDA
  8
0
 10
-22.85799980163574
 20
10.17700004577637
 30
36.0
 70
   192
  0
VERTEX
  5
BDB
  8
0
 10
-16.74300003051758
 20
18.59499931335449
 30
36.0
 70
   192
  0
VERTEX
  5
BDC
  8
0
 10
-12.51099967956543
 20
21.66900062561035
 30
36.0
 70
   192
  0
VERTEX
  5
BDD
  8
0
 10
-2.615000009536743
 20
24.88500022888184
 30
36.0
 70
   192
  0
VERTEX
  5
BDE
  8
0
 10
2.615000009536743
 20
24.88500022888184
 30
36.0
 70
   192
  0
VERTEX
  5
BDF
  8
0
 10
7.73199987411499
 20
23.79700088500977
 30
36.0
 70
   192
  0
VERTEX
  5
BE0
  8
0
 10
16.74300003051758
 20
18.59499931335449
 30
36.0
 70
   192
  0
VERTEX
  5
BE1
  8
0
 10
12.51099967956543
 20
21.66900062561035
 30
36.0
 70
   192
  0
VERTEX
  5
BE2
  8
0
 10
20.24300003051758
 20
14.70699977874756
 30
36.0
 70
   192
  0
VERTEX
  5
BE3
  8
0
 10
22.85799980163574
 20
10.17700004577637
 30
36.0
 70
   192
  0
VERTEX
  5
BE4
  8
0
 10
25.02199935913086
 20
0.0
 30
36.0
 70
   192
  0
VERTEX
  5
BE5
  8
0
 10
-24.47500038146973
 20
5.202000141143799
 30
36.0
 70
   192
  0
VERTEX
  5
BE6
  8
0
 62
     9
 10
0.0
 20
0.0
 30
0.0
 70
   128
 71
     3
 72
     2
 73
     1
  0
VERTEX
  5
BE7
  8
0
 62
     9
 10
0.0
 20
0.0
 30
0.0
 70
   128
 71
     5
 72
     1
 73
     4
  0
VERTEX
  5
BE8
  8
0
 62
     9
 10
0.0
 20
0.0
 30
0.0
 70
   128
 71
     7
 72
     6
 73
     4
  0
VERTEX
  5
BE9
  8
0
 62
     9
 10
0.0
 20
0.0
 30
0.0
 70
   128
 71
     7
 72
     9
 73
     8
  0
VERTEX
  5
BEA
  8
0
 62
     9
 10
0.0
 20
0.0
 30
0.0
 70
   128
 71
    11
 72
    10
 73
     8
  0
VERTEX
  5
BEB
  8
0
 62
     9
 10
0.0
 20
0.0
 30
0.0
 70
   128
 71
    11
 72
    13
 73
    12
  0
VERTEX
  5
BEC
  8
0
 62
     9
 10
0.0
 20
0.0
 30
0.0
 70
   128
 71
    15
 72
    14
 73
    12
  0
VERTEX
  5
BED
  8
0
 62
     9
 10
0.0
 20
0.0
 30
0.0
 70
   128
 71
    15
 72
    17
 73
    16
  0
VERTEX
  5
BEE
  8
0
 62
     9
 10
0.0
 20
0.0
 30
0.0
 70
   128
 71
    19
 72
    16
 73
    18
  0
VERTEX
  5
BEF
  8
0
 62
     9
 10
0.0
 20
0.0
 30
0.0
 70
   128
 71
    21
 72
    18
 73
    20
  0
VERTEX
  5
BF0
  8
0
 62
     9
 10
0.0
 20
0.0
 30
0.0
 70
   128
 71
    23
 72
    20
 73
    22
  0
VERTEX
  5
BF1
  8
0
 62
     9
 10
0.0
 20
0.0
 30
0.0
 70
   128
 71
    25
 72
    22
 73
    24
  0
VERTEX
  5
BF2
  8
0
 62
     9
 10
0.0
 20
0.0
 30
0.0
 70
   128
 71
    27
 72
    24
 73
    26
  0
VERTEX
  5
BF3
  8
0
 62
     9
 10
0.0
 20
0.0
 30
0.0
 70
   128
 71
    29
 72
    26
 73
    28
  0
VERTEX
  5
BF4
  8
0
 62
     9
 10
0.0
 20
0.0
 30
0.0
 70
   128
 71
     3
 72
    30
 73
    28
  0
VERTEX
  5
BF5
  8
0
 62
     9
 10
0.0
 20
0.0
 30
0.0
 70
   128
 71
    32
 72
    31
 73
     1
  0
VERTEX
  5
BF6
  8
0
 62
     9
 10
0.0
 20
0.0
 30
0.0
 70
   128
 71
     1
 72
     2
 73
    32
  0
VERTEX
  5
BF7
  8
0
 62
     9
 10
0.0
 20
0.0
 30
0.0
 70
   128
 71
    34
 72
    33
 73
     4
  0
VERTEX
  5
BF8
  8
0
 62
     9
 10
0.0
 20
0.0
 30
0.0
 70
   128
 71
     4
 72
     1
 73
    34
  0
VERTEX
  5
BF9
  8
0
 62
     9
 10
0.0
 20
0.0
 30
0.0
 70
   128
 71
    36
 72
    35
 73
     9
  0
VERTEX
  5
BFA
  8
0
 62
     9
 10
0.0
 20
0.0
 30
0.0
 70
   128
 71
     9
 72
     4
 73
    36
  0
VERTEX
  5
BFB
  8
0
 62
     9
 10
0.0
 20
0.0
 30
0.0
 70
   128
 71
     9
 72
    35
 73
    37
  0
VERTEX
  5
BFC
  8
0
 62
     9
 10
0.0
 20
0.0
 30
0.0
 70
   128
 71
    39
 72
    38
 73
    13
  0
VERTEX
  5
BFD
  8
0
 62
     9
 10
0.0
 20
0.0
 30
0.0
 70
   128
 71
    13
 72
     8
 73
    39
  0
VERTEX
  5
BFE
  8
0
 62
     9
 10
0.0
 20
0.0
 30
0.0
 70
   128
 71
    41
 72
    40
 73
    12
  0
VERTEX
  5
BFF
  8
0
 62
     9
 10
0.0
 20
0.0
 30
0.0
 70
   128
 71
    12
 72
    13
 73
    41
  0
VERTEX
  5
C00
  8
0
 62
     9
 10
0.0
 20
0.0
 30
0.0
 70
   128
 71
    17
 72
    12
 73
    40
  0
VERTEX
  5
C01
  8
0
 62
     9
 10
0.0
 20
0.0
 30
0.0
 70
   128
 71
    16
 72
    17
 73
    42
  0
VERTEX
  5
C02
  8
0
 62
     9
 10
0.0
 20
0.0
 30
0.0
 70
   128
 71
    44
 72
    43
 73
    18
  0
VERTEX
  5
C03
  8
0
 62
     9
 10
0.0
 20
0.0
 30
0.0
 70
   128
 71
    18
 72
    16
 73
    44
  0
VERTEX
  5
C04
  8
0
 62
     9
 10
0.0
 20
0.0
 30
0.0
 70
   128
 71
    45
 72
    20
 73
    18
  0
VERTEX
  5
C05
  8
0
 62
     9
 10
0.0
 20
0.0
 30
0.0
 70
   128
 71
    45
 72
    46
 73
    20
  0
VERTEX
  5
C06
  8
0
 62
     9
 10
0.0
 20
0.0
 30
0.0
 70
   128
 71
    20
 72
    46
 73
    47
  0
VERTEX
  5
C07
  8
0
 62
     9
 10
0.0
 20
0.0
 30
0.0
 70
   128
 71
    48
 72
    24
 73
    22
  0
VERTEX
  5
C08
  8
0
 62
     9
 10
0.0
 20
0.0
 30
0.0
 70
   128
 71
    48
 72
    49
 73
    24
  0
VERTEX
  5
C09
  8
0
 62
     9
 10
0.0
 20
0.0
 30
0.0
 70
   128
 71
    51
 72
    50
 73
    26
  0
VERTEX
  5
C0A
  8
0
 62
     9
 10
0.0
 20
0.0
 30
0.0
 70
   128
 71
    26
 72
    24
 73
    51
  0
VERTEX
  5
C0B
  8
0
 62
     9
 10
0.0
 20
0.0
 30
0.0
 70
   128
 71
    52
 72
    28
 73
    26
  0
VERTEX
  5
C0C
  8
0
 62
     9
 10
0.0
 20
0.0
 30
0.0
 70
   128
 71
    52
 72
    53
 73
    28
  0
VERTEX
  5
C0D
  8
0
 62
     9
 10
0.0
 20
0.0
 30
0.0
 70
   128
 71
     2
 72
    28
 73
    53
  0
VERTEX
  5
C0E
  8
0
 62
     9
 10
0.0
 20
0.0
 30
0.0
 70
   128
 71
    53
 72
    54
 73
     2
  0
VERTEX
  5
C0F
  8
0
 62
     9
 10
0.0
 20
0.0
 30
0.0
 70
   128
 71
    26
 72
    50
 73
    52
  0
VERTEX
  5
C10
  8
0
 62
     9
 10
0.0
 20
0.0
 30
0.0
 70
   128
 71
    24
 72
    49
 73
    51
  0
VERTEX
  5
C11
  8
0
 62
     9
 10
0.0
 20
0.0
 30
0.0
 70
   128
 71
    22
 72
    47
 73
    48
  0
VERTEX
  5
C12
  8
0
 62
     9
 10
0.0
 20
0.0
 30
0.0
 70
   128
 71
    47
 72
    22
 73
    20
  0
VERTEX
  5
C13
  8
0
 62
     9
 10
0.0
 20
0.0
 30
0.0
 70
   128
 71
    18
 72
    43
 73
    45
  0
VERTEX
  5
C14
  8
0
 62
     9
 10
0.0
 20
0.0
 30
0.0
 70
   128
 71
    16
 72
    55
 73
    44
  0
VERTEX
  5
C15
  8
0
 62
     9
 10
0.0
 20
0.0
 30
0.0
 70
   128
 71
    42
 72
    55
 73
    16
  0
VERTEX
  5
C16
  8
0
 62
     9
 10
0.0
 20
0.0
 30
0.0
 70
   128
 71
    40
 72
    42
 73
    17
  0
VERTEX
  5
C17
  8
0
 62
     9
 10
0.0
 20
0.0
 30
0.0
 70
   128
 71
    13
 72
    38
 73
    41
  0
VERTEX
  5
C18
  8
0
 62
     9
 10
0.0
 20
0.0
 30
0.0
 70
   128
 71
     8
 72
    37
 73
    39
  0
VERTEX
  5
C19
  8
0
 62
     9
 10
0.0
 20
0.0
 30
0.0
 70
   128
 71
    37
 72
     8
 73
     9
  0
VERTEX
  5
C1A
  8
0
 62
     9
 10
0.0
 20
0.0
 30
0.0
 70
   128
 71
     4
 72
    33
 73
    36
  0
VERTEX
  5
C1B
  8
0
 62
     9
 10
0.0
 20
0.0
 30
0.0
 70
   128
 71
     1
 72
    31
 73
    34
  0
VERTEX
  5
C1C
  8
0
 62
     9
 10
0.0
 20
0.0
 30
0.0
 70
   128
 71
     2
 72
    54
 73
    32
  0
VERTEX
  5
C1D
  8
0
 62
     9
 10
0.0
 20
0.0
 30
0.0
 70
   128
 71
    28
 72
     2
 73
     3
  0
VERTEX
  5
C1E
  8
0
 62
     9
 10
0.0
 20
0.0
 30
0.0
 70
   128
 71
    28
 72
    30
 73
    29
  0
VERTEX
  5
C1F
  8
0
 62
     9
 10
0.0
 20
0.0
 30
0.0
 70
   128
 71
    26
 72
    29
 73
    27
  0
VERTEX
  5
C20
  8
0
 62
     9
 10
0.0
 20
0.0
 30
0.0
 70
   128
 71
    24
 72
    27
 73
    25
  0
VERTEX
  5
C21
  8
0
 62
     9
 10
0.0
 20
0.0
 30
0.0
 70
   128
 71
    22
 72
    25
 73
    23
  0
VERTEX
  5
C22
  8
0
 62
     9
 10
0.0
 20
0.0
 30
0.0
 70
   128
 71
    20
 72
    23
 73
    21
  0
VERTEX
  5
C23
  8
0
 62
     9
 10
0.0
 20
0.0
 30
0.0
 70
   128
 71
    18
 72
    21
 73
    19
  0
VERTEX
  5
C24
  8
0
 62
     9
 10
0.0
 20
0.0
 30
0.0
 70
   128
 71
    16
 72
    19
 73
    15
  0
VERTEX
  5
C25
  8
0
 62
     9
 10
0.0
 20
0.0
 30
0.0
 70
   128
 71
    12
 72
    17
 73
    15
  0
VERTEX
  5
C26
  8
0
 62
     9
 10
0.0
 20
0.0
 30
0.0
 70
   128
 71
    12
 72
    14
 73
    11
  0
VERTEX
  5
C27
  8
0
 62
     9
 10
0.0
 20
0.0
 30
0.0
 70
   128
 71
     8
 72
    13
 73
    11
  0
VERTEX
  5
C28
  8
0
 62
     9
 10
0.0
 20
0.0
 30
0.0
 70
   128
 71
     8
 72
    10
 73
     7
  0
VERTEX
  5
C29
  8
0
 62
     9
 10
0.0
 20
0.0
 30
0.0
 70
   128
 71
     4
 72
     9
 73
     7
  0
VERTEX
  5
C2A
  8
0
 62
     9
 10
0.0
 20
0.0
 30
0.0
 70
   128
 71
     4
 72
     6
 73
     5
  0
VERTEX
  5
C2B
  8
0
 62
     9
 10
0.0
 20
0.0
 30
0.0
 70
   128
 71
     1
 72
     5
 73
     3
  0
SEQEND
  5
C2C
  8
0
 62
     9
  0
ENDBLK
  5
C2F
  8
0
  0
BLOCK
  8
0
  2
E3_NODE_30_
 70
     0
 10
0.0
 20
0.0
 30
0.0
  3
E3_NODE_30_
  1

  0
POLYLINE
  5
C31
  8
0
 62
     9
 66
     1
 10
0.0
 20
0.0
 30
0.0
 70
    64
 71
    24
 72
    24
  0
VERTEX
  5
C32
  8
0
 10
-14.05700016021729
 20
21.87299919128418
 30
-57.5
 70
   192
  0
VERTEX
  5
C33
  8
0
 10
-14.05700016021729
 20
21.87299919128418
 30
0.0
 70
   192
  0
VERTEX
  5
C34
  8
0
 10
0.0
 20
26.0
 30
0.0
 70
   192
  0
VERTEX
  5
C35
  8
0
 10
-23.64999961853027
 20
10.80099964141846
 30
-57.5
 70
   192
  0
VERTEX
  5
C36
  8
0
 10
-23.64999961853027
 20
10.80099964141846
 30
0.0
 70
   192
  0
VERTEX
  5
C37
  8
0
 10
-26.0
 20
0.0
 30
-57.5
 70
   192
  0
VERTEX
  5
C38
  8
0
 10
-25.73500061035156
 20
-3.700000047683716
 30
-57.5
 70
   192
  0
VERTEX
  5
C39
  8
0
 10
-25.73500061035156
 20
-3.700000047683716
 30
0.0
 70
   192
  0
VERTEX
  5
C3A
  8
0
 10
-26.0
 20
0.0
 30
0.0
 70
   192
  0
VERTEX
  5
C3B
  8
0
 10
-19.64900016784668
 20
-17.02599906921387
 30
-57.5
 70
   192
  0
VERTEX
  5
C3C
  8
0
 10
-19.64900016784668
 20
-17.02599906921387
 30
0.0
 70
   192
  0
VERTEX
  5
C3D
  8
0
 10
-7.324999809265137
 20
-24.94700050354004
 30
-57.5
 70
   192
  0
VERTEX
  5
C3E
  8
0
 10
-7.324999809265137
 20
-24.94700050354004
 30
0.0
 70
   192
  0
VERTEX
  5
C3F
  8
0
 10
7.324999809265137
 20
-24.94700050354004
 30
-57.5
 70
   192
  0
VERTEX
  5
C40
  8
0
 10
7.324999809265137
 20
-24.94700050354004
 30
0.0
 70
   192
  0
VERTEX
  5
C41
  8
0
 10
19.64900016784668
 20
-17.02599906921387
 30
-57.5
 70
   192
  0
VERTEX
  5
C42
  8
0
 10
25.73500061035156
 20
-3.700000047683716
 30
-57.5
 70
   192
  0
VERTEX
  5
C43
  8
0
 10
25.73500061035156
 20
-3.700000047683716
 30
0.0
 70
   192
  0
VERTEX
  5
C44
  8
0
 10
19.64900016784668
 20
-17.02599906921387
 30
0.0
 70
   192
  0
VERTEX
  5
C45
  8
0
 10
23.64999961853027
 20
10.80099964141846
 30
-57.5
 70
   192
  0
VERTEX
  5
C46
  8
0
 10
23.64999961853027
 20
10.80099964141846
 30
0.0
 70
   192
  0
VERTEX
  5
C47
  8
0
 10
14.05700016021729
 20
21.87299919128418
 30
-57.5
 70
   192
  0
VERTEX
  5
C48
  8
0
 10
14.05700016021729
 20
21.87299919128418
 30
0.0
 70
   192
  0
VERTEX
  5
C49
  8
0
 10
0.0
 20
26.0
 30
-57.5
 70
   192
  0
VERTEX
  5
C4A
  8
0
 62
     9
 10
0.0
 20
0.0
 30
0.0
 70
   128
 71
     3
 72
     2
 73
     1
  0
VERTEX
  5
C4B
  8
0
 62
     9
 10
0.0
 20
0.0
 30
0.0
 70
   128
 71
     2
 72
     5
 73
     4
  0
VERTEX
  5
C4C
  8
0
 62
     9
 10
0.0
 20
0.0
 30
0.0
 70
   128
 71
     8
 72
     7
 73
     6
  0
VERTEX
  5
C4D
  8
0
 62
     9
 10
0.0
 20
0.0
 30
0.0
 70
   128
 71
     5
 72
     9
 73
     6
  0
VERTEX
  5
C4E
  8
0
 62
     9
 10
0.0
 20
0.0
 30
0.0
 70
   128
 71
     6
 72
     4
 73
     5
  0
VERTEX
  5
C4F
  8
0
 62
     9
 10
0.0
 20
0.0
 30
0.0
 70
   128
 71
     8
 72
    11
 73
    10
  0
VERTEX
  5
C50
  8
0
 62
     9
 10
0.0
 20
0.0
 30
0.0
 70
   128
 71
    11
 72
    13
 73
    12
  0
VERTEX
  5
C51
  8
0
 62
     9
 10
0.0
 20
0.0
 30
0.0
 70
   128
 71
    13
 72
    15
 73
    14
  0
VERTEX
  5
C52
  8
0
 62
     9
 10
0.0
 20
0.0
 30
0.0
 70
   128
 71
    16
 72
    14
 73
    15
  0
VERTEX
  5
C53
  8
0
 62
     9
 10
0.0
 20
0.0
 30
0.0
 70
   128
 71
    19
 72
    18
 73
    17
  0
VERTEX
  5
C54
  8
0
 62
     9
 10
0.0
 20
0.0
 30
0.0
 70
   128
 71
    18
 72
    21
 73
    20
  0
VERTEX
  5
C55
  8
0
 62
     9
 10
0.0
 20
0.0
 30
0.0
 70
   128
 71
    21
 72
    23
 73
    22
  0
VERTEX
  5
C56
  8
0
 62
     9
 10
0.0
 20
0.0
 30
0.0
 70
   128
 71
    23
 72
     3
 73
    24
  0
VERTEX
  5
C57
  8
0
 62
     9
 10
0.0
 20
0.0
 30
0.0
 70
   128
 71
    24
 72
    22
 73
    23
  0
VERTEX
  5
C58
  8
0
 62
     9
 10
0.0
 20
0.0
 30
0.0
 70
   128
 71
    22
 72
    20
 73
    21
  0
VERTEX
  5
C59
  8
0
 62
     9
 10
0.0
 20
0.0
 30
0.0
 70
   128
 71
    20
 72
    17
 73
    18
  0
VERTEX
  5
C5A
  8
0
 62
     9
 10
0.0
 20
0.0
 30
0.0
 70
   128
 71
    17
 72
    16
 73
    19
  0
VERTEX
  5
C5B
  8
0
 62
     9
 10
0.0
 20
0.0
 30
0.0
 70
   128
 71
    15
 72
    19
 73
    16
  0
VERTEX
  5
C5C
  8
0
 62
     9
 10
0.0
 20
0.0
 30
0.0
 70
   128
 71
    14
 72
    12
 73
    13
  0
VERTEX
  5
C5D
  8
0
 62
     9
 10
0.0
 20
0.0
 30
0.0
 70
   128
 71
    12
 72
    10
 73
    11
  0
VERTEX
  5
C5E
  8
0
 62
     9
 10
0.0
 20
0.0
 30
0.0
 70
   128
 71
    10
 72
     7
 73
     8
  0
VERTEX
  5
C5F
  8
0
 62
     9
 10
0.0
 20
0.0
 30
0.0
 70
   128
 71
     6
 72
     9
 73
     8
  0
VERTEX
  5
C60
  8
0
 62
     9
 10
0.0
 20
0.0
 30
0.0
 70
   128
 71
     4
 72
     1
 73
     2
  0
VERTEX
  5
C61
  8
0
 62
     9
 10
0.0
 20
0.0
 30
0.0
 70
   128
 71
     1
 72
    24
 73
     3
  0
SEQEND
  5
C62
  8
0
 62
     9
  0
ENDBLK
  5
C65
  8
0
  0
BLOCK
  8
0
  2
E3_NODE_31_
 70
     0
 10
0.0
 20
0.0
 30
0.0
  3
E3_NODE_31_
  1

  0
POLYLINE
  5
C67
  8
0
 62
     9
 66
     1
 10
0.0
 20
0.0
 30
0.0
 70
    64
 71
    12
 72
    10
  0
VERTEX
  5
C68
  8
0
 10
23.64999961853027
 20
10.80099964141846
 30
-57.5
 70
   192
  0
VERTEX
  5
C69
  8
0
 10
-14.05700016021729
 20
21.87299919128418
 30
-57.5
 70
   192
  0
VERTEX
  5
C6A
  8
0
 10
0.0
 20
26.0
 30
-57.5
 70
   192
  0
VERTEX
  5
C6B
  8
0
 10
-23.64999961853027
 20
10.80099964141846
 30
-57.5
 70
   192
  0
VERTEX
  5
C6C
  8
0
 10
-25.73500061035156
 20
-3.700000047683716
 30
-57.5
 70
   192
  0
VERTEX
  5
C6D
  8
0
 10
7.324999809265137
 20
-24.94700050354004
 30
-57.5
 70
   192
  0
VERTEX
  5
C6E
  8
0
 10
-7.324999809265137
 20
-24.94700050354004
 30
-57.5
 70
   192
  0
VERTEX
  5
C6F
  8
0
 10
25.73500061035156
 20
-3.700000047683716
 30
-57.5
 70
   192
  0
VERTEX
  5
C70
  8
0
 10
19.64900016784668
 20
-17.02599906921387
 30
-57.5
 70
   192
  0
VERTEX
  5
C71
  8
0
 10
14.05700016021729
 20
21.87299919128418
 30
-57.5
 70
   192
  0
VERTEX
  5
C72
  8
0
 10
-26.0
 20
0.0
 30
-57.5
 70
   192
  0
VERTEX
  5
C73
  8
0
 10
-19.64900016784668
 20
-17.02599906921387
 30
-57.5
 70
   192
  0
VERTEX
  5
C74
  8
0
 62
     9
 10
0.0
 20
0.0
 30
0.0
 70
   128
 71
     3
 72
     2
 73
     1
  0
VERTEX
  5
C75
  8
0
 62
     9
 10
0.0
 20
0.0
 30
0.0
 70
   128
 71
     2
 72
     4
 73
     1
  0
VERTEX
  5
C76
  8
0
 62
     9
 10
0.0
 20
0.0
 30
0.0
 70
   128
 71
     7
 72
     6
 73
     5
  0
VERTEX
  5
C77
  8
0
 62
     9
 10
0.0
 20
0.0
 30
0.0
 70
   128
 71
     9
 72
     8
 73
     5
  0
VERTEX
  5
C78
  8
0
 62
     9
 10
0.0
 20
0.0
 30
0.0
 70
   128
 71
     1
 72
    10
 73
     3
  0
VERTEX
  5
C79
  8
0
 62
     9
 10
0.0
 20
0.0
 30
0.0
 70
   128
 71
     5
 72
     6
 73
     9
  0
VERTEX
  5
C7A
  8
0
 62
     9
 10
0.0
 20
0.0
 30
0.0
 70
   128
 71
     4
 72
    11
 73
     8
  0
VERTEX
  5
C7B
  8
0
 62
     9
 10
0.0
 20
0.0
 30
0.0
 70
   128
 71
     5
 72
    12
 73
     7
  0
VERTEX
  5
C7C
  8
0
 62
     9
 10
0.0
 20
0.0
 30
0.0
 70
   128
 71
     8
 72
    11
 73
     5
  0
VERTEX
  5
C7D
  8
0
 62
     9
 10
0.0
 20
0.0
 30
0.0
 70
   128
 71
     4
 72
     8
 73
     1
  0
SEQEND
  5
C7E
  8
0
 62
     9
  0
ENDBLK
  5
C81
  8
0
  0
ENDSEC
  0
SECTION
  2
ENTITIES
  0
INSERT
  5
66
  8
LAYER_1
  2
E3_NODE
 10
-14.16149738824028
 20
-81.04399933728052
 30
-61.91500091552734
 41
0.9999999999999999
 42
0.9999999999999999
 50
90.00000250447816
  0
INSERT
  5
81
  8
LAYER_1
  2
E3_NODE_1_
 10
-14.16149738824028
 20
-81.04399933728052
 30
-61.91500091552734
 41
0.9999999999999999
 42
0.9999999999999999
 50
90.00000250447816
  0
INSERT
  5
189
  8
LAYER_1
  2
E3_NODE_2_
 10
-14.16149738824028
 20
-81.04399933728052
 30
-61.91500091552734
 41
0.9999999999999999
 42
0.9999999999999999
 50
90.00000250447816
  0
INSERT
  5
21D
  8
LAYER_1
  2
E3_NODE_3_
 10
-14.16149738824028
 20
-81.04399933728052
 30
-61.91500091552734
 41
0.9999999999999999
 42
0.9999999999999999
 50
90.00000250447816
  0
INSERT
  5
28C
  8
LAYER_1
  2
E3_NODE_4_
 10
-14.16149738824028
 20
-81.04399933728052
 30
-61.91500091552734
 41
0.9999999999999999
 42
0.9999999999999999
 50
90.00000250447816
  0
INSERT
  5
313
  8
LAYER_1
  2
E3_NODE_5_
 10
-14.16149738824028
 20
-81.04399933728052
 30
-61.91500091552734
 41
0.9999999999999999
 42
0.9999999999999999
 50
90.00000250447816
  0
INSERT
  5
45C
  8
LAYER_1
  2
E3_NODE_6_
 10
-14.16149738824028
 20
-81.04399933728052
 30
-61.91500091552734
 41
0.9999999999999999
 42
0.9999999999999999
 50
90.00000250447816
  0
INSERT
  5
4B9
  8
LAYER_1
  2
E3_NODE_7_
 10
-14.16149738824028
 20
-81.04399933728052
 30
-61.91500091552734
 41
0.9999999999999999
 42
0.9999999999999999
 50
90.00000250447816
  0
INSERT
  5
511
  8
LAYER_1
  2
E3_NODE_8_
 10
-14.16149738824028
 20
-81.04399933728052
 30
-61.91500091552734
 41
0.9999999999999999
 42
0.9999999999999999
 50
90.00000250447816
  0
INSERT
  5
592
  8
LAYER_1
  2
E3_NODE_9_
 10
-14.16149738824028
 20
-81.04399933728052
 30
-61.91500091552734
 41
0.9999999999999999
 42
0.9999999999999999
 50
90.00000250447816
  0
INSERT
  5
628
  8
LAYER_1
  2
E3_NODE_10_
 10
-14.16149738824028
 20
-81.04399933728052
 30
-61.91500091552734
 41
0.9999999999999999
 42
0.9999999999999999
 50
90.00000250447816
  0
INSERT
  5
662
  8
LAYER_1
  2
E3_NODE_11_
 10
-14.16149738824028
 20
-81.04399933728052
 30
-61.91500091552734
 41
0.9999999999999999
 42
0.9999999999999999
 50
90.00000250447816
  0
INSERT
  5
734
  8
LAYER_1
  2
E3_NODE_12_
 10
-14.16149738824028
 20
-81.04399933728052
 30
-61.91500091552734
 41
0.9999999999999999
 42
0.9999999999999999
 50
90.00000250447816
  0
INSERT
  5
76E
  8
LAYER_1
  2
E3_NODE_13_
 10
-14.16149738824028
 20
-81.04399933728052
 30
-61.91500091552734
 41
0.9999999999999999
 42
0.9999999999999999
 50
90.00000250447816
  0
INSERT
  5
790
  8
LAYER_1
  2
E3_NODE_14_
 10
-14.16149738824028
 20
-81.04399933728052
 30
-61.91500091552734
 41
0.9999999999999999
 42
0.9999999999999999
 50
90.00000250447816
  0
INSERT
  5
7A2
  8
LAYER_1
  2
E3_NODE_15_
 10
-14.16149738824028
 20
-81.04399933728052
 30
-61.91500091552734
 41
0.9999999999999999
 42
0.9999999999999999
 50
90.00000250447816
  0
INSERT
  5
7B6
  8
LAYER_1
  2
E3_NODE_16_
 10
-14.16149738824028
 20
-81.04399933728052
 30
-61.91500091552734
 41
0.9999999999999999
 42
0.9999999999999999
 50
90.00000250447816
  0
INSERT
  5
7F0
  8
LAYER_1
  2
E3_NODE_17_
 10
-14.16149738824028
 20
-81.04399933728052
 30
-61.91500091552734
 41
0.9999999999999999
 42
0.9999999999999999
 50
90.00000250447816
  0
INSERT
  5
872
  8
LAYER_1
  2
E3_NODE_18_
 10
-14.16149738824028
 20
-81.04399933728052
 30
-61.91500091552734
 41
0.9999999999999999
 42
0.9999999999999999
 50
90.00000250447816
  0
INSERT
  5
A1D
  8
LAYER_1
  2
E3_NODE_19_
 10
-14.16149738824028
 20
-81.04399933728052
 30
-61.91500091552734
 41
0.9999999999999999
 42
0.9999999999999999
 50
90.00000250447816
  0
INSERT
  5
A57
  8
LAYER_1
  2
E3_NODE_20_
 10
-14.16149738824028
 20
-81.04399933728052
 30
-61.91500091552734
 41
0.9999999999999999
 42
0.9999999999999999
 50
90.00000250447816
  0
INSERT
  5
A6B
  8
LAYER_1
  2
E3_NODE_21_
 10
-14.16149738824028
 20
-81.04399933728052
 30
-61.91500091552734
 41
0.9999999999999999
 42
0.9999999999999999
 50
90.00000250447816
  0
INSERT
  5
A77
  8
LAYER_1
  2
E3_NODE_22_
 10
-14.16149738824028
 20
-81.04399933728052
 30
-61.91500091552734
 41
0.9999999999999999
 42
0.9999999999999999
 50
90.00000250447816
  0
INSERT
  5
A8D
  8
LAYER_1
  2
E3_NODE_23_
 10
-14.16149738824028
 20
-81.04399933728052
 30
-61.91500091552734
 41
0.9999999999999999
 42
0.9999999999999999
 50
90.00000250447816
  0
INSERT
  5
AD4
  8
LAYER_1
  2
E3_NODE_24_
 10
-14.16149738824028
 20
-81.04399933728052
 30
-61.91500091552734
 41
0.9999999999999999
 42
0.9999999999999999
 50
90.00000250447816
  0
INSERT
  5
AE8
  8
LAYER_1
  2
E3_NODE_25_
 10
-14.16149738824028
 20
-81.04399933728052
 30
-61.91500091552734
 41
0.9999999999999999
 42
0.9999999999999999
 50
90.00000250447816
  0
INSERT
  5
B02
  8
LAYER_1
  2
E3_NODE_26_
 10
-14.16149738824028
 20
-81.04399933728052
 30
-61.91500091552734
 41
0.9999999999999999
 42
0.9999999999999999
 50
90.00000250447816
  0
INSERT
  5
B48
  8
LAYER_1
  2
E3_NODE_27_
 10
-14.16149738824028
 20
-81.04399933728052
 30
-61.91500091552734
 41
0.9999999999999999
 42
0.9999999999999999
 50
90.00000250447816
  0
INSERT
  5
BAA
  8
LAYER_1
  2
E3_NODE_28_
 10
-14.16149738824028
 20
-81.04399933728052
 30
-61.91500091552734
 41
0.9999999999999999
 42
0.9999999999999999
 50
90.00000250447816
  0
INSERT
  5
C2D
  8
LAYER_1
  2
E3_NODE_29_
 10
-14.16149738824028
 20
-81.04399933728052
 30
-61.91500091552734
 41
0.9999999999999999
 42
0.9999999999999999
 50
90.00000250447816
  0
INSERT
  5
C63
  8
LAYER_1
  2
E3_NODE_30_
 10
-14.16149738824028
 20
-81.04399933728052
 30
-61.91500091552734
 41
0.9999999999999999
 42
0.9999999999999999
 50
90.00000250447816
  0
INSERT
  5
C7F
  8
LAYER_1
  2
E3_NODE_31_
 10
-14.16149738824028
 20
-81.04399933728052
 30
-61.91500091552734
 41
0.9999999999999999
 42
0.9999999999999999
 50
90.00000250447816
  0
ENDSEC
  0
EOF
