  0
SECTION
  2
HEADER
  9
$ACADVER
  1
AC1009
  9
$DWGCODEPAGE
  3
ansi_1252
  9
$INSBASE
 10
0.0
 20
0.0
 30
0.0
  9
$EXTMIN
 10
1.000000000000000E+20
 20
1.000000000000000E+20
 30
1.000000000000000E+20
  9
$EXTMAX
 10
-1.000000000000000E+20
 20
-1.000000000000000E+20
 30
-1.000000000000000E+20
  9
$LIMMIN
 10
0.0
 20
0.0
  9
$LIMMAX
 10
12.0
 20
9.0
  9
$ORTHOMODE
 70
     0
  9
$REGENMODE
 70
     1
  9
$FILLMODE
 70
     1
  9
$QTEXTMODE
 70
     0
  9
$MIRRTEXT
 70
     1
  9
$DRAGMODE
 70
     2
  9
$LTSCALE
 40
1.0
  9
$OSMODE
 70
    37
  9
$ATTMODE
 70
     1
  9
$TEXTSIZE
 40
0.2
  9
$TRACEWID
 40
0.05
  9
$TEXTSTYLE
  7
STANDARD
  9
$CLAYER
  8
0
  9
$CELTYPE
  6
BYLAYER
  9
$CECOLOR
 62
   256
  9
$DIMSCALE
 40
1.0
  9
$DIMASZ
 40
0.18
  9
$DIMEXO
 40
0.0625
  9
$DIMDLI
 40
0.38
  9
$DIMRND
 40
0.0
  9
$DIMDLE
 40
0.0
  9
$DIMEXE
 40
0.18
  9
$DIMTP
 40
0.0
  9
$DIMTM
 40
0.0
  9
$DIMTXT
 40
0.18
  9
$DIMCEN
 40
0.09
  9
$DIMTSZ
 40
0.0
  9
$DIMTOL
 70
     0
  9
$DIMLIM
 70
     0
  9
$DIMTIH
 70
     1
  9
$DIMTOH
 70
     1
  9
$DIMSE1
 70
     0
  9
$DIMSE2
 70
     0
  9
$DIMTAD
 70
     0
  9
$DIMZIN
 70
     0
  9
$DIMBLK
  1

  9
$DIMASO
 70
     1
  9
$DIMSHO
 70
     1
  9
$DIMPOST
  1

  9
$DIMAPOST
  1

  9
$DIMALT
 70
     0
  9
$DIMALTD
 70
     2
  9
$DIMALTF
 40
25.4
  9
$DIMLFAC
 40
1.0
  9
$DIMTOFL
 70
     0
  9
$DIMTVP
 40
0.0
  9
$DIMTIX
 70
     0
  9
$DIMSOXD
 70
     0
  9
$DIMSAH
 70
     0
  9
$DIMBLK1
  1

  9
$DIMBLK2
  1

  9
$DIMSTYLE
  2
STANDARD
  9
$DIMCLRD
 70
     0
  9
$DIMCLRE
 70
     0
  9
$DIMCLRT
 70
     0
  9
$DIMTFAC
 40
1.0
  9
$DIMGAP
 40
0.09
  9
$LUNITS
 70
     2
  9
$LUPREC
 70
     4
  9
$SKETCHINC
 40
0.1
  9
$FILLETRAD
 40
0.5
  9
$AUNITS
 70
     0
  9
$AUPREC
 70
     0
  9
$MENU
  1
.
  9
$ELEVATION
 40
0.0
  9
$PELEVATION
 40
0.0
  9
$THICKNESS
 40
0.0
  9
$LIMCHECK
 70
     0
  9
$CHAMFERA
 40
0.5
  9
$CHAMFERB
 40
0.5
  9
$SKPOLY
 70
     0
  9
$TDCREATE
 40
2455360.592593495
  9
$TDUPDATE
 40
2455360.592593495
  9
$TDINDWG
 40
0.0000000116
  9
$TDUSRTIMER
 40
0.0000000116
  9
$USRTIMER
 70
     1
  9
$ANGBASE
 50
0.0
  9
$ANGDIR
 70
     0
  9
$PDMODE
 70
     0
  9
$PDSIZE
 40
0.0
  9
$PLINEWID
 40
0.0
  9
$COORDS
 70
     1
  9
$SPLFRAME
 70
     0
  9
$SPLINETYPE
 70
     6
  9
$SPLINESEGS
 70
     8
  9
$ATTDIA
 70
     0
  9
$ATTREQ
 70
     1
  9
$HANDLING
 70
     1
  9
$HANDSEED
  5
195
  9
$SURFTAB1
 70
     6
  9
$SURFTAB2
 70
     6
  9
$SURFTYPE
 70
     6
  9
$SURFU
 70
     6
  9
$SURFV
 70
     6
  9
$UCSNAME
  2

  9
$UCSORG
 10
0.0
 20
0.0
 30
0.0
  9
$UCSXDIR
 10
1.0
 20
0.0
 30
0.0
  9
$UCSYDIR
 10
0.0
 20
1.0
 30
0.0
  9
$PUCSNAME
  2

  9
$PUCSORG
 10
0.0
 20
0.0
 30
0.0
  9
$PUCSXDIR
 10
1.0
 20
0.0
 30
0.0
  9
$PUCSYDIR
 10
0.0
 20
1.0
 30
0.0
  9
$USERI1
 70
     0
  9
$USERI2
 70
     0
  9
$USERI3
 70
     0
  9
$USERI4
 70
     0
  9
$USERI5
 70
     0
  9
$USERR1
 40
0.0
  9
$USERR2
 40
0.0
  9
$USERR3
 40
0.0
  9
$USERR4
 40
0.0
  9
$USERR5
 40
0.0
  9
$WORLDVIEW
 70
     1
  9
$SHADEDGE
 70
     3
  9
$SHADEDIF
 70
    70
  9
$TILEMODE
 70
     1
  9
$MAXACTVP
 70
    64
  9
$PLIMCHECK
 70
     0
  9
$PEXTMIN
 10
1.000000000000000E+20
 20
1.000000000000000E+20
 30
1.000000000000000E+20
  9
$PEXTMAX
 10
-1.000000000000000E+20
 20
-1.000000000000000E+20
 30
-1.000000000000000E+20
  9
$PLIMMIN
 10
0.0
 20
0.0
  9
$PLIMMAX
 10
12.0
 20
9.0
  9
$UNITMODE
 70
     0
  9
$VISRETAIN
 70
     1
  9
$PLINEGEN
 70
     0
  9
$PSLTSCALE
 70
     1
  0
ENDSEC
  0
SECTION
  2
TABLES
  0
TABLE
  2
VPORT
 70
     1
  0
VPORT
  2
*ACTIVE
 70
     0
 10
0.0
 20
0.0
 11
1.0
 21
1.0
 12
0.0
 22
0.0
 13
0.0
 23
0.0
 14
0.5
 24
0.5
 15
0.5
 25
0.5
 16
273.5624389648438
 26
156.3079223632812
 36
273.5624389648438
 17
97.5
 27
0.0
 37
-0.232513427734375
 40
149.7030526868262
 41
1.972972972850329
 42
50.0
 43
0.0
 44
0.0
 50
0.0
 51
0.0
 71
     0
 72
   100
 73
     1
 74
     3
 75
     0
 76
     0
 77
     0
 78
     0
  0
ENDTAB
  0
TABLE
  2
LTYPE
 70
     1
  0
LTYPE
  2
CONTINUOUS
 70
     0
  3
Solid line
 72
    65
 73
     0
 40
0.0
  0
ENDTAB
  0
TABLE
  2
LAYER
 70
     2
  0
LAYER
  2
0
 70
     0
 62
     7
  6
CONTINUOUS
  0
LAYER
  2
LAYER_1
 70
     0
 62
     7
  6
CONTINUOUS
  0
ENDTAB
  0
TABLE
  2
STYLE
 70
     1
  0
STYLE
  2
STANDARD
 70
     0
 40
0.0
 41
1.0
 50
0.0
 71
     0
 42
0.2
  3
txt
  4

  0
ENDTAB
  0
TABLE
  2
VIEW
 70
     0
  0
ENDTAB
  0
TABLE
  2
UCS
 70
     0
  0
ENDTAB
  0
TABLE
  2
APPID
 70
     1
  0
APPID
  2
ACAD
 70
     0
  0
ENDTAB
  0
TABLE
  2
DIMSTYLE
 70
     1
  0
DIMSTYLE
  2
STANDARD
 70
     0
  3

  4

  5

  6

  7

 40
1.0
 41
0.18
 42
0.0625
 43
0.38
 44
0.18
 45
0.0
 46
0.0
 47
0.0
 48
0.0
140
0.18
141
0.09
142
0.0
143
25.4
144
1.0
145
0.0
146
1.0
147
0.09
 71
     0
 72
     0
 73
     1
 74
     1
 75
     0
 76
     0
 77
     0
 78
     0
170
     0
171
     2
172
     0
173
     0
174
     0
175
     0
176
     0
177
     0
178
     0
  0
ENDTAB
  0
ENDSEC
  0
SECTION
  2
BLOCKS
  0
BLOCK
  8
0
  2
$MODEL_SPACE
 70
     0
 10
0.0
 20
0.0
 30
0.0
  3
$MODEL_SPACE
  1

  0
ENDBLK
  5
21
  8
0
  0
BLOCK
 67
     1
  8
0
  2
$PAPER_SPACE
 70
     0
 10
0.0
 20
0.0
 30
0.0
  3
$PAPER_SPACE
  1

  0
ENDBLK
  5
1D
 67
     1
  8
0
  0
BLOCK
  8
0
  2
E3_NODE
 70
     0
 10
0.0
 20
0.0
 30
0.0
  3
E3_NODE
  1

  0
POLYLINE
  5
3C
  8
0
 62
     9
 66
     1
 10
0.0
 20
0.0
 30
0.0
 70
    64
 71
    10
 72
     8
  0
VERTEX
  5
3D
  8
0
 10
-10.0
 20
0.0
 30
10.47999954223633
 70
   192
  0
VERTEX
  5
3E
  8
0
 10
-10.0
 20
-9.967000007629395
 30
-3.23799991607666
 70
   192
  0
VERTEX
  5
3F
  8
0
 10
-10.0
 20
-9.967000007629395
 30
3.23799991607666
 70
   192
  0
VERTEX
  5
40
  8
0
 10
-10.0
 20
0.0
 30
-10.47999954223633
 70
   192
  0
VERTEX
  5
41
  8
0
 10
-10.0
 20
-6.159999847412109
 30
-8.477999687194824
 70
   192
  0
VERTEX
  5
42
  8
0
 10
-10.0
 20
9.967000007629395
 30
3.23799991607666
 70
   192
  0
VERTEX
  5
43
  8
0
 10
-10.0
 20
9.967000007629395
 30
-3.23799991607666
 70
   192
  0
VERTEX
  5
44
  8
0
 10
-10.0
 20
6.159999847412109
 30
8.477999687194824
 70
   192
  0
VERTEX
  5
45
  8
0
 10
-10.0
 20
6.159999847412109
 30
-8.477999687194824
 70
   192
  0
VERTEX
  5
46
  8
0
 10
-10.0
 20
-6.159999847412109
 30
8.477999687194824
 70
   192
  0
VERTEX
  5
47
  8
0
 62
     9
 10
0.0
 20
0.0
 30
0.0
 70
   128
 71
     3
 72
     2
 73
     1
  0
VERTEX
  5
48
  8
0
 62
     9
 10
0.0
 20
0.0
 30
0.0
 70
   128
 71
     5
 72
     4
 73
     1
  0
VERTEX
  5
49
  8
0
 62
     9
 10
0.0
 20
0.0
 30
0.0
 70
   128
 71
     7
 72
     6
 73
     4
  0
VERTEX
  5
4A
  8
0
 62
     9
 10
0.0
 20
0.0
 30
0.0
 70
   128
 71
     8
 72
     1
 73
     4
  0
VERTEX
  5
4B
  8
0
 62
     9
 10
0.0
 20
0.0
 30
0.0
 70
   128
 71
     1
 72
     2
 73
     5
  0
VERTEX
  5
4C
  8
0
 62
     9
 10
0.0
 20
0.0
 30
0.0
 70
   128
 71
     4
 72
     6
 73
     8
  0
VERTEX
  5
4D
  8
0
 62
     9
 10
0.0
 20
0.0
 30
0.0
 70
   128
 71
     4
 72
     9
 73
     7
  0
VERTEX
  5
4E
  8
0
 62
     9
 10
0.0
 20
0.0
 30
0.0
 70
   128
 71
     1
 72
    10
 73
     3
  0
SEQEND
  5
4F
  8
0
 62
     9
  0
ENDBLK
  5
53
  8
0
  0
BLOCK
  8
0
  2
E3_NODE_1_
 70
     0
 10
0.0
 20
0.0
 30
0.0
  3
E3_NODE_1_
  1

  0
POLYLINE
  5
55
  8
0
 62
     9
 66
     1
 10
0.0
 20
0.0
 30
0.0
 70
    64
 71
    20
 72
    20
  0
VERTEX
  5
56
  8
0
 10
0.0
 20
0.0
 30
-10.47999954223633
 70
   192
  0
VERTEX
  5
57
  8
0
 10
0.0
 20
-6.159999847412109
 30
-8.477999687194824
 70
   192
  0
VERTEX
  5
58
  8
0
 10
-10.0
 20
-6.159999847412109
 30
-8.477999687194824
 70
   192
  0
VERTEX
  5
59
  8
0
 10
0.0
 20
-9.967000007629395
 30
-3.23799991607666
 70
   192
  0
VERTEX
  5
5A
  8
0
 10
-10.0
 20
-9.967000007629395
 30
-3.23799991607666
 70
   192
  0
VERTEX
  5
5B
  8
0
 10
0.0
 20
-9.967000007629395
 30
3.23799991607666
 70
   192
  0
VERTEX
  5
5C
  8
0
 10
-10.0
 20
-9.967000007629395
 30
3.23799991607666
 70
   192
  0
VERTEX
  5
5D
  8
0
 10
0.0
 20
-6.159999847412109
 30
8.477999687194824
 70
   192
  0
VERTEX
  5
5E
  8
0
 10
-10.0
 20
-6.159999847412109
 30
8.477999687194824
 70
   192
  0
VERTEX
  5
5F
  8
0
 10
0.0
 20
0.0
 30
10.47999954223633
 70
   192
  0
VERTEX
  5
60
  8
0
 10
-10.0
 20
0.0
 30
10.47999954223633
 70
   192
  0
VERTEX
  5
61
  8
0
 10
0.0
 20
6.159999847412109
 30
8.477999687194824
 70
   192
  0
VERTEX
  5
62
  8
0
 10
-10.0
 20
6.159999847412109
 30
8.477999687194824
 70
   192
  0
VERTEX
  5
63
  8
0
 10
0.0
 20
9.967000007629395
 30
3.23799991607666
 70
   192
  0
VERTEX
  5
64
  8
0
 10
-10.0
 20
9.967000007629395
 30
3.23799991607666
 70
   192
  0
VERTEX
  5
65
  8
0
 10
0.0
 20
9.967000007629395
 30
-3.23799991607666
 70
   192
  0
VERTEX
  5
66
  8
0
 10
-10.0
 20
9.967000007629395
 30
-3.23799991607666
 70
   192
  0
VERTEX
  5
67
  8
0
 10
0.0
 20
6.159999847412109
 30
-8.477999687194824
 70
   192
  0
VERTEX
  5
68
  8
0
 10
-10.0
 20
6.159999847412109
 30
-8.477999687194824
 70
   192
  0
VERTEX
  5
69
  8
0
 10
-10.0
 20
0.0
 30
-10.47999954223633
 70
   192
  0
VERTEX
  5
6A
  8
0
 62
     9
 10
0.0
 20
0.0
 30
0.0
 70
   128
 71
     3
 72
     2
 73
     1
  0
VERTEX
  5
6B
  8
0
 62
     9
 10
0.0
 20
0.0
 30
0.0
 70
   128
 71
     3
 72
     5
 73
     4
  0
VERTEX
  5
6C
  8
0
 62
     9
 10
0.0
 20
0.0
 30
0.0
 70
   128
 71
     5
 72
     7
 73
     6
  0
VERTEX
  5
6D
  8
0
 62
     9
 10
0.0
 20
0.0
 30
0.0
 70
   128
 71
     7
 72
     9
 73
     8
  0
VERTEX
  5
6E
  8
0
 62
     9
 10
0.0
 20
0.0
 30
0.0
 70
   128
 71
     9
 72
    11
 73
    10
  0
VERTEX
  5
6F
  8
0
 62
     9
 10
0.0
 20
0.0
 30
0.0
 70
   128
 71
    11
 72
    13
 73
    12
  0
VERTEX
  5
70
  8
0
 62
     9
 10
0.0
 20
0.0
 30
0.0
 70
   128
 71
    13
 72
    15
 73
    14
  0
VERTEX
  5
71
  8
0
 62
     9
 10
0.0
 20
0.0
 30
0.0
 70
   128
 71
    15
 72
    17
 73
    16
  0
VERTEX
  5
72
  8
0
 62
     9
 10
0.0
 20
0.0
 30
0.0
 70
   128
 71
    19
 72
    18
 73
    16
  0
VERTEX
  5
73
  8
0
 62
     9
 10
0.0
 20
0.0
 30
0.0
 70
   128
 71
    20
 72
     1
 73
    18
  0
VERTEX
  5
74
  8
0
 62
     9
 10
0.0
 20
0.0
 30
0.0
 70
   128
 71
    18
 72
    19
 73
    20
  0
VERTEX
  5
75
  8
0
 62
     9
 10
0.0
 20
0.0
 30
0.0
 70
   128
 71
    16
 72
    17
 73
    19
  0
VERTEX
  5
76
  8
0
 62
     9
 10
0.0
 20
0.0
 30
0.0
 70
   128
 71
    16
 72
    14
 73
    15
  0
VERTEX
  5
77
  8
0
 62
     9
 10
0.0
 20
0.0
 30
0.0
 70
   128
 71
    14
 72
    12
 73
    13
  0
VERTEX
  5
78
  8
0
 62
     9
 10
0.0
 20
0.0
 30
0.0
 70
   128
 71
    12
 72
    10
 73
    11
  0
VERTEX
  5
79
  8
0
 62
     9
 10
0.0
 20
0.0
 30
0.0
 70
   128
 71
    10
 72
     8
 73
     9
  0
VERTEX
  5
7A
  8
0
 62
     9
 10
0.0
 20
0.0
 30
0.0
 70
   128
 71
     8
 72
     6
 73
     7
  0
VERTEX
  5
7B
  8
0
 62
     9
 10
0.0
 20
0.0
 30
0.0
 70
   128
 71
     6
 72
     4
 73
     5
  0
VERTEX
  5
7C
  8
0
 62
     9
 10
0.0
 20
0.0
 30
0.0
 70
   128
 71
     4
 72
     2
 73
     3
  0
VERTEX
  5
7D
  8
0
 62
     9
 10
0.0
 20
0.0
 30
0.0
 70
   128
 71
     1
 72
    20
 73
     3
  0
SEQEND
  5
7E
  8
0
 62
     9
  0
ENDBLK
  5
81
  8
0
  0
BLOCK
  8
0
  2
E3_NODE_2_
 70
     0
 10
0.0
 20
0.0
 30
0.0
  3
E3_NODE_2_
  1

  0
POLYLINE
  5
83
  8
0
 62
     9
 66
     1
 10
0.0
 20
0.0
 30
0.0
 70
    64
 71
    23
 72
    23
  0
VERTEX
  5
84
  8
0
 10
0.0
 20
3.865000009536743
 30
10.19200038909912
 70
   192
  0
VERTEX
  5
85
  8
0
 10
0.0
 20
6.159999847412109
 30
8.477999687194824
 70
   192
  0
VERTEX
  5
86
  8
0
 10
0.0
 20
0.0
 30
10.47999954223633
 70
   192
  0
VERTEX
  5
87
  8
0
 10
0.0
 20
-6.159999847412109
 30
8.477999687194824
 70
   192
  0
VERTEX
  5
88
  8
0
 10
0.0
 20
-6.191999912261963
 30
8.970999717712402
 70
   192
  0
VERTEX
  5
89
  8
0
 10
0.0
 20
-1.314000010490417
 30
10.82100009918213
 70
   192
  0
VERTEX
  5
8A
  8
0
 10
0.0
 20
8.159000396728516
 30
7.228000164031982
 70
   192
  0
VERTEX
  5
8B
  8
0
 10
0.0
 20
-9.967000007629395
 30
3.23799991607666
 70
   192
  0
VERTEX
  5
8C
  8
0
 10
0.0
 20
-9.651000022888184
 30
5.065000057220459
 70
   192
  0
VERTEX
  5
8D
  8
0
 10
0.0
 20
10.58300018310547
 30
2.608999967575073
 70
   192
  0
VERTEX
  5
8E
  8
0
 10
0.0
 20
9.967000007629395
 30
3.23799991607666
 70
   192
  0
VERTEX
  5
8F
  8
0
 10
0.0
 20
10.58300018310547
 30
-2.608999967575073
 70
   192
  0
VERTEX
  5
90
  8
0
 10
0.0
 20
3.865000009536743
 30
-10.19200038909912
 70
   192
  0
VERTEX
  5
91
  8
0
 10
0.0
 20
-1.314000010490417
 30
-10.82100009918213
 70
   192
  0
VERTEX
  5
92
  8
0
 10
0.0
 20
0.0
 30
-10.47999954223633
 70
   192
  0
VERTEX
  5
93
  8
0
 10
0.0
 20
9.967000007629395
 30
-3.23799991607666
 70
   192
  0
VERTEX
  5
94
  8
0
 10
0.0
 20
8.159000396728516
 30
-7.228000164031982
 70
   192
  0
VERTEX
  5
95
  8
0
 10
0.0
 20
6.159999847412109
 30
-8.477999687194824
 70
   192
  0
VERTEX
  5
96
  8
0
 10
0.0
 20
-6.159999847412109
 30
-8.477999687194824
 70
   192
  0
VERTEX
  5
97
  8
0
 10
0.0
 20
-10.89999961853027
 30
0.0
 70
   192
  0
VERTEX
  5
98
  8
0
 10
0.0
 20
-9.967000007629395
 30
-3.23799991607666
 70
   192
  0
VERTEX
  5
99
  8
0
 10
0.0
 20
-6.191999912261963
 30
-8.970999717712402
 70
   192
  0
VERTEX
  5
9A
  8
0
 10
0.0
 20
-9.651000022888184
 30
-5.065000057220459
 70
   192
  0
VERTEX
  5
9B
  8
0
 62
     9
 10
0.0
 20
0.0
 30
0.0
 70
   128
 71
     3
 72
     2
 73
     1
  0
VERTEX
  5
9C
  8
0
 62
     9
 10
0.0
 20
0.0
 30
0.0
 70
   128
 71
     6
 72
     5
 73
     4
  0
VERTEX
  5
9D
  8
0
 62
     9
 10
0.0
 20
0.0
 30
0.0
 70
   128
 71
     2
 72
     7
 73
     1
  0
VERTEX
  5
9E
  8
0
 62
     9
 10
0.0
 20
0.0
 30
0.0
 70
   128
 71
     9
 72
     8
 73
     4
  0
VERTEX
  5
9F
  8
0
 62
     9
 10
0.0
 20
0.0
 30
0.0
 70
   128
 71
     1
 72
     6
 73
     3
  0
VERTEX
  5
A0
  8
0
 62
     9
 10
0.0
 20
0.0
 30
0.0
 70
   128
 71
     4
 72
     3
 73
     6
  0
VERTEX
  5
A1
  8
0
 62
     9
 10
0.0
 20
0.0
 30
0.0
 70
   128
 71
    11
 72
    10
 73
     7
  0
VERTEX
  5
A2
  8
0
 62
     9
 10
0.0
 20
0.0
 30
0.0
 70
   128
 71
     7
 72
     2
 73
    11
  0
VERTEX
  5
A3
  8
0
 62
     9
 10
0.0
 20
0.0
 30
0.0
 70
   128
 71
    12
 72
    10
 73
    11
  0
VERTEX
  5
A4
  8
0
 62
     9
 10
0.0
 20
0.0
 30
0.0
 70
   128
 71
    15
 72
    14
 73
    13
  0
VERTEX
  5
A5
  8
0
 62
     9
 10
0.0
 20
0.0
 30
0.0
 70
   128
 71
    11
 72
    16
 73
    12
  0
VERTEX
  5
A6
  8
0
 62
     9
 10
0.0
 20
0.0
 30
0.0
 70
   128
 71
    16
 72
    18
 73
    17
  0
VERTEX
  5
A7
  8
0
 62
     9
 10
0.0
 20
0.0
 30
0.0
 70
   128
 71
    13
 72
    18
 73
    15
  0
VERTEX
  5
A8
  8
0
 62
     9
 10
0.0
 20
0.0
 30
0.0
 70
   128
 71
    14
 72
    15
 73
    19
  0
VERTEX
  5
A9
  8
0
 62
     9
 10
0.0
 20
0.0
 30
0.0
 70
   128
 71
    21
 72
     8
 73
    20
  0
VERTEX
  5
AA
  8
0
 62
     9
 10
0.0
 20
0.0
 30
0.0
 70
   128
 71
    17
 72
    12
 73
    16
  0
VERTEX
  5
AB
  8
0
 62
     9
 10
0.0
 20
0.0
 30
0.0
 70
   128
 71
    19
 72
    22
 73
    14
  0
VERTEX
  5
AC
  8
0
 62
     9
 10
0.0
 20
0.0
 30
0.0
 70
   128
 71
    23
 72
    22
 73
    19
  0
VERTEX
  5
AD
  8
0
 62
     9
 10
0.0
 20
0.0
 30
0.0
 70
   128
 71
     8
 72
     9
 73
    20
  0
VERTEX
  5
AE
  8
0
 62
     9
 10
0.0
 20
0.0
 30
0.0
 70
   128
 71
    13
 72
    17
 73
    18
  0
VERTEX
  5
AF
  8
0
 62
     9
 10
0.0
 20
0.0
 30
0.0
 70
   128
 71
    20
 72
    23
 73
    21
  0
VERTEX
  5
B0
  8
0
 62
     9
 10
0.0
 20
0.0
 30
0.0
 70
   128
 71
    19
 72
    21
 73
    23
  0
VERTEX
  5
B1
  8
0
 62
     9
 10
0.0
 20
0.0
 30
0.0
 70
   128
 71
     4
 72
     5
 73
     9
  0
SEQEND
  5
B2
  8
0
 62
     9
  0
ENDBLK
  5
B5
  8
0
  0
BLOCK
  8
0
  2
E3_NODE_3_
 70
     0
 10
0.0
 20
0.0
 30
0.0
  3
E3_NODE_3_
  1

  0
POLYLINE
  5
B7
  8
0
 62
     9
 66
     1
 10
0.0
 20
0.0
 30
0.0
 70
    64
 71
    11
 72
     9
  0
VERTEX
  5
B8
  8
0
 10
0.0
 20
3.38100004196167
 30
11.51399993896484
 70
   192
  0
VERTEX
  5
B9
  8
0
 10
0.0
 20
10.91600036621094
 30
-4.985000133514404
 70
   192
  0
VERTEX
  5
BA
  8
0
 10
0.0
 20
6.48799991607666
 30
-10.09500026702881
 70
   192
  0
VERTEX
  5
BB
  8
0
 10
0.0
 20
9.069000244140625
 30
7.857999801635742
 70
   192
  0
VERTEX
  5
BC
  8
0
 10
0.0
 20
-10.91600036621094
 30
-4.985000133514404
 70
   192
  0
VERTEX
  5
BD
  8
0
 10
0.0
 20
-11.87800025939941
 30
1.70799994468689
 70
   192
  0
VERTEX
  5
BE
  8
0
 10
0.0
 20
-9.069000244140625
 30
7.857999801635742
 70
   192
  0
VERTEX
  5
BF
  8
0
 10
0.0
 20
-3.38100004196167
 30
11.51399993896484
 70
   192
  0
VERTEX
  5
C0
  8
0
 10
0.0
 20
0.0
 30
-12.0
 70
   192
  0
VERTEX
  5
C1
  8
0
 10
0.0
 20
-6.48799991607666
 30
-10.09500026702881
 70
   192
  0
VERTEX
  5
C2
  8
0
 10
0.0
 20
11.87800025939941
 30
1.70799994468689
 70
   192
  0
VERTEX
  5
C3
  8
0
 62
     9
 10
0.0
 20
0.0
 30
0.0
 70
   128
 71
     3
 72
     2
 73
     1
  0
VERTEX
  5
C4
  8
0
 62
     9
 10
0.0
 20
0.0
 30
0.0
 70
   128
 71
     4
 72
     1
 73
     2
  0
VERTEX
  5
C5
  8
0
 62
     9
 10
0.0
 20
0.0
 30
0.0
 70
   128
 71
     7
 72
     6
 73
     5
  0
VERTEX
  5
C6
  8
0
 62
     9
 10
0.0
 20
0.0
 30
0.0
 70
   128
 71
    10
 72
     9
 73
     8
  0
VERTEX
  5
C7
  8
0
 62
     9
 10
0.0
 20
0.0
 30
0.0
 70
   128
 71
     2
 72
    11
 73
     4
  0
VERTEX
  5
C8
  8
0
 62
     9
 10
0.0
 20
0.0
 30
0.0
 70
   128
 71
     8
 72
     5
 73
    10
  0
VERTEX
  5
C9
  8
0
 62
     9
 10
0.0
 20
0.0
 30
0.0
 70
   128
 71
     1
 72
     8
 73
     9
  0
VERTEX
  5
CA
  8
0
 62
     9
 10
0.0
 20
0.0
 30
0.0
 70
   128
 71
     1
 72
     9
 73
     3
  0
VERTEX
  5
CB
  8
0
 62
     9
 10
0.0
 20
0.0
 30
0.0
 70
   128
 71
     5
 72
     8
 73
     7
  0
SEQEND
  5
CC
  8
0
 62
     9
  0
ENDBLK
  5
CF
  8
0
  0
BLOCK
  8
0
  2
E3_NODE_4_
 70
     0
 10
0.0
 20
0.0
 30
0.0
  3
E3_NODE_4_
  1

  0
POLYLINE
  5
D1
  8
0
 62
     9
 66
     1
 10
0.0
 20
0.0
 30
0.0
 70
    64
 71
    22
 72
    22
  0
VERTEX
  5
D2
  8
0
 10
0.0
 20
-6.48799991607666
 30
-10.09500026702881
 70
   192
  0
VERTEX
  5
D3
  8
0
 10
0.0
 20
0.0
 30
-12.0
 70
   192
  0
VERTEX
  5
D4
  8
0
 10
130.0
 20
0.0
 30
-12.0
 70
   192
  0
VERTEX
  5
D5
  8
0
 10
130.0
 20
-6.48799991607666
 30
-10.09500026702881
 70
   192
  0
VERTEX
  5
D6
  8
0
 10
130.0
 20
-10.91600036621094
 30
-4.985000133514404
 70
   192
  0
VERTEX
  5
D7
  8
0
 10
0.0
 20
-10.91600036621094
 30
-4.985000133514404
 70
   192
  0
VERTEX
  5
D8
  8
0
 10
130.0
 20
-11.87800025939941
 30
1.70799994468689
 70
   192
  0
VERTEX
  5
D9
  8
0
 10
0.0
 20
-11.87800025939941
 30
1.70799994468689
 70
   192
  0
VERTEX
  5
DA
  8
0
 10
130.0
 20
-9.069000244140625
 30
7.857999801635742
 70
   192
  0
VERTEX
  5
DB
  8
0
 10
0.0
 20
-9.069000244140625
 30
7.857999801635742
 70
   192
  0
VERTEX
  5
DC
  8
0
 10
130.0
 20
-3.38100004196167
 30
11.51399993896484
 70
   192
  0
VERTEX
  5
DD
  8
0
 10
0.0
 20
-3.38100004196167
 30
11.51399993896484
 70
   192
  0
VERTEX
  5
DE
  8
0
 10
130.0
 20
3.38100004196167
 30
11.51399993896484
 70
   192
  0
VERTEX
  5
DF
  8
0
 10
0.0
 20
3.38100004196167
 30
11.51399993896484
 70
   192
  0
VERTEX
  5
E0
  8
0
 10
130.0
 20
9.069000244140625
 30
7.857999801635742
 70
   192
  0
VERTEX
  5
E1
  8
0
 10
0.0
 20
9.069000244140625
 30
7.857999801635742
 70
   192
  0
VERTEX
  5
E2
  8
0
 10
130.0
 20
11.87800025939941
 30
1.70799994468689
 70
   192
  0
VERTEX
  5
E3
  8
0
 10
0.0
 20
11.87800025939941
 30
1.70799994468689
 70
   192
  0
VERTEX
  5
E4
  8
0
 10
130.0
 20
10.91600036621094
 30
-4.985000133514404
 70
   192
  0
VERTEX
  5
E5
  8
0
 10
0.0
 20
10.91600036621094
 30
-4.985000133514404
 70
   192
  0
VERTEX
  5
E6
  8
0
 10
130.0
 20
6.48799991607666
 30
-10.09500026702881
 70
   192
  0
VERTEX
  5
E7
  8
0
 10
0.0
 20
6.48799991607666
 30
-10.09500026702881
 70
   192
  0
VERTEX
  5
E8
  8
0
 62
     9
 10
0.0
 20
0.0
 30
0.0
 70
   128
 71
     3
 72
     2
 73
     1
  0
VERTEX
  5
E9
  8
0
 62
     9
 10
0.0
 20
0.0
 30
0.0
 70
   128
 71
     6
 72
     5
 73
     4
  0
VERTEX
  5
EA
  8
0
 62
     9
 10
0.0
 20
0.0
 30
0.0
 70
   128
 71
     6
 72
     8
 73
     7
  0
VERTEX
  5
EB
  8
0
 62
     9
 10
0.0
 20
0.0
 30
0.0
 70
   128
 71
     8
 72
    10
 73
     9
  0
VERTEX
  5
EC
  8
0
 62
     9
 10
0.0
 20
0.0
 30
0.0
 70
   128
 71
    10
 72
    12
 73
    11
  0
VERTEX
  5
ED
  8
0
 62
     9
 10
0.0
 20
0.0
 30
0.0
 70
   128
 71
    12
 72
    14
 73
    13
  0
VERTEX
  5
EE
  8
0
 62
     9
 10
0.0
 20
0.0
 30
0.0
 70
   128
 71
    14
 72
    16
 73
    15
  0
VERTEX
  5
EF
  8
0
 62
     9
 10
0.0
 20
0.0
 30
0.0
 70
   128
 71
    16
 72
    18
 73
    17
  0
VERTEX
  5
F0
  8
0
 62
     9
 10
0.0
 20
0.0
 30
0.0
 70
   128
 71
    18
 72
    20
 73
    19
  0
VERTEX
  5
F1
  8
0
 62
     9
 10
0.0
 20
0.0
 30
0.0
 70
   128
 71
    20
 72
    22
 73
    21
  0
VERTEX
  5
F2
  8
0
 62
     9
 10
0.0
 20
0.0
 30
0.0
 70
   128
 71
    21
 72
    22
 73
     2
  0
VERTEX
  5
F3
  8
0
 62
     9
 10
0.0
 20
0.0
 30
0.0
 70
   128
 71
     2
 72
     3
 73
    21
  0
VERTEX
  5
F4
  8
0
 62
     9
 10
0.0
 20
0.0
 30
0.0
 70
   128
 71
    21
 72
    19
 73
    20
  0
VERTEX
  5
F5
  8
0
 62
     9
 10
0.0
 20
0.0
 30
0.0
 70
   128
 71
    19
 72
    17
 73
    18
  0
VERTEX
  5
F6
  8
0
 62
     9
 10
0.0
 20
0.0
 30
0.0
 70
   128
 71
    17
 72
    15
 73
    16
  0
VERTEX
  5
F7
  8
0
 62
     9
 10
0.0
 20
0.0
 30
0.0
 70
   128
 71
    15
 72
    13
 73
    14
  0
VERTEX
  5
F8
  8
0
 62
     9
 10
0.0
 20
0.0
 30
0.0
 70
   128
 71
    13
 72
    11
 73
    12
  0
VERTEX
  5
F9
  8
0
 62
     9
 10
0.0
 20
0.0
 30
0.0
 70
   128
 71
    11
 72
     9
 73
    10
  0
VERTEX
  5
FA
  8
0
 62
     9
 10
0.0
 20
0.0
 30
0.0
 70
   128
 71
     9
 72
     7
 73
     8
  0
VERTEX
  5
FB
  8
0
 62
     9
 10
0.0
 20
0.0
 30
0.0
 70
   128
 71
     7
 72
     5
 73
     6
  0
VERTEX
  5
FC
  8
0
 62
     9
 10
0.0
 20
0.0
 30
0.0
 70
   128
 71
     4
 72
     1
 73
     6
  0
VERTEX
  5
FD
  8
0
 62
     9
 10
0.0
 20
0.0
 30
0.0
 70
   128
 71
     1
 72
     4
 73
     3
  0
SEQEND
  5
FE
  8
0
 62
     9
  0
ENDBLK
  5
101
  8
0
  0
BLOCK
  8
0
  2
E3_NODE_5_
 70
     0
 10
0.0
 20
0.0
 30
0.0
  3
E3_NODE_5_
  1

  0
POLYLINE
  5
103
  8
0
 62
     9
 66
     1
 10
0.0
 20
0.0
 30
0.0
 70
    64
 71
    24
 72
    24
  0
VERTEX
  5
104
  8
0
 10
130.0
 20
-14.96000003814697
 30
5.673999786376953
 70
   192
  0
VERTEX
  5
105
  8
0
 10
130.0
 20
-10.60999965667725
 30
11.97599983215332
 70
   192
  0
VERTEX
  5
106
  8
0
 10
130.0
 20
-9.069000244140625
 30
7.857999801635742
 70
   192
  0
VERTEX
  5
107
  8
0
 10
130.0
 20
-3.828999996185303
 30
15.53499984741211
 70
   192
  0
VERTEX
  5
108
  8
0
 10
130.0
 20
-3.38100004196167
 30
11.51399993896484
 70
   192
  0
VERTEX
  5
109
  8
0
 10
130.0
 20
3.828999996185303
 30
15.53499984741211
 70
   192
  0
VERTEX
  5
10A
  8
0
 10
130.0
 20
3.38100004196167
 30
11.51399993896484
 70
   192
  0
VERTEX
  5
10B
  8
0
 10
130.0
 20
10.60999965667725
 30
11.97599983215332
 70
   192
  0
VERTEX
  5
10C
  8
0
 10
130.0
 20
9.069000244140625
 30
7.857999801635742
 70
   192
  0
VERTEX
  5
10D
  8
0
 10
130.0
 20
14.96000003814697
 30
5.673999786376953
 70
   192
  0
VERTEX
  5
10E
  8
0
 10
130.0
 20
11.87800025939941
 30
1.70799994468689
 70
   192
  0
VERTEX
  5
10F
  8
0
 10
130.0
 20
15.88300037384033
 30
-1.929000020027161
 70
   192
  0
VERTEX
  5
110
  8
0
 10
130.0
 20
13.16800022125244
 30
-9.08899974822998
 70
   192
  0
VERTEX
  5
111
  8
0
 10
130.0
 20
10.91600036621094
 30
-4.985000133514404
 70
   192
  0
VERTEX
  5
112
  8
0
 10
130.0
 20
7.435999870300293
 30
-14.16699981689453
 70
   192
  0
VERTEX
  5
113
  8
0
 10
130.0
 20
0.0
 30
-16.0
 70
   192
  0
VERTEX
  5
114
  8
0
 10
130.0
 20
0.0
 30
-12.0
 70
   192
  0
VERTEX
  5
115
  8
0
 10
130.0
 20
-7.435999870300293
 30
-14.16699981689453
 70
   192
  0
VERTEX
  5
116
  8
0
 10
130.0
 20
-6.48799991607666
 30
-10.09500026702881
 70
   192
  0
VERTEX
  5
117
  8
0
 10
130.0
 20
-13.16800022125244
 30
-9.08899974822998
 70
   192
  0
VERTEX
  5
118
  8
0
 10
130.0
 20
-10.91600036621094
 30
-4.985000133514404
 70
   192
  0
VERTEX
  5
119
  8
0
 10
130.0
 20
-15.88300037384033
 30
-1.929000020027161
 70
   192
  0
VERTEX
  5
11A
  8
0
 10
130.0
 20
-11.87800025939941
 30
1.70799994468689
 70
   192
  0
VERTEX
  5
11B
  8
0
 10
130.0
 20
6.48799991607666
 30
-10.09500026702881
 70
   192
  0
VERTEX
  5
11C
  8
0
 62
     9
 10
0.0
 20
0.0
 30
0.0
 70
   128
 71
     3
 72
     2
 73
     1
  0
VERTEX
  5
11D
  8
0
 62
     9
 10
0.0
 20
0.0
 30
0.0
 70
   128
 71
     5
 72
     4
 73
     2
  0
VERTEX
  5
11E
  8
0
 62
     9
 10
0.0
 20
0.0
 30
0.0
 70
   128
 71
     2
 72
     3
 73
     5
  0
VERTEX
  5
11F
  8
0
 62
     9
 10
0.0
 20
0.0
 30
0.0
 70
   128
 71
     5
 72
     7
 73
     6
  0
VERTEX
  5
120
  8
0
 62
     9
 10
0.0
 20
0.0
 30
0.0
 70
   128
 71
     6
 72
     4
 73
     5
  0
VERTEX
  5
121
  8
0
 62
     9
 10
0.0
 20
0.0
 30
0.0
 70
   128
 71
     7
 72
     9
 73
     8
  0
VERTEX
  5
122
  8
0
 62
     9
 10
0.0
 20
0.0
 30
0.0
 70
   128
 71
     8
 72
     6
 73
     7
  0
VERTEX
  5
123
  8
0
 62
     9
 10
0.0
 20
0.0
 30
0.0
 70
   128
 71
     9
 72
    11
 73
    10
  0
VERTEX
  5
124
  8
0
 62
     9
 10
0.0
 20
0.0
 30
0.0
 70
   128
 71
    14
 72
    13
 73
    12
  0
VERTEX
  5
125
  8
0
 62
     9
 10
0.0
 20
0.0
 30
0.0
 70
   128
 71
    17
 72
    16
 73
    15
  0
VERTEX
  5
126
  8
0
 62
     9
 10
0.0
 20
0.0
 30
0.0
 70
   128
 71
    17
 72
    19
 73
    18
  0
VERTEX
  5
127
  8
0
 62
     9
 10
0.0
 20
0.0
 30
0.0
 70
   128
 71
    10
 72
     8
 73
     9
  0
VERTEX
  5
128
  8
0
 62
     9
 10
0.0
 20
0.0
 30
0.0
 70
   128
 71
    12
 72
    10
 73
    11
  0
VERTEX
  5
129
  8
0
 62
     9
 10
0.0
 20
0.0
 30
0.0
 70
   128
 71
    18
 72
    16
 73
    17
  0
VERTEX
  5
12A
  8
0
 62
     9
 10
0.0
 20
0.0
 30
0.0
 70
   128
 71
    19
 72
    21
 73
    20
  0
VERTEX
  5
12B
  8
0
 62
     9
 10
0.0
 20
0.0
 30
0.0
 70
   128
 71
    21
 72
    23
 73
    22
  0
VERTEX
  5
12C
  8
0
 62
     9
 10
0.0
 20
0.0
 30
0.0
 70
   128
 71
    12
 72
    11
 73
    14
  0
VERTEX
  5
12D
  8
0
 62
     9
 10
0.0
 20
0.0
 30
0.0
 70
   128
 71
    24
 72
    15
 73
    13
  0
VERTEX
  5
12E
  8
0
 62
     9
 10
0.0
 20
0.0
 30
0.0
 70
   128
 71
    20
 72
    18
 73
    19
  0
VERTEX
  5
12F
  8
0
 62
     9
 10
0.0
 20
0.0
 30
0.0
 70
   128
 71
    22
 72
    20
 73
    21
  0
VERTEX
  5
130
  8
0
 62
     9
 10
0.0
 20
0.0
 30
0.0
 70
   128
 71
    13
 72
    14
 73
    24
  0
VERTEX
  5
131
  8
0
 62
     9
 10
0.0
 20
0.0
 30
0.0
 70
   128
 71
    23
 72
     1
 73
    22
  0
VERTEX
  5
132
  8
0
 62
     9
 10
0.0
 20
0.0
 30
0.0
 70
   128
 71
    15
 72
    24
 73
    17
  0
VERTEX
  5
133
  8
0
 62
     9
 10
0.0
 20
0.0
 30
0.0
 70
   128
 71
     1
 72
    23
 73
     3
  0
SEQEND
  5
134
  8
0
 62
     9
  0
ENDBLK
  5
137
  8
0
  0
BLOCK
  8
0
  2
E3_NODE_6_
 70
     0
 10
0.0
 20
0.0
 30
0.0
  3
E3_NODE_6_
  1

  0
POLYLINE
  5
139
  8
0
 62
     9
 66
     1
 10
0.0
 20
0.0
 30
0.0
 70
    64
 71
    26
 72
    26
  0
VERTEX
  5
13A
  8
0
 10
130.0
 20
-7.435999870300293
 30
-14.16699981689453
 70
   192
  0
VERTEX
  5
13B
  8
0
 10
130.0
 20
0.0
 30
-16.0
 70
   192
  0
VERTEX
  5
13C
  8
0
 10
205.0
 20
0.0
 30
-16.0
 70
   192
  0
VERTEX
  5
13D
  8
0
 10
130.0
 20
-13.16800022125244
 30
-9.08899974822998
 70
   192
  0
VERTEX
  5
13E
  8
0
 10
205.0
 20
-7.435999870300293
 30
-14.16699981689453
 70
   192
  0
VERTEX
  5
13F
  8
0
 10
130.0
 20
-15.88300037384033
 30
-1.929000020027161
 70
   192
  0
VERTEX
  5
140
  8
0
 10
205.0
 20
-13.16800022125244
 30
-9.08899974822998
 70
   192
  0
VERTEX
  5
141
  8
0
 10
205.0
 20
-14.96000003814697
 30
5.673999786376953
 70
   192
  0
VERTEX
  5
142
  8
0
 10
130.0
 20
-14.96000003814697
 30
5.673999786376953
 70
   192
  0
VERTEX
  5
143
  8
0
 10
205.0
 20
-10.60999965667725
 30
11.97599983215332
 70
   192
  0
VERTEX
  5
144
  8
0
 10
130.0
 20
-10.60999965667725
 30
11.97599983215332
 70
   192
  0
VERTEX
  5
145
  8
0
 10
205.0
 20
-3.828999996185303
 30
15.53499984741211
 70
   192
  0
VERTEX
  5
146
  8
0
 10
130.0
 20
-3.828999996185303
 30
15.53499984741211
 70
   192
  0
VERTEX
  5
147
  8
0
 10
205.0
 20
3.828999996185303
 30
15.53499984741211
 70
   192
  0
VERTEX
  5
148
  8
0
 10
130.0
 20
3.828999996185303
 30
15.53499984741211
 70
   192
  0
VERTEX
  5
149
  8
0
 10
205.0
 20
10.60999965667725
 30
11.97599983215332
 70
   192
  0
VERTEX
  5
14A
  8
0
 10
130.0
 20
10.60999965667725
 30
11.97599983215332
 70
   192
  0
VERTEX
  5
14B
  8
0
 10
205.0
 20
14.96000003814697
 30
5.673999786376953
 70
   192
  0
VERTEX
  5
14C
  8
0
 10
130.0
 20
14.96000003814697
 30
5.673999786376953
 70
   192
  0
VERTEX
  5
14D
  8
0
 10
205.0
 20
15.88300037384033
 30
-1.929000020027161
 70
   192
  0
VERTEX
  5
14E
  8
0
 10
130.0
 20
15.88300037384033
 30
-1.929000020027161
 70
   192
  0
VERTEX
  5
14F
  8
0
 10
205.0
 20
13.16800022125244
 30
-9.08899974822998
 70
   192
  0
VERTEX
  5
150
  8
0
 10
130.0
 20
13.16800022125244
 30
-9.08899974822998
 70
   192
  0
VERTEX
  5
151
  8
0
 10
205.0
 20
7.435999870300293
 30
-14.16699981689453
 70
   192
  0
VERTEX
  5
152
  8
0
 10
130.0
 20
7.435999870300293
 30
-14.16699981689453
 70
   192
  0
VERTEX
  5
153
  8
0
 10
205.0
 20
-15.88300037384033
 30
-1.929000020027161
 70
   192
  0
VERTEX
  5
154
  8
0
 62
     9
 10
0.0
 20
0.0
 30
0.0
 70
   128
 71
     3
 72
     2
 73
     1
  0
VERTEX
  5
155
  8
0
 62
     9
 10
0.0
 20
0.0
 30
0.0
 70
   128
 71
     5
 72
     1
 73
     4
  0
VERTEX
  5
156
  8
0
 62
     9
 10
0.0
 20
0.0
 30
0.0
 70
   128
 71
     7
 72
     4
 73
     6
  0
VERTEX
  5
157
  8
0
 62
     9
 10
0.0
 20
0.0
 30
0.0
 70
   128
 71
     6
 72
     9
 73
     8
  0
VERTEX
  5
158
  8
0
 62
     9
 10
0.0
 20
0.0
 30
0.0
 70
   128
 71
     9
 72
    11
 73
    10
  0
VERTEX
  5
159
  8
0
 62
     9
 10
0.0
 20
0.0
 30
0.0
 70
   128
 71
    11
 72
    13
 73
    12
  0
VERTEX
  5
15A
  8
0
 62
     9
 10
0.0
 20
0.0
 30
0.0
 70
   128
 71
    13
 72
    15
 73
    14
  0
VERTEX
  5
15B
  8
0
 62
     9
 10
0.0
 20
0.0
 30
0.0
 70
   128
 71
    15
 72
    17
 73
    16
  0
VERTEX
  5
15C
  8
0
 62
     9
 10
0.0
 20
0.0
 30
0.0
 70
   128
 71
    17
 72
    19
 73
    18
  0
VERTEX
  5
15D
  8
0
 62
     9
 10
0.0
 20
0.0
 30
0.0
 70
   128
 71
    19
 72
    21
 73
    20
  0
VERTEX
  5
15E
  8
0
 62
     9
 10
0.0
 20
0.0
 30
0.0
 70
   128
 71
    21
 72
    23
 73
    22
  0
VERTEX
  5
15F
  8
0
 62
     9
 10
0.0
 20
0.0
 30
0.0
 70
   128
 71
    23
 72
    25
 73
    24
  0
VERTEX
  5
160
  8
0
 62
     9
 10
0.0
 20
0.0
 30
0.0
 70
   128
 71
    25
 72
     2
 73
     3
  0
VERTEX
  5
161
  8
0
 62
     9
 10
0.0
 20
0.0
 30
0.0
 70
   128
 71
     3
 72
    24
 73
    25
  0
VERTEX
  5
162
  8
0
 62
     9
 10
0.0
 20
0.0
 30
0.0
 70
   128
 71
    24
 72
    22
 73
    23
  0
VERTEX
  5
163
  8
0
 62
     9
 10
0.0
 20
0.0
 30
0.0
 70
   128
 71
    22
 72
    20
 73
    21
  0
VERTEX
  5
164
  8
0
 62
     9
 10
0.0
 20
0.0
 30
0.0
 70
   128
 71
    20
 72
    18
 73
    19
  0
VERTEX
  5
165
  8
0
 62
     9
 10
0.0
 20
0.0
 30
0.0
 70
   128
 71
    18
 72
    16
 73
    17
  0
VERTEX
  5
166
  8
0
 62
     9
 10
0.0
 20
0.0
 30
0.0
 70
   128
 71
    16
 72
    14
 73
    15
  0
VERTEX
  5
167
  8
0
 62
     9
 10
0.0
 20
0.0
 30
0.0
 70
   128
 71
    14
 72
    12
 73
    13
  0
VERTEX
  5
168
  8
0
 62
     9
 10
0.0
 20
0.0
 30
0.0
 70
   128
 71
    12
 72
    10
 73
    11
  0
VERTEX
  5
169
  8
0
 62
     9
 10
0.0
 20
0.0
 30
0.0
 70
   128
 71
    10
 72
     8
 73
     9
  0
VERTEX
  5
16A
  8
0
 62
     9
 10
0.0
 20
0.0
 30
0.0
 70
   128
 71
     8
 72
    26
 73
     6
  0
VERTEX
  5
16B
  8
0
 62
     9
 10
0.0
 20
0.0
 30
0.0
 70
   128
 71
     6
 72
    26
 73
     7
  0
VERTEX
  5
16C
  8
0
 62
     9
 10
0.0
 20
0.0
 30
0.0
 70
   128
 71
     4
 72
     7
 73
     5
  0
VERTEX
  5
16D
  8
0
 62
     9
 10
0.0
 20
0.0
 30
0.0
 70
   128
 71
     1
 72
     5
 73
     3
  0
SEQEND
  5
16E
  8
0
 62
     9
  0
ENDBLK
  5
171
  8
0
  0
BLOCK
  8
0
  2
E3_NODE_7_
 70
     0
 10
0.0
 20
0.0
 30
0.0
  3
E3_NODE_7_
  1

  0
POLYLINE
  5
173
  8
0
 62
     9
 66
     1
 10
0.0
 20
0.0
 30
0.0
 70
    64
 71
    13
 72
    11
  0
VERTEX
  5
174
  8
0
 10
205.0
 20
3.828999996185303
 30
15.53499984741211
 70
   192
  0
VERTEX
  5
175
  8
0
 10
205.0
 20
15.88300037384033
 30
-1.929000020027161
 70
   192
  0
VERTEX
  5
176
  8
0
 10
205.0
 20
14.96000003814697
 30
5.673999786376953
 70
   192
  0
VERTEX
  5
177
  8
0
 10
205.0
 20
10.60999965667725
 30
11.97599983215332
 70
   192
  0
VERTEX
  5
178
  8
0
 10
205.0
 20
13.16800022125244
 30
-9.08899974822998
 70
   192
  0
VERTEX
  5
179
  8
0
 10
205.0
 20
-7.435999870300293
 30
-14.16699981689453
 70
   192
  0
VERTEX
  5
17A
  8
0
 10
205.0
 20
0.0
 30
-16.0
 70
   192
  0
VERTEX
  5
17B
  8
0
 10
205.0
 20
-3.828999996185303
 30
15.53499984741211
 70
   192
  0
VERTEX
  5
17C
  8
0
 10
205.0
 20
-10.60999965667725
 30
11.97599983215332
 70
   192
  0
VERTEX
  5
17D
  8
0
 10
205.0
 20
-13.16800022125244
 30
-9.08899974822998
 70
   192
  0
VERTEX
  5
17E
  8
0
 10
205.0
 20
-14.96000003814697
 30
5.673999786376953
 70
   192
  0
VERTEX
  5
17F
  8
0
 10
205.0
 20
-15.88300037384033
 30
-1.929000020027161
 70
   192
  0
VERTEX
  5
180
  8
0
 10
205.0
 20
7.435999870300293
 30
-14.16699981689453
 70
   192
  0
VERTEX
  5
181
  8
0
 62
     9
 10
0.0
 20
0.0
 30
0.0
 70
   128
 71
     3
 72
     2
 73
     1
  0
VERTEX
  5
182
  8
0
 62
     9
 10
0.0
 20
0.0
 30
0.0
 70
   128
 71
     1
 72
     4
 73
     3
  0
VERTEX
  5
183
  8
0
 62
     9
 10
0.0
 20
0.0
 30
0.0
 70
   128
 71
     7
 72
     6
 73
     5
  0
VERTEX
  5
184
  8
0
 62
     9
 10
0.0
 20
0.0
 30
0.0
 70
   128
 71
     9
 72
     8
 73
     5
  0
VERTEX
  5
185
  8
0
 62
     9
 10
0.0
 20
0.0
 30
0.0
 70
   128
 71
     2
 72
     5
 73
     8
  0
VERTEX
  5
186
  8
0
 62
     9
 10
0.0
 20
0.0
 30
0.0
 70
   128
 71
     6
 72
    10
 73
     5
  0
VERTEX
  5
187
  8
0
 62
     9
 10
0.0
 20
0.0
 30
0.0
 70
   128
 71
    12
 72
    11
 73
     5
  0
VERTEX
  5
188
  8
0
 62
     9
 10
0.0
 20
0.0
 30
0.0
 70
   128
 71
     2
 72
     8
 73
     1
  0
VERTEX
  5
189
  8
0
 62
     9
 10
0.0
 20
0.0
 30
0.0
 70
   128
 71
     5
 72
    10
 73
    12
  0
VERTEX
  5
18A
  8
0
 62
     9
 10
0.0
 20
0.0
 30
0.0
 70
   128
 71
     5
 72
    13
 73
     7
  0
VERTEX
  5
18B
  8
0
 62
     9
 10
0.0
 20
0.0
 30
0.0
 70
   128
 71
     5
 72
    11
 73
     9
  0
SEQEND
  5
18C
  8
0
 62
     9
  0
ENDBLK
  5
18F
  8
0
  0
ENDSEC
  0
SECTION
  2
ENTITIES
  0
INSERT
  5
50
  8
LAYER_1
  2
E3_NODE
 10
0.0000042618605252
 20
-97.4999999999999
 30
0.2325000762939453
 41
0.9999999999999999
 42
0.9999999999999999
 50
90.00000250447816
  0
INSERT
  5
7F
  8
LAYER_1
  2
E3_NODE_1_
 10
0.0000042618605252
 20
-97.4999999999999
 30
0.2325000762939453
 41
0.9999999999999999
 42
0.9999999999999999
 50
90.00000250447816
  0
INSERT
  5
B3
  8
LAYER_1
  2
E3_NODE_2_
 10
0.0000042618605252
 20
-97.4999999999999
 30
0.2325000762939453
 41
0.9999999999999999
 42
0.9999999999999999
 50
90.00000250447816
  0
INSERT
  5
CD
  8
LAYER_1
  2
E3_NODE_3_
 10
0.0000042618605252
 20
-97.4999999999999
 30
0.2325000762939453
 41
0.9999999999999999
 42
0.9999999999999999
 50
90.00000250447816
  0
INSERT
  5
FF
  8
LAYER_1
  2
E3_NODE_4_
 10
0.0000042618605252
 20
-97.4999999999999
 30
0.2325000762939453
 41
0.9999999999999999
 42
0.9999999999999999
 50
90.00000250447816
  0
INSERT
  5
135
  8
LAYER_1
  2
E3_NODE_5_
 10
0.0000042618605252
 20
-97.4999999999999
 30
0.2325000762939453
 41
0.9999999999999999
 42
0.9999999999999999
 50
90.00000250447816
  0
INSERT
  5
16F
  8
LAYER_1
  2
E3_NODE_6_
 10
0.0000042618605252
 20
-97.4999999999999
 30
0.2325000762939453
 41
0.9999999999999999
 42
0.9999999999999999
 50
90.00000250447816
  0
INSERT
  5
18D
  8
LAYER_1
  2
E3_NODE_7_
 10
0.0000042618605252
 20
-97.4999999999999
 30
0.2325000762939453
 41
0.9999999999999999
 42
0.9999999999999999
 50
90.00000250447816
  0
ENDSEC
  0
EOF
