  0
SECTION
  2
HEADER
  9
$ACADVER
  1
AC1015
  9
$ACADMAINTVER
 70
     6
  9
$DWGCODEPAGE
  3
ANSI_1252
  9
$INSBASE
 10
0.0
 20
0.0
 30
0.0
  9
$EXTMIN
 10
0.0
 20
0.0
 30
0.0
  9
$EXTMAX
 10
1682.0
 20
2378.0
 30
0.0
  9
$LIMMIN
 10
0.0
 20
0.0
  9
$LIMMAX
 10
1682.0
 20
2378.0
  9
$ORTHOMODE
 70
     0
  9
$REGENMODE
 70
     1
  9
$FILLMODE
 70
     1
  9
$QTEXTMODE
 70
     0
  9
$MIRRTEXT
 70
     1
  9
$LTSCALE
 40
1.0
  9
$ATTMODE
 70
     1
  9
$TEXTSIZE
 40
2.5
  9
$TRACEWID
 40
1.0
  9
$TEXTSTYLE
  7
Standard
  9
$CLAYER
  8
0
  9
$CELTYPE
  6
ByLayer
  9
$CECOLOR
 62
   256
  9
$CELTSCALE
 40
1.0
  9
$DISPSILH
 70
     0
  9
$DIMSCALE
 40
1.0
  9
$DIMASZ
 40
2.5
  9
$DIMEXO
 40
0.625
  9
$DIMDLI
 40
3.75
  9
$DIMRND
 40
0.0
  9
$DIMDLE
 40
0.0
  9
$DIMEXE
 40
1.25
  9
$DIMTP
 40
0.0
  9
$DIMTM
 40
0.0
  9
$DIMTXT
 40
2.5
  9
$DIMCEN
 40
2.5
  9
$DIMTSZ
 40
0.0
  9
$DIMTOL
 70
     0
  9
$DIMLIM
 70
     0
  9
$DIMTIH
 70
     0
  9
$DIMTOH
 70
     0
  9
$DIMSE1
 70
     0
  9
$DIMSE2
 70
     0
  9
$DIMTAD
 70
     1
  9
$DIMZIN
 70
     8
  9
$DIMBLK
  1

  9
$DIMASO
 70
     1
  9
$DIMSHO
 70
     1
  9
$DIMPOST
  1

  9
$DIMAPOST
  1

  9
$DIMALT
 70
     0
  9
$DIMALTD
 70
     3
  9
$DIMALTF
 40
0.0393700787
  9
$DIMLFAC
 40
1.0
  9
$DIMTOFL
 70
     1
  9
$DIMTVP
 40
0.0
  9
$DIMTIX
 70
     0
  9
$DIMSOXD
 70
     0
  9
$DIMSAH
 70
     0
  9
$DIMBLK1
  1

  9
$DIMBLK2
  1

  9
$DIMSTYLE
  2
ISO-25
  9
$DIMCLRD
 70
     0
  9
$DIMCLRE
 70
     0
  9
$DIMCLRT
 70
     0
  9
$DIMTFAC
 40
1.0
  9
$DIMGAP
 40
0.625
  9
$DIMJUST
 70
     0
  9
$DIMSD1
 70
     0
  9
$DIMSD2
 70
     0
  9
$DIMTOLJ
 70
     0
  9
$DIMTZIN
 70
     8
  9
$DIMALTZ
 70
     0
  9
$DIMALTTZ
 70
     0
  9
$DIMUPT
 70
     0
  9
$DIMDEC
 70
     2
  9
$DIMTDEC
 70
     2
  9
$DIMALTU
 70
     2
  9
$DIMALTTD
 70
     3
  9
$DIMTXSTY
  7
Standard
  9
$DIMAUNIT
 70
     0
  9
$DIMADEC
 70
     0
  9
$DIMALTRND
 40
0.0
  9
$DIMAZIN
 70
     0
  9
$DIMDSEP
 70
    44
  9
$DIMATFIT
 70
     3
  9
$DIMFRAC
 70
     0
  9
$DIMLDRBLK
  1

  9
$DIMLUNIT
 70
     2
  9
$DIMLWD
 70
    -2
  9
$DIMLWE
 70
    -2
  9
$DIMTMOVE
 70
     0
  9
$LUNITS
 70
     2
  9
$LUPREC
 70
     4
  9
$SKETCHINC
 40
1.0
  9
$FILLETRAD
 40
10.0
  9
$AUNITS
 70
     0
  9
$AUPREC
 70
     0
  9
$MENU
  1
.
  9
$ELEVATION
 40
0.0
  9
$PELEVATION
 40
0.0
  9
$THICKNESS
 40
0.0
  9
$LIMCHECK
 70
     0
  9
$CHAMFERA
 40
10.0
  9
$CHAMFERB
 40
10.0
  9
$CHAMFERC
 40
20.0
  9
$CHAMFERD
 40
0.0
  9
$SKPOLY
 70
     0
  9
$TDCREATE
 40
2455391.450173877
  9
$TDUCREATE
 40
2455391.366840544
  9
$TDUPDATE
 40
2455391.450173889
  9
$TDUUPDATE
 40
2455391.366840555
  9
$TDINDWG
 40
0.0000000116
  9
$TDUSRTIMER
 40
0.0000000116
  9
$USRTIMER
 70
     1
  9
$ANGBASE
 50
0.0
  9
$ANGDIR
 70
     0
  9
$PDMODE
 70
     0
  9
$PDSIZE
 40
0.0
  9
$PLINEWID
 40
0.0
  9
$SPLFRAME
 70
     0
  9
$SPLINETYPE
 70
     6
  9
$SPLINESEGS
 70
     8
  9
$HANDSEED
  5
3D1
  9
$SURFTAB1
 70
     6
  9
$SURFTAB2
 70
     6
  9
$SURFTYPE
 70
     6
  9
$SURFU
 70
     6
  9
$SURFV
 70
     6
  9
$UCSBASE
  2

  9
$UCSNAME
  2

  9
$UCSORG
 10
0.0
 20
0.0
 30
0.0
  9
$UCSXDIR
 10
1.0
 20
0.0
 30
0.0
  9
$UCSYDIR
 10
0.0
 20
1.0
 30
0.0
  9
$UCSORTHOREF
  2

  9
$UCSORTHOVIEW
 70
     0
  9
$UCSORGTOP
 10
0.0
 20
0.0
 30
0.0
  9
$UCSORGBOTTOM
 10
0.0
 20
0.0
 30
0.0
  9
$UCSORGLEFT
 10
0.0
 20
0.0
 30
0.0
  9
$UCSORGRIGHT
 10
0.0
 20
0.0
 30
0.0
  9
$UCSORGFRONT
 10
0.0
 20
0.0
 30
0.0
  9
$UCSORGBACK
 10
0.0
 20
0.0
 30
0.0
  9
$PUCSBASE
  2

  9
$PUCSNAME
  2

  9
$PUCSORG
 10
0.0
 20
0.0
 30
0.0
  9
$PUCSXDIR
 10
1.0
 20
0.0
 30
0.0
  9
$PUCSYDIR
 10
0.0
 20
1.0
 30
0.0
  9
$PUCSORTHOREF
  2

  9
$PUCSORTHOVIEW
 70
     0
  9
$PUCSORGTOP
 10
0.0
 20
0.0
 30
0.0
  9
$PUCSORGBOTTOM
 10
0.0
 20
0.0
 30
0.0
  9
$PUCSORGLEFT
 10
0.0
 20
0.0
 30
0.0
  9
$PUCSORGRIGHT
 10
0.0
 20
0.0
 30
0.0
  9
$PUCSORGFRONT
 10
0.0
 20
0.0
 30
0.0
  9
$PUCSORGBACK
 10
0.0
 20
0.0
 30
0.0
  9
$USERI1
 70
     0
  9
$USERI2
 70
     0
  9
$USERI3
 70
     0
  9
$USERI4
 70
     0
  9
$USERI5
 70
     0
  9
$USERR1
 40
0.0
  9
$USERR2
 40
0.0
  9
$USERR3
 40
0.0
  9
$USERR4
 40
0.0
  9
$USERR5
 40
0.0
  9
$WORLDVIEW
 70
     1
  9
$SHADEDGE
 70
     3
  9
$SHADEDIF
 70
    70
  9
$TILEMODE
 70
     1
  9
$MAXACTVP
 70
    64
  9
$PINSBASE
 10
0.0
 20
0.0
 30
0.0
  9
$PLIMCHECK
 70
     0
  9
$PEXTMIN
 10
0.0
 20
0.0
 30
0.0
  9
$PEXTMAX
 10
1682.0
 20
2378.0
 30
0.0
  9
$PLIMMIN
 10
0.0
 20
0.0
  9
$PLIMMAX
 10
1682.0
 20
2378.0
  9
$UNITMODE
 70
     0
  9
$VISRETAIN
 70
     1
  9
$PLINEGEN
 70
     0
  9
$PSLTSCALE
 70
     1
  9
$TREEDEPTH
 70
  3020
  9
$CMLSTYLE
  2
Standard
  9
$CMLJUST
 70
     0
  9
$CMLSCALE
 40
20.0
  9
$PROXYGRAPHICS
 70
     1
  9
$MEASUREMENT
 70
     1
  9
$CELWEIGHT
370
    -1
  9
$ENDCAPS
280
     0
  9
$JOINSTYLE
280
     0
  9
$LWDISPLAY
290
     0
  9
$INSUNITS
 70
     4
  9
$HYPERLINKBASE
  1

  9
$STYLESHEET
  1

  9
$XEDIT
290
     1
  9
$CEPSNTYPE
380
     0
  9
$PSTYLEMODE
290
     1
  9
$FINGERPRINTGUID
  2
{5970C81F-5765-4C99-B7A3-548A5B1F2C87}
  9
$VERSIONGUID
  2
{FAEB1C32-E019-11D5-929B-00C0DF256EC4}
  9
$EXTNAMES
290
     1
  9
$PSVPSCALE
 40
0.0
  9
$OLESTARTUP
290
     0
  0
ENDSEC
  0
SECTION
  2
CLASSES
  0
CLASS
  1
ACDBDICTIONARYWDFLT
  2
AcDbDictionaryWithDefault
  3
ObjectDBX Classes
 90
        0
280
     0
281
     0
  0
CLASS
  1
VISUALSTYLE
  2
AcDbVisualStyle
  3
ObjectDBX Classes
 90
     4095
280
     0
281
     0
  0
CLASS
  1
SCALE
  2
AcDbScale
  3
ObjectDBX Classes
 90
     1153
280
     0
281
     0
  0
CLASS
  1
DICTIONARYVAR
  2
AcDbDictionaryVar
  3
ObjectDBX Classes
 90
        0
280
     0
281
     0
  0
CLASS
  1
ACDBPLACEHOLDER
  2
AcDbPlaceHolder
  3
ObjectDBX Classes
 90
        0
280
     0
281
     0
  0
CLASS
  1
LAYOUT
  2
AcDbLayout
  3
ObjectDBX Classes
 90
        0
280
     0
281
     0
  0
ENDSEC
  0
SECTION
  2
TABLES
  0
TABLE
  2
VPORT
  5
8
330
0
100
AcDbSymbolTable
 70
     1
  0
VPORT
  5
29
330
8
100
AcDbSymbolTableRecord
100
AcDbViewportTableRecord
  2
*Active
 70
     0
 10
0.0
 20
0.0
 11
1.0
 21
1.0
 12
344.1869158879
 22
148.5
 13
0.0
 23
0.0
 14
10.0
 24
10.0
 15
10.0
 25
10.0
 16
0.0
 26
0.0
 36
1.0
 17
0.0
 27
0.0
 37
0.0
 40
297.0
 41
1.9729729729
 42
50.0
 43
0.0
 44
0.0
 50
0.0
 51
0.0
 71
     0
 72
   100
 73
     1
 74
     3
 75
     0
 76
     0
 77
     0
 78
     0
281
     0
 65
     1
110
0.0
120
0.0
130
0.0
111
1.0
121
0.0
131
0.0
112
0.0
122
1.0
132
0.0
 79
     0
146
0.0
  0
ENDTAB
  0
TABLE
  2
LTYPE
  5
5
330
0
100
AcDbSymbolTable
 70
     2
  0
LTYPE
  5
14
330
5
100
AcDbSymbolTableRecord
100
AcDbLinetypeTableRecord
  2
ByBlock
 70
     0
  3

 72
    65
 73
     0
 40
0.0
  0
LTYPE
  5
15
330
5
100
AcDbSymbolTableRecord
100
AcDbLinetypeTableRecord
  2
ByLayer
 70
     0
  3

 72
    65
 73
     0
 40
0.0
  0
LTYPE
  5
16
330
5
100
AcDbSymbolTableRecord
100
AcDbLinetypeTableRecord
  2
Continuous
 70
     0
  3
Solid line
 72
    65
 73
     0
 40
0.0
  0
LTYPE
  5
61
330
5
100
AcDbSymbolTableRecord
100
AcDbLinetypeTableRecord
  2
CENTER2
 70
     0
  3
Center (.5x) ___ _ ___ _ ___ _ ___ _ ___ _ ___
 72
    65
 73
     4
 40
28.575
 49
19.05
 74
     4
 75
     0
340
0
 46
0.0
 50
0.0
 44
0.0
 45
0.0
 49
-3.175
 74
     4
 75
     0
340
0
 46
0.0
 50
0.0
 44
0.0
 45
0.0
 49
3.175
 74
     4
 75
     0
340
0
 46
0.0
 50
0.0
 44
0.0
 45
0.0
 49
-3.175
 74
     4
 75
     0
340
0
 46
0.0
 50
0.0
 44
0.0
 45
0.0
  0
ENDTAB
  0
TABLE
  2
LAYER
  5
2
330
0
100
AcDbSymbolTable
 70
    15
  0
LAYER
  5
10
330
2
100
AcDbSymbolTableRecord
100
AcDbLayerTableRecord
  2
0
 70
     0
 62
     7
  6
Continuous
370
    -3
390
F
  0
LAYER
  5
5D
330
2
100
AcDbSymbolTableRecord
100
AcDbLayerTableRecord
  2
Default
 70
     0
 62
     7
  6
Continuous
370
    -3
390
F
  0
LAYER
  5
94
330
2
100
AcDbSymbolTableRecord
100
AcDbLayerTableRecord
  2
$DDT_AUDIT_GENERATED_(94)
 70
     0
 62
     7
  6
Continuous
370
    -3
390
F
  0
LAYER
  5
BC
330
2
100
AcDbSymbolTableRecord
100
AcDbLayerTableRecord
  2
$DDT_AUDIT_GENERATED_(BC)
 70
     0
 62
     7
  6
Continuous
370
    -3
390
F
  0
LAYER
  5
CB
330
2
100
AcDbSymbolTableRecord
100
AcDbLayerTableRecord
  2
$DDT_AUDIT_GENERATED_(CB)
 70
     0
 62
     7
  6
Continuous
370
    -3
390
F
  0
LAYER
  5
225
330
2
100
AcDbSymbolTableRecord
100
AcDbLayerTableRecord
  2
$DDT_AUDIT_GENERATED_(225)
 70
     0
 62
     7
  6
Continuous
370
    -3
390
F
  0
LAYER
  5
246
330
2
100
AcDbSymbolTableRecord
100
AcDbLayerTableRecord
  2
$DDT_AUDIT_GENERATED_(246)
 70
     0
 62
     7
  6
Continuous
370
    -3
390
F
  0
LAYER
  5
250
330
2
100
AcDbSymbolTableRecord
100
AcDbLayerTableRecord
  2
A4225108_211188_
 70
     0
 62
     7
  6
Continuous
370
    -3
390
F
  0
LAYER
  5
257
330
2
100
AcDbSymbolTableRecord
100
AcDbLayerTableRecord
  2
A4225112_211188_
 70
     0
 62
     7
  6
Continuous
370
    -3
390
F
  0
LAYER
  5
25A
330
2
100
AcDbSymbolTableRecord
100
AcDbLayerTableRecord
  2
$DDT_AUDIT_GENERATED_(25A)
 70
     0
 62
     7
  6
Continuous
370
    -3
390
F
  0
LAYER
  5
25D
330
2
100
AcDbSymbolTableRecord
100
AcDbLayerTableRecord
  2
$DDT_AUDIT_GENERATED_(25D)
 70
     0
 62
     7
  6
Continuous
370
    -3
390
F
  0
LAYER
  5
292
330
2
100
AcDbSymbolTableRecord
100
AcDbLayerTableRecord
  2
$DDT_AUDIT_GENERATED_(292)
 70
     0
 62
     7
  6
Continuous
370
    -3
390
F
  0
LAYER
  5
295
330
2
100
AcDbSymbolTableRecord
100
AcDbLayerTableRecord
  2
$DDT_AUDIT_GENERATED_(295)
 70
     0
 62
     7
  6
Continuous
370
    -3
390
F
  0
LAYER
  5
2B0
330
2
100
AcDbSymbolTableRecord
100
AcDbLayerTableRecord
  2
4220384_BODEN
 70
     0
 62
     7
  6
Continuous
370
    -3
390
F
  0
LAYER
  5
2DA
330
2
100
AcDbSymbolTableRecord
100
AcDbLayerTableRecord
  2
$DDT_AUDIT_GENERATED_(2DA)
 70
     0
 62
     7
  6
Continuous
370
    -3
390
F
  0
ENDTAB
  0
TABLE
  2
STYLE
  5
3
330
0
100
AcDbSymbolTable
 70
     2
  0
STYLE
  5
11
330
3
100
AcDbSymbolTableRecord
100
AcDbTextStyleTableRecord
  2
Standard
 70
     0
 40
0.0
 41
1.0
 50
0.0
 71
     0
 42
2.5
  3
txt
  4

  0
STYLE
  5
3C0
330
3
100
AcDbSymbolTableRecord
100
AcDbTextStyleTableRecord
  2
SEACAD_seiso_ttf
 70
     0
 40
0.0
 41
1.0
 50
0.0
 71
     0
 42
0.2
  3
seiso.ttf
  4

  0
ENDTAB
  0
TABLE
  2
VIEW
  5
6
330
0
100
AcDbSymbolTable
 70
     0
  0
ENDTAB
  0
TABLE
  2
UCS
  5
7
330
0
100
AcDbSymbolTable
 70
     0
  0
ENDTAB
  0
TABLE
  2
APPID
  5
9
330
0
100
AcDbSymbolTable
 70
     1
  0
APPID
  5
12
330
9
100
AcDbSymbolTableRecord
100
AcDbRegAppTableRecord
  2
ACAD
 70
     0
  0
ENDTAB
  0
TABLE
  2
DIMSTYLE
  5
A
330
0
100
AcDbSymbolTable
 70
     1
100
AcDbDimStyleTable
  0
DIMSTYLE
105
27
330
A
100
AcDbSymbolTableRecord
100
AcDbDimStyleTableRecord
  2
ISO-25
 70
     0
 41
2.5
 42
0.625
 43
3.75
 44
1.25
 73
     0
 74
     0
 77
     1
 78
     8
140
2.5
141
2.5
143
0.0393700787
147
0.625
171
     3
172
     1
271
     2
272
     2
274
     3
278
    44
283
     0
284
     8
340
11
  0
ENDTAB
  0
TABLE
  2
BLOCK_RECORD
  5
1
330
0
100
AcDbSymbolTable
 70
    11
  0
BLOCK_RECORD
  5
1F
330
1
100
AcDbSymbolTableRecord
100
AcDbBlockTableRecord
  2
*Model_Space
340
22
  0
BLOCK_RECORD
  5
1B
330
1
100
AcDbSymbolTableRecord
100
AcDbBlockTableRecord
  2
*Paper_Space
340
1E
  0
BLOCK_RECORD
  5
5F
330
1
100
AcDbSymbolTableRecord
100
AcDbBlockTableRecord
  2
SEANNOT_GROUP
340
0
102
{BLKREFS
331
60
102
}
  0
BLOCK_RECORD
  5
67
330
1
100
AcDbSymbolTableRecord
100
AcDbBlockTableRecord
  2
SEANNOT_GROUP1
340
0
102
{BLKREFS
331
68
102
}
  0
BLOCK_RECORD
  5
6D
330
1
100
AcDbSymbolTableRecord
100
AcDbBlockTableRecord
  2
SEANNOT_GROUP2
340
0
102
{BLKREFS
331
6E
102
}
  0
BLOCK_RECORD
  5
78
330
1
100
AcDbSymbolTableRecord
100
AcDbBlockTableRecord
  2
SEANNOT_GROUP3
340
0
102
{BLKREFS
331
79
102
}
  0
BLOCK_RECORD
  5
7E
330
1
100
AcDbSymbolTableRecord
100
AcDbBlockTableRecord
  2
SEANNOT_GROUP4
340
0
102
{BLKREFS
331
7F
102
}
  0
BLOCK_RECORD
  5
86
330
1
100
AcDbSymbolTableRecord
100
AcDbBlockTableRecord
  2
SEANNOT_GROUP5
340
0
102
{BLKREFS
331
87
102
}
  0
BLOCK_RECORD
  5
8C
330
1
100
AcDbSymbolTableRecord
100
AcDbBlockTableRecord
  2
SEANNOT_GROUP6
340
0
102
{BLKREFS
331
8D
102
}
  0
BLOCK_RECORD
  5
92
330
1
100
AcDbSymbolTableRecord
100
AcDbBlockTableRecord
  2
SE
340
0
102
{BLKREFS
331
93
102
}
  0
BLOCK_RECORD
  5
274
330
1
100
AcDbSymbolTableRecord
100
AcDbBlockTableRecord
  2
SE1
340
0
102
{BLKREFS
331
275
102
}
  0
BLOCK_RECORD
  5
315
330
1
100
AcDbSymbolTableRecord
100
AcDbBlockTableRecord
  2
SE2
340
0
102
{BLKREFS
331
316
102
}
  0
ENDTAB
  0
ENDSEC
  0
SECTION
  2
BLOCKS
  0
BLOCK
  5
20
330
1F
100
AcDbEntity
  8
0
100
AcDbBlockBegin
  2
*Model_Space
 70
     0
 10
0.0
 20
0.0
 30
0.0
  3
*Model_Space
  1

  0
ENDBLK
  5
21
330
1F
100
AcDbEntity
  8
0
100
AcDbBlockEnd
  0
BLOCK
  5
1C
330
1B
100
AcDbEntity
 67
     1
  8
0
100
AcDbBlockBegin
  2
*Paper_Space
 70
     0
 10
0.0
 20
0.0
 30
0.0
  3
*Paper_Space
  1

  0
ENDBLK
  5
1D
330
1B
100
AcDbEntity
 67
     1
  8
0
100
AcDbBlockEnd
  0
BLOCK
  5
64
330
5F
100
AcDbEntity
  8
0
100
AcDbBlockBegin
  2
SEANNOT_GROUP
 70
     0
 10
0.0
 20
0.0
 30
0.0
  3
SEANNOT_GROUP
  1

  0
LINE
  5
62
330
5F
100
AcDbEntity
  8
Default
  6
CENTER2
 62
     7
100
AcDbLine
 10
50.349999553
 20
422.5177646117
 30
0.0
 11
10.350000447
 21
422.5177646117
 31
0.0
  0
LINE
  5
63
330
5F
100
AcDbEntity
  8
Default
  6
CENTER2
 62
     7
100
AcDbLine
 10
30.35
 20
442.5177641647
 30
0.0
 11
30.35
 21
402.5177650587
 31
0.0
  0
ENDBLK
  5
65
330
5F
100
AcDbEntity
  8
0
100
AcDbBlockEnd
  0
BLOCK
  5
6B
330
67
100
AcDbEntity
  8
0
100
AcDbBlockBegin
  2
SEANNOT_GROUP1
 70
     0
 10
0.0
 20
0.0
 30
0.0
  3
SEANNOT_GROUP1
  1

  0
LINE
  5
69
330
67
100
AcDbEntity
  8
Default
  6
CENTER2
 62
     7
100
AcDbLine
 10
200.349999553
 20
422.5177646117
 30
0.0
 11
160.350000447
 21
422.5177646117
 31
0.0
  0
LINE
  5
6A
330
67
100
AcDbEntity
  8
Default
  6
CENTER2
 62
     7
100
AcDbLine
 10
180.35
 20
442.5177641647
 30
0.0
 11
180.35
 21
402.5177650587
 31
0.0
  0
ENDBLK
  5
6C
330
67
100
AcDbEntity
  8
0
100
AcDbBlockEnd
  0
BLOCK
  5
75
330
6D
100
AcDbEntity
  8
0
100
AcDbBlockBegin
  2
SEANNOT_GROUP2
 70
     0
 10
0.0
 20
0.0
 30
0.0
  3
SEANNOT_GROUP2
  1

  0
LINE
  5
6F
330
6D
100
AcDbEntity
  8
Default
  6
CENTER2
 62
     7
100
AcDbLine
 10
125.349999553
 20
456.8989612083
 30
0.0
 11
85.350000447
 21
456.8989612083
 31
0.0
  0
LINE
  5
70
330
6D
100
AcDbEntity
  8
Default
  6
CENTER2
 62
     7
100
AcDbLine
 10
105.35
 20
476.8989607612
 30
0.0
 11
105.35
 21
436.8989616553
 31
0.0
  0
LINE
  5
71
330
6D
100
AcDbEntity
  8
Default
  6
CENTER2
 62
     7
100
AcDbLine
 10
130.3499994412
 20
456.8989612083
 30
0.0
 11
118.1
 21
456.8989612083
 31
0.0
  0
LINE
  5
72
330
6D
100
AcDbEntity
  8
Default
  6
CENTER2
 62
     7
100
AcDbLine
 10
105.35
 20
481.8989606495
 30
0.0
 11
105.35
 21
462.0052068517
 31
0.0
  0
LINE
  5
73
330
6D
100
AcDbEntity
  8
Default
  6
CENTER2
 62
     7
100
AcDbLine
 10
80.3500005588
 20
456.8989612083
 30
0.0
 11
92.6
 21
456.8989612083
 31
0.0
  0
LINE
  5
74
330
6D
100
AcDbEntity
  8
Default
  6
CENTER2
 62
     7
100
AcDbLine
 10
105.35
 20
431.8989617671
 30
0.0
 11
105.35
 21
451.7927155649
 31
0.0
  0
ENDBLK
  5
76
330
6D
100
AcDbEntity
  8
0
100
AcDbBlockEnd
  0
BLOCK
  5
7C
330
78
100
AcDbEntity
  8
0
100
AcDbBlockBegin
  2
SEANNOT_GROUP3
 70
     0
 10
0.0
 20
0.0
 30
0.0
  3
SEANNOT_GROUP3
  1

  0
LINE
  5
7A
330
78
100
AcDbEntity
  8
Default
  6
CENTER2
 62
     7
100
AcDbLine
 10
310.6011730208
 20
422.5177646117
 30
0.0
 11
270.6011739148
 21
422.5177646117
 31
0.0
  0
LINE
  5
7B
330
78
100
AcDbEntity
  8
Default
  6
CENTER2
 62
     7
100
AcDbLine
 10
290.6011734678
 20
442.5177641647
 30
0.0
 11
290.6011734678
 21
402.5177650587
 31
0.0
  0
ENDBLK
  5
7D
330
78
100
AcDbEntity
  8
0
100
AcDbBlockEnd
  0
BLOCK
  5
82
330
7E
100
AcDbEntity
  8
0
100
AcDbBlockBegin
  2
SEANNOT_GROUP4
 70
     0
 10
0.0
 20
0.0
 30
0.0
  3
SEANNOT_GROUP4
  1

  0
LINE
  5
80
330
7E
100
AcDbEntity
  8
Default
  6
CENTER2
 62
     7
100
AcDbLine
 10
431.4024416795
 20
456.8989612083
 30
0.0
 11
391.4024425736
 21
456.8989612083
 31
0.0
  0
LINE
  5
81
330
7E
100
AcDbEntity
  8
Default
  6
CENTER2
 62
     7
100
AcDbLine
 10
411.4024421266
 20
476.8989607612
 30
0.0
 11
411.4024421266
 21
436.8989616553
 31
0.0
  0
ENDBLK
  5
83
330
7E
100
AcDbEntity
  8
0
100
AcDbBlockEnd
  0
BLOCK
  5
8A
330
86
100
AcDbEntity
  8
0
100
AcDbBlockBegin
  2
SEANNOT_GROUP5
 70
     0
 10
0.0
 20
0.0
 30
0.0
  3
SEANNOT_GROUP5
  1

  0
LINE
  5
88
330
86
100
AcDbEntity
  8
Default
  6
CENTER2
 62
     7
100
AcDbLine
 10
50.349999553
 20
297.8795225016
 30
0.0
 11
10.350000447
 21
297.8795225016
 31
0.0
  0
LINE
  5
89
330
86
100
AcDbEntity
  8
Default
  6
CENTER2
 62
     7
100
AcDbLine
 10
30.35
 20
317.8795220545
 30
0.0
 11
30.35
 21
277.8795229486
 31
0.0
  0
ENDBLK
  5
8B
330
86
100
AcDbEntity
  8
0
100
AcDbBlockEnd
  0
BLOCK
  5
90
330
8C
100
AcDbEntity
  8
0
100
AcDbBlockBegin
  2
SEANNOT_GROUP6
 70
     0
 10
0.0
 20
0.0
 30
0.0
  3
SEANNOT_GROUP6
  1

  0
LINE
  5
8E
330
8C
100
AcDbEntity
  8
Default
  6
CENTER2
 62
     7
100
AcDbLine
 10
200.3500402697
 20
297.8795227037
 30
0.0
 11
160.3500411637
 21
297.8795227037
 31
0.0
  0
LINE
  5
8F
330
8C
100
AcDbEntity
  8
Default
  6
CENTER2
 62
     7
100
AcDbLine
 10
180.3500407167
 20
317.8795222567
 30
0.0
 11
180.3500407167
 21
277.8795231508
 31
0.0
  0
ENDBLK
  5
91
330
8C
100
AcDbEntity
  8
0
100
AcDbBlockEnd
  0
BLOCK
  5
272
330
92
100
AcDbEntity
  8
0
100
AcDbBlockBegin
  2
SE
 70
     0
 10
0.0
 20
0.0
 30
0.0
  3
SE
  1

  0
SPLINE
  5
95
330
92
100
AcDbEntity
  8
$DDT_AUDIT_GENERATED_(94)
  6
Continuous
 62
     7
100
AcDbSpline
210
0.0
220
0.0
230
1.0
 70
     8
 71
     3
 72
    32
 73
    28
 74
     0
 42
0.000000000131323
 43
0.0000000001
 40
0.4708336036314422
 40
0.4708336036314422
 40
0.4708336036314422
 40
0.4708336036314422
 40
0.5000000000000011
 40
0.5000000000000011
 40
0.5625000000000012
 40
0.5625000000000012
 40
0.6250000000000013
 40
0.6250000000000013
 40
0.6562500000000012
 40
0.6562500000000012
 40
0.687500000000001
 40
0.687500000000001
 40
0.7187500000000009
 40
0.7187500000000009
 40
0.7500000000000007
 40
0.7500000000000007
 40
0.7812500000000006
 40
0.7812500000000006
 40
0.8125000000000004
 40
0.8125000000000004
 40
0.8437500000000002
 40
0.8437500000000002
 40
0.8750000000000001
 40
0.8750000000000001
 40
0.9375000000000001
 40
0.9375000000000001
 40
0.9804747729936153
 40
0.9804747729936153
 40
0.9804747729936153
 40
0.9804747729936153
 10
88.92592579256004
 20
473.8274991012429
 30
0.0
 10
88.86449631413159
 20
474.1663898045259
 30
0.0
 10
88.86761370479083
 20
474.506477185931
 30
0.0
 10
89.08536328225073
 20
475.582931891975
 30
0.0
 10
89.54415479640302
 20
476.2964139748183
 30
0.0
 10
91.15514389618298
 20
477.6720788272652
 30
0.0
 10
92.33047859206101
 20
478.3339844475717
 30
0.0
 10
94.77196236989472
 20
479.2214291890028
 30
0.0
 10
95.71605926310235
 20
479.5007444430964
 30
0.0
 10
97.83441448345052
 20
479.987199622898
 30
0.0
 10
99.03439164991956
 20
480.2031905329952
 30
0.0
 10
101.6485537852428
 20
480.5231736943102
 30
0.0
 10
103.081476328601
 20
480.6287703371494
 30
0.0
 10
105.9669454488329
 20
480.6994389477098
 30
0.0
 10
107.445944252808
 20
480.6619822251771
 30
0.0
 10
110.2166682031538
 20
480.4619813212646
 30
0.0
 10
111.5013612830043
 20
480.2996454786984
 30
0.0
 10
113.8251679496259
 20
479.8928237367991
 30
0.0
 10
114.849823216333
 20
479.6536708772891
 30
0.0
 10
116.6591440621996
 20
479.1238403783734
 30
0.0
 10
117.4533715929724
 20
478.8286136800148
 30
0.0
 10
118.8057978817449
 20
478.2241604183478
 30
0.0
 10
119.373673729209
 20
477.9107467439073
 30
0.0
 10
120.810728196401
 20
476.9271934733972
 30
0.0
 10
121.4065834944541
 20
476.2273795546573
 30
0.0
 10
121.8869872278017
 20
475.0319384080636
 30
0.0
 10
121.9375896174541
 20
474.5379704968929
 30
0.0
 10
121.8485033698722
 20
474.0396071931411
 30
0.0
  0
SPLINE
  5
96
330
92
100
AcDbEntity
  8
$DDT_AUDIT_GENERATED_(94)
  6
Continuous
 62
     7
100
AcDbSpline
210
0.0
220
0.0
230
1.0
 70
     8
 71
     3
 72
     8
 73
     4
 74
     0
 42
0.0000000002823206
 43
0.0000000001
 40
0.9804747729936153
 40
0.9804747729936153
 40
0.9804747729936153
 40
0.9804747729936153
 40
0.9821008793795071
 40
0.9821008793795071
 40
0.9821008793795071
 40
0.9821008793795071
 10
121.8485033698722
 20
474.0396071931411
 30
0.0
 10
121.8451324686202
 20
474.0207498102098
 30
0.0
 10
121.8415615665333
 20
474.001886134124
 30
0.0
 10
121.8377909586138
 20
473.9830163003497
 30
0.0
  0
SPLINE
  5
97
330
92
100
AcDbEntity
  8
$DDT_AUDIT_GENERATED_(94)
  6
Continuous
 62
     7
100
AcDbSpline
210
0.0
220
0.0
230
1.0
 70
     8
 71
     3
 72
    36
 73
    32
 74
     0
 42
0.0000000001750739
 43
0.0000000001
 40
0.0
 40
0.0
 40
0.0
 40
0.0
 40
0.0625000000000002
 40
0.0625000000000002
 40
0.1250000000000005
 40
0.1250000000000005
 40
0.1562500000000006
 40
0.1562500000000006
 40
0.1875000000000007
 40
0.1875000000000007
 40
0.2187500000000008
 40
0.2187500000000008
 40
0.2500000000000009
 40
0.2500000000000009
 40
0.2812500000000011
 40
0.2812500000000011
 40
0.3125000000000012
 40
0.3125000000000012
 40
0.3750000000000018
 40
0.3750000000000018
 40
0.4062500000000021
 40
0.4062500000000021
 40
0.437500000000002
 40
0.437500000000002
 40
0.5000000000000017
 40
0.5000000000000017
 40
0.5625000000000013
 40
0.5625000000000013
 40
0.625000000000001
 40
0.625000000000001
 40
0.6302134879103946
 40
0.6302134879103946
 40
0.6302134879103946
 40
0.6302134879103946
 10
119.8386621065982
 20
471.3787200129818
 30
0.0
 10
120.0782001353566
 20
471.8196726166653
 30
0.0
 10
120.0729687196858
 20
472.2437676996103
 30
0.0
 10
119.535890970544
 20
473.0407346266736
 30
0.0
 10
119.0035528920179
 20
473.4209466317267
 30
0.0
 10
117.7347051904637
 20
473.9327012206809
 30
0.0
 10
117.2334630762641
 20
474.0942681594782
 30
0.0
 10
116.0399574706015
 20
474.400634457892
 30
0.0
 10
115.3405379976325
 20
474.5464069315232
 30
0.0
 10
113.7291640190061
 20
474.8056476690476
 30
0.0
 10
112.8098515479828
 20
474.9221246228452
 30
0.0
 10
110.6936000516391
 20
475.1158667608694
 30
0.0
 10
109.5043135030499
 20
475.1899608082343
 30
0.0
 10
106.9153326807722
 20
475.2729187787631
 30
0.0
 10
105.519213558898
 20
475.2803748969042
 30
0.0
 10
102.8357140581285
 20
475.2189489290411
 30
0.0
 10
101.530976164486
 20
475.1522729609861
 30
0.0
 10
98.03160966959685
 20
474.8730147639693
 30
0.0
 10
96.24875394741156
 20
474.5944471167722
 30
0.0
 10
94.2198356445633
 20
474.1255341346819
 30
0.0
 10
93.64005365005399
 20
473.9580229672848
 30
0.0
 10
92.66076739704253
 20
473.6097355227536
 30
0.0
 10
92.26167087937131
 20
473.4286607527629
 30
0.0
 10
91.288380601194
 20
472.863880654354
 30
0.0
 10
90.9287738822086
 20
472.4564876411396
 30
0.0
 10
90.74024421210407
 20
471.6078089499581
 30
0.0
 10
90.89973182773336
 20
471.1679686682933
 30
0.0
 10
91.71796526338665
 20
470.2759740084306
 30
0.0
 10
92.38434424945532
 20
469.8243639767165
 30
0.0
 10
93.37535348261534
 20
469.3723814948369
 30
0.0
 10
93.45356666875085
 20
469.3377404444327
 30
0.0
 10
93.5337161074806
 20
469.3032893140883
 30
0.0
  0
ARC
  5
98
330
92
100
AcDbEntity
  8
$DDT_AUDIT_GENERATED_(94)
  6
Continuous
 62
     7
100
AcDbCircle
 10
188.87546037
 20
405.4777834231
 30
0.0
 40
124.2470598440608
100
AcDbArc
 50
117.2400518106
 51
124.3287091771
  0
SPLINE
  5
99
330
92
100
AcDbEntity
  8
$DDT_AUDIT_GENERATED_(94)
  6
Continuous
 62
     7
100
AcDbSpline
210
0.0
220
0.0
230
1.0
 70
     8
 71
     3
 72
    18
 73
    14
 74
     0
 42
0.0000000007966879
 43
0.0000000001
 40
0.0
 40
0.0
 40
0.0
 40
0.0
 40
0.125
 40
0.125
 40
0.25
 40
0.25
 40
0.375
 40
0.375
 40
0.5
 40
0.5
 40
0.75
 40
0.75
 40
1.0
 40
1.0
 40
1.0
 40
1.0
 10
91.89129277591874
 20
508.0802841882021
 30
0.0
 10
91.14407219161296
 20
508.0579559869411
 30
0.0
 10
90.4523124912289
 20
508.0281621973659
 30
0.0
 10
89.15055270571787
 20
507.9547790994336
 30
0.0
 10
88.53569699449551
 20
507.9041624209517
 30
0.0
 10
87.36239092041569
 20
507.7765135488338
 30
0.0
 10
86.80373806444743
 20
507.6998038160557
 30
0.0
 10
85.73970125911076
 20
507.5254996759846
 30
0.0
 10
85.23176844184236
 20
507.4241535387318
 30
0.0
 10
83.77207187796458
 20
507.0742266671564
 30
0.0
 10
82.88554136136199
 20
506.7843589183191
 30
0.0
 10
81.27626678688229
 20
506.0796548068421
 30
0.0
 10
80.5494863566779
 20
505.6516149182559
 30
0.0
 10
79.91173828057423
 20
505.1410870210471
 30
0.0
  0
ARC
  5
9A
330
92
100
AcDbEntity
  8
$DDT_AUDIT_GENERATED_(94)
  6
Continuous
 62
     7
100
AcDbCircle
 10
22.2803443271
 20
406.2869661034
 30
0.0
 40
123.3189513037344
100
AcDbArc
 50
55.6338855931
 51
62.7753536117
  0
ARC
  5
9B
330
92
100
AcDbEntity
  8
$DDT_AUDIT_GENERATED_(94)
  6
Continuous
 62
     7
100
AcDbCircle
 10
105.3477193015
 20
525.3016588498
 30
0.0
 40
21.85523186959902
100
AcDbArc
 50
231.9966656439
 51
308.0147757758
  0
SPLINE
  5
9C
330
92
100
AcDbEntity
  8
$DDT_AUDIT_GENERATED_(94)
  6
Continuous
 62
     7
100
AcDbSpline
210
0.0
220
0.0
230
1.0
 70
     8
 71
     3
 72
    20
 73
    16
 74
     0
 42
0.0000000007966283
 43
0.0000000001
 40
0.0
 40
0.0
 40
0.0
 40
0.0
 40
0.2499999999999997
 40
0.2499999999999997
 40
0.3749999999999997
 40
0.3749999999999997
 40
0.4999999999999998
 40
0.4999999999999998
 40
0.6249999999999998
 40
0.6249999999999998
 40
0.7499999999999999
 40
0.7499999999999999
 40
0.8749999999999999
 40
0.8749999999999999
 40
1.0
 40
1.0
 40
1.0
 40
1.0
 10
130.7906175861114
 20
505.1437569437107
 30
0.0
 10
130.1559164880361
 20
505.6519057031745
 30
0.0
 10
129.4305955496215
 20
506.0802048278563
 30
0.0
 10
128.2211307693381
 20
506.610393045984
 30
0.0
 10
127.7971337882337
 20
506.7704683168007
 30
0.0
 10
126.9078587257617
 20
507.0629371543739
 30
0.0
 10
126.4425965605438
 20
507.1945113739063
 30
0.0
 10
125.4696140130084
 20
507.4279749840372
 30
0.0
 10
124.9621811844199
 20
507.529382255424
 30
0.0
 10
123.9005431245976
 20
507.7035808343582
 30
0.0
 10
123.3443039673856
 20
507.7800485825526
 30
0.0
 10
122.1708565506886
 20
507.9077068217402
 30
0.0
 10
121.5534288331021
 20
507.9584774866182
 30
0.0
 10
120.2485107985118
 20
508.0315246867095
 30
0.0
 10
119.5554784437883
 20
508.0610148704687
 30
0.0
 10
118.8075845027465
 20
508.0829716513337
 30
0.0
  0
SPLINE
  5
9D
330
92
100
AcDbEntity
  8
$DDT_AUDIT_GENERATED_(94)
  6
Continuous
 62
     7
100
AcDbSpline
210
0.0
220
0.0
230
1.0
 70
     8
 71
     3
 72
    10
 73
     6
 74
     0
 42
0.0000000046675437
 43
0.0000000001
 40
0.7378431266869723
 40
0.7378431266869723
 40
0.7378431266869723
 40
0.7378431266869723
 40
0.7500000000000012
 40
0.7500000000000012
 40
0.7522340153484437
 40
0.7522340153484437
 40
0.7522340153484437
 40
0.7522340153484437
 10
69.78372983354956
 20
511.5168960120469
 30
0.0
 10
69.79215714073214
 20
511.5174020678144
 30
0.0
 10
69.80079382354214
 20
511.5176869275019
 30
0.0
 10
69.81126724383073
 20
511.5177625821086
 30
0.0
 10
69.81290061916258
 20
511.5177667058345
 30
0.0
 10
69.81454149875668
 20
511.5177632176052
 30
0.0
  0
ARC
  5
9E
330
92
100
AcDbEntity
  8
$DDT_AUDIT_GENERATED_(94)
  6
Continuous
 62
     7
100
AcDbCircle
 10
59.7573352482
 20
507.7048197792
 30
0.0
 40
20.31680799847835
100
AcDbArc
 50
352.7506466542
 51
21.9507936307
  0
SPLINE
  5
9F
330
92
100
AcDbEntity
  8
$DDT_AUDIT_GENERATED_(94)
  6
Continuous
 62
     7
100
AcDbSpline
210
0.0
220
0.0
230
1.0
 70
     8
 71
     3
 72
     8
 73
     4
 74
     0
 42
0.000000004163792
 43
0.0000000001
 40
0.5373675314413249
 40
0.5373675314413249
 40
0.5373675314413249
 40
0.5373675314413249
 40
0.5446020027399011
 40
0.5446020027399011
 40
0.5446020027399011
 40
0.5446020027399011
 10
133.3128404378424
 20
517.7164074548583
 30
0.0
 10
133.311827719091
 20
517.7221108282508
 30
0.0
 10
133.3107519660791
 20
517.7278014061109
 30
0.0
 10
133.3096131846781
 20
517.7334790935978
 30
0.0
  0
SPLINE
  5
A0
330
92
100
AcDbEntity
  8
$DDT_AUDIT_GENERATED_(94)
  6
Continuous
 62
     7
100
AcDbSpline
210
0.0
220
0.0
230
1.0
 70
     8
 71
     3
 72
    18
 73
    14
 74
     0
 42
0.0000000001039314
 43
0.0000000001
 40
0.0
 40
0.0
 40
0.0
 40
0.0
 40
0.0625
 40
0.0625
 40
0.1249999999999999
 40
0.1249999999999999
 40
0.1562499999999999
 40
0.1562499999999999
 40
0.1874999999999999
 40
0.1874999999999999
 40
0.2499999999999999
 40
0.2499999999999999
 40
0.2705983326280733
 40
0.2705983326280733
 40
0.2705983326280733
 40
0.2705983326280733
 10
79.91173828057423
 20
505.1410870210471
 30
0.0
 10
79.79461233104921
 20
503.4644647708479
 30
0.0
 10
79.73041296584222
 20
501.6090343555712
 30
0.0
 10
79.88866389983521
 20
497.6556692387907
 30
0.0
 10
80.1220152939092
 20
495.5154298426211
 30
0.0
 10
80.80922902111797
 20
492.3454202495674
 30
0.0
 10
81.09924073164103
 20
491.2739671529619
 30
0.0
 10
81.78468956826602
 20
489.2199560097271
 30
0.0
 10
82.17667091815092
 20
488.2412731727497
 30
0.0
 10
83.50018305278032
 20
485.4376133959029
 30
0.0
 10
84.58990863795641
 20
483.7388191074456
 30
0.0
 10
86.16897685592815
 20
481.8173967087002
 30
0.0
 10
86.57476301164994
 20
481.3632387725536
 30
0.0
 10
86.99304528445565
 20
480.9308713091892
 30
0.0
  0
SPLINE
  5
A1
330
92
100
AcDbEntity
  8
$DDT_AUDIT_GENERATED_(94)
  6
Continuous
 62
     7
100
AcDbSpline
210
0.0
220
0.0
230
1.0
 70
     8
 71
     3
 72
     8
 73
     4
 74
     0
 42
0.0000000001144476
 43
0.0000000001
 40
0.2705983326280733
 40
0.2705983326280733
 40
0.2705983326280733
 40
0.2705983326280733
 40
0.2755413282580497
 40
0.2755413282580497
 40
0.2755413282580497
 40
0.2755413282580497
 10
86.99304528445565
 20
480.9308713091892
 30
0.0
 10
87.0934207606608
 20
480.8271158004039
 30
0.0
 10
87.19451583728038
 20
480.7246151160683
 30
0.0
 10
87.2963046429497
 20
480.6233646699862
 30
0.0
  0
SPLINE
  5
A2
330
92
100
AcDbEntity
  8
$DDT_AUDIT_GENERATED_(94)
  6
Continuous
 62
     7
100
AcDbSpline
210
0.0
220
0.0
230
1.0
 70
     8
 71
     3
 72
     8
 73
     4
 74
     0
 42
0.0000000001152669
 43
0.0000000001
 40
0.7226344847429758
 40
0.7226344847429758
 40
0.7226344847429758
 40
0.7226344847429758
 40
0.7272978897225294
 40
0.7272978897225294
 40
0.7272978897225294
 40
0.7272978897225294
 10
123.3835927133161
 20
480.5994327497305
 30
0.0
 10
123.4789912891265
 20
480.6940920821786
 30
0.0
 10
123.5738512848023
 20
480.7899353027964
 30
0.0
 10
123.6681682886741
 20
480.8869885873959
 30
0.0
  0
SPLINE
  5
A3
330
92
100
AcDbEntity
  8
$DDT_AUDIT_GENERATED_(94)
  6
Continuous
 62
     7
100
AcDbSpline
210
0.0
220
0.0
230
1.0
 70
     8
 71
     3
 72
    20
 73
    16
 74
     0
 42
0.0000000001045096
 43
0.0000000001
 40
0.7272978897225294
 40
0.7272978897225294
 40
0.7272978897225294
 40
0.7272978897225294
 40
0.7499999999999999
 40
0.7499999999999999
 40
0.8125
 40
0.8125
 40
0.84375
 40
0.84375
 40
0.8749999999999999
 40
0.8749999999999999
 40
0.9062499999999999
 40
0.9062499999999999
 40
0.9374999999999999
 40
0.9374999999999999
 40
1.0
 40
1.0
 40
1.0
 40
1.0
 10
123.6681682886741
 20
480.8869885873959
 30
0.0
 10
124.1273167075493
 20
481.3594576050835
 30
0.0
 10
124.5735968770632
 20
481.8606036763554
 30
0.0
 10
126.1983024414861
 20
483.8603890605752
 30
0.0
 10
127.2574907787695
 20
485.5307124361989
 30
0.0
 10
128.5796789217935
 20
488.3684738508395
 30
0.0
 10
128.964715250157
 20
489.3473426412021
 30
0.0
 10
129.6306583450205
 20
491.3708395586758
 30
0.0
 10
129.9142676431853
 20
492.4292507755881
 30
0.0
 10
130.3661765755394
 20
494.5404295489719
 30
0.0
 10
130.5350287439277
 20
495.5868901359242
 30
0.0
 10
130.7805524974253
 20
497.659673793245
 30
0.0
 10
130.8568266753979
 20
498.6949629431451
 30
0.0
 10
130.9720379873106
 20
501.6672412426495
 30
0.0
 10
130.9072540306458
 20
503.4765725128796
 30
0.0
 10
130.7906175861114
 20
505.1437569437107
 30
0.0
  0
LINE
  5
A4
330
92
100
AcDbEntity
  8
$DDT_AUDIT_GENERATED_(94)
  6
Continuous
 62
     7
100
AcDbLine
 10
199.15
 20
510.0177646117
 30
0.0
 11
199.15
 21
473.0177646117
 31
0.0
  0
LINE
  5
A5
330
92
100
AcDbEntity
  8
$DDT_AUDIT_GENERATED_(94)
  6
Continuous
 62
     7
100
AcDbLine
 10
11.55
 20
473.0177646117
 30
0.0
 11
11.55
 21
510.0177646117
 31
0.0
  0
SPLINE
  5
A6
330
92
100
AcDbEntity
  8
$DDT_AUDIT_GENERATED_(94)
  6
Continuous
 62
     7
100
AcDbSpline
210
0.0
220
0.0
230
1.0
 70
     8
 71
     3
 72
    22
 73
    18
 74
     0
 42
0.0000000001096043
 43
0.0000000001
 40
0.2318004197100196
 40
0.2318004197100196
 40
0.2318004197100196
 40
0.2318004197100196
 40
0.2500000000000001
 40
0.2500000000000001
 40
0.28125
 40
0.28125
 40
0.3125000000000001
 40
0.3125000000000001
 40
0.3437500000000001
 40
0.3437500000000001
 40
0.3750000000000001
 40
0.3750000000000001
 40
0.4062500000000001
 40
0.4062500000000001
 40
0.4375000000000002
 40
0.4375000000000002
 40
0.4532592380708719
 40
0.4532592380708719
 40
0.4532592380708719
 40
0.4532592380708719
 10
131.3292641862481
 20
518.8750640682949
 30
0.0
 10
131.442805093092
 20
518.712081932551
 30
0.0
 10
131.4994193317247
 20
518.5473074292499
 30
0.0
 10
131.5009850905153
 20
518.094714526985
 30
0.0
 10
131.3313829303458
 20
517.8002398426884
 30
0.0
 10
130.6645251304654
 20
517.2227596752508
 30
0.0
 10
130.171059947692
 20
516.9384186425463
 30
0.0
 10
128.8622414748174
 20
516.3798946435255
 30
0.0
 10
128.0435434136324
 20
516.1064037137006
 30
0.0
 10
126.1509291725038
 20
515.5954565165199
 30
0.0
 10
125.0704901210065
 20
515.3547639734184
 30
0.0
 10
122.6308395709825
 20
514.9063180143181
 30
0.0
 10
121.3074489235213
 20
514.7053228835699
 30
0.0
 10
118.4757687112462
 20
514.3522655310275
 30
0.0
 10
116.9480110509695
 20
514.19856646044
 30
0.0
 10
114.5645352948207
 20
514.0124573570787
 30
0.0
 10
113.7539092265841
 20
513.957700060005
 30
0.0
 10
112.9317571754494
 20
513.9106049607105
 30
0.0
  0
SPLINE
  5
A7
330
92
100
AcDbEntity
  8
$DDT_AUDIT_GENERATED_(94)
  6
Continuous
 62
     7
100
AcDbSpline
210
0.0
220
0.0
230
1.0
 70
     8
 71
     3
 72
    20
 73
    16
 74
     0
 42
0.0000000001094617
 43
0.0000000001
 40
0.5469090371897394
 40
0.5469090371897394
 40
0.5469090371897394
 40
0.5469090371897394
 40
0.5625000000000002
 40
0.5625000000000002
 40
0.6250000000000003
 40
0.6250000000000003
 40
0.6562500000000003
 40
0.6562500000000003
 40
0.6875000000000003
 40
0.6875000000000003
 40
0.7187500000000004
 40
0.7187500000000004
 40
0.7500000000000004
 40
0.7500000000000004
 40
0.7679752557544651
 40
0.7679752557544651
 40
0.7679752557544651
 40
0.7679752557544651
 10
97.76742930070134
 20
513.910773013575
 30
0.0
 10
96.94847799591344
 20
513.9576917933615
 30
0.0
 10
96.14341775972531
 20
514.0119918199473
 30
0.0
 10
92.2102511813411
 20
514.3183374970996
 30
0.0
 10
89.2901614643461
 20
514.6831408606799
 30
0.0
 10
85.66995093898865
 20
515.3467099726174
 30
0.0
 10
84.56492155089397
 20
515.5915842064741
 30
0.0
 10
82.66282611879795
 20
516.1042819715844
 30
0.0
 10
81.85866288418389
 20
516.3723851141783
 30
0.0
 10
80.54481072080871
 20
516.9302738687435
 30
0.0
 10
80.0394855506413
 20
517.2203882857395
 30
0.0
 10
79.37223338283208
 20
517.7960190140897
 30
0.0
 10
79.20167988027335
 20
518.0846805948597
 30
0.0
 10
79.1990529809382
 20
518.5403357725899
 30
0.0
 10
79.2543837175567
 20
518.704415122639
 30
0.0
 10
79.36449351559958
 20
518.8656982294231
 30
0.0
  0
SPLINE
  5
A8
330
92
100
AcDbEntity
  8
$DDT_AUDIT_GENERATED_(94)
  6
Continuous
 62
     7
100
AcDbSpline
210
0.0
220
0.0
230
1.0
 70
     8
 71
     3
 72
     8
 73
     4
 74
     0
 42
0.0000000011490834
 43
0.0000000001
 40
0.0
 40
0.0
 40
0.0
 40
0.0
 40
0.0287687221569905
 40
0.0287687221569905
 40
0.0287687221569905
 40
0.0287687221569905
 10
99.64999999999992
 20
507.7078572789072
 30
0.0
 10
99.64999999999992
 20
507.7819295059922
 30
0.0
 10
99.68270313267743
 20
507.8554681864078
 30
0.0
 10
99.74587781064416
 20
507.9274963705861
 30
0.0
  0
SPLINE
  5
A9
330
92
100
AcDbEntity
  8
$DDT_AUDIT_GENERATED_(94)
  6
Continuous
 62
     7
100
AcDbSpline
210
0.0
220
0.0
230
1.0
 70
     8
 71
     3
 72
    16
 73
    12
 74
     0
 42
0.0000000004203621
 43
0.0000000001
 40
0.4730662140418896
 40
0.4730662140418896
 40
0.4730662140418896
 40
0.4730662140418896
 40
0.5
 40
0.5
 40
0.625
 40
0.625
 40
0.75
 40
0.75
 40
0.8750000000000001
 40
0.8750000000000001
 40
1.0
 40
1.0
 40
1.0
 40
1.0
 10
110.9669340903083
 20
507.9121379291126
 30
0.0
 10
111.0217483708377
 20
507.8449218125385
 30
0.0
 10
111.0499257344847
 20
507.7766410764269
 30
0.0
 10
111.0503438072184
 20
507.3902204400036
 30
0.0
 10
110.4347718293575
 20
507.0691611923493
 30
0.0
 10
108.3351275145011
 20
506.6128171704326
 30
0.0
 10
106.8594379222468
 20
506.477218850438
 30
0.0
 10
103.8517502575666
 20
506.4765749196206
 30
0.0
 10
102.3747861449328
 20
506.6114181022062
 30
0.0
 10
100.2686924293553
 20
507.0676574454837
 30
0.0
 10
99.64999999999992
 20
507.3860137039612
 30
0.0
 10
99.64999999999992
 20
507.7078572789072
 30
0.0
  0
SPLINE
  5
AA
330
92
100
AcDbEntity
  8
$DDT_AUDIT_GENERATED_(94)
  6
Continuous
 62
     7
100
AcDbSpline
210
0.0
220
0.0
230
1.0
 70
     8
 71
     3
 72
    28
 73
    24
 74
     0
 42
0.000000000218018
 43
0.0000000001
 40
0.2085080080083384
 40
0.2085080080083384
 40
0.2085080080083384
 40
0.2085080080083384
 40
0.2499999999999985
 40
0.2499999999999985
 40
0.2812499999999986
 40
0.2812499999999986
 40
0.3124999999999986
 40
0.3124999999999986
 40
0.3749999999999987
 40
0.3749999999999987
 40
0.4374999999999988
 40
0.4374999999999988
 40
0.499999999999999
 40
0.499999999999999
 40
0.5624999999999991
 40
0.5624999999999991
 40
0.6249999999999991
 40
0.6249999999999991
 40
0.6874999999999993
 40
0.6874999999999993
 40
0.7499999999999994
 40
0.7499999999999994
 40
0.7909251363443062
 40
0.7909251363443062
 40
0.7909251363443062
 40
0.7909251363443062
 10
93.53326776351469
 20
470.4911992437961
 30
0.0
 10
93.25525965126333
 20
470.7168917339145
 30
0.0
 10
93.10708096124038
 20
470.9248555548964
 30
0.0
 10
93.09511094846364
 20
471.2328659716146
 30
0.0
 10
93.17016284575648
 20
471.3499232803347
 30
0.0
 10
93.47488726624223
 20
471.5430167101129
 30
0.0
 10
93.70306891881418
 20
471.6204888982513
 30
0.0
 10
94.61946827242815
 20
471.8037245700593
 30
0.0
 10
95.52163095120886
 20
471.8549929906638
 30
0.0
 10
97.80659675520032
 20
471.8862966706512
 30
0.0
 10
99.16541501397735
 20
471.8678373096292
 30
0.0
 10
102.1370059574649
 20
471.8377455927724
 30
0.0
 10
103.7543866568389
 20
471.8271078999303
 30
0.0
 10
106.9634390813312
 20
471.8481281990983
 30
0.0
 10
108.583629211001
 20
471.8803341449542
 30
0.0
 10
111.5427912598051
 20
471.9503463618349
 30
0.0
 10
112.9090090844451
 20
471.9875721977558
 30
0.0
 10
115.1752321861368
 20
471.98843780321
 30
0.0
 10
116.0799223872574
 20
471.9507814869673
 30
0.0
 10
117.3045251218528
 20
471.724199808481
 30
0.0
 10
117.6111496985303
 20
471.5362884489516
 30
0.0
 10
117.592186372277
 20
471.0951857431212
 30
0.0
 10
117.4472187698822
 20
470.8887583256055
 30
0.0
 10
117.1753294513255
 20
470.6629029005404
 30
0.0
  0
LINE
  5
AB
330
92
100
AcDbEntity
  8
$DDT_AUDIT_GENERATED_(94)
  6
Continuous
 62
     7
100
AcDbLine
 10
13.05
 20
471.5177646117
 30
0.0
 11
90.1087604996
 21
471.5177646117
 31
0.0
  0
LINE
  5
AC
330
92
100
AcDbEntity
  8
$DDT_AUDIT_GENERATED_(94)
  6
Continuous
 62
     7
100
AcDbLine
 10
120.4872036361
 20
471.5177646117
 30
0.0
 11
197.65
 21
471.5177646117
 31
0.0
  0
LINE
  5
AD
330
92
100
AcDbEntity
  8
$DDT_AUDIT_GENERATED_(94)
  6
Continuous
 62
     7
100
AcDbLine
 10
69.8468558203
 20
511.5177646117
 30
0.0
 11
13.05
 21
511.5177646117
 31
0.0
  0
LINE
  5
AE
330
92
100
AcDbEntity
  8
$DDT_AUDIT_GENERATED_(94)
  6
Continuous
 62
     7
100
AcDbLine
 10
197.65
 20
511.5177646117
 30
0.0
 11
140.8524168129
 21
511.5177646117
 31
0.0
  0
ARC
  5
AF
330
92
100
AcDbEntity
  8
$DDT_AUDIT_GENERATED_(94)
  6
Continuous
 62
     7
100
AcDbCircle
 10
93.7684644045
 20
474.7879151264
 30
0.0
 40
4.932139501263317
100
AcDbArc
 50
191.2675782872
 51
231.9561547046
  0
SPLINE
  5
B0
330
92
100
AcDbEntity
  8
$DDT_AUDIT_GENERATED_(94)
  6
Continuous
 62
     7
100
AcDbSpline
210
0.0
220
0.0
230
1.0
 70
     8
 71
     3
 72
    16
 73
    12
 74
     0
 42
0.0000000011821546
 43
0.0000000001
 40
0.1845188024644833
 40
0.1845188024644833
 40
0.1845188024644833
 40
0.1845188024644833
 40
0.2786548900285182
 40
0.4031910264051109
 40
0.5343199144522162
 40
0.6509771622516839
 40
0.749269661840137
 40
0.8356925657523252
 40
0.9147418382331851
 40
0.9893733623030626
 40
1.0
 40
1.0
 40
1.0
 40
1.0
 10
117.1579321813634
 20
469.4085918141467
 30
0.0
 10
117.4261708235587
 20
469.5184393408181
 30
0.0
 10
118.0177758547372
 20
469.7799506751256
 30
0.0
 10
118.876289430096
 20
470.243642081735
 30
0.0
 10
119.6639893313749
 20
470.7710473663724
 30
0.0
 10
120.3566876331223
 20
471.3508824787536
 30
0.0
 10
120.9031270261737
 20
471.9477359274441
 30
0.0
 10
121.3326808470199
 20
472.5674811221823
 30
0.0
 10
121.6381436589674
 20
473.2193721738664
 30
0.0
 10
121.8180161664865
 20
473.7340251035176
 30
0.0
 10
121.842742576543
 20
474.000213241703
 30
0.0
 10
121.8462929156619
 20
474.0388888648614
 30
0.0
  0
ARC
  5
B1
330
92
100
AcDbEntity
  8
$DDT_AUDIT_GENERATED_(94)
  6
Continuous
 62
     7
100
AcDbCircle
 10
98.1824642573
 20
480.3582150239
 30
0.0
 40
12.03923899626691
100
AcDbArc
 50
231.749506631
 51
247.2697517792
  0
SPLINE
  5
B2
330
92
100
AcDbEntity
  8
$DDT_AUDIT_GENERATED_(94)
  6
Continuous
 62
     7
100
AcDbSpline
210
0.0
220
0.0
230
1.0
 70
     8
 71
     3
 72
    13
 73
     9
 74
     0
 42
0.0000000009968537
 43
0.0000000001
 40
0.7073888653781126
 40
0.7073888653781126
 40
0.7073888653781126
 40
0.7073888653781126
 40
0.7307099909728536
 40
0.8063059776798126
 40
0.872681195168565
 40
0.9279948082331964
 40
0.9769114948768686
 40
1.0
 40
1.0
 40
1.0
 40
1.0
 10
79.37448940224604
 20
519.7237792478337
 30
0.0
 10
79.2955144140547
 20
519.6864807715812
 30
0.0
 10
78.9692714027495
 20
519.52589149234
 30
0.0
 10
78.48490008704984
 20
519.2389209336501
 30
0.0
 10
77.99892798949462
 20
518.8391615320993
 30
0.0
 10
77.66244233444786
 20
518.4227793874556
 30
0.0
 10
77.45685881387065
 20
518.0371901771033
 30
0.0
 10
77.42032416474873
 20
517.8080904337459
 30
0.0
 10
77.40699472866972
 20
517.7213046678537
 30
0.0
  0
SPLINE
  5
B3
330
92
100
AcDbEntity
  8
$DDT_AUDIT_GENERATED_(94)
  6
Continuous
 62
     7
100
AcDbSpline
210
0.0
220
0.0
230
1.0
 70
     8
 71
     3
 72
    13
 73
     9
 74
     0
 42
0.0000000010029058
 43
0.0000000001
 40
0.0
 40
0.0
 40
0.0
 40
0.0
 40
0.0052373636668576
 40
0.0535599337609493
 40
0.1039778414211256
 40
0.1606946656560238
 40
0.2272884460467977
 40
0.2964544526606546
 40
0.2964544526606546
 40
0.2964544526606546
 40
0.2964544526606546
 10
133.3022674921122
 20
517.7113523912118
 30
0.0
 10
133.3010768310407
 20
517.7311459617026
 30
0.0
 10
133.2904390937926
 20
517.9049568803739
 30
0.0
 10
133.1369304396277
 20
518.2396317711018
 30
0.0
 10
132.8703297845042
 20
518.6491055318115
 30
0.0
 10
132.479531767848
 20
519.0320058798485
 30
0.0
 10
131.9727123295861
 20
519.391479847359
 30
0.0
 10
131.5501518110079
 20
519.6168508497454
 30
0.0
 10
131.3170078553691
 20
519.7268576039427
 30
0.0
  0
ARC
  5
B4
330
92
100
AcDbEntity
  8
$DDT_AUDIT_GENERATED_(94)
  6
Continuous
 62
     7
100
AcDbCircle
 10
140.9113384641
 20
519.2460018582
 30
0.0
 40
7.743392984511332
100
AcDbArc
 50
191.260729338
 51
269.760125791
  0
ARC
  5
B5
330
92
100
AcDbEntity
  8
$DDT_AUDIT_GENERATED_(94)
  6
Continuous
 62
     7
100
AcDbCircle
 10
69.7845406396
 20
519.253571436
 30
0.0
 40
7.753042485559024
100
AcDbArc
 50
270.275028628
 51
348.6882487308
  0
ARC
  5
B6
330
92
100
AcDbEntity
  8
$DDT_AUDIT_GENERATED_(94)
  6
Continuous
 62
     7
100
AcDbCircle
 10
197.65
 20
510.0177646117
 30
0.0
 40
1.500000000000001
100
AcDbArc
 50
0.0
 51
90.0
  0
ARC
  5
B7
330
92
100
AcDbEntity
  8
$DDT_AUDIT_GENERATED_(94)
  6
Continuous
 62
     7
100
AcDbCircle
 10
197.65
 20
473.0177646117
 30
0.0
 40
1.500000000000001
100
AcDbArc
 50
270.0
 51
0.0
  0
ARC
  5
B8
330
92
100
AcDbEntity
  8
$DDT_AUDIT_GENERATED_(94)
  6
Continuous
 62
     7
100
AcDbCircle
 10
13.05
 20
473.0177646117
 30
0.0
 40
1.500000000000001
100
AcDbArc
 50
180.0
 51
270.0
  0
ARC
  5
B9
330
92
100
AcDbEntity
  8
$DDT_AUDIT_GENERATED_(94)
  6
Continuous
 62
     7
100
AcDbCircle
 10
13.05
 20
510.0177646117
 30
0.0
 40
1.500000000000001
100
AcDbArc
 50
90.0
 51
180.0
  0
SPLINE
  5
BA
330
92
100
AcDbEntity
  8
$DDT_AUDIT_GENERATED_(94)
  6
Continuous
 62
     7
100
AcDbSpline
210
0.0
220
0.0
230
1.0
 70
     8
 71
     3
 72
    24
 73
    20
 74
     0
 42
0.0000000006648399
 43
0.0000000001
 40
0.4657576652769545
 40
0.4657576652769545
 40
0.4657576652769545
 40
0.4657576652769545
 40
0.4956029038663281
 40
0.5438835490861641
 40
0.5956464178540817
 40
0.6244104981258786
 40
0.6487134555830498
 40
0.6692898879052632
 40
0.6913063639529957
 40
0.7157748903531105
 40
0.7425383628931813
 40
0.7828492025755297
 40
0.8190571672055522
 40
0.8546130485295564
 40
0.8796336317415036
 40
0.9052947533521727
 40
0.9317210791901058
 40
0.9628590883923535
 40
1.0
 40
1.0
 40
1.0
 40
1.0
 10
86.91975585851915
 20
481.5154827723809
 30
0.0
 10
86.91935683115922
 20
481.517192357546
 30
0.0
 10
86.92743425833685
 20
481.5049192776009
 30
0.0
 10
87.0182845767986
 20
481.3254695070679
 30
0.0
 10
87.15952366552182
 20
480.9984481116674
 30
0.0
 10
87.27634755038113
 20
480.6993922646227
 30
0.0
 10
87.3622941734403
 20
480.4658342780876
 30
0.0
 10
87.44200161195535
 20
480.2379811868082
 30
0.0
 10
87.52712702503426
 20
479.9826640705359
 30
0.0
 10
87.6237591049581
 20
479.6764535924126
 30
0.0
 10
87.74695831589749
 20
479.2612961669163
 30
0.0
 10
87.89239245927702
 20
478.7306165833949
 30
0.0
 10
88.06007928223286
 20
478.0653340111672
 30
0.0
 10
88.21211264397066
 20
477.4158063840988
 30
0.0
 10
88.35030425691751
 20
476.7897114275868
 30
0.0
 10
88.4756307056163
 20
476.1952885178016
 30
0.0
 10
88.61103747818812
 20
475.5241175027709
 30
0.0
 10
88.77036349930447
 20
474.699090610894
 30
0.0
 10
88.8735193691126
 20
474.1325446494323
 30
0.0
 10
88.94034930564538
 20
473.7642168515252
 30
0.0
  0
SPLINE
  5
BB
330
92
100
AcDbEntity
  8
$DDT_AUDIT_GENERATED_(94)
  6
Continuous
 62
     7
100
AcDbSpline
210
0.0
220
0.0
230
1.0
 70
     8
 71
     3
 72
    39
 73
    35
 74
     0
 42
0.0000000009311051
 43
0.0000000001
 40
0.0
 40
0.0
 40
0.0
 40
0.0
 40
0.0038754137876589
 40
0.041826185467813
 40
0.0709212930220169
 40
0.0970345218108384
 40
0.1229170852840969
 40
0.1485748721244489
 40
0.1740150645046395
 40
0.2164577612523867
 40
0.2603011201278455
 40
0.3030655027129736
 40
0.3331794158662511
 40
0.3640751473258552
 40
0.4027668739699339
 40
0.4427030230747159
 40
0.4821919299512665
 40
0.5173633314866843
 40
0.5534979726000457
 40
0.5948028337440083
 40
0.6264562142821278
 40
0.6525578913267988
 40
0.6734539534016268
 40
0.6927539331915659
 40
0.7113883385543447
 40
0.7341185677906353
 40
0.7635271691997344
 40
0.7985718626303527
 40
0.830057591201129
 40
0.8562838346181981
 40
0.8814491409099818
 40
0.9146295658422501
 40
0.9558882174176222
 40
1.0
 40
1.0
 40
1.0
 40
1.0
 10
121.8359971655502
 20
473.9765031252117
 30
0.0
 10
121.8426014348673
 20
474.0154997522972
 30
0.0
 10
121.9038897354229
 20
474.3772566532164
 30
0.0
 10
122.0202338322336
 20
475.0147666968159
 30
0.0
 10
122.1664105419137
 20
475.7903852416152
 30
0.0
 10
122.2937974079861
 20
476.4327524073474
 30
0.0
 10
122.414461764085
 20
477.0139109192525
 30
0.0
 10
122.5326467116987
 20
477.555483847827
 30
0.0
 10
122.6737459150827
 20
478.1694990940587
 30
0.0
 10
122.8370151404067
 20
478.8292803418
 30
0.0
 10
123.0127900442548
 20
479.4720383208262
 30
0.0
 10
123.1616482224543
 20
479.960064586588
 30
0.0
 10
123.2875607706303
 20
480.3389335811078
 30
0.0
 10
123.4003532405233
 20
480.655087398606
 30
0.0
 10
123.5194331731756
 20
480.9633423115848
 30
0.0
 10
123.6432812208998
 20
481.2546046997114
 30
0.0
 10
123.7385219336838
 20
481.4544800785284
 30
0.0
 10
123.7721787915448
 20
481.5139901062792
 30
0.0
 10
123.7633609860733
 20
481.4940742038954
 30
0.0
 10
123.73630687384
 20
481.4467587818316
 30
0.0
 10
123.6830884394043
 20
481.3607306051094
 30
0.0
 10
123.6157414825932
 20
481.2579242324809
 30
0.0
 10
123.5295208440187
 20
481.1331410878416
 30
0.0
 10
123.4391930820494
 20
481.0083483164302
 30
0.0
 10
123.3354377831348
 20
480.8705144517183
 30
0.0
 10
123.1917279114388
 20
480.6873712168131
 30
0.0
 10
122.9701819421004
 20
480.4197876705494
 30
0.0
 10
122.6712839121316
 20
480.0854957335391
 30
0.0
 10
122.4110427496211
 20
479.8129634842385
 30
0.0
 10
122.2213348613653
 20
479.6219428337561
 30
0.0
 10
122.1880200201645
 20
479.5812347029048
 30
0.0
 10
122.2388532718145
 20
479.6092122890155
 30
0.0
 10
122.3665189568483
 20
479.6917434691542
 30
0.0
 10
122.4783421716784
 20
479.7660959217729
 30
0.0
 10
122.5492800593477
 20
479.8134292449577
 30
0.0
  0
ELLIPSE
  5
BD
330
92
100
AcDbEntity
  8
$DDT_AUDIT_GENERATED_(BC)
  6
Continuous
 62
     7
100
AcDbEllipse
 10
105.35
 20
464.7771369377
 30
0.0
 11
10.05000000000001
 21
0.0
 31
0.0
210
0.0
220
0.0
230
1.0
 40
0.0713837263
 41
0.0
 42
6.283185307179586
  0
ELLIPSE
  5
BE
330
92
100
AcDbEntity
  8
$DDT_AUDIT_GENERATED_(BC)
  6
Continuous
 62
     7
100
AcDbEllipse
 10
105.35
 20
464.7771369377
 30
0.0
 11
10.75000000000001
 21
0.0
 31
0.0
210
0.0
220
0.0
230
1.0
 40
0.0713837263
 41
0.0
 42
6.283185307179586
  0
LINE
  5
BF
330
92
100
AcDbEntity
  8
$DDT_AUDIT_GENERATED_(BC)
  6
Continuous
 62
     7
100
AcDbLine
 10
116.35
 20
464.8723843189
 30
0.0
 11
116.35
 21
465.2785037646
 31
0.0
  0
ELLIPSE
  5
C0
330
92
100
AcDbEntity
  8
$DDT_AUDIT_GENERATED_(BC)
  6
Continuous
 62
     7
100
AcDbEllipse
 10
105.35
 20
467.7694837212
 30
0.0
 11
-11.80000000000009
 21
-1.387778780781446E-14
 31
0.0
210
0.0
220
0.0
230
1.0
 40
0.0713837263
 41
2.771250021498075
 42
3.511935285681508
  0
LINE
  5
C1
330
92
100
AcDbEntity
  8
$DDT_AUDIT_GENERATED_(BC)
  6
Continuous
 62
     7
100
AcDbLine
 10
116.35
 20
465.2785037646
 30
0.0
 11
116.35
 21
466.2625534747
 31
0.0
  0
LINE
  5
C2
330
92
100
AcDbEntity
  8
$DDT_AUDIT_GENERATED_(BC)
  6
Continuous
 62
     7
100
AcDbLine
 10
116.35
 20
466.2625534747
 30
0.0
 11
116.35
 21
468.0743515739
 31
0.0
  0
LINE
  5
C3
330
92
100
AcDbEntity
  8
$DDT_AUDIT_GENERATED_(BC)
  6
Continuous
 62
     7
100
AcDbLine
 10
94.35
 20
465.2785037646
 30
0.0
 11
94.35
 21
464.8723843189
 31
0.0
  0
ELLIPSE
  5
C4
330
92
100
AcDbEntity
  8
$DDT_AUDIT_GENERATED_(BC)
  6
Continuous
 62
     7
100
AcDbEllipse
 10
105.35
 20
467.7694837212
 30
0.0
 11
11.79999999999976
 21
0.0
 31
0.0
210
0.0
220
0.0
230
1.0
 40
0.0713837263
 41
2.771250021498076
 42
3.511935285681511
  0
LINE
  5
C5
330
92
100
AcDbEntity
  8
$DDT_AUDIT_GENERATED_(BC)
  6
Continuous
 62
     7
100
AcDbLine
 10
94.35
 20
468.0743515739
 30
0.0
 11
94.35
 21
466.2625534747
 31
0.0
  0
LINE
  5
C6
330
92
100
AcDbEntity
  8
$DDT_AUDIT_GENERATED_(BC)
  6
Continuous
 62
     7
100
AcDbLine
 10
94.35
 20
466.2625534747
 30
0.0
 11
94.35
 21
465.2785037646
 31
0.0
  0
LINE
  5
C7
330
92
100
AcDbEntity
  8
$DDT_AUDIT_GENERATED_(BC)
  6
Continuous
 62
     7
100
AcDbLine
 10
94.35
 20
464.8722512881
 30
0.0
 11
94.6829076812
 21
464.68201584
 31
0.0
  0
LINE
  5
C8
330
92
100
AcDbEntity
  8
$DDT_AUDIT_GENERATED_(BC)
  6
Continuous
 62
     7
100
AcDbLine
 10
116.0170923188
 20
464.68201584
 30
0.0
 11
116.35
 21
464.8722512881
 31
0.0
  0
LINE
  5
C9
330
92
100
AcDbEntity
  8
$DDT_AUDIT_GENERATED_(BC)
  6
Continuous
 62
     7
100
AcDbLine
 10
93.55
 20
471.5517759382
 30
0.0
 11
93.55
 21
467.7694837212
 31
0.0
  0
LINE
  5
CA
330
92
100
AcDbEntity
  8
$DDT_AUDIT_GENERATED_(BC)
  6
Continuous
 62
     7
100
AcDbLine
 10
117.15
 20
467.7694837212
 30
0.0
 11
117.15
 21
471.694497229
 31
0.0
  0
ELLIPSE
  5
CC
330
92
100
AcDbEntity
  8
$DDT_AUDIT_GENERATED_(CB)
  6
Continuous
 62
     7
100
AcDbEllipse
 10
105.35
 20
464.8768818305
 30
0.0
 11
8.250000000000007
 21
0.0
 31
0.0
210
0.0
220
0.0
230
1.0
 40
0.0713837263
 41
0.0
 42
6.283185307179586
  0
ELLIPSE
  5
CD
330
92
100
AcDbEntity
  8
$DDT_AUDIT_GENERATED_(CB)
  6
Continuous
 62
     7
100
AcDbEllipse
 10
105.35
 20
464.8768818305
 30
0.0
 11
9.400000000000002
 21
3.469446951953614E-15
 31
0.0
210
0.0
220
0.0
230
1.0
 40
0.0713837263
 41
0.0
 42
0.4191011291348784
  0
ELLIPSE
  5
CE
330
92
100
AcDbEntity
  8
$DDT_AUDIT_GENERATED_(CB)
  6
Continuous
 62
     7
100
AcDbEllipse
 10
105.35
 20
464.8768818305
 30
0.0
 11
9.400000000000002
 21
3.469446951953614E-15
 31
0.0
210
0.0
220
0.0
230
1.0
 40
0.0713837263
 41
2.722491524454908
 42
6.283185307179581
  0
LINE
  5
CF
330
92
100
AcDbEntity
  8
$DDT_AUDIT_GENERATED_(CB)
  6
Continuous
 62
     7
100
AcDbLine
 10
105.85
 20
465.4112981576
 30
0.0
 11
105.85
 21
465.3399144312
 31
0.0
  0
LINE
  5
D0
330
92
100
AcDbEntity
  8
$DDT_AUDIT_GENERATED_(CB)
  6
Continuous
 62
     7
100
AcDbLine
 10
105.85
 20
465.3399144312
 30
0.0
 11
104.85
 21
465.3399144312
 31
0.0
  0
LINE
  5
D1
330
92
100
AcDbEntity
  8
$DDT_AUDIT_GENERATED_(CB)
  6
Continuous
 62
     7
100
AcDbLine
 10
105.85
 20
465.325637686
 30
0.0
 11
105.85
 21
465.2542539597
 31
0.0
  0
LINE
  5
D2
330
92
100
AcDbEntity
  8
$DDT_AUDIT_GENERATED_(CB)
  6
Continuous
 62
     7
100
AcDbLine
 10
105.85
 20
465.2542539597
 30
0.0
 11
104.85
 21
465.2542539597
 31
0.0
  0
LINE
  5
D3
330
92
100
AcDbEntity
  8
$DDT_AUDIT_GENERATED_(CB)
  6
Continuous
 62
     7
100
AcDbLine
 10
104.85
 20
465.325637686
 30
0.0
 11
105.85
 21
465.325637686
 31
0.0
  0
LINE
  5
D4
330
92
100
AcDbEntity
  8
$DDT_AUDIT_GENERATED_(CB)
  6
Continuous
 62
     7
100
AcDbLine
 10
105.85
 20
465.2399772144
 30
0.0
 11
105.85
 21
465.1685934881
 31
0.0
  0
LINE
  5
D5
330
92
100
AcDbEntity
  8
$DDT_AUDIT_GENERATED_(CB)
  6
Continuous
 62
     7
100
AcDbLine
 10
105.85
 20
465.1685934881
 30
0.0
 11
104.85
 21
465.1685934881
 31
0.0
  0
LINE
  5
D6
330
92
100
AcDbEntity
  8
$DDT_AUDIT_GENERATED_(CB)
  6
Continuous
 62
     7
100
AcDbLine
 10
104.85
 20
465.2399772144
 30
0.0
 11
105.85
 21
465.2399772144
 31
0.0
  0
LINE
  5
D7
330
92
100
AcDbEntity
  8
$DDT_AUDIT_GENERATED_(CB)
  6
Continuous
 62
     7
100
AcDbLine
 10
105.85
 20
465.1543167428
 30
0.0
 11
105.85
 21
465.0829330165
 31
0.0
  0
LINE
  5
D8
330
92
100
AcDbEntity
  8
$DDT_AUDIT_GENERATED_(CB)
  6
Continuous
 62
     7
100
AcDbLine
 10
105.85
 20
465.0829330165
 30
0.0
 11
104.85
 21
465.0829330165
 31
0.0
  0
LINE
  5
D9
330
92
100
AcDbEntity
  8
$DDT_AUDIT_GENERATED_(CB)
  6
Continuous
 62
     7
100
AcDbLine
 10
104.85
 20
465.1543167428
 30
0.0
 11
105.85
 21
465.1543167428
 31
0.0
  0
LINE
  5
DA
330
92
100
AcDbEntity
  8
$DDT_AUDIT_GENERATED_(CB)
  6
Continuous
 62
     7
100
AcDbLine
 10
105.85
 20
465.0686562712
 30
0.0
 11
105.85
 21
464.9972725449
 31
0.0
  0
LINE
  5
DB
330
92
100
AcDbEntity
  8
$DDT_AUDIT_GENERATED_(CB)
  6
Continuous
 62
     7
100
AcDbLine
 10
105.85
 20
464.9972725449
 30
0.0
 11
104.85
 21
464.9972725449
 31
0.0
  0
LINE
  5
DC
330
92
100
AcDbEntity
  8
$DDT_AUDIT_GENERATED_(CB)
  6
Continuous
 62
     7
100
AcDbLine
 10
104.85
 20
465.0686562712
 30
0.0
 11
105.85
 21
465.0686562712
 31
0.0
  0
LINE
  5
DD
330
92
100
AcDbEntity
  8
$DDT_AUDIT_GENERATED_(CB)
  6
Continuous
 62
     7
100
AcDbLine
 10
105.85
 20
464.9829957997
 30
0.0
 11
105.85
 21
464.9116120733
 31
0.0
  0
LINE
  5
DE
330
92
100
AcDbEntity
  8
$DDT_AUDIT_GENERATED_(CB)
  6
Continuous
 62
     7
100
AcDbLine
 10
105.85
 20
464.9116120733
 30
0.0
 11
104.85
 21
464.9116120733
 31
0.0
  0
LINE
  5
DF
330
92
100
AcDbEntity
  8
$DDT_AUDIT_GENERATED_(CB)
  6
Continuous
 62
     7
100
AcDbLine
 10
104.85
 20
464.9829957997
 30
0.0
 11
105.85
 21
464.9829957997
 31
0.0
  0
LINE
  5
E0
330
92
100
AcDbEntity
  8
$DDT_AUDIT_GENERATED_(CB)
  6
Continuous
 62
     7
100
AcDbLine
 10
105.85
 20
464.8259516018
 30
0.0
 11
104.85
 21
464.8259516018
 31
0.0
  0
LINE
  5
E1
330
92
100
AcDbEntity
  8
$DDT_AUDIT_GENERATED_(CB)
  6
Continuous
 62
     7
100
AcDbLine
 10
105.85
 20
464.8973353281
 30
0.0
 11
105.85
 21
464.8259516018
 31
0.0
  0
LINE
  5
E2
330
92
100
AcDbEntity
  8
$DDT_AUDIT_GENERATED_(CB)
  6
Continuous
 62
     7
100
AcDbLine
 10
104.85
 20
464.8973353281
 30
0.0
 11
105.85
 21
464.8973353281
 31
0.0
  0
LINE
  5
E3
330
92
100
AcDbEntity
  8
$DDT_AUDIT_GENERATED_(CB)
  6
Continuous
 62
     7
100
AcDbLine
 10
107.05
 20
465.4112981576
 30
0.0
 11
107.05
 21
465.3399144312
 31
0.0
  0
LINE
  5
E4
330
92
100
AcDbEntity
  8
$DDT_AUDIT_GENERATED_(CB)
  6
Continuous
 62
     7
100
AcDbLine
 10
107.05
 20
465.3399144312
 30
0.0
 11
106.05
 21
465.3399144312
 31
0.0
  0
LINE
  5
E5
330
92
100
AcDbEntity
  8
$DDT_AUDIT_GENERATED_(CB)
  6
Continuous
 62
     7
100
AcDbLine
 10
106.05
 20
465.3399144312
 30
0.0
 11
106.05
 21
465.4112981576
 31
0.0
  0
LINE
  5
E6
330
92
100
AcDbEntity
  8
$DDT_AUDIT_GENERATED_(CB)
  6
Continuous
 62
     7
100
AcDbLine
 10
107.05
 20
465.325637686
 30
0.0
 11
107.05
 21
465.2542539597
 31
0.0
  0
LINE
  5
E7
330
92
100
AcDbEntity
  8
$DDT_AUDIT_GENERATED_(CB)
  6
Continuous
 62
     7
100
AcDbLine
 10
107.05
 20
465.2542539597
 30
0.0
 11
106.05
 21
465.2542539597
 31
0.0
  0
LINE
  5
E8
330
92
100
AcDbEntity
  8
$DDT_AUDIT_GENERATED_(CB)
  6
Continuous
 62
     7
100
AcDbLine
 10
106.05
 20
465.2542539597
 30
0.0
 11
106.05
 21
465.325637686
 31
0.0
  0
LINE
  5
E9
330
92
100
AcDbEntity
  8
$DDT_AUDIT_GENERATED_(CB)
  6
Continuous
 62
     7
100
AcDbLine
 10
106.05
 20
465.325637686
 30
0.0
 11
107.05
 21
465.325637686
 31
0.0
  0
LINE
  5
EA
330
92
100
AcDbEntity
  8
$DDT_AUDIT_GENERATED_(CB)
  6
Continuous
 62
     7
100
AcDbLine
 10
107.05
 20
465.2399772144
 30
0.0
 11
107.05
 21
465.1685934881
 31
0.0
  0
LINE
  5
EB
330
92
100
AcDbEntity
  8
$DDT_AUDIT_GENERATED_(CB)
  6
Continuous
 62
     7
100
AcDbLine
 10
107.05
 20
465.1685934881
 30
0.0
 11
106.05
 21
465.1685934881
 31
0.0
  0
LINE
  5
EC
330
92
100
AcDbEntity
  8
$DDT_AUDIT_GENERATED_(CB)
  6
Continuous
 62
     7
100
AcDbLine
 10
106.05
 20
465.1685934881
 30
0.0
 11
106.05
 21
465.2399772144
 31
0.0
  0
LINE
  5
ED
330
92
100
AcDbEntity
  8
$DDT_AUDIT_GENERATED_(CB)
  6
Continuous
 62
     7
100
AcDbLine
 10
106.05
 20
465.2399772144
 30
0.0
 11
107.05
 21
465.2399772144
 31
0.0
  0
LINE
  5
EE
330
92
100
AcDbEntity
  8
$DDT_AUDIT_GENERATED_(CB)
  6
Continuous
 62
     7
100
AcDbLine
 10
107.05
 20
465.1543167428
 30
0.0
 11
107.05
 21
465.0829330165
 31
0.0
  0
LINE
  5
EF
330
92
100
AcDbEntity
  8
$DDT_AUDIT_GENERATED_(CB)
  6
Continuous
 62
     7
100
AcDbLine
 10
107.05
 20
465.0829330165
 30
0.0
 11
106.05
 21
465.0829330165
 31
0.0
  0
LINE
  5
F0
330
92
100
AcDbEntity
  8
$DDT_AUDIT_GENERATED_(CB)
  6
Continuous
 62
     7
100
AcDbLine
 10
106.05
 20
465.0829330165
 30
0.0
 11
106.05
 21
465.1543167428
 31
0.0
  0
LINE
  5
F1
330
92
100
AcDbEntity
  8
$DDT_AUDIT_GENERATED_(CB)
  6
Continuous
 62
     7
100
AcDbLine
 10
106.05
 20
465.1543167428
 30
0.0
 11
107.05
 21
465.1543167428
 31
0.0
  0
LINE
  5
F2
330
92
100
AcDbEntity
  8
$DDT_AUDIT_GENERATED_(CB)
  6
Continuous
 62
     7
100
AcDbLine
 10
107.05
 20
465.0686562712
 30
0.0
 11
107.05
 21
464.9972725449
 31
0.0
  0
LINE
  5
F3
330
92
100
AcDbEntity
  8
$DDT_AUDIT_GENERATED_(CB)
  6
Continuous
 62
     7
100
AcDbLine
 10
107.05
 20
464.9972725449
 30
0.0
 11
106.05
 21
464.9972725449
 31
0.0
  0
LINE
  5
F4
330
92
100
AcDbEntity
  8
$DDT_AUDIT_GENERATED_(CB)
  6
Continuous
 62
     7
100
AcDbLine
 10
106.05
 20
464.9972725449
 30
0.0
 11
106.05
 21
465.0686562712
 31
0.0
  0
LINE
  5
F5
330
92
100
AcDbEntity
  8
$DDT_AUDIT_GENERATED_(CB)
  6
Continuous
 62
     7
100
AcDbLine
 10
106.05
 20
465.0686562712
 30
0.0
 11
107.05
 21
465.0686562712
 31
0.0
  0
LINE
  5
F6
330
92
100
AcDbEntity
  8
$DDT_AUDIT_GENERATED_(CB)
  6
Continuous
 62
     7
100
AcDbLine
 10
107.05
 20
464.9829957997
 30
0.0
 11
107.05
 21
464.9116120733
 31
0.0
  0
LINE
  5
F7
330
92
100
AcDbEntity
  8
$DDT_AUDIT_GENERATED_(CB)
  6
Continuous
 62
     7
100
AcDbLine
 10
107.05
 20
464.9116120733
 30
0.0
 11
106.05
 21
464.9116120733
 31
0.0
  0
LINE
  5
F8
330
92
100
AcDbEntity
  8
$DDT_AUDIT_GENERATED_(CB)
  6
Continuous
 62
     7
100
AcDbLine
 10
106.05
 20
464.9116120733
 30
0.0
 11
106.05
 21
464.9829957997
 31
0.0
  0
LINE
  5
F9
330
92
100
AcDbEntity
  8
$DDT_AUDIT_GENERATED_(CB)
  6
Continuous
 62
     7
100
AcDbLine
 10
106.05
 20
464.9829957997
 30
0.0
 11
107.05
 21
464.9829957997
 31
0.0
  0
LINE
  5
FA
330
92
100
AcDbEntity
  8
$DDT_AUDIT_GENERATED_(CB)
  6
Continuous
 62
     7
100
AcDbLine
 10
107.05
 20
464.8973353281
 30
0.0
 11
107.05
 21
464.8259516018
 31
0.0
  0
LINE
  5
FB
330
92
100
AcDbEntity
  8
$DDT_AUDIT_GENERATED_(CB)
  6
Continuous
 62
     7
100
AcDbLine
 10
107.05
 20
464.8259516018
 30
0.0
 11
106.05
 21
464.8259516018
 31
0.0
  0
LINE
  5
FC
330
92
100
AcDbEntity
  8
$DDT_AUDIT_GENERATED_(CB)
  6
Continuous
 62
     7
100
AcDbLine
 10
106.05
 20
464.8259516018
 30
0.0
 11
106.05
 21
464.8973353281
 31
0.0
  0
LINE
  5
FD
330
92
100
AcDbEntity
  8
$DDT_AUDIT_GENERATED_(CB)
  6
Continuous
 62
     7
100
AcDbLine
 10
106.05
 20
464.8973353281
 30
0.0
 11
107.05
 21
464.8973353281
 31
0.0
  0
LINE
  5
FE
330
92
100
AcDbEntity
  8
$DDT_AUDIT_GENERATED_(CB)
  6
Continuous
 62
     7
100
AcDbLine
 10
108.25
 20
465.4112981576
 30
0.0
 11
108.25
 21
465.3399144312
 31
0.0
  0
LINE
  5
FF
330
92
100
AcDbEntity
  8
$DDT_AUDIT_GENERATED_(CB)
  6
Continuous
 62
     7
100
AcDbLine
 10
108.25
 20
465.3399144312
 30
0.0
 11
107.25
 21
465.3399144312
 31
0.0
  0
LINE
  5
100
330
92
100
AcDbEntity
  8
$DDT_AUDIT_GENERATED_(CB)
  6
Continuous
 62
     7
100
AcDbLine
 10
107.25
 20
465.3399144312
 30
0.0
 11
107.25
 21
465.4112981576
 31
0.0
  0
LINE
  5
101
330
92
100
AcDbEntity
  8
$DDT_AUDIT_GENERATED_(CB)
  6
Continuous
 62
     7
100
AcDbLine
 10
108.25
 20
465.325637686
 30
0.0
 11
108.25
 21
465.2542539597
 31
0.0
  0
LINE
  5
102
330
92
100
AcDbEntity
  8
$DDT_AUDIT_GENERATED_(CB)
  6
Continuous
 62
     7
100
AcDbLine
 10
108.25
 20
465.2542539597
 30
0.0
 11
107.25
 21
465.2542539597
 31
0.0
  0
LINE
  5
103
330
92
100
AcDbEntity
  8
$DDT_AUDIT_GENERATED_(CB)
  6
Continuous
 62
     7
100
AcDbLine
 10
107.25
 20
465.2542539597
 30
0.0
 11
107.25
 21
465.325637686
 31
0.0
  0
LINE
  5
104
330
92
100
AcDbEntity
  8
$DDT_AUDIT_GENERATED_(CB)
  6
Continuous
 62
     7
100
AcDbLine
 10
107.25
 20
465.325637686
 30
0.0
 11
108.25
 21
465.325637686
 31
0.0
  0
LINE
  5
105
330
92
100
AcDbEntity
  8
$DDT_AUDIT_GENERATED_(CB)
  6
Continuous
 62
     7
100
AcDbLine
 10
108.25
 20
465.2399772144
 30
0.0
 11
108.25
 21
465.1685934881
 31
0.0
  0
LINE
  5
106
330
92
100
AcDbEntity
  8
$DDT_AUDIT_GENERATED_(CB)
  6
Continuous
 62
     7
100
AcDbLine
 10
108.25
 20
465.1685934881
 30
0.0
 11
107.25
 21
465.1685934881
 31
0.0
  0
LINE
  5
107
330
92
100
AcDbEntity
  8
$DDT_AUDIT_GENERATED_(CB)
  6
Continuous
 62
     7
100
AcDbLine
 10
107.25
 20
465.1685934881
 30
0.0
 11
107.25
 21
465.2399772144
 31
0.0
  0
LINE
  5
108
330
92
100
AcDbEntity
  8
$DDT_AUDIT_GENERATED_(CB)
  6
Continuous
 62
     7
100
AcDbLine
 10
107.25
 20
465.2399772144
 30
0.0
 11
108.25
 21
465.2399772144
 31
0.0
  0
LINE
  5
109
330
92
100
AcDbEntity
  8
$DDT_AUDIT_GENERATED_(CB)
  6
Continuous
 62
     7
100
AcDbLine
 10
108.25
 20
465.1543167428
 30
0.0
 11
108.25
 21
465.0829330165
 31
0.0
  0
LINE
  5
10A
330
92
100
AcDbEntity
  8
$DDT_AUDIT_GENERATED_(CB)
  6
Continuous
 62
     7
100
AcDbLine
 10
108.25
 20
465.0829330165
 30
0.0
 11
107.25
 21
465.0829330165
 31
0.0
  0
LINE
  5
10B
330
92
100
AcDbEntity
  8
$DDT_AUDIT_GENERATED_(CB)
  6
Continuous
 62
     7
100
AcDbLine
 10
107.25
 20
465.0829330165
 30
0.0
 11
107.25
 21
465.1543167428
 31
0.0
  0
LINE
  5
10C
330
92
100
AcDbEntity
  8
$DDT_AUDIT_GENERATED_(CB)
  6
Continuous
 62
     7
100
AcDbLine
 10
107.25
 20
465.1543167428
 30
0.0
 11
108.25
 21
465.1543167428
 31
0.0
  0
LINE
  5
10D
330
92
100
AcDbEntity
  8
$DDT_AUDIT_GENERATED_(CB)
  6
Continuous
 62
     7
100
AcDbLine
 10
108.25
 20
465.0686562712
 30
0.0
 11
108.25
 21
464.9972725449
 31
0.0
  0
LINE
  5
10E
330
92
100
AcDbEntity
  8
$DDT_AUDIT_GENERATED_(CB)
  6
Continuous
 62
     7
100
AcDbLine
 10
108.25
 20
464.9972725449
 30
0.0
 11
107.25
 21
464.9972725449
 31
0.0
  0
LINE
  5
10F
330
92
100
AcDbEntity
  8
$DDT_AUDIT_GENERATED_(CB)
  6
Continuous
 62
     7
100
AcDbLine
 10
107.25
 20
464.9972725449
 30
0.0
 11
107.25
 21
465.0686562712
 31
0.0
  0
LINE
  5
110
330
92
100
AcDbEntity
  8
$DDT_AUDIT_GENERATED_(CB)
  6
Continuous
 62
     7
100
AcDbLine
 10
107.25
 20
465.0686562712
 30
0.0
 11
108.25
 21
465.0686562712
 31
0.0
  0
LINE
  5
111
330
92
100
AcDbEntity
  8
$DDT_AUDIT_GENERATED_(CB)
  6
Continuous
 62
     7
100
AcDbLine
 10
108.25
 20
464.9829957997
 30
0.0
 11
108.25
 21
464.9116120733
 31
0.0
  0
LINE
  5
112
330
92
100
AcDbEntity
  8
$DDT_AUDIT_GENERATED_(CB)
  6
Continuous
 62
     7
100
AcDbLine
 10
108.25
 20
464.9116120733
 30
0.0
 11
107.25
 21
464.9116120733
 31
0.0
  0
LINE
  5
113
330
92
100
AcDbEntity
  8
$DDT_AUDIT_GENERATED_(CB)
  6
Continuous
 62
     7
100
AcDbLine
 10
107.25
 20
464.9116120733
 30
0.0
 11
107.25
 21
464.9829957997
 31
0.0
  0
LINE
  5
114
330
92
100
AcDbEntity
  8
$DDT_AUDIT_GENERATED_(CB)
  6
Continuous
 62
     7
100
AcDbLine
 10
107.25
 20
464.9829957997
 30
0.0
 11
108.25
 21
464.9829957997
 31
0.0
  0
LINE
  5
115
330
92
100
AcDbEntity
  8
$DDT_AUDIT_GENERATED_(CB)
  6
Continuous
 62
     7
100
AcDbLine
 10
109.45
 20
465.3879240046
 30
0.0
 11
109.45
 21
465.3399144312
 31
0.0
  0
LINE
  5
116
330
92
100
AcDbEntity
  8
$DDT_AUDIT_GENERATED_(CB)
  6
Continuous
 62
     7
100
AcDbLine
 10
109.45
 20
465.3399144312
 30
0.0
 11
108.45
 21
465.3399144312
 31
0.0
  0
LINE
  5
117
330
92
100
AcDbEntity
  8
$DDT_AUDIT_GENERATED_(CB)
  6
Continuous
 62
     7
100
AcDbLine
 10
108.45
 20
465.3399144312
 30
0.0
 11
108.45
 21
465.4112981576
 31
0.0
  0
LINE
  5
118
330
92
100
AcDbEntity
  8
$DDT_AUDIT_GENERATED_(CB)
  6
Continuous
 62
     7
100
AcDbLine
 10
109.45
 20
465.325637686
 30
0.0
 11
109.45
 21
465.2542539597
 31
0.0
  0
LINE
  5
119
330
92
100
AcDbEntity
  8
$DDT_AUDIT_GENERATED_(CB)
  6
Continuous
 62
     7
100
AcDbLine
 10
109.45
 20
465.2542539597
 30
0.0
 11
108.45
 21
465.2542539597
 31
0.0
  0
LINE
  5
11A
330
92
100
AcDbEntity
  8
$DDT_AUDIT_GENERATED_(CB)
  6
Continuous
 62
     7
100
AcDbLine
 10
108.45
 20
465.2542539597
 30
0.0
 11
108.45
 21
465.325637686
 31
0.0
  0
LINE
  5
11B
330
92
100
AcDbEntity
  8
$DDT_AUDIT_GENERATED_(CB)
  6
Continuous
 62
     7
100
AcDbLine
 10
108.45
 20
465.325637686
 30
0.0
 11
109.45
 21
465.325637686
 31
0.0
  0
LINE
  5
11C
330
92
100
AcDbEntity
  8
$DDT_AUDIT_GENERATED_(CB)
  6
Continuous
 62
     7
100
AcDbLine
 10
109.45
 20
465.2399772144
 30
0.0
 11
109.45
 21
465.1685934881
 31
0.0
  0
LINE
  5
11D
330
92
100
AcDbEntity
  8
$DDT_AUDIT_GENERATED_(CB)
  6
Continuous
 62
     7
100
AcDbLine
 10
109.45
 20
465.1685934881
 30
0.0
 11
108.45
 21
465.1685934881
 31
0.0
  0
LINE
  5
11E
330
92
100
AcDbEntity
  8
$DDT_AUDIT_GENERATED_(CB)
  6
Continuous
 62
     7
100
AcDbLine
 10
108.45
 20
465.1685934881
 30
0.0
 11
108.45
 21
465.2399772144
 31
0.0
  0
LINE
  5
11F
330
92
100
AcDbEntity
  8
$DDT_AUDIT_GENERATED_(CB)
  6
Continuous
 62
     7
100
AcDbLine
 10
108.45
 20
465.2399772144
 30
0.0
 11
109.45
 21
465.2399772144
 31
0.0
  0
LINE
  5
120
330
92
100
AcDbEntity
  8
$DDT_AUDIT_GENERATED_(CB)
  6
Continuous
 62
     7
100
AcDbLine
 10
109.45
 20
465.1543167428
 30
0.0
 11
109.45
 21
465.0829330165
 31
0.0
  0
LINE
  5
121
330
92
100
AcDbEntity
  8
$DDT_AUDIT_GENERATED_(CB)
  6
Continuous
 62
     7
100
AcDbLine
 10
109.45
 20
465.0829330165
 30
0.0
 11
108.45
 21
465.0829330165
 31
0.0
  0
LINE
  5
122
330
92
100
AcDbEntity
  8
$DDT_AUDIT_GENERATED_(CB)
  6
Continuous
 62
     7
100
AcDbLine
 10
108.45
 20
465.0829330165
 30
0.0
 11
108.45
 21
465.1543167428
 31
0.0
  0
LINE
  5
123
330
92
100
AcDbEntity
  8
$DDT_AUDIT_GENERATED_(CB)
  6
Continuous
 62
     7
100
AcDbLine
 10
108.45
 20
465.1543167428
 30
0.0
 11
109.45
 21
465.1543167428
 31
0.0
  0
LINE
  5
124
330
92
100
AcDbEntity
  8
$DDT_AUDIT_GENERATED_(CB)
  6
Continuous
 62
     7
100
AcDbLine
 10
109.45
 20
465.0686562712
 30
0.0
 11
109.45
 21
464.9972725449
 31
0.0
  0
LINE
  5
125
330
92
100
AcDbEntity
  8
$DDT_AUDIT_GENERATED_(CB)
  6
Continuous
 62
     7
100
AcDbLine
 10
109.45
 20
464.9972725449
 30
0.0
 11
108.45
 21
464.9972725449
 31
0.0
  0
LINE
  5
126
330
92
100
AcDbEntity
  8
$DDT_AUDIT_GENERATED_(CB)
  6
Continuous
 62
     7
100
AcDbLine
 10
108.45
 20
464.9972725449
 30
0.0
 11
108.45
 21
465.0686562712
 31
0.0
  0
LINE
  5
127
330
92
100
AcDbEntity
  8
$DDT_AUDIT_GENERATED_(CB)
  6
Continuous
 62
     7
100
AcDbLine
 10
108.45
 20
465.0686562712
 30
0.0
 11
109.45
 21
465.0686562712
 31
0.0
  0
LINE
  5
128
330
92
100
AcDbEntity
  8
$DDT_AUDIT_GENERATED_(CB)
  6
Continuous
 62
     7
100
AcDbLine
 10
109.45
 20
464.9116120733
 30
0.0
 11
108.45
 21
464.9116120733
 31
0.0
  0
LINE
  5
129
330
92
100
AcDbEntity
  8
$DDT_AUDIT_GENERATED_(CB)
  6
Continuous
 62
     7
100
AcDbLine
 10
109.45
 20
464.9829957997
 30
0.0
 11
109.45
 21
464.9116120733
 31
0.0
  0
LINE
  5
12A
330
92
100
AcDbEntity
  8
$DDT_AUDIT_GENERATED_(CB)
  6
Continuous
 62
     7
100
AcDbLine
 10
108.45
 20
464.9116120733
 30
0.0
 11
108.45
 21
464.9829957997
 31
0.0
  0
LINE
  5
12B
330
92
100
AcDbEntity
  8
$DDT_AUDIT_GENERATED_(CB)
  6
Continuous
 62
     7
100
AcDbLine
 10
108.45
 20
464.9829957997
 30
0.0
 11
109.45
 21
464.9829957997
 31
0.0
  0
LINE
  5
12C
330
92
100
AcDbEntity
  8
$DDT_AUDIT_GENERATED_(CB)
  6
Continuous
 62
     7
100
AcDbLine
 10
110.4477880861
 20
465.3399144312
 30
0.0
 11
109.65
 21
465.3399144312
 31
0.0
  0
LINE
  5
12D
330
92
100
AcDbEntity
  8
$DDT_AUDIT_GENERATED_(CB)
  6
Continuous
 62
     7
100
AcDbLine
 10
109.65
 20
465.3399144312
 30
0.0
 11
109.65
 21
465.3794785223
 31
0.0
  0
LINE
  5
12E
330
92
100
AcDbEntity
  8
$DDT_AUDIT_GENERATED_(CB)
  6
Continuous
 62
     7
100
AcDbLine
 10
110.65
 20
465.325637686
 30
0.0
 11
110.65
 21
465.2542539597
 31
0.0
  0
LINE
  5
12F
330
92
100
AcDbEntity
  8
$DDT_AUDIT_GENERATED_(CB)
  6
Continuous
 62
     7
100
AcDbLine
 10
110.65
 20
465.2542539597
 30
0.0
 11
109.65
 21
465.2542539597
 31
0.0
  0
LINE
  5
130
330
92
100
AcDbEntity
  8
$DDT_AUDIT_GENERATED_(CB)
  6
Continuous
 62
     7
100
AcDbLine
 10
109.65
 20
465.2542539597
 30
0.0
 11
109.65
 21
465.325637686
 31
0.0
  0
LINE
  5
131
330
92
100
AcDbEntity
  8
$DDT_AUDIT_GENERATED_(CB)
  6
Continuous
 62
     7
100
AcDbLine
 10
109.65
 20
465.325637686
 30
0.0
 11
110.65
 21
465.325637686
 31
0.0
  0
LINE
  5
132
330
92
100
AcDbEntity
  8
$DDT_AUDIT_GENERATED_(CB)
  6
Continuous
 62
     7
100
AcDbLine
 10
110.65
 20
465.2399772144
 30
0.0
 11
110.65
 21
465.1685934881
 31
0.0
  0
LINE
  5
133
330
92
100
AcDbEntity
  8
$DDT_AUDIT_GENERATED_(CB)
  6
Continuous
 62
     7
100
AcDbLine
 10
110.65
 20
465.1685934881
 30
0.0
 11
109.65
 21
465.1685934881
 31
0.0
  0
LINE
  5
134
330
92
100
AcDbEntity
  8
$DDT_AUDIT_GENERATED_(CB)
  6
Continuous
 62
     7
100
AcDbLine
 10
109.65
 20
465.1685934881
 30
0.0
 11
109.65
 21
465.2399772144
 31
0.0
  0
LINE
  5
135
330
92
100
AcDbEntity
  8
$DDT_AUDIT_GENERATED_(CB)
  6
Continuous
 62
     7
100
AcDbLine
 10
109.65
 20
465.2399772144
 30
0.0
 11
110.65
 21
465.2399772144
 31
0.0
  0
LINE
  5
136
330
92
100
AcDbEntity
  8
$DDT_AUDIT_GENERATED_(CB)
  6
Continuous
 62
     7
100
AcDbLine
 10
110.65
 20
465.1543167428
 30
0.0
 11
110.65
 21
465.0829330165
 31
0.0
  0
LINE
  5
137
330
92
100
AcDbEntity
  8
$DDT_AUDIT_GENERATED_(CB)
  6
Continuous
 62
     7
100
AcDbLine
 10
110.65
 20
465.0829330165
 30
0.0
 11
109.65
 21
465.0829330165
 31
0.0
  0
LINE
  5
138
330
92
100
AcDbEntity
  8
$DDT_AUDIT_GENERATED_(CB)
  6
Continuous
 62
     7
100
AcDbLine
 10
109.65
 20
465.0829330165
 30
0.0
 11
109.65
 21
465.1543167428
 31
0.0
  0
LINE
  5
139
330
92
100
AcDbEntity
  8
$DDT_AUDIT_GENERATED_(CB)
  6
Continuous
 62
     7
100
AcDbLine
 10
109.65
 20
465.1543167428
 30
0.0
 11
110.65
 21
465.1543167428
 31
0.0
  0
LINE
  5
13A
330
92
100
AcDbEntity
  8
$DDT_AUDIT_GENERATED_(CB)
  6
Continuous
 62
     7
100
AcDbLine
 10
110.65
 20
465.0686562712
 30
0.0
 11
110.65
 21
464.9972725449
 31
0.0
  0
LINE
  5
13B
330
92
100
AcDbEntity
  8
$DDT_AUDIT_GENERATED_(CB)
  6
Continuous
 62
     7
100
AcDbLine
 10
110.65
 20
464.9972725449
 30
0.0
 11
109.65
 21
464.9972725449
 31
0.0
  0
LINE
  5
13C
330
92
100
AcDbEntity
  8
$DDT_AUDIT_GENERATED_(CB)
  6
Continuous
 62
     7
100
AcDbLine
 10
109.65
 20
464.9972725449
 30
0.0
 11
109.65
 21
465.0686562712
 31
0.0
  0
LINE
  5
13D
330
92
100
AcDbEntity
  8
$DDT_AUDIT_GENERATED_(CB)
  6
Continuous
 62
     7
100
AcDbLine
 10
109.65
 20
465.0686562712
 30
0.0
 11
110.65
 21
465.0686562712
 31
0.0
  0
LINE
  5
13E
330
92
100
AcDbEntity
  8
$DDT_AUDIT_GENERATED_(CB)
  6
Continuous
 62
     7
100
AcDbLine
 10
111.6836492349
 20
465.2542539597
 30
0.0
 11
110.85
 21
465.2542539597
 31
0.0
  0
LINE
  5
13F
330
92
100
AcDbEntity
  8
$DDT_AUDIT_GENERATED_(CB)
  6
Continuous
 62
     7
100
AcDbLine
 10
110.85
 20
465.2542539597
 30
0.0
 11
110.85
 21
465.3158337079
 31
0.0
  0
LINE
  5
140
330
92
100
AcDbEntity
  8
$DDT_AUDIT_GENERATED_(CB)
  6
Continuous
 62
     7
100
AcDbLine
 10
111.85
 20
465.239554016
 30
0.0
 11
111.85
 21
465.1685934881
 31
0.0
  0
LINE
  5
141
330
92
100
AcDbEntity
  8
$DDT_AUDIT_GENERATED_(CB)
  6
Continuous
 62
     7
100
AcDbLine
 10
111.85
 20
465.1685934881
 30
0.0
 11
110.85
 21
465.1685934881
 31
0.0
  0
LINE
  5
142
330
92
100
AcDbEntity
  8
$DDT_AUDIT_GENERATED_(CB)
  6
Continuous
 62
     7
100
AcDbLine
 10
110.85
 20
465.1685934881
 30
0.0
 11
110.85
 21
465.2399772144
 31
0.0
  0
LINE
  5
143
330
92
100
AcDbEntity
  8
$DDT_AUDIT_GENERATED_(CB)
  6
Continuous
 62
     7
100
AcDbLine
 10
110.85
 20
465.2399772144
 30
0.0
 11
111.8453617431
 21
465.2399772144
 31
0.0
  0
LINE
  5
144
330
92
100
AcDbEntity
  8
$DDT_AUDIT_GENERATED_(CB)
  6
Continuous
 62
     7
100
AcDbLine
 10
111.85
 20
465.1543167428
 30
0.0
 11
111.85
 21
465.0829330165
 31
0.0
  0
LINE
  5
145
330
92
100
AcDbEntity
  8
$DDT_AUDIT_GENERATED_(CB)
  6
Continuous
 62
     7
100
AcDbLine
 10
111.85
 20
465.0829330165
 30
0.0
 11
110.85
 21
465.0829330165
 31
0.0
  0
LINE
  5
146
330
92
100
AcDbEntity
  8
$DDT_AUDIT_GENERATED_(CB)
  6
Continuous
 62
     7
100
AcDbLine
 10
110.85
 20
465.0829330165
 30
0.0
 11
110.85
 21
465.1543167428
 31
0.0
  0
LINE
  5
147
330
92
100
AcDbEntity
  8
$DDT_AUDIT_GENERATED_(CB)
  6
Continuous
 62
     7
100
AcDbLine
 10
110.85
 20
465.1543167428
 30
0.0
 11
111.85
 21
465.1543167428
 31
0.0
  0
LINE
  5
148
330
92
100
AcDbEntity
  8
$DDT_AUDIT_GENERATED_(CB)
  6
Continuous
 62
     7
100
AcDbLine
 10
112.5167832317
 20
465.1685934881
 30
0.0
 11
112.05
 21
465.1685934881
 31
0.0
  0
LINE
  5
149
330
92
100
AcDbEntity
  8
$DDT_AUDIT_GENERATED_(CB)
  6
Continuous
 62
     7
100
AcDbLine
 10
112.05
 20
465.1685934881
 30
0.0
 11
112.05
 21
465.2205075485
 31
0.0
  0
LINE
  5
14A
330
92
100
AcDbEntity
  8
$DDT_AUDIT_GENERATED_(CB)
  6
Continuous
 62
     7
100
AcDbLine
 10
112.5090851371
 20
465.0829330165
 30
0.0
 11
112.5090851371
 21
465.1543167428
 31
0.0
  0
LINE
  5
14B
330
92
100
AcDbEntity
  8
$DDT_AUDIT_GENERATED_(CB)
  6
Continuous
 62
     7
100
AcDbLine
 10
112.5090851371
 20
465.0829330165
 30
0.0
 11
112.05
 21
465.0829330165
 31
0.0
  0
LINE
  5
14C
330
92
100
AcDbEntity
  8
$DDT_AUDIT_GENERATED_(CB)
  6
Continuous
 62
     7
100
AcDbLine
 10
112.05
 20
465.0829330165
 30
0.0
 11
112.05
 21
465.1543167428
 31
0.0
  0
LINE
  5
14D
330
92
100
AcDbEntity
  8
$DDT_AUDIT_GENERATED_(CB)
  6
Continuous
 62
     7
100
AcDbLine
 10
112.05
 20
465.1543167428
 30
0.0
 11
112.62718307
 21
465.1543167428
 31
0.0
  0
ELLIPSE
  5
14E
330
92
100
AcDbEntity
  8
$DDT_AUDIT_GENERATED_(CB)
  6
Continuous
 62
     7
100
AcDbEllipse
 10
105.3500000036
 20
465.3756062942
 30
0.0
 11
8.249999996282654
 21
1.587271980518778E-10
 31
0.0
210
0.0
220
0.0
230
1.0
 40
0.0713837263
 41
-0.6634394343755687
 42
-0.6230179599502081
  0
LINE
  5
14F
330
92
100
AcDbEntity
  8
$DDT_AUDIT_GENERATED_(CB)
  6
Continuous
 62
     7
100
AcDbLine
 10
111.6723808806
 20
464.9972725449
 30
0.0
 11
111.6723808806
 21
465.0686562712
 31
0.0
  0
LINE
  5
150
330
92
100
AcDbEntity
  8
$DDT_AUDIT_GENERATED_(CB)
  6
Continuous
 62
     7
100
AcDbLine
 10
111.6723808806
 20
464.9972725449
 30
0.0
 11
110.85
 21
464.9972725449
 31
0.0
  0
LINE
  5
151
330
92
100
AcDbEntity
  8
$DDT_AUDIT_GENERATED_(CB)
  6
Continuous
 62
     7
100
AcDbLine
 10
110.85
 20
464.9972725449
 30
0.0
 11
110.85
 21
465.0686562712
 31
0.0
  0
LINE
  5
152
330
92
100
AcDbEntity
  8
$DDT_AUDIT_GENERATED_(CB)
  6
Continuous
 62
     7
100
AcDbLine
 10
110.85
 20
465.0686562712
 30
0.0
 11
111.85
 21
465.0686562712
 31
0.0
  0
LINE
  5
153
330
92
100
AcDbEntity
  8
$DDT_AUDIT_GENERATED_(CB)
  6
Continuous
 62
     7
100
AcDbLine
 10
111.85
 20
465.0686562712
 30
0.0
 11
111.85
 21
465.0129341089
 31
0.0
  0
ELLIPSE
  5
154
330
92
100
AcDbEntity
  8
$DDT_AUDIT_GENERATED_(CB)
  6
Continuous
 62
     7
100
AcDbEllipse
 10
105.3499999641
 20
465.3756062959
 30
0.0
 11
8.250000036322124
 21
-1.308040481484696E-9
 31
0.0
210
0.0
220
0.0
230
1.0
 40
0.0713837262
 41
-0.5482706329269948
 42
-0.5201032021792313
  0
LINE
  5
155
330
92
100
AcDbEntity
  8
$DDT_AUDIT_GENERATED_(CB)
  6
Continuous
 62
     7
100
AcDbLine
 10
112.05
 20
465.0319805764
 30
0.0
 11
112.05
 21
465.0686562712
 31
0.0
  0
LINE
  5
156
330
92
100
AcDbEntity
  8
$DDT_AUDIT_GENERATED_(CB)
  6
Continuous
 62
     7
100
AcDbLine
 10
112.05
 20
465.0686562712
 30
0.0
 11
112.3907741052
 21
465.0686562712
 31
0.0
  0
ELLIPSE
  5
157
330
92
100
AcDbEntity
  8
$DDT_AUDIT_GENERATED_(CB)
  6
Continuous
 62
     7
100
AcDbEllipse
 10
105.3499999204
 20
465.375606301
 30
0.0
 11
8.250000086871527
 21
-4.315714452474140E-9
 31
0.0
210
0.0
220
0.0
230
1.0
 40
0.0713837264
 41
-0.8731388701197531
 42
-0.8410686669975691
  0
LINE
  5
158
330
92
100
AcDbEntity
  8
$DDT_AUDIT_GENERATED_(CB)
  6
Continuous
 62
     7
100
AcDbLine
 10
110.4306003582
 20
464.9116120733
 30
0.0
 11
110.4306003582
 21
464.9829957997
 31
0.0
  0
LINE
  5
159
330
92
100
AcDbEntity
  8
$DDT_AUDIT_GENERATED_(CB)
  6
Continuous
 62
     7
100
AcDbLine
 10
110.4306003582
 20
464.9116120733
 30
0.0
 11
109.65
 21
464.9116120733
 31
0.0
  0
LINE
  5
15A
330
92
100
AcDbEntity
  8
$DDT_AUDIT_GENERATED_(CB)
  6
Continuous
 62
     7
100
AcDbLine
 10
109.65
 20
464.9116120733
 30
0.0
 11
109.65
 21
464.9829957997
 31
0.0
  0
LINE
  5
15B
330
92
100
AcDbEntity
  8
$DDT_AUDIT_GENERATED_(CB)
  6
Continuous
 62
     7
100
AcDbLine
 10
109.65
 20
464.9829957997
 30
0.0
 11
110.65
 21
464.9829957997
 31
0.0
  0
LINE
  5
15C
330
92
100
AcDbEntity
  8
$DDT_AUDIT_GENERATED_(CB)
  6
Continuous
 62
     7
100
AcDbLine
 10
110.65
 20
464.9829957997
 30
0.0
 11
110.65
 21
464.924291188
 31
0.0
  0
ELLIPSE
  5
15D
330
92
100
AcDbEntity
  8
$DDT_AUDIT_GENERATED_(CB)
  6
Continuous
 62
     7
100
AcDbEllipse
 10
105.3499999084
 20
465.3756063
 30
0.0
 11
8.25000009520925
 21
-4.297173727962900E-9
 31
0.0
210
0.0
220
0.0
230
1.0
 40
0.0713837262
 41
-0.729727652438652
 42
-0.6976574493155718
  0
LINE
  5
15E
330
92
100
AcDbEntity
  8
$DDT_AUDIT_GENERATED_(CB)
  6
Continuous
 62
     7
100
AcDbLine
 10
110.85
 20
464.9366544169
 30
0.0
 11
110.85
 21
464.9829957997
 31
0.0
  0
LINE
  5
15F
330
92
100
AcDbEntity
  8
$DDT_AUDIT_GENERATED_(CB)
  6
Continuous
 62
     7
100
AcDbLine
 10
110.85
 20
464.9829957997
 30
0.0
 11
111.4991869381
 21
464.9829957997
 31
0.0
  0
LINE
  5
160
330
92
100
AcDbEntity
  8
$DDT_AUDIT_GENERATED_(CB)
  6
Continuous
 62
     7
100
AcDbLine
 10
108.25
 20
464.8973353281
 30
0.0
 11
108.25
 21
464.8259516018
 31
0.0
  0
LINE
  5
161
330
92
100
AcDbEntity
  8
$DDT_AUDIT_GENERATED_(CB)
  6
Continuous
 62
     7
100
AcDbLine
 10
108.25
 20
464.8259516018
 30
0.0
 11
107.25
 21
464.8259516018
 31
0.0
  0
LINE
  5
162
330
92
100
AcDbEntity
  8
$DDT_AUDIT_GENERATED_(CB)
  6
Continuous
 62
     7
100
AcDbLine
 10
107.25
 20
464.8259516018
 30
0.0
 11
107.25
 21
464.8973353281
 31
0.0
  0
LINE
  5
163
330
92
100
AcDbEntity
  8
$DDT_AUDIT_GENERATED_(CB)
  6
Continuous
 62
     7
100
AcDbLine
 10
107.25
 20
464.8973353281
 30
0.0
 11
108.25
 21
464.8973353281
 31
0.0
  0
ELLIPSE
  5
164
330
92
100
AcDbEntity
  8
$DDT_AUDIT_GENERATED_(CB)
  6
Continuous
 62
     7
100
AcDbEllipse
 10
105.3499999042
 20
465.375606306
 30
0.0
 11
8.250000118600587
 21
-5.919233853068917E-9
 31
0.0
210
0.0
220
0.0
230
1.0
 40
0.0713837267
 41
-1.050693118328412
 42
-1.022525687831315
  0
LINE
  5
165
330
92
100
AcDbEntity
  8
$DDT_AUDIT_GENERATED_(CB)
  6
Continuous
 62
     7
100
AcDbLine
 10
108.45
 20
464.829847478
 30
0.0
 11
108.45
 21
464.8973353281
 31
0.0
  0
LINE
  5
166
330
92
100
AcDbEntity
  8
$DDT_AUDIT_GENERATED_(CB)
  6
Continuous
 62
     7
100
AcDbLine
 10
108.45
 20
464.8973353281
 30
0.0
 11
109.45
 21
464.8973353281
 31
0.0
  0
LINE
  5
167
330
92
100
AcDbEntity
  8
$DDT_AUDIT_GENERATED_(CB)
  6
Continuous
 62
     7
100
AcDbLine
 10
109.45
 20
464.8973353281
 30
0.0
 11
109.45
 21
464.8645641203
 31
0.0
  0
ELLIPSE
  5
168
330
92
100
AcDbEntity
  8
$DDT_AUDIT_GENERATED_(CB)
  6
Continuous
 62
     7
100
AcDbEllipse
 10
105.3500000027
 20
465.3756062941
 30
0.0
 11
8.249999996923046
 21
1.570930885375077E-10
 31
0.0
210
0.0
220
0.0
230
1.0
 40
0.0713837263
 41
-0.9477783671101498
 42
-0.9073568926848363
  0
LINE
  5
169
330
92
100
AcDbEntity
  8
$DDT_AUDIT_GENERATED_(CB)
  6
Continuous
 62
     7
100
AcDbLine
 10
109.65
 20
464.8730096026
 30
0.0
 11
109.65
 21
464.8973353281
 31
0.0
  0
LINE
  5
16A
330
92
100
AcDbEntity
  8
$DDT_AUDIT_GENERATED_(CB)
  6
Continuous
 62
     7
100
AcDbLine
 10
109.65
 20
464.8973353281
 30
0.0
 11
110.1637822967
 21
464.8973353281
 31
0.0
  0
ELLIPSE
  5
16B
330
92
100
AcDbEntity
  8
$DDT_AUDIT_GENERATED_(CB)
  6
Continuous
 62
     7
100
AcDbEllipse
 10
105.3499999778
 20
465.3756063162
 30
0.0
 11
8.250000153651024
 21
-1.587296266647442E-9
 31
0.0
210
0.0
220
0.0
230
1.0
 40
0.0713837276
 41
-1.510153101181014
 42
-1.485845701776513
  0
LINE
  5
16C
330
92
100
AcDbEntity
  8
$DDT_AUDIT_GENERATED_(CB)
  6
Continuous
 62
     7
100
AcDbLine
 10
104.85
 20
464.8116748565
 30
0.0
 11
105.85
 21
464.8116748565
 31
0.0
  0
LINE
  5
16D
330
92
100
AcDbEntity
  8
$DDT_AUDIT_GENERATED_(CB)
  6
Continuous
 62
     7
100
AcDbLine
 10
105.85
 20
464.8116748565
 30
0.0
 11
105.85
 21
464.7877731189
 31
0.0
  0
ELLIPSE
  5
16E
330
92
100
AcDbEntity
  8
$DDT_AUDIT_GENERATED_(CB)
  6
Continuous
 62
     7
100
AcDbEllipse
 10
105.3499999351
 20
465.3756063152
 30
0.0
 11
8.250000156149019
 21
-4.545183673876352E-9
 31
0.0
210
0.0
220
0.0
230
1.0
 40
0.0713837275
 41
-1.363248872217953
 42
-1.338407250668629
  0
LINE
  5
16F
330
92
100
AcDbEntity
  8
$DDT_AUDIT_GENERATED_(CB)
  6
Continuous
 62
     7
100
AcDbLine
 10
106.05
 20
464.7888142618
 30
0.0
 11
106.05
 21
464.8116748565
 31
0.0
  0
LINE
  5
170
330
92
100
AcDbEntity
  8
$DDT_AUDIT_GENERATED_(CB)
  6
Continuous
 62
     7
100
AcDbLine
 10
106.05
 20
464.8116748565
 30
0.0
 11
107.05
 21
464.8116748565
 31
0.0
  0
LINE
  5
171
330
92
100
AcDbEntity
  8
$DDT_AUDIT_GENERATED_(CB)
  6
Continuous
 62
     7
100
AcDbLine
 10
107.05
 20
464.8116748565
 30
0.0
 11
107.05
 21
464.799329137
 31
0.0
  0
ELLIPSE
  5
172
330
92
100
AcDbEntity
  8
$DDT_AUDIT_GENERATED_(CB)
  6
Continuous
 62
     7
100
AcDbEllipse
 10
105.3499999995
 20
465.3756062945
 30
0.0
 11
8.250000000793611
 21
-3.226238720621666E-11
 31
0.0
210
0.0
220
0.0
230
1.0
 40
0.0713837263
 41
-1.278468933609584
 42
-1.185582205108744
  0
LINE
  5
173
330
92
100
AcDbEntity
  8
$DDT_AUDIT_GENERATED_(CB)
  6
Continuous
 62
     7
100
AcDbLine
 10
107.25
 20
464.8025212187
 30
0.0
 11
107.25
 21
464.8116748565
 31
0.0
  0
LINE
  5
174
330
92
100
AcDbEntity
  8
$DDT_AUDIT_GENERATED_(CB)
  6
Continuous
 62
     7
100
AcDbLine
 10
107.25
 20
464.8116748565
 30
0.0
 11
107.7274986856
 21
464.8116748565
 31
0.0
  0
LINE
  5
175
330
92
100
AcDbEntity
  8
$DDT_AUDIT_GENERATED_(CB)
  6
Continuous
 62
     7
100
AcDbLine
 10
104.85
 20
465.3399144312
 30
0.0
 11
104.85
 21
465.4112981576
 31
0.0
  0
LINE
  5
176
330
92
100
AcDbEntity
  8
$DDT_AUDIT_GENERATED_(CB)
  6
Continuous
 62
     7
100
AcDbLine
 10
104.65
 20
465.3399144312
 30
0.0
 11
103.65
 21
465.3399144312
 31
0.0
  0
LINE
  5
177
330
92
100
AcDbEntity
  8
$DDT_AUDIT_GENERATED_(CB)
  6
Continuous
 62
     7
100
AcDbLine
 10
103.65
 20
465.3399144312
 30
0.0
 11
103.65
 21
465.4112981576
 31
0.0
  0
LINE
  5
178
330
92
100
AcDbEntity
  8
$DDT_AUDIT_GENERATED_(CB)
  6
Continuous
 62
     7
100
AcDbLine
 10
104.65
 20
465.4112981576
 30
0.0
 11
104.65
 21
465.3399144312
 31
0.0
  0
LINE
  5
179
330
92
100
AcDbEntity
  8
$DDT_AUDIT_GENERATED_(CB)
  6
Continuous
 62
     7
100
AcDbLine
 10
103.45
 20
465.3399144312
 30
0.0
 11
102.45
 21
465.3399144312
 31
0.0
  0
LINE
  5
17A
330
92
100
AcDbEntity
  8
$DDT_AUDIT_GENERATED_(CB)
  6
Continuous
 62
     7
100
AcDbLine
 10
102.45
 20
465.3399144312
 30
0.0
 11
102.45
 21
465.4112981576
 31
0.0
  0
LINE
  5
17B
330
92
100
AcDbEntity
  8
$DDT_AUDIT_GENERATED_(CB)
  6
Continuous
 62
     7
100
AcDbLine
 10
103.45
 20
465.4112981576
 30
0.0
 11
103.45
 21
465.3399144312
 31
0.0
  0
LINE
  5
17C
330
92
100
AcDbEntity
  8
$DDT_AUDIT_GENERATED_(CB)
  6
Continuous
 62
     7
100
AcDbLine
 10
102.25
 20
465.3399144312
 30
0.0
 11
101.25
 21
465.3399144312
 31
0.0
  0
LINE
  5
17D
330
92
100
AcDbEntity
  8
$DDT_AUDIT_GENERATED_(CB)
  6
Continuous
 62
     7
100
AcDbLine
 10
101.25
 20
465.3399144312
 30
0.0
 11
101.25
 21
465.3879240046
 31
0.0
  0
LINE
  5
17E
330
92
100
AcDbEntity
  8
$DDT_AUDIT_GENERATED_(CB)
  6
Continuous
 62
     7
100
AcDbLine
 10
102.25
 20
465.4112981576
 30
0.0
 11
102.25
 21
465.3399144312
 31
0.0
  0
LINE
  5
17F
330
92
100
AcDbEntity
  8
$DDT_AUDIT_GENERATED_(CB)
  6
Continuous
 62
     7
100
AcDbLine
 10
101.05
 20
465.3399144312
 30
0.0
 11
100.2522119139
 21
465.3399144312
 31
0.0
  0
LINE
  5
180
330
92
100
AcDbEntity
  8
$DDT_AUDIT_GENERATED_(CB)
  6
Continuous
 62
     7
100
AcDbLine
 10
101.05
 20
465.3794785223
 30
0.0
 11
101.05
 21
465.3399144312
 31
0.0
  0
LINE
  5
181
330
92
100
AcDbEntity
  8
$DDT_AUDIT_GENERATED_(CB)
  6
Continuous
 62
     7
100
AcDbLine
 10
104.85
 20
465.2542539597
 30
0.0
 11
104.85
 21
465.325637686
 31
0.0
  0
LINE
  5
182
330
92
100
AcDbEntity
  8
$DDT_AUDIT_GENERATED_(CB)
  6
Continuous
 62
     7
100
AcDbLine
 10
104.65
 20
465.2542539597
 30
0.0
 11
103.65
 21
465.2542539597
 31
0.0
  0
LINE
  5
183
330
92
100
AcDbEntity
  8
$DDT_AUDIT_GENERATED_(CB)
  6
Continuous
 62
     7
100
AcDbLine
 10
103.65
 20
465.2542539597
 30
0.0
 11
103.65
 21
465.325637686
 31
0.0
  0
LINE
  5
184
330
92
100
AcDbEntity
  8
$DDT_AUDIT_GENERATED_(CB)
  6
Continuous
 62
     7
100
AcDbLine
 10
103.65
 20
465.325637686
 30
0.0
 11
104.65
 21
465.325637686
 31
0.0
  0
LINE
  5
185
330
92
100
AcDbEntity
  8
$DDT_AUDIT_GENERATED_(CB)
  6
Continuous
 62
     7
100
AcDbLine
 10
104.65
 20
465.325637686
 30
0.0
 11
104.65
 21
465.2542539597
 31
0.0
  0
LINE
  5
186
330
92
100
AcDbEntity
  8
$DDT_AUDIT_GENERATED_(CB)
  6
Continuous
 62
     7
100
AcDbLine
 10
103.45
 20
465.2542539597
 30
0.0
 11
102.45
 21
465.2542539597
 31
0.0
  0
LINE
  5
187
330
92
100
AcDbEntity
  8
$DDT_AUDIT_GENERATED_(CB)
  6
Continuous
 62
     7
100
AcDbLine
 10
102.45
 20
465.2542539597
 30
0.0
 11
102.45
 21
465.325637686
 31
0.0
  0
LINE
  5
188
330
92
100
AcDbEntity
  8
$DDT_AUDIT_GENERATED_(CB)
  6
Continuous
 62
     7
100
AcDbLine
 10
102.45
 20
465.325637686
 30
0.0
 11
103.45
 21
465.325637686
 31
0.0
  0
LINE
  5
189
330
92
100
AcDbEntity
  8
$DDT_AUDIT_GENERATED_(CB)
  6
Continuous
 62
     7
100
AcDbLine
 10
103.45
 20
465.325637686
 30
0.0
 11
103.45
 21
465.2542539597
 31
0.0
  0
LINE
  5
18A
330
92
100
AcDbEntity
  8
$DDT_AUDIT_GENERATED_(CB)
  6
Continuous
 62
     7
100
AcDbLine
 10
102.25
 20
465.2542539597
 30
0.0
 11
101.25
 21
465.2542539597
 31
0.0
  0
LINE
  5
18B
330
92
100
AcDbEntity
  8
$DDT_AUDIT_GENERATED_(CB)
  6
Continuous
 62
     7
100
AcDbLine
 10
101.25
 20
465.2542539597
 30
0.0
 11
101.25
 21
465.325637686
 31
0.0
  0
LINE
  5
18C
330
92
100
AcDbEntity
  8
$DDT_AUDIT_GENERATED_(CB)
  6
Continuous
 62
     7
100
AcDbLine
 10
101.25
 20
465.325637686
 30
0.0
 11
102.25
 21
465.325637686
 31
0.0
  0
LINE
  5
18D
330
92
100
AcDbEntity
  8
$DDT_AUDIT_GENERATED_(CB)
  6
Continuous
 62
     7
100
AcDbLine
 10
102.25
 20
465.325637686
 30
0.0
 11
102.25
 21
465.2542539597
 31
0.0
  0
LINE
  5
18E
330
92
100
AcDbEntity
  8
$DDT_AUDIT_GENERATED_(CB)
  6
Continuous
 62
     7
100
AcDbLine
 10
101.05
 20
465.2542539597
 30
0.0
 11
100.05
 21
465.2542539597
 31
0.0
  0
LINE
  5
18F
330
92
100
AcDbEntity
  8
$DDT_AUDIT_GENERATED_(CB)
  6
Continuous
 62
     7
100
AcDbLine
 10
100.05
 20
465.2542539597
 30
0.0
 11
100.05
 21
465.325637686
 31
0.0
  0
LINE
  5
190
330
92
100
AcDbEntity
  8
$DDT_AUDIT_GENERATED_(CB)
  6
Continuous
 62
     7
100
AcDbLine
 10
100.05
 20
465.325637686
 30
0.0
 11
101.05
 21
465.325637686
 31
0.0
  0
LINE
  5
191
330
92
100
AcDbEntity
  8
$DDT_AUDIT_GENERATED_(CB)
  6
Continuous
 62
     7
100
AcDbLine
 10
101.05
 20
465.325637686
 30
0.0
 11
101.05
 21
465.2542539597
 31
0.0
  0
LINE
  5
192
330
92
100
AcDbEntity
  8
$DDT_AUDIT_GENERATED_(CB)
  6
Continuous
 62
     7
100
AcDbLine
 10
99.85
 20
465.2542539597
 30
0.0
 11
99.0163507651
 21
465.2542539597
 31
0.0
  0
LINE
  5
193
330
92
100
AcDbEntity
  8
$DDT_AUDIT_GENERATED_(CB)
  6
Continuous
 62
     7
100
AcDbLine
 10
99.85
 20
465.3158337079
 30
0.0
 11
99.85
 21
465.2542539597
 31
0.0
  0
LINE
  5
194
330
92
100
AcDbEntity
  8
$DDT_AUDIT_GENERATED_(CB)
  6
Continuous
 62
     7
100
AcDbLine
 10
104.85
 20
465.1685934881
 30
0.0
 11
104.85
 21
465.2399772144
 31
0.0
  0
LINE
  5
195
330
92
100
AcDbEntity
  8
$DDT_AUDIT_GENERATED_(CB)
  6
Continuous
 62
     7
100
AcDbLine
 10
104.65
 20
465.1685934881
 30
0.0
 11
103.65
 21
465.1685934881
 31
0.0
  0
LINE
  5
196
330
92
100
AcDbEntity
  8
$DDT_AUDIT_GENERATED_(CB)
  6
Continuous
 62
     7
100
AcDbLine
 10
103.65
 20
465.1685934881
 30
0.0
 11
103.65
 21
465.2399772144
 31
0.0
  0
LINE
  5
197
330
92
100
AcDbEntity
  8
$DDT_AUDIT_GENERATED_(CB)
  6
Continuous
 62
     7
100
AcDbLine
 10
103.65
 20
465.2399772144
 30
0.0
 11
104.65
 21
465.2399772144
 31
0.0
  0
LINE
  5
198
330
92
100
AcDbEntity
  8
$DDT_AUDIT_GENERATED_(CB)
  6
Continuous
 62
     7
100
AcDbLine
 10
104.65
 20
465.2399772144
 30
0.0
 11
104.65
 21
465.1685934881
 31
0.0
  0
LINE
  5
199
330
92
100
AcDbEntity
  8
$DDT_AUDIT_GENERATED_(CB)
  6
Continuous
 62
     7
100
AcDbLine
 10
103.45
 20
465.1685934881
 30
0.0
 11
102.45
 21
465.1685934881
 31
0.0
  0
LINE
  5
19A
330
92
100
AcDbEntity
  8
$DDT_AUDIT_GENERATED_(CB)
  6
Continuous
 62
     7
100
AcDbLine
 10
102.45
 20
465.1685934881
 30
0.0
 11
102.45
 21
465.2399772144
 31
0.0
  0
LINE
  5
19B
330
92
100
AcDbEntity
  8
$DDT_AUDIT_GENERATED_(CB)
  6
Continuous
 62
     7
100
AcDbLine
 10
102.45
 20
465.2399772144
 30
0.0
 11
103.45
 21
465.2399772144
 31
0.0
  0
LINE
  5
19C
330
92
100
AcDbEntity
  8
$DDT_AUDIT_GENERATED_(CB)
  6
Continuous
 62
     7
100
AcDbLine
 10
103.45
 20
465.2399772144
 30
0.0
 11
103.45
 21
465.1685934881
 31
0.0
  0
LINE
  5
19D
330
92
100
AcDbEntity
  8
$DDT_AUDIT_GENERATED_(CB)
  6
Continuous
 62
     7
100
AcDbLine
 10
102.25
 20
465.1685934881
 30
0.0
 11
101.25
 21
465.1685934881
 31
0.0
  0
LINE
  5
19E
330
92
100
AcDbEntity
  8
$DDT_AUDIT_GENERATED_(CB)
  6
Continuous
 62
     7
100
AcDbLine
 10
101.25
 20
465.1685934881
 30
0.0
 11
101.25
 21
465.2399772144
 31
0.0
  0
LINE
  5
19F
330
92
100
AcDbEntity
  8
$DDT_AUDIT_GENERATED_(CB)
  6
Continuous
 62
     7
100
AcDbLine
 10
101.25
 20
465.2399772144
 30
0.0
 11
102.25
 21
465.2399772144
 31
0.0
  0
LINE
  5
1A0
330
92
100
AcDbEntity
  8
$DDT_AUDIT_GENERATED_(CB)
  6
Continuous
 62
     7
100
AcDbLine
 10
102.25
 20
465.2399772144
 30
0.0
 11
102.25
 21
465.1685934881
 31
0.0
  0
LINE
  5
1A1
330
92
100
AcDbEntity
  8
$DDT_AUDIT_GENERATED_(CB)
  6
Continuous
 62
     7
100
AcDbLine
 10
101.05
 20
465.1685934881
 30
0.0
 11
100.05
 21
465.1685934881
 31
0.0
  0
LINE
  5
1A2
330
92
100
AcDbEntity
  8
$DDT_AUDIT_GENERATED_(CB)
  6
Continuous
 62
     7
100
AcDbLine
 10
100.05
 20
465.1685934881
 30
0.0
 11
100.05
 21
465.2399772144
 31
0.0
  0
LINE
  5
1A3
330
92
100
AcDbEntity
  8
$DDT_AUDIT_GENERATED_(CB)
  6
Continuous
 62
     7
100
AcDbLine
 10
100.05
 20
465.2399772144
 30
0.0
 11
101.05
 21
465.2399772144
 31
0.0
  0
LINE
  5
1A4
330
92
100
AcDbEntity
  8
$DDT_AUDIT_GENERATED_(CB)
  6
Continuous
 62
     7
100
AcDbLine
 10
101.05
 20
465.2399772144
 30
0.0
 11
101.05
 21
465.1685934881
 31
0.0
  0
LINE
  5
1A5
330
92
100
AcDbEntity
  8
$DDT_AUDIT_GENERATED_(CB)
  6
Continuous
 62
     7
100
AcDbLine
 10
99.85
 20
465.1685934881
 30
0.0
 11
98.85
 21
465.1685934881
 31
0.0
  0
LINE
  5
1A6
330
92
100
AcDbEntity
  8
$DDT_AUDIT_GENERATED_(CB)
  6
Continuous
 62
     7
100
AcDbLine
 10
98.85
 20
465.1685934881
 30
0.0
 11
98.85
 21
465.239554016
 31
0.0
  0
LINE
  5
1A7
330
92
100
AcDbEntity
  8
$DDT_AUDIT_GENERATED_(CB)
  6
Continuous
 62
     7
100
AcDbLine
 10
98.8546382569
 20
465.2399772144
 30
0.0
 11
99.85
 21
465.2399772144
 31
0.0
  0
LINE
  5
1A8
330
92
100
AcDbEntity
  8
$DDT_AUDIT_GENERATED_(CB)
  6
Continuous
 62
     7
100
AcDbLine
 10
99.85
 20
465.2399772144
 30
0.0
 11
99.85
 21
465.1685934881
 31
0.0
  0
LINE
  5
1A9
330
92
100
AcDbEntity
  8
$DDT_AUDIT_GENERATED_(CB)
  6
Continuous
 62
     7
100
AcDbLine
 10
104.85
 20
465.0829330165
 30
0.0
 11
104.85
 21
465.1543167428
 31
0.0
  0
LINE
  5
1AA
330
92
100
AcDbEntity
  8
$DDT_AUDIT_GENERATED_(CB)
  6
Continuous
 62
     7
100
AcDbLine
 10
104.65
 20
465.0829330165
 30
0.0
 11
103.65
 21
465.0829330165
 31
0.0
  0
LINE
  5
1AB
330
92
100
AcDbEntity
  8
$DDT_AUDIT_GENERATED_(CB)
  6
Continuous
 62
     7
100
AcDbLine
 10
103.65
 20
465.0829330165
 30
0.0
 11
103.65
 21
465.1543167428
 31
0.0
  0
LINE
  5
1AC
330
92
100
AcDbEntity
  8
$DDT_AUDIT_GENERATED_(CB)
  6
Continuous
 62
     7
100
AcDbLine
 10
103.65
 20
465.1543167428
 30
0.0
 11
104.65
 21
465.1543167428
 31
0.0
  0
LINE
  5
1AD
330
92
100
AcDbEntity
  8
$DDT_AUDIT_GENERATED_(CB)
  6
Continuous
 62
     7
100
AcDbLine
 10
104.65
 20
465.1543167428
 30
0.0
 11
104.65
 21
465.0829330165
 31
0.0
  0
LINE
  5
1AE
330
92
100
AcDbEntity
  8
$DDT_AUDIT_GENERATED_(CB)
  6
Continuous
 62
     7
100
AcDbLine
 10
103.45
 20
465.0829330165
 30
0.0
 11
102.45
 21
465.0829330165
 31
0.0
  0
LINE
  5
1AF
330
92
100
AcDbEntity
  8
$DDT_AUDIT_GENERATED_(CB)
  6
Continuous
 62
     7
100
AcDbLine
 10
102.45
 20
465.0829330165
 30
0.0
 11
102.45
 21
465.1543167428
 31
0.0
  0
LINE
  5
1B0
330
92
100
AcDbEntity
  8
$DDT_AUDIT_GENERATED_(CB)
  6
Continuous
 62
     7
100
AcDbLine
 10
102.45
 20
465.1543167428
 30
0.0
 11
103.45
 21
465.1543167428
 31
0.0
  0
LINE
  5
1B1
330
92
100
AcDbEntity
  8
$DDT_AUDIT_GENERATED_(CB)
  6
Continuous
 62
     7
100
AcDbLine
 10
103.45
 20
465.1543167428
 30
0.0
 11
103.45
 21
465.0829330165
 31
0.0
  0
LINE
  5
1B2
330
92
100
AcDbEntity
  8
$DDT_AUDIT_GENERATED_(CB)
  6
Continuous
 62
     7
100
AcDbLine
 10
102.25
 20
465.0829330165
 30
0.0
 11
101.25
 21
465.0829330165
 31
0.0
  0
LINE
  5
1B3
330
92
100
AcDbEntity
  8
$DDT_AUDIT_GENERATED_(CB)
  6
Continuous
 62
     7
100
AcDbLine
 10
101.25
 20
465.0829330165
 30
0.0
 11
101.25
 21
465.1543167428
 31
0.0
  0
LINE
  5
1B4
330
92
100
AcDbEntity
  8
$DDT_AUDIT_GENERATED_(CB)
  6
Continuous
 62
     7
100
AcDbLine
 10
101.25
 20
465.1543167428
 30
0.0
 11
102.25
 21
465.1543167428
 31
0.0
  0
LINE
  5
1B5
330
92
100
AcDbEntity
  8
$DDT_AUDIT_GENERATED_(CB)
  6
Continuous
 62
     7
100
AcDbLine
 10
102.25
 20
465.1543167428
 30
0.0
 11
102.25
 21
465.0829330165
 31
0.0
  0
LINE
  5
1B6
330
92
100
AcDbEntity
  8
$DDT_AUDIT_GENERATED_(CB)
  6
Continuous
 62
     7
100
AcDbLine
 10
101.05
 20
465.0829330165
 30
0.0
 11
100.05
 21
465.0829330165
 31
0.0
  0
LINE
  5
1B7
330
92
100
AcDbEntity
  8
$DDT_AUDIT_GENERATED_(CB)
  6
Continuous
 62
     7
100
AcDbLine
 10
100.05
 20
465.0829330165
 30
0.0
 11
100.05
 21
465.1543167428
 31
0.0
  0
LINE
  5
1B8
330
92
100
AcDbEntity
  8
$DDT_AUDIT_GENERATED_(CB)
  6
Continuous
 62
     7
100
AcDbLine
 10
100.05
 20
465.1543167428
 30
0.0
 11
101.05
 21
465.1543167428
 31
0.0
  0
LINE
  5
1B9
330
92
100
AcDbEntity
  8
$DDT_AUDIT_GENERATED_(CB)
  6
Continuous
 62
     7
100
AcDbLine
 10
101.05
 20
465.1543167428
 30
0.0
 11
101.05
 21
465.0829330165
 31
0.0
  0
LINE
  5
1BA
330
92
100
AcDbEntity
  8
$DDT_AUDIT_GENERATED_(CB)
  6
Continuous
 62
     7
100
AcDbLine
 10
98.85
 20
465.0829330165
 30
0.0
 11
98.85
 21
465.1543167428
 31
0.0
  0
LINE
  5
1BB
330
92
100
AcDbEntity
  8
$DDT_AUDIT_GENERATED_(CB)
  6
Continuous
 62
     7
100
AcDbLine
 10
99.85
 20
465.0829330165
 30
0.0
 11
98.85
 21
465.0829330165
 31
0.0
  0
LINE
  5
1BC
330
92
100
AcDbEntity
  8
$DDT_AUDIT_GENERATED_(CB)
  6
Continuous
 62
     7
100
AcDbLine
 10
98.85
 20
465.1543167428
 30
0.0
 11
99.85
 21
465.1543167428
 31
0.0
  0
LINE
  5
1BD
330
92
100
AcDbEntity
  8
$DDT_AUDIT_GENERATED_(CB)
  6
Continuous
 62
     7
100
AcDbLine
 10
99.85
 20
465.1543167428
 30
0.0
 11
99.85
 21
465.0829330165
 31
0.0
  0
LINE
  5
1BE
330
92
100
AcDbEntity
  8
$DDT_AUDIT_GENERATED_(CB)
  6
Continuous
 62
     7
100
AcDbLine
 10
104.85
 20
464.9972725449
 30
0.0
 11
104.85
 21
465.0686562712
 31
0.0
  0
LINE
  5
1BF
330
92
100
AcDbEntity
  8
$DDT_AUDIT_GENERATED_(CB)
  6
Continuous
 62
     7
100
AcDbLine
 10
104.65
 20
464.9972725449
 30
0.0
 11
103.65
 21
464.9972725449
 31
0.0
  0
LINE
  5
1C0
330
92
100
AcDbEntity
  8
$DDT_AUDIT_GENERATED_(CB)
  6
Continuous
 62
     7
100
AcDbLine
 10
103.65
 20
464.9972725449
 30
0.0
 11
103.65
 21
465.0686562712
 31
0.0
  0
LINE
  5
1C1
330
92
100
AcDbEntity
  8
$DDT_AUDIT_GENERATED_(CB)
  6
Continuous
 62
     7
100
AcDbLine
 10
103.65
 20
465.0686562712
 30
0.0
 11
104.65
 21
465.0686562712
 31
0.0
  0
LINE
  5
1C2
330
92
100
AcDbEntity
  8
$DDT_AUDIT_GENERATED_(CB)
  6
Continuous
 62
     7
100
AcDbLine
 10
104.65
 20
465.0686562712
 30
0.0
 11
104.65
 21
464.9972725449
 31
0.0
  0
LINE
  5
1C3
330
92
100
AcDbEntity
  8
$DDT_AUDIT_GENERATED_(CB)
  6
Continuous
 62
     7
100
AcDbLine
 10
103.45
 20
464.9972725449
 30
0.0
 11
102.45
 21
464.9972725449
 31
0.0
  0
LINE
  5
1C4
330
92
100
AcDbEntity
  8
$DDT_AUDIT_GENERATED_(CB)
  6
Continuous
 62
     7
100
AcDbLine
 10
102.45
 20
464.9972725449
 30
0.0
 11
102.45
 21
465.0686562712
 31
0.0
  0
LINE
  5
1C5
330
92
100
AcDbEntity
  8
$DDT_AUDIT_GENERATED_(CB)
  6
Continuous
 62
     7
100
AcDbLine
 10
102.45
 20
465.0686562712
 30
0.0
 11
103.45
 21
465.0686562712
 31
0.0
  0
LINE
  5
1C6
330
92
100
AcDbEntity
  8
$DDT_AUDIT_GENERATED_(CB)
  6
Continuous
 62
     7
100
AcDbLine
 10
103.45
 20
465.0686562712
 30
0.0
 11
103.45
 21
464.9972725449
 31
0.0
  0
LINE
  5
1C7
330
92
100
AcDbEntity
  8
$DDT_AUDIT_GENERATED_(CB)
  6
Continuous
 62
     7
100
AcDbLine
 10
102.25
 20
464.9972725449
 30
0.0
 11
101.25
 21
464.9972725449
 31
0.0
  0
LINE
  5
1C8
330
92
100
AcDbEntity
  8
$DDT_AUDIT_GENERATED_(CB)
  6
Continuous
 62
     7
100
AcDbLine
 10
101.25
 20
464.9972725449
 30
0.0
 11
101.25
 21
465.0686562712
 31
0.0
  0
LINE
  5
1C9
330
92
100
AcDbEntity
  8
$DDT_AUDIT_GENERATED_(CB)
  6
Continuous
 62
     7
100
AcDbLine
 10
101.25
 20
465.0686562712
 30
0.0
 11
102.25
 21
465.0686562712
 31
0.0
  0
LINE
  5
1CA
330
92
100
AcDbEntity
  8
$DDT_AUDIT_GENERATED_(CB)
  6
Continuous
 62
     7
100
AcDbLine
 10
102.25
 20
465.0686562712
 30
0.0
 11
102.25
 21
464.9972725449
 31
0.0
  0
LINE
  5
1CB
330
92
100
AcDbEntity
  8
$DDT_AUDIT_GENERATED_(CB)
  6
Continuous
 62
     7
100
AcDbLine
 10
101.05
 20
464.9972725449
 30
0.0
 11
100.05
 21
464.9972725449
 31
0.0
  0
LINE
  5
1CC
330
92
100
AcDbEntity
  8
$DDT_AUDIT_GENERATED_(CB)
  6
Continuous
 62
     7
100
AcDbLine
 10
100.05
 20
464.9972725449
 30
0.0
 11
100.05
 21
465.0686562712
 31
0.0
  0
LINE
  5
1CD
330
92
100
AcDbEntity
  8
$DDT_AUDIT_GENERATED_(CB)
  6
Continuous
 62
     7
100
AcDbLine
 10
100.05
 20
465.0686562712
 30
0.0
 11
101.05
 21
465.0686562712
 31
0.0
  0
LINE
  5
1CE
330
92
100
AcDbEntity
  8
$DDT_AUDIT_GENERATED_(CB)
  6
Continuous
 62
     7
100
AcDbLine
 10
101.05
 20
465.0686562712
 30
0.0
 11
101.05
 21
464.9972725449
 31
0.0
  0
LINE
  5
1CF
330
92
100
AcDbEntity
  8
$DDT_AUDIT_GENERATED_(CB)
  6
Continuous
 62
     7
100
AcDbLine
 10
104.85
 20
464.9116120733
 30
0.0
 11
104.85
 21
464.9829957997
 31
0.0
  0
LINE
  5
1D0
330
92
100
AcDbEntity
  8
$DDT_AUDIT_GENERATED_(CB)
  6
Continuous
 62
     7
100
AcDbLine
 10
104.65
 20
464.9116120733
 30
0.0
 11
103.65
 21
464.9116120733
 31
0.0
  0
LINE
  5
1D1
330
92
100
AcDbEntity
  8
$DDT_AUDIT_GENERATED_(CB)
  6
Continuous
 62
     7
100
AcDbLine
 10
103.65
 20
464.9116120733
 30
0.0
 11
103.65
 21
464.9829957997
 31
0.0
  0
LINE
  5
1D2
330
92
100
AcDbEntity
  8
$DDT_AUDIT_GENERATED_(CB)
  6
Continuous
 62
     7
100
AcDbLine
 10
103.65
 20
464.9829957997
 30
0.0
 11
104.65
 21
464.9829957997
 31
0.0
  0
LINE
  5
1D3
330
92
100
AcDbEntity
  8
$DDT_AUDIT_GENERATED_(CB)
  6
Continuous
 62
     7
100
AcDbLine
 10
104.65
 20
464.9829957997
 30
0.0
 11
104.65
 21
464.9116120733
 31
0.0
  0
LINE
  5
1D4
330
92
100
AcDbEntity
  8
$DDT_AUDIT_GENERATED_(CB)
  6
Continuous
 62
     7
100
AcDbLine
 10
103.45
 20
464.9116120733
 30
0.0
 11
102.45
 21
464.9116120733
 31
0.0
  0
LINE
  5
1D5
330
92
100
AcDbEntity
  8
$DDT_AUDIT_GENERATED_(CB)
  6
Continuous
 62
     7
100
AcDbLine
 10
102.45
 20
464.9116120733
 30
0.0
 11
102.45
 21
464.9829957997
 31
0.0
  0
LINE
  5
1D6
330
92
100
AcDbEntity
  8
$DDT_AUDIT_GENERATED_(CB)
  6
Continuous
 62
     7
100
AcDbLine
 10
102.45
 20
464.9829957997
 30
0.0
 11
103.45
 21
464.9829957997
 31
0.0
  0
LINE
  5
1D7
330
92
100
AcDbEntity
  8
$DDT_AUDIT_GENERATED_(CB)
  6
Continuous
 62
     7
100
AcDbLine
 10
103.45
 20
464.9829957997
 30
0.0
 11
103.45
 21
464.9116120733
 31
0.0
  0
LINE
  5
1D8
330
92
100
AcDbEntity
  8
$DDT_AUDIT_GENERATED_(CB)
  6
Continuous
 62
     7
100
AcDbLine
 10
102.25
 20
464.9116120733
 30
0.0
 11
101.25
 21
464.9116120733
 31
0.0
  0
LINE
  5
1D9
330
92
100
AcDbEntity
  8
$DDT_AUDIT_GENERATED_(CB)
  6
Continuous
 62
     7
100
AcDbLine
 10
101.25
 20
464.9116120733
 30
0.0
 11
101.25
 21
464.9829957997
 31
0.0
  0
LINE
  5
1DA
330
92
100
AcDbEntity
  8
$DDT_AUDIT_GENERATED_(CB)
  6
Continuous
 62
     7
100
AcDbLine
 10
101.25
 20
464.9829957997
 30
0.0
 11
102.25
 21
464.9829957997
 31
0.0
  0
LINE
  5
1DB
330
92
100
AcDbEntity
  8
$DDT_AUDIT_GENERATED_(CB)
  6
Continuous
 62
     7
100
AcDbLine
 10
102.25
 20
464.9829957997
 30
0.0
 11
102.25
 21
464.9116120733
 31
0.0
  0
LINE
  5
1DC
330
92
100
AcDbEntity
  8
$DDT_AUDIT_GENERATED_(CB)
  6
Continuous
 62
     7
100
AcDbLine
 10
104.85
 20
464.8259516018
 30
0.0
 11
104.85
 21
464.8973353281
 31
0.0
  0
LINE
  5
1DD
330
92
100
AcDbEntity
  8
$DDT_AUDIT_GENERATED_(CB)
  6
Continuous
 62
     7
100
AcDbLine
 10
104.65
 20
464.8259516018
 30
0.0
 11
103.65
 21
464.8259516018
 31
0.0
  0
LINE
  5
1DE
330
92
100
AcDbEntity
  8
$DDT_AUDIT_GENERATED_(CB)
  6
Continuous
 62
     7
100
AcDbLine
 10
103.65
 20
464.8259516018
 30
0.0
 11
103.65
 21
464.8973353281
 31
0.0
  0
LINE
  5
1DF
330
92
100
AcDbEntity
  8
$DDT_AUDIT_GENERATED_(CB)
  6
Continuous
 62
     7
100
AcDbLine
 10
103.65
 20
464.8973353281
 30
0.0
 11
104.65
 21
464.8973353281
 31
0.0
  0
LINE
  5
1E0
330
92
100
AcDbEntity
  8
$DDT_AUDIT_GENERATED_(CB)
  6
Continuous
 62
     7
100
AcDbLine
 10
104.65
 20
464.8973353281
 30
0.0
 11
104.65
 21
464.8259516018
 31
0.0
  0
LINE
  5
1E1
330
92
100
AcDbEntity
  8
$DDT_AUDIT_GENERATED_(CB)
  6
Continuous
 62
     7
100
AcDbLine
 10
103.45
 20
464.8259516018
 30
0.0
 11
102.45
 21
464.8259516018
 31
0.0
  0
LINE
  5
1E2
330
92
100
AcDbEntity
  8
$DDT_AUDIT_GENERATED_(CB)
  6
Continuous
 62
     7
100
AcDbLine
 10
102.45
 20
464.8259516018
 30
0.0
 11
102.45
 21
464.8973353281
 31
0.0
  0
LINE
  5
1E3
330
92
100
AcDbEntity
  8
$DDT_AUDIT_GENERATED_(CB)
  6
Continuous
 62
     7
100
AcDbLine
 10
102.45
 20
464.8973353281
 30
0.0
 11
103.45
 21
464.8973353281
 31
0.0
  0
LINE
  5
1E4
330
92
100
AcDbEntity
  8
$DDT_AUDIT_GENERATED_(CB)
  6
Continuous
 62
     7
100
AcDbLine
 10
103.45
 20
464.8973353281
 30
0.0
 11
103.45
 21
464.8259516018
 31
0.0
  0
LINE
  5
1E5
330
92
100
AcDbEntity
  8
$DDT_AUDIT_GENERATED_(CB)
  6
Continuous
 62
     7
100
AcDbLine
 10
104.85
 20
464.7877731189
 30
0.0
 11
104.85
 21
464.8116748565
 31
0.0
  0
ELLIPSE
  5
1E6
330
92
100
AcDbEntity
  8
$DDT_AUDIT_GENERATED_(CB)
  6
Continuous
 62
     7
100
AcDbEllipse
 10
105.3500000231
 20
465.3756063169
 30
0.0
 11
-8.250000158956055
 21
-1.653639031262699E-9
 31
0.0
210
0.0
220
0.0
230
1.0
 40
0.0713837277
 41
1.485845701730411
 42
1.510153101118913
  0
LINE
  5
1E7
330
92
100
AcDbEntity
  8
$DDT_AUDIT_GENERATED_(CB)
  6
Continuous
 62
     7
100
AcDbLine
 10
103.65
 20
464.799329137
 30
0.0
 11
103.65
 21
464.8116748565
 31
0.0
  0
LINE
  5
1E8
330
92
100
AcDbEntity
  8
$DDT_AUDIT_GENERATED_(CB)
  6
Continuous
 62
     7
100
AcDbLine
 10
103.65
 20
464.8116748565
 30
0.0
 11
104.65
 21
464.8116748565
 31
0.0
  0
LINE
  5
1E9
330
92
100
AcDbEntity
  8
$DDT_AUDIT_GENERATED_(CB)
  6
Continuous
 62
     7
100
AcDbLine
 10
104.65
 20
464.8116748565
 30
0.0
 11
104.65
 21
464.7888142618
 31
0.0
  0
ELLIPSE
  5
1EA
330
92
100
AcDbEntity
  8
$DDT_AUDIT_GENERATED_(CB)
  6
Continuous
 62
     7
100
AcDbEllipse
 10
105.3500000687
 20
465.3756063163
 30
0.0
 11
-8.250000164505195
 21
-4.808868581118730E-9
 31
0.0
210
0.0
220
0.0
230
1.0
 40
0.0713837275
 41
1.338407250436983
 42
1.363248871961853
  0
LINE
  5
1EB
330
92
100
AcDbEntity
  8
$DDT_AUDIT_GENERATED_(CB)
  6
Continuous
 62
     7
100
AcDbLine
 10
102.9725013144
 20
464.8116748565
 30
0.0
 11
103.45
 21
464.8116748565
 31
0.0
  0
LINE
  5
1EC
330
92
100
AcDbEntity
  8
$DDT_AUDIT_GENERATED_(CB)
  6
Continuous
 62
     7
100
AcDbLine
 10
103.45
 20
464.8116748565
 30
0.0
 11
103.45
 21
464.8025212187
 31
0.0
  0
ELLIPSE
  5
1ED
330
92
100
AcDbEntity
  8
$DDT_AUDIT_GENERATED_(CB)
  6
Continuous
 62
     7
100
AcDbEllipse
 10
105.3499999995
 20
465.3756062943
 30
0.0
 11
-8.249999999117378
 21
3.611694276983712E-11
 31
0.0
210
0.0
220
0.0
230
1.0
 40
0.0713837263
 41
1.185582205159244
 42
1.278468933676793
  0
LINE
  5
1EE
330
92
100
AcDbEntity
  8
$DDT_AUDIT_GENERATED_(CB)
  6
Continuous
 62
     7
100
AcDbLine
 10
101.25
 20
464.8645641203
 30
0.0
 11
101.25
 21
464.8973353281
 31
0.0
  0
LINE
  5
1EF
330
92
100
AcDbEntity
  8
$DDT_AUDIT_GENERATED_(CB)
  6
Continuous
 62
     7
100
AcDbLine
 10
101.25
 20
464.8973353281
 30
0.0
 11
102.25
 21
464.8973353281
 31
0.0
  0
LINE
  5
1F0
330
92
100
AcDbEntity
  8
$DDT_AUDIT_GENERATED_(CB)
  6
Continuous
 62
     7
100
AcDbLine
 10
102.25
 20
464.8973353281
 30
0.0
 11
102.25
 21
464.829847478
 31
0.0
  0
ELLIPSE
  5
1F1
330
92
100
AcDbEntity
  8
$DDT_AUDIT_GENERATED_(CB)
  6
Continuous
 62
     7
100
AcDbEllipse
 10
105.3499999934
 20
465.3756062938
 30
0.0
 11
-8.249999992576949
 21
3.743533261157950E-10
 31
0.0
210
0.0
220
0.0
230
1.0
 40
0.0713837263
 41
0.9073568928677385
 42
0.9477783673085993
  0
LINE
  5
1F2
330
92
100
AcDbEntity
  8
$DDT_AUDIT_GENERATED_(CB)
  6
Continuous
 62
     7
100
AcDbLine
 10
100.05
 20
464.924291188
 30
0.0
 11
100.05
 21
464.9829957997
 31
0.0
  0
LINE
  5
1F3
330
92
100
AcDbEntity
  8
$DDT_AUDIT_GENERATED_(CB)
  6
Continuous
 62
     7
100
AcDbLine
 10
100.05
 20
464.9829957997
 30
0.0
 11
101.05
 21
464.9829957997
 31
0.0
  0
LINE
  5
1F4
330
92
100
AcDbEntity
  8
$DDT_AUDIT_GENERATED_(CB)
  6
Continuous
 62
     7
100
AcDbLine
 10
101.05
 20
464.9829957997
 30
0.0
 11
101.05
 21
464.9116120733
 31
0.0
  0
LINE
  5
1F5
330
92
100
AcDbEntity
  8
$DDT_AUDIT_GENERATED_(CB)
  6
Continuous
 62
     7
100
AcDbLine
 10
101.05
 20
464.9116120733
 30
0.0
 11
100.2693996418
 21
464.9116120733
 31
0.0
  0
LINE
  5
1F6
330
92
100
AcDbEntity
  8
$DDT_AUDIT_GENERATED_(CB)
  6
Continuous
 62
     7
100
AcDbLine
 10
100.2693996418
 20
464.9116120733
 30
0.0
 11
100.2693996418
 21
464.9829957997
 31
0.0
  0
ELLIPSE
  5
1F7
330
92
100
AcDbEntity
  8
$DDT_AUDIT_GENERATED_(CB)
  6
Continuous
 62
     7
100
AcDbEllipse
 10
105.3500000907
 20
465.3756063053
 30
0.0
 11
-8.250000112146472
 21
-5.605810954323331E-9
 31
0.0
210
0.0
220
0.0
230
1.0
 40
0.0713837267
 41
1.022525688077422
 42
1.050693118592405
  0
LINE
  5
1F8
330
92
100
AcDbEntity
  8
$DDT_AUDIT_GENERATED_(CB)
  6
Continuous
 62
     7
100
AcDbLine
 10
100.5362177033
 20
464.8973353281
 30
0.0
 11
101.05
 21
464.8973353281
 31
0.0
  0
LINE
  5
1F9
330
92
100
AcDbEntity
  8
$DDT_AUDIT_GENERATED_(CB)
  6
Continuous
 62
     7
100
AcDbLine
 10
101.05
 20
464.8973353281
 30
0.0
 11
101.05
 21
464.8730096026
 31
0.0
  0
ELLIPSE
  5
1FA
330
92
100
AcDbEntity
  8
$DDT_AUDIT_GENERATED_(CB)
  6
Continuous
 62
     7
100
AcDbEllipse
 10
105.3499999227
 20
465.3756062896
 30
0.0
 11
-8.249999919715314
 21
3.625613698154950E-9
 31
0.0
210
0.0
220
0.0
230
1.0
 40
0.0713837264
 41
0.697657455867369
 42
0.729727659424323
  0
LINE
  5
1FB
330
92
100
AcDbEntity
  8
$DDT_AUDIT_GENERATED_(CB)
  6
Continuous
 62
     7
100
AcDbLine
 10
98.85
 20
465.0129341089
 30
0.0
 11
98.85
 21
465.0686562712
 31
0.0
  0
LINE
  5
1FC
330
92
100
AcDbEntity
  8
$DDT_AUDIT_GENERATED_(CB)
  6
Continuous
 62
     7
100
AcDbLine
 10
98.85
 20
465.0686562712
 30
0.0
 11
99.85
 21
465.0686562712
 31
0.0
  0
LINE
  5
1FD
330
92
100
AcDbEntity
  8
$DDT_AUDIT_GENERATED_(CB)
  6
Continuous
 62
     7
100
AcDbLine
 10
99.85
 20
465.0686562712
 30
0.0
 11
99.85
 21
464.9972725449
 31
0.0
  0
LINE
  5
1FE
330
92
100
AcDbEntity
  8
$DDT_AUDIT_GENERATED_(CB)
  6
Continuous
 62
     7
100
AcDbLine
 10
99.85
 20
464.9972725449
 30
0.0
 11
99.0276191194
 21
464.9972725449
 31
0.0
  0
LINE
  5
1FF
330
92
100
AcDbEntity
  8
$DDT_AUDIT_GENERATED_(CB)
  6
Continuous
 62
     7
100
AcDbLine
 10
99.0276191194
 20
464.9972725449
 30
0.0
 11
99.0276191194
 21
465.0686562712
 31
0.0
  0
ELLIPSE
  5
200
330
92
100
AcDbEntity
  8
$DDT_AUDIT_GENERATED_(CB)
  6
Continuous
 62
     7
100
AcDbEllipse
 10
105.3499999333
 20
465.3756062889
 30
0.0
 11
-8.249999927312405
 21
3.615704957660171E-9
 31
0.0
210
0.0
220
0.0
230
1.0
 40
0.0713837263
 41
0.8410686735555785
 42
0.8731388771117596
  0
LINE
  5
201
330
92
100
AcDbEntity
  8
$DDT_AUDIT_GENERATED_(CB)
  6
Continuous
 62
     7
100
AcDbLine
 10
99.2008130619
 20
464.9829957997
 30
0.0
 11
99.85
 21
464.9829957997
 31
0.0
  0
LINE
  5
202
330
92
100
AcDbEntity
  8
$DDT_AUDIT_GENERATED_(CB)
  6
Continuous
 62
     7
100
AcDbLine
 10
99.85
 20
464.9829957997
 30
0.0
 11
99.85
 21
464.9366544169
 31
0.0
  0
LINE
  5
203
330
92
100
AcDbEntity
  8
$DDT_AUDIT_GENERATED_(CB)
  6
Continuous
 62
     7
100
AcDbLine
 10
98.65
 20
465.1685934881
 30
0.0
 11
98.1832167683
 21
465.1685934881
 31
0.0
  0
LINE
  5
204
330
92
100
AcDbEntity
  8
$DDT_AUDIT_GENERATED_(CB)
  6
Continuous
 62
     7
100
AcDbLine
 10
98.65
 20
465.2205075485
 30
0.0
 11
98.65
 21
465.1685934881
 31
0.0
  0
ELLIPSE
  5
205
330
92
100
AcDbEntity
  8
$DDT_AUDIT_GENERATED_(CB)
  6
Continuous
 62
     7
100
AcDbEllipse
 10
105.3500000358
 20
465.3756062959
 30
0.0
 11
-8.250000036170386
 21
-1.302277730097501E-9
 31
0.0
210
0.0
220
0.0
230
1.0
 40
0.0713837262
 41
0.5201032021855349
 42
0.5482706329334935
  0
LINE
  5
206
330
92
100
AcDbEntity
  8
$DDT_AUDIT_GENERATED_(CB)
  6
Continuous
 62
     7
100
AcDbLine
 10
98.07281693
 20
465.1543167428
 30
0.0
 11
98.65
 21
465.1543167428
 31
0.0
  0
LINE
  5
207
330
92
100
AcDbEntity
  8
$DDT_AUDIT_GENERATED_(CB)
  6
Continuous
 62
     7
100
AcDbLine
 10
98.65
 20
465.1543167428
 30
0.0
 11
98.65
 21
465.0829330165
 31
0.0
  0
LINE
  5
208
330
92
100
AcDbEntity
  8
$DDT_AUDIT_GENERATED_(CB)
  6
Continuous
 62
     7
100
AcDbLine
 10
98.65
 20
465.0829330165
 30
0.0
 11
98.1909148629
 21
465.0829330165
 31
0.0
  0
LINE
  5
209
330
92
100
AcDbEntity
  8
$DDT_AUDIT_GENERATED_(CB)
  6
Continuous
 62
     7
100
AcDbLine
 10
98.1909148629
 20
465.0829330165
 30
0.0
 11
98.1909148629
 21
465.1543167428
 31
0.0
  0
ELLIPSE
  5
20A
330
92
100
AcDbEntity
  8
$DDT_AUDIT_GENERATED_(CB)
  6
Continuous
 62
     7
100
AcDbEllipse
 10
105.3499999912
 20
465.3756062939
 30
0.0
 11
-8.249999990955596
 21
3.796442327175242E-10
 31
0.0
210
0.0
220
0.0
230
1.0
 40
0.0713837263
 41
0.623017960136118
 42
0.6634394345772454
  0
LINE
  5
20B
330
92
100
AcDbEntity
  8
$DDT_AUDIT_GENERATED_(CB)
  6
Continuous
 62
     7
100
AcDbLine
 10
98.3092258948
 20
465.0686562712
 30
0.0
 11
98.65
 21
465.0686562712
 31
0.0
  0
LINE
  5
20C
330
92
100
AcDbEntity
  8
$DDT_AUDIT_GENERATED_(CB)
  6
Continuous
 62
     7
100
AcDbLine
 10
98.65
 20
465.0686562712
 30
0.0
 11
98.65
 21
465.0319805764
 31
0.0
  0
LINE
  5
20D
330
92
100
AcDbEntity
  8
$DDT_AUDIT_GENERATED_(CB)
  6
Continuous
 62
     7
100
AcDbLine
 10
104.85
 20
465.4112981576
 30
0.0
 11
105.85
 21
465.4112981576
 31
0.0
  0
LINE
  5
20E
330
92
100
AcDbEntity
  8
$DDT_AUDIT_GENERATED_(CB)
  6
Continuous
 62
     7
100
AcDbLine
 10
104.85
 20
465.4255749028
 30
0.0
 11
104.85
 21
465.464715006
 31
0.0
  0
LINE
  5
20F
330
92
100
AcDbEntity
  8
$DDT_AUDIT_GENERATED_(CB)
  6
Continuous
 62
     7
100
AcDbLine
 10
105.85
 20
465.4255749028
 30
0.0
 11
104.85
 21
465.4255749028
 31
0.0
  0
LINE
  5
210
330
92
100
AcDbEntity
  8
$DDT_AUDIT_GENERATED_(CB)
  6
Continuous
 62
     7
100
AcDbLine
 10
103.65
 20
465.4112981576
 30
0.0
 11
104.65
 21
465.4112981576
 31
0.0
  0
LINE
  5
211
330
92
100
AcDbEntity
  8
$DDT_AUDIT_GENERATED_(CB)
  6
Continuous
 62
     7
100
AcDbLine
 10
103.65
 20
465.4255749028
 30
0.0
 11
103.65
 21
465.4531589879
 31
0.0
  0
LINE
  5
212
330
92
100
AcDbEntity
  8
$DDT_AUDIT_GENERATED_(CB)
  6
Continuous
 62
     7
100
AcDbLine
 10
104.65
 20
465.463673863
 30
0.0
 11
104.65
 21
465.4255749028
 31
0.0
  0
LINE
  5
213
330
92
100
AcDbEntity
  8
$DDT_AUDIT_GENERATED_(CB)
  6
Continuous
 62
     7
100
AcDbLine
 10
104.65
 20
465.4255749028
 30
0.0
 11
103.65
 21
465.4255749028
 31
0.0
  0
LINE
  5
214
330
92
100
AcDbEntity
  8
$DDT_AUDIT_GENERATED_(CB)
  6
Continuous
 62
     7
100
AcDbLine
 10
102.45
 20
465.4112981576
 30
0.0
 11
103.45
 21
465.4112981576
 31
0.0
  0
LINE
  5
215
330
92
100
AcDbEntity
  8
$DDT_AUDIT_GENERATED_(CB)
  6
Continuous
 62
     7
100
AcDbLine
 10
102.45
 20
465.4255749028
 30
0.0
 11
102.45
 21
465.4282142613
 31
0.0
  0
LINE
  5
216
330
92
100
AcDbEntity
  8
$DDT_AUDIT_GENERATED_(CB)
  6
Continuous
 62
     7
100
AcDbLine
 10
103.45
 20
465.4499669061
 30
0.0
 11
103.45
 21
465.4255749028
 31
0.0
  0
LINE
  5
217
330
92
100
AcDbEntity
  8
$DDT_AUDIT_GENERATED_(CB)
  6
Continuous
 62
     7
100
AcDbLine
 10
103.45
 20
465.4255749028
 30
0.0
 11
102.45
 21
465.4255749028
 31
0.0
  0
LINE
  5
218
330
92
100
AcDbEntity
  8
$DDT_AUDIT_GENERATED_(CB)
  6
Continuous
 62
     7
100
AcDbLine
 10
101.8838226165
 20
465.4112981576
 30
0.0
 11
102.25
 21
465.4112981576
 31
0.0
  0
LINE
  5
219
330
92
100
AcDbEntity
  8
$DDT_AUDIT_GENERATED_(CB)
  6
Continuous
 62
     7
100
AcDbLine
 10
106.05
 20
465.4112981576
 30
0.0
 11
107.05
 21
465.4112981576
 31
0.0
  0
LINE
  5
21A
330
92
100
AcDbEntity
  8
$DDT_AUDIT_GENERATED_(CB)
  6
Continuous
 62
     7
100
AcDbLine
 10
107.25
 20
465.4112981576
 30
0.0
 11
108.25
 21
465.4112981576
 31
0.0
  0
LINE
  5
21B
330
92
100
AcDbEntity
  8
$DDT_AUDIT_GENERATED_(CB)
  6
Continuous
 62
     7
100
AcDbLine
 10
108.45
 20
465.4112981576
 30
0.0
 11
108.8161773835
 21
465.4112981576
 31
0.0
  0
LINE
  5
21C
330
92
100
AcDbEntity
  8
$DDT_AUDIT_GENERATED_(CB)
  6
Continuous
 62
     7
100
AcDbLine
 10
105.85
 20
465.464715006
 30
0.0
 11
105.85
 21
465.4255749028
 31
0.0
  0
LINE
  5
21D
330
92
100
AcDbEntity
  8
$DDT_AUDIT_GENERATED_(CB)
  6
Continuous
 62
     7
100
AcDbLine
 10
107.05
 20
465.4531589879
 30
0.0
 11
107.05
 21
465.4255749028
 31
0.0
  0
LINE
  5
21E
330
92
100
AcDbEntity
  8
$DDT_AUDIT_GENERATED_(CB)
  6
Continuous
 62
     7
100
AcDbLine
 10
107.05
 20
465.4255749028
 30
0.0
 11
106.05
 21
465.4255749028
 31
0.0
  0
LINE
  5
21F
330
92
100
AcDbEntity
  8
$DDT_AUDIT_GENERATED_(CB)
  6
Continuous
 62
     7
100
AcDbLine
 10
106.05
 20
465.4255749028
 30
0.0
 11
106.05
 21
465.463673863
 31
0.0
  0
LINE
  5
220
330
92
100
AcDbEntity
  8
$DDT_AUDIT_GENERATED_(CB)
  6
Continuous
 62
     7
100
AcDbLine
 10
108.25
 20
465.4282142613
 30
0.0
 11
108.25
 21
465.4255749028
 31
0.0
  0
LINE
  5
221
330
92
100
AcDbEntity
  8
$DDT_AUDIT_GENERATED_(CB)
  6
Continuous
 62
     7
100
AcDbLine
 10
108.25
 20
465.4255749028
 30
0.0
 11
107.25
 21
465.4255749028
 31
0.0
  0
LINE
  5
222
330
92
100
AcDbEntity
  8
$DDT_AUDIT_GENERATED_(CB)
  6
Continuous
 62
     7
100
AcDbLine
 10
107.25
 20
465.4255749028
 30
0.0
 11
107.25
 21
465.4499669061
 31
0.0
  0
LINE
  5
223
330
92
100
AcDbEntity
  8
$DDT_AUDIT_GENERATED_(CB)
  6
Continuous
 62
     7
100
AcDbLine
 10
114.75
 20
464.8768818305
 30
0.0
 11
114.75
 21
465.0309510094
 31
0.0
  0
LINE
  5
224
330
92
100
AcDbEntity
  8
$DDT_AUDIT_GENERATED_(CB)
  6
Continuous
 62
     7
100
AcDbLine
 10
95.95
 20
465.0309510094
 30
0.0
 11
95.95
 21
464.8768818305
 31
0.0
  0
SPLINE
  5
226
330
92
100
AcDbEntity
  8
$DDT_AUDIT_GENERATED_(225)
  6
Continuous
 62
     7
100
AcDbSpline
210
0.0
220
0.0
230
1.0
 70
     8
 71
     3
 72
    28
 73
    24
 74
     0
 42
0.0000000001035911
 43
0.0000000001
 40
0.2706235863206783
 40
0.2706235863206783
 40
0.2706235863206783
 40
0.2706235863206783
 40
0.3124999999999994
 40
0.3124999999999994
 40
0.3437499999999994
 40
0.3437499999999994
 40
0.3749999999999993
 40
0.3749999999999993
 40
0.4374999999999993
 40
0.4374999999999993
 40
0.4999999999999993
 40
0.4999999999999993
 40
0.5312499999999993
 40
0.5312499999999993
 40
0.5624999999999994
 40
0.5624999999999994
 40
0.6249999999999994
 40
0.6249999999999994
 40
0.6874999999999994
 40
0.6874999999999994
 40
0.7187499999999994
 40
0.7187499999999994
 40
0.7492799497112294
 40
0.7492799497112294
 40
0.7492799497112294
 40
0.7492799497112294
 10
127.6737361396769
 20
587.7495219974167
 30
0.0
 10
126.831607155721
 20
587.9860593248018
 30
0.0
 10
125.8635147352593
 20
588.2193510910881
 30
0.0
 10
123.957229187711
 20
588.6109772700091
 30
0.0
 10
123.0692091588776
 20
588.7735708697087
 30
0.0
 10
121.2071822638321
 20
589.0744808987548
 30
0.0
 10
120.2271877730374
 20
589.2141785145918
 30
0.0
 10
117.1411859775026
 20
589.5966226873592
 30
0.0
 10
114.8730867911063
 20
589.8020510479511
 30
0.0
 10
110.2150914663885
 20
590.0745453767742
 30
0.0
 10
107.7560024686068
 20
590.1458104469464
 30
0.0
 10
104.1163231097845
 20
590.1452486268013
 30
0.0
 10
102.907803802086
 20
590.1277308105514
 30
0.0
 10
100.5002356340931
 20
590.0580451270481
 30
0.0
 10
99.2922872427313
 20
590.0052152457415
 30
0.0
 10
95.77848794937063
 20
589.7986637228628
 30
0.0
 10
93.56436959221708
 20
589.5979864561276
 30
0.0
 10
89.4002364042554
 20
589.0811720088032
 30
0.0
 10
87.54724876712457
 20
588.77702615117
 30
0.0
 10
85.10449658251747
 20
588.2749211763573
 30
0.0
 10
84.34666162909777
 20
588.0993492938115
 30
0.0
 10
83.00915498355374
 20
587.7523285326342
 30
0.0
 10
82.41923455347522
 20
587.5796473382607
 30
0.0
 10
81.90021574100776
 20
587.4080622351875
 30
0.0
  0
ARC
  5
227
330
92
100
AcDbEntity
  8
$DDT_AUDIT_GENERATED_(225)
  6
Continuous
 62
     7
100
AcDbCircle
 10
97.9149038423
 20
572.5305150938
 30
0.0
 40
9.562824536288462
100
AcDbArc
 50
244.7245671493
 51
267.0110344926
  0
ARC
  5
228
330
92
100
AcDbEntity
  8
$DDT_AUDIT_GENERATED_(225)
  6
Continuous
 62
     7
100
AcDbCircle
 10
-362.1068342142
 20
456.7687275465
 30
0.0
 40
467.9769512010207
100
AcDbArc
 50
13.3005858193
 51
15.5734774743
  0
ARC
  5
229
330
92
100
AcDbEntity
  8
$DDT_AUDIT_GENERATED_(225)
  6
Continuous
 62
     7
100
AcDbCircle
 10
84.3998728204
 20
570.2471224171
 30
0.0
 40
13.53208208190637
100
AcDbArc
 50
81.3281920405
 51
90.4139415636
  0
SPLINE
  5
22A
330
92
100
AcDbEntity
  8
$DDT_AUDIT_GENERATED_(225)
  6
Continuous
 62
     7
100
AcDbSpline
210
0.0
220
0.0
230
1.0
 70
     8
 71
     3
 72
    22
 73
    18
 74
     0
 42
0.0000000037224558
 43
0.0000000001
 40
0.0
 40
0.0
 40
0.0
 40
0.0
 40
0.0624999999999999
 40
0.0624999999999999
 40
0.1249999999999998
 40
0.1249999999999998
 40
0.2499999999999995
 40
0.2499999999999995
 40
0.5000000000000002
 40
0.5000000000000002
 40
0.7500000000000009
 40
0.7500000000000009
 40
0.8750000000000012
 40
0.8750000000000012
 40
0.9375000000000007
 40
0.9375000000000007
 40
1.0
 40
1.0
 40
1.0
 40
1.0
 10
88.68925485957573
 20
582.4083428402598
 30
0.0
 10
88.67848619591437
 20
582.4458691134655
 30
0.0
 10
88.66506180250639
 20
582.4834436657418
 30
0.0
 10
88.63381528604813
 20
582.5559851865279
 30
0.0
 10
88.61586176429188
 20
582.5914098208525
 30
0.0
 10
88.55517938577918
 20
582.6952054562786
 30
0.0
 10
88.5056426493301
 20
582.7611007891788
 30
0.0
 10
88.33053940065231
 20
582.9493238035881
 30
0.0
 10
88.17860746181296
 20
583.0622291973032
 30
0.0
 10
87.80400917363683
 20
583.2643185538325
 30
0.0
 10
87.58064348507303
 20
583.3536951131427
 30
0.0
 10
87.19166606674118
 20
583.469411228833
 30
0.0
 10
87.05344699336463
 20
583.5048154685273
 30
0.0
 10
86.83320081697089
 20
583.5532275255574
 30
0.0
 10
86.75763138596167
 20
583.5685815791379
 30
0.0
 10
86.60215785480472
 20
583.5977223249145
 30
0.0
 10
86.52128568060823
 20
583.6116622616258
 30
0.0
 10
86.44016464150204
 20
583.6245083634306
 30
0.0
  0
SPLINE
  5
22B
330
92
100
AcDbEntity
  8
$DDT_AUDIT_GENERATED_(225)
  6
Continuous
 62
     7
100
AcDbSpline
210
0.0
220
0.0
230
1.0
 70
     8
 71
     3
 72
    14
 73
    10
 74
     0
 42
0.0000000002421286
 43
0.0000000001
 40
0.0000025267283519
 40
0.0000025267283519
 40
0.0000025267283519
 40
0.0000025267283519
 40
0.0625
 40
0.0625
 40
0.09375
 40
0.09375
 40
0.1250000000000001
 40
0.1250000000000001
 40
0.1512728996206679
 40
0.1512728996206679
 40
0.1512728996206679
 40
0.1512728996206679
 10
84.30191673754352
 20
583.7788514777103
 30
0.0
 10
82.71505455021247
 20
583.7799567043218
 30
0.0
 10
81.43688804869096
 20
583.8265776864414
 30
0.0
 10
79.97269083708943
 20
583.9864494688544
 30
0.0
 10
79.56136979166902
 20
584.0552131183751
 30
0.0
 10
78.9201952499223
 20
584.2207220041983
 30
0.0
 10
78.68598089345268
 20
584.3177454926175
 30
0.0
 10
78.41340933785195
 20
584.5227830231789
 30
0.0
 10
78.35141327247014
 20
584.6273115534374
 30
0.0
 10
78.3517337755465
 20
584.740708473439
 30
0.0
  0
SPLINE
  5
22C
330
92
100
AcDbEntity
  8
$DDT_AUDIT_GENERATED_(225)
  6
Continuous
 62
     7
100
AcDbSpline
210
0.0
220
0.0
230
1.0
 70
     8
 71
     3
 72
    12
 73
     8
 74
     0
 42
0.0000000002411431
 43
0.0000000001
 40
0.8489489478170613
 40
0.8489489478170613
 40
0.8489489478170613
 40
0.8489489478170613
 40
0.875
 40
0.875
 40
0.9375
 40
0.9375
 40
1.0
 40
1.0
 40
1.0
 40
1.0
 10
132.3500248241187
 20
584.7387148564458
 30
0.0
 10
132.3500942863319
 20
584.6270008696468
 30
0.0
 10
132.288923822846
 20
584.5243845918664
 30
0.0
 10
131.8743949841932
 20
584.2075150149417
 30
0.0
 10
131.2205091006571
 20
584.039457270235
 30
0.0
 10
129.2851222576575
 20
583.826503318964
 30
0.0
 10
127.9841059464648
 20
583.7784092321767
 30
0.0
 10
126.397201854047
 20
583.7774435544798
 30
0.0
  0
SPLINE
  5
22D
330
92
100
AcDbEntity
  8
$DDT_AUDIT_GENERATED_(225)
  6
Continuous
 62
     7
100
AcDbSpline
210
0.0
220
0.0
230
1.0
 70
     8
 71
     3
 72
    12
 73
     8
 74
     0
 42
0.0000000036519011
 43
0.0000000001
 40
0.0
 40
0.0
 40
0.0
 40
0.0
 40
0.2500000000000001
 40
0.2500000000000001
 40
0.5000000000000001
 40
0.5000000000000001
 40
1.0
 40
1.0
 40
1.0
 40
1.0
 10
124.2850531069635
 20
583.6273054930882
 30
0.0
 10
123.9535267428344
 20
583.5757912041377
 30
0.0
 10
123.656996706045
 20
583.5115632700698
 30
0.0
 10
123.1343074023619
 20
583.3582232373043
 30
0.0
 10
122.9071005960127
 20
583.2686047668975
 30
0.0
 10
122.3360177801102
 20
582.9636132323866
 30
0.0
 10
122.0976395083285
 20
582.7129708620222
 30
0.0
 10
122.0102661047009
 20
582.4081374679081
 30
0.0
  0
ARC
  5
22E
330
92
100
AcDbEntity
  8
$DDT_AUDIT_GENERATED_(225)
  6
Continuous
 62
     7
100
AcDbCircle
 10
126.3374695193
 20
569.6857915905
 30
0.0
 40
14.09177856148132
100
AcDbArc
 50
89.7571335006
 51
98.374710902
  0
ARC
  5
22F
330
92
100
AcDbEntity
  8
$DDT_AUDIT_GENERATED_(225)
  6
Continuous
 62
     7
100
AcDbCircle
 10
573.3570679206
 20
456.5662891553
 30
0.0
 40
468.5617422454929
100
AcDbArc
 50
164.4207806911
 51
166.6906442511
  0
ARC
  5
230
330
92
100
AcDbEntity
  8
$DDT_AUDIT_GENERATED_(225)
  6
Continuous
 62
     7
100
AcDbCircle
 10
112.8670932271
 20
572.1869677111
 30
0.0
 40
9.21515424262181
100
AcDbArc
 50
272.5432862209
 51
295.7161638052
  0
ARC
  5
231
330
92
100
AcDbEntity
  8
$DDT_AUDIT_GENERATED_(225)
  6
Continuous
 62
     7
100
AcDbCircle
 10
105.3405383467
 20
1028.5104038339
 30
0.0
 40
465.5971428265768
100
AcDbArc
 50
269.0248019416
 51
270.9765758454
  0
SPLINE
  5
232
330
92
100
AcDbEntity
  8
$DDT_AUDIT_GENERATED_(225)
  6
Continuous
 62
     7
100
AcDbSpline
210
0.0
220
0.0
230
1.0
 70
     8
 71
     3
 72
    14
 73
    10
 74
     0
 42
0.0000000004596295
 43
0.0000000001
 40
0.3173786247346556
 40
0.3173786247346556
 40
0.3173786247346556
 40
0.3173786247346556
 40
0.375
 40
0.375
 40
0.5
 40
0.5
 40
0.625
 40
0.625
 40
0.6828251927554165
 40
0.6828251927554165
 40
0.6828251927554165
 40
0.6828251927554165
 10
108.3182783989729
 20
559.1456152644027
 30
0.0
 10
108.1657561129812
 20
558.7702661843441
 30
0.0
 10
107.9529799670331
 20
558.4180768902471
 30
0.0
 10
107.1006846090552
 20
557.4332555933557
 30
0.0
 10
106.2482854583641
 20
556.9928266774593
 30
0.0
 10
104.4693961409367
 20
556.987304971707
 30
0.0
 10
103.6081388469197
 20
557.4270812774056
 30
0.0
 10
102.7520310853527
 20
558.4104608266907
 30
0.0
 10
102.5373480447774
 20
558.7649717504136
 30
0.0
 10
102.3834408306276
 20
559.1430285419818
 30
0.0
  0
LINE
  5
233
330
92
100
AcDbEntity
  8
$DDT_AUDIT_GENERATED_(225)
  6
Continuous
 62
     7
100
AcDbLine
 10
78.3547209361
 20
554.2378233878
 30
0.0
 11
78.355845196
 21
554.1954100707
 31
0.0
  0
ARC
  5
234
330
92
100
AcDbEntity
  8
$DDT_AUDIT_GENERATED_(225)
  6
Continuous
 62
     7
100
AcDbCircle
 10
130.1816096428
 20
554.159872958
 30
0.0
 40
2.162837132301496
100
AcDbArc
 50
348.7358152275
 51
0.9414570195
  0
ELLIPSE
  5
235
330
92
100
AcDbEntity
  8
$DDT_AUDIT_GENERATED_(225)
  6
Continuous
 62
     7
100
AcDbEllipse
 10
105.35
 20
554.6246823021
 30
0.0
 11
27.00000000000002
 21
5.515032874825466E-11
 31
0.0
210
0.0
220
0.0
230
1.0
 40
0.7662326496
 41
-0.0187005122982364
 42
-0.0000000000031053
  0
ELLIPSE
  5
236
330
92
100
AcDbEntity
  8
$DDT_AUDIT_GENERATED_(225)
  6
Continuous
 62
     7
100
AcDbEllipse
 10
105.35
 20
554.6246823021
 30
0.0
 11
27.00000000000002
 21
5.515032874825466E-11
 31
0.0
210
0.0
220
0.0
230
1.0
 40
0.7662326496
 41
3.141592653586682
 42
3.160293165876157
  0
LINE
  5
237
330
92
100
AcDbEntity
  8
$DDT_AUDIT_GENERATED_(225)
  6
Continuous
 62
     7
100
AcDbLine
 10
132.344154804
 20
554.1954100707
 30
0.0
 11
132.3452790639
 21
554.2378233877
 31
0.0
  0
ELLIPSE
  5
238
330
92
100
AcDbEntity
  8
$DDT_AUDIT_GENERATED_(225)
  6
Continuous
 62
     7
100
AcDbEllipse
 10
79.3954673182
 20
553.7476641953
 30
0.0
 11
0.9464785553019649
 21
0.3227667026716036
 31
0.0
210
0.0
220
0.0
230
1.0
 40
0.9830855773
 41
2.81811775543088
 42
3.141973604197226
  0
ELLIPSE
  5
239
330
92
100
AcDbEntity
  8
$DDT_AUDIT_GENERATED_(225)
  6
Continuous
 62
     7
100
AcDbEllipse
 10
105.35
 20
553.250601584
 30
0.0
 11
-26.63105586653975
 21
4.542199949497672E-11
 31
0.0
210
0.0
220
0.0
230
1.0
 40
0.1736481777
 41
0.2217693044224915
 42
2.89394302867294
  0
ARC
  5
23A
330
92
100
AcDbEntity
  8
$DDT_AUDIT_GENERATED_(225)
  6
Continuous
 62
     7
100
AcDbCircle
 10
100.1040378096
 20
566.5493646524
 30
0.0
 40
7.105799924207748
100
AcDbArc
 50
196.7133879041
 51
263.7750031736
  0
ARC
  5
23B
330
92
100
AcDbEntity
  8
$DDT_AUDIT_GENERATED_(225)
  6
Continuous
 62
     7
100
AcDbCircle
 10
105.3553321457
 20
598.7516906819
 30
0.0
 40
39.72527336746977
100
AcDbArc
 50
261.2811193598
 51
278.6925393967
  0
ARC
  5
23C
330
92
100
AcDbEntity
  8
$DDT_AUDIT_GENERATED_(225)
  6
Continuous
 62
     7
100
AcDbCircle
 10
110.6054898925
 20
566.5314235403
 30
0.0
 40
7.088886768464342
100
AcDbArc
 50
276.102361763
 51
343.3745080758
  0
SPLINE
  5
23D
330
92
100
AcDbEntity
  8
$DDT_AUDIT_GENERATED_(225)
  6
Continuous
 62
     7
100
AcDbSpline
210
0.0
220
0.0
230
1.0
 70
     8
 71
     3
 72
    16
 73
    12
 74
     0
 42
0.0000000021645919
 43
0.0000000001
 40
0.0
 40
0.0
 40
0.0
 40
0.0
 40
0.0103690737101093
 40
0.1779726727843513
 40
0.3484666524872344
 40
0.5243261474521266
 40
0.6843590882103145
 40
0.7837231832908161
 40
0.8682809391635193
 40
0.9448523860008288
 40
1.0
 40
1.0
 40
1.0
 40
1.0
 10
81.79324844116262
 20
587.3814465882682
 30
0.0
 10
81.77107131123711
 20
587.3745961528676
 30
0.0
 10
81.44336697176008
 20
587.2733057447444
 30
0.0
 10
80.85874274106808
 20
587.0543421067231
 30
0.0
 10
80.11610755971816
 20
586.7432826835318
 30
0.0
 10
79.50744484738424
 20
586.4216859600485
 30
0.0
 10
79.0655060834948
 20
586.1149644529304
 30
0.0
 10
78.7410429681132
 20
585.7934178774212
 30
0.0
 10
78.524771795382
 20
585.4749249969167
 30
0.0
 10
78.37508696614621
 20
585.1103833848681
 30
0.0
 10
78.36839064973162
 20
584.8689819481305
 30
0.0
 10
78.36564526925731
 20
584.7485531652287
 30
0.0
  0
SPLINE
  5
23E
330
92
100
AcDbEntity
  8
$DDT_AUDIT_GENERATED_(225)
  6
Continuous
 62
     7
100
AcDbSpline
210
0.0
220
0.0
230
1.0
 70
     8
 71
     3
 72
    18
 73
    14
 74
     0
 42
0.0000000017231868
 43
0.0000000001
 40
0.0
 40
0.0
 40
0.0
 40
0.0
 40
0.0036074140062748
 40
0.0673486064193222
 40
0.1313346951409731
 40
0.201790947681046
 40
0.2873685004664191
 40
0.4039197836045973
 40
0.5583323290392692
 40
0.6959420577640595
 40
0.8410959444382949
 40
0.982092393603185
 40
1.0
 40
1.0
 40
1.0
 40
1.0
 10
132.3447487156356
 20
584.7413553562453
 30
0.0
 10
132.346187776853
 20
584.750614471364
 30
0.0
 10
132.3692835111726
 20
584.8993956625054
 30
0.0
 10
132.2847020549011
 20
585.2081170290767
 30
0.0
 10
132.1279052648051
 20
585.5599926724942
 30
0.0
 10
131.8987295231
 20
585.8577757666757
 30
0.0
 10
131.5931383697803
 20
586.1433068822901
 30
0.0
 10
131.1567834770406
 20
586.4431782650901
 30
0.0
 10
130.5684486839268
 20
586.7515131308754
 30
0.0
 10
129.8110046986111
 20
587.0724079278168
 30
0.0
 10
128.9497373989961
 20
587.3764737044452
 30
0.0
 10
128.2369150719
 20
587.6032974127852
 30
0.0
 10
127.8387226760031
 20
587.7095763497524
 30
0.0
 10
127.7864446246874
 20
587.7235131702496
 30
0.0
  0
LINE
  5
23F
330
92
100
AcDbEntity
  8
$DDT_AUDIT_GENERATED_(225)
  6
Continuous
 62
     7
100
AcDbLine
 10
132.35
 20
554.624682302
 30
0.0
 11
132.3500000001
 21
584.7415976783
 31
0.0
  0
LINE
  5
240
330
92
100
AcDbEntity
  8
$DDT_AUDIT_GENERATED_(225)
  6
Continuous
 62
     7
100
AcDbLine
 10
78.3500000001
 20
584.7404265251
 30
0.0
 11
78.35
 21
554.6246823021
 31
0.0
  0
ARC
  5
241
330
92
100
AcDbEntity
  8
$DDT_AUDIT_GENERATED_(225)
  6
Continuous
 62
     7
100
AcDbCircle
 10
129.7903691631
 20
554.3728334665
 30
0.0
 40
2.636919040679932
100
AcDbArc
 50
300.0067072917
 51
338.931355569
  0
ARC
  5
242
330
92
100
AcDbEntity
  8
$DDT_AUDIT_GENERATED_(225)
  6
Continuous
 62
     7
100
AcDbCircle
 10
80.8271140187
 20
554.3233401136
 30
0.0
 40
2.542179945564765
100
AcDbArc
 50
200.6962887405
 51
235.3523018151
  0
ARC
  5
243
330
92
100
AcDbEntity
  8
$DDT_AUDIT_GENERATED_(225)
  6
Continuous
 62
     7
100
AcDbCircle
 10
80.6551944851
 20
554.0802622273
 30
0.0
 40
2.300614373176812
100
AcDbArc
 50
177.661690615
 51
196.6793571268
  0
ARC
  5
244
330
92
100
AcDbEntity
  8
$DDT_AUDIT_GENERATED_(225)
  6
Continuous
 62
     7
100
AcDbCircle
 10
129.8306728365
 20
554.1359774224
 30
0.0
 40
2.519452570174769
100
AcDbArc
 50
343.4355130629
 51
3.1063961316
  0
LINE
  5
245
330
92
100
AcDbEntity
  8
$DDT_AUDIT_GENERATED_(225)
  6
Continuous
 62
     7
100
AcDbLine
 10
132.3451731022
 20
554.2173735966
 30
0.0
 11
132.3449532584
 21
554.4337639056
 31
0.0
  0
ELLIPSE
  5
247
330
92
100
AcDbEntity
  8
$DDT_AUDIT_GENERATED_(246)
  6
Continuous
 62
     7
100
AcDbEllipse
 10
105.35
 20
550.905509989
 30
0.0
 11
25.02159067685336
 21
0.0
 31
0.0
210
0.0
220
0.0
230
1.0
 40
0.1736481777
 41
3.084480966001762
 42
6.283185307179586
  0
ELLIPSE
  5
248
330
92
100
AcDbEntity
  8
$DDT_AUDIT_GENERATED_(246)
  6
Continuous
 62
     7
100
AcDbEllipse
 10
105.35
 20
550.905509989
 30
0.0
 11
25.02159067685336
 21
0.0
 31
0.0
210
0.0
220
0.0
230
1.0
 40
0.1736481777
 41
0.0
 42
0.057111687588014
  0
ELLIPSE
  5
249
330
92
100
AcDbEntity
  8
$DDT_AUDIT_GENERATED_(246)
  6
Continuous
 62
     7
100
AcDbEllipse
 10
105.35
 20
550.905509989
 30
0.0
 11
-25.19019304932059
 21
0.0
 31
0.0
210
0.0
220
0.0
230
1.0
 40
0.1736481777
 41
0.393546678169288
 42
2.767339692675246
  0
ARC
  5
24A
330
92
100
AcDbEntity
  8
$DDT_AUDIT_GENERATED_(246)
  6
Continuous
 62
     7
100
AcDbCircle
 10
105.35
 20
542.9285671896
 30
0.0
 40
26.3
100
AcDbArc
 50
18.2241893037
 51
19.2085132965
  0
ARC
  5
24B
330
92
100
AcDbEntity
  8
$DDT_AUDIT_GENERATED_(246)
  6
Continuous
 62
     7
100
AcDbCircle
 10
105.35
 20
542.9285671896
 30
0.0
 40
26.3
100
AcDbArc
 50
160.7914867033
 51
161.7758106963
  0
LINE
  5
24C
330
92
100
AcDbEntity
  8
$DDT_AUDIT_GENERATED_(246)
  6
Continuous
 62
     7
100
AcDbLine
 10
131.3285359178
 20
517.8782000499
 30
0.0
 11
131.0401436007
 21
550.4242671073
 31
0.0
  0
LINE
  5
24D
330
92
100
AcDbEntity
  8
$DDT_AUDIT_GENERATED_(246)
  6
Continuous
 62
     7
100
AcDbLine
 10
79.6598563993
 20
550.4242671073
 30
0.0
 11
79.37158981
 21
517.8923888648
 31
0.0
  0
SPLINE
  5
24E
330
92
100
AcDbEntity
  8
$DDT_AUDIT_GENERATED_(246)
  6
Continuous
 62
     7
100
AcDbSpline
210
0.0
220
0.0
230
1.0
 70
     8
 71
     3
 72
    11
 73
     7
 74
     0
 42
0.0000000026509941
 43
0.0000000001
 40
0.0
 40
0.0
 40
0.0
 40
0.0
 40
0.0758644974348903
 40
0.1915907684034419
 40
0.3137459396609517
 40
0.3929310647120681
 40
0.3929310647120681
 40
0.3929310647120681
 40
0.3929310647120681
 10
131.022747694726
 20
550.4393701150431
 30
0.0
 10
131.021945387143
 20
550.5422432775335
 30
0.0
 10
131.0178881381881
 20
550.7611940213403
 30
0.0
 10
130.8524755259887
 20
551.1246118606647
 30
0.0
 10
130.6145230253579
 20
551.4334835499097
 30
0.0
 10
130.4214075870875
 20
551.6135269876144
 30
0.0
 10
130.3393307281862
 20
551.6823606620212
 30
0.0
  0
SPLINE
  5
24F
330
92
100
AcDbEntity
  8
$DDT_AUDIT_GENERATED_(246)
  6
Continuous
 62
     7
100
AcDbSpline
210
0.0
220
0.0
230
1.0
 70
     8
 71
     3
 72
    11
 73
     7
 74
     0
 42
0.0000000022598479
 43
0.0000000001
 40
0.6681815601033806
 40
0.6681815601033806
 40
0.6681815601033806
 40
0.6681815601033806
 40
0.7312846744128487
 40
0.8403911600416044
 40
0.9378598851200846
 40
1.0
 40
1.0
 40
1.0
 40
1.0
 10
80.3481398486137
 20
551.6718334342673
 30
0.0
 10
80.27194641249864
 20
551.6072273706214
 30
0.0
 10
80.07867655465303
 20
551.4260857199507
 30
0.0
 10
79.84179484275539
 20
551.1172281909758
 30
0.0
 10
79.68077593968367
 20
550.7498736766863
 30
0.0
 10
79.67565748719188
 20
550.5356590690353
 30
0.0
 10
79.67437040360922
 20
550.436737467502
 30
0.0
  0
ELLIPSE
  5
251
330
92
100
AcDbEntity
  8
A4225108_211188_
  6
Continuous
 62
     7
100
AcDbEllipse
 10
105.35
 20
457.8837689613
 30
0.0
 11
10.25000000000001
 21
0.0
 31
0.0
210
0.0
220
0.0
230
1.0
 40
0.1736481777
 41
3.141592653589793
 42
6.283185307179586
  0
ELLIPSE
  5
252
330
92
100
AcDbEntity
  8
A4225108_211188_
  6
Continuous
 62
     7
100
AcDbEllipse
 10
105.35
 20
456.8989612083
 30
0.0
 11
9.250000000000007
 21
0.0
 31
0.0
210
0.0
220
0.0
230
1.0
 40
0.1736481777
 41
3.318846362686836
 42
6.10593159808256
  0
LINE
  5
253
330
92
100
AcDbEntity
  8
A4225108_211188_
  6
Continuous
 62
     7
100
AcDbLine
 10
115.6
 20
457.8837689613
 30
0.0
 11
115.6
 21
464.5458272275
 31
0.0
  0
LINE
  5
254
330
92
100
AcDbEntity
  8
A4225108_211188_
  6
Continuous
 62
     7
100
AcDbLine
 10
95.1
 20
464.5458272275
 30
0.0
 11
95.1
 21
457.8837689613
 31
0.0
  0
LINE
  5
255
330
92
100
AcDbEntity
  8
A4225108_211188_
  6
Continuous
 62
     7
100
AcDbLine
 10
95.2606005944
 20
457.5699256578
 30
0.0
 11
96.2449322437
 21
456.6157367637
 31
0.0
  0
LINE
  5
256
330
92
100
AcDbEntity
  8
A4225108_211188_
  6
Continuous
 62
     7
100
AcDbLine
 10
114.4550677563
 20
456.6157367637
 30
0.0
 11
115.4393994056
 21
457.5699256578
 31
0.0
  0
LINE
  5
258
330
92
100
AcDbEntity
  8
A4225112_211188_
  6
Continuous
 62
     7
100
AcDbLine
 10
99.75
 20
512.4233544768
 30
0.0
 11
99.75
 21
507.505397111
 31
0.0
  0
LINE
  5
259
330
92
100
AcDbEntity
  8
A4225112_211188_
  6
Continuous
 62
     7
100
AcDbLine
 10
110.95
 20
507.5033811369
 30
0.0
 11
110.95
 21
512.4233544768
 31
0.0
  0
SPLINE
  5
25B
330
92
100
AcDbEntity
  8
$DDT_AUDIT_GENERATED_(25A)
  6
Continuous
 62
     7
100
AcDbSpline
210
0.0
220
0.0
230
1.0
 70
     8
 71
     3
 72
     8
 73
     4
 74
     0
 42
0.0000000001997232
 43
0.0000000001
 40
0.015347573756643
 40
0.015347573756643
 40
0.015347573756643
 40
0.015347573756643
 40
1.0
 40
1.0
 40
1.0
 40
1.0
 10
196.6612421694687
 20
471.5177209868642
 30
0.0
 10
198.4740673513521
 20
455.1827129497309
 30
0.0
 10
200.286886456488
 20
438.8499419223122
 30
0.0
 10
202.099895912456
 20
422.5177646116944
 30
0.0
  0
SPLINE
  5
25C
330
92
100
AcDbEntity
  8
$DDT_AUDIT_GENERATED_(25A)
  6
Continuous
 62
     7
100
AcDbSpline
210
0.0
220
0.0
230
1.0
 70
     8
 71
     3
 72
     8
 73
     4
 74
     0
 42
0.0000000001997232
 43
0.0000000001
 40
0.015347573756643
 40
0.015347573756643
 40
0.015347573756643
 40
0.015347573756643
 40
1.0
 40
1.0
 40
1.0
 40
1.0
 10
164.0387578305311
 20
471.5177209868642
 30
0.0
 10
162.2259326486477
 20
455.1827129497309
 30
0.0
 10
160.4131135435118
 20
438.8499419223121
 30
0.0
 10
158.6001040875439
 20
422.5177646116944
 30
0.0
  0
ELLIPSE
  5
25E
330
92
100
AcDbEntity
  8
$DDT_AUDIT_GENERATED_(25D)
  6
Continuous
 62
     7
100
AcDbEllipse
 10
105.35
 20
534.3278498951
 30
0.0
 11
9.225460693579294
 21
0.0
 31
0.0
210
0.0
220
0.0
230
1.0
 40
0.1736481777
 41
2.725185934623379
 42
6.283185307179586
  0
ELLIPSE
  5
25F
330
92
100
AcDbEntity
  8
$DDT_AUDIT_GENERATED_(25D)
  6
Continuous
 62
     7
100
AcDbEllipse
 10
105.35
 20
534.3278498951
 30
0.0
 11
9.225460693579294
 21
0.0
 31
0.0
210
0.0
220
0.0
230
1.0
 40
0.1736481777
 41
-3.671303483336213
 42
-3.557999372556207
  0
ELLIPSE
  5
260
330
92
100
AcDbEntity
  8
$DDT_AUDIT_GENERATED_(25D)
  6
Continuous
 62
     7
100
AcDbEllipse
 10
105.35
 20
534.3278498951
 30
0.0
 11
9.225460693579294
 21
0.0
 31
0.0
210
0.0
220
0.0
230
1.0
 40
0.1736481777
 41
0.5297108297464198
 42
0.5530067031448944
  0
ELLIPSE
  5
261
330
92
100
AcDbEntity
  8
$DDT_AUDIT_GENERATED_(25D)
  6
Continuous
 62
     7
100
AcDbEllipse
 10
105.35
 20
534.3278498951
 30
0.0
 11
9.225460693579294
 21
0.0
 31
0.0
210
0.0
220
0.0
230
1.0
 40
0.1736481777
 41
0.0
 42
0.5297108297464198
  0
ELLIPSE
  5
262
330
92
100
AcDbEntity
  8
$DDT_AUDIT_GENERATED_(25D)
  6
Continuous
 62
     7
100
AcDbEllipse
 10
105.35
 20
531.3524311753
 30
0.0
 11
-9.225460693578661
 21
0.0
 31
0.0
210
0.0
220
0.0
230
1.0
 40
0.1736481777
 41
-3.754146342578936
 42
-3.671303483335556
  0
ELLIPSE
  5
263
330
92
100
AcDbEntity
  8
$DDT_AUDIT_GENERATED_(25D)
  6
Continuous
 62
     7
100
AcDbEllipse
 10
105.35
 20
531.3524311753
 30
0.0
 11
-9.225460693578661
 21
0.0
 31
0.0
210
0.0
220
0.0
230
1.0
 40
0.1736481777
 41
0.5297108297457663
 42
0.5528995787964519
  0
ELLIPSE
  5
264
330
92
100
AcDbEntity
  8
$DDT_AUDIT_GENERATED_(25D)
  6
Continuous
 62
     7
100
AcDbEllipse
 10
105.35
 20
513.1807242929
 30
0.0
 11
7.098087593305071
 21
-3.469446951953614E-15
 31
0.0
210
0.0
220
0.0
230
1.0
 40
0.1736481777
 41
3.657550170843047
 42
5.752170338467165
  0
ELLIPSE
  5
265
330
92
100
AcDbEntity
  8
$DDT_AUDIT_GENERATED_(25D)
  6
Continuous
 62
     7
100
AcDbEllipse
 10
105.35
 20
530.9493043392
 30
0.0
 11
7.956015881141823
 21
0.0
 31
0.0
210
0.0
220
0.0
230
1.0
 40
0.1736481777
 41
3.77883097943365
 42
5.645946981335732
  0
ARC
  5
266
330
92
100
AcDbEntity
  8
$DDT_AUDIT_GENERATED_(25D)
  6
Continuous
 62
     7
100
AcDbCircle
 10
105.35
 20
508.292936097
 30
0.0
 40
28.00000000000087
100
AcDbArc
 50
73.4814076492
 51
106.5185923508
  0
SPLINE
  5
267
330
92
100
AcDbEntity
  8
$DDT_AUDIT_GENERATED_(25D)
  6
Continuous
 62
     7
100
AcDbSpline
210
0.0
220
0.0
230
1.0
 70
     8
 71
     3
 72
    17
 73
    13
 74
     0
 42
0.0000000021148268
 43
0.0000000001
 40
0.0
 40
0.0
 40
0.0
 40
0.0
 40
0.0644633896873794
 40
0.2405526287257858
 40
0.4348338310303145
 40
0.541056556520804
 40
0.6369761294922388
 40
0.7264792765119553
 40
0.8133967595086833
 40
0.8998211015571468
 40
0.9871017631827281
 40
1.0
 40
1.0
 40
1.0
 40
1.0
 10
112.8373286010863
 20
530.4214278351277
 30
0.0
 10
112.948710402924
 20
530.4469902512061
 30
0.0
 10
113.3026343482805
 20
530.5292391199649
 30
0.0
 10
113.8894938282234
 20
530.7258626334049
 30
0.0
 10
114.4504014206825
 20
530.9811722454385
 30
0.0
 10
114.899123791117
 20
531.2941106214175
 30
0.0
 10
115.2174264964217
 20
531.6104483596914
 30
0.0
 10
115.4731323974934
 20
532.003478543473
 30
0.0
 10
115.6320967426018
 20
532.4668086933572
 30
0.0
 10
115.6673156964664
 20
532.9620168642847
 30
0.0
 10
115.5933336030909
 20
533.3208667750021
 30
0.0
 10
115.5343462772079
 20
533.4828621848416
 30
0.0
 10
115.5253788651983
 20
533.5071274089819
 30
0.0
  0
SPLINE
  5
268
330
92
100
AcDbEntity
  8
$DDT_AUDIT_GENERATED_(25D)
  6
Continuous
 62
     7
100
AcDbSpline
210
0.0
220
0.0
230
1.0
 70
     8
 71
     3
 72
    21
 73
    17
 74
     0
 42
0.0000000015070892
 43
0.0000000001
 40
0.0
 40
0.0
 40
0.0
 40
0.0
 40
0.0740612122072342
 40
0.1611796031781177
 40
0.2322817956367608
 40
0.2969916723664259
 40
0.3585706476629053
 40
0.419091114779198
 40
0.4843788801342975
 40
0.5452906809939454
 40
0.6048400609834724
 40
0.6671115981387439
 40
0.7372767601460891
 40
0.8237350715480946
 40
0.939898045274836
 40
1.0
 40
1.0
 40
1.0
 40
1.0
 10
96.81594676042904
 20
534.9291990215643
 30
0.0
 10
96.66825586079808
 20
534.8746838863499
 30
0.0
 10
96.39654494671699
 20
534.7705385693449
 30
0.0
 10
96.01233103282766
 20
534.5440190792738
 30
0.0
 10
95.65587300456653
 20
534.2572819083348
 30
0.0
 10
95.36099613506983
 20
533.9071278196232
 30
0.0
 10
95.1433496242499
 20
533.481321619375
 30
0.0
 10
95.0334376691757
 20
532.9854057565548
 30
0.0
 10
95.0645448963861
 20
532.4721735231996
 30
0.0
 10
95.22688482222546
 20
532.0061593942054
 30
0.0
 10
95.47064790476178
 20
531.6279470788332
 30
0.0
 10
95.76796982068227
 20
531.323480405703
 30
0.0
 10
96.12133182294774
 20
531.065983353739
 30
0.0
 10
96.57270640639918
 20
530.8280457176793
 30
0.0
 10
97.04644754705147
 20
530.6407745311078
 30
0.0
 10
97.39035600763371
 20
530.5472618729879
 30
0.0
 10
97.52854286048002
 20
530.5104469529982
 30
0.0
  0
SPLINE
  5
269
330
92
100
AcDbEntity
  8
$DDT_AUDIT_GENERATED_(25D)
  6
Continuous
 62
     7
100
AcDbSpline
210
0.0
220
0.0
230
1.0
 70
     8
 71
     3
 72
    13
 73
     9
 74
     0
 42
0.0000000033366349
 43
0.0000000001
 40
0.0
 40
0.0
 40
0.0
 40
0.0
 40
0.1346057816698318
 40
0.2619200962708665
 40
0.4027897262091579
 40
0.5714886606925774
 40
0.7935100471532777
 40
0.984603884663137
 40
0.984603884663137
 40
0.984603884663137
 40
0.984603884663137
 10
115.5253788651983
 20
533.5071274089819
 30
0.0
 10
115.4488893795153
 20
533.6711044111875
 30
0.0
 10
115.3217410475039
 20
533.9383780499488
 30
0.0
 10
115.0227461888565
 20
534.274002946397
 30
0.0
 10
114.6916531758391
 20
534.540706907394
 30
0.0
 10
114.2761245607661
 20
534.7820771650507
 30
0.0
 10
113.7893655071978
 20
534.9905165795032
 30
0.0
 10
113.4218354683571
 20
535.100563578526
 30
0.0
 10
113.2241697300557
 20
535.1572150351667
 30
0.0
  0
ARC
  5
26A
330
92
100
AcDbEntity
  8
$DDT_AUDIT_GENERATED_(25D)
  6
Continuous
 62
     7
100
AcDbCircle
 10
105.35
 20
557.3873449735
 30
0.0
 40
28.0
100
AcDbArc
 50
253.4814076492
 51
256.798403869
  0
ARC
  5
26B
330
92
100
AcDbEntity
  8
$DDT_AUDIT_GENERATED_(25D)
  6
Continuous
 62
     7
100
AcDbCircle
 10
105.35
 20
557.3873449735
 30
0.0
 40
27.99999999999998
100
AcDbArc
 50
283.201596131
 51
286.5185923508
  0
LINE
  5
26C
330
92
100
AcDbEntity
  8
$DDT_AUDIT_GENERATED_(25D)
  6
Continuous
 62
     7
100
AcDbLine
 10
112.9480875933
 20
513.6731281694
 30
0.0
 11
112.9480875933
 21
530.4379652974
 31
0.0
  0
LINE
  5
26D
330
92
100
AcDbEntity
  8
$DDT_AUDIT_GENERATED_(25D)
  6
Continuous
 62
     7
100
AcDbLine
 10
97.7519124067
 20
530.4379652974
 30
0.0
 11
97.7519124067
 21
513.6731281694
 31
0.0
  0
SPLINE
  5
26E
330
92
100
AcDbEntity
  8
$DDT_AUDIT_GENERATED_(25D)
  6
Continuous
 62
     7
100
AcDbSpline
210
0.0
220
0.0
230
1.0
 70
     8
 71
     3
 72
    13
 73
     9
 74
     0
 42
0.0000000054973224
 43
0.0000000001
 40
0.0
 40
0.0
 40
0.0
 40
0.0
 40
0.0388107382245517
 40
0.3156071160406747
 40
0.608600376904637
 40
0.7813510277704802
 40
0.9399105130647213
 40
1.0
 40
1.0
 40
1.0
 40
1.0
 10
111.6724290661348
 20
512.5909739079918
 30
0.0
 10
111.7038350029677
 20
512.5994027532124
 30
0.0
 10
111.9229694018336
 20
512.6585080242471
 30
0.0
 10
112.2688032841756
 20
512.8048568124816
 30
0.0
 10
112.6136477161129
 20
513.0070491998238
 30
0.0
 10
112.8384268042349
 20
513.2610424909893
 30
0.0
 10
112.9520516116068
 20
513.503140553189
 30
0.0
 10
112.9374333715725
 20
513.6365280305215
 30
0.0
 10
112.9325498470053
 20
513.6797684125904
 30
0.0
  0
SPLINE
  5
26F
330
92
100
AcDbEntity
  8
$DDT_AUDIT_GENERATED_(25D)
  6
Continuous
 62
     7
100
AcDbSpline
210
0.0
220
0.0
230
1.0
 70
     8
 71
     3
 72
    13
 73
     9
 74
     0
 42
0.0000000058046297
 43
0.0000000001
 40
0.0
 40
0.0
 40
0.0
 40
0.0
 40
0.1072091617180112
 40
0.2745569132555287
 40
0.4545105085096243
 40
0.6859146556671134
 40
0.9899892679412557
 40
1.0
 40
1.0
 40
1.0
 40
1.0
 10
97.77134767383532
 20
513.6561199294371
 30
0.0
 10
97.7710929001241
 20
513.581152037535
 30
0.0
 10
97.77129538494
 20
513.419303829057
 30
0.0
 10
97.9203510655962
 20
513.1832184059148
 30
0.0
 10
98.13224589645785
 20
512.9812796122579
 30
0.0
 10
98.4563311594469
 20
512.7949762066739
 30
0.0
 10
98.74525991259632
 20
512.6677246263006
 30
0.0
 10
98.95425156531957
 20
512.6111866717943
 30
0.0
 10
98.96197656485404
 20
512.6090993897856
 30
0.0
  0
SPLINE
  5
270
330
92
100
AcDbEntity
  8
$DDT_AUDIT_GENERATED_(25A)
  6
Continuous
 62
     7
100
AcDbSpline
210
0.0
220
0.0
230
1.0
 70
     8
 71
     3
 72
     8
 73
     4
 74
     0
 42
0.0000000001997232
 43
0.0000000001
 40
0.0153475737566446
 40
0.0153475737566446
 40
0.0153475737566446
 40
0.0153475737566446
 40
1.0
 40
1.0
 40
1.0
 40
1.0
 10
46.66124216946876
 20
471.5177209868642
 30
0.0
 10
48.47406735135218
 20
455.182712949731
 30
0.0
 10
50.28688645648808
 20
438.8499419223122
 30
0.0
 10
52.09989591245602
 20
422.5177646116945
 30
0.0
  0
SPLINE
  5
271
330
92
100
AcDbEntity
  8
$DDT_AUDIT_GENERATED_(25A)
  6
Continuous
 62
     7
100
AcDbSpline
210
0.0
220
0.0
230
1.0
 70
     8
 71
     3
 72
     8
 73
     4
 74
     0
 42
0.0000000001997232
 43
0.0000000001
 40
0.0153475737566446
 40
0.0153475737566446
 40
0.0153475737566446
 40
0.0153475737566446
 40
1.0
 40
1.0
 40
1.0
 40
1.0
 10
14.03875783053116
 20
471.5177209868642
 30
0.0
 10
12.22593264864774
 20
455.182712949731
 30
0.0
 10
10.41311354351185
 20
438.8499419223122
 30
0.0
 10
8.600104087543913
 20
422.5177646116945
 30
0.0
  0
ENDBLK
  5
273
330
92
100
AcDbEntity
  8
0
100
AcDbBlockEnd
  0
BLOCK
  5
313
330
274
100
AcDbEntity
  8
0
100
AcDbBlockBegin
  2
SE1
 70
     0
 10
0.0
 20
0.0
 30
0.0
  3
SE1
  1

  0
SPLINE
  5
276
330
274
100
AcDbEntity
  8
$DDT_AUDIT_GENERATED_(94)
  6
Continuous
 62
     7
100
AcDbSpline
210
0.0
220
0.0
230
1.0
 70
     8
 71
     3
 72
     8
 73
     4
 74
     0
 42
0.0000000008050574
 43
0.0000000001
 40
0.7676674258645626
 40
0.7676674258645626
 40
0.7676674258645626
 40
0.7676674258645626
 40
0.7688882514936805
 40
0.7688882514936805
 40
0.7688882514936805
 40
0.7688882514936805
 10
428.2867645294315
 20
467.5622549999873
 30
0.0
 10
428.2810021218764
 20
467.5623628626556
 30
0.0
 10
428.2759522335541
 20
467.5625492585851
 30
0.0
 10
428.2716125819758
 20
467.5628138485597
 30
0.0
  0
SPLINE
  5
277
330
274
100
AcDbEntity
  8
$DDT_AUDIT_GENERATED_(94)
  6
Continuous
 62
     7
100
AcDbSpline
210
0.0
220
0.0
230
1.0
 70
     8
 71
     3
 72
    16
 73
    12
 74
     0
 42
0.0000000002279084
 43
0.0000000001
 40
0.0
 40
0.0
 40
0.0
 40
0.0
 40
0.2500000000000002
 40
0.2500000000000002
 40
0.3750000000000003
 40
0.3750000000000003
 40
0.4375000000000001
 40
0.4375000000000001
 40
0.4687500000000001
 40
0.4687500000000001
 40
0.4996706477145433
 40
0.4996706477145433
 40
0.4996706477145433
 40
0.4996706477145433
 10
417.4100736868795
 20
508.3494279955759
 30
0.0
 10
421.568491248154
 20
507.4506451730003
 30
0.0
 10
425.6777785410302
 20
506.5401452331984
 30
0.0
 10
431.5882733063904
 20
505.2022783184481
 30
0.0
 10
433.5416758219308
 20
504.754996528051
 30
0.0
 10
436.1474512848536
 20
504.1530146980484
 30
0.0
 10
436.9801354279815
 20
503.9596443529091
 30
0.0
 10
437.9763904867203
 20
503.7275632823894
 30
0.0
 10
438.2670975544647
 20
503.6597013094417
 30
0.0
 10
438.6795080882739
 20
503.5633495630553
 30
0.0
 10
438.7984690191535
 20
503.5355140852874
 30
0.0
 10
438.7988869206558
 20
503.5354161001936
 30
0.0
  0
ARC
  5
278
330
274
100
AcDbEntity
  8
$DDT_AUDIT_GENERATED_(94)
  6
Continuous
 62
     7
100
AcDbCircle
 10
163.1200326367
 20
-666.3604692525
 30
0.0
 40
1201.917953801325
100
AcDbArc
 50
77.7856132035
 51
79.9091022547
  0
ARC
  5
279
330
274
100
AcDbEntity
  8
$DDT_AUDIT_GENERATED_(94)
  6
Continuous
 62
     7
100
AcDbCircle
 10
180.6241128508
 20
-569.2485284094
 30
0.0
 40
1103.241361018435
100
AcDbArc
 50
79.920439232
 51
81.7529743803
  0
ARC
  5
27A
330
274
100
AcDbEntity
  8
$DDT_AUDIT_GENERATED_(94)
  6
Continuous
 62
     7
100
AcDbCircle
 10
360.6044246556
 20
491.5177646117
 30
0.0
 40
20.0
100
AcDbArc
 50
227.6822476649
 51
132.3177523351
  0
LINE
  5
27B
330
274
100
AcDbEntity
  8
$DDT_AUDIT_GENERATED_(94)
  6
Continuous
 62
     7
100
AcDbLine
 10
347.1395917345
 20
504.5034467366
 30
0.0
 11
347.1395917345
 21
505.5452322308
 31
0.0
  0
ARC
  5
27C
330
274
100
AcDbEntity
  8
$DDT_AUDIT_GENERATED_(94)
  6
Continuous
 62
     7
100
AcDbCircle
 10
348.1395917345
 20
504.5034467366
 30
0.0
 40
1.999999999999955
100
AcDbArc
 50
133.8275955953
 51
180.0
  0
LINE
  5
27D
330
274
100
AcDbEntity
  8
$DDT_AUDIT_GENERATED_(94)
  6
Continuous
 62
     7
100
AcDbLine
 10
347.1395917345
 20
476.7293139016
 30
0.0
 11
346.7546102988
 21
477.0892289174
 31
0.0
  0
LINE
  5
27E
330
274
100
AcDbEntity
  8
$DDT_AUDIT_GENERATED_(94)
  6
Continuous
 62
     7
100
AcDbLine
 10
346.7546102988
 20
505.946300306
 30
0.0
 11
347.1395917345
 21
506.3062153218
 31
0.0
  0
ARC
  5
27F
330
274
100
AcDbEntity
  8
$DDT_AUDIT_GENERATED_(94)
  6
Continuous
 62
     7
100
AcDbCircle
 10
348.1395917345
 20
478.5320824868
 30
0.0
 40
1.999999999999651
100
AcDbArc
 50
180.0
 51
226.1724044047
  0
LINE
  5
280
330
274
100
AcDbEntity
  8
$DDT_AUDIT_GENERATED_(94)
  6
Continuous
 62
     7
100
AcDbLine
 10
347.1395917345
 20
476.7293139016
 30
0.0
 11
347.1395917345
 21
477.4902969926
 31
0.0
  0
LINE
  5
281
330
274
100
AcDbEntity
  8
$DDT_AUDIT_GENERATED_(94)
  6
Continuous
 62
     7
100
AcDbLine
 10
347.1395917345
 20
477.4902969926
 30
0.0
 11
347.1395917345
 21
478.5320824868
 31
0.0
  0
LINE
  5
282
330
274
100
AcDbEntity
  8
$DDT_AUDIT_GENERATED_(94)
  6
Continuous
 62
     7
100
AcDbLine
 10
347.1395917345
 20
478.5320824868
 30
0.0
 11
347.1395917345
 21
504.5034467366
 31
0.0
  0
LINE
  5
283
330
274
100
AcDbEntity
  8
$DDT_AUDIT_GENERATED_(94)
  6
Continuous
 62
     7
100
AcDbLine
 10
347.1395917345
 20
505.5452322308
 30
0.0
 11
347.1395917345
 21
506.3062153218
 31
0.0
  0
SPLINE
  5
284
330
274
100
AcDbEntity
  8
$DDT_AUDIT_GENERATED_(94)
  6
Continuous
 62
     7
100
AcDbSpline
210
0.0
220
0.0
230
1.0
 70
     8
 71
     3
 72
    24
 73
    20
 74
     0
 42
0.0000000001886809
 43
0.0000000001
 40
0.5004822918962031
 40
0.5004822918962031
 40
0.5004822918962031
 40
0.5004822918962031
 40
0.5625000000000001
 40
0.5625000000000001
 40
0.6250000000000007
 40
0.6250000000000007
 40
0.6562500000000008
 40
0.6562500000000008
 40
0.687500000000001
 40
0.687500000000001
 40
0.7500000000000009
 40
0.7500000000000009
 40
0.8125000000000009
 40
0.8125000000000009
 40
0.8750000000000008
 40
0.8750000000000008
 40
0.9375000000000004
 40
0.9375000000000004
 40
1.0
 40
1.0
 40
1.0
 40
1.0
 10
425.8148033724859
 20
468.0906014639802
 30
0.0
 10
425.8141007665652
 20
468.0911718410503
 30
0.0
 10
425.5241057997609
 20
468.3910255482056
 30
0.0
 10
424.4420724747657
 20
469.4058614392861
 30
0.0
 10
423.6563735038713
 20
470.1145916244088
 30
0.0
 10
422.1797518268231
 20
471.2384324512747
 30
0.0
 10
421.6417782184454
 20
471.6193311430154
 30
0.0
 10
420.4588019229853
 20
472.3634230206174
 30
0.0
 10
419.8069225098325
 20
472.7293620782635
 30
0.0
 10
417.7337588695867
 20
473.7057212964465
 30
0.0
 10
416.1370060324081
 20
474.2007729596999
 30
0.0
 10
412.8642333999322
 20
474.6177553930465
 30
0.0
 10
411.1844753591928
 20
474.5499658859212
 30
0.0
 10
408.1327019232482
 20
474.1179156706554
 30
0.0
 10
406.7365093549361
 20
473.7650297254101
 30
0.0
 10
404.3730715232336
 20
473.0650511078944
 30
0.0
 10
403.3822581973061
 20
472.7107761956518
 30
0.0
 10
402.020295864961
 20
472.2026893209973
 30
0.0
 10
401.6341034810764
 20
472.0436434369819
 30
0.0
 10
401.6338841022223
 20
472.0436534991868
 30
0.0
  0
ARC
  5
285
330
274
100
AcDbEntity
  8
$DDT_AUDIT_GENERATED_(94)
  6
Continuous
 62
     7
100
AcDbCircle
 10
465.5816109688
 20
415.5608551389
 30
0.0
 40
56.36784213762655
100
AcDbArc
 50
86.7411891015
 51
111.9497822354
  0
ARC
  5
286
330
274
100
AcDbEntity
  8
$DDT_AUDIT_GENERATED_(94)
  6
Continuous
 62
     7
100
AcDbCircle
 10
444.7221533493
 20
573.5782935237
 30
0.0
 40
104.4828509717337
100
AcDbArc
 50
283.2893478319
 51
289.7884910329
  0
ARC
  5
287
330
274
100
AcDbEntity
  8
$DDT_AUDIT_GENERATED_(94)
  6
Continuous
 62
     7
100
AcDbCircle
 10
434.0563578087
 20
594.8579891557
 30
0.0
 40
127.4130746235455
100
AcDbArc
 50
267.4874286059
 51
274.7127227421
  0
ARC
  5
288
330
274
100
AcDbEntity
  8
$DDT_AUDIT_GENERATED_(94)
  6
Continuous
 62
     7
100
AcDbCircle
 10
428.364413366
 20
470.1812613269
 30
0.0
 40
2.620793839654425
100
AcDbArc
 50
256.1580035522
 51
269.5655475214
  0
ARC
  5
289
330
274
100
AcDbEntity
  8
$DDT_AUDIT_GENERATED_(94)
  6
Continuous
 62
     7
100
AcDbCircle
 10
479.1505383703
 20
478.0955540481
 30
0.0
 40
2.993057394062114
100
AcDbArc
 50
288.4486517059
 51
59.8922344842
  0
ARC
  5
28A
330
274
100
AcDbEntity
  8
$DDT_AUDIT_GENERATED_(94)
  6
Continuous
 62
     7
100
AcDbCircle
 10
338.7313147482
 20
521.5943224777
 30
0.0
 40
0.999999999981687
100
AcDbArc
 50
81.8656809111
 51
168.3992875916
  0
ARC
  5
28B
330
274
100
AcDbEntity
  8
$DDT_AUDIT_GENERATED_(94)
  6
Continuous
 62
     7
100
AcDbCircle
 10
438.571141151
 20
502.5616954774
 30
0.0
 40
0.9999999896816022
100
AcDbArc
 50
67.9447334554
 51
76.8382646978
  0
ARC
  5
28C
330
274
100
AcDbEntity
  8
$DDT_AUDIT_GENERATED_(94)
  6
Continuous
 62
     7
100
AcDbCircle
 10
340.2229844175
 20
508.3766636853
 30
0.0
 40
4.970007729197697
100
AcDbArc
 50
168.7116599903
 51
201.9916637876
  0
LINE
  5
28D
330
274
100
AcDbEntity
  8
$DDT_AUDIT_GENERATED_(94)
  6
Continuous
 62
     7
100
AcDbLine
 10
337.7501168592
 20
521.7873400042
 30
0.0
 11
335.3330013445
 21
509.3523586763
 31
0.0
  0
ARC
  5
28E
330
274
100
AcDbEntity
  8
$DDT_AUDIT_GENERATED_(94)
  6
Continuous
 62
     7
100
AcDbCircle
 10
371.2280715284
 20
466.2149459944
 30
0.0
 40
7.440648378965307
100
AcDbArc
 50
87.3033005875
 51
111.5278207239
  0
LINE
  5
28F
330
274
100
AcDbEntity
  8
$DDT_AUDIT_GENERATED_(94)
  6
Continuous
 62
     7
100
AcDbLine
 10
425.7824006249
 20
468.0233949718
 30
0.0
 11
427.7219391589
 21
467.5768876592
 31
0.0
  0
ARC
  5
290
330
274
100
AcDbEntity
  8
$DDT_AUDIT_GENERATED_(94)
  6
Continuous
 62
     7
100
AcDbCircle
 10
363.5354136854
 20
50.1197408473
 30
0.0
 40
423.6227049328454
100
AcDbArc
 50
84.8404348209
 51
88.8975970036
  0
ARC
  5
291
330
274
100
AcDbEntity
  8
$DDT_AUDIT_GENERATED_(94)
  6
Continuous
 62
     7
100
AcDbCircle
 10
188.3253097121
 20
-4.5914801175
 30
0.0
 40
566.529475481302
100
AcDbArc
 50
58.9355097509
 51
63.7441313291
  0
LINE
  5
293
330
274
100
AcDbEntity
  8
$DDT_AUDIT_GENERATED_(292)
  6
Continuous
 62
     7
100
AcDbLine
 10
347.1395917345
 20
502.0177646117
 30
0.0
 11
346.1395917345
 21
502.0177646117
 31
0.0
  0
LINE
  5
294
330
274
100
AcDbEntity
  8
$DDT_AUDIT_GENERATED_(292)
  6
Continuous
 62
     7
100
AcDbLine
 10
346.1395917345
 20
481.0177646117
 30
0.0
 11
347.1395917345
 21
481.0177646117
 31
0.0
  0
LINE
  5
296
330
274
100
AcDbEntity
  8
$DDT_AUDIT_GENERATED_(295)
  6
Continuous
 62
     7
100
AcDbLine
 10
342.6395917345
 20
478.605105838
 30
0.0
 11
342.6395917345
 21
476.5177646117
 31
0.0
  0
LINE
  5
297
330
274
100
AcDbEntity
  8
$DDT_AUDIT_GENERATED_(295)
  6
Continuous
 62
     7
100
AcDbLine
 10
346.1395917345
 20
477.0177646117
 30
0.0
 11
346.1395917345
 21
506.0177646117
 31
0.0
  0
LINE
  5
298
330
274
100
AcDbEntity
  8
$DDT_AUDIT_GENERATED_(295)
  6
Continuous
 62
     7
100
AcDbLine
 10
329.1395917345
 20
477.0177646117
 30
0.0
 11
329.1395917345
 21
506.0177646117
 31
0.0
  0
LINE
  5
299
330
274
100
AcDbEntity
  8
$DDT_AUDIT_GENERATED_(295)
  6
Continuous
 62
     7
100
AcDbLine
 10
332.6395917345
 20
478.605105838
 30
0.0
 11
332.6395917345
 21
476.5177646117
 31
0.0
  0
LINE
  5
29A
330
274
100
AcDbEntity
  8
$DDT_AUDIT_GENERATED_(295)
  6
Continuous
 62
     7
100
AcDbLine
 10
332.6395917345
 20
506.5177646117
 30
0.0
 11
332.6395917345
 21
504.4304233853
 31
0.0
  0
LINE
  5
29B
330
274
100
AcDbEntity
  8
$DDT_AUDIT_GENERATED_(295)
  6
Continuous
 62
     7
100
AcDbLine
 10
332.6395917345
 20
493.605105838
 30
0.0
 11
332.6395917345
 21
489.4304233853
 31
0.0
  0
ARC
  5
29C
330
274
100
AcDbEntity
  8
$DDT_AUDIT_GENERATED_(295)
  6
Continuous
 62
     7
100
AcDbCircle
 10
336.4181512537
 20
484.0177646117
 30
0.0
 40
6.601089837288616
100
AcDbArc
 50
124.9187681795
 51
235.0812318205
  0
ARC
  5
29D
330
274
100
AcDbEntity
  8
$DDT_AUDIT_GENERATED_(295)
  6
Continuous
 62
     7
100
AcDbCircle
 10
336.4181512537
 20
499.0177646117
 30
0.0
 40
6.601089837288619
100
AcDbArc
 50
124.9187681795
 51
235.0812318204
  0
LINE
  5
29E
330
274
100
AcDbEntity
  8
$DDT_AUDIT_GENERATED_(295)
  6
Continuous
 62
     7
100
AcDbLine
 10
332.6395917345
 20
506.5177646117
 30
0.0
 11
329.8438630054
 21
506.5177646117
 31
0.0
  0
LINE
  5
29F
330
274
100
AcDbEntity
  8
$DDT_AUDIT_GENERATED_(295)
  6
Continuous
 62
     7
100
AcDbLine
 10
329.8438630054
 20
476.5177646117
 30
0.0
 11
332.6395917345
 21
476.5177646117
 31
0.0
  0
LINE
  5
2A0
330
274
100
AcDbEntity
  8
$DDT_AUDIT_GENERATED_(295)
  6
Continuous
 62
     7
100
AcDbLine
 10
342.6395917345
 20
506.5177646117
 30
0.0
 11
342.6395917345
 21
504.4304233853
 31
0.0
  0
LINE
  5
2A1
330
274
100
AcDbEntity
  8
$DDT_AUDIT_GENERATED_(295)
  6
Continuous
 62
     7
100
AcDbLine
 10
342.6395917345
 20
493.605105838
 30
0.0
 11
342.6395917345
 21
489.4304233853
 31
0.0
  0
LINE
  5
2A2
330
274
100
AcDbEntity
  8
$DDT_AUDIT_GENERATED_(295)
  6
Continuous
 62
     7
100
AcDbLine
 10
332.6395917345
 20
476.5177646117
 30
0.0
 11
342.6395917345
 21
476.5177646117
 31
0.0
  0
LINE
  5
2A3
330
274
100
AcDbEntity
  8
$DDT_AUDIT_GENERATED_(295)
  6
Continuous
 62
     7
100
AcDbLine
 10
342.6395917345
 20
476.5177646117
 30
0.0
 11
345.4353204636
 21
476.5177646117
 31
0.0
  0
LINE
  5
2A4
330
274
100
AcDbEntity
  8
$DDT_AUDIT_GENERATED_(295)
  6
Continuous
 62
     7
100
AcDbLine
 10
345.4353204636
 20
506.5177646117
 30
0.0
 11
342.6395917345
 21
506.5177646117
 31
0.0
  0
LINE
  5
2A5
330
274
100
AcDbEntity
  8
$DDT_AUDIT_GENERATED_(295)
  6
Continuous
 62
     7
100
AcDbLine
 10
342.6395917345
 20
506.5177646117
 30
0.0
 11
332.6395917345
 21
506.5177646117
 31
0.0
  0
LINE
  5
2A6
330
274
100
AcDbEntity
  8
$DDT_AUDIT_GENERATED_(295)
  6
Continuous
 62
     7
100
AcDbLine
 10
332.6395917345
 20
504.4304233853
 30
0.0
 11
342.6395917345
 21
504.4304233853
 31
0.0
  0
ARC
  5
2A7
330
274
100
AcDbEntity
  8
$DDT_AUDIT_GENERATED_(295)
  6
Continuous
 62
     7
100
AcDbCircle
 10
338.8610322153
 20
499.0177646117
 30
0.0
 40
6.601089837288604
100
AcDbArc
 50
304.9187681795
 51
55.0812318204
  0
LINE
  5
2A8
330
274
100
AcDbEntity
  8
$DDT_AUDIT_GENERATED_(295)
  6
Continuous
 62
     7
100
AcDbLine
 10
342.6395917345
 20
493.605105838
 30
0.0
 11
332.6395917345
 21
493.605105838
 31
0.0
  0
LINE
  5
2A9
330
274
100
AcDbEntity
  8
$DDT_AUDIT_GENERATED_(295)
  6
Continuous
 62
     7
100
AcDbLine
 10
332.6395917345
 20
489.4304233853
 30
0.0
 11
342.6395917345
 21
489.4304233853
 31
0.0
  0
ARC
  5
2AA
330
274
100
AcDbEntity
  8
$DDT_AUDIT_GENERATED_(295)
  6
Continuous
 62
     7
100
AcDbCircle
 10
338.8610322153
 20
484.0177646117
 30
0.0
 40
6.601089837288613
100
AcDbArc
 50
304.9187681796
 51
55.0812318204
  0
LINE
  5
2AB
330
274
100
AcDbEntity
  8
$DDT_AUDIT_GENERATED_(295)
  6
Continuous
 62
     7
100
AcDbLine
 10
342.6395917345
 20
478.605105838
 30
0.0
 11
332.6395917345
 21
478.605105838
 31
0.0
  0
ARC
  5
2AC
330
274
100
AcDbEntity
  8
$DDT_AUDIT_GENERATED_(295)
  6
Continuous
 62
     7
100
AcDbCircle
 10
340.0038905363
 20
498.1213622153
 30
0.0
 40
10.0
100
AcDbArc
 50
52.1519040322
 51
57.1112564348
  0
ARC
  5
2AD
330
274
100
AcDbEntity
  8
$DDT_AUDIT_GENERATED_(295)
  6
Continuous
 62
     7
100
AcDbCircle
 10
340.0038905363
 20
484.9141670081
 30
0.0
 40
9.999999999999998
100
AcDbArc
 50
302.8887634336
 51
307.8480959678
  0
ARC
  5
2AE
330
274
100
AcDbEntity
  8
$DDT_AUDIT_GENERATED_(295)
  6
Continuous
 62
     7
100
AcDbCircle
 10
335.2752929327
 20
498.1213622153
 30
0.0
 40
9.999999999999998
100
AcDbArc
 50
122.8887634336
 51
127.8480959678
  0
ARC
  5
2AF
330
274
100
AcDbEntity
  8
$DDT_AUDIT_GENERATED_(295)
  6
Continuous
 62
     7
100
AcDbCircle
 10
335.2752929327
 20
484.9141670081
 30
0.0
 40
10.0
100
AcDbArc
 50
232.1519040322
 51
237.1112564348
  0
LINE
  5
2B1
330
274
100
AcDbEntity
  8
4220384_BODEN
  6
Continuous
 62
     7
100
AcDbLine
 10
373.6640043516
 20
506.6253332822
 30
0.0
 11
373.9885405494
 21
506.5681087943
 31
0.0
  0
LINE
  5
2B2
330
274
100
AcDbEntity
  8
$DDT_AUDIT_GENERATED_(BC)
  6
Continuous
 62
     7
100
AcDbLine
 10
446.288556177
 20
464.0097618798
 30
0.0
 11
467.7337081252
 21
465.5445119956
 31
0.0
  0
SPLINE
  5
2B3
330
274
100
AcDbEntity
  8
$DDT_AUDIT_GENERATED_(BC)
  6
Continuous
 62
     7
100
AcDbSpline
210
0.0
220
0.0
230
1.0
 70
     8
 71
     3
 72
    10
 73
     6
 74
     0
 42
0.0000000019260148
 43
0.0000000001
 40
0.0
 40
0.0
 40
0.0
 40
0.0
 40
0.5
 40
0.5
 40
1.0
 40
1.0
 40
1.0
 40
1.0
 10
459.5683698479322
 20
465.278503764592
 30
0.0
 10
458.7163894798721
 20
465.103282532177
 30
0.0
 10
457.8605749476146
 20
464.9826250000402
 30
0.0
 10
456.1406368135765
 20
464.8595556747808
 30
0.0
 10
455.2765133237197
 20
464.8571422888816
 30
0.0
 10
454.408559699254
 20
464.9092352584899
 30
0.0
  0
LINE
  5
2B4
330
274
100
AcDbEntity
  8
$DDT_AUDIT_GENERATED_(BC)
  6
Continuous
 62
     7
100
AcDbLine
 10
461.056917074
 20
468.0743515739
 30
0.0
 11
452.5370448702
 21
467.4646158685
 31
0.0
  0
LINE
  5
2B5
330
274
100
AcDbEntity
  8
$DDT_AUDIT_GENERATED_(BC)
  6
Continuous
 62
     7
100
AcDbLine
 10
461.056917074
 20
468.0743515739
 30
0.0
 11
461.1865807551
 21
466.2625534747
 31
0.0
  0
SPLINE
  5
2B6
330
274
100
AcDbEntity
  8
$DDT_AUDIT_GENERATED_(BC)
  6
Continuous
 62
     7
100
AcDbSpline
210
0.0
220
0.0
230
1.0
 70
     8
 71
     3
 72
    14
 73
    10
 74
     0
 42
0.0000000049320844
 43
0.0000000001
 40
0.0
 40
0.0
 40
0.0
 40
0.0
 40
0.1249999999999997
 40
0.1249999999999997
 40
0.2499999999999994
 40
0.2499999999999994
 40
0.4999999999999996
 40
0.4999999999999996
 40
1.0
 40
1.0
 40
1.0
 40
1.0
 10
461.1865807551004
 20
466.262553474729
 30
0.0
 10
461.1926073398263
 20
466.1783436585195
 30
0.0
 10
461.1665135932039
 20
466.092219157363
 30
0.0
 10
461.0808732132702
 20
465.9465547269579
 30
0.0
 10
461.022101093695
 20
465.8831771479561
 30
0.0
 10
460.8310588420933
 20
465.7180061704419
 30
0.0
 10
460.6805649795653
 20
465.6356631449846
 30
0.0
 10
460.2232048100649
 20
465.4311381601593
 30
0.0
 10
459.8955822943463
 20
465.3457994092708
 30
0.0
 10
459.5683698479322
 20
465.278503764592
 30
0.0
  0
SPLINE
  5
2B7
330
274
100
AcDbEntity
  8
$DDT_AUDIT_GENERATED_(BC)
  6
Continuous
 62
     7
100
AcDbSpline
210
0.0
220
0.0
230
1.0
 70
     8
 71
     3
 72
    14
 73
    10
 74
     0
 42
0.0000000049319876
 43
0.0000000001
 40
0.0
 40
0.0
 40
0.0
 40
0.0
 40
0.4999999999999996
 40
0.4999999999999996
 40
0.7499999999999993
 40
0.7499999999999993
 40
0.8749999999999997
 40
0.8749999999999997
 40
1.0
 40
1.0
 40
1.0
 40
1.0
 10
454.408559699254
 20
464.9092352584899
 30
0.0
 10
454.0736679878951
 20
464.929334838986
 30
0.0
 10
453.7398540900451
 20
464.9666677151025
 30
0.0
 10
453.2556122533692
 20
465.1047522055708
 30
0.0
 10
453.0963347566666
 20
465.1645492382228
 30
0.0
 10
452.8849564980087
 20
465.2997118734774
 30
0.0
 10
452.8172932449941
 20
465.3541240710358
 30
0.0
 10
452.7110442458584
 20
465.486581796439
 30
0.0
 10
452.6727637110746
 20
465.5682086718978
 30
0.0
 10
452.6667085512744
 20
465.6528177692992
 30
0.0
  0
LINE
  5
2B8
330
274
100
AcDbEntity
  8
$DDT_AUDIT_GENERATED_(BC)
  6
Continuous
 62
     7
100
AcDbLine
 10
452.6667085513
 20
465.6528177693
 30
0.0
 11
452.5370448702
 21
467.4646158685
 31
0.0
  0
LINE
  5
2B9
330
274
100
AcDbEntity
  8
$DDT_AUDIT_GENERATED_(BC)
  6
Continuous
 62
     7
100
AcDbLine
 10
445.7172918892
 20
464.2872334042
 30
0.0
 11
446.288556177
 21
464.0097618798
 31
0.0
  0
LINE
  5
2BA
330
274
100
AcDbEntity
  8
$DDT_AUDIT_GENERATED_(BC)
  6
Continuous
 62
     7
100
AcDbLine
 10
467.7337081252
 20
465.5445119956
 30
0.0
 11
468.259637658
 21
465.9005056189
 31
0.0
  0
ARC
  5
2BB
330
274
100
AcDbEntity
  8
$DDT_AUDIT_GENERATED_(BC)
  6
Continuous
 62
     7
100
AcDbCircle
 10
467.6990930737
 20
466.7286298662
 30
0.0
 40
0.9999999999999946
100
AcDbArc
 50
304.0934677467
 51
4.0934677467
  0
ARC
  5
2BC
330
274
100
AcDbEntity
  8
$DDT_AUDIT_GENERATED_(BC)
  6
Continuous
 62
     7
100
AcDbCircle
 10
446.1541962327
 20
465.1867413778
 30
0.0
 40
0.9999999999999993
100
AcDbArc
 50
184.0934677467
 51
244.0934677467
  0
LINE
  5
2BD
330
274
100
AcDbEntity
  8
$DDT_AUDIT_GENERATED_(BC)
  6
Continuous
 62
     7
100
AcDbLine
 10
444.951015975
 20
467.9900533976
 30
0.0
 11
445.1567473049
 21
465.1153576515
 31
0.0
  0
LINE
  5
2BE
330
274
100
AcDbEntity
  8
$DDT_AUDIT_GENERATED_(BC)
  6
Continuous
 62
     7
100
AcDbLine
 10
468.6965420015
 20
466.8000135925
 30
0.0
 11
468.3357949766
 21
471.8407525932
 31
0.0
  0
SPLINE
  5
2BF
330
274
100
AcDbEntity
  8
$DDT_AUDIT_GENERATED_(225)
  6
Continuous
 62
     7
100
AcDbSpline
210
0.0
220
0.0
230
1.0
 70
     8
 71
     3
 72
    18
 73
    14
 74
     0
 42
0.0000000005330501
 43
0.0000000001
 40
0.0
 40
0.0
 40
0.0
 40
0.0
 40
0.0327236881959001
 40
0.0816434119860562
 40
0.1171932157947471
 40
0.1573284263686617
 40
0.202282008948891
 40
0.3326097408161886
 40
0.462711367890534
 40
0.7339538518913061
 40
0.8991542023975287
 40
0.9885185979308755
 40
1.0
 40
1.0
 40
1.0
 40
1.0
 10
400.6010444556372
 20
566.8556399692559
 30
0.0
 10
400.5340949913094
 20
566.903017782594
 30
0.0
 10
400.3670577340199
 20
567.0212090799038
 30
0.0
 10
400.0804907762857
 20
567.1698776022537
 30
0.0
 10
399.7546864742484
 20
567.3921518701133
 30
0.0
 10
399.4333567592478
 20
567.709033225476
 30
0.0
 10
398.8335457520154
 20
568.382100450978
 30
0.0
 10
397.9100713308701
 20
569.6241978001927
 30
0.0
 10
396.2988304800003
 20
572.4692443225686
 30
0.0
 10
394.8691525402239
 20
576.5058721195611
 30
0.0
 10
394.3652152363759
 20
580.696639090533
 30
0.0
 10
394.3370408869644
 20
582.8622113477415
 30
0.0
 10
394.3523375510908
 20
583.6851315612387
 30
0.0
 10
394.3543221696106
 20
583.7788513438828
 30
0.0
  0
SPLINE
  5
2C0
330
274
100
AcDbEntity
  8
$DDT_AUDIT_GENERATED_(225)
  6
Continuous
 62
     7
100
AcDbSpline
210
0.0
220
0.0
230
1.0
 70
     8
 71
     3
 72
    24
 73
    20
 74
     0
 42
0.0000000018456997
 43
0.0000000001
 40
0.0
 40
0.0
 40
0.0
 40
0.0
 40
0.0306379832832667
 40
0.0602204990189566
 40
0.0886862122696763
 40
0.1159786160645398
 40
0.1420461109009153
 40
0.1668420047205237
 40
0.1903244446768597
 40
0.2124562940289161
 40
0.2332049694336188
 40
0.3565649055434463
 40
0.4789747641619769
 40
0.6093826036798106
 40
0.7615412911362582
 40
0.8405397781068984
 40
0.9290728494308239
 40
0.9664960763634445
 40
1.0
 40
1.0
 40
1.0
 40
1.0
 10
465.2270393666091
 20
559.6023975838218
 30
0.0
 10
465.222379307983
 20
559.6144816502577
 30
0.0
 10
465.2132078879616
 20
559.6382887237484
 30
0.0
 10
465.2058790358887
 20
559.683674999964
 30
0.0
 10
465.203030889265
 20
559.7342690369695
 30
0.0
 10
465.2046175330875
 20
559.7897573110707
 30
0.0
 10
465.2100574339293
 20
559.8489043289052
 30
0.0
 10
465.2189143488148
 20
559.9107078381961
 30
0.0
 10
465.2307404852446
 20
559.9741206011295
 30
0.0
 10
465.2450931372899
 20
560.0381544547075
 30
0.0
 10
465.2892795596973
 20
560.2082236251575
 30
0.0
 10
465.4051287349378
 20
560.5332031442467
 30
0.0
 10
465.6662027803995
 20
561.1090823749504
 30
0.0
 10
466.0581246281159
 20
561.8394551427258
 30
0.0
 10
466.4882798560785
 20
562.5901962038994
 30
0.0
 10
466.9051231243313
 20
563.3081009665308
 30
0.0
 10
467.1856231117735
 20
563.7906468515665
 30
0.0
 10
467.4080616945334
 20
564.1755707805653
 30
0.0
 10
467.5076896419317
 20
564.34967770219
 30
0.0
 10
467.555809206745
 20
564.4313586592681
 30
0.0
  0
SPLINE
  5
2C1
330
274
100
AcDbEntity
  8
$DDT_AUDIT_GENERATED_(225)
  6
Continuous
 62
     7
100
AcDbSpline
210
0.0
220
0.0
230
1.0
 70
     8
 71
     3
 72
    16
 73
    12
 74
     0
 42
0.0000000026339667
 43
0.0000000001
 40
0.0
 40
0.0
 40
0.0
 40
0.0
 40
0.2499999999999996
 40
0.2499999999999996
 40
0.3124999999999997
 40
0.3124999999999997
 40
0.3749999999999999
 40
0.3749999999999999
 40
0.5000000000000002
 40
0.5000000000000002
 40
0.5005090821061519
 40
0.5005090821061519
 40
0.5005090821061519
 40
0.5005090821061519
 10
471.6619583958548
 20
565.0881843081416
 30
0.0
 10
472.2613921215279
 20
565.0802510654354
 30
0.0
 10
472.7352282898943
 20
565.0767085316402
 30
0.0
 10
473.1428015619661
 20
565.0744095851437
 30
0.0
 10
473.2150298046539
 20
565.0740615859329
 30
0.0
 10
473.339992761424
 20
565.0735269428116
 30
0.0
 10
473.3928506223878
 20
565.0733399065696
 30
0.0
 10
473.5196967169758
 20
565.0729446880426
 30
0.0
 10
473.5617742289263
 20
565.0728932887494
 30
0.0
 10
473.5620926375038
 20
565.072905094143
 30
0.0
 10
473.5620932363248
 20
565.0729051430782
 30
0.0
 10
473.5620931424984
 20
565.0729051930738
 30
0.0
  0
ARC
  5
2C2
330
274
100
AcDbEntity
  8
$DDT_AUDIT_GENERATED_(225)
  6
Continuous
 62
     7
100
AcDbCircle
 10
395.8734236811
 20
777.4688619428
 30
0.0
 40
192.4066744243012
100
AcDbArc
 50
256.8004506738
 51
269.378313206
  0
ARC
  5
2C3
330
274
100
AcDbEntity
  8
$DDT_AUDIT_GENERATED_(225)
  6
Continuous
 62
     7
100
AcDbCircle
 10
393.1405688234
 20
514.443859344
 30
0.0
 40
70.63400989777585
100
AcDbArc
 50
79.5094432069
 51
89.4766246761
  0
ARC
  5
2C4
330
274
100
AcDbEntity
  8
$DDT_AUDIT_GENERATED_(225)
  6
Continuous
 62
     7
100
AcDbCircle
 10
347.7838220172
 20
269.0190764279
 30
0.0
 40
320.2147721588302
100
AcDbArc
 50
67.950094926
 51
79.524962764
  0
ARC
  5
2C5
330
274
100
AcDbEntity
  8
$DDT_AUDIT_GENERATED_(225)
  6
Continuous
 62
     7
100
AcDbCircle
 10
472.0591975438
 20
576.7335656959
 30
0.0
 40
11.65215459073566
100
AcDbArc
 50
249.5966410259
 51
268.0463237496
  0
ARC
  5
2C6
330
274
100
AcDbEntity
  8
$DDT_AUDIT_GENERATED_(225)
  6
Continuous
 62
     7
100
AcDbCircle
 10
431.5511265086
 20
554.9898760526
 30
0.0
 40
31.73897251322025
100
AcDbArc
 50
163.6131474234
 51
176.3868495226
  0
LINE
  5
2C7
330
274
100
AcDbEntity
  8
$DDT_AUDIT_GENERATED_(225)
  6
Continuous
 62
     7
100
AcDbLine
 10
348.5887057164
 20
574.3961708378
 30
0.0
 11
370.938898842
 21
554.2719665567
 31
0.0
  0
ELLIPSE
  5
2C8
330
274
100
AcDbEntity
  8
$DDT_AUDIT_GENERATED_(225)
  6
Continuous
 62
     7
100
AcDbEllipse
 10
372.1067656088
 20
553.8342183427
 30
0.0
 11
0.2395292577601696
 21
0.3203525162642842
 31
0.0
210
0.0
220
0.0
230
1.0
 40
0.1764543501
 41
2.698156059784835
 42
3.17045791230747
  0
SPLINE
  5
2C9
330
274
100
AcDbEntity
  8
$DDT_AUDIT_GENERATED_(225)
  6
Continuous
 62
     7
100
AcDbSpline
210
0.0
220
0.0
230
1.0
 70
     8
 71
     3
 72
    17
 73
    13
 74
     0
 42
0.000000000080037
 43
0.0000000001
 40
0.0
 40
0.0
 40
0.0
 40
0.0
 40
0.0883541997385974
 40
0.1837490790558216
 40
0.2789171969257797
 40
0.3739336778270703
 40
0.4688415702975832
 40
0.5636119365829687
 40
0.6750433933356778
 40
0.7860758242165662
 40
0.8968014898542008
 40
1.0
 40
1.0
 40
1.0
 40
1.0
 10
473.5205684572274
 20
565.0825960670446
 30
0.0
 10
469.7634862054641
 20
566.5862324273705
 30
0.0
 10
463.16695725343
 20
569.2081346904016
 30
0.0
 10
452.053190973296
 20
573.3227648005154
 30
0.0
 10
440.8300088816371
 20
577.0617575310397
 30
0.0
 10
429.3903817384273
 20
580.3105067957949
 30
0.0
 10
417.8516264996749
 20
583.0282852245259
 30
0.0
 10
405.5380166389119
 20
585.3886056882963
 30
0.0
 10
392.4458584234542
 20
587.314896789572
 30
0.0
 10
378.7156358219069
 20
588.7199921403871
 30
0.0
 10
364.9388133125546
 20
589.6274250909772
 30
0.0
 10
356.6819228672703
 20
589.9596971812166
 30
0.0
 10
351.9585673343846
 20
590.1374519274146
 30
0.0
  0
ARC
  5
2CA
330
274
100
AcDbEntity
  8
$DDT_AUDIT_GENERATED_(225)
  6
Continuous
 62
     7
100
AcDbCircle
 10
369.7308488647
 20
325.0309778702
 30
0.0
 40
252.9799097741976
100
AcDbArc
 50
67.750948741
 51
80.1338692807
  0
LINE
  5
2CB
330
274
100
AcDbEntity
  8
$DDT_AUDIT_GENERATED_(225)
  6
Continuous
 62
     7
100
AcDbLine
 10
467.2632000684
 20
559.2810107891
 30
0.0
 11
473.6651984925
 21
562.8921966864
 31
0.0
  0
ARC
  5
2CC
330
274
100
AcDbEntity
  8
$DDT_AUDIT_GENERATED_(225)
  6
Continuous
 62
     7
100
AcDbCircle
 10
411.3417103542
 20
564.4319265875
 30
0.0
 40
9.999999501452914
100
AcDbArc
 50
79.9844185139
 51
169.9999957979
  0
ARC
  5
2CD
330
274
100
AcDbEntity
  8
$DDT_AUDIT_GENERATED_(225)
  6
Continuous
 62
     7
100
AcDbCircle
 10
466.2914872177
 20
561.0280270309
 30
0.0
 40
2.002789996740259
100
AcDbArc
 50
248.8349740253
 51
299.3797073375
  0
ARC
  5
2CE
330
274
100
AcDbEntity
  8
$DDT_AUDIT_GENERATED_(225)
  6
Continuous
 62
     7
100
AcDbCircle
 10
351.8647129113
 20
588.9915257914
 30
0.0
 40
1.14665876782494
100
AcDbArc
 50
85.2825583724
 51
171.9809713578
  0
ARC
  5
2CF
330
274
100
AcDbEntity
  8
$DDT_AUDIT_GENERATED_(225)
  6
Continuous
 62
     7
100
AcDbCircle
 10
473.1166668244
 20
563.9582646516
 30
0.0
 40
1.197255499414605
100
AcDbArc
 50
297.3296501262
 51
70.2705111045
  0
LINE
  5
2D0
330
274
100
AcDbEntity
  8
$DDT_AUDIT_GENERATED_(225)
  6
Continuous
 62
     7
100
AcDbLine
 10
401.120295606
 20
564.0511025103
 30
0.0
 11
401.4936797546
 21
566.1686692443
 31
0.0
  0
LINE
  5
2D1
330
274
100
AcDbEntity
  8
$DDT_AUDIT_GENERATED_(225)
  6
Continuous
 62
     7
100
AcDbLine
 10
398.5238720815
 20
549.3260529798
 30
0.0
 11
399.8805531509
 21
557.0201736636
 31
0.0
  0
LINE
  5
2D2
330
274
100
AcDbEntity
  8
$DDT_AUDIT_GENERATED_(225)
  6
Continuous
 62
     7
100
AcDbLine
 10
350.713566727
 20
589.1539435225
 30
0.0
 11
348.2730285697
 21
575.3129638409
 31
0.0
  0
ARC
  5
2D3
330
274
100
AcDbEntity
  8
$DDT_AUDIT_GENERATED_(225)
  6
Continuous
 62
     7
100
AcDbCircle
 10
397.5390643285
 20
549.4997011575
 30
0.0
 40
0.9999999999998278
100
AcDbArc
 50
299.1280654846
 51
350.0
  0
ARC
  5
2D4
330
274
100
AcDbEntity
  8
$DDT_AUDIT_GENERATED_(225)
  6
Continuous
 62
     7
100
AcDbCircle
 10
349.2578363227
 20
575.1393156633
 30
0.0
 40
0.9999999999999996
100
AcDbArc
 50
171.7677556724
 51
228.0
  0
ARC
  5
2D5
330
274
100
AcDbEntity
  8
$DDT_AUDIT_GENERATED_(225)
  6
Continuous
 62
     7
100
AcDbCircle
 10
397.8311223243
 20
548.9755808211
 30
0.0
 40
0.3999999999999992
100
AcDbArc
 50
260.0
 51
299.1280654847
  0
LINE
  5
2D6
330
274
100
AcDbEntity
  8
$DDT_AUDIT_GENERATED_(225)
  6
Continuous
 62
     7
100
AcDbLine
 10
373.3194286648
 20
552.8914831114
 30
0.0
 11
397.7616630532
 21
548.5816577198
 31
0.0
  0
ARC
  5
2D7
330
274
100
AcDbEntity
  8
$DDT_AUDIT_GENERATED_(225)
  6
Continuous
 62
     7
100
AcDbCircle
 10
373.7877795263
 20
555.9974244425
 30
0.0
 40
3.132355513874835
100
AcDbArc
 50
234.0290610713
 51
261.4325643885
  0
ARC
  5
2D8
330
274
100
AcDbEntity
  8
$DDT_AUDIT_GENERATED_(225)
  6
Continuous
 62
     7
100
AcDbCircle
 10
372.3442082583
 20
554.1044864499
 30
0.0
 40
0.7587303321176175
100
AcDbArc
 50
231.0780484143
 51
238.2790960787
  0
ARC
  5
2D9
330
274
100
AcDbEntity
  8
$DDT_AUDIT_GENERATED_(225)
  6
Continuous
 62
     7
100
AcDbCircle
 10
377.4991704578
 20
561.4362949713
 30
0.0
 40
9.709855117686685
100
AcDbArc
 50
228.0598142959
 51
234.6035311889
  0
LINE
  5
2DB
330
274
100
AcDbEntity
  8
$DDT_AUDIT_GENERATED_(2DA)
  6
Continuous
 62
     7
100
AcDbLine
 10
401.1487523042
 20
564.0326225145
 30
0.0
 11
401.1290048121
 21
563.9811785387
 31
0.0
  0
LINE
  5
2DC
330
274
100
AcDbEntity
  8
$DDT_AUDIT_GENERATED_(2DA)
  6
Continuous
 62
     7
100
AcDbLine
 10
401.1487523042
 20
564.0326225145
 30
0.0
 11
401.120295606
 21
564.0511025103
 31
0.0
  0
LINE
  5
2DD
330
274
100
AcDbEntity
  8
$DDT_AUDIT_GENERATED_(246)
  6
Continuous
 62
     7
100
AcDbLine
 10
346.5100306818
 20
555.2797411071
 30
0.0
 11
396.1250255115
 21
546.5312788709
 31
0.0
  0
ARC
  5
2DE
330
274
100
AcDbEntity
  8
$DDT_AUDIT_GENERATED_(246)
  6
Continuous
 62
     7
100
AcDbCircle
 10
369.9109778576
 20
542.9285671896
 30
0.0
 40
26.3
100
AcDbArc
 50
7.9378265217
 51
13.3013790739
  0
ARC
  5
2DF
330
274
100
AcDbEntity
  8
$DDT_AUDIT_GENERATED_(246)
  6
Continuous
 62
     7
100
AcDbCircle
 10
369.9109778576
 20
542.9285671896
 30
0.0
 40
26.30000000000001
100
AcDbArc
 50
117.7158076108
 51
152.0621734783
  0
LINE
  5
2E0
330
274
100
AcDbEntity
  8
$DDT_AUDIT_GENERATED_(246)
  6
Continuous
 62
     7
100
AcDbLine
 10
391.1365686941
 20
513.7185324837
 30
0.0
 11
396.5313441865
 21
545.9563509707
 31
0.0
  0
LINE
  5
2E1
330
274
100
AcDbEntity
  8
$DDT_AUDIT_GENERATED_(246)
  6
Continuous
 62
     7
100
AcDbLine
 10
345.9315790984
 20
554.8784547733
 30
0.0
 11
339.9180983099
 21
522.4325348412
 31
0.0
  0
ARC
  5
2E2
330
274
100
AcDbEntity
  8
$DDT_AUDIT_GENERATED_(246)
  6
Continuous
 62
     7
100
AcDbCircle
 10
346.423206593
 20
554.7873372306
 30
0.0
 40
0.5000000000000026
100
AcDbArc
 50
80.0
 51
169.500025649
  0
ARC
  5
2E3
330
274
100
AcDbEntity
  8
$DDT_AUDIT_GENERATED_(246)
  6
Continuous
 62
     7
100
AcDbCircle
 10
396.0382014227
 20
546.0388749944
 30
0.0
 40
0.500000000000006
100
AcDbArc
 50
350.499974351
 51
80.0
  0
LINE
  5
2E4
330
274
100
AcDbEntity
  8
$DDT_AUDIT_GENERATED_(295)
  6
Continuous
 62
     7
100
AcDbLine
 10
332.6395917345
 20
507.6331456685
 30
0.0
 11
332.6395917345
 21
507.7677646117
 31
0.0
  0
LINE
  5
2E5
330
274
100
AcDbEntity
  8
$DDT_AUDIT_GENERATED_(295)
  6
Continuous
 62
     7
100
AcDbLine
 10
332.6395917345
 20
475.2677646117
 30
0.0
 11
332.6395917345
 21
475.4023835549
 31
0.0
  0
SPLINE
  5
2E6
330
274
100
AcDbEntity
  8
$DDT_AUDIT_GENERATED_(295)
  6
Continuous
 62
     7
100
AcDbSpline
210
0.0
220
0.0
230
1.0
 70
     8
 71
     3
 72
     8
 73
     4
 74
     0
 42
0.0000000009323543
 43
0.0000000001
 40
0.794068005493301
 40
0.794068005493301
 40
0.794068005493301
 40
0.794068005493301
 40
1.0
 40
1.0
 40
1.0
 40
1.0
 10
330.7699277616815
 20
476.5135874096218
 30
0.0
 10
331.2172138094397
 20
476.0776648453842
 30
0.0
 10
331.8350323997886
 20
475.6881638168257
 30
0.0
 10
332.6395917344825
 20
475.4023835549278
 30
0.0
  0
SPLINE
  5
2E7
330
274
100
AcDbEntity
  8
$DDT_AUDIT_GENERATED_(295)
  6
Continuous
 62
     7
100
AcDbSpline
210
0.0
220
0.0
230
1.0
 70
     8
 71
     3
 72
     8
 73
     4
 74
     0
 42
0.0000000009352422
 43
0.0000000001
 40
0.0
 40
0.0
 40
0.0
 40
0.0
 40
0.2064216288159608
 40
0.2064216288159608
 40
0.2064216288159608
 40
0.2064216288159608
 10
332.6395917344825
 20
507.6331456684609
 30
0.0
 10
331.8322300363744
 20
507.346370004339
 30
0.0
 10
331.2164069977127
 20
506.9569150999309
 30
0.0
 10
330.7710522634192
 20
506.5230896055256
 30
0.0
  0
LINE
  5
2E8
330
274
100
AcDbEntity
  8
$DDT_AUDIT_GENERATED_(295)
  6
Continuous
 62
     7
100
AcDbLine
 10
342.6395917345
 20
475.4023835549
 30
0.0
 11
342.6395917345
 21
475.2677646117
 31
0.0
  0
LINE
  5
2E9
330
274
100
AcDbEntity
  8
$DDT_AUDIT_GENERATED_(295)
  6
Continuous
 62
     7
100
AcDbLine
 10
332.6395917345
 20
507.6331456685
 30
0.0
 11
335.3121274135
 21
507.6331456685
 31
0.0
  0
SPLINE
  5
2EA
330
274
100
AcDbEntity
  8
$DDT_AUDIT_GENERATED_(295)
  6
Continuous
 62
     7
100
AcDbSpline
210
0.0
220
0.0
230
1.0
 70
     8
 71
     3
 72
     8
 73
     4
 74
     0
 42
0.0000000009323543
 43
0.0000000001
 40
0.794068005493305
 40
0.794068005493305
 40
0.794068005493305
 40
0.794068005493305
 40
1.0
 40
1.0
 40
1.0
 40
1.0
 10
344.5092557072835
 20
476.5135874096218
 30
0.0
 10
344.0619696595253
 20
476.0776648453842
 30
0.0
 10
343.4441510691764
 20
475.6881638168257
 30
0.0
 10
342.6395917344825
 20
475.4023835549278
 30
0.0
  0
LINE
  5
2EB
330
274
100
AcDbEntity
  8
$DDT_AUDIT_GENERATED_(295)
  6
Continuous
 62
     7
100
AcDbLine
 10
342.6395917345
 20
475.4023835549
 30
0.0
 11
332.6395917345
 21
475.4023835549
 31
0.0
  0
LINE
  5
2EC
330
274
100
AcDbEntity
  8
$DDT_AUDIT_GENERATED_(295)
  6
Continuous
 62
     7
100
AcDbLine
 10
332.6395917345
 20
475.2677646117
 30
0.0
 11
342.6395917345
 21
475.2677646117
 31
0.0
  0
ARC
  5
2ED
330
274
100
AcDbEntity
  8
$DDT_AUDIT_GENERATED_(295)
  6
Continuous
 62
     7
100
AcDbCircle
 10
340.0038905363
 20
484.9141670081
 30
0.0
 40
9.999999999999996
100
AcDbArc
 50
285.2820063864
 51
302.8887634336
  0
ARC
  5
2EE
330
274
100
AcDbEntity
  8
$DDT_AUDIT_GENERATED_(295)
  6
Continuous
 62
     7
100
AcDbCircle
 10
335.2752929327
 20
498.1213622153
 30
0.0
 40
9.999999999999998
100
AcDbArc
 50
105.2820063864
 51
122.9922124015
  0
ARC
  5
2EF
330
274
100
AcDbEntity
  8
$DDT_AUDIT_GENERATED_(295)
  6
Continuous
 62
     7
100
AcDbCircle
 10
335.2752929327
 20
484.9141670081
 30
0.0
 40
10.0
100
AcDbArc
 50
237.1112564348
 51
254.7179936136
  0
LINE
  5
2F0
330
274
100
AcDbEntity
  8
$DDT_AUDIT_GENERATED_(295)
  6
Continuous
 62
     7
100
AcDbLine
 10
335.2972132686
 20
507.7677646117
 30
0.0
 11
332.6395917345
 21
507.7677646117
 31
0.0
  0
LINE
  5
2F1
330
274
100
AcDbEntity
  8
A4225108_211188_
  6
Continuous
 62
     7
100
AcDbLine
 10
401.4818108358
 20
459.6636627824
 30
0.0
 11
421.6703697726
 21
456.1038751402
 31
0.0
  0
LINE
  5
2F2
330
274
100
AcDbEntity
  8
A4225108_211188_
  6
Continuous
 62
     7
100
AcDbLine
 10
420.5119138419
 20
455.2927155649
 30
0.0
 11
402.2929704112
 21
458.5052068517
 31
0.0
  0
LINE
  5
2F3
330
274
100
AcDbEntity
  8
A4225108_211188_
  6
Continuous
 62
     7
100
AcDbLine
 10
421.6703697726
 20
456.1038751402
 30
0.0
 11
424.0713987447
 21
469.7207870978
 31
0.0
  0
LINE
  5
2F4
330
274
100
AcDbEntity
  8
A4225108_211188_
  6
Continuous
 62
     7
100
AcDbLine
 10
403.8071057943
 20
472.8510658057
 30
0.0
 11
401.4818108358
 21
459.6636627824
 31
0.0
  0
LINE
  5
2F5
330
274
100
AcDbEntity
  8
A4225108_211188_
  6
Continuous
 62
     7
100
AcDbLine
 10
401.4818108358
 20
459.6636627824
 30
0.0
 11
402.2929704112
 21
458.5052068517
 31
0.0
  0
LINE
  5
2F6
330
274
100
AcDbEntity
  8
A4225108_211188_
  6
Continuous
 62
     7
100
AcDbLine
 10
420.5119138419
 20
455.2927155649
 30
0.0
 11
421.6703697726
 21
456.1038751402
 31
0.0
  0
LINE
  5
2F7
330
274
100
AcDbEntity
  8
A4225112_211188_
  6
Continuous
 62
     7
100
AcDbLine
 10
415.8115120633
 20
514.1531540879
 30
0.0
 11
414.880383555
 21
508.872461907
 31
0.0
  0
LINE
  5
2F8
330
274
100
AcDbEntity
  8
A4225112_211188_
  6
Continuous
 62
     7
100
AcDbLine
 10
425.8343987728
 20
506.497539852
 30
0.0
 11
426.8413588971
 21
512.208294498
 31
0.0
  0
LINE
  5
2F9
330
274
100
AcDbEntity
  8
$DDT_AUDIT_GENERATED_(25D)
  6
Continuous
 62
     7
100
AcDbLine
 10
434.1405495045
 20
532.7258654575
 30
0.0
 11
415.9699390722
 21
535.9298343327
 31
0.0
  0
LINE
  5
2FA
330
274
100
AcDbEntity
  8
$DDT_AUDIT_GENERATED_(25D)
  6
Continuous
 62
     7
100
AcDbLine
 10
433.6159029053
 20
529.7504467378
 30
0.0
 11
415.445292473
 21
532.9544156129
 31
0.0
  0
LINE
  5
2FB
330
274
100
AcDbEntity
  8
$DDT_AUDIT_GENERATED_(25D)
  6
Continuous
 62
     7
100
AcDbLine
 10
428.3166871737
 20
511.9481543174
 30
0.0
 11
414.3361837868
 21
514.4132942684
 31
0.0
  0
ARC
  5
2FC
330
274
100
AcDbEntity
  8
$DDT_AUDIT_GENERATED_(25D)
  6
Continuous
 62
     7
100
AcDbCircle
 10
420.4645865453
 20
508.292936097
 30
0.0
 40
28.00000000000088
100
AcDbArc
 50
60.7627384947
 51
99.2372615053
  0
ARC
  5
2FD
330
274
100
AcDbEntity
  8
$DDT_AUDIT_GENERATED_(25D)
  6
Continuous
 62
     7
100
AcDbCircle
 10
433.3590659068
 20
531.3296980655
 30
0.0
 40
1.599999999999042
100
AcDbArc
 50
279.2372615054
 51
60.7627384947
  0
ARC
  5
2FE
330
274
100
AcDbEntity
  8
$DDT_AUDIT_GENERATED_(25D)
  6
Continuous
 62
     7
100
AcDbCircle
 10
416.2267760706
 20
534.3505830049
 30
0.0
 40
1.599999999999997
100
AcDbArc
 50
99.2372615053
 51
240.7627384946
  0
ARC
  5
2FF
330
274
100
AcDbEntity
  8
$DDT_AUDIT_GENERATED_(25D)
  6
Continuous
 62
     7
100
AcDbCircle
 10
429.1212554321
 20
557.3873449735
 30
0.0
 40
27.99999999999999
100
AcDbArc
 50
276.5076537505
 51
279.2372615053
  0
ARC
  5
300
330
274
100
AcDbEntity
  8
$DDT_AUDIT_GENERATED_(25D)
  6
Continuous
 62
     7
100
AcDbCircle
 10
429.1212554321
 20
557.3873449735
 30
0.0
 40
27.99999999999999
100
AcDbArc
 50
240.7627384947
 51
243.4923462495
  0
LINE
  5
301
330
274
100
AcDbEntity
  8
$DDT_AUDIT_GENERATED_(25D)
  6
Continuous
 62
     7
100
AcDbLine
 10
428.895915139
 20
512.3537341051
 30
0.0
 11
431.8589257662
 21
529.1578024064
 31
0.0
  0
LINE
  5
302
330
274
100
AcDbEntity
  8
$DDT_AUDIT_GENERATED_(25D)
  6
Continuous
 62
     7
100
AcDbLine
 10
416.8936146263
 20
531.796590535
 30
0.0
 11
413.9306039991
 21
514.9925222338
 31
0.0
  0
ARC
  5
303
330
274
100
AcDbEntity
  8
$DDT_AUDIT_GENERATED_(25D)
  6
Continuous
 62
     7
100
AcDbCircle
 10
428.4035112625
 20
512.4405581939
 30
0.0
 40
0.4999999999999992
100
AcDbArc
 50
260.0
 51
350.0
  0
ARC
  5
304
330
274
100
AcDbEntity
  8
$DDT_AUDIT_GENERATED_(25D)
  6
Continuous
 62
     7
100
AcDbCircle
 10
414.4230078756
 20
514.9056981449
 30
0.0
 40
0.5000000000000019
100
AcDbArc
 50
170.0
 51
260.0
  0
ARC
  5
305
330
274
100
AcDbEntity
  8
$DDT_AUDIT_GENERATED_(25D)
  6
Continuous
 62
     7
100
AcDbCircle
 10
416.4012107498
 20
531.8834146239
 30
0.0
 40
0.5000000000000027
100
AcDbArc
 50
350.0
 51
63.4923462495
  0
ARC
  5
306
330
274
100
AcDbEntity
  8
$DDT_AUDIT_GENERATED_(25D)
  6
Continuous
 62
     7
100
AcDbCircle
 10
432.3513296427
 20
529.0709783175
 30
0.0
 40
0.5000000000000013
100
AcDbArc
 50
96.5076537505
 51
170.0
  0
LINE
  5
307
330
274
100
AcDbEntity
  8
$DDT_AUDIT_GENERATED_(25A)
  6
Continuous
 62
     7
100
AcDbLine
 10
324.6395917345
 20
505.5177646109
 30
0.0
 11
324.6395917345
 21
493.057361729
 31
0.0
  0
LINE
  5
308
330
274
100
AcDbEntity
  8
$DDT_AUDIT_GENERATED_(25A)
  6
Continuous
 62
     7
100
AcDbLine
 10
324.6395917345
 20
479.7588657508
 30
0.0
 11
324.6395917345
 21
476.5177642769
 31
0.0
  0
ARC
  5
309
330
274
100
AcDbEntity
  8
$DDT_AUDIT_GENERATED_(25A)
  6
Continuous
 62
     7
100
AcDbCircle
 10
301.2523903696
 20
504.5177645342
 30
0.0
 40
1.000000077511379
100
AcDbArc
 50
89.9999986892
 51
159.1123523947
  0
LINE
  5
30A
330
274
100
AcDbEntity
  8
$DDT_AUDIT_GENERATED_(25A)
  6
Continuous
 62
     7
100
AcDbLine
 10
268.8895574826
 20
422.5177646117
 30
0.0
 11
300.3181088283
 21
504.8743011886
 31
0.0
  0
ARC
  5
30B
330
274
100
AcDbEntity
  8
$DDT_AUDIT_GENERATED_(25A)
  6
Continuous
 62
     7
100
AcDbCircle
 10
322.6980226161
 20
467.5177642769
 30
0.0
 40
9.000000000000002
100
AcDbArc
 50
90.0
 51
178.2422128969
  0
LINE
  5
30C
330
274
100
AcDbEntity
  8
$DDT_AUDIT_GENERATED_(25A)
  6
Continuous
 62
     7
100
AcDbLine
 10
312.312789453
 20
422.5177646117
 30
0.0
 11
313.7022577363
 21
467.7938335181
 31
0.0
  0
LINE
  5
30D
330
274
100
AcDbEntity
  8
$DDT_AUDIT_GENERATED_(25A)
  6
Continuous
 62
     7
100
AcDbLine
 10
324.6395917345
 20
480.776586104
 30
0.0
 11
324.6395917345
 21
493.0573617291
 31
0.0
  0
LINE
  5
30E
330
274
100
AcDbEntity
  8
$DDT_AUDIT_GENERATED_(25A)
  6
Continuous
 62
     7
100
AcDbLine
 10
324.6395917345
 20
479.7588657508
 30
0.0
 11
324.6395917345
 21
480.776586104
 31
0.0
  0
LINE
  5
30F
330
274
100
AcDbEntity
  8
$DDT_AUDIT_GENERATED_(25A)
  6
Continuous
 62
     7
100
AcDbLine
 10
322.6980226161
 20
476.5177642769
 30
0.0
 11
324.6395917345
 21
476.5177642769
 31
0.0
  0
LINE
  5
310
330
274
100
AcDbEntity
  8
$DDT_AUDIT_GENERATED_(25A)
  6
Continuous
 62
     7
100
AcDbLine
 10
324.6395917345
 20
505.5177646117
 30
0.0
 11
301.2323899353
 21
505.5177646117
 31
0.0
  0
LINE
  5
311
330
274
100
AcDbEntity
  8
$DDT_AUDIT_GENERATED_(25A)
  6
Continuous
 62
     7
100
AcDbLine
 10
329.1395917345
 20
504.7377646117
 30
0.0
 11
324.6395917345
 21
504.7377646117
 31
0.0
  0
LINE
  5
312
330
274
100
AcDbEntity
  8
$DDT_AUDIT_GENERATED_(25A)
  6
Continuous
 62
     7
100
AcDbLine
 10
324.6395917345
 20
478.2977646117
 30
0.0
 11
329.1395917345
 21
478.2977646117
 31
0.0
  0
ENDBLK
  5
314
330
274
100
AcDbEntity
  8
0
100
AcDbBlockEnd
  0
BLOCK
  5
3BE
330
315
100
AcDbEntity
  8
0
100
AcDbBlockBegin
  2
SE2
 70
     0
 10
0.0
 20
0.0
 30
0.0
  3
SE2
  1

  0
SPLINE
  5
317
330
315
100
AcDbEntity
  8
$DDT_AUDIT_GENERATED_(94)
  6
Continuous
 62
     7
100
AcDbSpline
210
0.0
220
0.0
230
1.0
 70
     8
 71
     3
 72
     8
 73
     4
 74
     0
 42
0.0000000000744786
 43
0.0000000001
 40
0.5073272371253964
 40
0.5073272371253964
 40
0.5073272371253964
 40
0.5073272371253964
 40
0.5082780224093484
 40
0.5082780224093484
 40
0.5082780224093484
 40
0.5082780224093484
 10
89.00196800269747
 20
129.4920202808524
 30
0.0
 10
89.00534106246866
 20
129.4496045519031
 30
0.0
 10
89.00878692537316
 20
129.4071912756542
 30
0.0
 10
89.0123057194791
 20
129.364780888962
 30
0.0
  0
SPLINE
  5
318
330
315
100
AcDbEntity
  8
$DDT_AUDIT_GENERATED_(94)
  6
Continuous
 62
     7
100
AcDbSpline
210
0.0
220
0.0
230
1.0
 70
     8
 71
     3
 72
     8
 73
     4
 74
     0
 42
0.0000000000750246
 43
0.0000000001
 40
0.9437576748975516
 40
0.9437576748975516
 40
0.9437576748975516
 40
0.9437576748975516
 40
0.9448695373133148
 40
0.9448695373133148
 40
0.9448695373133148
 40
0.9448695373133148
 10
121.7675409905568
 20
129.7601811561901
 30
0.0
 10
121.7715146113939
 20
129.8094263407699
 30
0.0
 10
121.7753916127625
 20
129.8586737421056
 30
0.0
 10
121.7791720889668
 20
129.9079235170231
 30
0.0
  0
LINE
  5
319
330
315
100
AcDbEntity
  8
$DDT_AUDIT_GENERATED_(94)
  6
Continuous
 62
     7
100
AcDbLine
 10
78.35
 20
215.8720409494
 30
0.0
 11
78.2115602808
 21
216.3478318418
 31
0.0
  0
LINE
  5
31A
330
315
100
AcDbEntity
  8
$DDT_AUDIT_GENERATED_(94)
  6
Continuous
 62
     7
100
AcDbLine
 10
131.0969588308
 20
242.3795229059
 30
0.0
 11
158.9871336251
 21
242.3795229059
 31
0.0
  0
ARC
  5
31B
330
315
100
AcDbEntity
  8
$DDT_AUDIT_GENERATED_(94)
  6
Continuous
 62
     7
100
AcDbCircle
 10
105.35
 20
222.6896100122
 30
0.0
 40
28.07934001601118
100
AcDbArc
 50
16.0027270589
 51
163.9972729411
  0
LINE
  5
31C
330
315
100
AcDbEntity
  8
$DDT_AUDIT_GENERATED_(94)
  6
Continuous
 62
     7
100
AcDbLine
 10
132.4884397192
 20
216.3478318418
 30
0.0
 11
132.35
 21
215.8718822123
 31
0.0
  0
ARC
  5
31D
330
315
100
AcDbEntity
  8
$DDT_AUDIT_GENERATED_(94)
  6
Continuous
 62
     7
100
AcDbCircle
 10
105.6138415966
 20
223.1090569952
 30
0.0
 40
27.71205856348957
100
AcDbArc
 50
345.8783579726
 51
15.3194796905
  0
ARC
  5
31E
330
315
100
AcDbEntity
  8
$DDT_AUDIT_GENERATED_(94)
  6
Continuous
 62
     7
100
AcDbCircle
 10
105.0766474885
 20
223.1091564174
 30
0.0
 40
27.70285943171247
100
AcDbArc
 50
164.6755216065
 51
194.1266407304
  0
SPLINE
  5
31F
330
315
100
AcDbEntity
  8
$DDT_AUDIT_GENERATED_(94)
  6
Continuous
 62
     7
100
AcDbSpline
210
0.0
220
0.0
230
1.0
 70
     8
 71
     3
 72
     8
 73
     4
 74
     0
 42
0.0000000002622083
 43
0.0000000001
 40
0.0700567266829905
 40
0.0700567266829905
 40
0.0700567266829905
 40
0.0700567266829905
 40
0.0712184953201724
 40
0.0712184953201724
 40
0.0712184953201724
 40
0.0712184953201724
 10
79.8451275010899
 20
202.0697139236033
 30
0.0
 10
79.84731071932433
 20
202.0550038772693
 30
0.0
 10
79.84955017441766
 20
202.0404055351811
 30
0.0
 10
79.85184631959008
 20
202.0259195825859
 30
0.0
  0
SPLINE
  5
320
330
315
100
AcDbEntity
  8
$DDT_AUDIT_GENERATED_(94)
  6
Continuous
 62
     7
100
AcDbSpline
210
0.0
220
0.0
230
1.0
 70
     8
 71
     3
 72
    10
 73
     6
 74
     0
 42
0.0000000002473852
 43
0.0000000001
 40
0.9280146104533651
 40
0.9280146104533651
 40
0.9280146104533651
 40
0.9280146104533651
 40
0.9375000000000002
 40
0.9375000000000002
 40
0.9386805374189948
 40
0.9386805374189948
 40
0.9386805374189948
 40
0.9386805374189948
 10
130.8495518652865
 20
202.0163336905854
 30
0.0
 10
130.8684277889006
 20
202.1351325793993
 30
0.0
 10
130.8835736548496
 20
202.2614014205392
 30
0.0
 10
130.89668123286
 20
202.4109855127631
 30
0.0
 10
130.8980815027888
 20
202.427642140695
 30
0.0
 10
130.8994318605781
 20
202.4443986505745
 30
0.0
  0
LINE
  5
321
330
315
100
AcDbEntity
  8
$DDT_AUDIT_GENERATED_(94)
  6
Continuous
 62
     7
100
AcDbLine
 10
199.15
 20
209.4146899848
 30
0.0
 11
199.15
 21
240.7257682648
 31
0.0
  0
LINE
  5
322
330
315
100
AcDbEntity
  8
$DDT_AUDIT_GENERATED_(94)
  6
Continuous
 62
     7
100
AcDbLine
 10
199.15
 20
240.8795229059
 30
0.0
 11
199.15
 21
240.7257682648
 31
0.0
  0
ARC
  5
323
330
315
100
AcDbEntity
  8
$DDT_AUDIT_GENERATED_(94)
  6
Continuous
 62
     7
100
AcDbCircle
 10
197.65
 20
240.8795229059
 30
0.0
 40
1.499999999999995
100
AcDbArc
 50
0.0
 51
19.4712206345
  0
LINE
  5
324
330
315
100
AcDbEntity
  8
$DDT_AUDIT_GENERATED_(94)
  6
Continuous
 62
     7
100
AcDbLine
 10
11.55
 20
240.7257682648
 30
0.0
 11
11.55
 21
209.4146899848
 31
0.0
  0
LINE
  5
325
330
315
100
AcDbEntity
  8
$DDT_AUDIT_GENERATED_(94)
  6
Continuous
 62
     7
100
AcDbLine
 10
11.55
 20
240.7257682648
 30
0.0
 11
11.55
 21
240.8795229059
 31
0.0
  0
LINE
  5
326
330
315
100
AcDbEntity
  8
$DDT_AUDIT_GENERATED_(94)
  6
Continuous
 62
     7
100
AcDbLine
 10
51.7128663749
 20
242.3795229059
 30
0.0
 11
79.6195149217
 21
242.3795229059
 31
0.0
  0
ARC
  5
327
330
315
100
AcDbEntity
  8
$DDT_AUDIT_GENERATED_(94)
  6
Continuous
 62
     7
100
AcDbCircle
 10
13.05
 20
240.8795229059
 30
0.0
 40
1.499999999999995
100
AcDbArc
 50
160.5287793655
 51
180.0
  0
ARC
  5
328
330
315
100
AcDbEntity
  8
$DDT_AUDIT_GENERATED_(94)
  6
Continuous
 62
     7
100
AcDbCircle
 10
105.3454207583
 20
222.9717424669
 30
0.0
 40
25.96819588320136
100
AcDbArc
 50
358.6471585908
 51
0.0
  0
ARC
  5
329
330
315
100
AcDbEntity
  8
$DDT_AUDIT_GENERATED_(94)
  6
Continuous
 62
     7
100
AcDbCircle
 10
105.3454207583
 20
222.9717424669
 30
0.0
 40
25.96819588320136
100
AcDbArc
 50
0.0
 51
181.5484126121
  0
ARC
  5
32A
330
315
100
AcDbEntity
  8
$DDT_AUDIT_GENERATED_(94)
  6
Continuous
 62
     7
100
AcDbCircle
 10
158.8700724962
 20
241.1630863742
 30
0.0
 40
1.222056113069573
100
AcDbArc
 50
29.4810802221
 51
84.5031915411
  0
LINE
  5
32B
330
315
100
AcDbEntity
  8
$DDT_AUDIT_GENERATED_(94)
  6
Continuous
 62
     7
100
AcDbLine
 10
199.0642135624
 20
241.3795229059
 30
0.0
 11
198.8156524617
 21
241.3795229059
 31
0.0
  0
LINE
  5
32C
330
315
100
AcDbEntity
  8
$DDT_AUDIT_GENERATED_(94)
  6
Continuous
 62
     7
100
AcDbLine
 10
198.8156524617
 20
241.3795229059
 30
0.0
 11
197.65
 21
241.3795229059
 31
0.0
  0
LINE
  5
32D
330
315
100
AcDbEntity
  8
$DDT_AUDIT_GENERATED_(94)
  6
Continuous
 62
     7
100
AcDbLine
 10
159.9338946486
 20
241.7645043416
 30
0.0
 11
160.193072516
 21
241.3795229059
 31
0.0
  0
LINE
  5
32E
330
315
100
AcDbEntity
  8
$DDT_AUDIT_GENERATED_(94)
  6
Continuous
 62
     7
100
AcDbLine
 10
160.193072516
 20
241.3795229059
 30
0.0
 11
197.65
 21
241.3795229059
 31
0.0
  0
LINE
  5
32F
330
315
100
AcDbEntity
  8
$DDT_AUDIT_GENERATED_(94)
  6
Continuous
 62
     7
100
AcDbLine
 10
11.6357864376
 20
241.3795229059
 30
0.0
 11
11.8843475383
 21
241.3795229059
 31
0.0
  0
ARC
  5
330
330
315
100
AcDbEntity
  8
$DDT_AUDIT_GENERATED_(94)
  6
Continuous
 62
     7
100
AcDbCircle
 10
51.8299275038
 20
241.1630863742
 30
0.0
 40
1.222056113069468
100
AcDbArc
 50
95.4968084589
 51
150.5189197779
  0
LINE
  5
331
330
315
100
AcDbEntity
  8
$DDT_AUDIT_GENERATED_(94)
  6
Continuous
 62
     7
100
AcDbLine
 10
50.7661053514
 20
241.7645043416
 30
0.0
 11
50.506927484
 21
241.3795229059
 31
0.0
  0
LINE
  5
332
330
315
100
AcDbEntity
  8
$DDT_AUDIT_GENERATED_(94)
  6
Continuous
 62
     7
100
AcDbLine
 10
50.506927484
 20
241.3795229059
 30
0.0
 11
13.05
 21
241.3795229059
 31
0.0
  0
LINE
  5
333
330
315
100
AcDbEntity
  8
$DDT_AUDIT_GENERATED_(94)
  6
Continuous
 62
     7
100
AcDbLine
 10
11.8843475383
 20
241.3795229059
 30
0.0
 11
13.05
 21
241.3795229059
 31
0.0
  0
LINE
  5
334
330
315
100
AcDbEntity
  8
$DDT_AUDIT_GENERATED_(94)
  6
Continuous
 62
     7
100
AcDbLine
 10
137.8456655444
 20
207.9146899848
 30
0.0
 11
197.65
 21
207.9146899848
 31
0.0
  0
LINE
  5
335
330
315
100
AcDbEntity
  8
$DDT_AUDIT_GENERATED_(94)
  6
Continuous
 62
     7
100
AcDbLine
 10
13.05
 20
207.9146899848
 30
0.0
 11
72.8682097694
 21
207.9146899848
 31
0.0
  0
SPLINE
  5
336
330
315
100
AcDbEntity
  8
$DDT_AUDIT_GENERATED_(94)
  6
Continuous
 62
     7
100
AcDbSpline
210
0.0
220
0.0
230
1.0
 70
     8
 71
     3
 72
     8
 73
     4
 74
     0
 42
0.0000000001542014
 43
0.0000000001
 40
0.0
 40
0.0
 40
0.0
 40
0.0
 40
0.0095438541541304
 40
0.0095438541541304
 40
0.0095438541541304
 40
0.0095438541541304
 10
89.01450623544147
 20
129.4918724412855
 30
0.0
 10
89.03145306295193
 20
129.276017233506
 30
0.0
 10
89.04765820208196
 20
129.0721061629776
 30
0.0
 10
89.06419767499418
 20
128.8749508327952
 30
0.0
  0
SPLINE
  5
337
330
315
100
AcDbEntity
  8
$DDT_AUDIT_GENERATED_(94)
  6
Continuous
 62
     7
100
AcDbSpline
210
0.0
220
0.0
230
1.0
 70
     8
 71
     3
 72
    44
 73
    40
 74
     0
 42
0.0000000001606077
 43
0.0000000001
 40
0.0178033380984384
 40
0.0178033380984384
 40
0.0178033380984384
 40
0.0178033380984384
 40
0.0263332278172255
 40
0.0668728125298116
 40
0.1029358784317708
 40
0.1373452359405795
 40
0.1741669857055261
 40
0.2095887147572381
 40
0.2393394970976883
 40
0.2672092097472529
 40
0.293562592073134
 40
0.3187003179555297
 40
0.342737616500029
 40
0.3647298350696418
 40
0.3884921061460179
 40
0.4116688435567424
 40
0.431840295725264
 40
0.4513693450965711
 40
0.4724530753673459
 40
0.4929552212427445
 40
0.5129578454888705
 40
0.5318986591197652
 40
0.551185114594183
 40
0.5708660350314643
 40
0.5911420975715359
 40
0.61218846346651
 40
0.6341408263268586
 40
0.6570687659613831
 40
0.680747080841038
 40
0.705271729737357
 40
0.7332270179863601
 40
0.7619273990697573
 40
0.7916601070171532
 40
0.8226517345251948
 40
0.8551309746439063
 40
0.8893250602746869
 40
0.9254569560015355
 40
0.9638560565415981
 40
1.0
 40
1.0
 40
1.0
 40
1.0
 10
89.10858731363173
 20
128.3748981253903
 30
0.0
 10
89.1246070657713
 20
128.2056669031786
 30
0.0
 10
89.22257859222144
 20
127.2425496654497
 30
0.0
 10
89.49470096002386
 20
125.4628325102788
 30
0.0
 10
89.95097075067942
 20
123.2290868708796
 30
0.0
 10
90.52214756967338
 20
121.0815964153762
 30
0.0
 10
91.22282325484036
 20
118.9893780314442
 30
0.0
 10
92.03087920603414
 20
117.0372581248347
 30
0.0
 10
92.88558914074376
 20
115.3087542562699
 30
0.0
 10
93.76347959449457
 20
113.8041477853948
 30
0.0
 10
94.69600532826817
 20
112.4457608862279
 30
0.0
 10
95.6825798506803
 20
111.2252496948797
 30
0.0
 10
96.70219325245992
 20
110.1527329106402
 30
0.0
 10
97.78980765283087
 20
109.1895490992041
 30
0.0
 10
98.95420238887355
 20
108.3483365330548
 30
0.0
 10
100.1675049134741
 20
107.6508796347579
 30
0.0
 10
101.3660631715909
 20
107.1183194217496
 30
0.0
 10
102.5713923920702
 20
106.7229507338781
 30
0.0
 10
103.8209175448755
 20
106.4612263605648
 30
0.0
 10
105.1030526700454
 20
106.35
 30
0.0
 10
106.3445459256547
 20
106.3955682864013
 30
0.0
 10
107.5464227135966
 20
106.5821531394435
 30
0.0
 10
108.714157443441
 20
106.8962742962565
 30
0.0
 10
109.8676580986609
 20
107.3420697006869
 30
0.0
 10
111.0022876448881
 20
107.9186153390837
 30
0.0
 10
112.1152964343307
 20
108.6270132328994
 30
0.0
 10
113.2012427663365
 20
109.4682134240411
 30
0.0
 10
114.2492160320309
 20
110.437694953561
 30
0.0
 10
115.2444253986724
 20
111.5329201014412
 30
0.0
 10
116.222934842321
 20
112.7768904818599
 30
0.0
 10
117.166706059775
 20
114.1745692500168
 30
0.0
 10
118.0575269141663
 20
115.7308609770615
 30
0.0
 10
118.8630790217462
 20
117.4015452177609
 30
0.0
 10
119.5834976191249
 20
119.1940163285092
 30
0.0
 10
120.217140258418
 20
121.1139165201886
 30
0.0
 10
120.7634540072182
 20
123.1729228023186
 30
0.0
 10
121.2144421964441
 20
125.3628480702717
 30
0.0
 10
121.5758398929931
 20
127.6680794763363
 30
0.0
 10
121.7027184245903
 20
129.0898654290936
 30
0.0
 10
121.7727805695331
 20
129.9073053228722
 30
0.0
  0
ARC
  5
338
330
315
100
AcDbEntity
  8
$DDT_AUDIT_GENERATED_(94)
  6
Continuous
 62
     7
100
AcDbCircle
 10
105.3490651089
 20
224.7035132758
 30
0.0
 40
28.56541717445883
100
AcDbArc
 50
43.9714684746
 51
136.0253421129
  0
ARC
  5
339
330
315
100
AcDbEntity
  8
$DDT_AUDIT_GENERATED_(94)
  6
Continuous
 62
     7
100
AcDbCircle
 10
72.826473463
 20
200.7735635925
 30
0.0
 40
7.136286491396672
100
AcDbArc
 50
10.5055762068
 51
89.7293626808
  0
ARC
  5
33A
330
315
100
AcDbEntity
  8
$DDT_AUDIT_GENERATED_(94)
  6
Continuous
 62
     7
100
AcDbCircle
 10
137.8788784565
 20
200.7705422151
 30
0.0
 40
7.142971573536141
100
AcDbArc
 50
163.0983720065
 51
169.5629361059
  0
ARC
  5
33B
330
315
100
AcDbEntity
  8
$DDT_AUDIT_GENERATED_(94)
  6
Continuous
 62
     7
100
AcDbCircle
 10
137.8788784565
 20
200.7705422151
 30
0.0
 40
7.142971573536141
100
AcDbArc
 50
90.2165189802
 51
160.8644050715
  0
ARC
  5
33C
330
315
100
AcDbEntity
  8
$DDT_AUDIT_GENERATED_(94)
  6
Continuous
 62
     7
100
AcDbCircle
 10
130.998404799
 20
249.4502545793
 30
0.0
 40
7.050477464544928
100
AcDbArc
 50
223.9748792874
 51
269.9889556141
  0
ARC
  5
33D
330
315
100
AcDbEntity
  8
$DDT_AUDIT_GENERATED_(94)
  6
Continuous
 62
     7
100
AcDbCircle
 10
79.6810264263
 20
249.4842102391
 30
0.0
 40
7.09501964047444
100
AcDbArc
 50
269.5107847247
 51
315.8780124447
  0
ARC
  5
33E
330
315
100
AcDbEntity
  8
$DDT_AUDIT_GENERATED_(94)
  6
Continuous
 62
     7
100
AcDbCircle
 10
197.65
 20
209.4146899848
 30
0.0
 40
1.500000000000001
100
AcDbArc
 50
270.0
 51
0.0
  0
ARC
  5
33F
330
315
100
AcDbEntity
  8
$DDT_AUDIT_GENERATED_(94)
  6
Continuous
 62
     7
100
AcDbCircle
 10
13.05
 20
209.4146899848
 30
0.0
 40
1.500000000000001
100
AcDbArc
 50
180.0
 51
270.0
  0
ARC
  5
340
330
315
100
AcDbEntity
  8
$DDT_AUDIT_GENERATED_(94)
  6
Continuous
 62
     7
100
AcDbCircle
 10
-673.8353311122
 20
70.2111593129
 30
0.0
 40
765.1342994983153
100
AcDbArc
 50
4.4340441807
 51
9.9204065669
  0
ARC
  5
341
330
315
100
AcDbEntity
  8
$DDT_AUDIT_GENERATED_(94)
  6
Continuous
 62
     7
100
AcDbCircle
 10
865.6758742574
 20
73.0495001168
 30
0.0
 40
746.0638632892985
100
AcDbArc
 50
170.0452862841
 51
175.6406543686
  0
LINE
  5
342
330
315
100
AcDbEntity
  8
$DDT_AUDIT_GENERATED_(292)
  6
Continuous
 62
     7
100
AcDbLine
 10
40.85
 20
241.3795229059
 30
0.0
 11
40.85
 21
242.3795229059
 31
0.0
  0
LINE
  5
343
330
315
100
AcDbEntity
  8
$DDT_AUDIT_GENERATED_(292)
  6
Continuous
 62
     7
100
AcDbLine
 10
19.85
 20
242.3795229059
 30
0.0
 11
19.85
 21
241.3795229059
 31
0.0
  0
LINE
  5
344
330
315
100
AcDbEntity
  8
$DDT_AUDIT_GENERATED_(295)
  6
Continuous
 62
     7
100
AcDbLine
 10
44.85
 20
242.3795229059
 30
0.0
 11
15.85
 21
242.3795229059
 31
0.0
  0
LINE
  5
345
330
315
100
AcDbEntity
  8
$DDT_AUDIT_GENERATED_(295)
  6
Continuous
 62
     7
100
AcDbLine
 10
44.85
 20
259.3795229059
 30
0.0
 11
15.85
 21
259.3795229059
 31
0.0
  0
LINE
  5
346
330
315
100
AcDbEntity
  8
$DDT_AUDIT_GENERATED_(295)
  6
Continuous
 62
     7
100
AcDbLine
 10
46.4653810568
 20
255.8795229059
 30
0.0
 11
46.6
 21
255.8795229059
 31
0.0
  0
LINE
  5
347
330
315
100
AcDbEntity
  8
$DDT_AUDIT_GENERATED_(295)
  6
Continuous
 62
     7
100
AcDbLine
 10
40.2153810568
 20
255.8795229059
 30
0.0
 11
36.6
 21
255.8795229059
 31
0.0
  0
LINE
  5
348
330
315
100
AcDbEntity
  8
$DDT_AUDIT_GENERATED_(295)
  6
Continuous
 62
     7
100
AcDbLine
 10
24.1
 20
255.8795229059
 30
0.0
 11
20.4846189432
 21
255.8795229059
 31
0.0
  0
LINE
  5
349
330
315
100
AcDbEntity
  8
$DDT_AUDIT_GENERATED_(295)
  6
Continuous
 62
     7
100
AcDbLine
 10
14.2346189432
 20
255.8795229059
 30
0.0
 11
14.1
 21
255.8795229059
 31
0.0
  0
SPLINE
  5
34A
330
315
100
AcDbEntity
  8
$DDT_AUDIT_GENERATED_(295)
  6
Continuous
 62
     7
100
AcDbSpline
210
0.0
220
0.0
230
1.0
 70
     8
 71
     3
 72
    14
 73
    10
 74
     0
 42
0.0000000011014719
 43
0.0000000001
 40
0.0
 40
0.0
 40
0.0
 40
0.0
 40
0.25
 40
0.25
 40
0.5
 40
0.5
 40
0.75
 40
0.75
 40
1.0
 40
1.0
 40
1.0
 40
1.0
 10
20.48461894323336
 20
255.8795229059163
 30
0.0
 10
20.13730109460608
 20
256.8573294743695
 30
0.0
 10
19.63937378202268
 20
257.5541879685504
 30
0.0
 10
18.54946571745445
 20
258.46086992042
 30
0.0
 10
17.95559153604942
 20
258.6748170207391
 30
0.0
 10
16.76718643266052
 20
258.675684173781
 30
0.0
 10
16.18163265026348
 20
258.4683656155119
 30
0.0
 10
15.08135090715701
 20
257.5577671195886
 30
0.0
 10
14.58155418098316
 20
256.8562523070727
 30
0.0
 10
14.23461894323336
 20
255.8795229059164
 30
0.0
  0
SPLINE
  5
34B
330
315
100
AcDbEntity
  8
$DDT_AUDIT_GENERATED_(295)
  6
Continuous
 62
     7
100
AcDbSpline
210
0.0
220
0.0
230
1.0
 70
     8
 71
     3
 72
    14
 73
    10
 74
     0
 42
0.0000000006969408
 43
0.0000000001
 40
0.0
 40
0.0
 40
0.0
 40
0.0
 40
0.25
 40
0.25
 40
0.5
 40
0.5
 40
0.75
 40
0.75
 40
1.0
 40
1.0
 40
1.0
 40
1.0
 10
36.59999999999994
 20
255.8795229059163
 30
0.0
 10
35.90691164748781
 20
256.855151348686
 30
0.0
 10
34.89935147965695
 20
257.5611300373334
 30
0.0
 10
32.70870602728318
 20
258.4668438017297
 30
0.0
 10
31.52449172379379
 20
258.6771461984196
 30
0.0
 10
29.1444037149693
 20
258.6733313602826
 30
0.0
 10
27.96138010542572
 20
258.4580321177329
 30
0.0
 10
25.78937706558322
 20
257.5528458030946
 30
0.0
 10
24.78787435234993
 20
256.8478118416227
 30
0.0
 10
24.09999999999994
 20
255.8795229059163
 30
0.0
  0
SPLINE
  5
34C
330
315
100
AcDbEntity
  8
$DDT_AUDIT_GENERATED_(295)
  6
Continuous
 62
     7
100
AcDbSpline
210
0.0
220
0.0
230
1.0
 70
     8
 71
     3
 72
    14
 73
    10
 74
     0
 42
0.0000000011014719
 43
0.0000000001
 40
0.0
 40
0.0
 40
0.0
 40
0.0
 40
0.25
 40
0.25
 40
0.5
 40
0.5
 40
0.75
 40
0.75
 40
1.0
 40
1.0
 40
1.0
 40
1.0
 10
46.46538105676652
 20
255.8795229059163
 30
0.0
 10
46.11806320813923
 20
256.8573294743695
 30
0.0
 10
45.62013589555584
 20
257.5541879685504
 30
0.0
 10
44.53022783098759
 20
258.46086992042
 30
0.0
 10
43.93635364958258
 20
258.6748170207391
 30
0.0
 10
42.74794854619368
 20
258.675684173781
 30
0.0
 10
42.16239476379663
 20
258.4683656155119
 30
0.0
 10
41.06211302069016
 20
257.5577671195886
 30
0.0
 10
40.56231629451631
 20
256.8562523070727
 30
0.0
 10
40.21538105676652
 20
255.8795229059163
 30
0.0
  0
LINE
  5
34D
330
315
100
AcDbEntity
  8
$DDT_AUDIT_GENERATED_(295)
  6
Continuous
 62
     7
100
AcDbLine
 10
46.4653810568
 20
245.8795229059
 30
0.0
 11
46.6
 21
245.8795229059
 31
0.0
  0
LINE
  5
34E
330
315
100
AcDbEntity
  8
$DDT_AUDIT_GENERATED_(295)
  6
Continuous
 62
     7
100
AcDbLine
 10
40.2153810568
 20
245.8795229059
 30
0.0
 11
36.6
 21
245.8795229059
 31
0.0
  0
LINE
  5
34F
330
315
100
AcDbEntity
  8
$DDT_AUDIT_GENERATED_(295)
  6
Continuous
 62
     7
100
AcDbLine
 10
24.1
 20
245.8795229059
 30
0.0
 11
20.4846189432
 21
245.8795229059
 31
0.0
  0
LINE
  5
350
330
315
100
AcDbEntity
  8
$DDT_AUDIT_GENERATED_(295)
  6
Continuous
 62
     7
100
AcDbLine
 10
14.2346189432
 20
245.8795229059
 30
0.0
 11
14.1
 21
245.8795229059
 31
0.0
  0
LINE
  5
351
330
315
100
AcDbEntity
  8
$DDT_AUDIT_GENERATED_(295)
  6
Continuous
 62
     7
100
AcDbLine
 10
46.4653810568
 20
255.8795229059
 30
0.0
 11
46.4653810568
 21
245.8795229059
 31
0.0
  0
SPLINE
  5
352
330
315
100
AcDbEntity
  8
$DDT_AUDIT_GENERATED_(295)
  6
Continuous
 62
     7
100
AcDbSpline
210
0.0
220
0.0
230
1.0
 70
     8
 71
     3
 72
    14
 73
    10
 74
     0
 42
0.0000000011014719
 43
0.0000000001
 40
0.0
 40
0.0
 40
0.0
 40
0.0
 40
0.2499999999999999
 40
0.2499999999999999
 40
0.4999999999999999
 40
0.4999999999999999
 40
0.7499999999999999
 40
0.7499999999999999
 40
1.0
 40
1.0
 40
1.0
 40
1.0
 10
46.46538105676651
 20
245.8795229059163
 30
0.0
 10
46.11806320813923
 20
244.9017163374632
 30
0.0
 10
45.62013589555584
 20
244.2048578432823
 30
0.0
 10
44.53022783098759
 20
243.2981758914127
 30
0.0
 10
43.93635364958257
 20
243.0842287910936
 30
0.0
 10
42.74794854619367
 20
243.0833616380517
 30
0.0
 10
42.16239476379663
 20
243.2906801963207
 30
0.0
 10
41.06211302069016
 20
244.2012786922441
 30
0.0
 10
40.56231629451631
 20
244.9027935047599
 30
0.0
 10
40.2153810567665
 20
245.8795229059163
 30
0.0
  0
LINE
  5
353
330
315
100
AcDbEntity
  8
$DDT_AUDIT_GENERATED_(295)
  6
Continuous
 62
     7
100
AcDbLine
 10
40.2153810568
 20
245.8795229059
 30
0.0
 11
40.2153810568
 21
255.8795229059
 31
0.0
  0
LINE
  5
354
330
315
100
AcDbEntity
  8
$DDT_AUDIT_GENERATED_(295)
  6
Continuous
 62
     7
100
AcDbLine
 10
36.6
 20
255.8795229059
 30
0.0
 11
36.6
 21
245.8795229059
 31
0.0
  0
SPLINE
  5
355
330
315
100
AcDbEntity
  8
$DDT_AUDIT_GENERATED_(295)
  6
Continuous
 62
     7
100
AcDbSpline
210
0.0
220
0.0
230
1.0
 70
     8
 71
     3
 72
    14
 73
    10
 74
     0
 42
0.0000000006969408
 43
0.0000000001
 40
0.0
 40
0.0
 40
0.0
 40
0.0
 40
0.25
 40
0.25
 40
0.5
 40
0.5
 40
0.75
 40
0.75
 40
1.0
 40
1.0
 40
1.0
 40
1.0
 10
36.59999999999994
 20
245.8795229059163
 30
0.0
 10
35.90691164748781
 20
244.9038944631466
 30
0.0
 10
34.89935147965695
 20
244.1979157744992
 30
0.0
 10
32.70870602728318
 20
243.292202010103
 30
0.0
 10
31.52449172379379
 20
243.081899613413
 30
0.0
 10
29.1444037149693
 20
243.08571445155
 30
0.0
 10
27.9613801054257
 20
243.3010136940998
 30
0.0
 10
25.78937706558321
 20
244.206200008738
 30
0.0
 10
24.78787435234991
 20
244.91123397021
 30
0.0
 10
24.09999999999993
 20
245.8795229059163
 30
0.0
  0
LINE
  5
356
330
315
100
AcDbEntity
  8
$DDT_AUDIT_GENERATED_(295)
  6
Continuous
 62
     7
100
AcDbLine
 10
24.1
 20
245.8795229059
 30
0.0
 11
24.1
 21
255.8795229059
 31
0.0
  0
LINE
  5
357
330
315
100
AcDbEntity
  8
$DDT_AUDIT_GENERATED_(295)
  6
Continuous
 62
     7
100
AcDbLine
 10
20.4846189432
 20
255.8795229059
 30
0.0
 11
20.4846189432
 21
245.8795229059
 31
0.0
  0
SPLINE
  5
358
330
315
100
AcDbEntity
  8
$DDT_AUDIT_GENERATED_(295)
  6
Continuous
 62
     7
100
AcDbSpline
210
0.0
220
0.0
230
1.0
 70
     8
 71
     3
 72
    14
 73
    10
 74
     0
 42
0.0000000011014719
 43
0.0000000001
 40
0.0
 40
0.0
 40
0.0
 40
0.0
 40
0.2500000000000001
 40
0.2500000000000001
 40
0.5000000000000001
 40
0.5000000000000001
 40
0.7500000000000002
 40
0.7500000000000002
 40
1.0
 40
1.0
 40
1.0
 40
1.0
 10
20.48461894323336
 20
245.8795229059163
 30
0.0
 10
20.13730109460608
 20
244.9017163374632
 30
0.0
 10
19.63937378202268
 20
244.2048578432823
 30
0.0
 10
18.54946571745443
 20
243.2981758914127
 30
0.0
 10
17.95559153604942
 20
243.0842287910936
 30
0.0
 10
16.76718643266052
 20
243.0833616380517
 30
0.0
 10
16.18163265026347
 20
243.2906801963208
 30
0.0
 10
15.081350907157
 20
244.2012786922441
 30
0.0
 10
14.58155418098316
 20
244.9027935047599
 30
0.0
 10
14.23461894323334
 20
245.8795229059164
 30
0.0
  0
LINE
  5
359
330
315
100
AcDbEntity
  8
$DDT_AUDIT_GENERATED_(295)
  6
Continuous
 62
     7
100
AcDbLine
 10
14.2346189432
 20
245.8795229059
 30
0.0
 11
14.2346189432
 21
255.8795229059
 31
0.0
  0
LINE
  5
35A
330
315
100
AcDbEntity
  8
$DDT_AUDIT_GENERATED_(295)
  6
Continuous
 62
     7
100
AcDbLine
 10
14.1
 20
255.8795229059
 30
0.0
 11
14.1
 21
245.8795229059
 31
0.0
  0
ARC
  5
35B
330
315
100
AcDbEntity
  8
$DDT_AUDIT_GENERATED_(295)
  6
Continuous
 62
     7
100
AcDbCircle
 10
36.9535976036
 20
248.5152241041
 30
0.0
 40
9.999999999999995
100
AcDbArc
 50
322.1519040322
 51
344.7179936136
  0
ARC
  5
35C
330
315
100
AcDbEntity
  8
$DDT_AUDIT_GENERATED_(295)
  6
Continuous
 62
     7
100
AcDbCircle
 10
23.7464023964
 20
248.5152241041
 30
0.0
 40
9.999999999999991
100
AcDbArc
 50
195.2820063864
 51
217.8480959678
  0
ARC
  5
35D
330
315
100
AcDbEntity
  8
$DDT_AUDIT_GENERATED_(295)
  6
Continuous
 62
     7
100
AcDbCircle
 10
36.9535976036
 20
253.2438217077
 30
0.0
 40
9.999999999999991
100
AcDbArc
 50
15.2820063864
 51
37.8480959678
  0
ARC
  5
35E
330
315
100
AcDbEntity
  8
$DDT_AUDIT_GENERATED_(295)
  6
Continuous
 62
     7
100
AcDbCircle
 10
23.7464023964
 20
253.2438217077
 30
0.0
 40
10.0
100
AcDbArc
 50
142.1519040322
 51
164.7179936136
  0
LINE
  5
35F
330
315
100
AcDbEntity
  8
$DDT_AUDIT_GENERATED_(295)
  6
Continuous
 62
     7
100
AcDbLine
 10
46.6
 20
245.8795229059
 30
0.0
 11
46.6
 21
255.8795229059
 31
0.0
  0
ARC
  5
360
330
315
100
AcDbEntity
  8
$DDT_AUDIT_GENERATED_(225)
  6
Continuous
 62
     7
100
AcDbCircle
 10
105.3499035576
 20
210.9387318831
 30
0.0
 40
26.91420982431559
100
AcDbArc
 50
321.4453791688
 51
218.5529264573
  0
ELLIPSE
  5
361
330
315
100
AcDbEntity
  8
$DDT_AUDIT_GENERATED_(225)
  6
Continuous
 62
     7
100
AcDbEllipse
 10
105.35
 20
216.4774697696
 30
0.0
 11
27.00000000000003
 21
1.276444228093254E-10
 31
0.0
210
0.0
220
0.0
230
1.0
 40
0.8803191223
 41
0.0000000000058915
 42
3.141592653595682
  0
ARC
  5
362
330
315
100
AcDbEntity
  8
$DDT_AUDIT_GENERATED_(225)
  6
Continuous
 62
     7
100
AcDbCircle
 10
142.3233736971
 20
181.5656283901
 30
0.0
 40
20.29475688092814
100
AcDbArc
 50
141.651503266
 51
176.8654726939
  0
ARC
  5
363
330
315
100
AcDbEntity
  8
$DDT_AUDIT_GENERATED_(225)
  6
Continuous
 62
     7
100
AcDbCircle
 10
-1198.1342916083
 20
250.8198048496
 30
0.0
 40
1321.942629579548
100
AcDbArc
 50
354.3575738058
 51
357.0452534677
  0
ARC
  5
364
330
315
100
AcDbEntity
  8
$DDT_AUDIT_GENERATED_(225)
  6
Continuous
 62
     7
100
AcDbCircle
 10
68.3113519127
 20
181.5649624397
 30
0.0
 40
20.35465882477774
100
AcDbArc
 50
3.1153459536
 51
38.2337122782
  0
SPLINE
  5
365
330
315
100
AcDbEntity
  8
$DDT_AUDIT_GENERATED_(225)
  6
Continuous
 62
     7
100
AcDbSpline
210
0.0
220
0.0
230
1.0
 70
     8
 71
     3
 72
    15
 73
    11
 74
     0
 42
0.0000000015884369
 43
0.0000000001
 40
0.0
 40
0.0
 40
0.0
 40
0.0
 40
0.1298005168047008
 40
0.2967328919549699
 40
0.4749116539093129
 40
0.6184458577907721
 40
0.7348406466777544
 40
0.850830774068817
 40
0.9761290501883924
 40
1.0
 40
1.0
 40
1.0
 40
1.0
 10
113.5095942554818
 20
116.2362945365103
 30
0.0
 10
113.7786158398553
 20
116.3728171646409
 30
0.0
 10
114.2976951244581
 20
116.6408185299927
 30
0.0
 10
115.1333688558067
 20
117.2385646147889
 30
0.0
 10
115.8936628669507
 20
117.9264880223394
 30
0.0
 10
116.4997470174256
 20
118.6204353391995
 30
0.0
 10
116.9393996607593
 20
119.2781807309982
 30
0.0
 10
117.238269036753
 20
119.9518425611604
 30
0.0
 10
117.3774269144734
 20
120.5111007831245
 30
0.0
 10
117.4064434299054
 20
120.7885971211052
 30
0.0
 10
117.4116547894533
 20
120.8403853323065
 30
0.0
  0
ARC
  5
366
330
315
100
AcDbEntity
  8
$DDT_AUDIT_GENERATED_(225)
  6
Continuous
 62
     7
100
AcDbCircle
 10
1406.1810535576
 20
250.5725459787
 30
0.0
 40
1319.278581110019
100
AcDbArc
 50
182.9500248243
 51
185.6430758903
  0
ARC
  5
367
330
315
100
AcDbEntity
  8
$DDT_AUDIT_GENERATED_(225)
  6
Continuous
 62
     7
100
AcDbCircle
 10
105.3360952058
 20
131.6474744869
 30
0.0
 40
17.43670529531611
100
AcDbArc
 50
242.1127027138
 51
297.9411621972
  0
SPLINE
  5
368
330
315
100
AcDbEntity
  8
$DDT_AUDIT_GENERATED_(225)
  6
Continuous
 62
     7
100
AcDbSpline
210
0.0
220
0.0
230
1.0
 70
     8
 71
     3
 72
    15
 73
    11
 74
     0
 42
0.0000000015901827
 43
0.0000000001
 40
0.0
 40
0.0
 40
0.0
 40
0.0
 40
0.0765758670067978
 40
0.1486868077292965
 40
0.2676885063995022
 40
0.3826438573477
 40
0.5071407737851196
 40
0.6566865329506785
 40
0.8262088697305312
 40
1.0
 40
1.0
 40
1.0
 40
1.0
 10
93.28454287980153
 20
120.8434712269331
 30
0.0
 10
93.30692357837053
 20
120.6724312022535
 30
0.0
 10
93.34598085999993
 20
120.3922043577802
 30
0.0
 10
93.50332006088642
 20
119.8521394646338
 30
0.0
 10
93.76371269295119
 20
119.2733953381674
 30
0.0
 10
94.18343922564038
 20
118.6500936798235
 30
0.0
 10
94.71178822910382
 20
118.0273413373045
 30
0.0
 10
95.38686474940839
 20
117.388367580944
 30
0.0
 10
96.2320891713496
 20
116.7451908204688
 30
0.0
 10
96.8214059552786
 20
116.420509957069
 30
0.0
 10
97.17638715644513
 20
116.2288820040625
 30
0.0
  0
LINE
  5
369
330
315
100
AcDbEntity
  8
$DDT_AUDIT_GENERATED_(225)
  6
Continuous
 62
     7
100
AcDbLine
 10
78.35
 20
216.4774697693
 30
0.0
 11
78.3500000001
 21
211.1672515186
 31
0.0
  0
LINE
  5
36A
330
315
100
AcDbEntity
  8
$DDT_AUDIT_GENERATED_(225)
  6
Continuous
 62
     7
100
AcDbLine
 10
132.3500000001
 20
211.1670450133
 30
0.0
 11
132.35
 21
216.4774697698
 31
0.0
  0
ELLIPSE
  5
36B
330
315
100
AcDbEntity
  8
$DDT_AUDIT_GENERATED_(246)
  6
Continuous
 62
     7
100
AcDbEllipse
 10
105.35
 20
217.2015865437
 30
0.0
 11
25.0215906768533
 21
-2.720046410331634E-12
 31
0.0
210
0.0
220
0.0
230
1.0
 40
0.984807753
 41
0.7379481336204615
 42
2.403644519979999
  0
ELLIPSE
  5
36C
330
315
100
AcDbEntity
  8
$DDT_AUDIT_GENERATED_(246)
  6
Continuous
 62
     7
100
AcDbEllipse
 10
105.35
 20
217.2876529979
 30
0.0
 11
25.69017401280586
 21
-1.429412144204889E-12
 31
0.0
210
0.0
220
0.0
230
1.0
 40
0.984807753
 41
0.524788208238186
 42
2.616804445361893
  0
ELLIPSE
  5
36D
330
315
100
AcDbEntity
  8
$DDT_AUDIT_GENERATED_(246)
  6
Continuous
 62
     7
100
AcDbEllipse
 10
105.35
 20
223.3661001566
 30
0.0
 11
25.99563695607219
 21
2.706168622523819E-13
 31
0.0
210
0.0
220
0.0
230
1.0
 40
0.984807753
 41
0.0
 42
0.4181538351252379
  0
ELLIPSE
  5
36E
330
315
100
AcDbEntity
  8
$DDT_AUDIT_GENERATED_(246)
  6
Continuous
 62
     7
100
AcDbEllipse
 10
105.35
 20
223.3661001566
 30
0.0
 11
25.99563695607219
 21
2.706168622523819E-13
 31
0.0
210
0.0
220
0.0
230
1.0
 40
0.984807753
 41
2.69337793952303
 42
3.159301576880637
  0
ELLIPSE
  5
36F
330
315
100
AcDbEntity
  8
$DDT_AUDIT_GENERATED_(246)
  6
Continuous
 62
     7
100
AcDbEllipse
 10
105.35
 20
223.3661001566
 30
0.0
 11
25.99563695607219
 21
2.706168622523819E-13
 31
0.0
210
0.0
220
0.0
230
1.0
 40
0.984807753
 41
6.265476383891563
 42
6.283185307179586
  0
LINE
  5
370
330
315
100
AcDbEntity
  8
$DDT_AUDIT_GENERATED_(295)
  6
Continuous
 62
     7
100
AcDbLine
 10
165.85
 20
242.3795229059
 30
0.0
 11
194.85
 21
242.3795229059
 31
0.0
  0
LINE
  5
371
330
315
100
AcDbEntity
  8
$DDT_AUDIT_GENERATED_(295)
  6
Continuous
 62
     7
100
AcDbLine
 10
165.85
 20
259.3795229059
 30
0.0
 11
194.85
 21
259.3795229059
 31
0.0
  0
LINE
  5
372
330
315
100
AcDbEntity
  8
$DDT_AUDIT_GENERATED_(295)
  6
Continuous
 62
     7
100
AcDbLine
 10
195.35
 20
255.8795229059
 30
0.0
 11
193.2626587737
 21
255.8795229059
 31
0.0
  0
LINE
  5
373
330
315
100
AcDbEntity
  8
$DDT_AUDIT_GENERATED_(295)
  6
Continuous
 62
     7
100
AcDbLine
 10
182.4373412263
 20
255.8795229059
 30
0.0
 11
178.2626587737
 21
255.8795229059
 31
0.0
  0
LINE
  5
374
330
315
100
AcDbEntity
  8
$DDT_AUDIT_GENERATED_(295)
  6
Continuous
 62
     7
100
AcDbLine
 10
167.4373412263
 20
255.8795229059
 30
0.0
 11
165.35
 21
255.8795229059
 31
0.0
  0
LINE
  5
375
330
315
100
AcDbEntity
  8
$DDT_AUDIT_GENERATED_(295)
  6
Continuous
 62
     7
100
AcDbLine
 10
165.35
 20
255.8795229059
 30
0.0
 11
165.35
 21
258.675251635
 31
0.0
  0
ARC
  5
376
330
315
100
AcDbEntity
  8
$DDT_AUDIT_GENERATED_(295)
  6
Continuous
 62
     7
100
AcDbCircle
 10
172.85
 20
252.1009633867
 30
0.0
 40
6.601089837288617
100
AcDbArc
 50
34.9187681796
 51
145.0812318204
  0
ARC
  5
377
330
315
100
AcDbEntity
  8
$DDT_AUDIT_GENERATED_(295)
  6
Continuous
 62
     7
100
AcDbCircle
 10
187.85
 20
252.1009633867
 30
0.0
 40
6.601089837288623
100
AcDbArc
 50
34.9187681796
 51
145.0812318204
  0
LINE
  5
378
330
315
100
AcDbEntity
  8
$DDT_AUDIT_GENERATED_(295)
  6
Continuous
 62
     7
100
AcDbLine
 10
195.35
 20
255.8795229059
 30
0.0
 11
195.35
 21
258.675251635
 31
0.0
  0
LINE
  5
379
330
315
100
AcDbEntity
  8
$DDT_AUDIT_GENERATED_(295)
  6
Continuous
 62
     7
100
AcDbLine
 10
195.35
 20
245.8795229059
 30
0.0
 11
193.2626587737
 21
245.8795229059
 31
0.0
  0
LINE
  5
37A
330
315
100
AcDbEntity
  8
$DDT_AUDIT_GENERATED_(295)
  6
Continuous
 62
     7
100
AcDbLine
 10
182.4373412263
 20
245.8795229059
 30
0.0
 11
178.2626587737
 21
245.8795229059
 31
0.0
  0
LINE
  5
37B
330
315
100
AcDbEntity
  8
$DDT_AUDIT_GENERATED_(295)
  6
Continuous
 62
     7
100
AcDbLine
 10
167.4373412263
 20
245.8795229059
 30
0.0
 11
165.35
 21
245.8795229059
 31
0.0
  0
LINE
  5
37C
330
315
100
AcDbEntity
  8
$DDT_AUDIT_GENERATED_(295)
  6
Continuous
 62
     7
100
AcDbLine
 10
195.35
 20
243.0837941768
 30
0.0
 11
195.35
 21
245.8795229059
 31
0.0
  0
LINE
  5
37D
330
315
100
AcDbEntity
  8
$DDT_AUDIT_GENERATED_(295)
  6
Continuous
 62
     7
100
AcDbLine
 10
195.35
 20
245.8795229059
 30
0.0
 11
195.35
 21
255.8795229059
 31
0.0
  0
LINE
  5
37E
330
315
100
AcDbEntity
  8
$DDT_AUDIT_GENERATED_(295)
  6
Continuous
 62
     7
100
AcDbLine
 10
193.2626587737
 20
255.8795229059
 30
0.0
 11
193.2626587737
 21
245.8795229059
 31
0.0
  0
ARC
  5
37F
330
315
100
AcDbEntity
  8
$DDT_AUDIT_GENERATED_(295)
  6
Continuous
 62
     7
100
AcDbCircle
 10
187.85
 20
249.6580824251
 30
0.0
 40
6.601089837288616
100
AcDbArc
 50
214.9187681796
 51
325.0812318205
  0
LINE
  5
380
330
315
100
AcDbEntity
  8
$DDT_AUDIT_GENERATED_(295)
  6
Continuous
 62
     7
100
AcDbLine
 10
182.4373412263
 20
245.8795229059
 30
0.0
 11
182.4373412263
 21
255.8795229059
 31
0.0
  0
LINE
  5
381
330
315
100
AcDbEntity
  8
$DDT_AUDIT_GENERATED_(295)
  6
Continuous
 62
     7
100
AcDbLine
 10
178.2626587737
 20
255.8795229059
 30
0.0
 11
178.2626587737
 21
245.8795229059
 31
0.0
  0
ARC
  5
382
330
315
100
AcDbEntity
  8
$DDT_AUDIT_GENERATED_(295)
  6
Continuous
 62
     7
100
AcDbCircle
 10
172.85
 20
249.6580824251
 30
0.0
 40
6.601089837288611
100
AcDbArc
 50
214.9187681795
 51
325.0812318205
  0
LINE
  5
383
330
315
100
AcDbEntity
  8
$DDT_AUDIT_GENERATED_(295)
  6
Continuous
 62
     7
100
AcDbLine
 10
167.4373412263
 20
245.8795229059
 30
0.0
 11
167.4373412263
 21
255.8795229059
 31
0.0
  0
LINE
  5
384
330
315
100
AcDbEntity
  8
$DDT_AUDIT_GENERATED_(295)
  6
Continuous
 62
     7
100
AcDbLine
 10
165.35
 20
255.8795229059
 30
0.0
 11
165.35
 21
245.8795229059
 31
0.0
  0
LINE
  5
385
330
315
100
AcDbEntity
  8
$DDT_AUDIT_GENERATED_(295)
  6
Continuous
 62
     7
100
AcDbLine
 10
165.35
 20
245.8795229059
 30
0.0
 11
165.35
 21
243.0837941768
 31
0.0
  0
ARC
  5
386
330
315
100
AcDbEntity
  8
$DDT_AUDIT_GENERATED_(295)
  6
Continuous
 62
     7
100
AcDbCircle
 10
186.9535976036
 20
248.5152241041
 30
0.0
 40
9.999999999999998
100
AcDbArc
 50
322.1519040322
 51
327.1052663449
  0
ARC
  5
387
330
315
100
AcDbEntity
  8
$DDT_AUDIT_GENERATED_(295)
  6
Continuous
 62
     7
100
AcDbCircle
 10
173.7464023964
 20
248.5152241041
 30
0.0
 40
9.999999999999995
100
AcDbArc
 50
212.897181533
 51
217.8480959678
  0
ARC
  5
388
330
315
100
AcDbEntity
  8
$DDT_AUDIT_GENERATED_(295)
  6
Continuous
 62
     7
100
AcDbCircle
 10
186.9535976036
 20
253.2438217077
 30
0.0
 40
9.999999999999988
100
AcDbArc
 50
32.897181533
 51
37.8480959678
  0
ARC
  5
389
330
315
100
AcDbEntity
  8
$DDT_AUDIT_GENERATED_(295)
  6
Continuous
 62
     7
100
AcDbCircle
 10
173.7464023964
 20
253.2438217077
 30
0.0
 40
9.999999999999998
100
AcDbArc
 50
142.1519040322
 51
147.1052663449
  0
LINE
  5
38A
330
315
100
AcDbEntity
  8
$DDT_AUDIT_GENERATED_(292)
  6
Continuous
 62
     7
100
AcDbLine
 10
190.85
 20
241.3795229059
 30
0.0
 11
190.85
 21
242.3795229059
 31
0.0
  0
LINE
  5
38B
330
315
100
AcDbEntity
  8
$DDT_AUDIT_GENERATED_(292)
  6
Continuous
 62
     7
100
AcDbLine
 10
169.85
 20
242.3795229059
 30
0.0
 11
169.85
 21
241.3795229059
 31
0.0
  0
LINE
  5
38C
330
315
100
AcDbEntity
  8
$DDT_AUDIT_GENERATED_(25A)
  6
Continuous
 62
     7
100
AcDbLine
 10
202.1
 20
297.8795229059
 30
0.0
 11
202.1
 21
283.1440309711
 31
0.0
  0
ARC
  5
38D
330
315
100
AcDbEntity
  8
$DDT_AUDIT_GENERATED_(25A)
  6
Continuous
 62
     7
100
AcDbCircle
 10
209.8416427309
 20
277.003014838
 30
0.0
 40
15.58831304263155
100
AcDbArc
 50
177.3463002546
 51
182.605586038
  0
LINE
  5
38E
330
315
100
AcDbEntity
  8
$DDT_AUDIT_GENERATED_(25A)
  6
Continuous
 62
     7
100
AcDbLine
 10
195.6332226138
 20
263.8795229059
 30
0.0
 11
194.2700463589
 21
263.8795229059
 31
0.0
  0
SPLINE
  5
38F
330
315
100
AcDbEntity
  8
$DDT_AUDIT_GENERATED_(25A)
  6
Continuous
 62
     7
100
AcDbSpline
210
0.0
220
0.0
230
1.0
 70
     8
 71
     3
 72
    12
 73
     8
 74
     0
 42
0.0000000008093218
 43
0.0000000001
 40
0.0
 40
0.0
 40
0.0
 40
0.0
 40
0.2500000000000002
 40
0.2500000000000002
 40
0.5000000000000003
 40
0.5000000000000003
 40
0.5975683153519495
 40
0.5975683153519495
 40
0.5975683153519495
 40
0.5975683153519495
 10
195.6329423639502
 20
269.0896615848656
 30
0.0
 10
195.6328761590367
 20
270.2685259438653
 30
0.0
 10
195.6540031154338
 20
271.4246002623853
 30
0.0
 10
195.7427791000746
 20
273.6344642425292
 30
0.0
 10
195.8092663831499
 20
274.6464928070137
 30
0.0
 10
195.9299063214033
 20
275.8578914128703
 30
0.0
 10
195.9665959866361
 20
276.1717587215638
 30
0.0
 10
196.0056437472432
 20
276.4582958208292
 30
0.0
  0
SPLINE
  5
390
330
315
100
AcDbEntity
  8
$DDT_AUDIT_GENERATED_(25A)
  6
Continuous
 62
     7
100
AcDbSpline
210
0.0
220
0.0
230
1.0
 70
     8
 71
     3
 72
    12
 73
     8
 74
     0
 42
0.000000009335744
 43
0.0000000001
 40
0.0
 40
0.0
 40
0.0
 40
0.0
 40
0.2499999999999988
 40
0.2499999999999988
 40
0.4999999999999976
 40
0.4999999999999976
 40
0.8228917556252809
 40
0.8228917556252809
 40
0.8228917556252809
 40
0.8228917556252809
 10
202.099895912456
 20
283.1440309691411
 30
0.0
 10
202.0997934851634
 20
283.0541630790382
 30
0.0
 10
202.0879242580138
 20
282.9663253644544
 30
0.0
 10
202.041322434905
 20
282.7945600675292
 30
0.0
 10
202.0063153399007
 20
282.7112127872734
 30
0.0
 10
201.9039302324934
 20
282.5358322957926
 30
0.0
 10
201.8292159513146
 20
282.4467474648611
 30
0.0
 10
201.7414871254331
 20
282.3720597598132
 30
0.0
  0
LINE
  5
391
330
315
100
AcDbEntity
  8
$DDT_AUDIT_GENERATED_(25A)
  6
Continuous
 62
     7
100
AcDbLine
 10
195.6329423643
 20
269.0896584661
 30
0.0
 11
195.6390475964
 21
269.0896590576
 31
0.0
  0
SPLINE
  5
392
330
315
100
AcDbEntity
  8
$DDT_AUDIT_GENERATED_(25A)
  6
Continuous
 62
     7
100
AcDbSpline
210
0.0
220
0.0
230
1.0
 70
     8
 71
     3
 72
    23
 73
    19
 74
     0
 42
0.0000000005343584
 43
0.0000000001
 40
0.0
 40
0.0
 40
0.0
 40
0.0
 40
0.040282249715316
 40
0.0807269020720984
 40
0.1213496970605327
 40
0.1824368331915985
 40
0.2448177199301775
 40
0.3656356434827351
 40
0.4957115195086308
 40
0.747039430197579
 40
0.8731094897460528
 40
0.9364445035056268
 40
0.9618895419466218
 40
0.9809639123174176
 40
0.9905132457782494
 40
0.9952863550563613
 40
0.9980807390295117
 40
1.0
 40
1.0
 40
1.0
 40
1.0
 10
180.3499999999999
 20
288.2010058120605
 30
0.0
 10
180.6568958994203
 20
288.1960764158834
 30
0.0
 10
181.2719249853124
 20
288.1861979457437
 30
0.0
 10
182.1905411403712
 20
288.106962225518
 30
0.0
 10
183.2527261089658
 20
287.9597492485393
 30
0.0
 10
184.4500194356326
 20
287.706378223862
 30
0.0
 10
186.1555618838983
 20
287.1924202051433
 30
0.0
 10
188.164414740089
 20
286.296318238855
 30
0.0
 10
190.8780761310047
 20
284.4682639852707
 30
0.0
 10
192.7960124257405
 20
282.2136987982811
 30
0.0
 10
193.7533952241948
 20
280.1806603385249
 30
0.0
 10
194.0593298821424
 20
279.1946352693213
 30
0.0
 10
194.1743343302687
 20
278.6993240630138
 30
0.0
 10
194.2216027855729
 20
278.4446073012943
 30
0.0
 10
194.2459480879075
 20
278.2725543511591
 30
0.0
 10
194.257321501286
 20
278.1855670204578
 30
0.0
 10
194.2642927320299
 20
278.1395710254149
 30
0.0
 10
194.2683815212702
 20
278.1394073649449
 30
0.0
 10
194.2700463589275
 20
278.139340727097
 30
0.0
  0
LINE
  5
393
330
315
100
AcDbEntity
  8
$DDT_AUDIT_GENERATED_(25A)
  6
Continuous
 62
     7
100
AcDbLine
 10
166.4299536411
 20
263.8795229059
 30
0.0
 11
194.2700463581
 21
263.8795229059
 31
0.0
  0
SPLINE
  5
394
330
315
100
AcDbEntity
  8
$DDT_AUDIT_GENERATED_(25A)
  6
Continuous
 62
     7
100
AcDbSpline
210
0.0
220
0.0
230
1.0
 70
     8
 71
     2
 72
    12
 73
     9
 74
     0
 42
0.0000000002888829
 43
0.0000000001
 40
0.0
 40
0.0
 40
0.0
 40
0.25
 40
0.25
 40
0.5
 40
0.5
 40
0.75
 40
0.75
 40
1.0
 40
1.0
 40
1.0
 10
180.3499999999999
 20
319.6295571577833
 30
0.0
 10
184.2489521216135
 20
319.6294347765001
 30
0.0
 10
187.9050026206385
 20
318.2750963993881
 30
0.0
 10
191.7218014184581
 20
316.8612108168501
 30
0.0
 10
194.7680638309457
 20
314.1639523572822
 30
0.0
 10
198.0722652611604
 20
311.23830641712
 30
0.0
 10
199.9739863635946
 20
307.2580761217723
 30
0.0
 10
202.0750487900654
 20
302.8606319794362
 30
0.0
 10
202.0999185665868
 20
297.8795225015654
 30
0.0
  0
SPLINE
  5
395
330
315
100
AcDbEntity
  8
$DDT_AUDIT_GENERATED_(25A)
  6
Continuous
 62
     7
100
AcDbSpline
210
0.0
220
0.0
230
1.0
 70
     8
 71
     3
 72
    18
 73
    14
 74
     0
 42
0.0000000002917429
 43
0.0000000001
 40
0.0
 40
0.0
 40
0.0
 40
0.0
 40
0.1083249699944061
 40
0.2166498140137766
 40
0.3249746580331469
 40
0.4332995020525173
 40
0.5416243460718877
 40
0.6499491900912581
 40
0.7582740341106284
 40
0.8665988781299987
 40
0.9749237221493691
 40
0.9884643276517904
 40
1.0
 40
1.0
 40
1.0
 40
1.0
 10
180.3499999999999
 20
319.6295571577833
 30
0.0
 10
179.2435093293263
 20
319.6295509859481
 30
0.0
 10
177.0305352260069
 20
319.4607296267411
 30
0.0
 10
173.7619577742829
 20
318.6990206089337
 30
0.0
 10
170.5994506964929
 20
317.4227002648967
 30
0.0
 10
167.6069927929871
 20
315.6234911019068
 30
0.0
 10
164.8613586652754
 20
313.2947148243916
 30
0.0
 10
162.4555204724125
 20
310.4365590603825
 30
0.0
 10
160.5003005004968
 20
307.0632255873091
 30
0.0
 10
159.1263913203653
 20
303.2118827376522
 30
0.0
 10
158.6654370607176
 20
300.1958081523541
 30
0.0
 10
158.6044447247444
 20
298.3813750152394
 30
0.0
 10
158.6009496318462
 20
298.037970972817
 30
0.0
 10
158.600081433413
 20
297.8795225015654
 30
0.0
  0
LINE
  5
396
330
315
100
AcDbEntity
  8
$DDT_AUDIT_GENERATED_(25A)
  6
Continuous
 62
     7
100
AcDbLine
 10
158.6
 20
297.8795229059
 30
0.0
 11
158.6
 21
283.1440309711
 31
0.0
  0
LINE
  5
397
330
315
100
AcDbEntity
  8
$DDT_AUDIT_GENERATED_(25A)
  6
Continuous
 62
     7
100
AcDbLine
 10
165.0667773862
 20
263.8795229059
 30
0.0
 11
166.4299536411
 21
263.8795229059
 31
0.0
  0
ARC
  5
398
330
315
100
AcDbEntity
  8
$DDT_AUDIT_GENERATED_(25A)
  6
Continuous
 62
     7
100
AcDbCircle
 10
150.8583572691
 20
277.003014838
 30
0.0
 40
15.58831304267073
100
AcDbArc
 50
357.394413962
 51
2.6536997454
  0
SPLINE
  5
399
330
315
100
AcDbEntity
  8
$DDT_AUDIT_GENERATED_(25A)
  6
Continuous
 62
     7
100
AcDbSpline
210
0.0
220
0.0
230
1.0
 70
    12
 71
     3
 72
    36
 73
    32
 74
     0
 42
0.0000000005358603
 43
0.0000000001
 40
0.0
 40
0.0
 40
0.0
 40
0.0
 40
0.0615262870261858
 40
0.0615262870261858
 40
0.1240912012244392
 40
0.1240912012244392
 40
0.2492210296209472
 40
0.2492210296209472
 40
0.3117859438192024
 40
0.3117859438192024
 40
0.3743508580174558
 40
0.3743508580174558
 40
0.4994806864139644
 40
0.4994806864139644
 40
0.6246105148104725
 40
0.6246105148104725
 40
0.749740343206981
 40
0.749740343206981
 40
0.8748701716034896
 40
0.8748701716034896
 40
0.9374350858017448
 40
0.9374350858017448
 40
0.9687175429008721
 40
0.9687175429008721
 40
0.9843587714504339
 40
0.9843587714504339
 40
0.992179385725217
 40
0.992179385725217
 40
0.9960896928626067
 40
0.9960896928626067
 40
1.0
 40
1.0
 40
1.0
 40
1.0
 10
180.3499999999999
 20
288.2010058120605
 30
0.0
 41
1.0
 10
179.8948448225027
 20
288.2010097229218
 30
0.0
 41
1.0
 10
179.4408437921556
 20
288.1823132434833
 30
0.0
 41
1.0
 10
178.5249580420938
 20
288.1071370260067
 30
0.0
 41
1.0
 10
178.05961658251
 20
288.0493014400507
 30
0.0
 41
1.0
 10
176.6898626730568
 20
287.8194714138378
 30
0.0
 41
1.0
 10
175.8117541138053
 20
287.5940660657311
 30
0.0
 41
1.0
 10
174.5409083517844
 20
287.1519135006408
 30
0.0
 41
1.0
 10
174.127024307759
 20
286.9876197855382
 30
0.0
 41
1.0
 10
173.332411895093
 20
286.632621346329
 30
0.0
 41
1.0
 10
172.9495035777128
 20
286.4411288426596
 30
0.0
 41
1.0
 10
171.842973533498
 20
285.8285069577612
 30
0.0
 41
1.0
 10
171.1577457779327
 20
285.3649467746824
 30
0.0
 41
1.0
 10
169.9405085508878
 20
284.3830541199074
 30
0.0
 41
1.0
 10
169.4019431300252
 20
283.8614904188395
 30
0.0
 41
1.0
 10
168.4527230251547
 20
282.7729827511156
 30
0.0
 41
1.0
 10
168.0407569196439
 20
282.2026873718708
 30
0.0
 41
1.0
 10
167.3583997033294
 20
281.0547868736352
 30
0.0
 41
1.0
 10
167.0847301835079
 20
280.4740858569351
 30
0.0
 41
1.0
 10
166.7673172978876
 20
279.6028231513876
 30
0.0
 41
1.0
 10
166.6771368113453
 20
279.3126422521395
 30
0.0
 41
1.0
 10
166.5657464187635
 20
278.8745893181219
 30
0.0
 41
1.0
 10
166.5325756270697
 20
278.7289284261927
 30
0.0
 41
1.0
 10
166.4896247249375
 20
278.503629065543
 30
0.0
 41
1.0
 10
166.4765162152659
 20
278.4266430241653
 30
0.0
 41
1.0
 10
166.4587120196943
 20
278.3061794108194
 30
0.0
 41
1.0
 10
166.4531371591698
 20
278.2646527146319
 30
0.0
 41
1.0
 10
166.4449838050557
 20
278.2034221991994
 30
0.0
 41
1.0
 10
166.4423149608719
 20
278.1830135819378
 30
0.0
 41
1.0
 10
166.436602871921
 20
278.1475248920027
 30
0.0
 41
1.0
 10
166.4334164440788
 20
278.1306298372031
 30
0.0
 41
1.0
 10
166.4299536410724
 20
278.139340727097
 30
0.0
 41
1.0
  0
SPLINE
  5
39A
330
315
100
AcDbEntity
  8
$DDT_AUDIT_GENERATED_(25A)
  6
Continuous
 62
     7
100
AcDbSpline
210
0.0
220
0.0
230
1.0
 70
     8
 71
     3
 72
    12
 73
     8
 74
     0
 42
0.0000000093350419
 43
0.0000000001
 40
0.0
 40
0.0
 40
0.0
 40
0.0
 40
0.2499999999999988
 40
0.2499999999999988
 40
0.4999999999999976
 40
0.4999999999999976
 40
0.8274004342649829
 40
0.8274004342649829
 40
0.8274004342649829
 40
0.8274004342649829
 10
158.6001040875439
 20
283.1440309691411
 30
0.0
 10
158.6002065148364
 20
283.0541630790382
 30
0.0
 10
158.612075741986
 20
282.9663253644544
 30
0.0
 10
158.6586775650948
 20
282.7945600675292
 30
0.0
 10
158.6936846600991
 20
282.7112127872734
 30
0.0
 10
158.7968755419696
 20
282.5344520450419
 30
0.0
 10
158.8728739012077
 20
282.4442615075391
 30
0.0
 10
158.9621954640874
 20
282.3689395026214
 30
0.0
  0
LINE
  5
39B
330
315
100
AcDbEntity
  8
$DDT_AUDIT_GENERATED_(25A)
  6
Continuous
 62
     7
100
AcDbLine
 10
165.0670576357
 20
269.0896584661
 30
0.0
 11
165.0609524036
 21
269.0896590576
 31
0.0
  0
SPLINE
  5
39C
330
315
100
AcDbEntity
  8
$DDT_AUDIT_GENERATED_(25A)
  6
Continuous
 62
     7
100
AcDbSpline
210
0.0
220
0.0
230
1.0
 70
     8
 71
     3
 72
    12
 73
     8
 74
     0
 42
0.0000000007956649
 43
0.0000000001
 40
0.0
 40
0.0
 40
0.0
 40
0.0
 40
0.2499999999999998
 40
0.2499999999999998
 40
0.4999999999999996
 40
0.4999999999999996
 40
0.559833076700695
 40
0.559833076700695
 40
0.559833076700695
 40
0.559833076700695
 10
165.0670576360497
 20
269.0896615848656
 30
0.0
 10
165.0671238409632
 20
270.2685259438652
 30
0.0
 10
165.0459968845661
 20
271.4246002623853
 30
0.0
 10
164.9572208999252
 20
273.6344642425292
 30
0.0
 10
164.89073361685
 20
274.6464928070137
 30
0.0
 10
164.7831914687569
 20
275.7263707492347
 30
0.0
 10
164.7613615749148
 20
275.9250599541364
 30
0.0
 10
164.7385771167442
 20
276.1136366045052
 30
0.0
  0
ARC
  5
39D
330
315
100
AcDbEntity
  8
$DDT_AUDIT_GENERATED_(25A)
  6
Continuous
 62
     7
100
AcDbCircle
 10
-144.9759843054
 20
691.2040361838
 30
0.0
 40
536.0497305023886
100
AcDbArc
 50
309.5311334139
 51
310.3002406493
  0
SPLINE
  5
39E
330
315
100
AcDbEntity
  8
$DDT_AUDIT_GENERATED_(25A)
  6
Continuous
 62
     7
100
AcDbSpline
210
0.0
220
0.0
230
1.0
 70
     8
 71
     3
 72
    12
 73
     8
 74
     0
 42
0.0000000050016256
 43
0.0000000001
 40
0.0
 40
0.0
 40
0.0
 40
0.0
 40
0.1941554062716087
 40
0.385015588940407
 40
0.5541157643625384
 40
0.701143040786756
 40
0.8068157350584457
 40
0.8068157350584457
 40
0.8068157350584457
 40
0.8068157350584457
 10
196.0018467786001
 20
276.3191549140171
 30
0.0
 10
196.0354153560835
 20
276.5529529323444
 30
0.0
 10
196.0915952759516
 20
276.9391678108467
 30
0.0
 10
196.1858948044916
 20
277.4027420577953
 30
0.0
 10
196.2666763280563
 20
277.7058123644653
 30
0.0
 10
196.3248238483854
 20
277.8614385773348
 30
0.0
 10
196.339001204696
 20
277.8914923277627
 30
0.0
 10
196.3394524265994
 20
277.8911815463033
 30
0.0
  0
LINE
  5
39F
330
315
100
AcDbEntity
  8
$DDT_AUDIT_GENERATED_(25A)
  6
Continuous
 62
     7
100
AcDbLine
 10
195.6382590595
 20
263.8795225179
 30
0.0
 11
195.6384799548
 21
269.0896580743
 31
0.0
  0
LINE
  5
3A0
330
315
100
AcDbEntity
  8
$DDT_AUDIT_GENERATED_(25A)
  6
Continuous
 62
     7
100
AcDbLine
 10
193.57
 20
259.3795229059
 30
0.0
 11
193.57
 21
263.8795229059
 31
0.0
  0
LINE
  5
3A1
330
315
100
AcDbEntity
  8
$DDT_AUDIT_GENERATED_(25A)
  6
Continuous
 62
     7
100
AcDbLine
 10
167.13
 20
263.8795229059
 30
0.0
 11
167.13
 21
259.3795229059
 31
0.0
  0
LINE
  5
3A2
330
315
100
AcDbEntity
  8
$DDT_AUDIT_GENERATED_(25A)
  6
Continuous
 62
     7
100
AcDbLine
 10
158.9621804434
 20
282.3695223947
 30
0.0
 11
164.4824886081
 21
277.7654500349
 31
0.0
  0
SPLINE
  5
3A3
330
315
100
AcDbEntity
  8
$DDT_AUDIT_GENERATED_(25A)
  6
Continuous
 62
     7
100
AcDbSpline
210
0.0
220
0.0
230
1.0
 70
     8
 71
     3
 72
    14
 73
    10
 74
     0
 42
0.0000000042254654
 43
0.0000000001
 40
0.1771456922093784
 40
0.1771456922093784
 40
0.1771456922093784
 40
0.1771456922093784
 40
0.1888030005547143
 40
0.2990076656187626
 40
0.4319567553021967
 40
0.5829596242608077
 40
0.7495138137614219
 40
0.9235917052545676
 40
1.0
 40
1.0
 40
1.0
 40
1.0
 10
164.3605102704154
 20
277.8910618519437
 30
0.0
 10
164.3603327270698
 20
277.8910671804379
 30
0.0
 10
164.359638604528
 20
277.8891987381892
 30
0.0
 10
164.3842503519611
 20
277.8443132605006
 30
0.0
 10
164.4441354412399
 20
277.6676404157732
 30
0.0
 10
164.5243945137182
 20
277.3580834555493
 30
0.0
 10
164.6122450485342
 20
276.9065870733483
 30
0.0
 10
164.6876853653418
 20
276.4247599998176
 30
0.0
 10
164.7247253550441
 20
276.1032967383479
 30
0.0
 10
164.737955179621
 20
275.9876319654233
 30
0.0
  0
LINE
  5
3A4
330
315
100
AcDbEntity
  8
$DDT_AUDIT_GENERATED_(25A)
  6
Continuous
 62
     7
100
AcDbLine
 10
165.0629558918
 20
269.0896600893
 30
0.0
 11
165.0619338001
 21
263.8795246689
 31
0.0
  0
LINE
  5
3A5
330
315
100
AcDbEntity
  8
$DDT_AUDIT_GENERATED_(25A)
  6
Continuous
 62
     7
100
AcDbLine
 10
52.1
 20
297.8795229059
 30
0.0
 11
52.1
 21
283.1440309711
 31
0.0
  0
ARC
  5
3A6
330
315
100
AcDbEntity
  8
$DDT_AUDIT_GENERATED_(25A)
  6
Continuous
 62
     7
100
AcDbCircle
 10
59.8416427309
 20
277.003014838
 30
0.0
 40
15.5883130426263
100
AcDbArc
 50
177.3463002546
 51
182.605586038
  0
LINE
  5
3A7
330
315
100
AcDbEntity
  8
$DDT_AUDIT_GENERATED_(25A)
  6
Continuous
 62
     7
100
AcDbLine
 10
45.6332226138
 20
263.8795229059
 30
0.0
 11
44.2700463589
 21
263.8795229059
 31
0.0
  0
SPLINE
  5
3A8
330
315
100
AcDbEntity
  8
$DDT_AUDIT_GENERATED_(25A)
  6
Continuous
 62
     7
100
AcDbSpline
210
0.0
220
0.0
230
1.0
 70
     8
 71
     3
 72
    12
 73
     8
 74
     0
 42
0.0000000008093218
 43
0.0000000001
 40
0.0
 40
0.0
 40
0.0
 40
0.0
 40
0.2499999999999998
 40
0.2499999999999998
 40
0.4999999999999996
 40
0.4999999999999996
 40
0.5975683153519467
 40
0.5975683153519467
 40
0.5975683153519467
 40
0.5975683153519467
 10
45.63294236395021
 20
269.0896615848656
 30
0.0
 10
45.63287615903673
 20
270.2685259438653
 30
0.0
 10
45.65400311543382
 20
271.4246002623853
 30
0.0
 10
45.7427791000747
 20
273.6344642425292
 30
0.0
 10
45.8092663831499
 20
274.6464928070138
 30
0.0
 10
45.92990632140332
 20
275.8578914128703
 30
0.0
 10
45.96659598663611
 20
276.1717587215639
 30
0.0
 10
46.00564374724328
 20
276.4582958208292
 30
0.0
  0
SPLINE
  5
3A9
330
315
100
AcDbEntity
  8
$DDT_AUDIT_GENERATED_(25A)
  6
Continuous
 62
     7
100
AcDbSpline
210
0.0
220
0.0
230
1.0
 70
     8
 71
     3
 72
    12
 73
     8
 74
     0
 42
0.000000009335744
 43
0.0000000001
 40
0.0
 40
0.0
 40
0.0
 40
0.0
 40
0.2499999999999988
 40
0.2499999999999988
 40
0.4999999999999976
 40
0.4999999999999976
 40
0.8228917556252706
 40
0.8228917556252706
 40
0.8228917556252706
 40
0.8228917556252706
 10
52.09989591245602
 20
283.1440309691413
 30
0.0
 10
52.0997934851635
 20
283.0541630790383
 30
0.0
 10
52.08792425801388
 20
282.9663253644545
 30
0.0
 10
52.04132243490504
 20
282.7945600675294
 30
0.0
 10
52.00631533990077
 20
282.7112127872735
 30
0.0
 10
51.90393023249342
 20
282.5358322957927
 30
0.0
 10
51.82921595131467
 20
282.4467474648612
 30
0.0
 10
51.74148712543312
 20
282.3720597598134
 30
0.0
  0
LINE
  5
3AA
330
315
100
AcDbEntity
  8
$DDT_AUDIT_GENERATED_(25A)
  6
Continuous
 62
     7
100
AcDbLine
 10
45.6329423643
 20
269.0896584661
 30
0.0
 11
45.6390475964
 21
269.0896590576
 31
0.0
  0
SPLINE
  5
3AB
330
315
100
AcDbEntity
  8
$DDT_AUDIT_GENERATED_(25A)
  6
Continuous
 62
     7
100
AcDbSpline
210
0.0
220
0.0
230
1.0
 70
     8
 71
     3
 72
    23
 73
    19
 74
     0
 42
0.0000000005343584
 43
0.0000000001
 40
0.0
 40
0.0
 40
0.0
 40
0.0
 40
0.040282249715316
 40
0.0807269020720984
 40
0.1213496970605327
 40
0.1824368331915985
 40
0.2448177199301775
 40
0.3656356434827351
 40
0.4957115195086308
 40
0.747039430197579
 40
0.8731094897460528
 40
0.9364445035056268
 40
0.9618895419466218
 40
0.9809639123174176
 40
0.9905132457782494
 40
0.9952863550563613
 40
0.9980807390295117
 40
1.0
 40
1.0
 40
1.0
 40
1.0
 10
30.34999999999996
 20
288.2010058120604
 30
0.0
 10
30.65689589942033
 20
288.1960764158834
 30
0.0
 10
31.27192498531245
 20
288.1861979457437
 30
0.0
 10
32.19054114037124
 20
288.106962225518
 30
0.0
 10
33.25272610896582
 20
287.9597492485393
 30
0.0
 10
34.4500194356326
 20
287.706378223862
 30
0.0
 10
36.15556188389829
 20
287.1924202051432
 30
0.0
 10
38.16441474008905
 20
286.296318238855
 30
0.0
 10
40.87807613100473
 20
284.4682639852706
 30
0.0
 10
42.79601242574058
 20
282.2136987982811
 30
0.0
 10
43.75339522419486
 20
280.1806603385249
 30
0.0
 10
44.05932988214239
 20
279.1946352693213
 30
0.0
 10
44.17433433026874
 20
278.6993240630138
 30
0.0
 10
44.22160278557293
 20
278.4446073012943
 30
0.0
 10
44.24594808790751
 20
278.2725543511591
 30
0.0
 10
44.25732150128604
 20
278.1855670204578
 30
0.0
 10
44.26429273202999
 20
278.1395710254149
 30
0.0
 10
44.26838152127021
 20
278.1394073649449
 30
0.0
 10
44.27004635892751
 20
278.139340727097
 30
0.0
  0
LINE
  5
3AC
330
315
100
AcDbEntity
  8
$DDT_AUDIT_GENERATED_(25A)
  6
Continuous
 62
     7
100
AcDbLine
 10
16.4299536411
 20
263.8795229059
 30
0.0
 11
44.2700463581
 21
263.8795229059
 31
0.0
  0
SPLINE
  5
3AD
330
315
100
AcDbEntity
  8
$DDT_AUDIT_GENERATED_(25A)
  6
Continuous
 62
     7
100
AcDbSpline
210
0.0
220
0.0
230
1.0
 70
     8
 71
     2
 72
    12
 73
     9
 74
     0
 42
0.0000000002888829
 43
0.0000000001
 40
0.0
 40
0.0
 40
0.0
 40
0.25
 40
0.25
 40
0.5
 40
0.5
 40
0.75
 40
0.75
 40
1.0
 40
1.0
 40
1.0
 10
30.34999999999997
 20
319.6295571577834
 30
0.0
 10
34.24895212161353
 20
319.6294347765003
 30
0.0
 10
37.90500262063858
 20
318.2750963993882
 30
0.0
 10
41.7218014184582
 20
316.8612108168502
 30
0.0
 10
44.76806383094578
 20
314.1639523572823
 30
0.0
 10
48.07226526116048
 20
311.2383064171202
 30
0.0
 10
49.97398636359468
 20
307.2580761217724
 30
0.0
 10
52.07504879006548
 20
302.8606319794364
 30
0.0
 10
52.09991856658687
 20
297.8795225015655
 30
0.0
  0
SPLINE
  5
3AE
330
315
100
AcDbEntity
  8
$DDT_AUDIT_GENERATED_(25A)
  6
Continuous
 62
     7
100
AcDbSpline
210
0.0
220
0.0
230
1.0
 70
     8
 71
     3
 72
    18
 73
    14
 74
     0
 42
0.0000000002917429
 43
0.0000000001
 40
0.0
 40
0.0
 40
0.0
 40
0.0
 40
0.1083249699944061
 40
0.2166498140137766
 40
0.3249746580331469
 40
0.4332995020525173
 40
0.5416243460718877
 40
0.6499491900912581
 40
0.7582740341106284
 40
0.8665988781299987
 40
0.9749237221493691
 40
0.9884643276517904
 40
1.0
 40
1.0
 40
1.0
 40
1.0
 10
30.34999999999997
 20
319.6295571577834
 30
0.0
 10
29.24350932932634
 20
319.6295509859483
 30
0.0
 10
27.03053522600699
 20
319.4607296267412
 30
0.0
 10
23.76195777428297
 20
318.6990206089339
 30
0.0
 10
20.5994506964929
 20
317.4227002648968
 30
0.0
 10
17.60699279298718
 20
315.623491101907
 30
0.0
 10
14.86135866527553
 20
313.2947148243918
 30
0.0
 10
12.45552047241254
 20
310.4365590603826
 30
0.0
 10
10.50030050049687
 20
307.0632255873094
 30
0.0
 10
9.126391320365329
 20
303.2118827376523
 30
0.0
 10
8.665437060717624
 20
300.1958081523542
 30
0.0
 10
8.60444472474446
 20
298.3813750152397
 30
0.0
 10
8.600949631846225
 20
298.0379709728173
 30
0.0
 10
8.600081433413079
 20
297.8795225015655
 30
0.0
  0
LINE
  5
3AF
330
315
100
AcDbEntity
  8
$DDT_AUDIT_GENERATED_(25A)
  6
Continuous
 62
     7
100
AcDbLine
 10
8.6
 20
297.8795229059
 30
0.0
 11
8.6
 21
283.1440309711
 31
0.0
  0
LINE
  5
3B0
330
315
100
AcDbEntity
  8
$DDT_AUDIT_GENERATED_(25A)
  6
Continuous
 62
     7
100
AcDbLine
 10
15.0667773862
 20
263.8795229059
 30
0.0
 11
16.4299536411
 21
263.8795229059
 31
0.0
  0
ARC
  5
3B1
330
315
100
AcDbEntity
  8
$DDT_AUDIT_GENERATED_(25A)
  6
Continuous
 62
     7
100
AcDbCircle
 10
0.8583572691
 20
277.003014838
 30
0.0
 40
15.58831304266312
100
AcDbArc
 50
357.394413962
 51
2.6536997454
  0
SPLINE
  5
3B2
330
315
100
AcDbEntity
  8
$DDT_AUDIT_GENERATED_(25A)
  6
Continuous
 62
     7
100
AcDbSpline
210
0.0
220
0.0
230
1.0
 70
    12
 71
     3
 72
    36
 73
    32
 74
     0
 42
0.0000000005358603
 43
0.0000000001
 40
0.0
 40
0.0
 40
0.0
 40
0.0
 40
0.0615262870261858
 40
0.0615262870261858
 40
0.1240912012244392
 40
0.1240912012244392
 40
0.2492210296209472
 40
0.2492210296209472
 40
0.3117859438192024
 40
0.3117859438192024
 40
0.3743508580174558
 40
0.3743508580174558
 40
0.4994806864139644
 40
0.4994806864139644
 40
0.6246105148104725
 40
0.6246105148104725
 40
0.749740343206981
 40
0.749740343206981
 40
0.8748701716034896
 40
0.8748701716034896
 40
0.9374350858017448
 40
0.9374350858017448
 40
0.9687175429008721
 40
0.9687175429008721
 40
0.9843587714504339
 40
0.9843587714504339
 40
0.992179385725217
 40
0.992179385725217
 40
0.9960896928626067
 40
0.9960896928626067
 40
1.0
 40
1.0
 40
1.0
 40
1.0
 10
30.34999999999996
 20
288.2010058120604
 30
0.0
 41
1.0
 10
29.89484482250274
 20
288.2010097229218
 30
0.0
 41
1.0
 10
29.44084379215565
 20
288.1823132434833
 30
0.0
 41
1.0
 10
28.52495804209383
 20
288.1071370260067
 30
0.0
 41
1.0
 10
28.05961658251003
 20
288.0493014400507
 30
0.0
 41
1.0
 10
26.68986267305688
 20
287.8194714138377
 30
0.0
 41
1.0
 10
25.81175411380539
 20
287.5940660657311
 30
0.0
 41
1.0
 10
24.54090835178441
 20
287.1519135006408
 30
0.0
 41
1.0
 10
24.12702430775902
 20
286.9876197855382
 30
0.0
 41
1.0
 10
23.33241189509301
 20
286.632621346329
 30
0.0
 41
1.0
 10
22.94950357771282
 20
286.4411288426596
 30
0.0
 41
1.0
 10
21.84297353349805
 20
285.8285069577612
 30
0.0
 41
1.0
 10
21.15774577793281
 20
285.3649467746823
 30
0.0
 41
1.0
 10
19.94050855088786
 20
284.3830541199073
 30
0.0
 41
1.0
 10
19.40194313002522
 20
283.8614904188395
 30
0.0
 41
1.0
 10
18.45272302515471
 20
282.7729827511156
 30
0.0
 41
1.0
 10
18.04075691964394
 20
282.2026873718708
 30
0.0
 41
1.0
 10
17.35839970332942
 20
281.0547868736352
 30
0.0
 41
1.0
 10
17.08473018350792
 20
280.4740858569351
 30
0.0
 41
1.0
 10
16.76731729788762
 20
279.6028231513876
 30
0.0
 41
1.0
 10
16.67713681134535
 20
279.3126422521395
 30
0.0
 41
1.0
 10
16.56574641876355
 20
278.874589318122
 30
0.0
 41
1.0
 10
16.53257562706974
 20
278.7289284261927
 30
0.0
 41
1.0
 10
16.48962472493756
 20
278.503629065543
 30
0.0
 41
1.0
 10
16.47651621526594
 20
278.4266430241653
 30
0.0
 41
1.0
 10
16.45871201969432
 20
278.3061794108194
 30
0.0
 41
1.0
 10
16.45313715916982
 20
278.2646527146319
 30
0.0
 41
1.0
 10
16.44498380505573
 20
278.2034221991994
 30
0.0
 41
1.0
 10
16.44231496087196
 20
278.1830135819378
 30
0.0
 41
1.0
 10
16.43660287192104
 20
278.1475248920027
 30
0.0
 41
1.0
 10
16.43341644407882
 20
278.1306298372031
 30
0.0
 41
1.0
 10
16.42995364107242
 20
278.139340727097
 30
0.0
 41
1.0
  0
SPLINE
  5
3B3
330
315
100
AcDbEntity
  8
$DDT_AUDIT_GENERATED_(25A)
  6
Continuous
 62
     7
100
AcDbSpline
210
0.0
220
0.0
230
1.0
 70
     8
 71
     3
 72
    12
 73
     8
 74
     0
 42
0.0000000093350419
 43
0.0000000001
 40
0.0
 40
0.0
 40
0.0
 40
0.0
 40
0.2499999999999988
 40
0.2499999999999988
 40
0.4999999999999976
 40
0.4999999999999976
 40
0.8274004342649834
 40
0.8274004342649834
 40
0.8274004342649834
 40
0.8274004342649834
 10
8.600104087543913
 20
283.1440309691413
 30
0.0
 10
8.600206514836437
 20
283.0541630790383
 30
0.0
 10
8.612075741986052
 20
282.9663253644546
 30
0.0
 10
8.65867756509489
 20
282.7945600675294
 30
0.0
 10
8.693684660099176
 20
282.7112127872735
 30
0.0
 10
8.796875541969618
 20
282.5344520450421
 30
0.0
 10
8.872873901207695
 20
282.4442615075392
 30
0.0
 10
8.962195464087468
 20
282.3689395026216
 30
0.0
  0
LINE
  5
3B4
330
315
100
AcDbEntity
  8
$DDT_AUDIT_GENERATED_(25A)
  6
Continuous
 62
     7
100
AcDbLine
 10
15.0670576357
 20
269.0896584661
 30
0.0
 11
15.0609524036
 21
269.0896590576
 31
0.0
  0
SPLINE
  5
3B5
330
315
100
AcDbEntity
  8
$DDT_AUDIT_GENERATED_(25A)
  6
Continuous
 62
     7
100
AcDbSpline
210
0.0
220
0.0
230
1.0
 70
     8
 71
     3
 72
    12
 73
     8
 74
     0
 42
0.0000000007956649
 43
0.0000000001
 40
0.0
 40
0.0
 40
0.0
 40
0.0
 40
0.2500000000000002
 40
0.2500000000000002
 40
0.5000000000000003
 40
0.5000000000000003
 40
0.5598330767006962
 40
0.5598330767006962
 40
0.5598330767006962
 40
0.5598330767006962
 10
15.06705763604971
 20
269.0896615848656
 30
0.0
 10
15.0671238409632
 20
270.2685259438653
 30
0.0
 10
15.04599688456612
 20
271.4246002623854
 30
0.0
 10
14.95722089992524
 20
273.6344642425292
 30
0.0
 10
14.89073361685002
 20
274.6464928070138
 30
0.0
 10
14.78319146875695
 20
275.7263707492347
 30
0.0
 10
14.76136157491485
 20
275.9250599541364
 30
0.0
 10
14.73857711674426
 20
276.1136366045053
 30
0.0
  0
ARC
  5
3B6
330
315
100
AcDbEntity
  8
$DDT_AUDIT_GENERATED_(25A)
  6
Continuous
 62
     7
100
AcDbCircle
 10
-294.9759843052
 20
691.2040361835
 30
0.0
 40
536.0497305020746
100
AcDbArc
 50
309.5311334139
 51
310.3002406493
  0
SPLINE
  5
3B7
330
315
100
AcDbEntity
  8
$DDT_AUDIT_GENERATED_(25A)
  6
Continuous
 62
     7
100
AcDbSpline
210
0.0
220
0.0
230
1.0
 70
     8
 71
     3
 72
    12
 73
     8
 74
     0
 42
0.0000000050016256
 43
0.0000000001
 40
0.0
 40
0.0
 40
0.0
 40
0.0
 40
0.194155406271608
 40
0.3850155889404069
 40
0.5541157643625384
 40
0.7011430407867562
 40
0.8068157350584471
 40
0.8068157350584471
 40
0.8068157350584471
 40
0.8068157350584471
 10
46.0018467786001
 20
276.3191549140171
 30
0.0
 10
46.03541535608351
 20
276.5529529323445
 30
0.0
 10
46.0915952759516
 20
276.9391678108467
 30
0.0
 10
46.18589480449162
 20
277.4027420577953
 30
0.0
 10
46.26667632805619
 20
277.7058123644653
 30
0.0
 10
46.32482384838545
 20
277.8614385773349
 30
0.0
 10
46.33900120469611
 20
277.8914923277628
 30
0.0
 10
46.33945242659946
 20
277.8911815463034
 30
0.0
  0
LINE
  5
3B8
330
315
100
AcDbEntity
  8
$DDT_AUDIT_GENERATED_(25A)
  6
Continuous
 62
     7
100
AcDbLine
 10
45.6382590595
 20
263.8795225179
 30
0.0
 11
45.6384799548
 21
269.0896580743
 31
0.0
  0
LINE
  5
3B9
330
315
100
AcDbEntity
  8
$DDT_AUDIT_GENERATED_(25A)
  6
Continuous
 62
     7
100
AcDbLine
 10
43.57
 20
259.3795229059
 30
0.0
 11
43.57
 21
263.8795229059
 31
0.0
  0
LINE
  5
3BA
330
315
100
AcDbEntity
  8
$DDT_AUDIT_GENERATED_(25A)
  6
Continuous
 62
     7
100
AcDbLine
 10
17.13
 20
263.8795229059
 30
0.0
 11
17.13
 21
259.3795229059
 31
0.0
  0
LINE
  5
3BB
330
315
100
AcDbEntity
  8
$DDT_AUDIT_GENERATED_(25A)
  6
Continuous
 62
     7
100
AcDbLine
 10
8.9621804434
 20
282.3695223947
 30
0.0
 11
14.4824886081
 21
277.7654500349
 31
0.0
  0
SPLINE
  5
3BC
330
315
100
AcDbEntity
  8
$DDT_AUDIT_GENERATED_(25A)
  6
Continuous
 62
     7
100
AcDbSpline
210
0.0
220
0.0
230
1.0
 70
     8
 71
     3
 72
    14
 73
    10
 74
     0
 42
0.0000000042254654
 43
0.0000000001
 40
0.1771456922093786
 40
0.1771456922093786
 40
0.1771456922093786
 40
0.1771456922093786
 40
0.1888030005547142
 40
0.2990076656187625
 40
0.4319567553021966
 40
0.5829596242608073
 40
0.7495138137614208
 40
0.9235917052545678
 40
1.0
 40
1.0
 40
1.0
 40
1.0
 10
14.36051027041541
 20
277.8910618519438
 30
0.0
 10
14.36033272706989
 20
277.891067180438
 30
0.0
 10
14.3596386045281
 20
277.8891987381892
 30
0.0
 10
14.3842503519612
 20
277.8443132605007
 30
0.0
 10
14.44413544123987
 20
277.6676404157732
 30
0.0
 10
14.52439451371827
 20
277.3580834555494
 30
0.0
 10
14.61224504853427
 20
276.9065870733484
 30
0.0
 10
14.68768536534192
 20
276.4247599998176
 30
0.0
 10
14.72472535504413
 20
276.103296738348
 30
0.0
 10
14.73795517962099
 20
275.9876319654233
 30
0.0
  0
LINE
  5
3BD
330
315
100
AcDbEntity
  8
$DDT_AUDIT_GENERATED_(25A)
  6
Continuous
 62
     7
100
AcDbLine
 10
15.0629558918
 20
269.0896600893
 30
0.0
 11
15.0619338001
 21
263.8795246689
 31
0.0
  0
ENDBLK
  5
3BF
330
315
100
AcDbEntity
  8
0
100
AcDbBlockEnd
  0
ENDSEC
  0
SECTION
  2
ENTITIES
  0
LINE
  5
5E
330
1F
100
AcDbEntity
  8
Default
  6
Continuous
 62
     7
100
AcDbLine
 10
8.6001040875
 20
422.5177646117
 30
0.0
 11
52.0998959125
 21
422.5177646117
 31
0.0
  0
INSERT
  5
60
330
1F
100
AcDbEntity
  8
Default
100
AcDbBlockReference
  2
SEANNOT_GROUP
 10
0.0
 20
0.0
 30
0.0
  0
LINE
  5
66
330
1F
100
AcDbEntity
  8
Default
  6
Continuous
 62
     7
100
AcDbLine
 10
158.6001040875
 20
422.5177646117
 30
0.0
 11
202.0998959125
 21
422.5177646117
 31
0.0
  0
INSERT
  5
68
330
1F
100
AcDbEntity
  8
Default
100
AcDbBlockReference
  2
SEANNOT_GROUP1
 10
0.0
 20
0.0
 30
0.0
  0
INSERT
  5
6E
330
1F
100
AcDbEntity
  8
Default
100
AcDbBlockReference
  2
SEANNOT_GROUP2
 10
0.0
 20
0.0
 30
0.0
  0
LINE
  5
77
330
1F
100
AcDbEntity
  8
Default
  6
Continuous
 62
     7
100
AcDbLine
 10
268.8895574826
 20
422.5177646117
 30
0.0
 11
312.312789453
 21
422.5177646117
 31
0.0
  0
INSERT
  5
79
330
1F
100
AcDbEntity
  8
Default
100
AcDbBlockReference
  2
SEANNOT_GROUP3
 10
0.0
 20
0.0
 30
0.0
  0
INSERT
  5
7F
330
1F
100
AcDbEntity
  8
Default
100
AcDbBlockReference
  2
SEANNOT_GROUP4
 10
0.0
 20
0.0
 30
0.0
  0
LINE
  5
84
330
1F
100
AcDbEntity
  8
Default
  6
Continuous
 62
     7
100
AcDbLine
 10
8.6000814334
 20
297.8795225016
 30
0.0
 11
52.0999185666
 21
297.8795225016
 31
0.0
  0
LINE
  5
85
330
1F
100
AcDbEntity
  8
Default
  6
Continuous
 62
     7
100
AcDbLine
 10
158.6000814334
 20
297.8795225016
 30
0.0
 11
202.1
 21
297.8795229059
 31
0.0
  0
INSERT
  5
87
330
1F
100
AcDbEntity
  8
Default
100
AcDbBlockReference
  2
SEANNOT_GROUP5
 10
0.0
 20
0.0
 30
0.0
  0
INSERT
  5
8D
330
1F
100
AcDbEntity
  8
Default
100
AcDbBlockReference
  2
SEANNOT_GROUP6
 10
0.0
 20
0.0
 30
0.0
  0
INSERT
  5
93
330
1F
100
AcDbEntity
  8
Default
100
AcDbBlockReference
  2
SE
 10
0.0
 20
0.0
 30
0.0
  0
INSERT
  5
275
330
1F
100
AcDbEntity
  8
Default
100
AcDbBlockReference
  2
SE1
 10
0.0
 20
0.0
 30
0.0
  0
INSERT
  5
316
330
1F
100
AcDbEntity
  8
Default
100
AcDbBlockReference
  2
SE2
 10
0.0
 20
0.0
 30
0.0
  0
TEXT
  5
3C1
330
1F
100
AcDbEntity
  8
Default
  6
Continuous
 62
     7
100
AcDbText
 10
5.9362635081
 20
53.4225120485
 30
0.0
 40
10.0
  1
Grohe AG^J
  7
SEACAD_seiso_ttf
 11
5.9362635081
 21
63.4225120485
 31
0.0
100
AcDbText
 73
     3
  0
TEXT
  5
3C2
330
1F
100
AcDbEntity
  8
Default
  6
Continuous
 62
     7
100
AcDbText
 10
5.9362635081
 20
37.0588756849
 30
0.0
 40
10.0
  1
 
  7
SEACAD_seiso_ttf
 11
5.9362635081
 21
47.0588756849
 31
0.0
100
AcDbText
 73
     3
  0
TEXT
  5
3C3
330
1F
100
AcDbEntity
  8
Default
  6
Continuous
 62
     7
100
AcDbText
 10
5.9362635081
 20
20.6952393213
 30
0.0
 40
10.0
  1
ecn: 
  7
SEACAD_seiso_ttf
 11
5.9362635081
 21
30.6952393213
 31
0.0
100
AcDbText
 73
     3
  0
TEXT
  5
3C4
330
1F
100
AcDbEntity
  8
Default
  6
Continuous
 62
     7
100
AcDbText
 10
5.9362635081
 20
4.3316029576
 30
0.0
 40
10.0
  1
unit: mm
  7
SEACAD_seiso_ttf
 11
5.9362635081
 21
14.3316029576
 31
0.0
100
AcDbText
 73
     3
  0
LINE
  5
3C5
330
1F
100
AcDbEntity
  8
Default
  6
Continuous
 62
     7
100
AcDbLine
 10
0.0
 20
0.0
 30
0.0
 11
100.0
 21
0.0
 31
0.0
  0
LINE
  5
3C6
330
1F
100
AcDbEntity
  8
Default
  6
Continuous
 62
     7
100
AcDbLine
 10
0.0
 20
0.0
 30
0.0
 11
0.0
 21
100.0
 31
0.0
  0
TEXT
  5
3C7
330
1F
100
AcDbEntity
  8
Default
  6
Continuous
 62
     7
100
AcDbText
 10
24.3923665681
 20
-18.2375342018
 30
0.0
 40
10.0
  1
100 mm
  7
SEACAD_seiso_ttf
 11
24.3923665681
 21
-8.2375342018
 31
0.0
100
AcDbText
 73
     3
  0
TEXT
  5
3C8
330
1F
100
AcDbEntity
  8
Default
  6
Continuous
 62
     7
100
AcDbText
 10
-7.6150308803
 20
24.6231930421
 30
0.0
 40
10.0
  1
100 mm
 50
90.0
  7
SEACAD_seiso_ttf
 11
-17.6150308803
 21
24.6231930421
 31
0.0
100
AcDbText
 73
     3
  0
TEXT
  5
3C9
330
1F
100
AcDbEntity
  8
Default
  6
Continuous
 62
     7
100
AcDbText
 10
28.4878128572
 20
20.0907663715
 30
0.0
 40
10.0
  1
216765
  7
SEACAD_seiso_ttf
 11
28.4878128572
 21
30.0907663715
 31
0.0
100
AcDbText
 73
     3
  0
TEXT
  5
3CA
330
1F
100
AcDbEntity
  8
Default
  6
Continuous
 62
     7
100
AcDbText
 10
5.9012241913
 20
36.7242780188
 30
0.0
 40
10.0
  1
33612001
  7
SEACAD_seiso_ttf
 11
5.9012241913
 21
46.7242780188
 31
0.0
100
AcDbText
 73
     3
  0
ENDSEC
  0
SECTION
  2
OBJECTS
  0
DICTIONARY
  5
C
330
0
100
AcDbDictionary
281
     1
  3
ACAD_GROUP
350
D
  3
ACAD_LAYOUT
350
1A
  3
ACAD_MLEADERSTYLE
350
3CE
  3
ACAD_MLINESTYLE
350
17
  3
ACAD_PLOTSETTINGS
350
19
  3
ACAD_PLOTSTYLENAME
350
E
  3
ACAD_SCALELIST
350
3B
  3
ACAD_TABLESTYLE
350
3CD
  3
ACAD_VISUALSTYLE
350
2A
  3
AcDbVariableDictionary
350
3CB
  0
DICTIONARY
  5
D
102
{ACAD_REACTORS
330
C
102
}
330
C
100
AcDbDictionary
281
     1
  0
DICTIONARY
  5
1A
102
{ACAD_REACTORS
330
C
102
}
330
C
100
AcDbDictionary
281
     1
  3
Layout1
350
1E
  3
Model
350
22
  0
DICTIONARY
  5
3CE
102
{ACAD_REACTORS
330
C
102
}
330
C
100
AcDbDictionary
281
     1
  0
DICTIONARY
  5
17
102
{ACAD_REACTORS
330
C
102
}
330
C
100
AcDbDictionary
281
     1
  3
Standard
350
18
  0
DICTIONARY
  5
19
102
{ACAD_REACTORS
330
C
102
}
330
C
100
AcDbDictionary
281
     1
  0
ACDBDICTIONARYWDFLT
  5
E
102
{ACAD_REACTORS
330
C
102
}
330
C
100
AcDbDictionary
281
     1
  3
Normal
350
F
100
AcDbDictionaryWithDefault
340
F
  0
DICTIONARY
  5
3B
102
{ACAD_REACTORS
330
C
102
}
330
C
100
AcDbDictionary
281
     1
  3
A0
350
3C
  3
A1
350
3D
  3
A2
350
3E
  3
A3
350
3F
  3
A4
350
40
  3
A5
350
41
  3
A6
350
42
  3
A7
350
43
  3
A8
350
44
  3
A9
350
45
  3
B0
350
46
  3
B1
350
47
  3
B2
350
48
  3
B3
350
49
  3
B4
350
4A
  3
B5
350
4B
  3
B6
350
4C
  3
B7
350
4D
  3
B8
350
4E
  3
B9
350
4F
  3
C0
350
50
  3
C1
350
51
  3
C2
350
52
  3
C3
350
53
  3
C4
350
54
  3
C5
350
55
  3
C6
350
56
  3
C7
350
57
  3
C8
350
58
  3
C9
350
59
  3
D0
350
5A
  3
D1
350
5B
  3
D2
350
5C
  0
DICTIONARY
  5
3CD
102
{ACAD_REACTORS
330
C
102
}
330
C
100
AcDbDictionary
281
     1
  0
DICTIONARY
  5
2A
102
{ACAD_REACTORS
330
C
102
}
330
C
100
AcDbDictionary
281
     1
  3
2dWireframe
350
2F
  3
3D Hidden
350
31
  3
3dWireframe
350
30
  3
Basic
350
32
  3
Brighten
350
36
  3
ColorChange
350
3A
  3
Conceptual
350
34
  3
Dim
350
35
  3
Facepattern
350
39
  3
Flat
350
2B
  3
FlatWithEdges
350
2C
  3
Gouraud
350
2D
  3
GouraudWithEdges
350
2E
  3
Linepattern
350
38
  3
Realistic
350
33
  3
Thicken
350
37
  0
DICTIONARY
  5
3CB
102
{ACAD_REACTORS
330
C
102
}
330
C
100
AcDbDictionary
281
     1
  3
CANNOSCALE
350
3CC
  3
PSOLHEIGHT
350
3D0
  3
PSOLWIDTH
350
3CF
  0
LAYOUT
  5
1E
102
{ACAD_REACTORS
330
1A
102
}
330
1A
100
AcDbPlotSettings
  1

  2
none_device
  4

  6

 40
0.0
 41
0.0
 42
0.0
 43
0.0
 44
0.0
 45
0.0
 46
0.0
 47
0.0
 48
0.0
 49
0.0
140
0.0
141
0.0
142
1.0
143
1.0
 70
   688
 72
     0
 73
     0
 74
     5
  7

 75
    16
147
1.0
148
0.0
149
0.0
100
AcDbLayout
  1
Layout1
 70
     1
 71
     1
 10
0.0
 20
0.0
 11
1682.0
 21
2378.0
 12
0.0
 22
0.0
 32
0.0
 14
0.0
 24
0.0
 34
0.0
 15
1682.0
 25
2378.0
 35
0.0
146
0.0
 13
0.0
 23
0.0
 33
0.0
 16
1.0
 26
0.0
 36
0.0
 17
0.0
 27
1.0
 37
0.0
 76
     0
330
1B
  0
LAYOUT
  5
22
102
{ACAD_REACTORS
330
1A
102
}
330
1A
100
AcDbPlotSettings
  1

  2
none_device
  4

  6

 40
0.0
 41
0.0
 42
0.0
 43
0.0
 44
0.0
 45
0.0
 46
0.0
 47
0.0
 48
0.0
 49
0.0
140
0.0
141
0.0
142
1.0
143
1.0
 70
  1712
 72
     0
 73
     0
 74
     0
  7

 75
     0
147
1.0
148
0.0
149
0.0
100
AcDbLayout
  1
Model
 70
     1
 71
     0
 10
0.0
 20
0.0
 11
1682.0
 21
2378.0
 12
0.0
 22
0.0
 32
0.0
 14
0.0
 24
0.0
 34
0.0
 15
1682.0
 25
2378.0
 35
0.0
146
0.0
 13
0.0
 23
0.0
 33
0.0
 16
1.0
 26
0.0
 36
0.0
 17
0.0
 27
1.0
 37
0.0
 76
     0
330
1F
331
29
  0
MLINESTYLE
  5
18
102
{ACAD_REACTORS
330
17
102
}
330
17
100
AcDbMlineStyle
  2
Standard
 70
     0
  3

 62
   256
 51
90.0
 52
90.0
 71
     2
 49
0.5
 62
   256
  6
BYLAYER
 49
-0.5
 62
   256
  6
BYLAYER
  0
ACDBPLACEHOLDER
  5
F
102
{ACAD_REACTORS
330
E
102
}
330
E
  0
SCALE
  5
3C
102
{ACAD_REACTORS
330
3B
102
}
330
3B
100
AcDbScale
 70
     0
300
1:1
140
1.0
141
1.0
290
     1
  0
SCALE
  5
3D
102
{ACAD_REACTORS
330
3B
102
}
330
3B
100
AcDbScale
 70
     0
300
1:2
140
1.0
141
2.0
290
     0
  0
SCALE
  5
3E
102
{ACAD_REACTORS
330
3B
102
}
330
3B
100
AcDbScale
 70
     0
300
1:4
140
1.0
141
4.0
290
     0
  0
SCALE
  5
3F
102
{ACAD_REACTORS
330
3B
102
}
330
3B
100
AcDbScale
 70
     0
300
1:5
140
1.0
141
5.0
290
     0
  0
SCALE
  5
40
102
{ACAD_REACTORS
330
3B
102
}
330
3B
100
AcDbScale
 70
     0
300
1:8
140
1.0
141
8.0
290
     0
  0
SCALE
  5
41
102
{ACAD_REACTORS
330
3B
102
}
330
3B
100
AcDbScale
 70
     0
300
1:10
140
1.0
141
10.0
290
     0
  0
SCALE
  5
42
102
{ACAD_REACTORS
330
3B
102
}
330
3B
100
AcDbScale
 70
     0
300
1:16
140
1.0
141
16.0
290
     0
  0
SCALE
  5
43
102
{ACAD_REACTORS
330
3B
102
}
330
3B
100
AcDbScale
 70
     0
300
1:20
140
1.0
141
20.0
290
     0
  0
SCALE
  5
44
102
{ACAD_REACTORS
330
3B
102
}
330
3B
100
AcDbScale
 70
     0
300
1:30
140
1.0
141
30.0
290
     0
  0
SCALE
  5
45
102
{ACAD_REACTORS
330
3B
102
}
330
3B
100
AcDbScale
 70
     0
300
1:40
140
1.0
141
40.0
290
     0
  0
SCALE
  5
46
102
{ACAD_REACTORS
330
3B
102
}
330
3B
100
AcDbScale
 70
     0
300
1:50
140
1.0
141
50.0
290
     0
  0
SCALE
  5
47
102
{ACAD_REACTORS
330
3B
102
}
330
3B
100
AcDbScale
 70
     0
300
1:100
140
1.0
141
100.0
290
     0
  0
SCALE
  5
48
102
{ACAD_REACTORS
330
3B
102
}
330
3B
100
AcDbScale
 70
     0
300
2:1
140
2.0
141
1.0
290
     0
  0
SCALE
  5
49
102
{ACAD_REACTORS
330
3B
102
}
330
3B
100
AcDbScale
 70
     0
300
4:1
140
4.0
141
1.0
290
     0
  0
SCALE
  5
4A
102
{ACAD_REACTORS
330
3B
102
}
330
3B
100
AcDbScale
 70
     0
300
8:1
140
8.0
141
1.0
290
     0
  0
SCALE
  5
4B
102
{ACAD_REACTORS
330
3B
102
}
330
3B
100
AcDbScale
 70
     0
300
10:1
140
10.0
141
1.0
290
     0
  0
SCALE
  5
4C
102
{ACAD_REACTORS
330
3B
102
}
330
3B
100
AcDbScale
 70
     0
300
100:1
140
100.0
141
1.0
290
     0
  0
SCALE
  5
4D
102
{ACAD_REACTORS
330
3B
102
}
330
3B
100
AcDbScale
 70
     0
300
1/128" = 1'-0"
140
0.0078125
141
12.0
290
     0
  0
SCALE
  5
4E
102
{ACAD_REACTORS
330
3B
102
}
330
3B
100
AcDbScale
 70
     0
300
1/64" = 1'-0"
140
0.015625
141
12.0
290
     0
  0
SCALE
  5
4F
102
{ACAD_REACTORS
330
3B
102
}
330
3B
100
AcDbScale
 70
     0
300
1/32" = 1'-0"
140
0.03125
141
12.0
290
     0
  0
SCALE
  5
50
102
{ACAD_REACTORS
330
3B
102
}
330
3B
100
AcDbScale
 70
     0
300
1/16" = 1'-0"
140
0.0625
141
12.0
290
     0
  0
SCALE
  5
51
102
{ACAD_REACTORS
330
3B
102
}
330
3B
100
AcDbScale
 70
     0
300
3/32" = 1'-0"
140
0.09375
141
12.0
290
     0
  0
SCALE
  5
52
102
{ACAD_REACTORS
330
3B
102
}
330
3B
100
AcDbScale
 70
     0
300
1/8" = 1'-0"
140
0.125
141
12.0
290
     0
  0
SCALE
  5
53
102
{ACAD_REACTORS
330
3B
102
}
330
3B
100
AcDbScale
 70
     0
300
3/16" = 1'-0"
140
0.1875
141
12.0
290
     0
  0
SCALE
  5
54
102
{ACAD_REACTORS
330
3B
102
}
330
3B
100
AcDbScale
 70
     0
300
1/4" = 1'-0"
140
0.25
141
12.0
290
     0
  0
SCALE
  5
55
102
{ACAD_REACTORS
330
3B
102
}
330
3B
100
AcDbScale
 70
     0
300
3/8" = 1'-0"
140
0.375
141
12.0
290
     0
  0
SCALE
  5
56
102
{ACAD_REACTORS
330
3B
102
}
330
3B
100
AcDbScale
 70
     0
300
1/2" = 1'-0"
140
0.5
141
12.0
290
     0
  0
SCALE
  5
57
102
{ACAD_REACTORS
330
3B
102
}
330
3B
100
AcDbScale
 70
     0
300
3/4" = 1'-0"
140
0.75
141
12.0
290
     0
  0
SCALE
  5
58
102
{ACAD_REACTORS
330
3B
102
}
330
3B
100
AcDbScale
 70
     0
300
1" = 1'-0"
140
1.0
141
12.0
290
     0
  0
SCALE
  5
59
102
{ACAD_REACTORS
330
3B
102
}
330
3B
100
AcDbScale
 70
     0
300
1-1/2" = 1'-0"
140
1.5
141
12.0
290
     0
  0
SCALE
  5
5A
102
{ACAD_REACTORS
330
3B
102
}
330
3B
100
AcDbScale
 70
     0
300
3" = 1'-0"
140
3.0
141
12.0
290
     0
  0
SCALE
  5
5B
102
{ACAD_REACTORS
330
3B
102
}
330
3B
100
AcDbScale
 70
     0
300
6" = 1'-0"
140
6.0
141
12.0
290
     0
  0
SCALE
  5
5C
102
{ACAD_REACTORS
330
3B
102
}
330
3B
100
AcDbScale
 70
     0
300
1'-0" = 1'-0"
140
12.0
141
12.0
290
     0
  0
VISUALSTYLE
  5
2F
102
{ACAD_REACTORS
330
2A
102
}
330
2A
100
AcDbVisualStyle
  2
2dWireframe
 70
     4
 71
     0
 72
     2
 73
     0
 90
        0
 40
-0.6
 41
-30.0
 62
     5
 63
     7
 74
     1
 91
        4
 64
     7
 65
   257
 75
     1
175
     1
 42
1.0
 92
        0
 66
   257
 43
1.0
 76
     1
 77
     6
 78
     2
 67
     7
 79
     5
170
     0
171
     0
290
     0
174
     0
 93
        1
 44
0.0
173
     0
291
     0
 45
0.0
1001
ACAD
1000
AcDbSavedByObjectVersion
1070
     0
  0
VISUALSTYLE
  5
31
102
{ACAD_REACTORS
330
2A
102
}
330
2A
100
AcDbVisualStyle
  2
3D Hidden
 70
     6
 71
     1
 72
     2
 73
     2
 90
        0
 40
-0.6
 41
-30.0
 62
     5
 63
     7
 74
     2
 91
        2
 64
     7
 65
   257
 75
     2
175
     1
 42
40.0
 92
        0
 66
   257
 43
1.0
 76
     1
 77
     6
 78
     2
 67
     7
 79
     3
170
     0
171
     0
290
     0
174
     0
 93
        1
 44
0.0
173
     0
291
     0
 45
0.0
1001
ACAD
1000
AcDbSavedByObjectVersion
1070
     0
  0
VISUALSTYLE
  5
30
102
{ACAD_REACTORS
330
2A
102
}
330
2A
100
AcDbVisualStyle
  2
3dWireframe
 70
     5
 71
     0
 72
     2
 73
     0
 90
        0
 40
-0.6
 41
-30.0
 62
     5
 63
     7
 74
     1
 91
        4
 64
     7
 65
   257
 75
     1
175
     1
 42
1.0
 92
        0
 66
   257
 43
1.0
 76
     1
 77
     6
 78
     2
 67
     7
 79
     5
170
     0
171
     0
290
     0
174
     0
 93
        1
 44
0.0
173
     0
291
     0
 45
0.0
1001
ACAD
1000
AcDbSavedByObjectVersion
1070
     0
  0
VISUALSTYLE
  5
32
102
{ACAD_REACTORS
330
2A
102
}
330
2A
100
AcDbVisualStyle
  2
Basic
 70
     7
 71
     1
 72
     0
 73
     1
 90
        0
 40
-0.6
 41
-30.0
 62
     5
 63
     7
 74
     0
 91
        4
 64
     7
 65
   257
 75
     1
175
     1
 42
1.0
 92
        8
 66
     7
 43
1.0
 76
     1
 77
     6
 78
     2
 67
     7
 79
     5
170
     0
171
     0
290
     0
174
     0
 93
        1
 44
0.0
173
     0
291
     1
 45
0.0
1001
ACAD
1000
AcDbSavedByObjectVersion
1070
     0
  0
VISUALSTYLE
  5
36
102
{ACAD_REACTORS
330
2A
102
}
330
2A
100
AcDbVisualStyle
  2
Brighten
 70
    12
 71
     2
 72
     2
 73
     0
 90
        0
 40
-0.6
 41
-30.0
 62
     5
 63
     7
 74
     1
 91
        4
 64
     7
 65
   257
 75
     1
175
     1
 42
1.0
 92
        8
 66
     7
 43
1.0
 76
     1
 77
     6
 78
     2
 67
     7
 79
     5
170
     0
171
     0
290
     0
174
     0
 93
        1
 44
50.0
173
     0
291
     1
 45
0.0
1001
ACAD
1000
AcDbSavedByObjectVersion
1070
     0
  0
VISUALSTYLE
  5
3A
102
{ACAD_REACTORS
330
2A
102
}
330
2A
100
AcDbVisualStyle
  2
ColorChange
 70
    16
 71
     2
 72
     2
 73
     3
 90
        0
 40
-0.6
 41
-30.0
 62
     5
 63
     8
 74
     1
 91
        4
 64
     7
 65
   257
 75
     1
175
     1
 42
1.0
 92
        8
 66
     8
 43
1.0
 76
     1
 77
     6
 78
     2
 67
     7
 79
     5
170
     0
171
     0
290
     0
174
     0
 93
        1
 44
0.0
173
     0
291
     1
 45
0.0
1001
ACAD
1000
AcDbSavedByObjectVersion
1070
     0
  0
VISUALSTYLE
  5
34
102
{ACAD_REACTORS
330
2A
102
}
330
2A
100
AcDbVisualStyle
  2
Conceptual
 70
     9
 71
     3
 72
     2
 73
     0
 90
        0
 40
-0.6
 41
-30.0
 62
     5
 63
     7
 74
     2
 91
        2
 64
     7
 65
   257
 75
     1
175
     1
 42
40.0
 92
        8
 66
     7
 43
1.0
 76
     1
 77
     6
 78
     2
 67
     7
 79
     3
170
     0
171
     0
290
     0
174
     0
 93
        1
 44
0.0
173
     0
291
     0
 45
0.0
1001
ACAD
1000
AcDbSavedByObjectVersion
1070
     0
  0
VISUALSTYLE
  5
35
102
{ACAD_REACTORS
330
2A
102
}
330
2A
100
AcDbVisualStyle
  2
Dim
 70
    11
 71
     2
 72
     2
 73
     0
 90
        0
 40
-0.6
 41
-30.0
 62
     5
 63
     7
 74
     1
 91
        4
 64
     7
 65
   257
 75
     1
175
     1
 42
1.0
 92
        8
 66
     7
 43
1.0
 76
     1
 77
     6
 78
     2
 67
     7
 79
     5
170
     0
171
     0
290
     0
174
     0
 93
        1
 44
-50.0
173
     0
291
     1
 45
0.0
1001
ACAD
1000
AcDbSavedByObjectVersion
1070
     0
  0
VISUALSTYLE
  5
39
102
{ACAD_REACTORS
330
2A
102
}
330
2A
100
AcDbVisualStyle
  2
Facepattern
 70
    15
 71
     2
 72
     2
 73
     0
 90
        0
 40
-0.6
 41
-30.0
 62
     5
 63
     7
 74
     1
 91
        4
 64
     7
 65
   257
 75
     1
175
     1
 42
1.0
 92
        8
 66
     7
 43
1.0
 76
     1
 77
     6
 78
     2
 67
     7
 79
     5
170
     0
171
     0
290
     0
174
     0
 93
        1
 44
0.0
173
     0
291
     1
 45
0.0
1001
ACAD
1000
AcDbSavedByObjectVersion
1070
     0
  0
VISUALSTYLE
  5
2B
102
{ACAD_REACTORS
330
2A
102
}
330
2A
100
AcDbVisualStyle
  2
Flat
 70
     0
 71
     2
 72
     1
 73
     1
 90
        2
 40
-0.6
 41
30.0
 62
     5
 63
     7
 74
     0
 91
        4
 64
     7
 65
   257
 75
     1
175
     1
 42
1.0
 92
        8
 66
     7
 43
1.0
 76
     1
 77
     6
 78
     2
 67
     7
 79
     5
170
     0
171
     0
290
     0
174
     0
 93
       13
 44
0.0
173
     0
291
     1
 45
0.0
1001
ACAD
1000
AcDbSavedByObjectVersion
1070
     0
  0
VISUALSTYLE
  5
2C
102
{ACAD_REACTORS
330
2A
102
}
330
2A
100
AcDbVisualStyle
  2
FlatWithEdges
 70
     1
 71
     2
 72
     1
 73
     1
 90
        2
 40
-0.6
 41
30.0
 62
     5
 63
     7
 74
     1
 91
        4
 64
     7
 65
   257
 75
     1
175
     1
 42
1.0
 92
        0
 66
   257
 43
1.0
 76
     1
 77
     6
 78
     2
 67
     7
 79
     5
170
     0
171
     0
290
     0
174
     0
 93
       13
 44
0.0
173
     0
291
     1
 45
0.0
1001
ACAD
1000
AcDbSavedByObjectVersion
1070
     0
  0
VISUALSTYLE
  5
2D
102
{ACAD_REACTORS
330
2A
102
}
330
2A
100
AcDbVisualStyle
  2
Gouraud
 70
     2
 71
     2
 72
     2
 73
     1
 90
        2
 40
-0.6
 41
30.0
 62
     5
 63
     7
 74
     0
 91
        4
 64
     7
 65
   257
 75
     1
175
     1
 42
1.0
 92
        0
 66
     7
 43
1.0
 76
     1
 77
     6
 78
     2
 67
     7
 79
     5
170
     0
171
     0
290
     0
174
     0
 93
       13
 44
0.0
173
     0
291
     1
 45
0.0
1001
ACAD
1000
AcDbSavedByObjectVersion
1070
     0
  0
VISUALSTYLE
  5
2E
102
{ACAD_REACTORS
330
2A
102
}
330
2A
100
AcDbVisualStyle
  2
GouraudWithEdges
 70
     3
 71
     2
 72
     2
 73
     1
 90
        2
 40
-0.6
 41
30.0
 62
     5
 63
     7
 74
     1
 91
        4
 64
     7
 65
   257
 75
     1
175
     1
 42
1.0
 92
        0
 66
   257
 43
1.0
 76
     1
 77
     6
 78
     2
 67
     7
 79
     5
170
     0
171
     0
290
     0
174
     0
 93
       13
 44
0.0
173
     0
291
     1
 45
0.0
1001
ACAD
1000
AcDbSavedByObjectVersion
1070
     0
  0
VISUALSTYLE
  5
38
102
{ACAD_REACTORS
330
2A
102
}
330
2A
100
AcDbVisualStyle
  2
Linepattern
 70
    14
 71
     2
 72
     2
 73
     0
 90
        0
 40
-0.6
 41
-30.0
 62
     5
 63
     7
 74
     1
 91
        4
 64
     7
 65
   257
 75
     7
175
     7
 42
1.0
 92
        8
 66
     7
 43
1.0
 76
     1
 77
     6
 78
     2
 67
     7
 79
     5
170
     0
171
     0
290
     0
174
     0
 93
        1
 44
0.0
173
     0
291
     1
 45
0.0
1001
ACAD
1000
AcDbSavedByObjectVersion
1070
     0
  0
VISUALSTYLE
  5
33
102
{ACAD_REACTORS
330
2A
102
}
330
2A
100
AcDbVisualStyle
  2
Realistic
 70
     8
 71
     2
 72
     2
 73
     0
 90
        0
 40
-0.6
 41
-30.0
 62
     5
 63
     7
 74
     1
 91
        0
 64
     7
 65
   257
 75
     1
175
     1
 42
1.0
 92
        8
 66
     8
 43
1.0
 76
     1
 77
     6
 78
     2
 67
     7
 79
     5
170
     0
171
     0
290
     0
174
     0
 93
       13
 44
0.0
173
     0
291
     0
 45
0.0
1001
ACAD
1000
AcDbSavedByObjectVersion
1070
     0
  0
VISUALSTYLE
  5
37
102
{ACAD_REACTORS
330
2A
102
}
330
2A
100
AcDbVisualStyle
  2
Thicken
 70
    13
 71
     2
 72
     2
 73
     0
 90
        0
 40
-0.6
 41
-30.0
 62
     5
 63
     7
 74
     1
 91
        4
 64
     7
 65
   257
 75
     1
175
     1
 42
1.0
 92
       12
 66
     7
 43
1.0
 76
     1
 77
     6
 78
     2
 67
     7
 79
     5
170
     0
171
     0
290
     0
174
     0
 93
        1
 44
0.0
173
     0
291
     1
 45
0.0
1001
ACAD
1000
AcDbSavedByObjectVersion
1070
     0
  0
DICTIONARYVAR
  5
3CC
102
{ACAD_REACTORS
330
3CB
102
}
330
3CB
100
DictionaryVariables
280
     0
  1
1:1
  0
DICTIONARYVAR
  5
3D0
102
{ACAD_REACTORS
330
3CB
102
}
330
3CB
100
DictionaryVariables
280
     0
  1
80.000000
  0
DICTIONARYVAR
  5
3CF
102
{ACAD_REACTORS
330
3CB
102
}
330
3CB
100
DictionaryVariables
280
     0
  1
5.000000
  0
ENDSEC
  0
EOF
