  0
SECTION
  2
HEADER
  9
$ACADVER
  1
AC1015
  9
$ACADMAINTVER
 70
     6
  9
$DWGCODEPAGE
  3
ANSI_1252
  9
$INSBASE
 10
0.0
 20
0.0
 30
0.0
  9
$EXTMIN
 10
0.0
 20
0.0
 30
0.0
  9
$EXTMAX
 10
1682.0
 20
2378.0
 30
0.0
  9
$LIMMIN
 10
0.0
 20
0.0
  9
$LIMMAX
 10
1682.0
 20
2378.0
  9
$ORTHOMODE
 70
     0
  9
$REGENMODE
 70
     1
  9
$FILLMODE
 70
     1
  9
$QTEXTMODE
 70
     0
  9
$MIRRTEXT
 70
     1
  9
$LTSCALE
 40
1.0
  9
$ATTMODE
 70
     1
  9
$TEXTSIZE
 40
2.5
  9
$TRACEWID
 40
1.0
  9
$TEXTSTYLE
  7
Standard
  9
$CLAYER
  8
0
  9
$CELTYPE
  6
ByLayer
  9
$CECOLOR
 62
   256
  9
$CELTSCALE
 40
1.0
  9
$DISPSILH
 70
     0
  9
$DIMSCALE
 40
1.0
  9
$DIMASZ
 40
2.5
  9
$DIMEXO
 40
0.625
  9
$DIMDLI
 40
3.75
  9
$DIMRND
 40
0.0
  9
$DIMDLE
 40
0.0
  9
$DIMEXE
 40
1.25
  9
$DIMTP
 40
0.0
  9
$DIMTM
 40
0.0
  9
$DIMTXT
 40
2.5
  9
$DIMCEN
 40
2.5
  9
$DIMTSZ
 40
0.0
  9
$DIMTOL
 70
     0
  9
$DIMLIM
 70
     0
  9
$DIMTIH
 70
     0
  9
$DIMTOH
 70
     0
  9
$DIMSE1
 70
     0
  9
$DIMSE2
 70
     0
  9
$DIMTAD
 70
     1
  9
$DIMZIN
 70
     8
  9
$DIMBLK
  1

  9
$DIMASO
 70
     1
  9
$DIMSHO
 70
     1
  9
$DIMPOST
  1

  9
$DIMAPOST
  1

  9
$DIMALT
 70
     0
  9
$DIMALTD
 70
     3
  9
$DIMALTF
 40
0.0393700787
  9
$DIMLFAC
 40
1.0
  9
$DIMTOFL
 70
     1
  9
$DIMTVP
 40
0.0
  9
$DIMTIX
 70
     0
  9
$DIMSOXD
 70
     0
  9
$DIMSAH
 70
     0
  9
$DIMBLK1
  1

  9
$DIMBLK2
  1

  9
$DIMSTYLE
  2
ISO-25
  9
$DIMCLRD
 70
     0
  9
$DIMCLRE
 70
     0
  9
$DIMCLRT
 70
     0
  9
$DIMTFAC
 40
1.0
  9
$DIMGAP
 40
0.625
  9
$DIMJUST
 70
     0
  9
$DIMSD1
 70
     0
  9
$DIMSD2
 70
     0
  9
$DIMTOLJ
 70
     0
  9
$DIMTZIN
 70
     8
  9
$DIMALTZ
 70
     0
  9
$DIMALTTZ
 70
     0
  9
$DIMUPT
 70
     0
  9
$DIMDEC
 70
     2
  9
$DIMTDEC
 70
     2
  9
$DIMALTU
 70
     2
  9
$DIMALTTD
 70
     3
  9
$DIMTXSTY
  7
Standard
  9
$DIMAUNIT
 70
     0
  9
$DIMADEC
 70
     0
  9
$DIMALTRND
 40
0.0
  9
$DIMAZIN
 70
     0
  9
$DIMDSEP
 70
    44
  9
$DIMATFIT
 70
     3
  9
$DIMFRAC
 70
     0
  9
$DIMLDRBLK
  1

  9
$DIMLUNIT
 70
     2
  9
$DIMLWD
 70
    -2
  9
$DIMLWE
 70
    -2
  9
$DIMTMOVE
 70
     0
  9
$LUNITS
 70
     2
  9
$LUPREC
 70
     4
  9
$SKETCHINC
 40
1.0
  9
$FILLETRAD
 40
10.0
  9
$AUNITS
 70
     0
  9
$AUPREC
 70
     0
  9
$MENU
  1
.
  9
$ELEVATION
 40
0.0
  9
$PELEVATION
 40
0.0
  9
$THICKNESS
 40
0.0
  9
$LIMCHECK
 70
     0
  9
$CHAMFERA
 40
10.0
  9
$CHAMFERB
 40
10.0
  9
$CHAMFERC
 40
20.0
  9
$CHAMFERD
 40
0.0
  9
$SKPOLY
 70
     0
  9
$TDCREATE
 40
2455383.68592897
  9
$TDUCREATE
 40
2455383.602595637
  9
$TDUPDATE
 40
2455383.685928981
  9
$TDUUPDATE
 40
2455383.602595648
  9
$TDINDWG
 40
0.0000000116
  9
$TDUSRTIMER
 40
0.0000000116
  9
$USRTIMER
 70
     1
  9
$ANGBASE
 50
0.0
  9
$ANGDIR
 70
     0
  9
$PDMODE
 70
     0
  9
$PDSIZE
 40
0.0
  9
$PLINEWID
 40
0.0
  9
$SPLFRAME
 70
     0
  9
$SPLINETYPE
 70
     6
  9
$SPLINESEGS
 70
     8
  9
$HANDSEED
  5
114
  9
$SURFTAB1
 70
     6
  9
$SURFTAB2
 70
     6
  9
$SURFTYPE
 70
     6
  9
$SURFU
 70
     6
  9
$SURFV
 70
     6
  9
$UCSBASE
  2

  9
$UCSNAME
  2

  9
$UCSORG
 10
0.0
 20
0.0
 30
0.0
  9
$UCSXDIR
 10
1.0
 20
0.0
 30
0.0
  9
$UCSYDIR
 10
0.0
 20
1.0
 30
0.0
  9
$UCSORTHOREF
  2

  9
$UCSORTHOVIEW
 70
     0
  9
$UCSORGTOP
 10
0.0
 20
0.0
 30
0.0
  9
$UCSORGBOTTOM
 10
0.0
 20
0.0
 30
0.0
  9
$UCSORGLEFT
 10
0.0
 20
0.0
 30
0.0
  9
$UCSORGRIGHT
 10
0.0
 20
0.0
 30
0.0
  9
$UCSORGFRONT
 10
0.0
 20
0.0
 30
0.0
  9
$UCSORGBACK
 10
0.0
 20
0.0
 30
0.0
  9
$PUCSBASE
  2

  9
$PUCSNAME
  2

  9
$PUCSORG
 10
0.0
 20
0.0
 30
0.0
  9
$PUCSXDIR
 10
1.0
 20
0.0
 30
0.0
  9
$PUCSYDIR
 10
0.0
 20
1.0
 30
0.0
  9
$PUCSORTHOREF
  2

  9
$PUCSORTHOVIEW
 70
     0
  9
$PUCSORGTOP
 10
0.0
 20
0.0
 30
0.0
  9
$PUCSORGBOTTOM
 10
0.0
 20
0.0
 30
0.0
  9
$PUCSORGLEFT
 10
0.0
 20
0.0
 30
0.0
  9
$PUCSORGRIGHT
 10
0.0
 20
0.0
 30
0.0
  9
$PUCSORGFRONT
 10
0.0
 20
0.0
 30
0.0
  9
$PUCSORGBACK
 10
0.0
 20
0.0
 30
0.0
  9
$USERI1
 70
     0
  9
$USERI2
 70
     0
  9
$USERI3
 70
     0
  9
$USERI4
 70
     0
  9
$USERI5
 70
     0
  9
$USERR1
 40
0.0
  9
$USERR2
 40
0.0
  9
$USERR3
 40
0.0
  9
$USERR4
 40
0.0
  9
$USERR5
 40
0.0
  9
$WORLDVIEW
 70
     1
  9
$SHADEDGE
 70
     3
  9
$SHADEDIF
 70
    70
  9
$TILEMODE
 70
     1
  9
$MAXACTVP
 70
    64
  9
$PINSBASE
 10
0.0
 20
0.0
 30
0.0
  9
$PLIMCHECK
 70
     0
  9
$PEXTMIN
 10
0.0
 20
0.0
 30
0.0
  9
$PEXTMAX
 10
1682.0
 20
2378.0
 30
0.0
  9
$PLIMMIN
 10
0.0
 20
0.0
  9
$PLIMMAX
 10
1682.0
 20
2378.0
  9
$UNITMODE
 70
     0
  9
$VISRETAIN
 70
     1
  9
$PLINEGEN
 70
     0
  9
$PSLTSCALE
 70
     1
  9
$TREEDEPTH
 70
  3020
  9
$CMLSTYLE
  2
Standard
  9
$CMLJUST
 70
     0
  9
$CMLSCALE
 40
20.0
  9
$PROXYGRAPHICS
 70
     1
  9
$MEASUREMENT
 70
     1
  9
$CELWEIGHT
370
    -1
  9
$ENDCAPS
280
     0
  9
$JOINSTYLE
280
     0
  9
$LWDISPLAY
290
     0
  9
$INSUNITS
 70
     4
  9
$HYPERLINKBASE
  1

  9
$STYLESHEET
  1

  9
$XEDIT
290
     1
  9
$CEPSNTYPE
380
     0
  9
$PSTYLEMODE
290
     1
  9
$FINGERPRINTGUID
  2
{B2BDE9FD-8D6E-4D73-8643-943B493889FB}
  9
$VERSIONGUID
  2
{FAEB1C32-E019-11D5-929B-00C0DF256EC4}
  9
$EXTNAMES
290
     1
  9
$PSVPSCALE
 40
0.0
  9
$OLESTARTUP
290
     0
  0
ENDSEC
  0
SECTION
  2
CLASSES
  0
CLASS
  1
ACDBDICTIONARYWDFLT
  2
AcDbDictionaryWithDefault
  3
ObjectDBX Classes
 90
        0
280
     0
281
     0
  0
CLASS
  1
VISUALSTYLE
  2
AcDbVisualStyle
  3
ObjectDBX Classes
 90
     4095
280
     0
281
     0
  0
CLASS
  1
SCALE
  2
AcDbScale
  3
ObjectDBX Classes
 90
     1153
280
     0
281
     0
  0
CLASS
  1
DICTIONARYVAR
  2
AcDbDictionaryVar
  3
ObjectDBX Classes
 90
        0
280
     0
281
     0
  0
CLASS
  1
ACDBPLACEHOLDER
  2
AcDbPlaceHolder
  3
ObjectDBX Classes
 90
        0
280
     0
281
     0
  0
CLASS
  1
LAYOUT
  2
AcDbLayout
  3
ObjectDBX Classes
 90
        0
280
     0
281
     0
  0
ENDSEC
  0
SECTION
  2
TABLES
  0
TABLE
  2
VPORT
  5
8
330
0
100
AcDbSymbolTable
 70
     1
  0
VPORT
  5
29
330
8
100
AcDbSymbolTableRecord
100
AcDbViewportTableRecord
  2
*Active
 70
     0
 10
0.0
 20
0.0
 11
1.0
 21
1.0
 12
344.1869158879
 22
148.5
 13
0.0
 23
0.0
 14
10.0
 24
10.0
 15
10.0
 25
10.0
 16
0.0
 26
0.0
 36
1.0
 17
0.0
 27
0.0
 37
0.0
 40
297.0
 41
1.9729729729
 42
50.0
 43
0.0
 44
0.0
 50
0.0
 51
0.0
 71
     0
 72
   100
 73
     1
 74
     3
 75
     0
 76
     0
 77
     0
 78
     0
281
     0
 65
     1
110
0.0
120
0.0
130
0.0
111
1.0
121
0.0
131
0.0
112
0.0
122
1.0
132
0.0
 79
     0
146
0.0
  0
ENDTAB
  0
TABLE
  2
LTYPE
  5
5
330
0
100
AcDbSymbolTable
 70
     2
  0
LTYPE
  5
14
330
5
100
AcDbSymbolTableRecord
100
AcDbLinetypeTableRecord
  2
ByBlock
 70
     0
  3

 72
    65
 73
     0
 40
0.0
  0
LTYPE
  5
15
330
5
100
AcDbSymbolTableRecord
100
AcDbLinetypeTableRecord
  2
ByLayer
 70
     0
  3

 72
    65
 73
     0
 40
0.0
  0
LTYPE
  5
16
330
5
100
AcDbSymbolTableRecord
100
AcDbLinetypeTableRecord
  2
Continuous
 70
     0
  3
Solid line
 72
    65
 73
     0
 40
0.0
  0
LTYPE
  5
60
330
5
100
AcDbSymbolTableRecord
100
AcDbLinetypeTableRecord
  2
CENTER2
 70
     0
  3
Center (.5x) ___ _ ___ _ ___ _ ___ _ ___ _ ___
 72
    65
 73
     4
 40
28.575
 49
19.05
 74
     4
 75
     0
340
0
 46
0.0
 50
0.0
 44
0.0
 45
0.0
 49
-3.175
 74
     4
 75
     0
340
0
 46
0.0
 50
0.0
 44
0.0
 45
0.0
 49
3.175
 74
     4
 75
     0
340
0
 46
0.0
 50
0.0
 44
0.0
 45
0.0
 49
-3.175
 74
     4
 75
     0
340
0
 46
0.0
 50
0.0
 44
0.0
 45
0.0
  0
ENDTAB
  0
TABLE
  2
LAYER
  5
2
330
0
100
AcDbSymbolTable
 70
     7
  0
LAYER
  5
10
330
2
100
AcDbSymbolTableRecord
100
AcDbLayerTableRecord
  2
0
 70
     0
 62
     7
  6
Continuous
370
    -3
390
F
  0
LAYER
  5
5D
330
2
100
AcDbSymbolTableRecord
100
AcDbLayerTableRecord
  2
Default
 70
     0
 62
     7
  6
Continuous
370
    -3
390
F
  0
LAYER
  5
77
330
2
100
AcDbSymbolTableRecord
100
AcDbLayerTableRecord
  2
$DDT_AUDIT_GENERATED_(77)
 70
     0
 62
     7
  6
Continuous
370
    -3
390
F
  0
LAYER
  5
7A
330
2
100
AcDbSymbolTableRecord
100
AcDbLayerTableRecord
  2
$DDT_AUDIT_GENERATED_(7A)
 70
     0
 62
     7
  6
Continuous
370
    -3
390
F
  0
LAYER
  5
7D
330
2
100
AcDbSymbolTableRecord
100
AcDbLayerTableRecord
  2
$DDT_AUDIT_GENERATED_(7D)
 70
     0
 62
     7
  6
Continuous
370
    -3
390
F
  0
LAYER
  5
98
330
2
100
AcDbSymbolTableRecord
100
AcDbLayerTableRecord
  2
$DDT_AUDIT_GENERATED_(98)
 70
     0
 62
     7
  6
Continuous
370
    -3
390
F
  0
LAYER
  5
DE
330
2
100
AcDbSymbolTableRecord
100
AcDbLayerTableRecord
  2
$DDT_AUDIT_GENERATED_(DE)
 70
     0
 62
     7
  6
Continuous
370
    -3
390
F
  0
ENDTAB
  0
TABLE
  2
STYLE
  5
3
330
0
100
AcDbSymbolTable
 70
     2
  0
STYLE
  5
11
330
3
100
AcDbSymbolTableRecord
100
AcDbTextStyleTableRecord
  2
Standard
 70
     0
 40
0.0
 41
1.0
 50
0.0
 71
     0
 42
2.5
  3
txt
  4

  0
STYLE
  5
103
330
3
100
AcDbSymbolTableRecord
100
AcDbTextStyleTableRecord
  2
SEACAD_seiso_ttf
 70
     0
 40
0.0
 41
1.0
 50
0.0
 71
     0
 42
0.2
  3
seiso.ttf
  4

  0
ENDTAB
  0
TABLE
  2
VIEW
  5
6
330
0
100
AcDbSymbolTable
 70
     0
  0
ENDTAB
  0
TABLE
  2
UCS
  5
7
330
0
100
AcDbSymbolTable
 70
     0
  0
ENDTAB
  0
TABLE
  2
APPID
  5
9
330
0
100
AcDbSymbolTable
 70
     1
  0
APPID
  5
12
330
9
100
AcDbSymbolTableRecord
100
AcDbRegAppTableRecord
  2
ACAD
 70
     0
  0
ENDTAB
  0
TABLE
  2
DIMSTYLE
  5
A
330
0
100
AcDbSymbolTable
 70
     1
100
AcDbDimStyleTable
  0
DIMSTYLE
105
27
330
A
100
AcDbSymbolTableRecord
100
AcDbDimStyleTableRecord
  2
ISO-25
 70
     0
 41
2.5
 42
0.625
 43
3.75
 44
1.25
 73
     0
 74
     0
 77
     1
 78
     8
140
2.5
141
2.5
143
0.0393700787
147
0.625
171
     3
172
     1
271
     2
272
     2
274
     3
278
    44
283
     0
284
     8
340
11
  0
ENDTAB
  0
TABLE
  2
BLOCK_RECORD
  5
1
330
0
100
AcDbSymbolTable
 70
     7
  0
BLOCK_RECORD
  5
1F
330
1
100
AcDbSymbolTableRecord
100
AcDbBlockTableRecord
  2
*Model_Space
340
22
  0
BLOCK_RECORD
  5
1B
330
1
100
AcDbSymbolTableRecord
100
AcDbBlockTableRecord
  2
*Paper_Space
340
1E
  0
BLOCK_RECORD
  5
5E
330
1
100
AcDbSymbolTableRecord
100
AcDbBlockTableRecord
  2
SEANNOT_GROUP
340
0
102
{BLKREFS
331
5F
102
}
  0
BLOCK_RECORD
  5
69
330
1
100
AcDbSymbolTableRecord
100
AcDbBlockTableRecord
  2
SEANNOT_GROUP1
340
0
102
{BLKREFS
331
6A
102
}
  0
BLOCK_RECORD
  5
6F
330
1
100
AcDbSymbolTableRecord
100
AcDbBlockTableRecord
  2
SEANNOT_GROUP2
340
0
102
{BLKREFS
331
70
102
}
  0
BLOCK_RECORD
  5
75
330
1
100
AcDbSymbolTableRecord
100
AcDbBlockTableRecord
  2
SE
340
0
102
{BLKREFS
331
76
102
}
  0
BLOCK_RECORD
  5
9D
330
1
100
AcDbSymbolTableRecord
100
AcDbBlockTableRecord
  2
SE1
340
0
102
{BLKREFS
331
9E
102
}
  0
BLOCK_RECORD
  5
D1
330
1
100
AcDbSymbolTableRecord
100
AcDbBlockTableRecord
  2
SE2
340
0
102
{BLKREFS
331
D2
102
}
  0
ENDTAB
  0
ENDSEC
  0
SECTION
  2
BLOCKS
  0
BLOCK
  5
20
330
1F
100
AcDbEntity
  8
0
100
AcDbBlockBegin
  2
*Model_Space
 70
     0
 10
0.0
 20
0.0
 30
0.0
  3
*Model_Space
  1

  0
ENDBLK
  5
21
330
1F
100
AcDbEntity
  8
0
100
AcDbBlockEnd
  0
BLOCK
  5
1C
330
1B
100
AcDbEntity
 67
     1
  8
0
100
AcDbBlockBegin
  2
*Paper_Space
 70
     0
 10
0.0
 20
0.0
 30
0.0
  3
*Paper_Space
  1

  0
ENDBLK
  5
1D
330
1B
100
AcDbEntity
 67
     1
  8
0
100
AcDbBlockEnd
  0
BLOCK
  5
67
330
5E
100
AcDbEntity
  8
0
100
AcDbBlockBegin
  2
SEANNOT_GROUP
 70
     0
 10
0.0
 20
0.0
 30
0.0
  3
SEANNOT_GROUP
  1

  0
LINE
  5
61
330
5E
100
AcDbEntity
  8
Default
  6
CENTER2
 62
     7
100
AcDbLine
 10
75.3038198411
 20
339.2043672774
 30
0.0
 11
35.3038207351
 21
339.2043672774
 31
0.0
  0
LINE
  5
62
330
5E
100
AcDbEntity
  8
Default
  6
CENTER2
 62
     7
100
AcDbLine
 10
55.3038202881
 20
359.2043668304
 30
0.0
 11
55.3038202881
 21
319.2043677244
 31
0.0
  0
LINE
  5
63
330
5E
100
AcDbEntity
  8
Default
  6
CENTER2
 62
     7
100
AcDbLine
 10
80.3038197293
 20
339.2043672774
 30
0.0
 11
111.3038202881
 21
339.2043672774
 31
0.0
  0
LINE
  5
64
330
5E
100
AcDbEntity
  8
Default
  6
CENTER2
 62
     7
100
AcDbLine
 10
55.3038202881
 20
364.2043667186
 30
0.0
 11
55.3038202881
 21
395.2043672774
 31
0.0
  0
LINE
  5
65
330
5E
100
AcDbEntity
  8
Default
  6
CENTER2
 62
     7
100
AcDbLine
 10
30.3038208469
 20
339.2043672774
 30
0.0
 11
-0.6961797119
 21
339.2043672774
 31
0.0
  0
LINE
  5
66
330
5E
100
AcDbEntity
  8
Default
  6
CENTER2
 62
     7
100
AcDbLine
 10
55.3038202881
 20
314.2043678362
 30
0.0
 11
55.3038202881
 21
283.2043672774
 31
0.0
  0
ENDBLK
  5
68
330
5E
100
AcDbEntity
  8
0
100
AcDbBlockEnd
  0
BLOCK
  5
6D
330
69
100
AcDbEntity
  8
0
100
AcDbBlockBegin
  2
SEANNOT_GROUP1
 70
     0
 10
0.0
 20
0.0
 30
0.0
  3
SEANNOT_GROUP1
  1

  0
LINE
  5
6B
330
69
100
AcDbEntity
  8
Default
  6
CENTER2
 62
     7
100
AcDbLine
 10
207.4568071803
 20
339.2043672774
 30
0.0
 11
167.4568080744
 21
339.2043672774
 31
0.0
  0
LINE
  5
6C
330
69
100
AcDbEntity
  8
Default
  6
CENTER2
 62
     7
100
AcDbLine
 10
187.4568076274
 20
359.2043668304
 30
0.0
 11
187.4568076274
 21
319.2043677244
 31
0.0
  0
ENDBLK
  5
6E
330
69
100
AcDbEntity
  8
0
100
AcDbBlockEnd
  0
BLOCK
  5
73
330
6F
100
AcDbEntity
  8
0
100
AcDbBlockBegin
  2
SEANNOT_GROUP2
 70
     0
 10
0.0
 20
0.0
 30
0.0
  3
SEANNOT_GROUP2
  1

  0
LINE
  5
71
330
6F
100
AcDbEntity
  8
Default
  6
CENTER2
 62
     7
100
AcDbLine
 10
75.3038198411
 20
182.8316378162
 30
0.0
 11
35.3038207351
 21
182.8316378162
 31
0.0
  0
LINE
  5
72
330
6F
100
AcDbEntity
  8
Default
  6
CENTER2
 62
     7
100
AcDbLine
 10
55.3038202881
 20
202.8316373692
 30
0.0
 11
55.3038202881
 21
162.8316382633
 31
0.0
  0
ENDBLK
  5
74
330
6F
100
AcDbEntity
  8
0
100
AcDbBlockEnd
  0
BLOCK
  5
9B
330
75
100
AcDbEntity
  8
0
100
AcDbBlockBegin
  2
SE
 70
     0
 10
0.0
 20
0.0
 30
0.0
  3
SE
  1

  0
ARC
  5
78
330
75
100
AcDbEntity
  8
$DDT_AUDIT_GENERATED_(77)
  6
Continuous
 62
     7
100
AcDbCircle
 10
55.3038202881
 20
339.2043672774
 30
0.0
 40
30.0
100
AcDbArc
 50
0.0
 51
229.5139531611
  0
ARC
  5
79
330
75
100
AcDbEntity
  8
$DDT_AUDIT_GENERATED_(77)
  6
Continuous
 62
     7
100
AcDbCircle
 10
55.3038202881
 20
339.2043672774
 30
0.0
 40
30.0
100
AcDbArc
 50
310.5280726389
 51
0.0
  0
ARC
  5
7B
330
75
100
AcDbEntity
  8
$DDT_AUDIT_GENERATED_(7A)
  6
Continuous
 62
     7
100
AcDbCircle
 10
55.3038202881
 20
339.2043672774
 30
0.0
 40
52.5
100
AcDbArc
 50
288.9953626836
 51
0.0
  0
ARC
  5
7C
330
75
100
AcDbEntity
  8
$DDT_AUDIT_GENERATED_(7A)
  6
Continuous
 62
     7
100
AcDbCircle
 10
55.3038202881
 20
339.2043672774
 30
0.0
 40
52.5
100
AcDbArc
 50
0.0
 51
251.0164917419
  0
SPLINE
  5
7E
330
75
100
AcDbEntity
  8
$DDT_AUDIT_GENERATED_(7D)
  6
Continuous
 62
     7
100
AcDbSpline
210
0.0
220
0.0
230
1.0
 70
     8
 71
     3
 72
    50
 73
    46
 74
     0
 42
0.0000000000430415
 43
0.0000000001
 40
0.0
 40
0.0
 40
0.0
 40
0.0
 40
0.125
 40
0.125
 40
0.25
 40
0.25
 40
0.3125
 40
0.3125
 40
0.34375
 40
0.34375
 40
0.375
 40
0.375
 40
0.390625
 40
0.390625
 40
0.40625
 40
0.40625
 40
0.4375
 40
0.4375
 40
0.453125
 40
0.453125
 40
0.46875
 40
0.46875
 40
0.484375
 40
0.484375
 40
0.5
 40
0.5
 40
0.53125
 40
0.53125
 40
0.546875
 40
0.546875
 40
0.5625
 40
0.5625
 40
0.59375
 40
0.59375
 40
0.625
 40
0.625
 40
0.65625
 40
0.65625
 40
0.6875
 40
0.6875
 40
0.75
 40
0.75
 40
0.875
 40
0.875
 40
1.0
 40
1.0
 40
1.0
 40
1.0
 10
67.77065407925599
 20
255.5490793764461
 30
0.0
 10
68.669310414248
 20
265.1601748263437
 30
0.0
 10
69.54310159440378
 20
274.7625303334011
 30
0.0
 10
71.09252260008648
 20
293.9630125327996
 30
0.0
 10
71.80595996817904
 20
303.558606029785
 30
0.0
 10
72.85263312840735
 20
317.9427728258847
 30
0.0
 10
73.2035781287429
 20
322.7355989081529
 30
0.0
 10
73.64764975196513
 20
329.9295632353195
 30
0.0
 10
73.78286812984538
 20
332.3284419164254
 30
0.0
 10
73.93050743980793
 20
337.1359764152351
 30
0.0
 10
73.9460856665371
 20
339.5365084766623
 30
0.0
 10
73.65534616243855
 20
343.1207403035859
 30
0.0
 10
73.50423302755586
 20
344.3126273402932
 30
0.0
 10
73.0426421311917
 20
346.6877618084802
 30
0.0
 10
72.72849348331279
 20
347.8799975475737
 30
0.0
 10
71.49700809200611
 20
351.3195036032298
 30
0.0
 10
70.24467766755464
 20
353.4877059186974
 30
0.0
 10
67.76551082966677
 20
356.1420512218968
 30
0.0
 10
66.8287507540721
 20
356.946574894454
 30
0.0
 10
64.8206173405607
 20
358.3377796293327
 30
0.0
 10
63.75792848956735
 20
358.924223543272
 30
0.0
 10
61.52270474858319
 20
359.8935686916921
 30
0.0
 10
60.34449432766124
 20
360.2747903926202
 30
0.0
 10
57.97071447327669
 20
360.79210964122
 30
0.0
 10
56.76371531176584
 20
360.9336026962888
 30
0.0
 10
53.07801325624467
 20
360.9812755287701
 30
0.0
 10
50.65931315068263
 20
360.5052799976106
 30
0.0
 10
47.26064664718417
 20
359.1286346074347
 30
0.0
 10
46.18271997296198
 20
358.5669857347778
 30
0.0
 10
44.14149603830327
 20
357.228354134859
 30
0.0
 10
43.18198270178579
 20
356.4478807795266
 30
0.0
 10
40.63479787771076
 20
353.8668652797774
 30
0.0
 10
39.32285244211443
 20
351.7340858292705
 30
0.0
 10
37.58565380822595
 20
347.2067808656307
 30
0.0
 10
37.11801681733181
 20
344.7810053463085
 30
0.0
 10
36.67095662767684
 20
339.9702471462822
 30
0.0
 10
36.67299272214721
 20
337.5470254916841
 30
0.0
 10
36.80570171689082
 20
332.714860329115
 30
0.0
 10
36.93887186522524
 20
330.3040913011887
 30
0.0
 10
37.37959198097693
 20
323.0739514125651
 30
0.0
 10
37.73245650827907
 20
318.2570458740299
 30
0.0
 10
38.7834823743008
 20
303.800358054866
 30
0.0
 10
39.50024285882502
 20
294.1555929949981
 30
0.0
 10
41.05625821410846
 20
274.8570203155596
 30
0.0
 10
41.93388367549428
 20
265.2077298305973
 30
0.0
 10
42.83698649695139
 20
255.5490793764461
 30
0.0
  0
ARC
  5
7F
330
75
100
AcDbEntity
  8
$DDT_AUDIT_GENERATED_(7D)
  6
Continuous
 62
     7
100
AcDbCircle
 10
64.2585198395
 20
255.9069399869
 30
0.0
 40
3.530318843205536
100
AcDbArc
 50
279.9624614999
 51
354.1820607972
  0
ARC
  5
80
330
75
100
AcDbEntity
  8
$DDT_AUDIT_GENERATED_(7D)
  6
Continuous
 62
     7
100
AcDbCircle
 10
55.3038202881
 20
305.210371579
 30
0.0
 40
53.64029264445655
100
AcDbArc
 50
259.7277349166
 51
280.2722650833
  0
ARC
  5
81
330
75
100
AcDbEntity
  8
$DDT_AUDIT_GENERATED_(7D)
  6
Continuous
 62
     7
100
AcDbCircle
 10
46.3481844752
 20
255.9060691139
 30
0.0
 40
3.529299210232422
100
AcDbArc
 50
185.8054147426
 51
260.0500629603
  0
SPLINE
  5
82
330
75
100
AcDbEntity
  8
$DDT_AUDIT_GENERATED_(7D)
  6
Continuous
 62
     7
100
AcDbSpline
210
0.0
220
0.0
230
1.0
 70
     8
 71
     3
 72
    10
 73
     6
 74
     0
 42
0.000000000125629
 43
0.0000000001
 40
0.731291263908871
 40
0.731291263908871
 40
0.731291263908871
 40
0.731291263908871
 40
0.7499999999999999
 40
0.7499999999999999
 40
0.7748507006105086
 40
0.7748507006105086
 40
0.7748507006105086
 40
0.7748507006105086
 10
34.27629887649532
 20
329.1521126907364
 30
0.0
 10
34.18365193574488
 20
329.6984271825395
 30
0.0
 10
34.08846918757268
 20
330.2267425843082
 30
0.0
 10
33.86177638807769
 20
331.3851732625382
 30
0.0
 10
33.72671675957698
 20
332.000387210381
 30
0.0
 10
33.58745176282829
 20
332.5490950028067
 30
0.0
  0
ELLIPSE
  5
83
330
75
100
AcDbEntity
  8
$DDT_AUDIT_GENERATED_(7D)
  6
Continuous
 62
     7
100
AcDbEllipse
 10
45.6043802598
 20
251.7306535133
 30
0.0
 11
0.1845360206097455
 21
0.9828257511369787
 31
0.0
210
0.0
220
0.0
230
1.0
 40
0.0068530163
 41
3.120451455683762
 42
3.142702763950985
  0
ELLIPSE
  5
84
330
75
100
AcDbEntity
  8
$DDT_AUDIT_GENERATED_(7D)
  6
Continuous
 62
     7
100
AcDbEllipse
 10
65.0032603164
 20
251.7306535133
 30
0.0
 11
-0.1845360206105176
 21
0.9828257511365346
 31
0.0
210
0.0
220
0.0
230
0.9999999999999998
 40
0.0068530163
 41
3.140514054599164
 42
3.162498796467555
  0
SPLINE
  5
85
330
75
100
AcDbEntity
  8
$DDT_AUDIT_GENERATED_(7D)
  6
Continuous
 62
     7
100
AcDbSpline
210
0.0
220
0.0
230
1.0
 70
     8
 71
     3
 72
    30
 73
    26
 74
     0
 42
0.0000000001249555
 43
0.0000000001
 40
0.0
 40
0.0
 40
0.0
 40
0.0
 40
0.125
 40
0.125
 40
0.2499999999999999
 40
0.2499999999999999
 40
0.3124999999999999
 40
0.3124999999999999
 40
0.3749999999999999
 40
0.3749999999999999
 40
0.4374999999999999
 40
0.4374999999999999
 40
0.4999999999999999
 40
0.4999999999999999
 40
0.5624999999999999
 40
0.5624999999999999
 40
0.6249999999999999
 40
0.6249999999999999
 40
0.6874999999999999
 40
0.6874999999999999
 40
0.7499999999999998
 40
0.7499999999999998
 40
0.8749999999999999
 40
0.8749999999999999
 40
1.0
 40
1.0
 40
1.0
 40
1.0
 10
80.95668954190563
 20
337.6926938509672
 30
0.0
 10
80.52485016180219
 20
340.742635045763
 30
0.0
 10
79.91342125096844
 20
343.7533176863251
 30
0.0
 10
77.60908294413683
 20
349.5201499560383
 30
0.0
 10
75.9291494872639
 20
352.3280999524709
 30
0.0
 10
72.7078704990646
 20
356.0408510594281
 30
0.0
 10
71.49850884741642
 20
357.2107471934712
 30
0.0
 10
68.82037997380141
 20
359.3141896746425
 30
0.0
 10
67.37199549818217
 20
360.2355461376927
 30
0.0
 10
64.23080362778344
 20
361.7867308231439
 30
0.0
 10
62.53569167246266
 20
362.410609554265
 30
0.0
 10
59.07352614972488
 20
363.2539692456243
 30
0.0
 10
57.25820828054401
 20
363.4857482946817
 30
0.0
 10
53.61144045197214
 20
363.5065478830741
 30
0.0
 10
51.81904127304134
 20
363.3014703915251
 30
0.0
 10
48.29294421356756
 20
362.4833718628072
 30
0.0
 10
46.60435567526424
 20
361.8787367667377
 30
0.0
 10
43.4378538979137
 20
360.353103545596
 30
0.0
 10
41.94976334319539
 20
359.4237283366727
 30
0.0
 10
39.26238452557724
 20
357.3471524774853
 30
0.0
 10
38.0352872316987
 20
356.1795102831355
 30
0.0
 10
34.76696434851824
 20
352.4623542295456
 30
0.0
 10
33.09744913147403
 20
349.7195500953962
 30
0.0
 10
30.7103347340952
 20
343.8394528762785
 30
0.0
 10
30.08670911526598
 20
340.7703107471929
 30
0.0
 10
29.65095110758213
 20
337.6926938557547
 30
0.0
  0
ARC
  5
86
330
75
100
AcDbEntity
  8
$DDT_AUDIT_GENERATED_(7D)
  6
Continuous
 62
     7
100
AcDbCircle
 10
46.3207574605
 20
335.3622841901
 30
0.0
 40
16.83191174682866
100
AcDbArc
 50
172.0417274383
 51
176.3418211747
  0
ARC
  5
87
330
75
100
AcDbEntity
  8
$DDT_AUDIT_GENERATED_(7D)
  6
Continuous
 62
     7
100
AcDbCircle
 10
64.2868827808
 20
335.3622843565
 30
0.0
 40
16.83191212744704
100
AcDbArc
 50
3.6581781506
 51
7.9582717924
  0
SPLINE
  5
88
330
75
100
AcDbEntity
  8
$DDT_AUDIT_GENERATED_(7D)
  6
Continuous
 62
     7
100
AcDbSpline
210
0.0
220
0.0
230
1.0
 70
     8
 71
     3
 72
    10
 73
     6
 74
     0
 42
0.0000000001250065
 43
0.0000000001
 40
0.2249496152419471
 40
0.2249496152419471
 40
0.2249496152419471
 40
0.2249496152419471
 40
0.2499999999999998
 40
0.2499999999999998
 40
0.2722454071780508
 40
0.2722454071780508
 40
0.2722454071780508
 40
0.2722454071780508
 10
77.02557303683038
 20
332.5702514390874
 30
0.0
 10
76.8852167875132
 20
332.019384677267
 30
0.0
 10
76.7492099468268
 20
331.4012392327996
 30
0.0
 10
76.5038551993641
 20
330.1493697750786
 30
0.0
 10
76.39157993778953
 20
329.5177981056483
 30
0.0
 10
76.2826234056139
 20
328.8618769502615
 30
0.0
  0
LINE
  5
89
330
75
100
AcDbEntity
  8
$DDT_AUDIT_GENERATED_(7D)
  6
Continuous
 62
     7
100
AcDbLine
 10
29.5256933702
 20
336.3005849266
 30
0.0
 11
29.6650826394
 21
335.1430722651
 31
0.0
  0
ARC
  5
8A
330
75
100
AcDbEntity
  8
$DDT_AUDIT_GENERATED_(7D)
  6
Continuous
 62
     7
100
AcDbCircle
 10
55.3038203175
 20
339.0256210853
 30
0.0
 40
25.93104423405565
100
AcDbArc
 50
188.6110421436
 51
218.7696581393
  0
ARC
  5
8B
330
75
100
AcDbEntity
  8
$DDT_AUDIT_GENERATED_(7D)
  6
Continuous
 62
     7
100
AcDbCircle
 10
55.3038203175
 20
339.0256210853
 30
0.0
 40
25.93104423405565
100
AcDbArc
 50
321.2562036429
 51
351.388957859
  0
LINE
  5
8C
330
75
100
AcDbEntity
  8
$DDT_AUDIT_GENERATED_(7D)
  6
Continuous
 62
     7
100
AcDbLine
 10
80.9425579958
 20
335.1430722662
 30
0.0
 11
81.0819472632
 21
336.3005849341
 31
0.0
  0
ELLIPSE
  5
8D
330
75
100
AcDbEntity
  8
$DDT_AUDIT_GENERATED_(7D)
  6
Continuous
 62
     7
100
AcDbEllipse
 10
29.8191073757
 20
336.3355128997
 30
0.0
 11
0.2991668719844742
 21
0.02234239707418678
 31
0.0
210
0.0
220
0.0
230
1.0
 40
0.2428343342
 41
3.155341685835817
 42
3.320709680333716
  0
ELLIPSE
  5
8E
330
75
100
AcDbEntity
  8
$DDT_AUDIT_GENERATED_(7D)
  6
Continuous
 62
     7
100
AcDbEllipse
 10
29.8187156364
 20
336.4306974693
 30
0.0
 11
0.2993503561354929
 21
-0.01973231567897398
 31
0.0
210
0.0
220
0.0
230
1.0
 40
0.2631911005
 41
3.140891742586218
 42
3.318880017698822
  0
ELLIPSE
  5
8F
330
75
100
AcDbEntity
  8
$DDT_AUDIT_GENERATED_(7D)
  6
Continuous
 62
     7
100
AcDbEllipse
 10
80.7885332578
 20
336.3355129067
 30
0.0
 11
-0.2991668720525656
 21
0.02234239616233799
 31
0.0
210
0.0
220
0.0
230
1.0
 40
0.2428343357
 41
2.962475622607441
 42
3.138486919776629
  0
ELLIPSE
  5
90
330
75
100
AcDbEntity
  8
$DDT_AUDIT_GENERATED_(7D)
  6
Continuous
 62
     7
100
AcDbEllipse
 10
80.7889249975
 20
336.430697466
 30
0.0
 11
-0.2993503563675052
 21
-0.01973231214656184
 31
0.0
210
0.0
220
0.0
230
1.0
 40
0.2631910999
 41
2.964305284761323
 42
3.141259565067261
  0
SPLINE
  5
91
330
75
100
AcDbEntity
  8
$DDT_AUDIT_GENERATED_(7D)
  6
Continuous
 62
     7
100
AcDbSpline
210
0.0
220
0.0
230
1.0
 70
     8
 71
     3
 72
    28
 73
    24
 74
     0
 42
0.0000000001345012
 43
0.0000000001
 40
0.0
 40
0.0
 40
0.0
 40
0.0
 40
0.0055291627978286
 40
0.0214145180400592
 40
0.0381759576355834
 40
0.0560867273492445
 40
0.0754700222240408
 40
0.0968102636423759
 40
0.1209398250632564
 40
0.1496986761286782
 40
0.1843235248125704
 40
0.2205291102580224
 40
0.2602866008646838
 40
0.3052600248909884
 40
0.3547984685418274
 40
0.4064504261188182
 40
0.4627743484147042
 40
0.5257193932793464
 40
0.5994430830772303
 40
0.6945977417184874
 40
0.8153021851744715
 40
0.953181078729926
 40
1.0
 40
1.0
 40
1.0
 40
1.0
 10
34.26642840953187
 20
329.1884666191646
 30
0.0
 10
34.28774546926608
 20
329.0636541924137
 30
0.0
 10
34.35812893493143
 20
328.6507220757198
 30
0.0
 10
34.48904457299109
 20
327.8042878569307
 30
0.0
 10
34.65053841006199
 20
326.6945543840571
 30
0.0
 10
34.81710020047446
 20
325.4626114631301
 30
0.0
 10
34.98954085174854
 20
324.1022503086344
 30
0.0
 10
35.17243076419187
 20
322.5716006777591
 30
0.0
 10
35.37377257753732
 20
320.7987932727115
 30
0.0
 10
35.60392320877706
 20
318.6921043802914
 30
0.0
 10
35.85612646426321
 20
316.274030907488
 30
0.0
 10
36.12589226624917
 20
313.5694450191342
 30
0.0
 10
36.41086236940108
 20
310.594668095572
 30
0.0
 10
36.71762504860728
 20
307.2774034760708
 30
0.0
 10
37.04048202861876
 20
303.6496039109883
 30
0.0
 10
37.37887976601971
 20
299.7254708933461
 30
0.0
 10
37.73848504673767
 20
295.4545899532403
 30
0.0
 10
38.13994610065791
 20
290.6203544614376
 30
0.0
 10
38.62362590317494
 20
284.8076504129687
 30
0.0
 10
39.24278225484108
 20
277.5249176768547
 30
0.0
 10
40.02208269809897
 20
268.7059855963454
 30
0.0
 10
40.77005620796523
 20
260.8216582861613
 30
0.0
 10
41.19356575033517
 20
256.4751952358225
 30
0.0
 10
41.3197003360406
 20
255.183923047752
 30
0.0
  0
ARC
  5
92
330
75
100
AcDbEntity
  8
$DDT_AUDIT_GENERATED_(7D)
  6
Continuous
 62
     7
100
AcDbCircle
 10
46.315111461
 20
255.6843077224
 30
0.0
 40
5.009253222040226
100
AcDbArc
 50
185.714973022
 51
259.7240695949
  0
SPLINE
  5
93
330
75
100
AcDbEntity
  8
$DDT_AUDIT_GENERATED_(7D)
  6
Continuous
 62
     7
100
AcDbSpline
210
0.0
220
0.0
230
1.0
 70
     8
 71
     3
 72
    27
 73
    23
 74
     0
 42
0.000000000134931
 43
0.0000000001
 40
0.0
 40
0.0
 40
0.0
 40
0.0
 40
0.0307752381294186
 40
0.1700536404080252
 40
0.3178061686922124
 40
0.4174378004671155
 40
0.4931113897601394
 40
0.5566630951020973
 40
0.6131154373579754
 40
0.6644692516027295
 40
0.7120851207640999
 40
0.7627038423379365
 40
0.801807207860281
 40
0.8372693301714033
 40
0.8701178530044347
 40
0.898833803516859
 40
0.9219136981232124
 40
0.9424055154495441
 40
0.9609886261983144
 40
0.9781429036079409
 40
0.9941981280143772
 40
1.0
 40
1.0
 40
1.0
 40
1.0
 10
69.28883968012022
 20
255.1837640957585
 30
0.0
 10
69.37124930607061
 20
256.0293944108884
 30
0.0
 10
69.7605178673584
 20
260.0309451361951
 30
0.0
 10
70.54317211171262
 20
268.2165967400313
 30
0.0
 10
71.39043228803216
 20
277.8054357129183
 30
0.0
 10
72.07572770587561
 20
285.9002731601973
 30
0.0
 10
72.57079791194407
 20
291.8653568379311
 30
0.0
 10
72.97709808558936
 20
296.7458348773935
 30
0.0
 10
73.33827198845577
 20
301.0079588236616
 30
0.0
 10
73.67375119954684
 20
304.861113173233
 30
0.0
 10
74.00644905594909
 20
308.5547079149352
 30
0.0
 10
74.32292708486676
 20
311.9294554658786
 30
0.0
 10
74.62181352518904
 20
314.9889508424679
 30
0.0
 10
74.88796513640669
 20
317.5967202720649
 30
0.0
 10
75.13790640642807
 20
319.9330385076875
 30
0.0
 10
75.36377608276591
 20
321.9538918375997
 30
0.0
 10
75.56420024310371
 20
323.661187205466
 30
0.0
 10
75.74409645993266
 20
325.1051074516504
 30
0.0
 10
75.9147038640395
 20
326.3894677425309
 30
0.0
 10
76.07774596376507
 20
327.5301511662079
 30
0.0
 10
76.2095167941425
 20
328.3992417630685
 30
0.0
 10
76.28044914605137
 20
328.8229971651692
 30
0.0
 10
76.30254320600784
 20
328.9547263880689
 30
0.0
  0
ARC
  5
94
330
75
100
AcDbEntity
  8
$DDT_AUDIT_GENERATED_(7D)
  6
Continuous
 62
     7
100
AcDbCircle
 10
55.2997361479
 20
303.216208722
 30
0.0
 40
53.37541041126634
100
AcDbArc
 50
259.3358010612
 51
280.6728225966
  0
ARC
  5
95
330
75
100
AcDbEntity
  8
$DDT_AUDIT_GENERATED_(7D)
  6
Continuous
 62
     7
100
AcDbCircle
 10
64.2920278903
 20
255.684908821
 30
0.0
 40
5.010083359372467
100
AcDbArc
 50
280.2801442189
 51
354.2768173648
  0
ARC
  5
96
330
75
100
AcDbEntity
  8
$DDT_AUDIT_GENERATED_(7D)
  6
Continuous
 62
     7
100
AcDbCircle
 10
30.0520829816
 20
336.3505903563
 30
0.0
 40
0.5339842778933009
100
AcDbArc
 50
169.3144169825
 51
188.4108809988
  0
ARC
  5
97
330
75
100
AcDbEntity
  8
$DDT_AUDIT_GENERATED_(7D)
  6
Continuous
 62
     7
100
AcDbCircle
 10
80.5614619286
 20
336.4189789527
 30
0.0
 40
0.5282157018220442
100
AcDbArc
 50
348.4957573304
 51
7.7877487735
  0
ARC
  5
99
330
75
100
AcDbEntity
  8
$DDT_AUDIT_GENERATED_(98)
  6
Continuous
 62
     7
100
AcDbCircle
 10
55.3038202881
 20
339.204366651
 30
0.0
 40
24.26932219902303
100
AcDbArc
 50
109.2790588907
 51
147.4176795182
  0
ARC
  5
9A
330
75
100
AcDbEntity
  8
$DDT_AUDIT_GENERATED_(98)
  6
Continuous
 62
     7
100
AcDbCircle
 10
55.3038202881
 20
339.204366651
 30
0.0
 40
24.26932219902303
100
AcDbArc
 50
34.4115378648
 51
75.1577809819
  0
ENDBLK
  5
9C
330
75
100
AcDbEntity
  8
0
100
AcDbBlockEnd
  0
BLOCK
  5
CF
330
9D
100
AcDbEntity
  8
0
100
AcDbBlockBegin
  2
SE1
 70
     0
 10
0.0
 20
0.0
 30
0.0
  3
SE1
  1

  0
LINE
  5
9F
330
9D
100
AcDbEntity
  8
$DDT_AUDIT_GENERATED_(77)
  6
Continuous
 62
     7
100
AcDbLine
 10
25.3038202881
 20
172.5316378162
 30
0.0
 11
85.3038202881
 21
172.5316378162
 31
0.0
  0
LINE
  5
A0
330
9D
100
AcDbEntity
  8
$DDT_AUDIT_GENERATED_(77)
  6
Continuous
 62
     7
100
AcDbLine
 10
25.3038202881
 20
172.5316378162
 30
0.0
 11
29.1960604679
 21
171.0773942326
 31
0.0
  0
LINE
  5
A1
330
9D
100
AcDbEntity
  8
$DDT_AUDIT_GENERATED_(77)
  6
Continuous
 62
     7
100
AcDbLine
 10
81.4115801083
 20
171.0773942326
 30
0.0
 11
85.3038202881
 21
172.5316378162
 31
0.0
  0
LINE
  5
A2
330
9D
100
AcDbEntity
  8
$DDT_AUDIT_GENERATED_(77)
  6
Continuous
 62
     7
100
AcDbLine
 10
85.3038202881
 20
172.5316378162
 30
0.0
 11
85.3038202881
 21
172.8316378162
 31
0.0
  0
LINE
  5
A3
330
9D
100
AcDbEntity
  8
$DDT_AUDIT_GENERATED_(77)
  6
Continuous
 62
     7
100
AcDbLine
 10
25.3038202881
 20
172.8316378162
 30
0.0
 11
25.3038202881
 21
172.5316378162
 31
0.0
  0
LINE
  5
A4
330
9D
100
AcDbEntity
  8
$DDT_AUDIT_GENERATED_(7A)
  6
Continuous
 62
     7
100
AcDbLine
 10
107.8038202881
 20
182.8316378162
 30
0.0
 11
2.8038202881
 21
182.8316378162
 31
0.0
  0
LINE
  5
A5
330
9D
100
AcDbEntity
  8
$DDT_AUDIT_GENERATED_(7A)
  6
Continuous
 62
     7
100
AcDbLine
 10
4.3038202881
 20
172.8316378162
 30
0.0
 11
106.3038202881
 21
172.8316378162
 31
0.0
  0
LINE
  5
A6
330
9D
100
AcDbEntity
  8
$DDT_AUDIT_GENERATED_(7A)
  6
Continuous
 62
     7
100
AcDbLine
 10
107.8038202881
 20
174.3316378162
 30
0.0
 11
107.8038202881
 21
182.8316378162
 31
0.0
  0
LINE
  5
A7
330
9D
100
AcDbEntity
  8
$DDT_AUDIT_GENERATED_(7A)
  6
Continuous
 62
     7
100
AcDbLine
 10
2.8038202881
 20
182.8316378162
 30
0.0
 11
2.8038202881
 21
174.3316378162
 31
0.0
  0
ARC
  5
A8
330
9D
100
AcDbEntity
  8
$DDT_AUDIT_GENERATED_(7A)
  6
Continuous
 62
     7
100
AcDbCircle
 10
4.3038202881
 20
174.3316378162
 30
0.0
 40
1.500000000000001
100
AcDbArc
 50
180.0
 51
270.0
  0
ARC
  5
A9
330
9D
100
AcDbEntity
  8
$DDT_AUDIT_GENERATED_(7A)
  6
Continuous
 62
     7
100
AcDbCircle
 10
106.3038202881
 20
174.3316378162
 30
0.0
 40
1.500000000000001
100
AcDbArc
 50
270.0
 51
0.0
  0
SPLINE
  5
AA
330
9D
100
AcDbEntity
  8
$DDT_AUDIT_GENERATED_(7D)
  6
Continuous
 62
     7
100
AcDbSpline
210
0.0
220
0.0
230
1.0
 70
     8
 71
     3
 72
     8
 73
     4
 74
     0
 42
0.0000000003032979
 43
0.0000000001
 40
0.3362419644325878
 40
0.3362419644325878
 40
0.3362419644325878
 40
0.3362419644325878
 40
0.3370349826766057
 40
0.3370349826766057
 40
0.3370349826766057
 40
0.3370349826766057
 10
35.61336022895789
 20
116.7832187123099
 30
0.0
 10
35.61161066047082
 20
116.7917753133946
 30
0.0
 10
35.60990620717394
 20
116.8003226228793
 30
0.0
 10
35.60824800167443
 20
116.8088603623003
 30
0.0
  0
SPLINE
  5
AB
330
9D
100
AcDbEntity
  8
$DDT_AUDIT_GENERATED_(7D)
  6
Continuous
 62
     7
100
AcDbSpline
210
0.0
220
0.0
230
1.0
 70
     8
 71
     3
 72
    40
 73
    36
 74
     0
 42
0.0000000000780337
 43
0.0000000001
 40
0.3370349826766057
 40
0.3370349826766057
 40
0.3370349826766057
 40
0.3370349826766057
 40
0.3437500000000001
 40
0.3437500000000001
 40
0.3750000000000002
 40
0.3750000000000002
 40
0.4062500000000002
 40
0.4062500000000002
 40
0.4218750000000003
 40
0.4218750000000003
 40
0.4375000000000002
 40
0.4375000000000002
 40
0.4531250000000002
 40
0.4531250000000002
 40
0.4687500000000002
 40
0.4687500000000002
 40
0.5000000000000002
 40
0.5000000000000002
 40
0.5156250000000002
 40
0.5156250000000002
 40
0.5312500000000002
 40
0.5312500000000002
 40
0.5468750000000002
 40
0.5468750000000002
 40
0.5625000000000002
 40
0.5625000000000002
 40
0.5781250000000002
 40
0.5781250000000002
 40
0.5937500000000002
 40
0.5937500000000002
 40
0.6250000000000001
 40
0.6250000000000001
 40
0.6562500000000001
 40
0.6562500000000001
 40
0.6614831228562664
 40
0.6614831228562664
 40
0.6614831228562664
 40
0.6614831228562664
 10
35.60824800167443
 20
116.8088603623003
 30
0.0
 10
35.59420686360613
 20
116.8811551279592
 30
0.0
 10
35.583481759508
 20
116.9527637062015
 30
0.0
 10
35.54548057580769
 20
117.3527851816877
 30
0.0
 10
35.60323279196942
 20
117.6606117646124
 30
0.0
 10
36.23377375402404
 20
118.1683529510482
 30
0.0
 10
36.81880431366113
 20
118.3678429476337
 30
0.0
 10
38.30010554286606
 20
118.5403094740178
 30
0.0
 10
38.90515082271919
 20
118.5776341620271
 30
0.0
 10
40.30768123873425
 20
118.6113259824759
 30
0.0
 10
41.10363394728311
 20
118.6084076645775
 30
0.0
 10
42.88542347686402
 20
118.5768083996797
 30
0.0
 10
43.88239640855159
 20
118.5478819375123
 30
0.0
 10
45.97762494065361
 20
118.4852333381933
 30
0.0
 10
47.08126923741217
 20
118.4516869784567
 30
0.0
 10
50.55847100276544
 20
118.3649620668491
 30
0.0
 10
53.01111131394573
 20
118.3300803173777
 30
0.0
 10
56.76257054423749
 20
118.3329702121172
 30
0.0
 10
57.99139175794421
 20
118.3425977631003
 30
0.0
 10
60.40861839497885
 20
118.3772796379194
 30
0.0
 10
61.60896446403532
 20
118.4028736000914
 30
0.0
 10
63.89964474571258
 20
118.4624377316276
 30
0.0
 10
64.98968837617835
 20
118.4962571170311
 30
0.0
 10
67.05591996327138
 20
118.5574501606336
 30
0.0
 10
68.03532779586877
 20
118.5845109395298
 30
0.0
 10
69.77931558478714
 20
118.6103321114311
 30
0.0
 10
70.55572035948522
 20
118.6093859852815
 30
0.0
 10
71.91816370449575
 20
118.566562911099
 30
0.0
 10
72.49548371374053
 20
118.5244702536064
 30
0.0
 10
73.91117614441326
 20
118.3377741440977
 30
0.0
 10
74.45582929873014
 20
118.1289474344586
 30
0.0
 10
75.02461931810642
 20
117.6127423664132
 30
0.0
 10
75.0657213335386
 20
117.3035788004855
 30
0.0
 10
75.01880571698551
 20
116.9192156642211
 30
0.0
 10
75.00981849521827
 20
116.8635776745942
 30
0.0
 10
74.99887556121523
 20
116.807515722328
 30
0.0
  0
SPLINE
  5
AC
330
9D
100
AcDbEntity
  8
$DDT_AUDIT_GENERATED_(7D)
  6
Continuous
 62
     7
100
AcDbSpline
210
0.0
220
0.0
230
1.0
 70
     8
 71
     3
 72
     8
 73
     4
 74
     0
 42
0.0000000003052429
 43
0.0000000001
 40
0.6614831228562664
 40
0.6614831228562664
 40
0.6614831228562664
 40
0.6614831228562664
 40
0.6616626451524759
 40
0.6616626451524759
 40
0.6616626451524759
 40
0.6616626451524759
 10
74.99887556121523
 20
116.807515722328
 30
0.0
 10
74.99850016382949
 20
116.8055925168774
 30
0.0
 10
74.99812246489658
 20
116.8036688124935
 30
0.0
 10
74.99774247660677
 20
116.8017446124524
 30
0.0
  0
ELLIPSE
  5
AD
330
9D
100
AcDbEntity
  8
$DDT_AUDIT_GENERATED_(7D)
  6
Continuous
 62
     7
100
AcDbEllipse
 10
67.7067972044
 20
106.6621681269
 30
0.0
 11
-1.165785585498359
 21
0.9438982829968192
 31
0.0
210
0.0
220
0.0
230
1.0
 40
0.9899761817
 41
3.141586108399978
 42
3.174960851778009
  0
ELLIPSE
  5
AE
330
9D
100
AcDbEntity
  8
$DDT_AUDIT_GENERATED_(7D)
  6
Continuous
 62
     7
100
AcDbEllipse
 10
42.9008433718
 20
106.6621681269
 30
0.0
 11
1.165785585497544
 21
0.9438982829977903
 31
0.0
210
0.0
220
0.0
230
0.9999999999999998
 40
0.9899761817
 41
3.106333921734698
 42
3.144499791159138
  0
SPLINE
  5
AF
330
9D
100
AcDbEntity
  8
$DDT_AUDIT_GENERATED_(7D)
  6
Continuous
 62
     7
100
AcDbSpline
210
0.0
220
0.0
230
1.0
 70
     8
 71
     3
 72
    10
 73
     6
 74
     0
 42
0.0000000000957987
 43
0.0000000001
 40
0.8990075279488028
 40
0.8990075279488028
 40
0.8990075279488028
 40
0.8990075279488028
 40
0.9375000000000001
 40
0.9375000000000001
 40
1.0
 40
1.0
 40
1.0
 40
1.0
 10
79.23844734446381
 20
138.9252195495843
 30
0.0
 10
79.47505119092479
 20
140.237850731683
 30
0.0
 10
79.7129438879068
 20
141.555962736485
 30
0.0
 10
80.33447176923217
 20
145.0177430093724
 30
0.0
 10
80.71321903705595
 20
147.1605055469419
 30
0.0
 10
81.08449915381978
 20
149.3044447385319
 30
0.0
  0
SPLINE
  5
B0
330
9D
100
AcDbEntity
  8
$DDT_AUDIT_GENERATED_(7D)
  6
Continuous
 62
     7
100
AcDbSpline
210
0.0
220
0.0
230
1.0
 70
     8
 71
     3
 72
    10
 73
     6
 74
     0
 42
0.000000000095792
 43
0.0000000001
 40
0.0
 40
0.0
 40
0.0
 40
0.0
 40
0.0625000000000001
 40
0.0625000000000001
 40
0.1002186946576247
 40
0.1002186946576247
 40
0.1002186946576247
 40
0.1002186946576247
 10
29.52314147991383
 20
149.3044447390766
 30
0.0
 10
29.89443597979751
 20
147.160422439213
 30
0.0
 10
30.27319832231897
 20
145.017576899665
 30
0.0
 10
30.88998869702656
 20
141.5821867309315
 30
0.0
 10
31.12308847195747
 20
140.2904959450947
 30
0.0
 10
31.35499467111485
 20
139.0039883110548
 30
0.0
  0
SPLINE
  5
B1
330
9D
100
AcDbEntity
  8
$DDT_AUDIT_GENERATED_(7D)
  6
Continuous
 62
     7
100
AcDbSpline
210
0.0
220
0.0
230
1.0
 70
     8
 71
     3
 72
    30
 73
    26
 74
     0
 42
0.000000000152728
 43
0.0000000001
 40
0.0
 40
0.0
 40
0.0
 40
0.0
 40
0.125
 40
0.125
 40
0.2499999999999999
 40
0.2499999999999999
 40
0.3124999999999999
 40
0.3124999999999999
 40
0.3749999999999999
 40
0.3749999999999999
 40
0.4374999999999999
 40
0.4374999999999999
 40
0.4999999999999999
 40
0.4999999999999999
 40
0.5624999999999999
 40
0.5624999999999999
 40
0.6249999999999999
 40
0.6249999999999999
 40
0.6874999999999999
 40
0.6874999999999999
 40
0.7499999999999998
 40
0.7499999999999998
 40
0.8749999999999999
 40
0.8749999999999999
 40
1.0
 40
1.0
 40
1.0
 40
1.0
 10
80.95668954190563
 20
148.7578222759792
 30
0.0
 10
80.52485016180219
 20
146.8631280253708
 30
0.0
 10
79.91342125096844
 20
145.0010056097111
 30
0.0
 10
77.60908294413683
 20
141.443592870262
 30
0.0
 10
75.9291494872639
 20
139.713344698691
 30
0.0
 10
72.7078704990646
 20
137.4278261804772
 30
0.0
 10
71.49850884741642
 20
136.708114602547
 30
0.0
 10
68.82037997380141
 20
135.4145000377949
 30
0.0
 10
67.37199549818217
 20
134.8480711553707
 30
0.0
 10
64.23080362778344
 20
133.8948418265112
 30
0.0
 10
62.53569167246266
 20
133.5117549255925
 30
0.0
 10
59.07352614972488
 20
132.9942239218637
 30
0.0
 10
57.25820828054401
 20
132.8521689451255
 30
0.0
 10
53.61144045197214
 20
132.8394171627315
 30
0.0
 10
51.81904127304134
 20
132.9650940163444
 30
0.0
 10
48.29294421356756
 20
133.467086311434
 30
0.0
 10
46.60435567526424
 20
133.8383266964402
 30
0.0
 10
43.4378538979137
 20
134.7758081007819
 30
0.0
 10
41.94976334319539
 20
135.3471522942792
 30
0.0
 10
39.26238452557724
 20
136.6242087072184
 30
0.0
 10
38.0352872316987
 20
137.3425042664875
 30
0.0
 10
34.76696434851824
 20
139.6306353797075
 30
0.0
 10
33.09744913147404
 20
141.3206845173455
 30
0.0
 10
30.7103347340952
 20
144.9477791104744
 30
0.0
 10
30.08670911526598
 20
146.8459352448462
 30
0.0
 10
29.65095110758213
 20
148.7578222777919
 30
0.0
  0
LINE
  5
B2
330
9D
100
AcDbEntity
  8
$DDT_AUDIT_GENERATED_(7D)
  6
Continuous
 62
     7
100
AcDbLine
 10
29.9565994482
 20
149.8218741629
 30
0.0
 11
30.0478881027
 21
149.8218741629
 31
0.0
  0
ELLIPSE
  5
B3
330
9D
100
AcDbEntity
  8
$DDT_AUDIT_GENERATED_(7D)
  6
Continuous
 62
     7
100
AcDbEllipse
 10
80.7889249975
 20
149.3554874319
 30
0.0
 11
0.2916432223117222
 21
-0.07031522509128035
 31
0.0
210
0.0
220
0.0
230
1.0
 40
0.9626545878
 41
0.0681180143253729
 42
1.798854651949778
  0
ELLIPSE
  5
B4
330
9D
100
AcDbEntity
  8
$DDT_AUDIT_GENERATED_(7D)
  6
Continuous
 62
     7
100
AcDbEllipse
 10
55.3038202881
 20
151.1773062272
 30
0.0
 11
-25.32402083906643
 21
-2.257841792903419E-12
 31
0.0
210
0.0
220
0.0
230
1.0
 40
0.5299192642
 41
0.1687672845641434
 42
0.4339314756577486
  0
LINE
  5
B5
330
9D
100
AcDbEntity
  8
$DDT_AUDIT_GENERATED_(7D)
  6
Continuous
 62
     7
100
AcDbLine
 10
30.0478881027
 20
149.8218741629
 30
0.0
 11
31.6518769349
 21
149.8218741629
 31
0.0
  0
LINE
  5
B6
330
9D
100
AcDbEntity
  8
$DDT_AUDIT_GENERATED_(7D)
  6
Continuous
 62
     7
100
AcDbLine
 10
78.9636057968
 20
149.8218741628
 30
0.0
 11
80.5597524735
 21
149.8218741628
 31
0.0
  0
ELLIPSE
  5
B7
330
9D
100
AcDbEntity
  8
$DDT_AUDIT_GENERATED_(7D)
  6
Continuous
 62
     7
100
AcDbEllipse
 10
55.3038202881
 20
151.1773062272
 30
0.0
 11
25.32402083906753
 21
-1.430154978484820E-13
 31
0.0
210
0.0
220
0.0
230
1.0
 40
0.5299192642
 41
5.782959969615177
 42
6.11441802260078
  0
SPLINE
  5
B8
330
9D
100
AcDbEntity
  8
$DDT_AUDIT_GENERATED_(7D)
  6
Continuous
 62
     7
100
AcDbSpline
210
0.0
220
0.0
230
1.0
 70
     8
 71
     3
 72
    10
 73
     6
 74
     0
 42
0.0000000581218121
 43
0.0000000001
 40
0.494609903357353
 40
0.494609903357353
 40
0.494609903357353
 40
0.494609903357353
 40
0.5
 40
0.5
 40
1.0
 40
1.0
 40
1.0
 40
1.0
 10
64.77599038721881
 20
138.7877005270551
 30
0.0
 10
64.77620476411396
 20
138.7877571955849
 30
0.0
 10
64.77641965637989
 20
138.7878118081396
 30
0.0
 10
64.79661658182533
 20
138.79273932842
 30
0.0
 10
64.8210734041775
 20
138.7792275349927
 30
0.0
 10
64.8452201830315
 20
138.7501717275482
 30
0.0
  0
ARC
  5
B9
330
9D
100
AcDbEntity
  8
$DDT_AUDIT_GENERATED_(7D)
  6
Continuous
 62
     7
100
AcDbCircle
 10
501.7201956066
 20
217.6373679071
 30
0.0
 40
476.8924167024325
100
AcDbArc
 50
189.490588627
 51
192.2068520983
  0
ARC
  5
BA
330
9D
100
AcDbEntity
  8
$DDT_AUDIT_GENERATED_(7D)
  6
Continuous
 62
     7
100
AcDbCircle
 10
-379.1453728728
 20
215.3210013166
 30
0.0
 40
464.706159595331
100
AcDbArc
 50
347.7607438632
 51
350.5379506739
  0
SPLINE
  5
BB
330
9D
100
AcDbEntity
  8
$DDT_AUDIT_GENERATED_(7D)
  6
Continuous
 62
     7
100
AcDbSpline
210
0.0
220
0.0
230
1.0
 70
     8
 71
     3
 72
    19
 73
    15
 74
     0
 42
0.0000000023922978
 43
0.0000000001
 40
0.0
 40
0.0
 40
0.0
 40
0.0
 40
0.0208444336461475
 40
0.1228834648852547
 40
0.2254089617110834
 40
0.3290356008706081
 40
0.433858117371085
 40
0.543212188282437
 40
0.657105998692462
 40
0.7662526230074002
 40
0.8422973683066048
 40
0.8978628382203218
 40
0.9539340130351622
 40
0.9794124863654845
 40
0.9794124863654845
 40
0.9794124863654845
 40
0.9794124863654845
 10
64.89547299180606
 20
104.7418683446476
 30
0.0
 10
64.93605352446161
 20
104.743455651126
 30
0.0
 10
65.14114732924557
 20
104.7515327058028
 30
0.0
 10
65.53949952068783
 20
104.7760677198971
 30
0.0
 10
66.0416330660514
 20
104.8140458124865
 30
0.0
 10
66.51768975441162
 20
104.8612839219217
 30
0.0
 10
66.96083160923651
 20
104.9167515067788
 30
0.0
 10
67.36833666964439
 20
104.9825783394481
 30
0.0
 10
67.73126372065578
 20
105.059658837444
 30
0.0
 10
68.03472003141592
 20
105.148725140458
 30
0.0
 10
68.29447178696502
 20
105.2573345646103
 30
0.0
 10
68.5153637562211
 20
105.3854837194401
 30
0.0
 10
68.68724280242603
 20
105.5166026923455
 30
0.0
 10
68.77291731868675
 20
105.6087740269886
 30
0.0
 10
68.80032658378516
 20
105.6399146228803
 30
0.0
  0
ARC
  5
BC
330
9D
100
AcDbEntity
  8
$DDT_AUDIT_GENERATED_(7D)
  6
Continuous
 62
     7
100
AcDbCircle
 10
72.5535733927
 20
130.079350924
 30
0.0
 40
39.25906704173577
100
AcDbArc
 50
199.8054122916
 51
218.2527002804
  0
ARC
  5
BD
330
9D
100
AcDbEntity
  8
$DDT_AUDIT_GENERATED_(7D)
  6
Continuous
 62
     7
100
AcDbCircle
 10
38.1268776138
 20
130.0163166058
 30
0.0
 40
39.16692556619174
100
AcDbArc
 50
321.7504569288
 51
340.2797572678
  0
ARC
  5
BE
330
9D
100
AcDbEntity
  8
$DDT_AUDIT_GENERATED_(7D)
  6
Continuous
 62
     7
100
AcDbCircle
 10
55.283118967
 20
326.6998623231
 30
0.0
 40
222.1679599366025
100
AcDbArc
 50
267.5310870312
 51
272.4792713191
  0
SPLINE
  5
BF
330
9D
100
AcDbEntity
  8
$DDT_AUDIT_GENERATED_(7D)
  6
Continuous
 62
     7
100
AcDbSpline
210
0.0
220
0.0
230
1.0
 70
     8
 71
     3
 72
    19
 73
    15
 74
     0
 42
0.0000000023943571
 43
0.0000000001
 40
0.0187670288865125
 40
0.0187670288865125
 40
0.0187670288865125
 40
0.0187670288865125
 40
0.0473217409998977
 40
0.0976882223928465
 40
0.1492252416623203
 40
0.2053915955383276
 40
0.2738642236052416
 40
0.3712748621628235
 40
0.4831149194155226
 40
0.58888206062096
 40
0.700011412617056
 40
0.8058377945824711
 40
0.9093342956093361
 40
1.0
 40
1.0
 40
1.0
 40
1.0
 10
41.80304722671703
 20
105.6433251000282
 30
0.0
 10
41.83423282129314
 20
105.6086112610191
 30
0.0
 10
41.91740438982503
 20
105.5207079289827
 30
0.0
 10
42.07935046707078
 20
105.3950284351247
 30
0.0
 10
42.26629608118956
 20
105.2829971764534
 30
0.0
 10
42.46199699788011
 20
105.1931469244255
 30
0.0
 10
42.69226364095342
 20
105.1116793834901
 30
0.0
 10
42.97817022512228
 20
105.036272866739
 30
0.0
 10
43.33162251368289
 20
104.9661190571127
 30
0.0
 10
43.75225458945117
 20
104.9022553636285
 30
0.0
 10
44.21342334557871
 20
104.8477191040364
 30
0.0
 10
44.71181269722561
 20
104.8019167300378
 30
0.0
 10
45.22193486737356
 20
104.7655869258737
 30
0.0
 10
45.53721755482538
 20
104.7500379488618
 30
0.0
 10
45.71147661152762
 20
104.741653294157
 30
0.0
  0
SPLINE
  5
C0
330
9D
100
AcDbEntity
  8
$DDT_AUDIT_GENERATED_(7D)
  6
Continuous
 62
     7
100
AcDbSpline
210
0.0
220
0.0
230
1.0
 70
     8
 71
     3
 72
    12
 73
     8
 74
     0
 42
0.0000000166407878
 43
0.0000000001
 40
0.0
 40
0.0
 40
0.0
 40
0.0
 40
0.053436843696772
 40
0.3096104634501574
 40
0.5744008158681526
 40
0.841530242108291
 40
1.0
 40
1.0
 40
1.0
 40
1.0
 10
29.95398767450725
 20
149.817180699783
 30
0.0
 10
29.94237388116197
 20
149.8188000259477
 30
0.0
 10
29.88504559693182
 20
149.8264863912302
 30
0.0
 10
29.75009631556813
 20
149.7792073103834
 30
0.0
 10
29.62721510265624
 20
149.6722536620323
 30
0.0
 10
29.56052486883353
 20
149.5575599870005
 30
0.0
 10
29.54316132171718
 20
149.4954706922629
 30
0.0
 10
29.53614616962037
 20
149.4680316998179
 30
0.0
  0
SPLINE
  5
C1
330
9D
100
AcDbEntity
  8
$DDT_AUDIT_GENERATED_(7D)
  6
Continuous
 62
     7
100
AcDbSpline
210
0.0
220
0.0
230
1.0
 70
     8
 71
     3
 72
    12
 73
     8
 74
     0
 42
0.0000000166128544
 43
0.0000000001
 40
0.0
 40
0.0
 40
0.0
 40
0.0
 40
0.050827033303459
 40
0.3522017215483543
 40
0.6159729795786579
 40
0.8720645658111104
 40
1.0
 40
1.0
 40
1.0
 40
1.0
 10
81.07445821651432
 20
149.4670133004712
 30
0.0
 10
81.0723214968062
 20
149.4757207819113
 30
0.0
 10
81.059226717201
 20
149.5273817568943
 30
0.0
 10
81.00941792123007
 20
149.6321351789485
 30
0.0
 10
80.89911669580637
 20
149.7523369981455
 30
0.0
 10
80.75693792106489
 20
149.8199419542419
 30
0.0
 10
80.68322322925201
 20
149.8158424970235
 30
0.0
 10
80.65399691242001
 20
149.8139375991709
 30
0.0
  0
ARC
  5
C2
330
9D
100
AcDbEntity
  8
$DDT_AUDIT_GENERATED_(7D)
  6
Continuous
 62
     7
100
AcDbCircle
 10
80.8863224889
 20
149.3758980064
 30
0.0
 40
0.2037019128163161
100
AcDbArc
 50
340.6968185128
 51
25.9246150112
  0
ARC
  5
C3
330
9D
100
AcDbEntity
  8
$DDT_AUDIT_GENERATED_(7D)
  6
Continuous
 62
     7
100
AcDbCircle
 10
60.339726533
 20
164.8169730158
 30
0.0
 40
26.40410376336007
100
AcDbArc
 50
279.6755203649
 51
310.6633756623
  0
ARC
  5
C4
330
9D
100
AcDbEntity
  8
$DDT_AUDIT_GENERATED_(7D)
  6
Continuous
 62
     7
100
AcDbCircle
 10
49.7388765334
 20
163.4289319669
 30
0.0
 40
24.94884482046144
100
AcDbArc
 50
225.6747804665
 51
260.9813351572
  0
ARC
  5
C5
330
9D
100
AcDbEntity
  8
$DDT_AUDIT_GENERATED_(7D)
  6
Continuous
 62
     7
100
AcDbCircle
 10
55.3021874436
 20
176.9047418146
 30
0.0
 40
39.27586438032029
100
AcDbArc
 50
256.0587130295
 51
283.9575137397
  0
ARC
  5
C6
330
9D
100
AcDbEntity
  8
$DDT_AUDIT_GENERATED_(7D)
  6
Continuous
 62
     7
100
AcDbCircle
 10
45.7655711307
 20
138.4950869489
 30
0.0
 40
0.3000000000000042
100
AcDbArc
 50
75.7232775739
 51
77.9911037338
  0
LINE
  5
C7
330
9D
100
AcDbEntity
  8
$DDT_AUDIT_GENERATED_(98)
  6
Continuous
 62
     7
100
AcDbLine
 10
29.8596912812
 20
151.8283798349
 30
0.0
 11
80.747949295
 21
151.8283798349
 31
0.0
  0
LINE
  5
C8
330
9D
100
AcDbEntity
  8
$DDT_AUDIT_GENERATED_(98)
  6
Continuous
 62
     7
100
AcDbLine
 10
51.3401601145
 20
137.8283798349
 30
0.0
 11
59.3092663555
 21
137.8283798349
 31
0.0
  0
ARC
  5
C9
330
9D
100
AcDbEntity
  8
$DDT_AUDIT_GENERATED_(98)
  6
Continuous
 62
     7
100
AcDbCircle
 10
55.3038202881
 20
157.8283798349
 30
0.0
 40
25.00000000000011
100
AcDbArc
 50
193.8865403626
 51
216.0420865406
  0
ARC
  5
CA
330
9D
100
AcDbEntity
  8
$DDT_AUDIT_GENERATED_(98)
  6
Continuous
 62
     7
100
AcDbCircle
 10
55.3038202881
 20
157.8283798349
 30
0.0
 40
25.00000000000005
100
AcDbArc
 50
323.9108670772
 51
346.1134596374
  0
LINE
  5
CB
330
9D
100
AcDbEntity
  8
$DDT_AUDIT_GENERATED_(98)
  6
Continuous
 62
     7
100
AcDbLine
 10
29.1960604679
 20
171.0773942326
 30
0.0
 11
29.3597103177
 21
152.324016791
 31
0.0
  0
LINE
  5
CC
330
9D
100
AcDbEntity
  8
$DDT_AUDIT_GENERATED_(98)
  6
Continuous
 62
     7
100
AcDbLine
 10
81.2479302585
 20
152.324016791
 30
0.0
 11
81.4115801083
 21
171.0773942326
 31
0.0
  0
ARC
  5
CD
330
9D
100
AcDbEntity
  8
$DDT_AUDIT_GENERATED_(98)
  6
Continuous
 62
     7
100
AcDbCircle
 10
80.747949295
 20
152.3283798349
 30
0.0
 40
0.5000000000000004
100
AcDbArc
 50
270.0
 51
359.5000256491
  0
ARC
  5
CE
330
9D
100
AcDbEntity
  8
$DDT_AUDIT_GENERATED_(98)
  6
Continuous
 62
     7
100
AcDbCircle
 10
29.8596912812
 20
152.3283798349
 30
0.0
 40
0.5000000000000033
100
AcDbArc
 50
180.4999743509
 51
270.0
  0
ENDBLK
  5
D0
330
9D
100
AcDbEntity
  8
0
100
AcDbBlockEnd
  0
BLOCK
  5
101
330
D1
100
AcDbEntity
  8
0
100
AcDbBlockBegin
  2
SE2
 70
     0
 10
0.0
 20
0.0
 30
0.0
  3
SE2
  1

  0
LINE
  5
D3
330
D1
100
AcDbEntity
  8
$DDT_AUDIT_GENERATED_(77)
  6
Continuous
 62
     7
100
AcDbLine
 10
197.7568076274
 20
309.2043672774
 30
0.0
 11
197.7568076274
 21
369.2043672774
 31
0.0
  0
LINE
  5
D4
330
D1
100
AcDbEntity
  8
$DDT_AUDIT_GENERATED_(77)
  6
Continuous
 62
     7
100
AcDbLine
 10
197.7568076274
 20
309.2043672774
 30
0.0
 11
199.2110509762
 21
313.0966068287
 31
0.0
  0
LINE
  5
D5
330
D1
100
AcDbEntity
  8
$DDT_AUDIT_GENERATED_(77)
  6
Continuous
 62
     7
100
AcDbLine
 10
199.2110514458
 20
365.3121264692
 30
0.0
 11
197.7568076274
 21
369.2043672774
 31
0.0
  0
LINE
  5
D6
330
D1
100
AcDbEntity
  8
$DDT_AUDIT_GENERATED_(77)
  6
Continuous
 62
     7
100
AcDbLine
 10
197.7568076274
 20
369.2043672774
 30
0.0
 11
197.4568076274
 21
369.2043672774
 31
0.0
  0
LINE
  5
D7
330
D1
100
AcDbEntity
  8
$DDT_AUDIT_GENERATED_(77)
  6
Continuous
 62
     7
100
AcDbLine
 10
197.4568076274
 20
309.2043672774
 30
0.0
 11
197.7568076274
 21
309.2043672774
 31
0.0
  0
LINE
  5
D8
330
D1
100
AcDbEntity
  8
$DDT_AUDIT_GENERATED_(7A)
  6
Continuous
 62
     7
100
AcDbLine
 10
187.4568076274
 20
286.7043672774
 30
0.0
 11
187.4568076274
 21
391.7043672774
 31
0.0
  0
LINE
  5
D9
330
D1
100
AcDbEntity
  8
$DDT_AUDIT_GENERATED_(7A)
  6
Continuous
 62
     7
100
AcDbLine
 10
197.4568076274
 20
288.2043672774
 30
0.0
 11
197.4568076274
 21
390.2043672774
 31
0.0
  0
LINE
  5
DA
330
D1
100
AcDbEntity
  8
$DDT_AUDIT_GENERATED_(7A)
  6
Continuous
 62
     7
100
AcDbLine
 10
195.9568076274
 20
391.7043672774
 30
0.0
 11
187.4568076274
 21
391.7043672774
 31
0.0
  0
LINE
  5
DB
330
D1
100
AcDbEntity
  8
$DDT_AUDIT_GENERATED_(7A)
  6
Continuous
 62
     7
100
AcDbLine
 10
187.4568076274
 20
286.7043672774
 30
0.0
 11
195.9568076274
 21
286.7043672774
 31
0.0
  0
ARC
  5
DC
330
D1
100
AcDbEntity
  8
$DDT_AUDIT_GENERATED_(7A)
  6
Continuous
 62
     7
100
AcDbCircle
 10
195.9568076274
 20
288.2043672774
 30
0.0
 40
1.500000000000001
100
AcDbArc
 50
270.0
 51
0.0
  0
ARC
  5
DD
330
D1
100
AcDbEntity
  8
$DDT_AUDIT_GENERATED_(7A)
  6
Continuous
 62
     7
100
AcDbCircle
 10
195.9568076274
 20
390.2043672774
 30
0.0
 40
1.500000000000001
100
AcDbArc
 50
0.0
 51
90.0
  0
LINE
  5
DF
330
D1
100
AcDbEntity
  8
$DDT_AUDIT_GENERATED_(DE)
  6
Continuous
 62
     7
100
AcDbLine
 10
237.094702582
 20
313.1184991459
 30
0.0
 11
231.379023858
 21
312.9688288312
 31
0.0
  0
LINE
  5
E0
330
D1
100
AcDbEntity
  8
$DDT_AUDIT_GENERATED_(DE)
  6
Continuous
 62
     7
100
AcDbLine
 10
238.8226522939
 20
312.6635757053
 30
0.0
 11
231.1483296048
 21
312.4626164933
 31
0.0
  0
LINE
  5
E1
330
D1
100
AcDbEntity
  8
$DDT_AUDIT_GENERATED_(DE)
  6
Continuous
 62
     7
100
AcDbLine
 10
231.379023858
 20
312.9688288312
 30
0.0
 11
231.1483296048
 21
312.4626164933
 31
0.0
  0
LINE
  5
E2
330
D1
100
AcDbEntity
  8
$DDT_AUDIT_GENERATED_(DE)
  6
Continuous
 62
     7
100
AcDbLine
 10
238.8226522939
 20
312.6635757053
 30
0.0
 11
238.8444474436
 21
312.7114007964
 31
0.0
  0
LINE
  5
E3
330
D1
100
AcDbEntity
  8
$DDT_AUDIT_GENERATED_(DE)
  6
Continuous
 62
     7
100
AcDbLine
 10
231.69926825
 20
313.1892568114
 30
0.0
 11
231.6014679939
 21
312.9746537358
 31
0.0
  0
SPLINE
  5
E4
330
D1
100
AcDbEntity
  8
$DDT_AUDIT_GENERATED_(7D)
  6
Continuous
 62
     7
100
AcDbSpline
210
0.0
220
0.0
230
1.0
 70
     8
 71
     3
 72
     8
 73
     4
 74
     0
 42
0.0000000023488415
 43
0.0000000001
 40
0.5007463757931392
 40
0.5007463757931392
 40
0.5007463757931392
 40
0.5007463757931392
 40
0.5009812599421433
 40
0.5009812599421433
 40
0.5009812599421433
 40
0.5009812599421433
 10
253.2820257054621
 20
360.9509027982681
 30
0.0
 10
253.2820296044676
 20
360.9509596515486
 30
0.0
 10
253.2820309251399
 20
360.9509879071857
 30
0.0
 10
253.2820296757379
 20
360.950987593209
 30
0.0
  0
SPLINE
  5
E5
330
D1
100
AcDbEntity
  8
$DDT_AUDIT_GENERATED_(7D)
  6
Continuous
 62
     7
100
AcDbSpline
210
0.0
220
0.0
230
1.0
 70
     8
 71
     3
 72
    26
 73
    22
 74
     0
 42
0.0000000000472305
 43
0.0000000001
 40
0.5009812599421433
 40
0.5009812599421433
 40
0.5009812599421433
 40
0.5009812599421433
 40
0.53125
 40
0.53125
 40
0.546875
 40
0.546875
 40
0.5625
 40
0.5625
 40
0.59375
 40
0.59375
 40
0.625
 40
0.625
 40
0.65625
 40
0.65625
 40
0.6875
 40
0.6875
 40
0.75
 40
0.75
 40
0.875
 40
0.875
 40
0.9746422368180248
 40
0.9746422368180248
 40
0.9746422368180248
 40
0.9746422368180248
 10
253.2820296757379
 20
360.950987593209
 30
0.0
 10
253.2818686694499
 20
360.9509471320736
 30
0.0
 10
253.2390274138576
 20
360.4764619287911
 30
0.0
 10
253.1361569885714
 20
359.1286346074347
 30
0.0
 10
253.0956290952124
 20
358.5669857347778
 30
0.0
 10
253.0184709203909
 20
357.228354134859
 30
0.0
 10
252.9822769518388
 20
356.4478807795266
 30
0.0
 10
252.9167172345758
 20
353.8668652797774
 30
0.0
 10
252.9376239098373
 20
351.7340858292705
 30
0.0
 10
253.1779125154822
 20
347.2067808656307
 30
0.0
 10
253.3936206593137
 20
344.7810053463085
 30
0.0
 10
253.9349604068272
 20
339.9702471462822
 30
0.0
 10
254.2591994164684
 20
337.5470254916841
 30
0.0
 10
254.9324773214734
 20
332.714860329115
 30
0.0
 10
255.2819698273664
 20
330.3040913011887
 30
0.0
 10
256.3306228986177
 20
323.0739514125651
 30
0.0
 10
257.0308557009229
 20
318.2570458740299
 30
0.0
 10
259.0837682587476
 20
303.800358054866
 30
0.0
 10
260.3962281175769
 20
294.1555929949981
 30
0.0
 10
262.6243971275312
 20
276.8144948585809
 30
0.0
 10
263.5670863578866
 20
269.1226804278761
 30
0.0
 10
264.4521175943075
 20
261.4261244101096
 30
0.0
  0
SPLINE
  5
E6
330
D1
100
AcDbEntity
  8
$DDT_AUDIT_GENERATED_(7D)
  6
Continuous
 62
     7
100
AcDbSpline
210
0.0
220
0.0
230
1.0
 70
     8
 71
     3
 72
     8
 73
     4
 74
     0
 42
0.0000000000428741
 43
0.0000000001
 40
0.9746422368180248
 40
0.9746422368180248
 40
0.9746422368180248
 40
0.9746422368180248
 40
1.0
 40
1.0
 40
1.0
 40
1.0
 10
264.4521175943075
 20
261.4261244101096
 30
0.0
 10
264.6773475090354
 20
259.4674425192989
 30
0.0
 10
264.8988432504154
 20
257.5084535434369
 30
0.0
 10
265.1164066866383
 20
255.5490793764461
 30
0.0
  0
SPLINE
  5
E7
330
D1
100
AcDbEntity
  8
$DDT_AUDIT_GENERATED_(7D)
  6
Continuous
 62
     7
100
AcDbSpline
210
0.0
220
0.0
230
1.0
 70
     8
 71
     3
 72
    14
 73
    10
 74
     0
 42
0.0000000000960852
 43
0.0000000001
 40
0.0
 40
0.0
 40
0.0
 40
0.0
 40
0.1249999999999999
 40
0.1249999999999999
 40
0.2499999999999998
 40
0.2499999999999998
 40
0.3749999999999999
 40
0.3749999999999999
 40
0.4367556748662801
 40
0.4367556748662801
 40
0.4367556748662801
 40
0.4367556748662801
 10
262.002051723515
 20
255.1193700824761
 30
0.0
 10
261.310415596604
 20
259.3984042867076
 30
0.0
 10
260.6203166278253
 20
263.6774244497244
 30
0.0
 10
259.2642574776726
 20
272.2440483199157
 30
0.0
 10
258.593557407363
 20
276.530100600918
 30
0.0
 10
257.2193091669394
 20
285.0971011180611
 30
0.0
 10
256.5167496815687
 20
289.3783100008487
 30
0.0
 10
255.3775887268343
 20
295.7558147215871
 30
0.0
 10
254.9843952098863
 20
297.8609687060338
 30
0.0
 10
254.571884343601
 20
299.9604913416713
 30
0.0
  0
SPLINE
  5
E8
330
D1
100
AcDbEntity
  8
$DDT_AUDIT_GENERATED_(7D)
  6
Continuous
 62
     7
100
AcDbSpline
210
0.0
220
0.0
230
1.0
 70
     8
 71
     3
 72
    30
 73
    26
 74
     0
 42
0.0000000000968903
 43
0.0000000001
 40
0.4367556748662801
 40
0.4367556748662801
 40
0.4367556748662801
 40
0.4367556748662801
 40
0.5000000000000001
 40
0.5000000000000001
 40
0.5625000000000001
 40
0.5625000000000001
 40
0.625
 40
0.625
 40
0.6875
 40
0.6875
 40
0.71875
 40
0.71875
 40
0.7499999999999999
 40
0.7499999999999999
 40
0.7812499999999999
 40
0.7812499999999999
 40
0.8124999999999999
 40
0.8124999999999999
 40
0.8437499999999999
 40
0.8437499999999999
 40
0.8749999999999999
 40
0.8749999999999999
 40
0.9374999999999999
 40
0.9374999999999999
 40
1.0
 40
1.0
 40
1.0
 40
1.0
 10
254.571884343601
 20
299.9604913416713
 30
0.0
 10
254.1494297043306
 20
302.1106239810019
 30
0.0
 10
253.7067151829013
 20
304.2548505065444
 30
0.0
 10
252.7801986552289
 20
308.502277082121
 30
0.0
 10
252.2989706988982
 20
310.6062776462744
 30
0.0
 10
251.3108778372228
 20
314.8022669023309
 30
0.0
 10
250.8067746295012
 20
316.8960640064108
 30
0.0
 10
249.6850283100711
 20
321.0603755371424
 30
0.0
 10
249.0581962642414
 20
323.1303848155371
 30
0.0
 10
247.8505135934911
 20
326.1148496041598
 30
0.0
 10
247.401472288014
 20
327.089788278344
 30
0.0
 10
246.3585607174105
 20
328.9762954509954
 30
0.0
 10
245.758861340172
 20
329.8932170395376
 30
0.0
 10
244.3918597968995
 20
331.5553578492384
 30
0.0
 10
243.6110710209284
 20
332.3142059123849
 30
0.0
 10
241.878387247263
 20
333.6045977705982
 30
0.0
 10
240.9455704508771
 20
334.1245377100999
 30
0.0
 10
238.9724402843256
 20
334.9601249365772
 30
0.0
 10
237.9297449865459
 20
335.2757671298667
 30
0.0
 10
235.8489789142042
 20
335.7504847275811
 30
0.0
 10
234.799357554619
 20
335.9152651232303
 30
0.0
 10
231.6347595002062
 20
336.2814153805256
 30
0.0
 10
229.5029991059448
 20
336.35757492175
 30
0.0
 10
225.2323300164394
 20
336.4064391047277
 30
0.0
 10
223.0966565408179
 20
336.3619063853423
 30
0.0
 10
220.9598507327924
 20
336.3005849265792
 30
0.0
  0
LINE
  5
E9
330
D1
100
AcDbEntity
  8
$DDT_AUDIT_GENERATED_(7D)
  6
Continuous
 62
     7
100
AcDbLine
 10
220.4665712808
 20
335.1912013086
 30
0.0
 11
220.4665712807
 21
313.3945144458
 31
0.0
  0
LINE
  5
EA
330
D1
100
AcDbEntity
  8
$DDT_AUDIT_GENERATED_(7D)
  6
Continuous
 62
     7
100
AcDbLine
 10
221.2263307999
 20
337.840797629
 30
0.0
 11
237.1700398201
 21
363.3560656949
 31
0.0
  0
ARC
  5
EB
330
D1
100
AcDbEntity
  8
$DDT_AUDIT_GENERATED_(7D)
  6
Continuous
 62
     7
100
AcDbCircle
 10
225.4665712807
 20
335.1912013078
 30
0.0
 40
4.999999999997826
100
AcDbArc
 50
148.0
 51
164.3567121645
  0
ARC
  5
EC
330
D1
100
AcDbEntity
  8
$DDT_AUDIT_GENERATED_(7D)
  6
Continuous
 62
     7
100
AcDbCircle
 10
225.4665712807
 20
335.1912013078
 30
0.0
 40
4.999999999997826
100
AcDbArc
 50
167.0577358379
 51
180.0
  0
ARC
  5
ED
330
D1
100
AcDbEntity
  8
$DDT_AUDIT_GENERATED_(7D)
  6
Continuous
 62
     7
100
AcDbCircle
 10
234.1289230651
 20
296.7532584616
 30
0.0
 40
16.61747811933273
100
AcDbArc
 50
79.7014537017
 51
98.4024157985
  0
ARC
  5
EE
330
D1
100
AcDbEntity
  8
$DDT_AUDIT_GENERATED_(7D)
  6
Continuous
 62
     7
100
AcDbCircle
 10
221.3649912882
 20
94.5703832181
 30
0.0
 40
269.4046648175266
100
AcDbArc
 50
83.4798920241
 51
86.582196606
  0
ARC
  5
EF
330
D1
100
AcDbEntity
  8
$DDT_AUDIT_GENERATED_(7D)
  6
Continuous
 62
     7
100
AcDbCircle
 10
-2034.5023860622
 20
44.7687373179
 30
0.0
 40
2309.527942626898
100
AcDbArc
 50
5.1374481337
 51
7.868668939
  0
SPLINE
  5
F0
330
D1
100
AcDbEntity
  8
$DDT_AUDIT_GENERATED_(7D)
  6
Continuous
 62
     7
100
AcDbSpline
210
0.0
220
0.0
230
1.0
 70
     8
 71
     3
 72
    27
 73
    23
 74
     0
 42
0.0000000003909142
 43
0.0000000001
 40
0.0073600255776279
 40
0.0073600255776279
 40
0.0073600255776279
 40
0.0073600255776279
 40
0.0570662447753894
 40
0.1171669084868432
 40
0.1693278163330187
 40
0.2146178061018775
 40
0.2538905141984878
 40
0.2878005638629131
 40
0.3220742351968346
 40
0.350001235402476
 40
0.381895458421702
 40
0.4239585522354284
 40
0.4767234232404548
 40
0.5157328572022469
 40
0.5600470241122224
 40
0.6104817540974165
 40
0.6680965305498849
 40
0.7202319002527802
 40
0.7785748622824452
 40
0.8439985678309773
 40
0.9174617146426387
 40
1.0
 40
1.0
 40
1.0
 40
1.0
 10
238.8447588035498
 20
312.7137659306948
 30
0.0
 10
239.2898256424908
 20
312.6551742580257
 30
0.0
 10
240.1554942076305
 20
312.5352034271315
 30
0.0
 10
241.5397003100349
 20
312.2655951550236
 30
0.0
 10
242.8367860154395
 20
311.940375397153
 30
0.0
 10
243.9512518126205
 20
311.5908424625286
 30
0.0
 10
244.8959908326197
 20
311.2323733751324
 30
0.0
 10
245.7332158764234
 20
310.8587886006601
 30
0.0
 10
246.4614510267208
 20
310.4817891551587
 30
0.0
 10
247.1522366436322
 20
310.0729851543632
 30
0.0
 10
247.8740223291084
 20
309.588519178894
 30
0.0
 10
248.726363027218
 20
308.9223950516577
 30
0.0
 10
249.557766220145
 20
308.1375246988947
 30
0.0
 10
250.3305690314788
 20
307.2707177644671
 30
0.0
 10
251.0262522029851
 20
306.3655462060381
 30
0.0
 10
251.7395144160768
 20
305.2782687426338
 30
0.0
 10
252.4032661448404
 20
304.0829874134481
 30
0.0
 10
253.0201529269679
 20
302.7889619581316
 30
0.0
 10
253.5946598979087
 20
301.40080790306
 30
0.0
 10
254.1604903514342
 20
299.8250033715576
 30
0.0
 10
254.7332391269506
 20
297.9879622935983
 30
0.0
 10
255.0492102270657
 20
296.7982046304116
 30
0.0
 10
255.2452353134408
 20
296.0492573366254
 30
0.0
  0
SPLINE
  5
F1
330
D1
100
AcDbEntity
  8
$DDT_AUDIT_GENERATED_(7D)
  6
Continuous
 62
     7
100
AcDbSpline
210
0.0
220
0.0
230
1.0
 70
     8
 71
     3
 72
    12
 73
     8
 74
     0
 42
0.0000000009122142
 43
0.0000000001
 40
0.0
 40
0.0
 40
0.0
 40
0.0
 40
0.2034072993059185
 40
0.4455693133840836
 40
0.6650424960337209
 40
0.8639318695832463
 40
1.0
 40
1.0
 40
1.0
 40
1.0
 10
220.7743342832686
 20
313.0934133641701
 30
0.0
 10
221.5916592466447
 20
313.1141066401393
 30
0.0
 10
223.102581413196
 20
313.1514496418271
 30
0.0
 10
225.5891568613672
 20
313.1972740589009
 30
0.0
 10
227.9739561427349
 20
313.220656285169
 30
0.0
 10
230.0488233147891
 20
313.2205949250589
 30
0.0
 10
231.188291083375
 20
313.1992153564124
 30
0.0
 10
231.7351094123168
 20
313.188670609693
 30
0.0
  0
SPLINE
  5
F2
330
D1
100
AcDbEntity
  8
$DDT_AUDIT_GENERATED_(7D)
  6
Continuous
 62
     7
100
AcDbSpline
210
0.0
220
0.0
230
1.0
 70
     8
 71
     3
 72
     8
 73
     4
 74
     0
 42
0.0000000004991813
 43
0.0000000001
 40
0.1679499195804915
 40
0.1679499195804915
 40
0.1679499195804915
 40
0.1679499195804915
 40
1.0
 40
1.0
 40
1.0
 40
1.0
 10
260.0633385247145
 20
267.1866559854516
 30
0.0
 10
260.8783596905135
 20
261.5865905779404
 30
0.0
 10
261.6967312531405
 20
256.0911138037077
 30
0.0
 10
262.5184532125954
 20
250.7002256627534
 30
0.0
  0
ARC
  5
F3
330
D1
100
AcDbEntity
  8
$DDT_AUDIT_GENERATED_(7D)
  6
Continuous
 62
     7
100
AcDbCircle
 10
228.5014201745
 20
289.1539384441
 30
0.0
 40
27.61841904979367
100
AcDbArc
 50
9.7823937242
 51
14.4576172489
  0
LINE
  5
F4
330
D1
100
AcDbEntity
  8
$DDT_AUDIT_GENERATED_(7D)
  6
Continuous
 62
     7
100
AcDbLine
 10
263.6224027263
 20
249.844707021
 30
0.0
 11
264.4455533506
 21
249.9457768774
 31
0.0
  0
ARC
  5
F5
330
D1
100
AcDbEntity
  8
$DDT_AUDIT_GENERATED_(7D)
  6
Continuous
 62
     7
100
AcDbCircle
 10
251.820898552
 20
360.7577532307
 30
0.0
 40
1.471319744064692
100
AcDbArc
 50
7.4698963394
 51
84.753860763
  0
ARC
  5
F6
330
D1
100
AcDbEntity
  8
$DDT_AUDIT_GENERATED_(7D)
  6
Continuous
 62
     7
100
AcDbCircle
 10
264.2561692723
 20
251.4337880819
 30
0.0
 40
1.500000000000162
100
AcDbArc
 50
276.9737756329
 51
5.4744684188
  0
ARC
  5
F7
330
D1
100
AcDbEntity
  8
$DDT_AUDIT_GENERATED_(7D)
  6
Continuous
 62
     7
100
AcDbCircle
 10
263.5043466176
 20
250.8324628345
 30
0.0
 40
0.9917908203453635
100
AcDbArc
 50
184.8556829654
 51
277.4181143949
  0
ARC
  5
F8
330
D1
100
AcDbEntity
  8
$DDT_AUDIT_GENERATED_(7D)
  6
Continuous
 62
     7
100
AcDbCircle
 10
220.7665712807
 20
313.3945131696
 30
0.0
 40
0.299999999965625
100
AcDbArc
 50
180.0000202139
 51
271.6179327304
  0
ARC
  5
F9
330
D1
100
AcDbEntity
  8
$DDT_AUDIT_GENERATED_(7D)
  6
Continuous
 62
     7
100
AcDbCircle
 10
237.4244519775
 20
363.1970863449
 30
0.0
 40
0.2999999659477069
100
AcDbArc
 50
90.1293826602
 51
148.0007834096
  0
LINE
  5
FA
330
D1
100
AcDbEntity
  8
$DDT_AUDIT_GENERATED_(98)
  6
Continuous
 62
     7
100
AcDbLine
 10
218.4600656087
 20
313.760237644
 30
0.0
 11
218.4600656087
 21
364.6484956579
 31
0.0
  0
ARC
  5
FB
330
D1
100
AcDbEntity
  8
$DDT_AUDIT_GENERATED_(98)
  6
Continuous
 62
     7
100
AcDbCircle
 10
212.4600656087
 20
339.204366651
 30
0.0
 40
25.00000000000001
100
AcDbArc
 50
283.8865403626
 51
288.6930126568
  0
ARC
  5
FC
330
D1
100
AcDbEntity
  8
$DDT_AUDIT_GENERATED_(98)
  6
Continuous
 62
     7
100
AcDbCircle
 10
212.4600656087
 20
339.204366651
 30
0.0
 40
25.00000000000005
100
AcDbArc
 50
38.9237474804
 51
76.1134596374
  0
LINE
  5
FD
330
D1
100
AcDbEntity
  8
$DDT_AUDIT_GENERATED_(98)
  6
Continuous
 62
     7
100
AcDbLine
 10
199.2110509762
 20
313.0966068287
 30
0.0
 11
217.9644286526
 21
313.2602566806
 31
0.0
  0
LINE
  5
FE
330
D1
100
AcDbEntity
  8
$DDT_AUDIT_GENERATED_(98)
  6
Continuous
 62
     7
100
AcDbLine
 10
217.9644286526
 20
365.1484766214
 30
0.0
 11
199.2110514458
 21
365.3121264692
 31
0.0
  0
ARC
  5
FF
330
D1
100
AcDbEntity
  8
$DDT_AUDIT_GENERATED_(98)
  6
Continuous
 62
     7
100
AcDbCircle
 10
217.9600656087
 20
364.6484956579
 30
0.0
 40
0.5000000000000004
100
AcDbArc
 50
0.0
 51
89.5000256491
  0
ARC
  5
100
330
D1
100
AcDbEntity
  8
$DDT_AUDIT_GENERATED_(98)
  6
Continuous
 62
     7
100
AcDbCircle
 10
217.9600656087
 20
313.760237644
 30
0.0
 40
0.5000000000000033
100
AcDbArc
 50
270.4999743509
 51
0.0
  0
ENDBLK
  5
102
330
D1
100
AcDbEntity
  8
0
100
AcDbBlockEnd
  0
ENDSEC
  0
SECTION
  2
ENTITIES
  0
INSERT
  5
5F
330
1F
100
AcDbEntity
  8
Default
100
AcDbBlockReference
  2
SEANNOT_GROUP
 10
0.0
 20
0.0
 30
0.0
  0
INSERT
  5
6A
330
1F
100
AcDbEntity
  8
Default
100
AcDbBlockReference
  2
SEANNOT_GROUP1
 10
0.0
 20
0.0
 30
0.0
  0
INSERT
  5
70
330
1F
100
AcDbEntity
  8
Default
100
AcDbBlockReference
  2
SEANNOT_GROUP2
 10
0.0
 20
0.0
 30
0.0
  0
INSERT
  5
76
330
1F
100
AcDbEntity
  8
Default
100
AcDbBlockReference
  2
SE
 10
0.0
 20
0.0
 30
0.0
  0
INSERT
  5
9E
330
1F
100
AcDbEntity
  8
Default
100
AcDbBlockReference
  2
SE1
 10
0.0
 20
0.0
 30
0.0
  0
INSERT
  5
D2
330
1F
100
AcDbEntity
  8
Default
100
AcDbBlockReference
  2
SE2
 10
0.0
 20
0.0
 30
0.0
  0
TEXT
  5
104
330
1F
100
AcDbEntity
  8
Default
  6
Continuous
 62
     7
100
AcDbText
 10
5.9362635081
 20
53.4225120485
 30
0.0
 40
10.0
  1
Grohe AG^J
  7
SEACAD_seiso_ttf
 11
5.9362635081
 21
63.4225120485
 31
0.0
100
AcDbText
 73
     3
  0
TEXT
  5
105
330
1F
100
AcDbEntity
  8
Default
  6
Continuous
 62
     7
100
AcDbText
 10
5.9362635081
 20
37.0588756849
 30
0.0
 40
10.0
  1
 
  7
SEACAD_seiso_ttf
 11
5.9362635081
 21
47.0588756849
 31
0.0
100
AcDbText
 73
     3
  0
TEXT
  5
106
330
1F
100
AcDbEntity
  8
Default
  6
Continuous
 62
     7
100
AcDbText
 10
5.9362635081
 20
20.6952393213
 30
0.0
 40
10.0
  1
ecn: 
  7
SEACAD_seiso_ttf
 11
5.9362635081
 21
30.6952393213
 31
0.0
100
AcDbText
 73
     3
  0
TEXT
  5
107
330
1F
100
AcDbEntity
  8
Default
  6
Continuous
 62
     7
100
AcDbText
 10
5.9362635081
 20
4.3316029576
 30
0.0
 40
10.0
  1
unit: mm
  7
SEACAD_seiso_ttf
 11
5.9362635081
 21
14.3316029576
 31
0.0
100
AcDbText
 73
     3
  0
LINE
  5
108
330
1F
100
AcDbEntity
  8
Default
  6
Continuous
 62
     7
100
AcDbLine
 10
0.0
 20
0.0
 30
0.0
 11
100.0
 21
0.0
 31
0.0
  0
LINE
  5
109
330
1F
100
AcDbEntity
  8
Default
  6
Continuous
 62
     7
100
AcDbLine
 10
0.0
 20
0.0
 30
0.0
 11
0.0
 21
100.0
 31
0.0
  0
TEXT
  5
10A
330
1F
100
AcDbEntity
  8
Default
  6
Continuous
 62
     7
100
AcDbText
 10
24.3923665681
 20
-18.2375342018
 30
0.0
 40
10.0
  1
100 mm
  7
SEACAD_seiso_ttf
 11
24.3923665681
 21
-8.2375342018
 31
0.0
100
AcDbText
 73
     3
  0
TEXT
  5
10B
330
1F
100
AcDbEntity
  8
Default
  6
Continuous
 62
     7
100
AcDbText
 10
-7.6150308803
 20
24.6231930421
 30
0.0
 40
10.0
  1
100 mm
 50
90.0
  7
SEACAD_seiso_ttf
 11
-17.6150308803
 21
24.6231930421
 31
0.0
100
AcDbText
 73
     3
  0
TEXT
  5
10C
330
1F
100
AcDbEntity
  8
Default
  6
Continuous
 62
     7
100
AcDbText
 10
28.4878128572
 20
20.0907663715
 30
0.0
 40
10.0
  1
218500
  7
SEACAD_seiso_ttf
 11
28.4878128572
 21
30.0907663715
 31
0.0
100
AcDbText
 73
     3
  0
TEXT
  5
10D
330
1F
100
AcDbEntity
  8
Default
  6
Continuous
 62
     7
100
AcDbText
 10
5.9012241913
 20
36.7242780188
 30
0.0
 40
10.0
  1
29046000
  7
SEACAD_seiso_ttf
 11
5.9012241913
 21
46.7242780188
 31
0.0
100
AcDbText
 73
     3
  0
ENDSEC
  0
SECTION
  2
OBJECTS
  0
DICTIONARY
  5
C
330
0
100
AcDbDictionary
281
     1
  3
ACAD_GROUP
350
D
  3
ACAD_LAYOUT
350
1A
  3
ACAD_MLEADERSTYLE
350
111
  3
ACAD_MLINESTYLE
350
17
  3
ACAD_PLOTSETTINGS
350
19
  3
ACAD_PLOTSTYLENAME
350
E
  3
ACAD_SCALELIST
350
3B
  3
ACAD_TABLESTYLE
350
110
  3
ACAD_VISUALSTYLE
350
2A
  3
AcDbVariableDictionary
350
10E
  0
DICTIONARY
  5
D
102
{ACAD_REACTORS
330
C
102
}
330
C
100
AcDbDictionary
281
     1
  0
DICTIONARY
  5
1A
102
{ACAD_REACTORS
330
C
102
}
330
C
100
AcDbDictionary
281
     1
  3
Layout1
350
1E
  3
Model
350
22
  0
DICTIONARY
  5
111
102
{ACAD_REACTORS
330
C
102
}
330
C
100
AcDbDictionary
281
     1
  0
DICTIONARY
  5
17
102
{ACAD_REACTORS
330
C
102
}
330
C
100
AcDbDictionary
281
     1
  3
Standard
350
18
  0
DICTIONARY
  5
19
102
{ACAD_REACTORS
330
C
102
}
330
C
100
AcDbDictionary
281
     1
  0
ACDBDICTIONARYWDFLT
  5
E
102
{ACAD_REACTORS
330
C
102
}
330
C
100
AcDbDictionary
281
     1
  3
Normal
350
F
100
AcDbDictionaryWithDefault
340
F
  0
DICTIONARY
  5
3B
102
{ACAD_REACTORS
330
C
102
}
330
C
100
AcDbDictionary
281
     1
  3
A0
350
3C
  3
A1
350
3D
  3
A2
350
3E
  3
A3
350
3F
  3
A4
350
40
  3
A5
350
41
  3
A6
350
42
  3
A7
350
43
  3
A8
350
44
  3
A9
350
45
  3
B0
350
46
  3
B1
350
47
  3
B2
350
48
  3
B3
350
49
  3
B4
350
4A
  3
B5
350
4B
  3
B6
350
4C
  3
B7
350
4D
  3
B8
350
4E
  3
B9
350
4F
  3
C0
350
50
  3
C1
350
51
  3
C2
350
52
  3
C3
350
53
  3
C4
350
54
  3
C5
350
55
  3
C6
350
56
  3
C7
350
57
  3
C8
350
58
  3
C9
350
59
  3
D0
350
5A
  3
D1
350
5B
  3
D2
350
5C
  0
DICTIONARY
  5
110
102
{ACAD_REACTORS
330
C
102
}
330
C
100
AcDbDictionary
281
     1
  0
DICTIONARY
  5
2A
102
{ACAD_REACTORS
330
C
102
}
330
C
100
AcDbDictionary
281
     1
  3
2dWireframe
350
2F
  3
3D Hidden
350
31
  3
3dWireframe
350
30
  3
Basic
350
32
  3
Brighten
350
36
  3
ColorChange
350
3A
  3
Conceptual
350
34
  3
Dim
350
35
  3
Facepattern
350
39
  3
Flat
350
2B
  3
FlatWithEdges
350
2C
  3
Gouraud
350
2D
  3
GouraudWithEdges
350
2E
  3
Linepattern
350
38
  3
Realistic
350
33
  3
Thicken
350
37
  0
DICTIONARY
  5
10E
102
{ACAD_REACTORS
330
C
102
}
330
C
100
AcDbDictionary
281
     1
  3
CANNOSCALE
350
10F
  3
PSOLHEIGHT
350
113
  3
PSOLWIDTH
350
112
  0
LAYOUT
  5
1E
102
{ACAD_REACTORS
330
1A
102
}
330
1A
100
AcDbPlotSettings
  1

  2
none_device
  4

  6

 40
0.0
 41
0.0
 42
0.0
 43
0.0
 44
0.0
 45
0.0
 46
0.0
 47
0.0
 48
0.0
 49
0.0
140
0.0
141
0.0
142
1.0
143
1.0
 70
   688
 72
     0
 73
     0
 74
     5
  7

 75
    16
147
1.0
148
0.0
149
0.0
100
AcDbLayout
  1
Layout1
 70
     1
 71
     1
 10
0.0
 20
0.0
 11
1682.0
 21
2378.0
 12
0.0
 22
0.0
 32
0.0
 14
0.0
 24
0.0
 34
0.0
 15
1682.0
 25
2378.0
 35
0.0
146
0.0
 13
0.0
 23
0.0
 33
0.0
 16
1.0
 26
0.0
 36
0.0
 17
0.0
 27
1.0
 37
0.0
 76
     0
330
1B
  0
LAYOUT
  5
22
102
{ACAD_REACTORS
330
1A
102
}
330
1A
100
AcDbPlotSettings
  1

  2
none_device
  4

  6

 40
0.0
 41
0.0
 42
0.0
 43
0.0
 44
0.0
 45
0.0
 46
0.0
 47
0.0
 48
0.0
 49
0.0
140
0.0
141
0.0
142
1.0
143
1.0
 70
  1712
 72
     0
 73
     0
 74
     0
  7

 75
     0
147
1.0
148
0.0
149
0.0
100
AcDbLayout
  1
Model
 70
     1
 71
     0
 10
0.0
 20
0.0
 11
1682.0
 21
2378.0
 12
0.0
 22
0.0
 32
0.0
 14
0.0
 24
0.0
 34
0.0
 15
1682.0
 25
2378.0
 35
0.0
146
0.0
 13
0.0
 23
0.0
 33
0.0
 16
1.0
 26
0.0
 36
0.0
 17
0.0
 27
1.0
 37
0.0
 76
     0
330
1F
331
29
  0
MLINESTYLE
  5
18
102
{ACAD_REACTORS
330
17
102
}
330
17
100
AcDbMlineStyle
  2
Standard
 70
     0
  3

 62
   256
 51
90.0
 52
90.0
 71
     2
 49
0.5
 62
   256
  6
BYLAYER
 49
-0.5
 62
   256
  6
BYLAYER
  0
ACDBPLACEHOLDER
  5
F
102
{ACAD_REACTORS
330
E
102
}
330
E
  0
SCALE
  5
3C
102
{ACAD_REACTORS
330
3B
102
}
330
3B
100
AcDbScale
 70
     0
300
1:1
140
1.0
141
1.0
290
     1
  0
SCALE
  5
3D
102
{ACAD_REACTORS
330
3B
102
}
330
3B
100
AcDbScale
 70
     0
300
1:2
140
1.0
141
2.0
290
     0
  0
SCALE
  5
3E
102
{ACAD_REACTORS
330
3B
102
}
330
3B
100
AcDbScale
 70
     0
300
1:4
140
1.0
141
4.0
290
     0
  0
SCALE
  5
3F
102
{ACAD_REACTORS
330
3B
102
}
330
3B
100
AcDbScale
 70
     0
300
1:5
140
1.0
141
5.0
290
     0
  0
SCALE
  5
40
102
{ACAD_REACTORS
330
3B
102
}
330
3B
100
AcDbScale
 70
     0
300
1:8
140
1.0
141
8.0
290
     0
  0
SCALE
  5
41
102
{ACAD_REACTORS
330
3B
102
}
330
3B
100
AcDbScale
 70
     0
300
1:10
140
1.0
141
10.0
290
     0
  0
SCALE
  5
42
102
{ACAD_REACTORS
330
3B
102
}
330
3B
100
AcDbScale
 70
     0
300
1:16
140
1.0
141
16.0
290
     0
  0
SCALE
  5
43
102
{ACAD_REACTORS
330
3B
102
}
330
3B
100
AcDbScale
 70
     0
300
1:20
140
1.0
141
20.0
290
     0
  0
SCALE
  5
44
102
{ACAD_REACTORS
330
3B
102
}
330
3B
100
AcDbScale
 70
     0
300
1:30
140
1.0
141
30.0
290
     0
  0
SCALE
  5
45
102
{ACAD_REACTORS
330
3B
102
}
330
3B
100
AcDbScale
 70
     0
300
1:40
140
1.0
141
40.0
290
     0
  0
SCALE
  5
46
102
{ACAD_REACTORS
330
3B
102
}
330
3B
100
AcDbScale
 70
     0
300
1:50
140
1.0
141
50.0
290
     0
  0
SCALE
  5
47
102
{ACAD_REACTORS
330
3B
102
}
330
3B
100
AcDbScale
 70
     0
300
1:100
140
1.0
141
100.0
290
     0
  0
SCALE
  5
48
102
{ACAD_REACTORS
330
3B
102
}
330
3B
100
AcDbScale
 70
     0
300
2:1
140
2.0
141
1.0
290
     0
  0
SCALE
  5
49
102
{ACAD_REACTORS
330
3B
102
}
330
3B
100
AcDbScale
 70
     0
300
4:1
140
4.0
141
1.0
290
     0
  0
SCALE
  5
4A
102
{ACAD_REACTORS
330
3B
102
}
330
3B
100
AcDbScale
 70
     0
300
8:1
140
8.0
141
1.0
290
     0
  0
SCALE
  5
4B
102
{ACAD_REACTORS
330
3B
102
}
330
3B
100
AcDbScale
 70
     0
300
10:1
140
10.0
141
1.0
290
     0
  0
SCALE
  5
4C
102
{ACAD_REACTORS
330
3B
102
}
330
3B
100
AcDbScale
 70
     0
300
100:1
140
100.0
141
1.0
290
     0
  0
SCALE
  5
4D
102
{ACAD_REACTORS
330
3B
102
}
330
3B
100
AcDbScale
 70
     0
300
1/128" = 1'-0"
140
0.0078125
141
12.0
290
     0
  0
SCALE
  5
4E
102
{ACAD_REACTORS
330
3B
102
}
330
3B
100
AcDbScale
 70
     0
300
1/64" = 1'-0"
140
0.015625
141
12.0
290
     0
  0
SCALE
  5
4F
102
{ACAD_REACTORS
330
3B
102
}
330
3B
100
AcDbScale
 70
     0
300
1/32" = 1'-0"
140
0.03125
141
12.0
290
     0
  0
SCALE
  5
50
102
{ACAD_REACTORS
330
3B
102
}
330
3B
100
AcDbScale
 70
     0
300
1/16" = 1'-0"
140
0.0625
141
12.0
290
     0
  0
SCALE
  5
51
102
{ACAD_REACTORS
330
3B
102
}
330
3B
100
AcDbScale
 70
     0
300
3/32" = 1'-0"
140
0.09375
141
12.0
290
     0
  0
SCALE
  5
52
102
{ACAD_REACTORS
330
3B
102
}
330
3B
100
AcDbScale
 70
     0
300
1/8" = 1'-0"
140
0.125
141
12.0
290
     0
  0
SCALE
  5
53
102
{ACAD_REACTORS
330
3B
102
}
330
3B
100
AcDbScale
 70
     0
300
3/16" = 1'-0"
140
0.1875
141
12.0
290
     0
  0
SCALE
  5
54
102
{ACAD_REACTORS
330
3B
102
}
330
3B
100
AcDbScale
 70
     0
300
1/4" = 1'-0"
140
0.25
141
12.0
290
     0
  0
SCALE
  5
55
102
{ACAD_REACTORS
330
3B
102
}
330
3B
100
AcDbScale
 70
     0
300
3/8" = 1'-0"
140
0.375
141
12.0
290
     0
  0
SCALE
  5
56
102
{ACAD_REACTORS
330
3B
102
}
330
3B
100
AcDbScale
 70
     0
300
1/2" = 1'-0"
140
0.5
141
12.0
290
     0
  0
SCALE
  5
57
102
{ACAD_REACTORS
330
3B
102
}
330
3B
100
AcDbScale
 70
     0
300
3/4" = 1'-0"
140
0.75
141
12.0
290
     0
  0
SCALE
  5
58
102
{ACAD_REACTORS
330
3B
102
}
330
3B
100
AcDbScale
 70
     0
300
1" = 1'-0"
140
1.0
141
12.0
290
     0
  0
SCALE
  5
59
102
{ACAD_REACTORS
330
3B
102
}
330
3B
100
AcDbScale
 70
     0
300
1-1/2" = 1'-0"
140
1.5
141
12.0
290
     0
  0
SCALE
  5
5A
102
{ACAD_REACTORS
330
3B
102
}
330
3B
100
AcDbScale
 70
     0
300
3" = 1'-0"
140
3.0
141
12.0
290
     0
  0
SCALE
  5
5B
102
{ACAD_REACTORS
330
3B
102
}
330
3B
100
AcDbScale
 70
     0
300
6" = 1'-0"
140
6.0
141
12.0
290
     0
  0
SCALE
  5
5C
102
{ACAD_REACTORS
330
3B
102
}
330
3B
100
AcDbScale
 70
     0
300
1'-0" = 1'-0"
140
12.0
141
12.0
290
     0
  0
VISUALSTYLE
  5
2F
102
{ACAD_REACTORS
330
2A
102
}
330
2A
100
AcDbVisualStyle
  2
2dWireframe
 70
     4
 71
     0
 72
     2
 73
     0
 90
        0
 40
-0.6
 41
-30.0
 62
     5
 63
     7
 74
     1
 91
        4
 64
     7
 65
   257
 75
     1
175
     1
 42
1.0
 92
        0
 66
   257
 43
1.0
 76
     1
 77
     6
 78
     2
 67
     7
 79
     5
170
     0
171
     0
290
     0
174
     0
 93
        1
 44
0.0
173
     0
291
     0
 45
0.0
1001
ACAD
1000
AcDbSavedByObjectVersion
1070
     0
  0
VISUALSTYLE
  5
31
102
{ACAD_REACTORS
330
2A
102
}
330
2A
100
AcDbVisualStyle
  2
3D Hidden
 70
     6
 71
     1
 72
     2
 73
     2
 90
        0
 40
-0.6
 41
-30.0
 62
     5
 63
     7
 74
     2
 91
        2
 64
     7
 65
   257
 75
     2
175
     1
 42
40.0
 92
        0
 66
   257
 43
1.0
 76
     1
 77
     6
 78
     2
 67
     7
 79
     3
170
     0
171
     0
290
     0
174
     0
 93
        1
 44
0.0
173
     0
291
     0
 45
0.0
1001
ACAD
1000
AcDbSavedByObjectVersion
1070
     0
  0
VISUALSTYLE
  5
30
102
{ACAD_REACTORS
330
2A
102
}
330
2A
100
AcDbVisualStyle
  2
3dWireframe
 70
     5
 71
     0
 72
     2
 73
     0
 90
        0
 40
-0.6
 41
-30.0
 62
     5
 63
     7
 74
     1
 91
        4
 64
     7
 65
   257
 75
     1
175
     1
 42
1.0
 92
        0
 66
   257
 43
1.0
 76
     1
 77
     6
 78
     2
 67
     7
 79
     5
170
     0
171
     0
290
     0
174
     0
 93
        1
 44
0.0
173
     0
291
     0
 45
0.0
1001
ACAD
1000
AcDbSavedByObjectVersion
1070
     0
  0
VISUALSTYLE
  5
32
102
{ACAD_REACTORS
330
2A
102
}
330
2A
100
AcDbVisualStyle
  2
Basic
 70
     7
 71
     1
 72
     0
 73
     1
 90
        0
 40
-0.6
 41
-30.0
 62
     5
 63
     7
 74
     0
 91
        4
 64
     7
 65
   257
 75
     1
175
     1
 42
1.0
 92
        8
 66
     7
 43
1.0
 76
     1
 77
     6
 78
     2
 67
     7
 79
     5
170
     0
171
     0
290
     0
174
     0
 93
        1
 44
0.0
173
     0
291
     1
 45
0.0
1001
ACAD
1000
AcDbSavedByObjectVersion
1070
     0
  0
VISUALSTYLE
  5
36
102
{ACAD_REACTORS
330
2A
102
}
330
2A
100
AcDbVisualStyle
  2
Brighten
 70
    12
 71
     2
 72
     2
 73
     0
 90
        0
 40
-0.6
 41
-30.0
 62
     5
 63
     7
 74
     1
 91
        4
 64
     7
 65
   257
 75
     1
175
     1
 42
1.0
 92
        8
 66
     7
 43
1.0
 76
     1
 77
     6
 78
     2
 67
     7
 79
     5
170
     0
171
     0
290
     0
174
     0
 93
        1
 44
50.0
173
     0
291
     1
 45
0.0
1001
ACAD
1000
AcDbSavedByObjectVersion
1070
     0
  0
VISUALSTYLE
  5
3A
102
{ACAD_REACTORS
330
2A
102
}
330
2A
100
AcDbVisualStyle
  2
ColorChange
 70
    16
 71
     2
 72
     2
 73
     3
 90
        0
 40
-0.6
 41
-30.0
 62
     5
 63
     8
 74
     1
 91
        4
 64
     7
 65
   257
 75
     1
175
     1
 42
1.0
 92
        8
 66
     8
 43
1.0
 76
     1
 77
     6
 78
     2
 67
     7
 79
     5
170
     0
171
     0
290
     0
174
     0
 93
        1
 44
0.0
173
     0
291
     1
 45
0.0
1001
ACAD
1000
AcDbSavedByObjectVersion
1070
     0
  0
VISUALSTYLE
  5
34
102
{ACAD_REACTORS
330
2A
102
}
330
2A
100
AcDbVisualStyle
  2
Conceptual
 70
     9
 71
     3
 72
     2
 73
     0
 90
        0
 40
-0.6
 41
-30.0
 62
     5
 63
     7
 74
     2
 91
        2
 64
     7
 65
   257
 75
     1
175
     1
 42
40.0
 92
        8
 66
     7
 43
1.0
 76
     1
 77
     6
 78
     2
 67
     7
 79
     3
170
     0
171
     0
290
     0
174
     0
 93
        1
 44
0.0
173
     0
291
     0
 45
0.0
1001
ACAD
1000
AcDbSavedByObjectVersion
1070
     0
  0
VISUALSTYLE
  5
35
102
{ACAD_REACTORS
330
2A
102
}
330
2A
100
AcDbVisualStyle
  2
Dim
 70
    11
 71
     2
 72
     2
 73
     0
 90
        0
 40
-0.6
 41
-30.0
 62
     5
 63
     7
 74
     1
 91
        4
 64
     7
 65
   257
 75
     1
175
     1
 42
1.0
 92
        8
 66
     7
 43
1.0
 76
     1
 77
     6
 78
     2
 67
     7
 79
     5
170
     0
171
     0
290
     0
174
     0
 93
        1
 44
-50.0
173
     0
291
     1
 45
0.0
1001
ACAD
1000
AcDbSavedByObjectVersion
1070
     0
  0
VISUALSTYLE
  5
39
102
{ACAD_REACTORS
330
2A
102
}
330
2A
100
AcDbVisualStyle
  2
Facepattern
 70
    15
 71
     2
 72
     2
 73
     0
 90
        0
 40
-0.6
 41
-30.0
 62
     5
 63
     7
 74
     1
 91
        4
 64
     7
 65
   257
 75
     1
175
     1
 42
1.0
 92
        8
 66
     7
 43
1.0
 76
     1
 77
     6
 78
     2
 67
     7
 79
     5
170
     0
171
     0
290
     0
174
     0
 93
        1
 44
0.0
173
     0
291
     1
 45
0.0
1001
ACAD
1000
AcDbSavedByObjectVersion
1070
     0
  0
VISUALSTYLE
  5
2B
102
{ACAD_REACTORS
330
2A
102
}
330
2A
100
AcDbVisualStyle
  2
Flat
 70
     0
 71
     2
 72
     1
 73
     1
 90
        2
 40
-0.6
 41
30.0
 62
     5
 63
     7
 74
     0
 91
        4
 64
     7
 65
   257
 75
     1
175
     1
 42
1.0
 92
        8
 66
     7
 43
1.0
 76
     1
 77
     6
 78
     2
 67
     7
 79
     5
170
     0
171
     0
290
     0
174
     0
 93
       13
 44
0.0
173
     0
291
     1
 45
0.0
1001
ACAD
1000
AcDbSavedByObjectVersion
1070
     0
  0
VISUALSTYLE
  5
2C
102
{ACAD_REACTORS
330
2A
102
}
330
2A
100
AcDbVisualStyle
  2
FlatWithEdges
 70
     1
 71
     2
 72
     1
 73
     1
 90
        2
 40
-0.6
 41
30.0
 62
     5
 63
     7
 74
     1
 91
        4
 64
     7
 65
   257
 75
     1
175
     1
 42
1.0
 92
        0
 66
   257
 43
1.0
 76
     1
 77
     6
 78
     2
 67
     7
 79
     5
170
     0
171
     0
290
     0
174
     0
 93
       13
 44
0.0
173
     0
291
     1
 45
0.0
1001
ACAD
1000
AcDbSavedByObjectVersion
1070
     0
  0
VISUALSTYLE
  5
2D
102
{ACAD_REACTORS
330
2A
102
}
330
2A
100
AcDbVisualStyle
  2
Gouraud
 70
     2
 71
     2
 72
     2
 73
     1
 90
        2
 40
-0.6
 41
30.0
 62
     5
 63
     7
 74
     0
 91
        4
 64
     7
 65
   257
 75
     1
175
     1
 42
1.0
 92
        0
 66
     7
 43
1.0
 76
     1
 77
     6
 78
     2
 67
     7
 79
     5
170
     0
171
     0
290
     0
174
     0
 93
       13
 44
0.0
173
     0
291
     1
 45
0.0
1001
ACAD
1000
AcDbSavedByObjectVersion
1070
     0
  0
VISUALSTYLE
  5
2E
102
{ACAD_REACTORS
330
2A
102
}
330
2A
100
AcDbVisualStyle
  2
GouraudWithEdges
 70
     3
 71
     2
 72
     2
 73
     1
 90
        2
 40
-0.6
 41
30.0
 62
     5
 63
     7
 74
     1
 91
        4
 64
     7
 65
   257
 75
     1
175
     1
 42
1.0
 92
        0
 66
   257
 43
1.0
 76
     1
 77
     6
 78
     2
 67
     7
 79
     5
170
     0
171
     0
290
     0
174
     0
 93
       13
 44
0.0
173
     0
291
     1
 45
0.0
1001
ACAD
1000
AcDbSavedByObjectVersion
1070
     0
  0
VISUALSTYLE
  5
38
102
{ACAD_REACTORS
330
2A
102
}
330
2A
100
AcDbVisualStyle
  2
Linepattern
 70
    14
 71
     2
 72
     2
 73
     0
 90
        0
 40
-0.6
 41
-30.0
 62
     5
 63
     7
 74
     1
 91
        4
 64
     7
 65
   257
 75
     7
175
     7
 42
1.0
 92
        8
 66
     7
 43
1.0
 76
     1
 77
     6
 78
     2
 67
     7
 79
     5
170
     0
171
     0
290
     0
174
     0
 93
        1
 44
0.0
173
     0
291
     1
 45
0.0
1001
ACAD
1000
AcDbSavedByObjectVersion
1070
     0
  0
VISUALSTYLE
  5
33
102
{ACAD_REACTORS
330
2A
102
}
330
2A
100
AcDbVisualStyle
  2
Realistic
 70
     8
 71
     2
 72
     2
 73
     0
 90
        0
 40
-0.6
 41
-30.0
 62
     5
 63
     7
 74
     1
 91
        0
 64
     7
 65
   257
 75
     1
175
     1
 42
1.0
 92
        8
 66
     8
 43
1.0
 76
     1
 77
     6
 78
     2
 67
     7
 79
     5
170
     0
171
     0
290
     0
174
     0
 93
       13
 44
0.0
173
     0
291
     0
 45
0.0
1001
ACAD
1000
AcDbSavedByObjectVersion
1070
     0
  0
VISUALSTYLE
  5
37
102
{ACAD_REACTORS
330
2A
102
}
330
2A
100
AcDbVisualStyle
  2
Thicken
 70
    13
 71
     2
 72
     2
 73
     0
 90
        0
 40
-0.6
 41
-30.0
 62
     5
 63
     7
 74
     1
 91
        4
 64
     7
 65
   257
 75
     1
175
     1
 42
1.0
 92
       12
 66
     7
 43
1.0
 76
     1
 77
     6
 78
     2
 67
     7
 79
     5
170
     0
171
     0
290
     0
174
     0
 93
        1
 44
0.0
173
     0
291
     1
 45
0.0
1001
ACAD
1000
AcDbSavedByObjectVersion
1070
     0
  0
DICTIONARYVAR
  5
10F
102
{ACAD_REACTORS
330
10E
102
}
330
10E
100
DictionaryVariables
280
     0
  1
1:1
  0
DICTIONARYVAR
  5
113
102
{ACAD_REACTORS
330
10E
102
}
330
10E
100
DictionaryVariables
280
     0
  1
80.000000
  0
DICTIONARYVAR
  5
112
102
{ACAD_REACTORS
330
10E
102
}
330
10E
100
DictionaryVariables
280
     0
  1
5.000000
  0
ENDSEC
  0
EOF
