  0
SECTION
  2
HEADER
  9
$ACADVER
  1
AC1015
  9
$ACADMAINTVER
 70
     6
  9
$DWGCODEPAGE
  3
ANSI_1252
  9
$INSBASE
 10
0.0
 20
0.0
 30
0.0
  9
$EXTMIN
 10
0.0
 20
0.0
 30
0.0
  9
$EXTMAX
 10
1682.0
 20
2378.0
 30
0.0
  9
$LIMMIN
 10
0.0
 20
0.0
  9
$LIMMAX
 10
1682.0
 20
2378.0
  9
$ORTHOMODE
 70
     0
  9
$REGENMODE
 70
     1
  9
$FILLMODE
 70
     1
  9
$QTEXTMODE
 70
     0
  9
$MIRRTEXT
 70
     1
  9
$LTSCALE
 40
1.0
  9
$ATTMODE
 70
     1
  9
$TEXTSIZE
 40
2.5
  9
$TRACEWID
 40
1.0
  9
$TEXTSTYLE
  7
Standard
  9
$CLAYER
  8
0
  9
$CELTYPE
  6
ByLayer
  9
$CECOLOR
 62
   256
  9
$CELTSCALE
 40
1.0
  9
$DISPSILH
 70
     0
  9
$DIMSCALE
 40
1.0
  9
$DIMASZ
 40
2.5
  9
$DIMEXO
 40
0.625
  9
$DIMDLI
 40
3.75
  9
$DIMRND
 40
0.0
  9
$DIMDLE
 40
0.0
  9
$DIMEXE
 40
1.25
  9
$DIMTP
 40
0.0
  9
$DIMTM
 40
0.0
  9
$DIMTXT
 40
2.5
  9
$DIMCEN
 40
2.5
  9
$DIMTSZ
 40
0.0
  9
$DIMTOL
 70
     0
  9
$DIMLIM
 70
     0
  9
$DIMTIH
 70
     0
  9
$DIMTOH
 70
     0
  9
$DIMSE1
 70
     0
  9
$DIMSE2
 70
     0
  9
$DIMTAD
 70
     1
  9
$DIMZIN
 70
     8
  9
$DIMBLK
  1

  9
$DIMASO
 70
     1
  9
$DIMSHO
 70
     1
  9
$DIMPOST
  1

  9
$DIMAPOST
  1

  9
$DIMALT
 70
     0
  9
$DIMALTD
 70
     3
  9
$DIMALTF
 40
0.0393700787
  9
$DIMLFAC
 40
1.0
  9
$DIMTOFL
 70
     1
  9
$DIMTVP
 40
0.0
  9
$DIMTIX
 70
     0
  9
$DIMSOXD
 70
     0
  9
$DIMSAH
 70
     0
  9
$DIMBLK1
  1

  9
$DIMBLK2
  1

  9
$DIMSTYLE
  2
ISO-25
  9
$DIMCLRD
 70
     0
  9
$DIMCLRE
 70
     0
  9
$DIMCLRT
 70
     0
  9
$DIMTFAC
 40
1.0
  9
$DIMGAP
 40
0.625
  9
$DIMJUST
 70
     0
  9
$DIMSD1
 70
     0
  9
$DIMSD2
 70
     0
  9
$DIMTOLJ
 70
     0
  9
$DIMTZIN
 70
     8
  9
$DIMALTZ
 70
     0
  9
$DIMALTTZ
 70
     0
  9
$DIMUPT
 70
     0
  9
$DIMDEC
 70
     2
  9
$DIMTDEC
 70
     2
  9
$DIMALTU
 70
     2
  9
$DIMALTTD
 70
     3
  9
$DIMTXSTY
  7
Standard
  9
$DIMAUNIT
 70
     0
  9
$DIMADEC
 70
     0
  9
$DIMALTRND
 40
0.0
  9
$DIMAZIN
 70
     0
  9
$DIMDSEP
 70
    44
  9
$DIMATFIT
 70
     3
  9
$DIMFRAC
 70
     0
  9
$DIMLDRBLK
  1

  9
$DIMLUNIT
 70
     2
  9
$DIMLWD
 70
    -2
  9
$DIMLWE
 70
    -2
  9
$DIMTMOVE
 70
     0
  9
$LUNITS
 70
     2
  9
$LUPREC
 70
     4
  9
$SKETCHINC
 40
1.0
  9
$FILLETRAD
 40
10.0
  9
$AUNITS
 70
     0
  9
$AUPREC
 70
     0
  9
$MENU
  1
.
  9
$ELEVATION
 40
0.0
  9
$PELEVATION
 40
0.0
  9
$THICKNESS
 40
0.0
  9
$LIMCHECK
 70
     0
  9
$CHAMFERA
 40
10.0
  9
$CHAMFERB
 40
10.0
  9
$CHAMFERC
 40
20.0
  9
$CHAMFERD
 40
0.0
  9
$SKPOLY
 70
     0
  9
$TDCREATE
 40
2455384.319356204
  9
$TDUCREATE
 40
2455384.236022871
  9
$TDUPDATE
 40
2455384.319356215
  9
$TDUUPDATE
 40
2455384.236022882
  9
$TDINDWG
 40
0.0000000116
  9
$TDUSRTIMER
 40
0.0000000116
  9
$USRTIMER
 70
     1
  9
$ANGBASE
 50
0.0
  9
$ANGDIR
 70
     0
  9
$PDMODE
 70
     0
  9
$PDSIZE
 40
0.0
  9
$PLINEWID
 40
0.0
  9
$SPLFRAME
 70
     0
  9
$SPLINETYPE
 70
     6
  9
$SPLINESEGS
 70
     8
  9
$HANDSEED
  5
163
  9
$SURFTAB1
 70
     6
  9
$SURFTAB2
 70
     6
  9
$SURFTYPE
 70
     6
  9
$SURFU
 70
     6
  9
$SURFV
 70
     6
  9
$UCSBASE
  2

  9
$UCSNAME
  2

  9
$UCSORG
 10
0.0
 20
0.0
 30
0.0
  9
$UCSXDIR
 10
1.0
 20
0.0
 30
0.0
  9
$UCSYDIR
 10
0.0
 20
1.0
 30
0.0
  9
$UCSORTHOREF
  2

  9
$UCSORTHOVIEW
 70
     0
  9
$UCSORGTOP
 10
0.0
 20
0.0
 30
0.0
  9
$UCSORGBOTTOM
 10
0.0
 20
0.0
 30
0.0
  9
$UCSORGLEFT
 10
0.0
 20
0.0
 30
0.0
  9
$UCSORGRIGHT
 10
0.0
 20
0.0
 30
0.0
  9
$UCSORGFRONT
 10
0.0
 20
0.0
 30
0.0
  9
$UCSORGBACK
 10
0.0
 20
0.0
 30
0.0
  9
$PUCSBASE
  2

  9
$PUCSNAME
  2

  9
$PUCSORG
 10
0.0
 20
0.0
 30
0.0
  9
$PUCSXDIR
 10
1.0
 20
0.0
 30
0.0
  9
$PUCSYDIR
 10
0.0
 20
1.0
 30
0.0
  9
$PUCSORTHOREF
  2

  9
$PUCSORTHOVIEW
 70
     0
  9
$PUCSORGTOP
 10
0.0
 20
0.0
 30
0.0
  9
$PUCSORGBOTTOM
 10
0.0
 20
0.0
 30
0.0
  9
$PUCSORGLEFT
 10
0.0
 20
0.0
 30
0.0
  9
$PUCSORGRIGHT
 10
0.0
 20
0.0
 30
0.0
  9
$PUCSORGFRONT
 10
0.0
 20
0.0
 30
0.0
  9
$PUCSORGBACK
 10
0.0
 20
0.0
 30
0.0
  9
$USERI1
 70
     0
  9
$USERI2
 70
     0
  9
$USERI3
 70
     0
  9
$USERI4
 70
     0
  9
$USERI5
 70
     0
  9
$USERR1
 40
0.0
  9
$USERR2
 40
0.0
  9
$USERR3
 40
0.0
  9
$USERR4
 40
0.0
  9
$USERR5
 40
0.0
  9
$WORLDVIEW
 70
     1
  9
$SHADEDGE
 70
     3
  9
$SHADEDIF
 70
    70
  9
$TILEMODE
 70
     1
  9
$MAXACTVP
 70
    64
  9
$PINSBASE
 10
0.0
 20
0.0
 30
0.0
  9
$PLIMCHECK
 70
     0
  9
$PEXTMIN
 10
0.0
 20
0.0
 30
0.0
  9
$PEXTMAX
 10
1682.0
 20
2378.0
 30
0.0
  9
$PLIMMIN
 10
0.0
 20
0.0
  9
$PLIMMAX
 10
1682.0
 20
2378.0
  9
$UNITMODE
 70
     0
  9
$VISRETAIN
 70
     1
  9
$PLINEGEN
 70
     0
  9
$PSLTSCALE
 70
     1
  9
$TREEDEPTH
 70
  3020
  9
$CMLSTYLE
  2
Standard
  9
$CMLJUST
 70
     0
  9
$CMLSCALE
 40
20.0
  9
$PROXYGRAPHICS
 70
     1
  9
$MEASUREMENT
 70
     1
  9
$CELWEIGHT
370
    -1
  9
$ENDCAPS
280
     0
  9
$JOINSTYLE
280
     0
  9
$LWDISPLAY
290
     0
  9
$INSUNITS
 70
     4
  9
$HYPERLINKBASE
  1

  9
$STYLESHEET
  1

  9
$XEDIT
290
     1
  9
$CEPSNTYPE
380
     0
  9
$PSTYLEMODE
290
     1
  9
$FINGERPRINTGUID
  2
{0AA3B88B-0270-4ED4-9321-6EECE847E4D6}
  9
$VERSIONGUID
  2
{FAEB1C32-E019-11D5-929B-00C0DF256EC4}
  9
$EXTNAMES
290
     1
  9
$PSVPSCALE
 40
0.0
  9
$OLESTARTUP
290
     0
  0
ENDSEC
  0
SECTION
  2
CLASSES
  0
CLASS
  1
ACDBDICTIONARYWDFLT
  2
AcDbDictionaryWithDefault
  3
ObjectDBX Classes
 90
        0
280
     0
281
     0
  0
CLASS
  1
VISUALSTYLE
  2
AcDbVisualStyle
  3
ObjectDBX Classes
 90
     4095
280
     0
281
     0
  0
CLASS
  1
SCALE
  2
AcDbScale
  3
ObjectDBX Classes
 90
     1153
280
     0
281
     0
  0
CLASS
  1
DICTIONARYVAR
  2
AcDbDictionaryVar
  3
ObjectDBX Classes
 90
        0
280
     0
281
     0
  0
CLASS
  1
ACDBPLACEHOLDER
  2
AcDbPlaceHolder
  3
ObjectDBX Classes
 90
        0
280
     0
281
     0
  0
CLASS
  1
LAYOUT
  2
AcDbLayout
  3
ObjectDBX Classes
 90
        0
280
     0
281
     0
  0
ENDSEC
  0
SECTION
  2
TABLES
  0
TABLE
  2
VPORT
  5
8
330
0
100
AcDbSymbolTable
 70
     1
  0
VPORT
  5
29
330
8
100
AcDbSymbolTableRecord
100
AcDbViewportTableRecord
  2
*Active
 70
     0
 10
0.0
 20
0.0
 11
1.0
 21
1.0
 12
344.1869158879
 22
148.5
 13
0.0
 23
0.0
 14
10.0
 24
10.0
 15
10.0
 25
10.0
 16
0.0
 26
0.0
 36
1.0
 17
0.0
 27
0.0
 37
0.0
 40
297.0
 41
1.9729729729
 42
50.0
 43
0.0
 44
0.0
 50
0.0
 51
0.0
 71
     0
 72
   100
 73
     1
 74
     3
 75
     0
 76
     0
 77
     0
 78
     0
281
     0
 65
     1
110
0.0
120
0.0
130
0.0
111
1.0
121
0.0
131
0.0
112
0.0
122
1.0
132
0.0
 79
     0
146
0.0
  0
ENDTAB
  0
TABLE
  2
LTYPE
  5
5
330
0
100
AcDbSymbolTable
 70
     2
  0
LTYPE
  5
14
330
5
100
AcDbSymbolTableRecord
100
AcDbLinetypeTableRecord
  2
ByBlock
 70
     0
  3

 72
    65
 73
     0
 40
0.0
  0
LTYPE
  5
15
330
5
100
AcDbSymbolTableRecord
100
AcDbLinetypeTableRecord
  2
ByLayer
 70
     0
  3

 72
    65
 73
     0
 40
0.0
  0
LTYPE
  5
16
330
5
100
AcDbSymbolTableRecord
100
AcDbLinetypeTableRecord
  2
Continuous
 70
     0
  3
Solid line
 72
    65
 73
     0
 40
0.0
  0
LTYPE
  5
63
330
5
100
AcDbSymbolTableRecord
100
AcDbLinetypeTableRecord
  2
CENTER2
 70
     0
  3
Center (.5x) ___ _ ___ _ ___ _ ___ _ ___ _ ___
 72
    65
 73
     4
 40
28.575
 49
19.05
 74
     4
 75
     0
340
0
 46
0.0
 50
0.0
 44
0.0
 45
0.0
 49
-3.175
 74
     4
 75
     0
340
0
 46
0.0
 50
0.0
 44
0.0
 45
0.0
 49
3.175
 74
     4
 75
     0
340
0
 46
0.0
 50
0.0
 44
0.0
 45
0.0
 49
-3.175
 74
     4
 75
     0
340
0
 46
0.0
 50
0.0
 44
0.0
 45
0.0
  0
ENDTAB
  0
TABLE
  2
LAYER
  5
2
330
0
100
AcDbSymbolTable
 70
    10
  0
LAYER
  5
10
330
2
100
AcDbSymbolTableRecord
100
AcDbLayerTableRecord
  2
0
 70
     0
 62
     7
  6
Continuous
370
    -3
390
F
  0
LAYER
  5
5D
330
2
100
AcDbSymbolTableRecord
100
AcDbLayerTableRecord
  2
Default
 70
     0
 62
     7
  6
Continuous
370
    -3
390
F
  0
LAYER
  5
8C
330
2
100
AcDbSymbolTableRecord
100
AcDbLayerTableRecord
  2
$DDT_AUDIT_GENERATED_(8C)
 70
     0
 62
     7
  6
Continuous
370
    -3
390
F
  0
LAYER
  5
8F
330
2
100
AcDbSymbolTableRecord
100
AcDbLayerTableRecord
  2
$DDT_AUDIT_GENERATED_(8F)
 70
     0
 62
     7
  6
Continuous
370
    -3
390
F
  0
LAYER
  5
91
330
2
100
AcDbSymbolTableRecord
100
AcDbLayerTableRecord
  2
$DDT_AUDIT_GENERATED_(91)
 70
     0
 62
     7
  6
Continuous
370
    -3
390
F
  0
LAYER
  5
97
330
2
100
AcDbSymbolTableRecord
100
AcDbLayerTableRecord
  2
$DDT_AUDIT_GENERATED_(97)
 70
     0
 62
     7
  6
Continuous
370
    -3
390
F
  0
LAYER
  5
99
330
2
100
AcDbSymbolTableRecord
100
AcDbLayerTableRecord
  2
$DDT_AUDIT_GENERATED_(99)
 70
     0
 62
     7
  6
Continuous
370
    -3
390
F
  0
LAYER
  5
B6
330
2
100
AcDbSymbolTableRecord
100
AcDbLayerTableRecord
  2
$DDT_AUDIT_GENERATED_(B6)
 70
     0
 62
     7
  6
Continuous
370
    -3
390
F
  0
LAYER
  5
CE
330
2
100
AcDbSymbolTableRecord
100
AcDbLayerTableRecord
  2
$DDT_AUDIT_GENERATED_(CE)
 70
     0
 62
     7
  6
Continuous
370
    -3
390
F
  0
LAYER
  5
11D
330
2
100
AcDbSymbolTableRecord
100
AcDbLayerTableRecord
  2
$DDT_AUDIT_GENERATED_(11D)
 70
     0
 62
     7
  6
Continuous
370
    -3
390
F
  0
ENDTAB
  0
TABLE
  2
STYLE
  5
3
330
0
100
AcDbSymbolTable
 70
     2
  0
STYLE
  5
11
330
3
100
AcDbSymbolTableRecord
100
AcDbTextStyleTableRecord
  2
Standard
 70
     0
 40
0.0
 41
1.0
 50
0.0
 71
     0
 42
2.5
  3
txt
  4

  0
STYLE
  5
152
330
3
100
AcDbSymbolTableRecord
100
AcDbTextStyleTableRecord
  2
SEACAD_seiso_ttf
 70
     0
 40
0.0
 41
1.0
 50
0.0
 71
     0
 42
0.2
  3
seiso.ttf
  4

  0
ENDTAB
  0
TABLE
  2
VIEW
  5
6
330
0
100
AcDbSymbolTable
 70
     0
  0
ENDTAB
  0
TABLE
  2
UCS
  5
7
330
0
100
AcDbSymbolTable
 70
     0
  0
ENDTAB
  0
TABLE
  2
APPID
  5
9
330
0
100
AcDbSymbolTable
 70
     1
  0
APPID
  5
12
330
9
100
AcDbSymbolTableRecord
100
AcDbRegAppTableRecord
  2
ACAD
 70
     0
  0
ENDTAB
  0
TABLE
  2
DIMSTYLE
  5
A
330
0
100
AcDbSymbolTable
 70
     1
100
AcDbDimStyleTable
  0
DIMSTYLE
105
27
330
A
100
AcDbSymbolTableRecord
100
AcDbDimStyleTableRecord
  2
ISO-25
 70
     0
 41
2.5
 42
0.625
 43
3.75
 44
1.25
 73
     0
 74
     0
 77
     1
 78
     8
140
2.5
141
2.5
143
0.0393700787
147
0.625
171
     3
172
     1
271
     2
272
     2
274
     3
278
    44
283
     0
284
     8
340
11
  0
ENDTAB
  0
TABLE
  2
BLOCK_RECORD
  5
1
330
0
100
AcDbSymbolTable
 70
     9
  0
BLOCK_RECORD
  5
1F
330
1
100
AcDbSymbolTableRecord
100
AcDbBlockTableRecord
  2
*Model_Space
340
22
  0
BLOCK_RECORD
  5
1B
330
1
100
AcDbSymbolTableRecord
100
AcDbBlockTableRecord
  2
*Paper_Space
340
1E
  0
BLOCK_RECORD
  5
61
330
1
100
AcDbSymbolTableRecord
100
AcDbBlockTableRecord
  2
SEANNOT_GROUP
340
0
102
{BLKREFS
331
62
102
}
  0
BLOCK_RECORD
  5
6C
330
1
100
AcDbSymbolTableRecord
100
AcDbBlockTableRecord
  2
SEANNOT_GROUP1
340
0
102
{BLKREFS
331
6D
102
}
  0
BLOCK_RECORD
  5
76
330
1
100
AcDbSymbolTableRecord
100
AcDbBlockTableRecord
  2
SEANNOT_GROUP2
340
0
102
{BLKREFS
331
77
102
}
  0
BLOCK_RECORD
  5
7D
330
1
100
AcDbSymbolTableRecord
100
AcDbBlockTableRecord
  2
SEANNOT_GROUP3
340
0
102
{BLKREFS
331
7E
102
}
  0
BLOCK_RECORD
  5
84
330
1
100
AcDbSymbolTableRecord
100
AcDbBlockTableRecord
  2
SEANNOT_GROUP4
340
0
102
{BLKREFS
331
85
102
}
  0
BLOCK_RECORD
  5
8A
330
1
100
AcDbSymbolTableRecord
100
AcDbBlockTableRecord
  2
SE
340
0
102
{BLKREFS
331
8B
102
}
  0
BLOCK_RECORD
  5
BB
330
1
100
AcDbSymbolTableRecord
100
AcDbBlockTableRecord
  2
SE1
340
0
102
{BLKREFS
331
BC
102
}
  0
BLOCK_RECORD
  5
107
330
1
100
AcDbSymbolTableRecord
100
AcDbBlockTableRecord
  2
SE2
340
0
102
{BLKREFS
331
108
102
}
  0
ENDTAB
  0
ENDSEC
  0
SECTION
  2
BLOCKS
  0
BLOCK
  5
20
330
1F
100
AcDbEntity
  8
0
100
AcDbBlockBegin
  2
*Model_Space
 70
     0
 10
0.0
 20
0.0
 30
0.0
  3
*Model_Space
  1

  0
ENDBLK
  5
21
330
1F
100
AcDbEntity
  8
0
100
AcDbBlockEnd
  0
BLOCK
  5
1C
330
1B
100
AcDbEntity
 67
     1
  8
0
100
AcDbBlockBegin
  2
*Paper_Space
 70
     0
 10
0.0
 20
0.0
 30
0.0
  3
*Paper_Space
  1

  0
ENDBLK
  5
1D
330
1B
100
AcDbEntity
 67
     1
  8
0
100
AcDbBlockEnd
  0
BLOCK
  5
6A
330
61
100
AcDbEntity
  8
0
100
AcDbBlockBegin
  2
SEANNOT_GROUP
 70
     0
 10
0.0
 20
0.0
 30
0.0
  3
SEANNOT_GROUP
  1

  0
LINE
  5
64
330
61
100
AcDbEntity
  8
Default
  6
CENTER2
 62
     7
100
AcDbLine
 10
77.3260165259
 20
412.5264188787
 30
0.0
 11
37.32601742
 21
412.5264188787
 31
0.0
  0
LINE
  5
65
330
61
100
AcDbEntity
  8
Default
  6
CENTER2
 62
     7
100
AcDbLine
 10
57.326016973
 20
432.5264184317
 30
0.0
 11
57.326016973
 21
392.5264193258
 31
0.0
  0
LINE
  5
66
330
61
100
AcDbEntity
  8
Default
  6
CENTER2
 62
     7
100
AcDbLine
 10
82.3260164142
 20
412.5264188787
 30
0.0
 11
66.826016973
 21
412.5264188787
 31
0.0
  0
LINE
  5
67
330
61
100
AcDbEntity
  8
Default
  6
CENTER2
 62
     7
100
AcDbLine
 10
57.326016973
 20
437.5264183199
 30
0.0
 11
57.326016973
 21
422.0264188787
 31
0.0
  0
LINE
  5
68
330
61
100
AcDbEntity
  8
Default
  6
CENTER2
 62
     7
100
AcDbLine
 10
32.3260175317
 20
412.5264188787
 30
0.0
 11
47.826016973
 21
412.5264188787
 31
0.0
  0
LINE
  5
69
330
61
100
AcDbEntity
  8
Default
  6
CENTER2
 62
     7
100
AcDbLine
 10
57.326016973
 20
387.5264194375
 30
0.0
 11
57.326016973
 21
403.0264188787
 31
0.0
  0
ENDBLK
  5
6B
330
61
100
AcDbEntity
  8
0
100
AcDbBlockEnd
  0
BLOCK
  5
74
330
6C
100
AcDbEntity
  8
0
100
AcDbBlockBegin
  2
SEANNOT_GROUP1
 70
     0
 10
0.0
 20
0.0
 30
0.0
  3
SEANNOT_GROUP1
  1

  0
LINE
  5
6E
330
6C
100
AcDbEntity
  8
Default
  6
CENTER2
 62
     7
100
AcDbLine
 10
77.3260165259
 20
357.9437455123
 30
0.0
 11
37.32601742
 21
357.9437455123
 31
0.0
  0
LINE
  5
6F
330
6C
100
AcDbEntity
  8
Default
  6
CENTER2
 62
     7
100
AcDbLine
 10
57.326016973
 20
377.9437450653
 30
0.0
 11
57.326016973
 21
337.9437459594
 31
0.0
  0
LINE
  5
70
330
6C
100
AcDbEntity
  8
Default
  6
CENTER2
 62
     7
100
AcDbLine
 10
82.3260164142
 20
357.9437455123
 30
0.0
 11
90.826016973
 21
357.9437455123
 31
0.0
  0
LINE
  5
71
330
6C
100
AcDbEntity
  8
Default
  6
CENTER2
 62
     7
100
AcDbLine
 10
57.326016973
 20
382.9437449535
 30
0.0
 11
57.326016973
 21
391.4437455123
 31
0.0
  0
LINE
  5
72
330
6C
100
AcDbEntity
  8
Default
  6
CENTER2
 62
     7
100
AcDbLine
 10
32.3260175317
 20
357.9437455123
 30
0.0
 11
23.826016973
 21
357.9437455123
 31
0.0
  0
LINE
  5
73
330
6C
100
AcDbEntity
  8
Default
  6
CENTER2
 62
     7
100
AcDbLine
 10
57.326016973
 20
332.9437460711
 30
0.0
 11
57.326016973
 21
324.4437455123
 31
0.0
  0
ENDBLK
  5
75
330
6C
100
AcDbEntity
  8
0
100
AcDbBlockEnd
  0
BLOCK
  5
7A
330
76
100
AcDbEntity
  8
0
100
AcDbBlockBegin
  2
SEANNOT_GROUP2
 70
     0
 10
0.0
 20
0.0
 30
0.0
  3
SEANNOT_GROUP2
  1

  0
LINE
  5
78
330
76
100
AcDbEntity
  8
Default
  6
CENTER2
 62
     7
100
AcDbLine
 10
77.3260165259
 20
191.6127466748
 30
0.0
 11
37.32601742
 21
191.6127466748
 31
0.0
  0
LINE
  5
79
330
76
100
AcDbEntity
  8
Default
  6
CENTER2
 62
     7
100
AcDbLine
 10
57.326016973
 20
211.6127462278
 30
0.0
 11
57.326016973
 21
171.6127471218
 31
0.0
  0
ENDBLK
  5
7B
330
76
100
AcDbEntity
  8
0
100
AcDbBlockEnd
  0
BLOCK
  5
81
330
7D
100
AcDbEntity
  8
0
100
AcDbBlockBegin
  2
SEANNOT_GROUP3
 70
     0
 10
0.0
 20
0.0
 30
0.0
  3
SEANNOT_GROUP3
  1

  0
LINE
  5
7F
330
7D
100
AcDbEntity
  8
Default
  6
CENTER2
 62
     7
100
AcDbLine
 10
241.3098044802
 20
412.5264188787
 30
0.0
 11
201.3098053742
 21
412.5264188787
 31
0.0
  0
LINE
  5
80
330
7D
100
AcDbEntity
  8
Default
  6
CENTER2
 62
     7
100
AcDbLine
 10
221.3098049272
 20
432.5264184317
 30
0.0
 11
221.3098049272
 21
392.5264193258
 31
0.0
  0
ENDBLK
  5
82
330
7D
100
AcDbEntity
  8
0
100
AcDbBlockEnd
  0
BLOCK
  5
88
330
84
100
AcDbEntity
  8
0
100
AcDbBlockBegin
  2
SEANNOT_GROUP4
 70
     0
 10
0.0
 20
0.0
 30
0.0
  3
SEANNOT_GROUP4
  1

  0
LINE
  5
86
330
84
100
AcDbEntity
  8
Default
  6
CENTER2
 62
     7
100
AcDbLine
 10
241.3098044802
 20
357.9437455123
 30
0.0
 11
201.3098053742
 21
357.9437455123
 31
0.0
  0
LINE
  5
87
330
84
100
AcDbEntity
  8
Default
  6
CENTER2
 62
     7
100
AcDbLine
 10
221.3098049272
 20
377.9437450653
 30
0.0
 11
221.3098049272
 21
337.9437459594
 31
0.0
  0
ENDBLK
  5
89
330
84
100
AcDbEntity
  8
0
100
AcDbBlockEnd
  0
BLOCK
  5
B9
330
8A
100
AcDbEntity
  8
0
100
AcDbBlockBegin
  2
SE
 70
     0
 10
0.0
 20
0.0
 30
0.0
  3
SE
  1

  0
ARC
  5
8D
330
8A
100
AcDbEntity
  8
$DDT_AUDIT_GENERATED_(8C)
  6
Continuous
 62
     7
100
AcDbCircle
 10
57.326016973
 20
357.9437455123
 30
0.0
 40
30.0
100
AcDbArc
 50
0.0
 51
229.5139531611
  0
ARC
  5
8E
330
8A
100
AcDbEntity
  8
$DDT_AUDIT_GENERATED_(8C)
  6
Continuous
 62
     7
100
AcDbCircle
 10
57.326016973
 20
357.9437455123
 30
0.0
 40
30.0
100
AcDbArc
 50
310.5280726389
 51
0.0
  0
CIRCLE
  5
90
330
8A
100
AcDbEntity
  8
$DDT_AUDIT_GENERATED_(8F)
  6
Continuous
 62
     7
100
AcDbCircle
 10
57.326016973
 20
412.5237455123
 30
0.0
 40
10.0
  0
ARC
  5
92
330
8A
100
AcDbEntity
  8
$DDT_AUDIT_GENERATED_(91)
  6
Continuous
 62
     7
100
AcDbCircle
 10
57.326016973
 20
357.9437455123
 30
0.0
 40
52.50000000000001
100
AcDbArc
 50
289.0002005625
 51
0.0
  0
ARC
  5
93
330
8A
100
AcDbEntity
  8
$DDT_AUDIT_GENERATED_(91)
  6
Continuous
 62
     7
100
AcDbCircle
 10
57.326016973
 20
357.9437455123
 30
0.0
 40
52.50000000000001
100
AcDbArc
 50
180.0
 51
251.0064234824
  0
LINE
  5
94
330
8A
100
AcDbEntity
  8
$DDT_AUDIT_GENERATED_(91)
  6
Continuous
 62
     7
100
AcDbLine
 10
109.826016973
 20
392.9437455123
 30
0.0
 11
109.826016973
 21
357.9437455123
 31
0.0
  0
LINE
  5
95
330
8A
100
AcDbEntity
  8
$DDT_AUDIT_GENERATED_(91)
  6
Continuous
 62
     7
100
AcDbLine
 10
4.826016973
 20
357.9437455123
 30
0.0
 11
4.826016973
 21
392.9437455123
 31
0.0
  0
ARC
  5
96
330
8A
100
AcDbEntity
  8
$DDT_AUDIT_GENERATED_(91)
  6
Continuous
 62
     7
100
AcDbCircle
 10
57.326016973
 20
392.9437455123
 30
0.0
 40
52.49999999999999
100
AcDbArc
 50
0.0
 51
180.0
  0
CIRCLE
  5
98
330
8A
100
AcDbEntity
  8
$DDT_AUDIT_GENERATED_(97)
  6
Continuous
 62
     7
100
AcDbCircle
 10
57.326016973
 20
412.5264188787
 30
0.0
 40
6.0
  0
SPLINE
  5
9A
330
8A
100
AcDbEntity
  8
$DDT_AUDIT_GENERATED_(99)
  6
Continuous
 62
     7
100
AcDbSpline
210
0.0
220
0.0
230
1.0
 70
     8
 71
     3
 72
    50
 73
    46
 74
     0
 42
0.0000000000430415
 43
0.0000000001
 40
0.0
 40
0.0
 40
0.0
 40
0.0
 40
0.125
 40
0.125
 40
0.25
 40
0.25
 40
0.3125
 40
0.3125
 40
0.34375
 40
0.34375
 40
0.375
 40
0.375
 40
0.390625
 40
0.390625
 40
0.40625
 40
0.40625
 40
0.4375
 40
0.4375
 40
0.453125
 40
0.453125
 40
0.46875
 40
0.46875
 40
0.484375
 40
0.484375
 40
0.5
 40
0.5
 40
0.53125
 40
0.53125
 40
0.546875
 40
0.546875
 40
0.5625
 40
0.5625
 40
0.59375
 40
0.59375
 40
0.625
 40
0.625
 40
0.65625
 40
0.65625
 40
0.6875
 40
0.6875
 40
0.75
 40
0.75
 40
0.875
 40
0.875
 40
1.0
 40
1.0
 40
1.0
 40
1.0
 10
69.79285076410261
 20
274.2884576113707
 30
0.0
 10
70.69150709909462
 20
283.8995530612683
 30
0.0
 10
71.56529827925041
 20
293.5019085683256
 30
0.0
 10
73.1147192849331
 20
312.7023907677241
 30
0.0
 10
73.82815665302567
 20
322.2979842647094
 30
0.0
 10
74.87482981325398
 20
336.6821510608093
 30
0.0
 10
75.22577481358952
 20
341.4749771430774
 30
0.0
 10
75.66984643681177
 20
348.668941470244
 30
0.0
 10
75.80506481469202
 20
351.06782015135
 30
0.0
 10
75.95270412465455
 20
355.8753546501597
 30
0.0
 10
75.96828235138372
 20
358.2758867115868
 30
0.0
 10
75.67754284728515
 20
361.8601185385104
 30
0.0
 10
75.52642971240246
 20
363.0520055752178
 30
0.0
 10
75.06483881603833
 20
365.4271400434047
 30
0.0
 10
74.75069016815941
 20
366.6193757824983
 30
0.0
 10
73.51920477685273
 20
370.0588818381543
 30
0.0
 10
72.26687435240126
 20
372.2270841536219
 30
0.0
 10
69.78770751451339
 20
374.8814294568213
 30
0.0
 10
68.85094743891872
 20
375.6859531293786
 30
0.0
 10
66.84281402540732
 20
377.0771578642572
 30
0.0
 10
65.78012517441398
 20
377.6636017781966
 30
0.0
 10
63.54490143342981
 20
378.6329469266166
 30
0.0
 10
62.36669101250785
 20
379.0141686275447
 30
0.0
 10
59.9929111581233
 20
379.5314878761445
 30
0.0
 10
58.78591199661245
 20
379.6729809312133
 30
0.0
 10
55.10020994109129
 20
379.7206537636947
 30
0.0
 10
52.68150983552925
 20
379.2446582325351
 30
0.0
 10
49.28284333203079
 20
377.8680128423592
 30
0.0
 10
48.2049166578086
 20
377.3063639697024
 30
0.0
 10
46.16369272314989
 20
375.9677323697836
 30
0.0
 10
45.2041793866324
 20
375.1872590144512
 30
0.0
 10
42.65699456255737
 20
372.6062435147019
 30
0.0
 10
41.34504912696106
 20
370.4734640641951
 30
0.0
 10
39.60785049307257
 20
365.9461591005553
 30
0.0
 10
39.14021350217843
 20
363.520383581233
 30
0.0
 10
38.69315331252346
 20
358.7096253812068
 30
0.0
 10
38.69518940699382
 20
356.2864037266086
 30
0.0
 10
38.82789840173744
 20
351.4542385640395
 30
0.0
 10
38.96106855007186
 20
349.0434695361132
 30
0.0
 10
39.40178866582355
 20
341.8133296474896
 30
0.0
 10
39.75465319312569
 20
336.9964241089544
 30
0.0
 10
40.80567905914741
 20
322.5397362897905
 30
0.0
 10
41.52243954367163
 20
312.8949712299225
 30
0.0
 10
43.07845489895508
 20
293.5963985504841
 30
0.0
 10
43.9560803603409
 20
283.9471080655219
 30
0.0
 10
44.85918318179801
 20
274.2884576113707
 30
0.0
  0
ARC
  5
9B
330
8A
100
AcDbEntity
  8
$DDT_AUDIT_GENERATED_(99)
  6
Continuous
 62
     7
100
AcDbCircle
 10
66.2807165243
 20
274.6463182218
 30
0.0
 40
3.530318843205536
100
AcDbArc
 50
279.9624614999
 51
354.1820607972
  0
ARC
  5
9C
330
8A
100
AcDbEntity
  8
$DDT_AUDIT_GENERATED_(99)
  6
Continuous
 62
     7
100
AcDbCircle
 10
57.326016973
 20
323.9497498139
 30
0.0
 40
53.64029264445577
100
AcDbArc
 50
259.7277349166
 51
280.2722650833
  0
ARC
  5
9D
330
8A
100
AcDbEntity
  8
$DDT_AUDIT_GENERATED_(99)
  6
Continuous
 62
     7
100
AcDbCircle
 10
48.3703811601
 20
274.6454473489
 30
0.0
 40
3.529299210232404
100
AcDbArc
 50
185.8054147426
 51
260.0500629603
  0
SPLINE
  5
9E
330
8A
100
AcDbEntity
  8
$DDT_AUDIT_GENERATED_(99)
  6
Continuous
 62
     7
100
AcDbSpline
210
0.0
220
0.0
230
1.0
 70
     8
 71
     3
 72
    10
 73
     6
 74
     0
 42
0.000000000125629
 43
0.0000000001
 40
0.7312912639088706
 40
0.7312912639088706
 40
0.7312912639088706
 40
0.7312912639088706
 40
0.7499999999999999
 40
0.7499999999999999
 40
0.7748507006105094
 40
0.7748507006105094
 40
0.7748507006105094
 40
0.7748507006105094
 10
36.29849556134194
 20
347.8914909256609
 30
0.0
 10
36.20584862059151
 20
348.437805417464
 30
0.0
 10
36.1106658724193
 20
348.9661208192327
 30
0.0
 10
35.88397307292431
 20
350.1245514974627
 30
0.0
 10
35.74891344442359
 20
350.7397654453056
 30
0.0
 10
35.60964844767489
 20
351.2884732377313
 30
0.0
  0
SPLINE
  5
9F
330
8A
100
AcDbEntity
  8
$DDT_AUDIT_GENERATED_(99)
  6
Continuous
 62
     7
100
AcDbSpline
210
0.0
220
0.0
230
1.0
 70
     8
 71
     3
 72
    18
 73
    14
 74
     0
 42
0.0000000003530076
 43
0.0000000001
 40
0.7748507006105094
 40
0.7748507006105094
 40
0.7748507006105094
 40
0.7748507006105094
 40
0.7812499999999999
 40
0.7812499999999999
 40
0.8124999999999999
 40
0.8124999999999999
 40
0.8437499999999999
 40
0.8437499999999999
 40
0.8749999999999999
 40
0.8749999999999999
 40
0.9374999999999999
 40
0.9374999999999999
 40
1.0
 40
1.0
 40
1.0
 40
1.0
 10
35.60964844767489
 20
351.2884732377313
 30
0.0
 10
35.57378634371898
 20
351.4297708814522
 30
0.0
 10
35.53764537630096
 20
351.5666584151286
 30
0.0
 10
35.32352815687935
 20
352.3439760055227
 30
0.0
 10
35.14337101409344
 20
352.8639159450244
 30
0.0
 10
34.77430450418548
 20
353.6995031715016
 30
0.0
 10
34.58479967149881
 20
354.0151453647912
 30
0.0
 10
34.20890016370583
 20
354.4898629625057
 30
0.0
 10
34.02035497363089
 20
354.6546433581549
 30
0.0
 10
33.45043899210677
 20
355.0207936154501
 30
0.0
 10
33.06366131569609
 20
355.0969531566744
 30
0.0
 10
32.29590513523114
 20
355.1458173396522
 30
0.0
 10
31.91817966621628
 20
355.1012846202668
 30
0.0
 10
31.54789005501931
 20
355.0399631615036
 30
0.0
  0
SPLINE
  5
A0
330
8A
100
AcDbEntity
  8
$DDT_AUDIT_GENERATED_(99)
  6
Continuous
 62
     7
100
AcDbSpline
210
0.0
220
0.0
230
1.0
 70
     8
 71
     3
 72
    30
 73
    26
 74
     0
 42
0.0000000001186657
 43
0.0000000001
 40
0.0
 40
0.0
 40
0.0
 40
0.0
 40
0.125
 40
0.125
 40
0.2500000000000001
 40
0.2500000000000001
 40
0.5000000000000001
 40
0.5000000000000001
 40
0.6250000000000001
 40
0.6250000000000001
 40
0.6875000000000001
 40
0.6875000000000001
 40
0.7500000000000002
 40
0.7500000000000002
 40
0.7812500000000002
 40
0.7812500000000002
 40
0.8125000000000002
 40
0.8125000000000002
 40
0.8437500000000002
 40
0.8437500000000002
 40
0.8750000000000002
 40
0.8750000000000002
 40
0.9375000000000001
 40
0.9375000000000001
 40
1.0
 40
1.0
 40
1.0
 40
1.0
 10
71.2994309442929
 20
273.9459147302191
 30
0.0
 10
71.71591977736395
 20
278.2428218812249
 30
0.0
 10
72.13565173216837
 20
282.5394996284801
 30
0.0
 10
72.92697923355215
 20
291.141428511325
 30
0.0
 10
73.30470481215623
 20
295.4452086990894
 30
0.0
 10
74.40357555316272
 20
308.3514592701253
 30
0.0
 10
75.08338954197997
 20
316.961966777362
 30
0.0
 10
76.22887285729047
 20
329.704347693381
 30
0.0
 10
76.63144770263442
 20
333.9237135765368
 30
0.0
 10
77.29836027268621
 20
340.1315802173264
 30
0.0
 10
77.53221985847242
 20
342.1801962473617
 30
0.0
 10
78.04393102848263
 20
346.1141750750572
 30
0.0
 10
78.32800319490188
 20
348.0370169816372
 30
0.0
 10
78.80651150952957
 20
350.4788420157724
 30
0.0
 10
78.9764575676444
 20
351.2239497038042
 30
0.0
 10
79.32931887513152
 20
352.4947813241096
 30
0.0
 10
79.5087986201121
 20
353.0093749453645
 30
0.0
 10
79.8766721862008
 20
353.8376821716257
 30
0.0
 10
80.06578511285869
 20
354.1515484878785
 30
0.0
 10
80.44139763811135
 20
354.6233446145889
 30
0.0
 10
80.62994132135078
 20
354.7868155942163
 30
0.0
 10
81.20011343229085
 20
355.1490109455706
 30
0.0
 10
81.58739344191466
 20
355.2226425708876
 30
0.0
 10
82.35666845407879
 20
355.2722902383852
 30
0.0
 10
82.73541572190257
 20
355.2313858461409
 30
0.0
 10
83.10669583866641
 20
355.1756039536221
 30
0.0
  0
ELLIPSE
  5
A1
330
8A
100
AcDbEntity
  8
$DDT_AUDIT_GENERATED_(99)
  6
Continuous
 62
     7
100
AcDbEllipse
 10
47.6265769446
 20
270.4700317482
 30
0.0
 11
0.1845360206097488
 21
0.9828257511370064
 31
0.0
210
0.0
220
0.0
230
0.9999999999999999
 40
0.0068530163
 41
3.120451455685096
 42
3.142702763937784
  0
ELLIPSE
  5
A2
330
8A
100
AcDbEntity
  8
$DDT_AUDIT_GENERATED_(99)
  6
Continuous
 62
     7
100
AcDbEllipse
 10
67.0254570012
 20
270.4700317482
 30
0.0
 11
-0.184536020610516
 21
0.9828257511365207
 31
0.0
210
0.0
220
0.0
230
0.9999999999999997
 40
0.0068530163
 41
3.140514054555521
 42
3.162498796467008
  0
SPLINE
  5
A3
330
8A
100
AcDbEntity
  8
$DDT_AUDIT_GENERATED_(99)
  6
Continuous
 62
     7
100
AcDbSpline
210
0.0
220
0.0
230
1.0
 70
     8
 71
     3
 72
    30
 73
    26
 74
     0
 42
0.0000000001249555
 43
0.0000000001
 40
0.0
 40
0.0
 40
0.0
 40
0.0
 40
0.125
 40
0.125
 40
0.2499999999999999
 40
0.2499999999999999
 40
0.3124999999999999
 40
0.3124999999999999
 40
0.3749999999999999
 40
0.3749999999999999
 40
0.4374999999999999
 40
0.4374999999999999
 40
0.4999999999999999
 40
0.4999999999999999
 40
0.5624999999999999
 40
0.5624999999999999
 40
0.6249999999999999
 40
0.6249999999999999
 40
0.6874999999999999
 40
0.6874999999999999
 40
0.7499999999999998
 40
0.7499999999999998
 40
0.8749999999999999
 40
0.8749999999999999
 40
1.0
 40
1.0
 40
1.0
 40
1.0
 10
82.97888622675225
 20
356.4320720858918
 30
0.0
 10
82.54704684664881
 20
359.4820132806875
 30
0.0
 10
81.93561793581506
 20
362.4926959212497
 30
0.0
 10
79.63127962898345
 20
368.2595281909628
 30
0.0
 10
77.9513461721105
 20
371.0674781873954
 30
0.0
 10
74.73006718391123
 20
374.7802292943526
 30
0.0
 10
73.52070553226304
 20
375.9501254283957
 30
0.0
 10
70.84257665864801
 20
378.053567909567
 30
0.0
 10
69.39419218302878
 20
378.9749243726172
 30
0.0
 10
66.25300031263005
 20
380.5261090580684
 30
0.0
 10
64.55788835730927
 20
381.1499877891895
 30
0.0
 10
61.0957228345715
 20
381.9933474805488
 30
0.0
 10
59.28040496539062
 20
382.2251265296062
 30
0.0
 10
55.63363713681875
 20
382.2459261179986
 30
0.0
 10
53.84123795788795
 20
382.0408486264496
 30
0.0
 10
50.31514089841417
 20
381.2227500977318
 30
0.0
 10
48.62655236011086
 20
380.6181150016622
 30
0.0
 10
45.46005058276032
 20
379.0924817805205
 30
0.0
 10
43.97196002804201
 20
378.1631065715972
 30
0.0
 10
41.28458121042386
 20
376.0865307124099
 30
0.0
 10
40.05748391654532
 20
374.91888851806
 30
0.0
 10
36.78916103336486
 20
371.2017324644701
 30
0.0
 10
35.11964581632066
 20
368.4589283303208
 30
0.0
 10
32.73253141894182
 20
362.578831111203
 30
0.0
 10
32.10890580011261
 20
359.5096889821174
 30
0.0
 10
31.67314779242875
 20
356.4320720906792
 30
0.0
  0
ARC
  5
A4
330
8A
100
AcDbEntity
  8
$DDT_AUDIT_GENERATED_(99)
  6
Continuous
 62
     7
100
AcDbCircle
 10
48.3429541453
 20
354.101662425
 30
0.0
 40
16.83191174682664
100
AcDbArc
 50
172.0417274383
 51
176.3418211747
  0
ARC
  5
A5
330
8A
100
AcDbEntity
  8
$DDT_AUDIT_GENERATED_(99)
  6
Continuous
 62
     7
100
AcDbCircle
 10
66.3090794656
 20
354.1016625914
 30
0.0
 40
16.83191212744902
100
AcDbArc
 50
3.6581781506
 51
7.9582717924
  0
SPLINE
  5
A6
330
8A
100
AcDbEntity
  8
$DDT_AUDIT_GENERATED_(99)
  6
Continuous
 62
     7
100
AcDbSpline
210
0.0
220
0.0
230
1.0
 70
     8
 71
     3
 72
    10
 73
     6
 74
     0
 42
0.0000000001250065
 43
0.0000000001
 40
0.2249496152419453
 40
0.2249496152419453
 40
0.2249496152419453
 40
0.2249496152419453
 40
0.2499999999999998
 40
0.2499999999999998
 40
0.2722454071780509
 40
0.2722454071780509
 40
0.2722454071780509
 40
0.2722454071780509
 10
79.04776972167703
 20
351.3096296740119
 30
0.0
 10
78.90741347235985
 20
350.7587629121916
 30
0.0
 10
78.77140663167343
 20
350.1406174677242
 30
0.0
 10
78.5260518842107
 20
348.8887480100032
 30
0.0
 10
78.41377662263614
 20
348.2571763405728
 30
0.0
 10
78.30482009046052
 20
347.6012551851861
 30
0.0
  0
LINE
  5
A7
330
8A
100
AcDbEntity
  8
$DDT_AUDIT_GENERATED_(99)
  6
Continuous
 62
     7
100
AcDbLine
 10
31.547890055
 20
355.0399631615
 30
0.0
 11
31.6872793242
 21
353.8824505
 31
0.0
  0
ARC
  5
A8
330
8A
100
AcDbEntity
  8
$DDT_AUDIT_GENERATED_(99)
  6
Continuous
 62
     7
100
AcDbCircle
 10
57.3260170024
 20
357.7649993202
 30
0.0
 40
25.93104423405565
100
AcDbArc
 50
188.6110421436
 51
218.7696581393
  0
ARC
  5
A9
330
8A
100
AcDbEntity
  8
$DDT_AUDIT_GENERATED_(99)
  6
Continuous
 62
     7
100
AcDbCircle
 10
57.3260170024
 20
357.7649993202
 30
0.0
 40
25.93104423405565
100
AcDbArc
 50
321.2562036429
 51
351.388957859
  0
LINE
  5
AA
330
8A
100
AcDbEntity
  8
$DDT_AUDIT_GENERATED_(99)
  6
Continuous
 62
     7
100
AcDbLine
 10
82.9647546807
 20
353.8824505012
 30
0.0
 11
83.104143948
 21
355.039963169
 31
0.0
  0
ELLIPSE
  5
AB
330
8A
100
AcDbEntity
  8
$DDT_AUDIT_GENERATED_(99)
  6
Continuous
 62
     7
100
AcDbEllipse
 10
31.8413040606
 20
355.0748911346
 30
0.0
 11
0.2991668719844777
 21
0.02234239707418422
 31
0.0
210
0.0
220
0.0
230
1.0
 40
0.2428343342
 41
3.155341685837109
 42
3.320709680333764
  0
ELLIPSE
  5
AC
330
8A
100
AcDbEntity
  8
$DDT_AUDIT_GENERATED_(99)
  6
Continuous
 62
     7
100
AcDbEllipse
 10
31.8409123212
 20
355.1700757042
 30
0.0
 11
0.2993503561354929
 21
-0.01973231567897395
 31
0.0
210
0.0
220
0.0
230
1.0
 40
0.2631911005
 41
3.140891742614413
 42
3.318880017698819
  0
ELLIPSE
  5
AD
330
8A
100
AcDbEntity
  8
$DDT_AUDIT_GENERATED_(99)
  6
Continuous
 62
     7
100
AcDbEllipse
 10
82.8107299426
 20
355.0748911416
 30
0.0
 11
-0.2991668720525656
 21
0.02234239616233969
 31
0.0
210
0.0
220
0.0
230
1.0
 40
0.2428343357
 41
2.962475622607175
 42
3.138486919773555
  0
ELLIPSE
  5
AE
330
8A
100
AcDbEntity
  8
$DDT_AUDIT_GENERATED_(99)
  6
Continuous
 62
     7
100
AcDbEllipse
 10
82.8111216824
 20
355.1700757009
 30
0.0
 11
-0.2993503563675018
 21
-0.01973231214656014
 31
0.0
210
0.0
220
0.0
230
1.0
 40
0.2631910999
 41
2.964305284761464
 42
3.141259565043263
  0
SPLINE
  5
AF
330
8A
100
AcDbEntity
  8
$DDT_AUDIT_GENERATED_(99)
  6
Continuous
 62
     7
100
AcDbSpline
210
0.0
220
0.0
230
1.0
 70
     8
 71
     3
 72
    28
 73
    24
 74
     0
 42
0.0000000001345012
 43
0.0000000001
 40
0.0
 40
0.0
 40
0.0
 40
0.0
 40
0.0055291627978339
 40
0.0214145180400639
 40
0.0381759576355877
 40
0.0560867273492501
 40
0.0754700222240467
 40
0.0968102636423829
 40
0.1209398250632643
 40
0.1496986761286899
 40
0.1843235248125836
 40
0.2205291102580358
 40
0.2602866008646939
 40
0.3052600248910216
 40
0.3547984685418645
 40
0.4064504261188536
 40
0.4627743484147451
 40
0.5257193932793925
 40
0.5994430830773037
 40
0.6945977417185486
 40
0.8153021851745913
 40
0.9531810787300777
 40
1.0
 40
1.0
 40
1.0
 40
1.0
 10
36.2886250943785
 20
347.9278448540891
 30
0.0
 10
36.30994215411273
 20
347.803032427338
 30
0.0
 10
36.38032561977813
 20
347.3901003106441
 30
0.0
 10
36.51124125783772
 20
346.5436660918548
 30
0.0
 10
36.67273509490867
 20
345.4339326189813
 30
0.0
 10
36.83929688532113
 20
344.2019896980543
 30
0.0
 10
37.0117375365952
 20
342.8416285435585
 30
0.0
 10
37.19462744903856
 20
341.3109789126831
 30
0.0
 10
37.39596926238398
 20
339.5381715076353
 30
0.0
 10
37.62611989362381
 20
337.4314826152151
 30
0.0
 10
37.87832314910992
 20
335.0134091424115
 30
0.0
 10
38.14808895109591
 20
332.3088232540578
 30
0.0
 10
38.43305905424782
 20
329.3340463304951
 30
0.0
 10
38.73982173345407
 20
326.0167817109933
 30
0.0
 10
39.0626787134656
 20
322.3889821459101
 30
0.0
 10
39.40107645086658
 20
318.4648491282678
 30
0.0
 10
39.76068173158453
 20
314.1939681881616
 30
0.0
 10
40.16214278550486
 20
309.3597326963581
 30
0.0
 10
40.64582258802195
 20
303.5470286478885
 30
0.0
 10
41.26497893968825
 20
296.2642959117728
 30
0.0
 10
42.04427938294636
 20
287.4453638312615
 30
0.0
 10
42.79225289281252
 20
279.561036521079
 30
0.0
 10
43.21576243518221
 20
275.2145734707427
 30
0.0
 10
43.34189702088722
 20
273.9233012826765
 30
0.0
  0
ARC
  5
B0
330
8A
100
AcDbEntity
  8
$DDT_AUDIT_GENERATED_(99)
  6
Continuous
 62
     7
100
AcDbCircle
 10
48.3373081458
 20
274.4236859573
 30
0.0
 40
5.009253222040105
100
AcDbArc
 50
185.714973022
 51
259.7240695949
  0
SPLINE
  5
B1
330
8A
100
AcDbEntity
  8
$DDT_AUDIT_GENERATED_(99)
  6
Continuous
 62
     7
100
AcDbSpline
210
0.0
220
0.0
230
1.0
 70
     8
 71
     3
 72
    27
 73
    23
 74
     0
 42
0.000000000134931
 43
0.0000000001
 40
0.0
 40
0.0
 40
0.0
 40
0.0
 40
0.0307752381294188
 40
0.1700536404080316
 40
0.3178061686922334
 40
0.4174378004671345
 40
0.4931113897601586
 40
0.5566630951021105
 40
0.6131154373579971
 40
0.6644692516027576
 40
0.712085120764123
 40
0.7627038423379494
 40
0.8018072078602916
 40
0.837269330171412
 40
0.8701178530044438
 40
0.8988338035168659
 40
0.9219136981232201
 40
0.9424055154495516
 40
0.9609886261983219
 40
0.9781429036079468
 40
0.9941981280143831
 40
1.0
 40
1.0
 40
1.0
 40
1.0
 10
71.31103636496684
 20
273.923142330683
 30
0.0
 10
71.39344599091724
 20
274.7687726458129
 30
0.0
 10
71.78271455220501
 20
278.7703233711197
 30
0.0
 10
72.56536879655933
 20
286.9559749749566
 30
0.0
 10
73.41262897287886
 20
296.5448139478439
 30
0.0
 10
74.09792439072234
 20
304.6396513951235
 30
0.0
 10
74.59299459679077
 20
310.604735072857
 30
0.0
 10
74.99929477043611
 20
315.4852131123193
 30
0.0
 10
75.36046867330253
 20
319.7473370585877
 30
0.0
 10
75.69594788439363
 20
323.6004914081594
 30
0.0
 10
76.0286457407959
 20
327.2940861498614
 30
0.0
 10
76.34512376971347
 20
330.6688337008043
 30
0.0
 10
76.64401021003574
 20
333.7283290773933
 30
0.0
 10
76.91016182125338
 20
336.3360985069901
 30
0.0
 10
77.16010309127478
 20
338.6724167426127
 30
0.0
 10
77.38597276761261
 20
340.6932700725249
 30
0.0
 10
77.5863969279504
 20
342.4005654403912
 30
0.0
 10
77.76629314477934
 20
343.8444856865755
 30
0.0
 10
77.93690054888623
 20
345.1288459774559
 30
0.0
 10
78.09994264861174
 20
346.2695294011329
 30
0.0
 10
78.23171347898919
 20
347.1386199979933
 30
0.0
 10
78.30264583089802
 20
347.5623754000939
 30
0.0
 10
78.32473989085446
 20
347.6941046229935
 30
0.0
  0
ARC
  5
B2
330
8A
100
AcDbEntity
  8
$DDT_AUDIT_GENERATED_(99)
  6
Continuous
 62
     7
100
AcDbCircle
 10
57.3219328327
 20
321.955586957
 30
0.0
 40
53.37541041126449
100
AcDbArc
 50
259.3358010612
 51
280.6728225966
  0
ARC
  5
B3
330
8A
100
AcDbEntity
  8
$DDT_AUDIT_GENERATED_(99)
  6
Continuous
 62
     7
100
AcDbCircle
 10
66.3142245751
 20
274.4242870559
 30
0.0
 40
5.010083359372485
100
AcDbArc
 50
280.2801442189
 51
354.2768173648
  0
ARC
  5
B4
330
8A
100
AcDbEntity
  8
$DDT_AUDIT_GENERATED_(99)
  6
Continuous
 62
     7
100
AcDbCircle
 10
32.0742796664
 20
355.0899685912
 30
0.0
 40
0.5339842778925353
100
AcDbArc
 50
169.3144169825
 51
188.4108809988
  0
ARC
  5
B5
330
8A
100
AcDbEntity
  8
$DDT_AUDIT_GENERATED_(99)
  6
Continuous
 62
     7
100
AcDbCircle
 10
82.5836586134
 20
355.1583571876
 30
0.0
 40
0.528215701820241
100
AcDbArc
 50
348.4957573304
 51
7.7877487736
  0
ARC
  5
B7
330
8A
100
AcDbEntity
  8
$DDT_AUDIT_GENERATED_(B6)
  6
Continuous
 62
     7
100
AcDbCircle
 10
57.326016973
 20
357.9437455123
 30
0.0
 40
24.26932219902303
100
AcDbArc
 50
109.2790336409
 51
147.4176878259
  0
ARC
  5
B8
330
8A
100
AcDbEntity
  8
$DDT_AUDIT_GENERATED_(B6)
  6
Continuous
 62
     7
100
AcDbCircle
 10
57.326016973
 20
357.9437455123
 30
0.0
 40
24.26932219902303
100
AcDbArc
 50
34.4115205828
 51
75.1579090034
  0
ENDBLK
  5
BA
330
8A
100
AcDbEntity
  8
0
100
AcDbBlockEnd
  0
BLOCK
  5
105
330
BB
100
AcDbEntity
  8
0
100
AcDbBlockBegin
  2
SE1
 70
     0
 10
0.0
 20
0.0
 30
0.0
  3
SE1
  1

  0
LINE
  5
BD
330
BB
100
AcDbEntity
  8
$DDT_AUDIT_GENERATED_(8C)
  6
Continuous
 62
     7
100
AcDbLine
 10
27.326016973
 20
181.3127466748
 30
0.0
 11
47.326016973
 21
181.3127466748
 31
0.0
  0
LINE
  5
BE
330
BB
100
AcDbEntity
  8
$DDT_AUDIT_GENERATED_(8C)
  6
Continuous
 62
     7
100
AcDbLine
 10
67.326016973
 20
181.3127466748
 30
0.0
 11
87.326016973
 21
181.3127466748
 31
0.0
  0
LINE
  5
BF
330
BB
100
AcDbEntity
  8
$DDT_AUDIT_GENERATED_(8C)
  6
Continuous
 62
     7
100
AcDbLine
 10
27.326016973
 20
181.3127466748
 30
0.0
 11
31.2182799505
 21
179.8584945733
 31
0.0
  0
LINE
  5
C0
330
BB
100
AcDbEntity
  8
$DDT_AUDIT_GENERATED_(8C)
  6
Continuous
 62
     7
100
AcDbLine
 10
83.4337539954
 20
179.8584945733
 30
0.0
 11
87.326016973
 21
181.3127466748
 31
0.0
  0
LINE
  5
C1
330
BB
100
AcDbEntity
  8
$DDT_AUDIT_GENERATED_(8C)
  6
Continuous
 62
     7
100
AcDbLine
 10
87.326016973
 20
181.3127466748
 30
0.0
 11
87.326016973
 21
181.6127466748
 31
0.0
  0
LINE
  5
C2
330
BB
100
AcDbEntity
  8
$DDT_AUDIT_GENERATED_(8C)
  6
Continuous
 62
     7
100
AcDbLine
 10
27.326016973
 20
181.6127466748
 30
0.0
 11
27.326016973
 21
181.3127466748
 31
0.0
  0
LINE
  5
C3
330
BB
100
AcDbEntity
  8
$DDT_AUDIT_GENERATED_(8F)
  6
Continuous
 62
     7
100
AcDbLine
 10
47.326016973
 20
181.3127466748
 30
0.0
 11
67.326016973
 21
181.3127466748
 31
0.0
  0
LINE
  5
C4
330
BB
100
AcDbEntity
  8
$DDT_AUDIT_GENERATED_(8F)
  6
Continuous
 62
     7
100
AcDbLine
 10
47.326016973
 20
181.3127466748
 30
0.0
 11
51.326016973
 21
179.7127466748
 31
0.0
  0
LINE
  5
C5
330
BB
100
AcDbEntity
  8
$DDT_AUDIT_GENERATED_(8F)
  6
Continuous
 62
     7
100
AcDbLine
 10
63.326016973
 20
179.7127466748
 30
0.0
 11
67.326016973
 21
181.3127466748
 31
0.0
  0
LINE
  5
C6
330
BB
100
AcDbEntity
  8
$DDT_AUDIT_GENERATED_(8F)
  6
Continuous
 62
     7
100
AcDbLine
 10
67.326016973
 20
181.3127466748
 30
0.0
 11
67.326016973
 21
181.6127466748
 31
0.0
  0
LINE
  5
C7
330
BB
100
AcDbEntity
  8
$DDT_AUDIT_GENERATED_(8F)
  6
Continuous
 62
     7
100
AcDbLine
 10
47.326016973
 20
181.6127466748
 30
0.0
 11
47.326016973
 21
181.3127466748
 31
0.0
  0
LINE
  5
C8
330
BB
100
AcDbEntity
  8
$DDT_AUDIT_GENERATED_(91)
  6
Continuous
 62
     7
100
AcDbLine
 10
4.826016973
 20
191.6127466748
 30
0.0
 11
109.826016973
 21
191.6127466748
 31
0.0
  0
LINE
  5
C9
330
BB
100
AcDbEntity
  8
$DDT_AUDIT_GENERATED_(91)
  6
Continuous
 62
     7
100
AcDbLine
 10
109.826016973
 20
191.6127466748
 30
0.0
 11
109.826016973
 21
183.1127466748
 31
0.0
  0
LINE
  5
CA
330
BB
100
AcDbEntity
  8
$DDT_AUDIT_GENERATED_(91)
  6
Continuous
 62
     7
100
AcDbLine
 10
4.826016973
 20
191.6127466748
 30
0.0
 11
4.826016973
 21
183.1127466748
 31
0.0
  0
LINE
  5
CB
330
BB
100
AcDbEntity
  8
$DDT_AUDIT_GENERATED_(91)
  6
Continuous
 62
     7
100
AcDbLine
 10
108.326016973
 20
181.6127466748
 30
0.0
 11
6.326016973
 21
181.6127466748
 31
0.0
  0
ARC
  5
CC
330
BB
100
AcDbEntity
  8
$DDT_AUDIT_GENERATED_(91)
  6
Continuous
 62
     7
100
AcDbCircle
 10
108.326016973
 20
183.1127466748
 30
0.0
 40
1.500000000000001
100
AcDbArc
 50
270.0
 51
0.0
  0
ARC
  5
CD
330
BB
100
AcDbEntity
  8
$DDT_AUDIT_GENERATED_(91)
  6
Continuous
 62
     7
100
AcDbCircle
 10
6.326016973
 20
183.1127466748
 30
0.0
 40
1.500000000000001
100
AcDbArc
 50
180.0
 51
270.0
  0
LINE
  5
CF
330
BB
100
AcDbEntity
  8
$DDT_AUDIT_GENERATED_(CE)
  6
Continuous
 62
     7
100
AcDbLine
 10
51.626016973
 20
176.1127466748
 30
0.0
 11
63.026016973
 21
176.1127466748
 31
0.0
  0
ARC
  5
D0
330
BB
100
AcDbEntity
  8
$DDT_AUDIT_GENERATED_(CE)
  6
Continuous
 62
     7
100
AcDbCircle
 10
51.626016973
 20
176.4127466748
 30
0.0
 40
0.2999999999999999
100
AcDbArc
 50
180.0
 51
270.0
  0
ARC
  5
D1
330
BB
100
AcDbEntity
  8
$DDT_AUDIT_GENERATED_(CE)
  6
Continuous
 62
     7
100
AcDbCircle
 10
63.026016973
 20
176.4127466748
 30
0.0
 40
0.3000000000000086
100
AcDbArc
 50
270.0
 51
0.0
  0
LINE
  5
D2
330
BB
100
AcDbEntity
  8
$DDT_AUDIT_GENERATED_(97)
  6
Continuous
 62
     7
100
AcDbLine
 10
62.576016973
 20
159.6654536983
 30
0.0
 11
52.076016973
 21
159.6654536983
 31
0.0
  0
ARC
  5
D3
330
BB
100
AcDbEntity
  8
$DDT_AUDIT_GENERATED_(97)
  6
Continuous
 62
     7
100
AcDbCircle
 10
57.326016973
 20
204.6654536983
 30
0.0
 40
50.00000000000001
100
AcDbArc
 50
264.1432980901
 51
270.0
  0
ARC
  5
D4
330
BB
100
AcDbEntity
  8
$DDT_AUDIT_GENERATED_(97)
  6
Continuous
 62
     7
100
AcDbCircle
 10
57.326016973
 20
204.6654536983
 30
0.0
 40
50.0
100
AcDbArc
 50
270.0
 51
275.8567019099
  0
LINE
  5
D5
330
BB
100
AcDbEntity
  8
$DDT_AUDIT_GENERATED_(97)
  6
Continuous
 62
     7
100
AcDbLine
 10
51.326016973
 20
158.6972078617
 30
0.0
 11
51.326016973
 21
155.9212232705
 31
0.0
  0
LINE
  5
D6
330
BB
100
AcDbEntity
  8
$DDT_AUDIT_GENERATED_(97)
  6
Continuous
 62
     7
100
AcDbLine
 10
63.326016973
 20
155.9212232705
 30
0.0
 11
63.326016973
 21
158.6972078617
 31
0.0
  0
ARC
  5
D7
330
BB
100
AcDbEntity
  8
$DDT_AUDIT_GENERATED_(97)
  6
Continuous
 62
     7
100
AcDbCircle
 10
52.326016973
 20
158.6972078617
 30
0.0
 40
0.999999999999995
100
AcDbArc
 50
104.4775121859
 51
180.0
  0
ARC
  5
D8
330
BB
100
AcDbEntity
  8
$DDT_AUDIT_GENERATED_(97)
  6
Continuous
 62
     7
100
AcDbCircle
 10
62.326016973
 20
158.6972078617
 30
0.0
 40
1.0
100
AcDbArc
 50
0.0
 51
75.5224878141
  0
ARC
  5
D9
330
BB
100
AcDbEntity
  8
$DDT_AUDIT_GENERATED_(97)
  6
Continuous
 62
     7
100
AcDbCircle
 10
51.826016973
 20
160.6336995348
 30
0.0
 40
1.000000000000001
100
AcDbArc
 50
284.4775121859
 51
0.0
  0
ARC
  5
DA
330
BB
100
AcDbEntity
  8
$DDT_AUDIT_GENERATED_(97)
  6
Continuous
 62
     7
100
AcDbCircle
 10
62.826016973
 20
160.6336995348
 30
0.0
 40
0.999999999999994
100
AcDbArc
 50
180.0
 51
255.5224878141
  0
LINE
  5
DB
330
BB
100
AcDbEntity
  8
$DDT_AUDIT_GENERATED_(97)
  6
Continuous
 62
     7
100
AcDbLine
 10
52.826016973
 20
176.1127466748
 30
0.0
 11
52.826016973
 21
160.6336995348
 31
0.0
  0
LINE
  5
DC
330
BB
100
AcDbEntity
  8
$DDT_AUDIT_GENERATED_(97)
  6
Continuous
 62
     7
100
AcDbLine
 10
61.826016973
 20
160.6336995348
 30
0.0
 11
61.826016973
 21
176.1127466748
 31
0.0
  0
ARC
  5
DD
330
BB
100
AcDbEntity
  8
$DDT_AUDIT_GENERATED_(97)
  6
Continuous
 62
     7
100
AcDbCircle
 10
52.326016973
 20
155.9212232705
 30
0.0
 40
1.000000000000001
100
AcDbArc
 50
180.0
 51
264.1432980901
  0
ARC
  5
DE
330
BB
100
AcDbEntity
  8
$DDT_AUDIT_GENERATED_(97)
  6
Continuous
 62
     7
100
AcDbCircle
 10
62.326016973
 20
155.9212232705
 30
0.0
 40
0.9999999999999998
100
AcDbArc
 50
275.8567019099
 51
0.0
  0
SPLINE
  5
DF
330
BB
100
AcDbEntity
  8
$DDT_AUDIT_GENERATED_(99)
  6
Continuous
 62
     7
100
AcDbSpline
210
0.0
220
0.0
230
1.0
 70
     8
 71
     3
 72
     8
 73
     4
 74
     0
 42
0.0000000003032979
 43
0.0000000001
 40
0.3362419644325891
 40
0.3362419644325891
 40
0.3362419644325891
 40
0.3362419644325891
 40
0.3370349826766054
 40
0.3370349826766054
 40
0.3370349826766054
 40
0.3370349826766054
 10
37.63555691380451
 20
125.5708305430779
 30
0.0
 10
37.63380734531744
 20
125.5793871441626
 30
0.0
 10
37.63210289202056
 20
125.5879344536473
 30
0.0
 10
37.63044468652106
 20
125.5964721930683
 30
0.0
  0
SPLINE
  5
E0
330
BB
100
AcDbEntity
  8
$DDT_AUDIT_GENERATED_(99)
  6
Continuous
 62
     7
100
AcDbSpline
210
0.0
220
0.0
230
1.0
 70
     8
 71
     3
 72
    40
 73
    36
 74
     0
 42
0.0000000000780337
 43
0.0000000001
 40
0.3370349826766054
 40
0.3370349826766054
 40
0.3370349826766054
 40
0.3370349826766054
 40
0.3437500000000001
 40
0.3437500000000001
 40
0.3750000000000002
 40
0.3750000000000002
 40
0.4062500000000002
 40
0.4062500000000002
 40
0.4218750000000003
 40
0.4218750000000003
 40
0.4375000000000002
 40
0.4375000000000002
 40
0.4531250000000002
 40
0.4531250000000002
 40
0.4687500000000002
 40
0.4687500000000002
 40
0.5000000000000002
 40
0.5000000000000002
 40
0.5156250000000002
 40
0.5156250000000002
 40
0.5312500000000002
 40
0.5312500000000002
 40
0.5468750000000002
 40
0.5468750000000002
 40
0.5625000000000002
 40
0.5625000000000002
 40
0.5781250000000002
 40
0.5781250000000002
 40
0.5937500000000002
 40
0.5937500000000002
 40
0.6250000000000001
 40
0.6250000000000001
 40
0.6562500000000001
 40
0.6562500000000001
 40
0.6614831228562664
 40
0.6614831228562664
 40
0.6614831228562664
 40
0.6614831228562664
 10
37.63044468652106
 20
125.5964721930683
 30
0.0
 10
37.61640354845275
 20
125.6687669587272
 30
0.0
 10
37.60567844435461
 20
125.7403755369695
 30
0.0
 10
37.56767726065431
 20
126.1403970124556
 30
0.0
 10
37.62542947681603
 20
126.4482235953804
 30
0.0
 10
38.25597043887065
 20
126.9559647818162
 30
0.0
 10
38.84100099850775
 20
127.1554547784017
 30
0.0
 10
40.32230222771268
 20
127.3279213047858
 30
0.0
 10
40.9273475075658
 20
127.3652459927951
 30
0.0
 10
42.32987792358087
 20
127.3989378132439
 30
0.0
 10
43.12583063212973
 20
127.3960194953455
 30
0.0
 10
44.90762016171063
 20
127.3644202304477
 30
0.0
 10
45.90459309339821
 20
127.3354937682803
 30
0.0
 10
47.99982162550023
 20
127.2728451689613
 30
0.0
 10
49.10346592225879
 20
127.2392988092247
 30
0.0
 10
52.58066768761205
 20
127.1525738976171
 30
0.0
 10
55.03330799879234
 20
127.1176921481457
 30
0.0
 10
58.78476722908411
 20
127.1205820428852
 30
0.0
 10
60.01358844279083
 20
127.1302095938683
 30
0.0
 10
62.43081507982547
 20
127.1648914686874
 30
0.0
 10
63.63116114888194
 20
127.1904854308593
 30
0.0
 10
65.9218414305592
 20
127.2500495623956
 30
0.0
 10
67.01188506102498
 20
127.283868947799
 30
0.0
 10
69.07811664811801
 20
127.3450619914016
 30
0.0
 10
70.0575244807154
 20
127.3721227702978
 30
0.0
 10
71.80151226963378
 20
127.397943942199
 30
0.0
 10
72.57791704433184
 20
127.3969978160495
 30
0.0
 10
73.94036038934237
 20
127.354174741867
 30
0.0
 10
74.51768039858713
 20
127.3120820843744
 30
0.0
 10
75.93337282925987
 20
127.1253859748656
 30
0.0
 10
76.47802598357676
 20
126.9165592652266
 30
0.0
 10
77.04681600295305
 20
126.4003541971812
 30
0.0
 10
77.08791801838521
 20
126.0911906312535
 30
0.0
 10
77.04100240183212
 20
125.7068274949891
 30
0.0
 10
77.03201518006489
 20
125.6511895053622
 30
0.0
 10
77.02107224606185
 20
125.595127553096
 30
0.0
  0
SPLINE
  5
E1
330
BB
100
AcDbEntity
  8
$DDT_AUDIT_GENERATED_(99)
  6
Continuous
 62
     7
100
AcDbSpline
210
0.0
220
0.0
230
1.0
 70
     8
 71
     3
 72
     8
 73
     4
 74
     0
 42
0.0000000003052429
 43
0.0000000001
 40
0.6614831228562664
 40
0.6614831228562664
 40
0.6614831228562664
 40
0.6614831228562664
 40
0.6616626451524757
 40
0.6616626451524757
 40
0.6616626451524757
 40
0.6616626451524757
 10
77.02107224606185
 20
125.595127553096
 30
0.0
 10
77.0206968486761
 20
125.5932043476454
 30
0.0
 10
77.02031914974319
 20
125.5912806432614
 30
0.0
 10
77.0199391614534
 20
125.5893564432203
 30
0.0
  0
ELLIPSE
  5
E2
330
BB
100
AcDbEntity
  8
$DDT_AUDIT_GENERATED_(99)
  6
Continuous
 62
     7
100
AcDbEllipse
 10
69.7289938892
 20
115.4497799576
 30
0.0
 11
-1.165785585497641
 21
0.9438982829976799
 31
0.0
210
0.0
220
0.0
230
1.0
 40
0.9899761817
 41
3.141586106263061
 42
3.17496085177933
  0
ELLIPSE
  5
E3
330
BB
100
AcDbEntity
  8
$DDT_AUDIT_GENERATED_(99)
  6
Continuous
 62
     7
100
AcDbEllipse
 10
44.9230400567
 20
115.4497799576
 30
0.0
 11
1.165785585498389
 21
0.9438982829966521
 31
0.0
210
0.0
220
0.0
230
1.0
 40
0.9899761817
 41
3.106333921735155
 42
3.144499791162537
  0
SPLINE
  5
E4
330
BB
100
AcDbEntity
  8
$DDT_AUDIT_GENERATED_(99)
  6
Continuous
 62
     7
100
AcDbSpline
210
0.0
220
0.0
230
1.0
 70
     8
 71
     3
 72
    10
 73
     6
 74
     0
 42
0.0000000000957987
 43
0.0000000001
 40
0.8990075279488037
 40
0.8990075279488037
 40
0.8990075279488037
 40
0.8990075279488037
 40
0.9375000000000001
 40
0.9375000000000001
 40
1.0
 40
1.0
 40
1.0
 40
1.0
 10
81.26064402931046
 20
147.7128313803524
 30
0.0
 10
81.49724787577141
 20
149.025462562451
 30
0.0
 10
81.73514057275342
 20
150.3435745672531
 30
0.0
 10
82.35666845407879
 20
153.8053548401404
 30
0.0
 10
82.73541572190257
 20
155.9481173777098
 30
0.0
 10
83.10669583866641
 20
158.0920565692999
 30
0.0
  0
SPLINE
  5
E5
330
BB
100
AcDbEntity
  8
$DDT_AUDIT_GENERATED_(99)
  6
Continuous
 62
     7
100
AcDbSpline
210
0.0
220
0.0
230
1.0
 70
     8
 71
     3
 72
    10
 73
     6
 74
     0
 42
0.000000000095792
 43
0.0000000001
 40
0.0
 40
0.0
 40
0.0
 40
0.0
 40
0.0625000000000001
 40
0.0625000000000001
 40
0.1002186946576118
 40
0.1002186946576118
 40
0.1002186946576118
 40
0.1002186946576118
 10
31.54533816476045
 20
158.0920565698445
 30
0.0
 10
31.91663266464413
 20
155.948034269981
 30
0.0
 10
32.2953950071656
 20
153.805188730433
 30
0.0
 10
32.9121853818731
 20
150.3697985616999
 30
0.0
 10
33.14528515680393
 20
149.0781077758636
 30
0.0
 10
33.37719135596122
 20
147.7916001418241
 30
0.0
  0
SPLINE
  5
E6
330
BB
100
AcDbEntity
  8
$DDT_AUDIT_GENERATED_(99)
  6
Continuous
 62
     7
100
AcDbSpline
210
0.0
220
0.0
230
1.0
 70
     8
 71
     3
 72
    30
 73
    26
 74
     0
 42
0.000000000152728
 43
0.0000000001
 40
0.0
 40
0.0
 40
0.0
 40
0.0
 40
0.125
 40
0.125
 40
0.2499999999999999
 40
0.2499999999999999
 40
0.3124999999999999
 40
0.3124999999999999
 40
0.3749999999999999
 40
0.3749999999999999
 40
0.4374999999999999
 40
0.4374999999999999
 40
0.4999999999999999
 40
0.4999999999999999
 40
0.5624999999999999
 40
0.5624999999999999
 40
0.6249999999999999
 40
0.6249999999999999
 40
0.6874999999999999
 40
0.6874999999999999
 40
0.7499999999999998
 40
0.7499999999999998
 40
0.8749999999999999
 40
0.8749999999999999
 40
1.0
 40
1.0
 40
1.0
 40
1.0
 10
82.97888622675225
 20
157.5454341067471
 30
0.0
 10
82.54704684664881
 20
155.6507398561388
 30
0.0
 10
81.93561793581506
 20
153.7886174404791
 30
0.0
 10
79.63127962898345
 20
150.23120470103
 30
0.0
 10
77.9513461721105
 20
148.500956529459
 30
0.0
 10
74.73006718391123
 20
146.2154380112452
 30
0.0
 10
73.52070553226304
 20
145.495726433315
 30
0.0
 10
70.84257665864801
 20
144.2021118685629
 30
0.0
 10
69.39419218302878
 20
143.6356829861387
 30
0.0
 10
66.25300031263005
 20
142.6824536572792
 30
0.0
 10
64.55788835730927
 20
142.2993667563605
 30
0.0
 10
61.0957228345715
 20
141.7818357526317
 30
0.0
 10
59.28040496539062
 20
141.6397807758935
 30
0.0
 10
55.63363713681875
 20
141.6270289934995
 30
0.0
 10
53.84123795788795
 20
141.7527058471124
 30
0.0
 10
50.31514089841417
 20
142.254698142202
 30
0.0
 10
48.62655236011086
 20
142.6259385272081
 30
0.0
 10
45.46005058276032
 20
143.56341993155
 30
0.0
 10
43.97196002804201
 20
144.1347641250472
 30
0.0
 10
41.28458121042386
 20
145.4118205379864
 30
0.0
 10
40.05748391654532
 20
146.1301160972555
 30
0.0
 10
36.78916103336486
 20
148.4182472104755
 30
0.0
 10
35.11964581632065
 20
150.1082963481134
 30
0.0
 10
32.73253141894182
 20
153.7353909412424
 30
0.0
 10
32.10890580011261
 20
155.6335470756142
 30
0.0
 10
31.67314779242875
 20
157.5454341085598
 30
0.0
  0
LINE
  5
E7
330
BB
100
AcDbEntity
  8
$DDT_AUDIT_GENERATED_(99)
  6
Continuous
 62
     7
100
AcDbLine
 10
31.9787961331
 20
158.6094859937
 30
0.0
 11
32.0700847876
 21
158.6094859937
 31
0.0
  0
ELLIPSE
  5
E8
330
BB
100
AcDbEntity
  8
$DDT_AUDIT_GENERATED_(99)
  6
Continuous
 62
     7
100
AcDbEllipse
 10
82.8111216824
 20
158.1430992627
 30
0.0
 11
0.291643222311698
 21
-0.07031522509134976
 31
0.0
210
0.0
220
0.0
230
1.0
 40
0.9626545878
 41
0.0681180143268621
 42
1.798854651950065
  0
ELLIPSE
  5
E9
330
BB
100
AcDbEntity
  8
$DDT_AUDIT_GENERATED_(99)
  6
Continuous
 62
     7
100
AcDbEllipse
 10
57.326016973
 20
159.964918058
 30
0.0
 11
-25.32402083906676
 21
-2.422587469083930E-12
 31
0.0
210
0.0
220
0.0
230
1.0
 40
0.5299192642
 41
0.1687672845641394
 42
0.4339314756577447
  0
LINE
  5
EA
330
BB
100
AcDbEntity
  8
$DDT_AUDIT_GENERATED_(99)
  6
Continuous
 62
     7
100
AcDbLine
 10
32.0700847876
 20
158.6094859937
 30
0.0
 11
33.672870212
 21
158.6094859937
 31
0.0
  0
LINE
  5
EB
330
BB
100
AcDbEntity
  8
$DDT_AUDIT_GENERATED_(99)
  6
Continuous
 62
     7
100
AcDbLine
 10
80.9874279055
 20
158.6094859935
 30
0.0
 11
82.5819491583
 21
158.6094859935
 31
0.0
  0
ELLIPSE
  5
EC
330
BB
100
AcDbEntity
  8
$DDT_AUDIT_GENERATED_(99)
  6
Continuous
 62
     7
100
AcDbEllipse
 10
57.326016973
 20
159.964918058
 30
0.0
 11
25.32402083906727
 21
4.948575394765733E-14
 31
0.0
210
0.0
220
0.0
230
1.0
 40
0.5299192642
 41
5.78295996961517
 42
6.114418022600775
  0
SPLINE
  5
ED
330
BB
100
AcDbEntity
  8
$DDT_AUDIT_GENERATED_(99)
  6
Continuous
 62
     7
100
AcDbSpline
210
0.0
220
0.0
230
1.0
 70
     8
 71
     3
 72
    10
 73
     6
 74
     0
 42
0.0000000581218121
 43
0.0000000001
 40
0.4946099033573498
 40
0.4946099033573498
 40
0.4946099033573498
 40
0.4946099033573498
 40
0.5
 40
0.5
 40
1.0
 40
1.0
 40
1.0
 40
1.0
 10
66.79818707206543
 20
147.5753123578231
 30
0.0
 10
66.79840144896059
 20
147.5753690263529
 30
0.0
 10
66.79861634122649
 20
147.5754236389076
 30
0.0
 10
66.81881326667197
 20
147.580351159188
 30
0.0
 10
66.84327008902412
 20
147.5668393657607
 30
0.0
 10
66.86741686787812
 20
147.5377835583162
 30
0.0
  0
ARC
  5
EE
330
BB
100
AcDbEntity
  8
$DDT_AUDIT_GENERATED_(99)
  6
Continuous
 62
     7
100
AcDbCircle
 10
503.7423922915
 20
226.4249797379
 30
0.0
 40
476.8924167024948
100
AcDbArc
 50
189.490588627
 51
192.2068520983
  0
ARC
  5
EF
330
BB
100
AcDbEntity
  8
$DDT_AUDIT_GENERATED_(99)
  6
Continuous
 62
     7
100
AcDbCircle
 10
-377.1231761879
 20
224.1086131474
 30
0.0
 40
464.7061595952567
100
AcDbArc
 50
347.7607438632
 51
350.5379506739
  0
SPLINE
  5
F0
330
BB
100
AcDbEntity
  8
$DDT_AUDIT_GENERATED_(99)
  6
Continuous
 62
     7
100
AcDbSpline
210
0.0
220
0.0
230
1.0
 70
     8
 71
     3
 72
    19
 73
    15
 74
     0
 42
0.0000000023922978
 43
0.0000000001
 40
0.0
 40
0.0
 40
0.0
 40
0.0
 40
0.0208444336461472
 40
0.1228834648852447
 40
0.2254089617110753
 40
0.3290356008704388
 40
0.4338581173709793
 40
0.5432121882820747
 40
0.6571059986921334
 40
0.7662526230078306
 40
0.842297368307057
 40
0.8978628382207581
 40
0.9539340130354893
 40
0.9794124863655463
 40
0.9794124863655463
 40
0.9794124863655463
 40
0.9794124863655463
 10
66.9176696766527
 20
113.5294801754156
 30
0.0
 10
66.95825020930822
 20
113.531067481894
 30
0.0
 10
67.1633440140922
 20
113.5391445365707
 30
0.0
 10
67.5616962055344
 20
113.563679550665
 30
0.0
 10
68.06382975089775
 20
113.6016576432546
 30
0.0
 10
68.53988643925786
 20
113.6488957526894
 30
0.0
 10
68.9830282940822
 20
113.7043633375467
 30
0.0
 10
69.39053335449009
 20
113.7701901702159
 30
0.0
 10
69.75346040550208
 20
113.8472706682116
 30
0.0
 10
70.05691671626309
 20
113.9363369712264
 30
0.0
 10
70.31666847181314
 20
114.0449463953788
 30
0.0
 10
70.53756044106915
 20
114.1730955502091
 30
0.0
 10
70.7094394872736
 20
114.3042145231143
 30
0.0
 10
70.79511400353387
 20
114.3963858577571
 30
0.0
 10
70.822523268632
 20
114.4275264536484
 30
0.0
  0
ARC
  5
F1
330
BB
100
AcDbEntity
  8
$DDT_AUDIT_GENERATED_(99)
  6
Continuous
 62
     7
100
AcDbCircle
 10
74.5757700775
 20
138.8669627548
 30
0.0
 40
39.2590670417328
100
AcDbArc
 50
199.8054122916
 51
218.2527002804
  0
ARC
  5
F2
330
BB
100
AcDbEntity
  8
$DDT_AUDIT_GENERATED_(99)
  6
Continuous
 62
     7
100
AcDbCircle
 10
40.1490742987
 20
138.8039284366
 30
0.0
 40
39.16692556619389
100
AcDbArc
 50
321.7504569288
 51
340.2797572678
  0
ARC
  5
F3
330
BB
100
AcDbEntity
  8
$DDT_AUDIT_GENERATED_(99)
  6
Continuous
 62
     7
100
AcDbCircle
 10
57.3053156519
 20
335.487474154
 30
0.0
 40
222.1679599366768
100
AcDbArc
 50
267.5310870312
 51
272.4792713191
  0
SPLINE
  5
F4
330
BB
100
AcDbEntity
  8
$DDT_AUDIT_GENERATED_(99)
  6
Continuous
 62
     7
100
AcDbSpline
210
0.0
220
0.0
230
1.0
 70
     8
 71
     3
 72
    19
 73
    15
 74
     0
 42
0.0000000023943571
 43
0.0000000001
 40
0.0187670288864401
 40
0.0187670288864401
 40
0.0187670288864401
 40
0.0187670288864401
 40
0.0473217410000055
 40
0.0976882223929305
 40
0.149225241662279
 40
0.2053915955382167
 40
0.2738642236054224
 40
0.3712748621625194
 40
0.4831149194153824
 40
0.5888820606207216
 40
0.700011412616762
 40
0.805837794582293
 40
0.9093342956091472
 40
1.0
 40
1.0
 40
1.0
 40
1.0
 10
43.82524391156353
 20
114.4309369307962
 30
0.0
 10
43.85642950613985
 20
114.3962230917869
 30
0.0
 10
43.93960107467191
 20
114.3083197597504
 30
0.0
 10
44.10154715191764
 20
114.1826402658926
 30
0.0
 10
44.28849276603595
 20
114.0706090072215
 30
0.0
 10
44.48419368272713
 20
113.9807587551933
 30
0.0
 10
44.71446032579973
 20
113.8992912142585
 30
0.0
 10
45.00036690996884
 20
113.8238846975068
 30
0.0
 10
45.35381919852871
 20
113.7537308878807
 30
0.0
 10
45.77445127429695
 20
113.6898671943968
 30
0.0
 10
46.23562003042434
 20
113.6353309348045
 30
0.0
 10
46.73400938207122
 20
113.5895285608059
 30
0.0
 10
47.24413155221956
 20
113.5531987566417
 30
0.0
 10
47.55941423967165
 20
113.5376497796297
 30
0.0
 10
47.73367329637423
 20
113.529265124925
 30
0.0
  0
SPLINE
  5
F5
330
BB
100
AcDbEntity
  8
$DDT_AUDIT_GENERATED_(99)
  6
Continuous
 62
     7
100
AcDbSpline
210
0.0
220
0.0
230
1.0
 70
     8
 71
     3
 72
    12
 73
     8
 74
     0
 42
0.0000000166407878
 43
0.0000000001
 40
0.0
 40
0.0
 40
0.0
 40
0.0
 40
0.0534368436967719
 40
0.309610463450199
 40
0.5744008158681272
 40
0.8415302421082623
 40
1.0
 40
1.0
 40
1.0
 40
1.0
 10
31.97618435935387
 20
158.604792530551
 30
0.0
 10
31.96457056600859
 20
158.6064118567157
 30
0.0
 10
31.90724228177842
 20
158.6140982219983
 30
0.0
 10
31.77229300041467
 20
158.5668191411513
 30
0.0
 10
31.64941178750289
 20
158.4598654928004
 30
0.0
 10
31.58272155368015
 20
158.3451718177685
 30
0.0
 10
31.5653580065638
 20
158.2830825230309
 30
0.0
 10
31.55834285446699
 20
158.2556435305859
 30
0.0
  0
SPLINE
  5
F6
330
BB
100
AcDbEntity
  8
$DDT_AUDIT_GENERATED_(99)
  6
Continuous
 62
     7
100
AcDbSpline
210
0.0
220
0.0
230
1.0
 70
     8
 71
     3
 72
    12
 73
     8
 74
     0
 42
0.0000000166128544
 43
0.0000000001
 40
0.0
 40
0.0
 40
0.0
 40
0.0
 40
0.0508270333034587
 40
0.3522017215483982
 40
0.6159729795787092
 40
0.872064565811164
 40
1.0
 40
1.0
 40
1.0
 40
1.0
 10
83.09665490136094
 20
158.2546251312392
 30
0.0
 10
83.09451818165282
 20
158.2633326126792
 30
0.0
 10
83.08142340204763
 20
158.3149935876624
 30
0.0
 10
83.03161460607664
 20
158.4197470097165
 30
0.0
 10
82.92131338065298
 20
158.5399488289135
 30
0.0
 10
82.7791346059115
 20
158.6075537850099
 30
0.0
 10
82.7054199140986
 20
158.6034543277915
 30
0.0
 10
82.67619359726663
 20
158.6015494299389
 30
0.0
  0
ARC
  5
F7
330
BB
100
AcDbEntity
  8
$DDT_AUDIT_GENERATED_(99)
  6
Continuous
 62
     7
100
AcDbCircle
 10
82.9085191737
 20
158.1635098372
 30
0.0
 40
0.2037019128160374
100
AcDbArc
 50
340.6968185128
 51
25.9246150113
  0
ARC
  5
F8
330
BB
100
AcDbEntity
  8
$DDT_AUDIT_GENERATED_(99)
  6
Continuous
 62
     7
100
AcDbCircle
 10
62.3619232178
 20
173.6045848466
 30
0.0
 40
26.40410376335964
100
AcDbArc
 50
279.6755203649
 51
310.6633756623
  0
ARC
  5
F9
330
BB
100
AcDbEntity
  8
$DDT_AUDIT_GENERATED_(99)
  6
Continuous
 62
     7
100
AcDbCircle
 10
51.7610732182
 20
172.2165437977
 30
0.0
 40
24.94884482046083
100
AcDbArc
 50
225.6747804665
 51
260.9813351572
  0
ARC
  5
FA
330
BB
100
AcDbEntity
  8
$DDT_AUDIT_GENERATED_(99)
  6
Continuous
 62
     7
100
AcDbCircle
 10
57.3243841285
 20
185.6923536454
 30
0.0
 40
39.27586438032067
100
AcDbArc
 50
256.0587130295
 51
283.9575137397
  0
ARC
  5
FB
330
BB
100
AcDbEntity
  8
$DDT_AUDIT_GENERATED_(99)
  6
Continuous
 62
     7
100
AcDbCircle
 10
47.7877678156
 20
147.2826987797
 30
0.0
 40
0.3000000000000042
100
AcDbArc
 50
75.7232775739
 51
77.9911037338
  0
LINE
  5
FC
330
BB
100
AcDbEntity
  8
$DDT_AUDIT_GENERATED_(B6)
  6
Continuous
 62
     7
100
AcDbLine
 10
31.881887966
 20
160.6120926758
 30
0.0
 11
52.8257835175
 21
160.6120926758
 31
0.0
  0
LINE
  5
FD
330
BB
100
AcDbEntity
  8
$DDT_AUDIT_GENERATED_(B6)
  6
Continuous
 62
     7
100
AcDbLine
 10
61.8262504284
 20
160.6120926758
 30
0.0
 11
82.7701459799
 21
160.6120926758
 31
0.0
  0
LINE
  5
FE
330
BB
100
AcDbEntity
  8
$DDT_AUDIT_GENERATED_(B6)
  6
Continuous
 62
     7
100
AcDbLine
 10
53.3999128921
 20
146.6120926758
 30
0.0
 11
61.2856094423
 21
146.6120926758
 31
0.0
  0
ARC
  5
FF
330
BB
100
AcDbEntity
  8
$DDT_AUDIT_GENERATED_(B6)
  6
Continuous
 62
     7
100
AcDbCircle
 10
57.326016973
 20
166.6120926758
 30
0.0
 40
25.00000000000011
100
AcDbArc
 50
193.8865403626
 51
216.0153253915
  0
ARC
  5
100
330
BB
100
AcDbEntity
  8
$DDT_AUDIT_GENERATED_(B6)
  6
Continuous
 62
     7
100
AcDbCircle
 10
57.326016973
 20
166.6120926758
 30
0.0
 40
25.00000000000005
100
AcDbArc
 50
323.9303585847
 51
346.1134596374
  0
LINE
  5
101
330
BB
100
AcDbEntity
  8
$DDT_AUDIT_GENERATED_(B6)
  6
Continuous
 62
     7
100
AcDbLine
 10
31.2182799505
 20
179.8584945733
 30
0.0
 11
31.3819070025
 21
161.1077296318
 31
0.0
  0
LINE
  5
102
330
BB
100
AcDbEntity
  8
$DDT_AUDIT_GENERATED_(B6)
  6
Continuous
 62
     7
100
AcDbLine
 10
83.2701269434
 20
161.1077296318
 30
0.0
 11
83.4337539954
 21
179.8584945733
 31
0.0
  0
ARC
  5
103
330
BB
100
AcDbEntity
  8
$DDT_AUDIT_GENERATED_(B6)
  6
Continuous
 62
     7
100
AcDbCircle
 10
82.7701459799
 20
161.1120926758
 30
0.0
 40
0.5000000000000004
100
AcDbArc
 50
270.0
 51
359.5000256491
  0
ARC
  5
104
330
BB
100
AcDbEntity
  8
$DDT_AUDIT_GENERATED_(B6)
  6
Continuous
 62
     7
100
AcDbCircle
 10
31.881887966
 20
161.1120926758
 30
0.0
 40
0.5000000000000033
100
AcDbArc
 50
180.4999743509
 51
270.0
  0
ENDBLK
  5
106
330
BB
100
AcDbEntity
  8
0
100
AcDbBlockEnd
  0
BLOCK
  5
150
330
107
100
AcDbEntity
  8
0
100
AcDbBlockBegin
  2
SE2
 70
     0
 10
0.0
 20
0.0
 30
0.0
  3
SE2
  1

  0
LINE
  5
109
330
107
100
AcDbEntity
  8
$DDT_AUDIT_GENERATED_(8C)
  6
Continuous
 62
     7
100
AcDbLine
 10
231.6098049272
 20
327.9437455123
 30
0.0
 11
231.6098049272
 21
387.9437455123
 31
0.0
  0
LINE
  5
10A
330
107
100
AcDbEntity
  8
$DDT_AUDIT_GENERATED_(8C)
  6
Continuous
 62
     7
100
AcDbLine
 10
231.6098049272
 20
327.9437455123
 30
0.0
 11
233.0640570287
 21
331.8360084899
 31
0.0
  0
LINE
  5
10B
330
107
100
AcDbEntity
  8
$DDT_AUDIT_GENERATED_(8C)
  6
Continuous
 62
     7
100
AcDbLine
 10
233.0640570287
 20
384.0514825348
 30
0.0
 11
231.6098049272
 21
387.9437455123
 31
0.0
  0
LINE
  5
10C
330
107
100
AcDbEntity
  8
$DDT_AUDIT_GENERATED_(8C)
  6
Continuous
 62
     7
100
AcDbLine
 10
231.6098049272
 20
387.9437455123
 30
0.0
 11
231.3098049272
 21
387.9437455123
 31
0.0
  0
LINE
  5
10D
330
107
100
AcDbEntity
  8
$DDT_AUDIT_GENERATED_(8C)
  6
Continuous
 62
     7
100
AcDbLine
 10
231.3098049272
 20
327.9437455123
 30
0.0
 11
231.6098049272
 21
327.9437455123
 31
0.0
  0
LINE
  5
10E
330
107
100
AcDbEntity
  8
$DDT_AUDIT_GENERATED_(8F)
  6
Continuous
 62
     7
100
AcDbLine
 10
231.6098049272
 20
402.5237455123
 30
0.0
 11
231.6098049272
 21
422.5237455123
 31
0.0
  0
LINE
  5
10F
330
107
100
AcDbEntity
  8
$DDT_AUDIT_GENERATED_(8F)
  6
Continuous
 62
     7
100
AcDbLine
 10
231.6098049272
 20
402.5237455123
 30
0.0
 11
233.2108742738
 21
406.5264188787
 31
0.0
  0
LINE
  5
110
330
107
100
AcDbEntity
  8
$DDT_AUDIT_GENERATED_(8F)
  6
Continuous
 62
     7
100
AcDbLine
 10
233.2087355806
 20
418.5264188787
 30
0.0
 11
231.6098049272
 21
422.5237455123
 31
0.0
  0
LINE
  5
111
330
107
100
AcDbEntity
  8
$DDT_AUDIT_GENERATED_(8F)
  6
Continuous
 62
     7
100
AcDbLine
 10
231.6098049272
 20
422.5237455123
 30
0.0
 11
231.3098049272
 21
422.5237455123
 31
0.0
  0
LINE
  5
112
330
107
100
AcDbEntity
  8
$DDT_AUDIT_GENERATED_(8F)
  6
Continuous
 62
     7
100
AcDbLine
 10
231.3098049272
 20
402.5237455123
 30
0.0
 11
231.6098049272
 21
402.5237455123
 31
0.0
  0
LINE
  5
113
330
107
100
AcDbEntity
  8
$DDT_AUDIT_GENERATED_(91)
  6
Continuous
 62
     7
100
AcDbLine
 10
221.3098049272
 20
392.9437455123
 30
0.0
 11
221.3098049272
 21
445.4437455123
 31
0.0
  0
LINE
  5
114
330
107
100
AcDbEntity
  8
$DDT_AUDIT_GENERATED_(91)
  6
Continuous
 62
     7
100
AcDbLine
 10
221.3098049272
 20
357.9437455123
 30
0.0
 11
221.3098049272
 21
305.4437455123
 31
0.0
  0
LINE
  5
115
330
107
100
AcDbEntity
  8
$DDT_AUDIT_GENERATED_(91)
  6
Continuous
 62
     7
100
AcDbLine
 10
221.3098049272
 20
357.9437455123
 30
0.0
 11
221.3098049272
 21
392.9437455123
 31
0.0
  0
LINE
  5
116
330
107
100
AcDbEntity
  8
$DDT_AUDIT_GENERATED_(91)
  6
Continuous
 62
     7
100
AcDbLine
 10
231.3098049272
 20
443.9437455123
 30
0.0
 11
231.3098049272
 21
392.9437455123
 31
0.0
  0
LINE
  5
117
330
107
100
AcDbEntity
  8
$DDT_AUDIT_GENERATED_(91)
  6
Continuous
 62
     7
100
AcDbLine
 10
231.3098049272
 20
392.9437455123
 30
0.0
 11
231.3098049272
 21
357.9437455123
 31
0.0
  0
LINE
  5
118
330
107
100
AcDbEntity
  8
$DDT_AUDIT_GENERATED_(91)
  6
Continuous
 62
     7
100
AcDbLine
 10
231.3098049272
 20
306.9437455123
 30
0.0
 11
231.3098049272
 21
357.9437455123
 31
0.0
  0
LINE
  5
119
330
107
100
AcDbEntity
  8
$DDT_AUDIT_GENERATED_(91)
  6
Continuous
 62
     7
100
AcDbLine
 10
221.3098049272
 20
305.4437455123
 30
0.0
 11
229.8098049272
 21
305.4437455123
 31
0.0
  0
LINE
  5
11A
330
107
100
AcDbEntity
  8
$DDT_AUDIT_GENERATED_(91)
  6
Continuous
 62
     7
100
AcDbLine
 10
229.8098049272
 20
445.4437455123
 30
0.0
 11
221.3098049272
 21
445.4437455123
 31
0.0
  0
ARC
  5
11B
330
107
100
AcDbEntity
  8
$DDT_AUDIT_GENERATED_(91)
  6
Continuous
 62
     7
100
AcDbCircle
 10
229.8098049272
 20
443.9437455123
 30
0.0
 40
1.500000000000001
100
AcDbArc
 50
0.0
 51
90.0
  0
ARC
  5
11C
330
107
100
AcDbEntity
  8
$DDT_AUDIT_GENERATED_(91)
  6
Continuous
 62
     7
100
AcDbCircle
 10
229.8098049272
 20
306.9437455123
 30
0.0
 40
1.500000000000001
100
AcDbArc
 50
270.0
 51
0.0
  0
LINE
  5
11E
330
107
100
AcDbEntity
  8
$DDT_AUDIT_GENERATED_(11D)
  6
Continuous
 62
     7
100
AcDbLine
 10
271.1684347164
 20
331.8638278122
 30
0.0
 11
265.2255181857
 21
331.7082070661
 31
0.0
  0
LINE
  5
11F
330
107
100
AcDbEntity
  8
$DDT_AUDIT_GENERATED_(11D)
  6
Continuous
 62
     7
100
AcDbLine
 10
272.6691466215
 20
331.4029539402
 30
0.0
 11
264.9948239324
 21
331.2019947282
 31
0.0
  0
LINE
  5
120
330
107
100
AcDbEntity
  8
$DDT_AUDIT_GENERATED_(11D)
  6
Continuous
 62
     7
100
AcDbLine
 10
265.2255181857
 20
331.7082070661
 30
0.0
 11
264.9948239324
 21
331.2019947282
 31
0.0
  0
LINE
  5
121
330
107
100
AcDbEntity
  8
$DDT_AUDIT_GENERATED_(11D)
  6
Continuous
 62
     7
100
AcDbLine
 10
265.5447765357
 20
331.9264713748
 30
0.0
 11
265.4479623216
 21
331.7140319708
 31
0.0
  0
LINE
  5
122
330
107
100
AcDbEntity
  8
$DDT_AUDIT_GENERATED_(CE)
  6
Continuous
 62
     7
100
AcDbLine
 10
236.8098049272
 20
406.8264188787
 30
0.0
 11
236.8098049272
 21
418.2264188787
 31
0.0
  0
LINE
  5
123
330
107
100
AcDbEntity
  8
$DDT_AUDIT_GENERATED_(CE)
  6
Continuous
 62
     7
100
AcDbLine
 10
233.2108742738
 20
406.5264188787
 30
0.0
 11
236.5098049272
 21
406.5264188787
 31
0.0
  0
LINE
  5
124
330
107
100
AcDbEntity
  8
$DDT_AUDIT_GENERATED_(CE)
  6
Continuous
 62
     7
100
AcDbLine
 10
236.5098049272
 20
418.5264188787
 30
0.0
 11
233.2087355806
 21
418.5264188787
 31
0.0
  0
ARC
  5
125
330
107
100
AcDbEntity
  8
$DDT_AUDIT_GENERATED_(CE)
  6
Continuous
 62
     7
100
AcDbCircle
 10
236.5098049272
 20
406.8264188787
 30
0.0
 40
0.3000000000000017
100
AcDbArc
 50
270.0
 51
0.0
  0
ARC
  5
126
330
107
100
AcDbEntity
  8
$DDT_AUDIT_GENERATED_(CE)
  6
Continuous
 62
     7
100
AcDbCircle
 10
236.5098049272
 20
418.2264188787
 30
0.0
 40
0.3000000000000086
100
AcDbArc
 50
0.0
 51
90.0
  0
LINE
  5
127
330
107
100
AcDbEntity
  8
$DDT_AUDIT_GENERATED_(97)
  6
Continuous
 62
     7
100
AcDbLine
 10
253.2570979037
 20
417.7764188787
 30
0.0
 11
253.2570979037
 21
407.2764188787
 31
0.0
  0
ARC
  5
128
330
107
100
AcDbEntity
  8
$DDT_AUDIT_GENERATED_(97)
  6
Continuous
 62
     7
100
AcDbCircle
 10
208.2570979037
 20
412.5264188787
 30
0.0
 40
49.99999999999999
100
AcDbArc
 50
354.1432980901
 51
5.8567019099
  0
LINE
  5
129
330
107
100
AcDbEntity
  8
$DDT_AUDIT_GENERATED_(97)
  6
Continuous
 62
     7
100
AcDbLine
 10
254.2253437403
 20
406.5264188787
 30
0.0
 11
257.0013283315
 21
406.5264188787
 31
0.0
  0
LINE
  5
12A
330
107
100
AcDbEntity
  8
$DDT_AUDIT_GENERATED_(97)
  6
Continuous
 62
     7
100
AcDbLine
 10
257.0013283315
 20
418.5264188787
 30
0.0
 11
254.2253437403
 21
418.5264188787
 31
0.0
  0
ARC
  5
12B
330
107
100
AcDbEntity
  8
$DDT_AUDIT_GENERATED_(97)
  6
Continuous
 62
     7
100
AcDbCircle
 10
254.2253437403
 20
407.5264188787
 30
0.0
 40
0.9999999999999959
100
AcDbArc
 50
194.4775121859
 51
270.0
  0
ARC
  5
12C
330
107
100
AcDbEntity
  8
$DDT_AUDIT_GENERATED_(97)
  6
Continuous
 62
     7
100
AcDbCircle
 10
254.2253437403
 20
417.5264188787
 30
0.0
 40
1.000000000000001
100
AcDbArc
 50
90.0
 51
165.5224878141
  0
ARC
  5
12D
330
107
100
AcDbEntity
  8
$DDT_AUDIT_GENERATED_(97)
  6
Continuous
 62
     7
100
AcDbCircle
 10
252.2888520672
 20
407.0264188787
 30
0.0
 40
1.000000000000001
100
AcDbArc
 50
14.4775121859
 51
90.0
  0
ARC
  5
12E
330
107
100
AcDbEntity
  8
$DDT_AUDIT_GENERATED_(97)
  6
Continuous
 62
     7
100
AcDbCircle
 10
252.2888520672
 20
418.0264188787
 30
0.0
 40
0.9999999999999941
100
AcDbArc
 50
270.0
 51
345.5224878141
  0
LINE
  5
12F
330
107
100
AcDbEntity
  8
$DDT_AUDIT_GENERATED_(97)
  6
Continuous
 62
     7
100
AcDbLine
 10
236.8098049272
 20
408.0264188787
 30
0.0
 11
252.2888520672
 21
408.0264188787
 31
0.0
  0
LINE
  5
130
330
107
100
AcDbEntity
  8
$DDT_AUDIT_GENERATED_(97)
  6
Continuous
 62
     7
100
AcDbLine
 10
252.2888520672
 20
417.0264188787
 30
0.0
 11
236.8098049272
 21
417.0264188787
 31
0.0
  0
ARC
  5
131
330
107
100
AcDbEntity
  8
$DDT_AUDIT_GENERATED_(97)
  6
Continuous
 62
     7
100
AcDbCircle
 10
257.0013283315
 20
407.5264188787
 30
0.0
 40
1.000000000000001
100
AcDbArc
 50
270.0
 51
354.1432980901
  0
ARC
  5
132
330
107
100
AcDbEntity
  8
$DDT_AUDIT_GENERATED_(97)
  6
Continuous
 62
     7
100
AcDbCircle
 10
257.0013283315
 20
417.5264188787
 30
0.0
 40
0.9999999999999991
100
AcDbArc
 50
5.8567019099
 51
90.0
  0
SPLINE
  5
133
330
107
100
AcDbEntity
  8
$DDT_AUDIT_GENERATED_(99)
  6
Continuous
 62
     7
100
AcDbSpline
210
0.0
220
0.0
230
1.0
 70
     8
 71
     3
 72
    26
 73
    22
 74
     0
 42
0.0000000000476694
 43
0.0000000001
 40
0.5007505157292159
 40
0.5007505157292159
 40
0.5007505157292159
 40
0.5007505157292159
 40
0.53125
 40
0.53125
 40
0.546875
 40
0.546875
 40
0.5625
 40
0.5625
 40
0.59375
 40
0.59375
 40
0.625
 40
0.625
 40
0.65625
 40
0.65625
 40
0.6875
 40
0.6875
 40
0.75
 40
0.75
 40
0.875
 40
0.875
 40
0.9368044911677172
 40
0.9368044911677172
 40
0.9368044911677172
 40
0.9368044911677172
 10
287.1285202368769
 20
379.6902840127327
 30
0.0
 10
287.1290147175937
 20
379.6975354586964
 30
0.0
 10
287.0860389526873
 20
379.2226167601324
 30
0.0
 10
286.9826513162239
 20
377.8680128423592
 30
0.0
 10
286.9421234228651
 20
377.3063639697024
 30
0.0
 10
286.8649652480434
 20
375.9677323697836
 30
0.0
 10
286.8287712794915
 20
375.1872590144512
 30
0.0
 10
286.7632115622283
 20
372.6062435147019
 30
0.0
 10
286.78411823749
 20
370.4734640641951
 30
0.0
 10
287.0244068431348
 20
365.9461591005553
 30
0.0
 10
287.2401149869663
 20
363.520383581233
 30
0.0
 10
287.7814547344798
 20
358.7096253812068
 30
0.0
 10
288.1056937441211
 20
356.2864037266086
 30
0.0
 10
288.778971649126
 20
351.4542385640395
 30
0.0
 10
289.1284641550189
 20
349.0434695361132
 30
0.0
 10
290.1771172262702
 20
341.8133296474896
 30
0.0
 10
290.8773500285755
 20
336.9964241089544
 30
0.0
 10
292.9302625864001
 20
322.5397362897905
 30
0.0
 10
294.2427224452296
 20
312.8949712299225
 30
0.0
 10
296.0955885136767
 20
298.4747310313397
 30
0.0
 10
296.6910538032262
 20
293.7037761591014
 30
0.0
 10
297.2660927333233
 20
288.9316894049872
 30
0.0
  0
SPLINE
  5
134
330
107
100
AcDbEntity
  8
$DDT_AUDIT_GENERATED_(99)
  6
Continuous
 62
     7
100
AcDbSpline
210
0.0
220
0.0
230
1.0
 70
     8
 71
     3
 72
     8
 73
     4
 74
     0
 42
0.0000000000428696
 43
0.0000000001
 40
0.9368044911677172
 40
0.9368044911677172
 40
0.9368044911677172
 40
0.9368044911677172
 40
1.0
 40
1.0
 40
1.0
 40
1.0
 10
297.2660927333233
 20
288.9316894049872
 30
0.0
 10
297.8540739155847
 20
284.0521985311012
 30
0.0
 10
298.4206989297956
 20
279.1715242520366
 30
0.0
 10
298.9629010142909
 20
274.2884576113707
 30
0.0
  0
ARC
  5
135
330
107
100
AcDbEntity
  8
$DDT_AUDIT_GENERATED_(99)
  6
Continuous
 62
     7
100
AcDbCircle
 10
344.9797334517
 20
278.9601657022
 30
0.0
 40
46.25336446203136
100
AcDbArc
 50
185.7969050918
 51
189.6971511418
  0
SPLINE
  5
136
330
107
100
AcDbEntity
  8
$DDT_AUDIT_GENERATED_(99)
  6
Continuous
 62
     7
100
AcDbSpline
210
0.0
220
0.0
230
1.0
 70
     8
 71
     3
 72
    14
 73
    10
 74
     0
 42
0.0000000000960958
 43
0.0000000001
 40
0.0
 40
0.0
 40
0.0
 40
0.0
 40
0.1249999999999999
 40
0.1249999999999999
 40
0.2499999999999998
 40
0.2499999999999998
 40
0.3749999999999999
 40
0.3749999999999999
 40
0.4676708239810958
 40
0.4676708239810958
 40
0.4676708239810958
 40
0.4676708239810958
 10
295.8485460511676
 20
273.8587483174006
 30
0.0
 10
295.1569099242566
 20
278.1377825216322
 30
0.0
 10
294.4668109554779
 20
282.4168026846489
 30
0.0
 10
293.1107518053252
 20
290.9834265548402
 30
0.0
 10
292.4400517350156
 20
295.2694788358426
 30
0.0
 10
291.0658034945919
 20
303.8364793529856
 30
0.0
 10
290.3632440092213
 20
308.1176882357732
 30
0.0
 10
289.0355087002852
 20
315.5509119303164
 30
0.0
 10
288.4330859265859
 20
318.7071085463414
 30
0.0
 10
287.7839881819521
 20
321.8484874663659
 30
0.0
  0
SPLINE
  5
137
330
107
100
AcDbEntity
  8
$DDT_AUDIT_GENERATED_(99)
  6
Continuous
 62
     7
100
AcDbSpline
210
0.0
220
0.0
230
1.0
 70
     8
 71
     3
 72
    30
 73
    26
 74
     0
 42
0.0000000000969279
 43
0.0000000001
 40
0.4676708239810958
 40
0.4676708239810958
 40
0.4676708239810958
 40
0.4676708239810958
 40
0.5000000000000001
 40
0.5000000000000001
 40
0.5625000000000001
 40
0.5625000000000001
 40
0.625
 40
0.625
 40
0.6875
 40
0.6875
 40
0.71875
 40
0.71875
 40
0.7499999999999999
 40
0.7499999999999999
 40
0.7812499999999999
 40
0.7812499999999999
 40
0.8124999999999999
 40
0.8124999999999999
 40
0.8437499999999999
 40
0.8437499999999999
 40
0.8749999999999999
 40
0.8749999999999999
 40
0.9374999999999999
 40
0.9374999999999999
 40
1.0
 40
1.0
 40
1.0
 40
1.0
 10
287.7839881819521
 20
321.8484874663659
 30
0.0
 10
287.5575437160647
 20
322.9443900135178
 30
0.0
 10
287.3254187408323
 20
324.0384891945633
 30
0.0
 10
286.6266929828816
 20
327.2416553170456
 30
0.0
 10
286.1454650265508
 20
329.3456558811989
 30
0.0
 10
285.1573721648754
 20
333.5416451372554
 30
0.0
 10
284.6532689571537
 20
335.6354422413354
 30
0.0
 10
283.5315226377237
 20
339.7997537720669
 30
0.0
 10
282.9046905918941
 20
341.8697630504616
 30
0.0
 10
281.6970079211437
 20
344.8542278390843
 30
0.0
 10
281.2479666156665
 20
345.8291665132685
 30
0.0
 10
280.2050550450631
 20
347.7156736859199
 30
0.0
 10
279.6053556678247
 20
348.6325952744622
 30
0.0
 10
278.2383541245521
 20
350.2947360841629
 30
0.0
 10
277.457565348581
 20
351.0535841473094
 30
0.0
 10
275.7248815749155
 20
352.3439760055227
 30
0.0
 10
274.7920647785297
 20
352.8639159450244
 30
0.0
 10
272.8189346119781
 20
353.6995031715016
 30
0.0
 10
271.7762393141984
 20
354.0151453647912
 30
0.0
 10
269.6954732418567
 20
354.4898629625057
 30
0.0
 10
268.6458518822715
 20
354.6546433581549
 30
0.0
 10
265.4812538278588
 20
355.0207936154501
 30
0.0
 10
263.3494934335973
 20
355.0969531566744
 30
0.0
 10
259.078824344092
 20
355.1458173396522
 30
0.0
 10
256.9431508684705
 20
355.1012846202668
 30
0.0
 10
254.8063450604449
 20
355.0399631615036
 30
0.0
  0
LINE
  5
138
330
107
100
AcDbEntity
  8
$DDT_AUDIT_GENERATED_(99)
  6
Continuous
 62
     7
100
AcDbLine
 10
254.3130656085
 20
353.9305795435
 30
0.0
 11
254.3130656083
 21
332.1338926808
 31
0.0
  0
LINE
  5
139
330
107
100
AcDbEntity
  8
$DDT_AUDIT_GENERATED_(99)
  6
Continuous
 62
     7
100
AcDbLine
 10
254.3130656083
 20
353.9305795427
 30
0.0
 11
254.4635241595
 21
355.1479323001
 31
0.0
  0
LINE
  5
13A
330
107
100
AcDbEntity
  8
$DDT_AUDIT_GENERATED_(99)
  6
Continuous
 62
     7
100
AcDbLine
 10
255.0728251275
 20
356.5801758639
 30
0.0
 11
271.0165341477
 21
382.0954439299
 31
0.0
  0
ARC
  5
13B
330
107
100
AcDbEntity
  8
$DDT_AUDIT_GENERATED_(99)
  6
Continuous
 62
     7
100
AcDbCircle
 10
259.3130656083
 20
353.9305795427
 30
0.0
 40
4.999999999997826
100
AcDbArc
 50
148.0
 51
164.3563190248
  0
ARC
  5
13C
330
107
100
AcDbEntity
  8
$DDT_AUDIT_GENERATED_(99)
  6
Continuous
 62
     7
100
AcDbCircle
 10
267.9754173928
 20
315.4926366966
 30
0.0
 40
16.61747811933302
100
AcDbArc
 50
79.7200279673
 51
98.4024157985
  0
ARC
  5
13D
330
107
100
AcDbEntity
  8
$DDT_AUDIT_GENERATED_(99)
  6
Continuous
 62
     7
100
AcDbCircle
 10
255.2988434952
 20
114.3126452229
 30
0.0
 40
268.3975023107179
100
AcDbArc
 50
83.4741082204
 51
86.5862385086
  0
ARC
  5
13E
330
107
100
AcDbEntity
  8
$DDT_AUDIT_GENERATED_(99)
  6
Continuous
 62
     7
100
AcDbCircle
 10
-1997.5023748707
 20
63.8667791891
 30
0.0
 40
2306.354307050594
100
AcDbArc
 50
5.1357355197
 51
7.8705443049
  0
SPLINE
  5
13F
330
107
100
AcDbEntity
  8
$DDT_AUDIT_GENERATED_(99)
  6
Continuous
 62
     7
100
AcDbSpline
210
0.0
220
0.0
230
1.0
 70
     8
 71
     3
 72
    23
 73
    19
 74
     0
 42
0.0000000003905834
 43
0.0000000001
 40
0.0
 40
0.0
 40
0.0
 40
0.0
 40
0.0697841290701692
 40
0.1389254163728993
 40
0.1972749006447525
 40
0.2464924720177448
 40
0.2878111887416414
 40
0.3296232853731503
 40
0.364698498221702
 40
0.4124823528961538
 40
0.4767244191300711
 40
0.5298764521214454
 40
0.5929212830122847
 40
0.6680819887478218
 40
0.7341900455471182
 40
0.8103332204687593
 40
0.8982806731359685
 40
1.0
 40
1.0
 40
1.0
 40
1.0
 10
272.4895931441295
 20
331.4780621958044
 30
0.0
 10
273.1384717386215
 20
331.3925582208121
 30
0.0
 10
274.226303680252
 20
331.2432692612953
 30
0.0
 10
275.9065824483773
 20
330.8895121761844
 30
0.0
 10
277.3511747346312
 20
330.4841726624536
 30
0.0
 10
278.5486012916971
 20
330.0549676297712
 30
0.0
 10
279.5823924824613
 20
329.6014230085382
 30
0.0
 10
280.4753548552458
 20
329.1318584333019
 30
0.0
 10
281.3793095875499
 20
328.5712657081383
 30
0.0
 10
282.3904729478663
 20
327.8262014652195
 30
0.0
 10
283.4279405964699
 20
326.8679964041642
 30
0.0
 10
284.4377367349736
 20
325.7045005672038
 30
0.0
 10
285.3822404990913
 20
324.3706065315252
 30
0.0
 10
286.2441353673987
 20
322.8542094633754
 30
0.0
 10
287.0297818021293
 20
321.171592905653
 30
0.0
 10
287.7422074284169
 20
319.3511909846351
 30
0.0
 10
288.4612968309067
 20
317.1562196030279
 30
0.0
 10
288.8490248678205
 20
315.7112462933877
 30
0.0
 10
289.0917296410934
 20
314.7886355715499
 30
0.0
  0
SPLINE
  5
140
330
107
100
AcDbEntity
  8
$DDT_AUDIT_GENERATED_(99)
  6
Continuous
 62
     7
100
AcDbSpline
210
0.0
220
0.0
230
1.0
 70
     8
 71
     3
 72
    11
 73
     7
 74
     0
 42
0.0000000009122065
 43
0.0000000001
 40
0.0
 40
0.0
 40
0.0
 40
0.0
 40
0.2725189603275407
 40
0.5691718777728603
 40
0.8308204328801243
 40
1.0
 40
1.0
 40
1.0
 40
1.0
 10
254.6208349819942
 20
331.8322938486434
 30
0.0
 10
255.715861404151
 20
331.8599716445643
 30
0.0
 10
257.6492232338063
 20
331.9072255323933
 30
0.0
 10
260.7271450953406
 20
331.9538775063685
 30
0.0
 10
263.4323248263977
 20
331.9664395958528
 30
0.0
 10
264.9016897267522
 20
331.9389862895147
 30
0.0
 10
265.581572313425
 20
331.9258904425333
 30
0.0
  0
SPLINE
  5
141
330
107
100
AcDbEntity
  8
$DDT_AUDIT_GENERATED_(99)
  6
Continuous
 62
     7
100
AcDbSpline
210
0.0
220
0.0
230
1.0
 70
     8
 71
     3
 72
     8
 73
     4
 74
     0
 42
0.0000000004995883
 43
0.0000000001
 40
0.1679692330484811
 40
0.1679692330484811
 40
0.1679692330484811
 40
0.1679692330484811
 40
1.0
 40
1.0
 40
1.0
 40
1.0
 10
293.9098349970478
 20
285.9260345324719
 30
0.0
 10
294.7246491824791
 20
280.3273916158777
 30
0.0
 10
295.5423279304034
 20
274.8365187462502
 30
0.0
 10
296.3628712408208
 20
269.4534159235894
 30
0.0
  0
ARC
  5
142
330
107
100
AcDbEntity
  8
$DDT_AUDIT_GENERATED_(99)
  6
Continuous
 62
     7
100
AcDbCircle
 10
267.4052973571
 20
308.9871802678
 30
0.0
 40
22.4480648452361
100
AcDbArc
 50
9.4983083607
 51
14.9954317066
  0
LINE
  5
143
330
107
100
AcDbEntity
  8
$DDT_AUDIT_GENERATED_(99)
  6
Continuous
 62
     7
100
AcDbLine
 10
297.4688970539
 20
268.584085256
 30
0.0
 11
298.2920476783
 21
268.6851551123
 31
0.0
  0
ARC
  5
144
330
107
100
AcDbEntity
  8
$DDT_AUDIT_GENERATED_(99)
  6
Continuous
 62
     7
100
AcDbCircle
 10
285.659324157
 20
379.4882544394
 30
0.0
 40
1.482202513089323
100
AcDbArc
 50
7.7266612215
 51
84.4416324762
  0
ARC
  5
145
330
107
100
AcDbEntity
  8
$DDT_AUDIT_GENERATED_(99)
  6
Continuous
 62
     7
100
AcDbCircle
 10
298.1026636
 20
270.1731663168
 30
0.0
 40
1.500000000000206
100
AcDbArc
 50
276.9136151891
 51
5.698167724
  0
ARC
  5
146
330
107
100
AcDbEntity
  8
$DDT_AUDIT_GENERATED_(99)
  6
Continuous
 62
     7
100
AcDbCircle
 10
297.3223968569
 20
269.5504707801
 30
0.0
 40
0.9603554615563936
100
AcDbArc
 50
194.6334933007
 51
279.2798100012
  0
ARC
  5
147
330
107
100
AcDbEntity
  8
$DDT_AUDIT_GENERATED_(99)
  6
Continuous
 62
     7
100
AcDbCircle
 10
254.6130656083
 20
332.1338914021
 30
0.0
 40
0.2999999999965348
100
AcDbArc
 50
179.9999936724
 51
271.6185742008
  0
ARC
  5
148
330
107
100
AcDbEntity
  8
$DDT_AUDIT_GENERATED_(99)
  6
Continuous
 62
     7
100
AcDbCircle
 10
271.2709463066
 20
381.9364645789
 30
0.0
 40
0.299999967702084
100
AcDbArc
 50
88.2936094607
 51
148.0007834096
  0
LINE
  5
149
330
107
100
AcDbEntity
  8
$DDT_AUDIT_GENERATED_(B6)
  6
Continuous
 62
     7
100
AcDbLine
 10
252.3104589263
 20
332.4996165054
 30
0.0
 11
252.3104589263
 21
383.3878745193
 31
0.0
  0
ARC
  5
14A
330
107
100
AcDbEntity
  8
$DDT_AUDIT_GENERATED_(B6)
  6
Continuous
 62
     7
100
AcDbCircle
 10
246.3104589263
 20
357.9437455123
 30
0.0
 40
25.00000000000002
100
AcDbArc
 50
283.8865403626
 51
288.7166079921
  0
ARC
  5
14B
330
107
100
AcDbEntity
  8
$DDT_AUDIT_GENERATED_(B6)
  6
Continuous
 62
     7
100
AcDbCircle
 10
246.3104589263
 20
357.9437455123
 30
0.0
 40
25.00000000000005
100
AcDbArc
 50
38.9114027248
 51
76.1134596374
  0
LINE
  5
14C
330
107
100
AcDbEntity
  8
$DDT_AUDIT_GENERATED_(B6)
  6
Continuous
 62
     7
100
AcDbLine
 10
233.0640570287
 20
331.8360084899
 30
0.0
 11
251.8148219702
 21
331.9996355419
 31
0.0
  0
LINE
  5
14D
330
107
100
AcDbEntity
  8
$DDT_AUDIT_GENERATED_(B6)
  6
Continuous
 62
     7
100
AcDbLine
 10
251.8148219702
 20
383.8878554828
 30
0.0
 11
233.0640570287
 21
384.0514825348
 31
0.0
  0
ARC
  5
14E
330
107
100
AcDbEntity
  8
$DDT_AUDIT_GENERATED_(B6)
  6
Continuous
 62
     7
100
AcDbCircle
 10
251.8104589263
 20
383.3878745193
 30
0.0
 40
0.5000000000000004
100
AcDbArc
 50
0.0
 51
89.5000256491
  0
ARC
  5
14F
330
107
100
AcDbEntity
  8
$DDT_AUDIT_GENERATED_(B6)
  6
Continuous
 62
     7
100
AcDbCircle
 10
251.8104589263
 20
332.4996165054
 30
0.0
 40
0.5000000000000033
100
AcDbArc
 50
270.4999743509
 51
0.0
  0
ENDBLK
  5
151
330
107
100
AcDbEntity
  8
0
100
AcDbBlockEnd
  0
ENDSEC
  0
SECTION
  2
ENTITIES
  0
LINE
  5
5E
330
1F
100
AcDbEntity
  8
Default
  6
Continuous
 62
     7
100
AcDbLine
 10
51.326016973
 20
176.4127466748
 30
0.0
 11
51.326016973
 21
179.7127466748
 31
0.0
  0
LINE
  5
5F
330
1F
100
AcDbEntity
  8
Default
  6
Continuous
 62
     7
100
AcDbLine
 10
51.326016973
 20
179.7127466748
 30
0.0
 11
63.326016973
 21
179.7127466748
 31
0.0
  0
LINE
  5
60
330
1F
100
AcDbEntity
  8
Default
  6
Continuous
 62
     7
100
AcDbLine
 10
63.326016973
 20
179.7127466748
 30
0.0
 11
63.326016973
 21
176.4127466748
 31
0.0
  0
INSERT
  5
62
330
1F
100
AcDbEntity
  8
Default
100
AcDbBlockReference
  2
SEANNOT_GROUP
 10
0.0
 20
0.0
 30
0.0
  0
INSERT
  5
6D
330
1F
100
AcDbEntity
  8
Default
100
AcDbBlockReference
  2
SEANNOT_GROUP1
 10
0.0
 20
0.0
 30
0.0
  0
INSERT
  5
77
330
1F
100
AcDbEntity
  8
Default
100
AcDbBlockReference
  2
SEANNOT_GROUP2
 10
0.0
 20
0.0
 30
0.0
  0
LINE
  5
7C
330
1F
100
AcDbEntity
  8
Default
  6
Continuous
 62
     7
100
AcDbLine
 10
221.3098049272
 20
417.0264188787
 30
0.0
 11
221.3098049272
 21
408.0264188787
 31
0.0
  0
INSERT
  5
7E
330
1F
100
AcDbEntity
  8
Default
100
AcDbBlockReference
  2
SEANNOT_GROUP3
 10
0.0
 20
0.0
 30
0.0
  0
LINE
  5
83
330
1F
100
AcDbEntity
  8
Default
  6
Continuous
 62
     7
100
AcDbLine
 10
221.3098049272
 20
383.9099197519
 30
0.0
 11
221.3098049272
 21
331.9775712727
 31
0.0
  0
INSERT
  5
85
330
1F
100
AcDbEntity
  8
Default
100
AcDbBlockReference
  2
SEANNOT_GROUP4
 10
0.0
 20
0.0
 30
0.0
  0
INSERT
  5
8B
330
1F
100
AcDbEntity
  8
Default
100
AcDbBlockReference
  2
SE
 10
0.0
 20
0.0
 30
0.0
  0
INSERT
  5
BC
330
1F
100
AcDbEntity
  8
Default
100
AcDbBlockReference
  2
SE1
 10
0.0
 20
0.0
 30
0.0
  0
INSERT
  5
108
330
1F
100
AcDbEntity
  8
Default
100
AcDbBlockReference
  2
SE2
 10
0.0
 20
0.0
 30
0.0
  0
TEXT
  5
153
330
1F
100
AcDbEntity
  8
Default
  6
Continuous
 62
     7
100
AcDbText
 10
5.9362635081
 20
53.4225120485
 30
0.0
 40
10.0
  1
Grohe AG^J
  7
SEACAD_seiso_ttf
 11
5.9362635081
 21
63.4225120485
 31
0.0
100
AcDbText
 73
     3
  0
TEXT
  5
154
330
1F
100
AcDbEntity
  8
Default
  6
Continuous
 62
     7
100
AcDbText
 10
5.9362635081
 20
37.0588756849
 30
0.0
 40
10.0
  1
 
  7
SEACAD_seiso_ttf
 11
5.9362635081
 21
47.0588756849
 31
0.0
100
AcDbText
 73
     3
  0
TEXT
  5
155
330
1F
100
AcDbEntity
  8
Default
  6
Continuous
 62
     7
100
AcDbText
 10
5.9362635081
 20
20.6952393213
 30
0.0
 40
10.0
  1
ecn: 
  7
SEACAD_seiso_ttf
 11
5.9362635081
 21
30.6952393213
 31
0.0
100
AcDbText
 73
     3
  0
TEXT
  5
156
330
1F
100
AcDbEntity
  8
Default
  6
Continuous
 62
     7
100
AcDbText
 10
5.9362635081
 20
4.3316029576
 30
0.0
 40
10.0
  1
unit: mm
  7
SEACAD_seiso_ttf
 11
5.9362635081
 21
14.3316029576
 31
0.0
100
AcDbText
 73
     3
  0
LINE
  5
157
330
1F
100
AcDbEntity
  8
Default
  6
Continuous
 62
     7
100
AcDbLine
 10
0.0
 20
0.0
 30
0.0
 11
100.0
 21
0.0
 31
0.0
  0
LINE
  5
158
330
1F
100
AcDbEntity
  8
Default
  6
Continuous
 62
     7
100
AcDbLine
 10
0.0
 20
0.0
 30
0.0
 11
0.0
 21
100.0
 31
0.0
  0
TEXT
  5
159
330
1F
100
AcDbEntity
  8
Default
  6
Continuous
 62
     7
100
AcDbText
 10
24.3923665681
 20
-18.2375342018
 30
0.0
 40
10.0
  1
100 mm
  7
SEACAD_seiso_ttf
 11
24.3923665681
 21
-8.2375342018
 31
0.0
100
AcDbText
 73
     3
  0
TEXT
  5
15A
330
1F
100
AcDbEntity
  8
Default
  6
Continuous
 62
     7
100
AcDbText
 10
-7.6150308803
 20
24.6231930421
 30
0.0
 40
10.0
  1
100 mm
 50
90.0
  7
SEACAD_seiso_ttf
 11
-17.6150308803
 21
24.6231930421
 31
0.0
100
AcDbText
 73
     3
  0
TEXT
  5
15B
330
1F
100
AcDbEntity
  8
Default
  6
Continuous
 62
     7
100
AcDbText
 10
28.4878128572
 20
20.0907663715
 30
0.0
 40
10.0
  1
218500
  7
SEACAD_seiso_ttf
 11
28.4878128572
 21
30.0907663715
 31
0.0
100
AcDbText
 73
     3
  0
TEXT
  5
15C
330
1F
100
AcDbEntity
  8
Default
  6
Continuous
 62
     7
100
AcDbText
 10
5.9012241913
 20
36.7242780188
 30
0.0
 40
10.0
  1
29045000
  7
SEACAD_seiso_ttf
 11
5.9012241913
 21
46.7242780188
 31
0.0
100
AcDbText
 73
     3
  0
ENDSEC
  0
SECTION
  2
OBJECTS
  0
DICTIONARY
  5
C
330
0
100
AcDbDictionary
281
     1
  3
ACAD_GROUP
350
D
  3
ACAD_LAYOUT
350
1A
  3
ACAD_MLEADERSTYLE
350
160
  3
ACAD_MLINESTYLE
350
17
  3
ACAD_PLOTSETTINGS
350
19
  3
ACAD_PLOTSTYLENAME
350
E
  3
ACAD_SCALELIST
350
3B
  3
ACAD_TABLESTYLE
350
15F
  3
ACAD_VISUALSTYLE
350
2A
  3
AcDbVariableDictionary
350
15D
  0
DICTIONARY
  5
D
102
{ACAD_REACTORS
330
C
102
}
330
C
100
AcDbDictionary
281
     1
  0
DICTIONARY
  5
1A
102
{ACAD_REACTORS
330
C
102
}
330
C
100
AcDbDictionary
281
     1
  3
Layout1
350
1E
  3
Model
350
22
  0
DICTIONARY
  5
160
102
{ACAD_REACTORS
330
C
102
}
330
C
100
AcDbDictionary
281
     1
  0
DICTIONARY
  5
17
102
{ACAD_REACTORS
330
C
102
}
330
C
100
AcDbDictionary
281
     1
  3
Standard
350
18
  0
DICTIONARY
  5
19
102
{ACAD_REACTORS
330
C
102
}
330
C
100
AcDbDictionary
281
     1
  0
ACDBDICTIONARYWDFLT
  5
E
102
{ACAD_REACTORS
330
C
102
}
330
C
100
AcDbDictionary
281
     1
  3
Normal
350
F
100
AcDbDictionaryWithDefault
340
F
  0
DICTIONARY
  5
3B
102
{ACAD_REACTORS
330
C
102
}
330
C
100
AcDbDictionary
281
     1
  3
A0
350
3C
  3
A1
350
3D
  3
A2
350
3E
  3
A3
350
3F
  3
A4
350
40
  3
A5
350
41
  3
A6
350
42
  3
A7
350
43
  3
A8
350
44
  3
A9
350
45
  3
B0
350
46
  3
B1
350
47
  3
B2
350
48
  3
B3
350
49
  3
B4
350
4A
  3
B5
350
4B
  3
B6
350
4C
  3
B7
350
4D
  3
B8
350
4E
  3
B9
350
4F
  3
C0
350
50
  3
C1
350
51
  3
C2
350
52
  3
C3
350
53
  3
C4
350
54
  3
C5
350
55
  3
C6
350
56
  3
C7
350
57
  3
C8
350
58
  3
C9
350
59
  3
D0
350
5A
  3
D1
350
5B
  3
D2
350
5C
  0
DICTIONARY
  5
15F
102
{ACAD_REACTORS
330
C
102
}
330
C
100
AcDbDictionary
281
     1
  0
DICTIONARY
  5
2A
102
{ACAD_REACTORS
330
C
102
}
330
C
100
AcDbDictionary
281
     1
  3
2dWireframe
350
2F
  3
3D Hidden
350
31
  3
3dWireframe
350
30
  3
Basic
350
32
  3
Brighten
350
36
  3
ColorChange
350
3A
  3
Conceptual
350
34
  3
Dim
350
35
  3
Facepattern
350
39
  3
Flat
350
2B
  3
FlatWithEdges
350
2C
  3
Gouraud
350
2D
  3
GouraudWithEdges
350
2E
  3
Linepattern
350
38
  3
Realistic
350
33
  3
Thicken
350
37
  0
DICTIONARY
  5
15D
102
{ACAD_REACTORS
330
C
102
}
330
C
100
AcDbDictionary
281
     1
  3
CANNOSCALE
350
15E
  3
PSOLHEIGHT
350
162
  3
PSOLWIDTH
350
161
  0
LAYOUT
  5
1E
102
{ACAD_REACTORS
330
1A
102
}
330
1A
100
AcDbPlotSettings
  1

  2
none_device
  4

  6

 40
0.0
 41
0.0
 42
0.0
 43
0.0
 44
0.0
 45
0.0
 46
0.0
 47
0.0
 48
0.0
 49
0.0
140
0.0
141
0.0
142
1.0
143
1.0
 70
   688
 72
     0
 73
     0
 74
     5
  7

 75
    16
147
1.0
148
0.0
149
0.0
100
AcDbLayout
  1
Layout1
 70
     1
 71
     1
 10
0.0
 20
0.0
 11
1682.0
 21
2378.0
 12
0.0
 22
0.0
 32
0.0
 14
0.0
 24
0.0
 34
0.0
 15
1682.0
 25
2378.0
 35
0.0
146
0.0
 13
0.0
 23
0.0
 33
0.0
 16
1.0
 26
0.0
 36
0.0
 17
0.0
 27
1.0
 37
0.0
 76
     0
330
1B
  0
LAYOUT
  5
22
102
{ACAD_REACTORS
330
1A
102
}
330
1A
100
AcDbPlotSettings
  1

  2
none_device
  4

  6

 40
0.0
 41
0.0
 42
0.0
 43
0.0
 44
0.0
 45
0.0
 46
0.0
 47
0.0
 48
0.0
 49
0.0
140
0.0
141
0.0
142
1.0
143
1.0
 70
  1712
 72
     0
 73
     0
 74
     0
  7

 75
     0
147
1.0
148
0.0
149
0.0
100
AcDbLayout
  1
Model
 70
     1
 71
     0
 10
0.0
 20
0.0
 11
1682.0
 21
2378.0
 12
0.0
 22
0.0
 32
0.0
 14
0.0
 24
0.0
 34
0.0
 15
1682.0
 25
2378.0
 35
0.0
146
0.0
 13
0.0
 23
0.0
 33
0.0
 16
1.0
 26
0.0
 36
0.0
 17
0.0
 27
1.0
 37
0.0
 76
     0
330
1F
331
29
  0
MLINESTYLE
  5
18
102
{ACAD_REACTORS
330
17
102
}
330
17
100
AcDbMlineStyle
  2
Standard
 70
     0
  3

 62
   256
 51
90.0
 52
90.0
 71
     2
 49
0.5
 62
   256
  6
BYLAYER
 49
-0.5
 62
   256
  6
BYLAYER
  0
ACDBPLACEHOLDER
  5
F
102
{ACAD_REACTORS
330
E
102
}
330
E
  0
SCALE
  5
3C
102
{ACAD_REACTORS
330
3B
102
}
330
3B
100
AcDbScale
 70
     0
300
1:1
140
1.0
141
1.0
290
     1
  0
SCALE
  5
3D
102
{ACAD_REACTORS
330
3B
102
}
330
3B
100
AcDbScale
 70
     0
300
1:2
140
1.0
141
2.0
290
     0
  0
SCALE
  5
3E
102
{ACAD_REACTORS
330
3B
102
}
330
3B
100
AcDbScale
 70
     0
300
1:4
140
1.0
141
4.0
290
     0
  0
SCALE
  5
3F
102
{ACAD_REACTORS
330
3B
102
}
330
3B
100
AcDbScale
 70
     0
300
1:5
140
1.0
141
5.0
290
     0
  0
SCALE
  5
40
102
{ACAD_REACTORS
330
3B
102
}
330
3B
100
AcDbScale
 70
     0
300
1:8
140
1.0
141
8.0
290
     0
  0
SCALE
  5
41
102
{ACAD_REACTORS
330
3B
102
}
330
3B
100
AcDbScale
 70
     0
300
1:10
140
1.0
141
10.0
290
     0
  0
SCALE
  5
42
102
{ACAD_REACTORS
330
3B
102
}
330
3B
100
AcDbScale
 70
     0
300
1:16
140
1.0
141
16.0
290
     0
  0
SCALE
  5
43
102
{ACAD_REACTORS
330
3B
102
}
330
3B
100
AcDbScale
 70
     0
300
1:20
140
1.0
141
20.0
290
     0
  0
SCALE
  5
44
102
{ACAD_REACTORS
330
3B
102
}
330
3B
100
AcDbScale
 70
     0
300
1:30
140
1.0
141
30.0
290
     0
  0
SCALE
  5
45
102
{ACAD_REACTORS
330
3B
102
}
330
3B
100
AcDbScale
 70
     0
300
1:40
140
1.0
141
40.0
290
     0
  0
SCALE
  5
46
102
{ACAD_REACTORS
330
3B
102
}
330
3B
100
AcDbScale
 70
     0
300
1:50
140
1.0
141
50.0
290
     0
  0
SCALE
  5
47
102
{ACAD_REACTORS
330
3B
102
}
330
3B
100
AcDbScale
 70
     0
300
1:100
140
1.0
141
100.0
290
     0
  0
SCALE
  5
48
102
{ACAD_REACTORS
330
3B
102
}
330
3B
100
AcDbScale
 70
     0
300
2:1
140
2.0
141
1.0
290
     0
  0
SCALE
  5
49
102
{ACAD_REACTORS
330
3B
102
}
330
3B
100
AcDbScale
 70
     0
300
4:1
140
4.0
141
1.0
290
     0
  0
SCALE
  5
4A
102
{ACAD_REACTORS
330
3B
102
}
330
3B
100
AcDbScale
 70
     0
300
8:1
140
8.0
141
1.0
290
     0
  0
SCALE
  5
4B
102
{ACAD_REACTORS
330
3B
102
}
330
3B
100
AcDbScale
 70
     0
300
10:1
140
10.0
141
1.0
290
     0
  0
SCALE
  5
4C
102
{ACAD_REACTORS
330
3B
102
}
330
3B
100
AcDbScale
 70
     0
300
100:1
140
100.0
141
1.0
290
     0
  0
SCALE
  5
4D
102
{ACAD_REACTORS
330
3B
102
}
330
3B
100
AcDbScale
 70
     0
300
1/128" = 1'-0"
140
0.0078125
141
12.0
290
     0
  0
SCALE
  5
4E
102
{ACAD_REACTORS
330
3B
102
}
330
3B
100
AcDbScale
 70
     0
300
1/64" = 1'-0"
140
0.015625
141
12.0
290
     0
  0
SCALE
  5
4F
102
{ACAD_REACTORS
330
3B
102
}
330
3B
100
AcDbScale
 70
     0
300
1/32" = 1'-0"
140
0.03125
141
12.0
290
     0
  0
SCALE
  5
50
102
{ACAD_REACTORS
330
3B
102
}
330
3B
100
AcDbScale
 70
     0
300
1/16" = 1'-0"
140
0.0625
141
12.0
290
     0
  0
SCALE
  5
51
102
{ACAD_REACTORS
330
3B
102
}
330
3B
100
AcDbScale
 70
     0
300
3/32" = 1'-0"
140
0.09375
141
12.0
290
     0
  0
SCALE
  5
52
102
{ACAD_REACTORS
330
3B
102
}
330
3B
100
AcDbScale
 70
     0
300
1/8" = 1'-0"
140
0.125
141
12.0
290
     0
  0
SCALE
  5
53
102
{ACAD_REACTORS
330
3B
102
}
330
3B
100
AcDbScale
 70
     0
300
3/16" = 1'-0"
140
0.1875
141
12.0
290
     0
  0
SCALE
  5
54
102
{ACAD_REACTORS
330
3B
102
}
330
3B
100
AcDbScale
 70
     0
300
1/4" = 1'-0"
140
0.25
141
12.0
290
     0
  0
SCALE
  5
55
102
{ACAD_REACTORS
330
3B
102
}
330
3B
100
AcDbScale
 70
     0
300
3/8" = 1'-0"
140
0.375
141
12.0
290
     0
  0
SCALE
  5
56
102
{ACAD_REACTORS
330
3B
102
}
330
3B
100
AcDbScale
 70
     0
300
1/2" = 1'-0"
140
0.5
141
12.0
290
     0
  0
SCALE
  5
57
102
{ACAD_REACTORS
330
3B
102
}
330
3B
100
AcDbScale
 70
     0
300
3/4" = 1'-0"
140
0.75
141
12.0
290
     0
  0
SCALE
  5
58
102
{ACAD_REACTORS
330
3B
102
}
330
3B
100
AcDbScale
 70
     0
300
1" = 1'-0"
140
1.0
141
12.0
290
     0
  0
SCALE
  5
59
102
{ACAD_REACTORS
330
3B
102
}
330
3B
100
AcDbScale
 70
     0
300
1-1/2" = 1'-0"
140
1.5
141
12.0
290
     0
  0
SCALE
  5
5A
102
{ACAD_REACTORS
330
3B
102
}
330
3B
100
AcDbScale
 70
     0
300
3" = 1'-0"
140
3.0
141
12.0
290
     0
  0
SCALE
  5
5B
102
{ACAD_REACTORS
330
3B
102
}
330
3B
100
AcDbScale
 70
     0
300
6" = 1'-0"
140
6.0
141
12.0
290
     0
  0
SCALE
  5
5C
102
{ACAD_REACTORS
330
3B
102
}
330
3B
100
AcDbScale
 70
     0
300
1'-0" = 1'-0"
140
12.0
141
12.0
290
     0
  0
VISUALSTYLE
  5
2F
102
{ACAD_REACTORS
330
2A
102
}
330
2A
100
AcDbVisualStyle
  2
2dWireframe
 70
     4
 71
     0
 72
     2
 73
     0
 90
        0
 40
-0.6
 41
-30.0
 62
     5
 63
     7
 74
     1
 91
        4
 64
     7
 65
   257
 75
     1
175
     1
 42
1.0
 92
        0
 66
   257
 43
1.0
 76
     1
 77
     6
 78
     2
 67
     7
 79
     5
170
     0
171
     0
290
     0
174
     0
 93
        1
 44
0.0
173
     0
291
     0
 45
0.0
1001
ACAD
1000
AcDbSavedByObjectVersion
1070
     0
  0
VISUALSTYLE
  5
31
102
{ACAD_REACTORS
330
2A
102
}
330
2A
100
AcDbVisualStyle
  2
3D Hidden
 70
     6
 71
     1
 72
     2
 73
     2
 90
        0
 40
-0.6
 41
-30.0
 62
     5
 63
     7
 74
     2
 91
        2
 64
     7
 65
   257
 75
     2
175
     1
 42
40.0
 92
        0
 66
   257
 43
1.0
 76
     1
 77
     6
 78
     2
 67
     7
 79
     3
170
     0
171
     0
290
     0
174
     0
 93
        1
 44
0.0
173
     0
291
     0
 45
0.0
1001
ACAD
1000
AcDbSavedByObjectVersion
1070
     0
  0
VISUALSTYLE
  5
30
102
{ACAD_REACTORS
330
2A
102
}
330
2A
100
AcDbVisualStyle
  2
3dWireframe
 70
     5
 71
     0
 72
     2
 73
     0
 90
        0
 40
-0.6
 41
-30.0
 62
     5
 63
     7
 74
     1
 91
        4
 64
     7
 65
   257
 75
     1
175
     1
 42
1.0
 92
        0
 66
   257
 43
1.0
 76
     1
 77
     6
 78
     2
 67
     7
 79
     5
170
     0
171
     0
290
     0
174
     0
 93
        1
 44
0.0
173
     0
291
     0
 45
0.0
1001
ACAD
1000
AcDbSavedByObjectVersion
1070
     0
  0
VISUALSTYLE
  5
32
102
{ACAD_REACTORS
330
2A
102
}
330
2A
100
AcDbVisualStyle
  2
Basic
 70
     7
 71
     1
 72
     0
 73
     1
 90
        0
 40
-0.6
 41
-30.0
 62
     5
 63
     7
 74
     0
 91
        4
 64
     7
 65
   257
 75
     1
175
     1
 42
1.0
 92
        8
 66
     7
 43
1.0
 76
     1
 77
     6
 78
     2
 67
     7
 79
     5
170
     0
171
     0
290
     0
174
     0
 93
        1
 44
0.0
173
     0
291
     1
 45
0.0
1001
ACAD
1000
AcDbSavedByObjectVersion
1070
     0
  0
VISUALSTYLE
  5
36
102
{ACAD_REACTORS
330
2A
102
}
330
2A
100
AcDbVisualStyle
  2
Brighten
 70
    12
 71
     2
 72
     2
 73
     0
 90
        0
 40
-0.6
 41
-30.0
 62
     5
 63
     7
 74
     1
 91
        4
 64
     7
 65
   257
 75
     1
175
     1
 42
1.0
 92
        8
 66
     7
 43
1.0
 76
     1
 77
     6
 78
     2
 67
     7
 79
     5
170
     0
171
     0
290
     0
174
     0
 93
        1
 44
50.0
173
     0
291
     1
 45
0.0
1001
ACAD
1000
AcDbSavedByObjectVersion
1070
     0
  0
VISUALSTYLE
  5
3A
102
{ACAD_REACTORS
330
2A
102
}
330
2A
100
AcDbVisualStyle
  2
ColorChange
 70
    16
 71
     2
 72
     2
 73
     3
 90
        0
 40
-0.6
 41
-30.0
 62
     5
 63
     8
 74
     1
 91
        4
 64
     7
 65
   257
 75
     1
175
     1
 42
1.0
 92
        8
 66
     8
 43
1.0
 76
     1
 77
     6
 78
     2
 67
     7
 79
     5
170
     0
171
     0
290
     0
174
     0
 93
        1
 44
0.0
173
     0
291
     1
 45
0.0
1001
ACAD
1000
AcDbSavedByObjectVersion
1070
     0
  0
VISUALSTYLE
  5
34
102
{ACAD_REACTORS
330
2A
102
}
330
2A
100
AcDbVisualStyle
  2
Conceptual
 70
     9
 71
     3
 72
     2
 73
     0
 90
        0
 40
-0.6
 41
-30.0
 62
     5
 63
     7
 74
     2
 91
        2
 64
     7
 65
   257
 75
     1
175
     1
 42
40.0
 92
        8
 66
     7
 43
1.0
 76
     1
 77
     6
 78
     2
 67
     7
 79
     3
170
     0
171
     0
290
     0
174
     0
 93
        1
 44
0.0
173
     0
291
     0
 45
0.0
1001
ACAD
1000
AcDbSavedByObjectVersion
1070
     0
  0
VISUALSTYLE
  5
35
102
{ACAD_REACTORS
330
2A
102
}
330
2A
100
AcDbVisualStyle
  2
Dim
 70
    11
 71
     2
 72
     2
 73
     0
 90
        0
 40
-0.6
 41
-30.0
 62
     5
 63
     7
 74
     1
 91
        4
 64
     7
 65
   257
 75
     1
175
     1
 42
1.0
 92
        8
 66
     7
 43
1.0
 76
     1
 77
     6
 78
     2
 67
     7
 79
     5
170
     0
171
     0
290
     0
174
     0
 93
        1
 44
-50.0
173
     0
291
     1
 45
0.0
1001
ACAD
1000
AcDbSavedByObjectVersion
1070
     0
  0
VISUALSTYLE
  5
39
102
{ACAD_REACTORS
330
2A
102
}
330
2A
100
AcDbVisualStyle
  2
Facepattern
 70
    15
 71
     2
 72
     2
 73
     0
 90
        0
 40
-0.6
 41
-30.0
 62
     5
 63
     7
 74
     1
 91
        4
 64
     7
 65
   257
 75
     1
175
     1
 42
1.0
 92
        8
 66
     7
 43
1.0
 76
     1
 77
     6
 78
     2
 67
     7
 79
     5
170
     0
171
     0
290
     0
174
     0
 93
        1
 44
0.0
173
     0
291
     1
 45
0.0
1001
ACAD
1000
AcDbSavedByObjectVersion
1070
     0
  0
VISUALSTYLE
  5
2B
102
{ACAD_REACTORS
330
2A
102
}
330
2A
100
AcDbVisualStyle
  2
Flat
 70
     0
 71
     2
 72
     1
 73
     1
 90
        2
 40
-0.6
 41
30.0
 62
     5
 63
     7
 74
     0
 91
        4
 64
     7
 65
   257
 75
     1
175
     1
 42
1.0
 92
        8
 66
     7
 43
1.0
 76
     1
 77
     6
 78
     2
 67
     7
 79
     5
170
     0
171
     0
290
     0
174
     0
 93
       13
 44
0.0
173
     0
291
     1
 45
0.0
1001
ACAD
1000
AcDbSavedByObjectVersion
1070
     0
  0
VISUALSTYLE
  5
2C
102
{ACAD_REACTORS
330
2A
102
}
330
2A
100
AcDbVisualStyle
  2
FlatWithEdges
 70
     1
 71
     2
 72
     1
 73
     1
 90
        2
 40
-0.6
 41
30.0
 62
     5
 63
     7
 74
     1
 91
        4
 64
     7
 65
   257
 75
     1
175
     1
 42
1.0
 92
        0
 66
   257
 43
1.0
 76
     1
 77
     6
 78
     2
 67
     7
 79
     5
170
     0
171
     0
290
     0
174
     0
 93
       13
 44
0.0
173
     0
291
     1
 45
0.0
1001
ACAD
1000
AcDbSavedByObjectVersion
1070
     0
  0
VISUALSTYLE
  5
2D
102
{ACAD_REACTORS
330
2A
102
}
330
2A
100
AcDbVisualStyle
  2
Gouraud
 70
     2
 71
     2
 72
     2
 73
     1
 90
        2
 40
-0.6
 41
30.0
 62
     5
 63
     7
 74
     0
 91
        4
 64
     7
 65
   257
 75
     1
175
     1
 42
1.0
 92
        0
 66
     7
 43
1.0
 76
     1
 77
     6
 78
     2
 67
     7
 79
     5
170
     0
171
     0
290
     0
174
     0
 93
       13
 44
0.0
173
     0
291
     1
 45
0.0
1001
ACAD
1000
AcDbSavedByObjectVersion
1070
     0
  0
VISUALSTYLE
  5
2E
102
{ACAD_REACTORS
330
2A
102
}
330
2A
100
AcDbVisualStyle
  2
GouraudWithEdges
 70
     3
 71
     2
 72
     2
 73
     1
 90
        2
 40
-0.6
 41
30.0
 62
     5
 63
     7
 74
     1
 91
        4
 64
     7
 65
   257
 75
     1
175
     1
 42
1.0
 92
        0
 66
   257
 43
1.0
 76
     1
 77
     6
 78
     2
 67
     7
 79
     5
170
     0
171
     0
290
     0
174
     0
 93
       13
 44
0.0
173
     0
291
     1
 45
0.0
1001
ACAD
1000
AcDbSavedByObjectVersion
1070
     0
  0
VISUALSTYLE
  5
38
102
{ACAD_REACTORS
330
2A
102
}
330
2A
100
AcDbVisualStyle
  2
Linepattern
 70
    14
 71
     2
 72
     2
 73
     0
 90
        0
 40
-0.6
 41
-30.0
 62
     5
 63
     7
 74
     1
 91
        4
 64
     7
 65
   257
 75
     7
175
     7
 42
1.0
 92
        8
 66
     7
 43
1.0
 76
     1
 77
     6
 78
     2
 67
     7
 79
     5
170
     0
171
     0
290
     0
174
     0
 93
        1
 44
0.0
173
     0
291
     1
 45
0.0
1001
ACAD
1000
AcDbSavedByObjectVersion
1070
     0
  0
VISUALSTYLE
  5
33
102
{ACAD_REACTORS
330
2A
102
}
330
2A
100
AcDbVisualStyle
  2
Realistic
 70
     8
 71
     2
 72
     2
 73
     0
 90
        0
 40
-0.6
 41
-30.0
 62
     5
 63
     7
 74
     1
 91
        0
 64
     7
 65
   257
 75
     1
175
     1
 42
1.0
 92
        8
 66
     8
 43
1.0
 76
     1
 77
     6
 78
     2
 67
     7
 79
     5
170
     0
171
     0
290
     0
174
     0
 93
       13
 44
0.0
173
     0
291
     0
 45
0.0
1001
ACAD
1000
AcDbSavedByObjectVersion
1070
     0
  0
VISUALSTYLE
  5
37
102
{ACAD_REACTORS
330
2A
102
}
330
2A
100
AcDbVisualStyle
  2
Thicken
 70
    13
 71
     2
 72
     2
 73
     0
 90
        0
 40
-0.6
 41
-30.0
 62
     5
 63
     7
 74
     1
 91
        4
 64
     7
 65
   257
 75
     1
175
     1
 42
1.0
 92
       12
 66
     7
 43
1.0
 76
     1
 77
     6
 78
     2
 67
     7
 79
     5
170
     0
171
     0
290
     0
174
     0
 93
        1
 44
0.0
173
     0
291
     1
 45
0.0
1001
ACAD
1000
AcDbSavedByObjectVersion
1070
     0
  0
DICTIONARYVAR
  5
15E
102
{ACAD_REACTORS
330
15D
102
}
330
15D
100
DictionaryVariables
280
     0
  1
1:1
  0
DICTIONARYVAR
  5
162
102
{ACAD_REACTORS
330
15D
102
}
330
15D
100
DictionaryVariables
280
     0
  1
80.000000
  0
DICTIONARYVAR
  5
161
102
{ACAD_REACTORS
330
15D
102
}
330
15D
100
DictionaryVariables
280
     0
  1
5.000000
  0
ENDSEC
  0
EOF
