  0
SECTION
  2
HEADER
  9
$ACADVER
  1
AC1009
  9
$DWGCODEPAGE
  3
ansi_1252
  9
$INSBASE
 10
0.0
 20
0.0
 30
0.0
  9
$EXTMIN
 10
1.000000000000000E+20
 20
1.000000000000000E+20
 30
1.000000000000000E+20
  9
$EXTMAX
 10
-1.000000000000000E+20
 20
-1.000000000000000E+20
 30
-1.000000000000000E+20
  9
$LIMMIN
 10
0.0
 20
0.0
  9
$LIMMAX
 10
12.0
 20
9.0
  9
$ORTHOMODE
 70
     0
  9
$REGENMODE
 70
     1
  9
$FILLMODE
 70
     1
  9
$QTEXTMODE
 70
     0
  9
$MIRRTEXT
 70
     1
  9
$DRAGMODE
 70
     2
  9
$LTSCALE
 40
1.0
  9
$OSMODE
 70
    37
  9
$ATTMODE
 70
     1
  9
$TEXTSIZE
 40
0.2
  9
$TRACEWID
 40
0.05
  9
$TEXTSTYLE
  7
STANDARD
  9
$CLAYER
  8
0
  9
$CELTYPE
  6
BYLAYER
  9
$CECOLOR
 62
   256
  9
$DIMSCALE
 40
1.0
  9
$DIMASZ
 40
0.18
  9
$DIMEXO
 40
0.0625
  9
$DIMDLI
 40
0.38
  9
$DIMRND
 40
0.0
  9
$DIMDLE
 40
0.0
  9
$DIMEXE
 40
0.18
  9
$DIMTP
 40
0.0
  9
$DIMTM
 40
0.0
  9
$DIMTXT
 40
0.18
  9
$DIMCEN
 40
0.09
  9
$DIMTSZ
 40
0.0
  9
$DIMTOL
 70
     0
  9
$DIMLIM
 70
     0
  9
$DIMTIH
 70
     1
  9
$DIMTOH
 70
     1
  9
$DIMSE1
 70
     0
  9
$DIMSE2
 70
     0
  9
$DIMTAD
 70
     0
  9
$DIMZIN
 70
     0
  9
$DIMBLK
  1

  9
$DIMASO
 70
     1
  9
$DIMSHO
 70
     1
  9
$DIMPOST
  1

  9
$DIMAPOST
  1

  9
$DIMALT
 70
     0
  9
$DIMALTD
 70
     2
  9
$DIMALTF
 40
25.4
  9
$DIMLFAC
 40
1.0
  9
$DIMTOFL
 70
     0
  9
$DIMTVP
 40
0.0
  9
$DIMTIX
 70
     0
  9
$DIMSOXD
 70
     0
  9
$DIMSAH
 70
     0
  9
$DIMBLK1
  1

  9
$DIMBLK2
  1

  9
$DIMSTYLE
  2
STANDARD
  9
$DIMCLRD
 70
     0
  9
$DIMCLRE
 70
     0
  9
$DIMCLRT
 70
     0
  9
$DIMTFAC
 40
1.0
  9
$DIMGAP
 40
0.09
  9
$LUNITS
 70
     2
  9
$LUPREC
 70
     4
  9
$SKETCHINC
 40
0.1
  9
$FILLETRAD
 40
0.5
  9
$AUNITS
 70
     0
  9
$AUPREC
 70
     0
  9
$MENU
  1
.
  9
$ELEVATION
 40
0.0
  9
$PELEVATION
 40
0.0
  9
$THICKNESS
 40
0.0
  9
$LIMCHECK
 70
     0
  9
$CHAMFERA
 40
0.5
  9
$CHAMFERB
 40
0.5
  9
$SKPOLY
 70
     0
  9
$TDCREATE
 40
2455378.657222419
  9
$TDUPDATE
 40
2455378.657222419
  9
$TDINDWG
 40
0.0000000116
  9
$TDUSRTIMER
 40
0.0000000116
  9
$USRTIMER
 70
     1
  9
$ANGBASE
 50
0.0
  9
$ANGDIR
 70
     0
  9
$PDMODE
 70
     0
  9
$PDSIZE
 40
0.0
  9
$PLINEWID
 40
0.0
  9
$COORDS
 70
     1
  9
$SPLFRAME
 70
     0
  9
$SPLINETYPE
 70
     6
  9
$SPLINESEGS
 70
     8
  9
$ATTDIA
 70
     0
  9
$ATTREQ
 70
     1
  9
$HANDLING
 70
     1
  9
$HANDSEED
  5
63F
  9
$SURFTAB1
 70
     6
  9
$SURFTAB2
 70
     6
  9
$SURFTYPE
 70
     6
  9
$SURFU
 70
     6
  9
$SURFV
 70
     6
  9
$UCSNAME
  2

  9
$UCSORG
 10
0.0
 20
0.0
 30
0.0
  9
$UCSXDIR
 10
1.0
 20
0.0
 30
0.0
  9
$UCSYDIR
 10
0.0
 20
1.0
 30
0.0
  9
$PUCSNAME
  2

  9
$PUCSORG
 10
0.0
 20
0.0
 30
0.0
  9
$PUCSXDIR
 10
1.0
 20
0.0
 30
0.0
  9
$PUCSYDIR
 10
0.0
 20
1.0
 30
0.0
  9
$USERI1
 70
     0
  9
$USERI2
 70
     0
  9
$USERI3
 70
     0
  9
$USERI4
 70
     0
  9
$USERI5
 70
     0
  9
$USERR1
 40
0.0
  9
$USERR2
 40
0.0
  9
$USERR3
 40
0.0
  9
$USERR4
 40
0.0
  9
$USERR5
 40
0.0
  9
$WORLDVIEW
 70
     1
  9
$SHADEDGE
 70
     3
  9
$SHADEDIF
 70
    70
  9
$TILEMODE
 70
     1
  9
$MAXACTVP
 70
    64
  9
$PLIMCHECK
 70
     0
  9
$PEXTMIN
 10
1.000000000000000E+20
 20
1.000000000000000E+20
 30
1.000000000000000E+20
  9
$PEXTMAX
 10
-1.000000000000000E+20
 20
-1.000000000000000E+20
 30
-1.000000000000000E+20
  9
$PLIMMIN
 10
0.0
 20
0.0
  9
$PLIMMAX
 10
12.0
 20
9.0
  9
$UNITMODE
 70
     0
  9
$VISRETAIN
 70
     1
  9
$PLINEGEN
 70
     0
  9
$PSLTSCALE
 70
     1
  0
ENDSEC
  0
SECTION
  2
TABLES
  0
TABLE
  2
VPORT
 70
     1
  0
VPORT
  2
*ACTIVE
 70
     0
 10
0.0
 20
0.0
 11
1.0
 21
1.0
 12
0.0
 22
0.0
 13
0.0
 23
0.0
 14
0.5
 24
0.5
 15
0.5
 25
0.5
 16
291.1677856445312
 26
-271.5184936523438
 36
114.1594619750977
 17
32.59091186523438
 27
0.0
 37
6.431526184082031
 40
140.4171982943932
 41
1.972972972850329
 42
50.0
 43
0.0
 44
0.0
 50
0.0
 51
0.0
 71
     0
 72
   100
 73
     1
 74
     3
 75
     0
 76
     0
 77
     0
 78
     0
  0
ENDTAB
  0
TABLE
  2
LTYPE
 70
     1
  0
LTYPE
  2
CONTINUOUS
 70
     0
  3
Solid line
 72
    65
 73
     0
 40
0.0
  0
ENDTAB
  0
TABLE
  2
LAYER
 70
     2
  0
LAYER
  2
0
 70
     0
 62
     7
  6
CONTINUOUS
  0
LAYER
  2
LAYER_1
 70
     0
 62
     7
  6
CONTINUOUS
  0
ENDTAB
  0
TABLE
  2
STYLE
 70
     1
  0
STYLE
  2
STANDARD
 70
     0
 40
0.0
 41
1.0
 50
0.0
 71
     0
 42
0.2
  3
txt
  4

  0
ENDTAB
  0
TABLE
  2
VIEW
 70
     0
  0
ENDTAB
  0
TABLE
  2
UCS
 70
     0
  0
ENDTAB
  0
TABLE
  2
APPID
 70
     1
  0
APPID
  2
ACAD
 70
     0
  0
ENDTAB
  0
TABLE
  2
DIMSTYLE
 70
     1
  0
DIMSTYLE
  2
STANDARD
 70
     0
  3

  4

  5

  6

  7

 40
1.0
 41
0.18
 42
0.0625
 43
0.38
 44
0.18
 45
0.0
 46
0.0
 47
0.0
 48
0.0
140
0.18
141
0.09
142
0.0
143
25.4
144
1.0
145
0.0
146
1.0
147
0.09
 71
     0
 72
     0
 73
     1
 74
     1
 75
     0
 76
     0
 77
     0
 78
     0
170
     0
171
     2
172
     0
173
     0
174
     0
175
     0
176
     0
177
     0
178
     0
  0
ENDTAB
  0
ENDSEC
  0
SECTION
  2
BLOCKS
  0
BLOCK
  8
0
  2
$MODEL_SPACE
 70
     0
 10
0.0
 20
0.0
 30
0.0
  3
$MODEL_SPACE
  1

  0
ENDBLK
  5
21
  8
0
  0
BLOCK
 67
     1
  8
0
  2
$PAPER_SPACE
 70
     0
 10
0.0
 20
0.0
 30
0.0
  3
$PAPER_SPACE
  1

  0
ENDBLK
  5
1D
 67
     1
  8
0
  0
BLOCK
  8
0
  2
38
 70
     0
 10
0.0
 20
0.0
 30
0.0
  3
38
  1

  0
POLYLINE
  5
3C
  8
0
 62
     9
 66
     1
 10
0.0
 20
0.0
 30
0.0
 70
    64
 71
    76
 72
    76
  0
VERTEX
  5
3D
  8
0
 10
10.0
 20
-18.26482391357422
 30
-14.79626655578613
 70
   192
  0
VERTEX
  5
3E
  8
0
 10
12.0
 20
-15.86916160583496
 30
-10.8992338180542
 70
   192
  0
VERTEX
  5
3F
  8
0
 10
10.0
 20
-15.00078582763672
 30
-16.97732543945312
 70
   192
  0
VERTEX
  5
40
  8
0
 10
10.0
 20
-21.21504402160645
 30
-12.20889377593994
 70
   192
  0
VERTEX
  5
41
  8
0
 10
12.0
 20
-19.89913177490234
 30
-6.869362354278564
 70
   192
  0
VERTEX
  5
42
  8
0
 10
10.0
 20
-25.97958374023438
 30
-5.997537612915039
 70
   192
  0
VERTEX
  5
43
  8
0
 10
12.0
 20
-22.92947959899902
 30
-2.043413639068604
 70
   192
  0
VERTEX
  5
44
  8
0
 10
10.0
 20
-23.80120658874512
 30
-9.259166717529297
 70
   192
  0
VERTEX
  5
45
  8
0
 10
12.0
 20
-11.04294967651367
 30
-13.93091011047363
 70
   192
  0
VERTEX
  5
46
  8
0
 10
10.0
 20
-27.71517372131348
 30
-2.476773977279663
 70
   192
  0
VERTEX
  5
47
  8
0
 10
10.0
 20
-29.70170783996582
 30
5.08812952041626
 70
   192
  0
VERTEX
  5
48
  8
0
 10
12.0
 20
-24.74423789978027
 30
3.350034236907959
 70
   192
  0
VERTEX
  5
49
  8
0
 10
10.0
 20
-28.98302841186523
 30
1.237533092498779
 70
   192
  0
VERTEX
  5
4A
  8
0
 10
10.0
 20
-11.48294830322266
 30
-18.71273612976074
 70
   192
  0
VERTEX
  5
4B
  8
0
 10
12.0
 20
-25.45000076293945
 30
8.999999046325684
 70
   192
  0
VERTEX
  5
4C
  8
0
 10
10.0
 20
-30.0
 30
8.999999046325684
 70
   192
  0
VERTEX
  5
4D
  8
0
 10
12.0
 20
-5.663082599639893
 30
-15.81219863891602
 70
   192
  0
VERTEX
  5
4E
  8
0
 10
10.0
 20
-7.768057346343994
 30
-19.97515296936035
 70
   192
  0
VERTEX
  5
4F
  8
0
 10
12.0
 20
0.0000000000000004
 30
-16.45000076293945
 70
   192
  0
VERTEX
  5
50
  8
0
 10
10.0
 20
-3.91864013671875
 30
-20.74235916137695
 70
   192
  0
VERTEX
  5
51
  8
0
 10
10.0
 20
3.914342880249023
 30
-20.74339485168457
 70
   192
  0
VERTEX
  5
52
  8
0
 10
10.0
 20
-0.0000000000000133
 30
-21.0
 70
   192
  0
VERTEX
  5
53
  8
0
 10
10.0
 20
7.762872695922852
 30
-19.97894096374512
 70
   192
  0
VERTEX
  5
54
  8
0
 10
12.0
 20
5.663859844207764
 30
-15.81115341186523
 70
   192
  0
VERTEX
  5
55
  8
0
 10
10.0
 20
11.48000431060791
 30
-18.71806907653809
 70
   192
  0
VERTEX
  5
56
  8
0
 10
12.0
 20
11.04279232025146
 30
-13.92761516571045
 70
   192
  0
VERTEX
  5
57
  8
0
 10
12.0
 20
15.86736965179443
 30
-10.89518451690674
 70
   192
  0
VERTEX
  5
58
  8
0
 10
10.0
 20
15.00194072723389
 30
-16.9814281463623
 70
   192
  0
VERTEX
  5
59
  8
0
 10
10.0
 20
21.21358871459961
 30
-12.2140417098999
 70
   192
  0
VERTEX
  5
5A
  8
0
 10
10.0
 20
18.26387214660645
 30
-14.80132675170898
 70
   192
  0
VERTEX
  5
5B
  8
0
 10
10.0
 20
23.80117607116699
 30
-9.2636137008667
 70
   192
  0
VERTEX
  5
5C
  8
0
 10
12.0
 20
19.8965950012207
 30
-6.866301536560059
 70
   192
  0
VERTEX
  5
5D
  8
0
 10
10.0
 20
25.98269653320312
 30
-5.999845504760742
 70
   192
  0
VERTEX
  5
5E
  8
0
 10
12.0
 20
22.92874717712402
 30
-2.042978286743164
 70
   192
  0
VERTEX
  5
5F
  8
0
 10
12.0
 20
24.79935646057129
 30
3.338293075561523
 70
   192
  0
VERTEX
  5
60
  8
0
 10
10.0
 20
27.71814727783203
 30
-2.482141017913818
 70
   192
  0
VERTEX
  5
61
  8
0
 10
10.0
 20
29.71371841430664
 30
5.084059715270996
 70
   192
  0
VERTEX
  5
62
  8
0
 10
10.0
 20
28.97870254516602
 30
1.232871890068054
 70
   192
  0
VERTEX
  5
63
  8
0
 10
12.0
 20
25.45000076293945
 30
8.999999046325684
 70
   192
  0
VERTEX
  5
64
  8
0
 10
10.0
 20
30.0
 30
8.999999046325684
 70
   192
  0
VERTEX
  5
65
  8
0
 10
10.0
 20
-29.71371841430664
 30
12.91593933105469
 70
   192
  0
VERTEX
  5
66
  8
0
 10
12.0
 20
-24.79935646057129
 30
14.66170597076416
 70
   192
  0
VERTEX
  5
67
  8
0
 10
12.0
 20
-19.8965950012207
 30
24.86630058288574
 70
   192
  0
VERTEX
  5
68
  8
0
 10
12.0
 20
-22.92874717712402
 30
20.04297637939453
 70
   192
  0
VERTEX
  5
69
  8
0
 10
10.0
 20
-25.98269653320312
 30
23.99984359741211
 70
   192
  0
VERTEX
  5
6A
  8
0
 10
12.0
 20
-0.0000000000000311
 30
34.45000076293945
 70
   192
  0
VERTEX
  5
6B
  8
0
 10
12.0
 20
-5.663859844207764
 30
33.81115341186523
 70
   192
  0
VERTEX
  5
6C
  8
0
 10
10.0
 20
-3.914342880249023
 30
38.74339294433594
 70
   192
  0
VERTEX
  5
6D
  8
0
 10
10.0
 20
-15.00194072723389
 30
34.98142623901367
 70
   192
  0
VERTEX
  5
6E
  8
0
 10
12.0
 20
-11.04279232025146
 30
31.92761421203613
 70
   192
  0
VERTEX
  5
6F
  8
0
 10
12.0
 20
-15.86736965179443
 30
28.89518356323242
 70
   192
  0
VERTEX
  5
70
  8
0
 10
10.0
 20
15.00078582763672
 30
34.97732543945312
 70
   192
  0
VERTEX
  5
71
  8
0
 10
12.0
 20
15.86916160583496
 30
28.89923286437988
 70
   192
  0
VERTEX
  5
72
  8
0
 10
12.0
 20
11.04294967651367
 30
31.930908203125
 70
   192
  0
VERTEX
  5
73
  8
0
 10
10.0
 20
7.768057346343994
 30
37.97515106201172
 70
   192
  0
VERTEX
  5
74
  8
0
 10
10.0
 20
11.48294830322266
 30
36.71273422241211
 70
   192
  0
VERTEX
  5
75
  8
0
 10
12.0
 20
5.663082599639893
 30
33.81219863891602
 70
   192
  0
VERTEX
  5
76
  8
0
 10
10.0
 20
25.97958374023438
 30
23.99753570556641
 70
   192
  0
VERTEX
  5
77
  8
0
 10
12.0
 20
22.92947959899902
 30
20.04341316223145
 70
   192
  0
VERTEX
  5
78
  8
0
 10
12.0
 20
19.89913177490234
 30
24.86935997009277
 70
   192
  0
VERTEX
  5
79
  8
0
 10
10.0
 20
21.21504402160645
 30
30.20889282226562
 70
   192
  0
VERTEX
  5
7A
  8
0
 10
10.0
 20
23.80120658874512
 30
27.25916481018066
 70
   192
  0
VERTEX
  5
7B
  8
0
 10
12.0
 20
24.74423789978027
 30
14.64996433258057
 70
   192
  0
VERTEX
  5
7C
  8
0
 10
10.0
 20
27.71517372131348
 30
20.47677230834961
 70
   192
  0
VERTEX
  5
7D
  8
0
 10
10.0
 20
28.98302841186523
 30
16.76246643066406
 70
   192
  0
VERTEX
  5
7E
  8
0
 10
10.0
 20
29.70170783996582
 30
12.91186904907227
 70
   192
  0
VERTEX
  5
7F
  8
0
 10
10.0
 20
18.26482391357422
 30
32.7962646484375
 70
   192
  0
VERTEX
  5
80
  8
0
 10
10.0
 20
3.91864013671875
 30
38.74235916137695
 70
   192
  0
VERTEX
  5
81
  8
0
 10
10.0
 20
-18.26387214660645
 30
32.80132675170898
 70
   192
  0
VERTEX
  5
82
  8
0
 10
10.0
 20
-0.0000000000000022
 30
39.0
 70
   192
  0
VERTEX
  5
83
  8
0
 10
10.0
 20
-11.48000431060791
 30
36.71806716918945
 70
   192
  0
VERTEX
  5
84
  8
0
 10
10.0
 20
-7.762872695922852
 30
37.97893905639648
 70
   192
  0
VERTEX
  5
85
  8
0
 10
10.0
 20
-27.71814727783203
 30
20.48213958740234
 70
   192
  0
VERTEX
  5
86
  8
0
 10
10.0
 20
-23.80117607116699
 30
27.26361274719238
 70
   192
  0
VERTEX
  5
87
  8
0
 10
10.0
 20
-21.21358871459961
 30
30.21404075622559
 70
   192
  0
VERTEX
  5
88
  8
0
 10
10.0
 20
-28.97870254516602
 30
16.76712608337402
 70
   192
  0
VERTEX
  5
89
  8
0
 62
     9
 10
0.0
 20
0.0
 30
0.0
 70
   128
 71
     3
 72
     2
 73
     1
  0
VERTEX
  5
8A
  8
0
 62
     9
 10
0.0
 20
0.0
 30
0.0
 70
   128
 71
     4
 72
     1
 73
     2
  0
VERTEX
  5
8B
  8
0
 62
     9
 10
0.0
 20
0.0
 30
0.0
 70
   128
 71
     5
 72
     4
 73
     2
  0
VERTEX
  5
8C
  8
0
 62
     9
 10
0.0
 20
0.0
 30
0.0
 70
   128
 71
     7
 72
     6
 73
     5
  0
VERTEX
  5
8D
  8
0
 62
     9
 10
0.0
 20
0.0
 30
0.0
 70
   128
 71
     8
 72
     4
 73
     5
  0
VERTEX
  5
8E
  8
0
 62
     9
 10
0.0
 20
0.0
 30
0.0
 70
   128
 71
     9
 72
     2
 73
     3
  0
VERTEX
  5
8F
  8
0
 62
     9
 10
0.0
 20
0.0
 30
0.0
 70
   128
 71
     6
 72
     8
 73
     5
  0
VERTEX
  5
90
  8
0
 62
     9
 10
0.0
 20
0.0
 30
0.0
 70
   128
 71
     6
 72
     7
 73
    10
  0
VERTEX
  5
91
  8
0
 62
     9
 10
0.0
 20
0.0
 30
0.0
 70
   128
 71
    13
 72
    12
 73
    11
  0
VERTEX
  5
92
  8
0
 62
     9
 10
0.0
 20
0.0
 30
0.0
 70
   128
 71
     3
 72
    14
 73
     9
  0
VERTEX
  5
93
  8
0
 62
     9
 10
0.0
 20
0.0
 30
0.0
 70
   128
 71
    15
 72
    11
 73
    12
  0
VERTEX
  5
94
  8
0
 62
     9
 10
0.0
 20
0.0
 30
0.0
 70
   128
 71
    13
 72
    10
 73
    12
  0
VERTEX
  5
95
  8
0
 62
     9
 10
0.0
 20
0.0
 30
0.0
 70
   128
 71
    11
 72
    15
 73
    16
  0
VERTEX
  5
96
  8
0
 62
     9
 10
0.0
 20
0.0
 30
0.0
 70
   128
 71
     7
 72
    12
 73
    10
  0
VERTEX
  5
97
  8
0
 62
     9
 10
0.0
 20
0.0
 30
0.0
 70
   128
 71
    18
 72
    17
 73
    14
  0
VERTEX
  5
98
  8
0
 62
     9
 10
0.0
 20
0.0
 30
0.0
 70
   128
 71
     9
 72
    14
 73
    17
  0
VERTEX
  5
99
  8
0
 62
     9
 10
0.0
 20
0.0
 30
0.0
 70
   128
 71
    20
 72
    19
 73
    17
  0
VERTEX
  5
9A
  8
0
 62
     9
 10
0.0
 20
0.0
 30
0.0
 70
   128
 71
    17
 72
    18
 73
    20
  0
VERTEX
  5
9B
  8
0
 62
     9
 10
0.0
 20
0.0
 30
0.0
 70
   128
 71
    22
 72
    21
 73
    19
  0
VERTEX
  5
9C
  8
0
 62
     9
 10
0.0
 20
0.0
 30
0.0
 70
   128
 71
    22
 72
    19
 73
    20
  0
VERTEX
  5
9D
  8
0
 62
     9
 10
0.0
 20
0.0
 30
0.0
 70
   128
 71
    24
 72
    21
 73
    23
  0
VERTEX
  5
9E
  8
0
 62
     9
 10
0.0
 20
0.0
 30
0.0
 70
   128
 71
    21
 72
    24
 73
    19
  0
VERTEX
  5
9F
  8
0
 62
     9
 10
0.0
 20
0.0
 30
0.0
 70
   128
 71
    26
 72
    24
 73
    25
  0
VERTEX
  5
A0
  8
0
 62
     9
 10
0.0
 20
0.0
 30
0.0
 70
   128
 71
    23
 72
    25
 73
    24
  0
VERTEX
  5
A1
  8
0
 62
     9
 10
0.0
 20
0.0
 30
0.0
 70
   128
 71
    28
 72
    27
 73
    26
  0
VERTEX
  5
A2
  8
0
 62
     9
 10
0.0
 20
0.0
 30
0.0
 70
   128
 71
    26
 72
    25
 73
    28
  0
VERTEX
  5
A3
  8
0
 62
     9
 10
0.0
 20
0.0
 30
0.0
 70
   128
 71
    30
 72
    29
 73
    27
  0
VERTEX
  5
A4
  8
0
 62
     9
 10
0.0
 20
0.0
 30
0.0
 70
   128
 71
    30
 72
    27
 73
    28
  0
VERTEX
  5
A5
  8
0
 62
     9
 10
0.0
 20
0.0
 30
0.0
 70
   128
 71
    32
 72
    29
 73
    31
  0
VERTEX
  5
A6
  8
0
 62
     9
 10
0.0
 20
0.0
 30
0.0
 70
   128
 71
    29
 72
    32
 73
    27
  0
VERTEX
  5
A7
  8
0
 62
     9
 10
0.0
 20
0.0
 30
0.0
 70
   128
 71
    34
 72
    32
 73
    33
  0
VERTEX
  5
A8
  8
0
 62
     9
 10
0.0
 20
0.0
 30
0.0
 70
   128
 71
    31
 72
    33
 73
    32
  0
VERTEX
  5
A9
  8
0
 62
     9
 10
0.0
 20
0.0
 30
0.0
 70
   128
 71
    36
 72
    35
 73
    34
  0
VERTEX
  5
AA
  8
0
 62
     9
 10
0.0
 20
0.0
 30
0.0
 70
   128
 71
    34
 72
    33
 73
    36
  0
VERTEX
  5
AB
  8
0
 62
     9
 10
0.0
 20
0.0
 30
0.0
 70
   128
 71
    38
 72
    37
 73
    35
  0
VERTEX
  5
AC
  8
0
 62
     9
 10
0.0
 20
0.0
 30
0.0
 70
   128
 71
    38
 72
    35
 73
    36
  0
VERTEX
  5
AD
  8
0
 62
     9
 10
0.0
 20
0.0
 30
0.0
 70
   128
 71
    37
 72
    39
 73
    35
  0
VERTEX
  5
AE
  8
0
 62
     9
 10
0.0
 20
0.0
 30
0.0
 70
   128
 71
    37
 72
    40
 73
    39
  0
VERTEX
  5
AF
  8
0
 62
     9
 10
0.0
 20
0.0
 30
0.0
 70
   128
 71
    15
 72
    42
 73
    41
  0
VERTEX
  5
B0
  8
0
 62
     9
 10
0.0
 20
0.0
 30
0.0
 70
   128
 71
    45
 72
    44
 73
    43
  0
VERTEX
  5
B1
  8
0
 62
     9
 10
0.0
 20
0.0
 30
0.0
 70
   128
 71
    48
 72
    47
 73
    46
  0
VERTEX
  5
B2
  8
0
 62
     9
 10
0.0
 20
0.0
 30
0.0
 70
   128
 71
    51
 72
    50
 73
    49
  0
VERTEX
  5
B3
  8
0
 62
     9
 10
0.0
 20
0.0
 30
0.0
 70
   128
 71
    54
 72
    53
 73
    52
  0
VERTEX
  5
B4
  8
0
 62
     9
 10
0.0
 20
0.0
 30
0.0
 70
   128
 71
    57
 72
    56
 73
    55
  0
VERTEX
  5
B5
  8
0
 62
     9
 10
0.0
 20
0.0
 30
0.0
 70
   128
 71
    60
 72
    59
 73
    58
  0
VERTEX
  5
B6
  8
0
 62
     9
 10
0.0
 20
0.0
 30
0.0
 70
   128
 71
    62
 72
    61
 73
    60
  0
VERTEX
  5
B7
  8
0
 62
     9
 10
0.0
 20
0.0
 30
0.0
 70
   128
 71
    64
 72
    59
 73
    63
  0
VERTEX
  5
B8
  8
0
 62
     9
 10
0.0
 20
0.0
 30
0.0
 70
   128
 71
    59
 72
    64
 73
    58
  0
VERTEX
  5
B9
  8
0
 62
     9
 10
0.0
 20
0.0
 30
0.0
 70
   128
 71
    63
 72
    66
 73
    65
  0
VERTEX
  5
BA
  8
0
 62
     9
 10
0.0
 20
0.0
 30
0.0
 70
   128
 71
    64
 72
    63
 73
    65
  0
VERTEX
  5
BB
  8
0
 62
     9
 10
0.0
 20
0.0
 30
0.0
 70
   128
 71
    66
 72
    39
 73
    40
  0
VERTEX
  5
BC
  8
0
 62
     9
 10
0.0
 20
0.0
 30
0.0
 70
   128
 71
    39
 72
    66
 73
    63
  0
VERTEX
  5
BD
  8
0
 62
     9
 10
0.0
 20
0.0
 30
0.0
 70
   128
 71
    62
 72
    60
 73
    58
  0
VERTEX
  5
BE
  8
0
 62
     9
 10
0.0
 20
0.0
 30
0.0
 70
   128
 71
    60
 72
    61
 73
    53
  0
VERTEX
  5
BF
  8
0
 62
     9
 10
0.0
 20
0.0
 30
0.0
 70
   128
 71
    67
 72
    52
 73
    53
  0
VERTEX
  5
C0
  8
0
 62
     9
 10
0.0
 20
0.0
 30
0.0
 70
   128
 71
    67
 72
    53
 73
    61
  0
VERTEX
  5
C1
  8
0
 62
     9
 10
0.0
 20
0.0
 30
0.0
 70
   128
 71
    46
 72
    57
 73
    68
  0
VERTEX
  5
C2
  8
0
 62
     9
 10
0.0
 20
0.0
 30
0.0
 70
   128
 71
    54
 72
    52
 73
    56
  0
VERTEX
  5
C3
  8
0
 62
     9
 10
0.0
 20
0.0
 30
0.0
 70
   128
 71
    57
 72
    55
 73
    68
  0
VERTEX
  5
C4
  8
0
 62
     9
 10
0.0
 20
0.0
 30
0.0
 70
   128
 71
    56
 72
    57
 73
    54
  0
VERTEX
  5
C5
  8
0
 62
     9
 10
0.0
 20
0.0
 30
0.0
 70
   128
 71
    49
 72
    69
 73
    51
  0
VERTEX
  5
C6
  8
0
 62
     9
 10
0.0
 20
0.0
 30
0.0
 70
   128
 71
    70
 72
    48
 73
    46
  0
VERTEX
  5
C7
  8
0
 62
     9
 10
0.0
 20
0.0
 30
0.0
 70
   128
 71
    68
 72
    70
 73
    46
  0
VERTEX
  5
C8
  8
0
 62
     9
 10
0.0
 20
0.0
 30
0.0
 70
   128
 71
    72
 72
    71
 73
    47
  0
VERTEX
  5
C9
  8
0
 62
     9
 10
0.0
 20
0.0
 30
0.0
 70
   128
 71
    48
 72
    72
 73
    47
  0
VERTEX
  5
CA
  8
0
 62
     9
 10
0.0
 20
0.0
 30
0.0
 70
   128
 71
    73
 72
    44
 73
    45
  0
VERTEX
  5
CB
  8
0
 62
     9
 10
0.0
 20
0.0
 30
0.0
 70
   128
 71
    50
 72
    71
 73
    49
  0
VERTEX
  5
CC
  8
0
 62
     9
 10
0.0
 20
0.0
 30
0.0
 70
   128
 71
    47
 72
    71
 73
    50
  0
VERTEX
  5
CD
  8
0
 62
     9
 10
0.0
 20
0.0
 30
0.0
 70
   128
 71
    43
 72
    74
 73
    45
  0
VERTEX
  5
CE
  8
0
 62
     9
 10
0.0
 20
0.0
 30
0.0
 70
   128
 71
    69
 72
    75
 73
    51
  0
VERTEX
  5
CF
  8
0
 62
     9
 10
0.0
 20
0.0
 30
0.0
 70
   128
 71
    74
 72
    43
 73
    75
  0
VERTEX
  5
D0
  8
0
 62
     9
 10
0.0
 20
0.0
 30
0.0
 70
   128
 71
    43
 72
    51
 73
    75
  0
VERTEX
  5
D1
  8
0
 62
     9
 10
0.0
 20
0.0
 30
0.0
 70
   128
 71
    73
 72
    42
 73
    44
  0
VERTEX
  5
D2
  8
0
 62
     9
 10
0.0
 20
0.0
 30
0.0
 70
   128
 71
    73
 72
    76
 73
    42
  0
VERTEX
  5
D3
  8
0
 62
     9
 10
0.0
 20
0.0
 30
0.0
 70
   128
 71
    41
 72
    16
 73
    15
  0
VERTEX
  5
D4
  8
0
 62
     9
 10
0.0
 20
0.0
 30
0.0
 70
   128
 71
    76
 72
    41
 73
    42
  0
SEQEND
  5
D5
  8
0
 62
     9
  0
ENDBLK
  5
D9
  8
0
  0
BLOCK
  8
0
  2
39
 70
     0
 10
0.0
 20
0.0
 30
0.0
  3
39
  1

  0
POLYLINE
  5
DB
  8
0
 62
     9
 66
     1
 10
0.0
 20
0.0
 30
0.0
 70
    64
 71
    58
 72
    58
  0
VERTEX
  5
DC
  8
0
 10
12.0
 20
3.766279697418213
 30
67.9286117553711
 70
   192
  0
VERTEX
  5
DD
  8
0
 10
10.0
 20
4.999531745910645
 30
72.2398452758789
 70
   192
  0
VERTEX
  5
DE
  8
0
 10
10.0
 20
6.425075531005859
 30
71.24051666259766
 70
   192
  0
VERTEX
  5
DF
  8
0
 10
12.0
 20
2.388471126556396
 30
68.81228637695312
 70
   192
  0
VERTEX
  5
E0
  8
0
 10
10.0
 20
3.420726299285889
 30
72.97579956054688
 70
   192
  0
VERTEX
  5
E1
  8
0
 10
12.0
 20
4.840120315551758
 30
66.68936157226562
 70
   192
  0
VERTEX
  5
E2
  8
0
 10
10.0
 20
7.655719757080078
 30
70.00306701660156
 70
   192
  0
VERTEX
  5
E3
  8
0
 10
10.0
 20
8.6556396484375
 30
68.57569122314453
 70
   192
  0
VERTEX
  5
E4
  8
0
 10
10.0
 20
9.396390914916992
 30
66.99785614013672
 70
   192
  0
VERTEX
  5
E5
  8
0
 10
12.0
 20
5.519408702850342
 30
65.20246124267578
 70
   192
  0
VERTEX
  5
E6
  8
0
 10
12.0
 20
5.75
 30
63.57999801635742
 70
   192
  0
VERTEX
  5
E7
  8
0
 10
10.0
 20
9.847535133361816
 30
65.31462097167969
 70
   192
  0
VERTEX
  5
E8
  8
0
 10
10.0
 20
10.0
 30
63.57999801635742
 70
   192
  0
VERTEX
  5
E9
  8
0
 10
10.0
 20
1.737438559532166
 30
73.4273681640625
 70
   192
  0
VERTEX
  5
EA
  8
0
 10
12.0
 20
0.8158091902732849
 30
69.27133178710938
 70
   192
  0
VERTEX
  5
EB
  8
0
 10
10.0
 20
-0.0000000000000178
 30
73.58000183105469
 70
   192
  0
VERTEX
  5
EC
  8
0
 10
12.0
 20
-0.8212941884994507
 30
69.27018737792969
 70
   192
  0
VERTEX
  5
ED
  8
0
 10
10.0
 20
-1.734779357910156
 30
73.428466796875
 70
   192
  0
VERTEX
  5
EE
  8
0
 10
10.0
 20
-3.417322397232056
 30
72.97831726074219
 70
   192
  0
VERTEX
  5
EF
  8
0
 10
12.0
 20
-2.391215324401855
 30
68.8047866821289
 70
   192
  0
VERTEX
  5
F0
  8
0
 10
10.0
 20
-4.996833324432373
 30
72.24267578125
 70
   192
  0
VERTEX
  5
F1
  8
0
 10
10.0
 20
-6.425173282623291
 30
71.24288940429688
 70
   192
  0
VERTEX
  5
F2
  8
0
 10
12.0
 20
-3.76616382598877
 30
67.91869354248047
 70
   192
  0
VERTEX
  5
F3
  8
0
 10
10.0
 20
-7.623517036437988
 30
69.97708129882812
 70
   192
  0
VERTEX
  5
F4
  8
0
 10
12.0
 20
-4.835743427276611
 30
66.68362426757812
 70
   192
  0
VERTEX
  5
F5
  8
0
 10
10.0
 20
-8.66761589050293
 30
68.5894775390625
 70
   192
  0
VERTEX
  5
F6
  8
0
 10
10.0
 20
-9.397223472595215
 30
67.00235748291016
 70
   192
  0
VERTEX
  5
F7
  8
0
 10
12.0
 20
-5.515054225921631
 30
65.19483947753906
 70
   192
  0
VERTEX
  5
F8
  8
0
 10
10.0
 20
-9.848898887634277
 30
65.3176498413086
 70
   192
  0
VERTEX
  5
F9
  8
0
 10
12.0
 20
-5.75
 30
63.57999801635742
 70
   192
  0
VERTEX
  5
FA
  8
0
 10
10.0
 20
-10.0
 30
63.57999801635742
 70
   192
  0
VERTEX
  5
FB
  8
0
 10
10.0
 20
9.848898887634277
 30
61.84234619140625
 70
   192
  0
VERTEX
  5
FC
  8
0
 10
12.0
 20
5.515054225921631
 30
61.96516036987305
 70
   192
  0
VERTEX
  5
FD
  8
0
 10
12.0
 20
3.76616382598877
 30
59.24130249023438
 70
   192
  0
VERTEX
  5
FE
  8
0
 10
12.0
 20
4.835743427276611
 30
60.47637176513672
 70
   192
  0
VERTEX
  5
FF
  8
0
 10
10.0
 20
7.623517036437988
 30
57.18292236328125
 70
   192
  0
VERTEX
  5
100
  8
0
 10
12.0
 20
-0.8158091902732849
 30
57.88866424560547
 70
   192
  0
VERTEX
  5
101
  8
0
 10
10.0
 20
-1.737438559532166
 30
53.73263168334961
 70
   192
  0
VERTEX
  5
102
  8
0
 10
10.0
 20
-3.420726299285889
 30
54.18420028686523
 70
   192
  0
VERTEX
  5
103
  8
0
 10
10.0
 20
3.417322397232056
 30
54.18168258666992
 70
   192
  0
VERTEX
  5
104
  8
0
 10
10.0
 20
1.734779357910156
 30
53.73152923583984
 70
   192
  0
VERTEX
  5
105
  8
0
 10
12.0
 20
0.8212941884994507
 30
57.88980865478516
 70
   192
  0
VERTEX
  5
106
  8
0
 10
10.0
 20
-8.6556396484375
 30
58.58430480957031
 70
   192
  0
VERTEX
  5
107
  8
0
 10
12.0
 20
-4.840120315551758
 30
60.47063827514648
 70
   192
  0
VERTEX
  5
108
  8
0
 10
10.0
 20
-7.655719757080078
 30
57.15692901611328
 70
   192
  0
VERTEX
  5
109
  8
0
 10
10.0
 20
-4.999531745910645
 30
54.92015838623047
 70
   192
  0
VERTEX
  5
10A
  8
0
 10
10.0
 20
-6.425075531005859
 30
55.91948699951172
 70
   192
  0
VERTEX
  5
10B
  8
0
 10
12.0
 20
-3.766279697418213
 30
59.23138809204102
 70
   192
  0
VERTEX
  5
10C
  8
0
 10
10.0
 20
-9.396390914916992
 30
60.16214370727539
 70
   192
  0
VERTEX
  5
10D
  8
0
 10
12.0
 20
-5.519408702850342
 30
61.95754241943359
 70
   192
  0
VERTEX
  5
10E
  8
0
 10
10.0
 20
-9.847535133361816
 30
61.84537506103516
 70
   192
  0
VERTEX
  5
10F
  8
0
 10
12.0
 20
-2.388471126556396
 30
58.34771347045898
 70
   192
  0
VERTEX
  5
110
  8
0
 10
10.0
 20
-0.0000000000000169
 30
53.57999801635742
 70
   192
  0
VERTEX
  5
111
  8
0
 10
12.0
 20
2.391215324401855
 30
58.35521697998047
 70
   192
  0
VERTEX
  5
112
  8
0
 10
10.0
 20
4.996833324432373
 30
54.91732406616211
 70
   192
  0
VERTEX
  5
113
  8
0
 10
10.0
 20
6.425173282623291
 30
55.91710662841797
 70
   192
  0
VERTEX
  5
114
  8
0
 10
10.0
 20
8.66761589050293
 30
58.57052230834961
 70
   192
  0
VERTEX
  5
115
  8
0
 10
10.0
 20
9.397223472595215
 30
60.15764236450195
 70
   192
  0
VERTEX
  5
116
  8
0
 62
     9
 10
0.0
 20
0.0
 30
0.0
 70
   128
 71
     3
 72
     2
 73
     1
  0
VERTEX
  5
117
  8
0
 62
     9
 10
0.0
 20
0.0
 30
0.0
 70
   128
 71
     2
 72
     5
 73
     4
  0
VERTEX
  5
118
  8
0
 62
     9
 10
0.0
 20
0.0
 30
0.0
 70
   128
 71
     7
 72
     1
 73
     6
  0
VERTEX
  5
119
  8
0
 62
     9
 10
0.0
 20
0.0
 30
0.0
 70
   128
 71
     7
 72
     6
 73
     8
  0
VERTEX
  5
11A
  8
0
 62
     9
 10
0.0
 20
0.0
 30
0.0
 70
   128
 71
     1
 72
     2
 73
     4
  0
VERTEX
  5
11B
  8
0
 62
     9
 10
0.0
 20
0.0
 30
0.0
 70
   128
 71
     3
 72
     1
 73
     7
  0
VERTEX
  5
11C
  8
0
 62
     9
 10
0.0
 20
0.0
 30
0.0
 70
   128
 71
    10
 72
     9
 73
     6
  0
VERTEX
  5
11D
  8
0
 62
     9
 10
0.0
 20
0.0
 30
0.0
 70
   128
 71
    12
 72
    10
 73
    11
  0
VERTEX
  5
11E
  8
0
 62
     9
 10
0.0
 20
0.0
 30
0.0
 70
   128
 71
     9
 72
    10
 73
    12
  0
VERTEX
  5
11F
  8
0
 62
     9
 10
0.0
 20
0.0
 30
0.0
 70
   128
 71
    13
 72
    12
 73
    11
  0
VERTEX
  5
120
  8
0
 62
     9
 10
0.0
 20
0.0
 30
0.0
 70
   128
 71
     8
 72
     6
 73
     9
  0
VERTEX
  5
121
  8
0
 62
     9
 10
0.0
 20
0.0
 30
0.0
 70
   128
 71
    15
 72
     5
 73
    14
  0
VERTEX
  5
122
  8
0
 62
     9
 10
0.0
 20
0.0
 30
0.0
 70
   128
 71
     5
 72
    15
 73
     4
  0
VERTEX
  5
123
  8
0
 62
     9
 10
0.0
 20
0.0
 30
0.0
 70
   128
 71
    17
 72
    15
 73
    16
  0
VERTEX
  5
124
  8
0
 62
     9
 10
0.0
 20
0.0
 30
0.0
 70
   128
 71
    14
 72
    16
 73
    15
  0
VERTEX
  5
125
  8
0
 62
     9
 10
0.0
 20
0.0
 30
0.0
 70
   128
 71
    19
 72
    17
 73
    18
  0
VERTEX
  5
126
  8
0
 62
     9
 10
0.0
 20
0.0
 30
0.0
 70
   128
 71
    17
 72
    16
 73
    18
  0
VERTEX
  5
127
  8
0
 62
     9
 10
0.0
 20
0.0
 30
0.0
 70
   128
 71
    19
 72
    21
 73
    20
  0
VERTEX
  5
128
  8
0
 62
     9
 10
0.0
 20
0.0
 30
0.0
 70
   128
 71
    20
 72
    17
 73
    19
  0
VERTEX
  5
129
  8
0
 62
     9
 10
0.0
 20
0.0
 30
0.0
 70
   128
 71
    23
 72
    21
 73
    22
  0
VERTEX
  5
12A
  8
0
 62
     9
 10
0.0
 20
0.0
 30
0.0
 70
   128
 71
    21
 72
    23
 73
    20
  0
VERTEX
  5
12B
  8
0
 62
     9
 10
0.0
 20
0.0
 30
0.0
 70
   128
 71
    25
 72
    23
 73
    24
  0
VERTEX
  5
12C
  8
0
 62
     9
 10
0.0
 20
0.0
 30
0.0
 70
   128
 71
    22
 72
    24
 73
    23
  0
VERTEX
  5
12D
  8
0
 62
     9
 10
0.0
 20
0.0
 30
0.0
 70
   128
 71
    27
 72
    25
 73
    26
  0
VERTEX
  5
12E
  8
0
 62
     9
 10
0.0
 20
0.0
 30
0.0
 70
   128
 71
    25
 72
    24
 73
    26
  0
VERTEX
  5
12F
  8
0
 62
     9
 10
0.0
 20
0.0
 30
0.0
 70
   128
 71
    27
 72
    29
 73
    28
  0
VERTEX
  5
130
  8
0
 62
     9
 10
0.0
 20
0.0
 30
0.0
 70
   128
 71
    28
 72
    25
 73
    27
  0
VERTEX
  5
131
  8
0
 62
     9
 10
0.0
 20
0.0
 30
0.0
 70
   128
 71
    29
 72
    30
 73
    28
  0
VERTEX
  5
132
  8
0
 62
     9
 10
0.0
 20
0.0
 30
0.0
 70
   128
 71
    29
 72
    31
 73
    30
  0
VERTEX
  5
133
  8
0
 62
     9
 10
0.0
 20
0.0
 30
0.0
 70
   128
 71
    11
 72
    33
 73
    32
  0
VERTEX
  5
134
  8
0
 62
     9
 10
0.0
 20
0.0
 30
0.0
 70
   128
 71
    36
 72
    35
 73
    34
  0
VERTEX
  5
135
  8
0
 62
     9
 10
0.0
 20
0.0
 30
0.0
 70
   128
 71
    39
 72
    38
 73
    37
  0
VERTEX
  5
136
  8
0
 62
     9
 10
0.0
 20
0.0
 30
0.0
 70
   128
 71
    42
 72
    41
 73
    40
  0
VERTEX
  5
137
  8
0
 62
     9
 10
0.0
 20
0.0
 30
0.0
 70
   128
 71
    45
 72
    44
 73
    43
  0
VERTEX
  5
138
  8
0
 62
     9
 10
0.0
 20
0.0
 30
0.0
 70
   128
 71
    48
 72
    47
 73
    46
  0
VERTEX
  5
139
  8
0
 62
     9
 10
0.0
 20
0.0
 30
0.0
 70
   128
 71
    50
 72
    49
 73
    44
  0
VERTEX
  5
13A
  8
0
 62
     9
 10
0.0
 20
0.0
 30
0.0
 70
   128
 71
    43
 72
    44
 73
    49
  0
VERTEX
  5
13B
  8
0
 62
     9
 10
0.0
 20
0.0
 30
0.0
 70
   128
 71
    50
 72
    30
 73
    51
  0
VERTEX
  5
13C
  8
0
 62
     9
 10
0.0
 20
0.0
 30
0.0
 70
   128
 71
    51
 72
    49
 73
    50
  0
VERTEX
  5
13D
  8
0
 62
     9
 10
0.0
 20
0.0
 30
0.0
 70
   128
 71
    48
 72
    44
 73
    45
  0
VERTEX
  5
13E
  8
0
 62
     9
 10
0.0
 20
0.0
 30
0.0
 70
   128
 71
    30
 72
    31
 73
    51
  0
VERTEX
  5
13F
  8
0
 62
     9
 10
0.0
 20
0.0
 30
0.0
 70
   128
 71
    52
 72
    48
 73
    46
  0
VERTEX
  5
140
  8
0
 62
     9
 10
0.0
 20
0.0
 30
0.0
 70
   128
 71
    47
 72
    48
 73
    45
  0
VERTEX
  5
141
  8
0
 62
     9
 10
0.0
 20
0.0
 30
0.0
 70
   128
 71
    46
 72
    39
 73
    52
  0
VERTEX
  5
142
  8
0
 62
     9
 10
0.0
 20
0.0
 30
0.0
 70
   128
 71
    53
 72
    37
 73
    38
  0
VERTEX
  5
143
  8
0
 62
     9
 10
0.0
 20
0.0
 30
0.0
 70
   128
 71
    52
 72
    39
 73
    37
  0
VERTEX
  5
144
  8
0
 62
     9
 10
0.0
 20
0.0
 30
0.0
 70
   128
 71
    41
 72
    42
 73
    53
  0
VERTEX
  5
145
  8
0
 62
     9
 10
0.0
 20
0.0
 30
0.0
 70
   128
 71
    37
 72
    53
 73
    42
  0
VERTEX
  5
146
  8
0
 62
     9
 10
0.0
 20
0.0
 30
0.0
 70
   128
 71
    40
 72
    54
 73
    42
  0
VERTEX
  5
147
  8
0
 62
     9
 10
0.0
 20
0.0
 30
0.0
 70
   128
 71
    55
 72
    34
 73
    54
  0
VERTEX
  5
148
  8
0
 62
     9
 10
0.0
 20
0.0
 30
0.0
 70
   128
 71
    54
 72
    40
 73
    55
  0
VERTEX
  5
149
  8
0
 62
     9
 10
0.0
 20
0.0
 30
0.0
 70
   128
 71
    36
 72
    34
 73
    56
  0
VERTEX
  5
14A
  8
0
 62
     9
 10
0.0
 20
0.0
 30
0.0
 70
   128
 71
    56
 72
    34
 73
    55
  0
VERTEX
  5
14B
  8
0
 62
     9
 10
0.0
 20
0.0
 30
0.0
 70
   128
 71
    35
 72
    36
 73
    57
  0
VERTEX
  5
14C
  8
0
 62
     9
 10
0.0
 20
0.0
 30
0.0
 70
   128
 71
    58
 72
    33
 73
    35
  0
VERTEX
  5
14D
  8
0
 62
     9
 10
0.0
 20
0.0
 30
0.0
 70
   128
 71
    58
 72
    35
 73
    57
  0
VERTEX
  5
14E
  8
0
 62
     9
 10
0.0
 20
0.0
 30
0.0
 70
   128
 71
    58
 72
    32
 73
    33
  0
VERTEX
  5
14F
  8
0
 62
     9
 10
0.0
 20
0.0
 30
0.0
 70
   128
 71
    32
 72
    13
 73
    11
  0
SEQEND
  5
150
  8
0
 62
     9
  0
ENDBLK
  5
153
  8
0
  0
BLOCK
  8
0
  2
40
 70
     0
 10
0.0
 20
0.0
 30
0.0
  3
40
  1

  0
POLYLINE
  5
155
  8
0
 62
     9
 66
     1
 10
0.0
 20
0.0
 30
0.0
 70
    64
 71
    64
 72
   124
  0
VERTEX
  5
156
  8
0
 10
10.0
 20
-52.5
 30
8.999999046325684
 70
   192
  0
VERTEX
  5
157
  8
0
 10
10.0
 20
-52.5
 30
44.0
 70
   192
  0
VERTEX
  5
158
  8
0
 10
0.0000000000000053
 20
-52.5
 30
44.0
 70
   192
  0
VERTEX
  5
159
  8
0
 10
0.0000000000000018
 20
-52.5
 30
8.999999046325684
 70
   192
  0
VERTEX
  5
15A
  8
0
 10
0.0000000000000225
 20
5.467249870300293
 30
96.2125473022461
 70
   192
  0
VERTEX
  5
15B
  8
0
 10
0.0000000000000209
 20
-5.520103931427002
 30
96.20613861083984
 70
   192
  0
VERTEX
  5
15C
  8
0
 10
10.0
 20
5.520103931427002
 30
96.20613861083984
 70
   192
  0
VERTEX
  5
15D
  8
0
 10
10.0
 20
16.23401069641113
 30
93.92737579345703
 70
   192
  0
VERTEX
  5
15E
  8
0
 10
0.0000000000000237
 20
16.19788360595703
 30
93.93765258789062
 70
   192
  0
VERTEX
  5
15F
  8
0
 10
0.0000000000000246
 20
26.22517585754395
 30
89.47576904296875
 70
   192
  0
VERTEX
  5
160
  8
0
 10
10.0
 20
26.2729320526123
 30
89.45064544677734
 70
   192
  0
VERTEX
  5
161
  8
0
 10
10.0
 20
35.14353942871094
 30
83.00140380859375
 70
   192
  0
VERTEX
  5
162
  8
0
 10
0.000000000000025
 20
35.11739349365234
 30
83.02436065673828
 70
   192
  0
VERTEX
  5
163
  8
0
 10
10.0
 20
42.47328567504883
 30
74.85951232910156
 70
   192
  0
VERTEX
  5
164
  8
0
 10
0.000000000000025
 20
42.45449829101562
 30
74.88090515136719
 70
   192
  0
VERTEX
  5
165
  8
0
 10
0.0000000000000246
 20
47.95644760131836
 30
65.35765075683594
 70
   192
  0
VERTEX
  5
166
  8
0
 10
10.0
 20
47.96951293945312
 30
65.33281707763672
 70
   192
  0
VERTEX
  5
167
  8
0
 10
10.0
 20
51.35202026367188
 30
54.91939926147461
 70
   192
  0
VERTEX
  5
168
  8
0
 10
0.0000000000000237
 20
51.3493537902832
 30
54.92876434326172
 70
   192
  0
VERTEX
  5
169
  8
0
 10
10.0
 20
52.5
 30
44.0
 70
   192
  0
VERTEX
  5
16A
  8
0
 10
0.0000000000000199
 20
52.5
 30
44.0
 70
   192
  0
VERTEX
  5
16B
  8
0
 10
10.0
 20
-5.467249870300293
 30
96.2125473022461
 70
   192
  0
VERTEX
  5
16C
  8
0
 10
10.0
 20
-16.19788360595703
 30
93.93765258789062
 70
   192
  0
VERTEX
  5
16D
  8
0
 10
0.000000000000019
 20
-16.23401069641113
 30
93.92737579345703
 70
   192
  0
VERTEX
  5
16E
  8
0
 10
0.000000000000017
 20
-26.2729320526123
 30
89.45064544677734
 70
   192
  0
VERTEX
  5
16F
  8
0
 10
10.0
 20
-26.22517585754395
 30
89.47576904296875
 70
   192
  0
VERTEX
  5
170
  8
0
 10
10.0
 20
-35.11739349365234
 30
83.02436065673828
 70
   192
  0
VERTEX
  5
171
  8
0
 10
0.0000000000000149
 20
-35.14353942871094
 30
83.00140380859375
 70
   192
  0
VERTEX
  5
172
  8
0
 10
0.0000000000000127
 20
-42.47328567504883
 30
74.85951232910156
 70
   192
  0
VERTEX
  5
173
  8
0
 10
10.0
 20
-42.45449829101562
 30
74.88090515136719
 70
   192
  0
VERTEX
  5
174
  8
0
 10
0.0000000000000107
 20
-47.96951293945312
 30
65.33281707763672
 70
   192
  0
VERTEX
  5
175
  8
0
 10
10.0
 20
-47.95644760131836
 30
65.35765075683594
 70
   192
  0
VERTEX
  5
176
  8
0
 10
10.0
 20
-51.3493537902832
 30
54.92876434326172
 70
   192
  0
VERTEX
  5
177
  8
0
 10
0.0000000000000088
 20
-51.35202026367188
 30
54.91939926147461
 70
   192
  0
VERTEX
  5
178
  8
0
 10
10.0
 20
52.5
 30
8.999999046325684
 70
   192
  0
VERTEX
  5
179
  8
0
 10
0.000000000000016
 20
52.5
 30
8.999999046325684
 70
   192
  0
VERTEX
  5
17A
  8
0
 10
0.0000000000000024
 20
-5.467249870300293
 30
-43.21254730224609
 70
   192
  0
VERTEX
  5
17B
  8
0
 10
0.000000000000004
 20
5.520103931427002
 30
-43.20613479614258
 70
   192
  0
VERTEX
  5
17C
  8
0
 10
10.0
 20
-5.520103931427002
 30
-43.20613479614258
 70
   192
  0
VERTEX
  5
17D
  8
0
 10
10.0
 20
-16.23401069641113
 30
-40.92737197875977
 70
   192
  0
VERTEX
  5
17E
  8
0
 10
0.0000000000000012
 20
-16.19788360595703
 30
-40.93765640258789
 70
   192
  0
VERTEX
  5
17F
  8
0
 10
0.0000000000000003
 20
-26.22517585754395
 30
-36.47576904296875
 70
   192
  0
VERTEX
  5
180
  8
0
 10
10.0
 20
-26.2729320526123
 30
-36.45064544677734
 70
   192
  0
VERTEX
  5
181
  8
0
 10
10.0
 20
-35.14353942871094
 30
-30.00140380859375
 70
   192
  0
VERTEX
  5
182
  8
0
 10
-0.0000000000000001
 20
-35.11739349365234
 30
-30.02436256408691
 70
   192
  0
VERTEX
  5
183
  8
0
 10
10.0
 20
-42.47328567504883
 30
-21.8595142364502
 70
   192
  0
VERTEX
  5
184
  8
0
 10
-0.0000000000000001
 20
-42.45449829101562
 30
-21.88090705871582
 70
   192
  0
VERTEX
  5
185
  8
0
 10
0.0000000000000004
 20
-47.95644760131836
 30
-12.3576488494873
 70
   192
  0
VERTEX
  5
186
  8
0
 10
10.0
 20
-47.96951293945312
 30
-12.33281517028809
 70
   192
  0
VERTEX
  5
187
  8
0
 10
10.0
 20
-51.35202026367188
 30
-1.919399380683899
 70
   192
  0
VERTEX
  5
188
  8
0
 10
0.0000000000000012
 20
-51.3493537902832
 30
-1.928765535354614
 70
   192
  0
VERTEX
  5
189
  8
0
 10
10.0
 20
5.467249870300293
 30
-43.21254730224609
 70
   192
  0
VERTEX
  5
18A
  8
0
 10
10.0
 20
16.19788360595703
 30
-40.93765640258789
 70
   192
  0
VERTEX
  5
18B
  8
0
 10
0.0000000000000059
 20
16.23401069641113
 30
-40.92737197875977
 70
   192
  0
VERTEX
  5
18C
  8
0
 10
0.0000000000000079
 20
26.2729320526123
 30
-36.45064544677734
 70
   192
  0
VERTEX
  5
18D
  8
0
 10
10.0
 20
26.22517585754395
 30
-36.47576904296875
 70
   192
  0
VERTEX
  5
18E
  8
0
 10
10.0
 20
35.11739349365234
 30
-30.02436256408691
 70
   192
  0
VERTEX
  5
18F
  8
0
 10
0.0000000000000101
 20
35.14353942871094
 30
-30.00140380859375
 70
   192
  0
VERTEX
  5
190
  8
0
 10
0.0000000000000122
 20
42.47328567504883
 30
-21.8595142364502
 70
   192
  0
VERTEX
  5
191
  8
0
 10
10.0
 20
42.45449829101562
 30
-21.88090705871582
 70
   192
  0
VERTEX
  5
192
  8
0
 10
0.0000000000000143
 20
47.96951293945312
 30
-12.33281517028809
 70
   192
  0
VERTEX
  5
193
  8
0
 10
10.0
 20
47.95644760131836
 30
-12.3576488494873
 70
   192
  0
VERTEX
  5
194
  8
0
 10
10.0
 20
51.3493537902832
 30
-1.928765535354614
 70
   192
  0
VERTEX
  5
195
  8
0
 10
0.0000000000000161
 20
51.35202026367188
 30
-1.919399380683899
 70
   192
  0
VERTEX
  5
196
  8
0
 62
     9
 10
0.0
 20
0.0
 30
0.0
 70
   128
 71
     3
 72
     2
 73
     1
  0
VERTEX
  5
197
  8
0
 62
     9
 10
0.0
 20
0.0
 30
0.0
 70
   128
 71
     4
 72
     3
 73
     1
  0
VERTEX
  5
198
  8
0
 62
     9
 10
0.0
 20
0.0
 30
0.0
 70
   128
 71
     7
 72
     6
 73
     5
  0
VERTEX
  5
199
  8
0
 62
     9
 10
0.0
 20
0.0
 30
0.0
 70
   128
 71
     5
 72
     9
 73
     8
  0
VERTEX
  5
19A
  8
0
 62
     9
 10
0.0
 20
0.0
 30
0.0
 70
   128
 71
     8
 72
     7
 73
     5
  0
VERTEX
  5
19B
  8
0
 62
     9
 10
0.0
 20
0.0
 30
0.0
 70
   128
 71
    11
 72
     8
 73
    10
  0
VERTEX
  5
19C
  8
0
 62
     9
 10
0.0
 20
0.0
 30
0.0
 70
   128
 71
     9
 72
    10
 73
     8
  0
VERTEX
  5
19D
  8
0
 62
     9
 10
0.0
 20
0.0
 30
0.0
 70
   128
 71
    11
 72
    13
 73
    12
  0
VERTEX
  5
19E
  8
0
 62
     9
 10
0.0
 20
0.0
 30
0.0
 70
   128
 71
    13
 72
    11
 73
    10
  0
VERTEX
  5
19F
  8
0
 62
     9
 10
0.0
 20
0.0
 30
0.0
 70
   128
 71
    15
 72
    14
 73
    12
  0
VERTEX
  5
1A0
  8
0
 62
     9
 10
0.0
 20
0.0
 30
0.0
 70
   128
 71
    12
 72
    13
 73
    15
  0
VERTEX
  5
1A1
  8
0
 62
     9
 10
0.0
 20
0.0
 30
0.0
 70
   128
 71
    17
 72
    14
 73
    16
  0
VERTEX
  5
1A2
  8
0
 62
     9
 10
0.0
 20
0.0
 30
0.0
 70
   128
 71
    15
 72
    16
 73
    14
  0
VERTEX
  5
1A3
  8
0
 62
     9
 10
0.0
 20
0.0
 30
0.0
 70
   128
 71
    17
 72
    19
 73
    18
  0
VERTEX
  5
1A4
  8
0
 62
     9
 10
0.0
 20
0.0
 30
0.0
 70
   128
 71
    19
 72
    17
 73
    16
  0
VERTEX
  5
1A5
  8
0
 62
     9
 10
0.0
 20
0.0
 30
0.0
 70
   128
 71
    21
 72
    20
 73
    18
  0
VERTEX
  5
1A6
  8
0
 62
     9
 10
0.0
 20
0.0
 30
0.0
 70
   128
 71
    18
 72
    19
 73
    21
  0
VERTEX
  5
1A7
  8
0
 62
     9
 10
0.0
 20
0.0
 30
0.0
 70
   128
 71
    22
 72
     6
 73
     7
  0
VERTEX
  5
1A8
  8
0
 62
     9
 10
0.0
 20
0.0
 30
0.0
 70
   128
 71
    24
 72
    22
 73
    23
  0
VERTEX
  5
1A9
  8
0
 62
     9
 10
0.0
 20
0.0
 30
0.0
 70
   128
 71
    22
 72
    24
 73
     6
  0
VERTEX
  5
1AA
  8
0
 62
     9
 10
0.0
 20
0.0
 30
0.0
 70
   128
 71
    26
 72
    25
 73
    24
  0
VERTEX
  5
1AB
  8
0
 62
     9
 10
0.0
 20
0.0
 30
0.0
 70
   128
 71
    24
 72
    23
 73
    26
  0
VERTEX
  5
1AC
  8
0
 62
     9
 10
0.0
 20
0.0
 30
0.0
 70
   128
 71
    28
 72
    25
 73
    27
  0
VERTEX
  5
1AD
  8
0
 62
     9
 10
0.0
 20
0.0
 30
0.0
 70
   128
 71
    26
 72
    27
 73
    25
  0
VERTEX
  5
1AE
  8
0
 62
     9
 10
0.0
 20
0.0
 30
0.0
 70
   128
 71
    28
 72
    30
 73
    29
  0
VERTEX
  5
1AF
  8
0
 62
     9
 10
0.0
 20
0.0
 30
0.0
 70
   128
 71
    30
 72
    28
 73
    27
  0
VERTEX
  5
1B0
  8
0
 62
     9
 10
0.0
 20
0.0
 30
0.0
 70
   128
 71
    32
 72
    31
 73
    29
  0
VERTEX
  5
1B1
  8
0
 62
     9
 10
0.0
 20
0.0
 30
0.0
 70
   128
 71
    29
 72
    30
 73
    32
  0
VERTEX
  5
1B2
  8
0
 62
     9
 10
0.0
 20
0.0
 30
0.0
 70
   128
 71
    34
 72
    31
 73
    33
  0
VERTEX
  5
1B3
  8
0
 62
     9
 10
0.0
 20
0.0
 30
0.0
 70
   128
 71
    32
 72
    33
 73
    31
  0
VERTEX
  5
1B4
  8
0
 62
     9
 10
0.0
 20
0.0
 30
0.0
 70
   128
 71
     2
 72
    34
 73
    33
  0
VERTEX
  5
1B5
  8
0
 62
     9
 10
0.0
 20
0.0
 30
0.0
 70
   128
 71
     3
 72
    34
 73
     2
  0
VERTEX
  5
1B6
  8
0
 62
     9
 10
0.0
 20
0.0
 30
0.0
 70
   128
 71
    36
 72
    35
 73
    20
  0
VERTEX
  5
1B7
  8
0
 62
     9
 10
0.0
 20
0.0
 30
0.0
 70
   128
 71
    21
 72
    36
 73
    20
  0
VERTEX
  5
1B8
  8
0
 62
     9
 10
0.0
 20
0.0
 30
0.0
 70
   128
 71
    39
 72
    38
 73
    37
  0
VERTEX
  5
1B9
  8
0
 62
     9
 10
0.0
 20
0.0
 30
0.0
 70
   128
 71
    37
 72
    41
 73
    40
  0
VERTEX
  5
1BA
  8
0
 62
     9
 10
0.0
 20
0.0
 30
0.0
 70
   128
 71
    40
 72
    39
 73
    37
  0
VERTEX
  5
1BB
  8
0
 62
     9
 10
0.0
 20
0.0
 30
0.0
 70
   128
 71
    43
 72
    40
 73
    42
  0
VERTEX
  5
1BC
  8
0
 62
     9
 10
0.0
 20
0.0
 30
0.0
 70
   128
 71
    41
 72
    42
 73
    40
  0
VERTEX
  5
1BD
  8
0
 62
     9
 10
0.0
 20
0.0
 30
0.0
 70
   128
 71
    43
 72
    45
 73
    44
  0
VERTEX
  5
1BE
  8
0
 62
     9
 10
0.0
 20
0.0
 30
0.0
 70
   128
 71
    45
 72
    43
 73
    42
  0
VERTEX
  5
1BF
  8
0
 62
     9
 10
0.0
 20
0.0
 30
0.0
 70
   128
 71
    47
 72
    46
 73
    44
  0
VERTEX
  5
1C0
  8
0
 62
     9
 10
0.0
 20
0.0
 30
0.0
 70
   128
 71
    44
 72
    45
 73
    47
  0
VERTEX
  5
1C1
  8
0
 62
     9
 10
0.0
 20
0.0
 30
0.0
 70
   128
 71
    49
 72
    46
 73
    48
  0
VERTEX
  5
1C2
  8
0
 62
     9
 10
0.0
 20
0.0
 30
0.0
 70
   128
 71
    47
 72
    48
 73
    46
  0
VERTEX
  5
1C3
  8
0
 62
     9
 10
0.0
 20
0.0
 30
0.0
 70
   128
 71
    49
 72
    51
 73
    50
  0
VERTEX
  5
1C4
  8
0
 62
     9
 10
0.0
 20
0.0
 30
0.0
 70
   128
 71
    51
 72
    49
 73
    48
  0
VERTEX
  5
1C5
  8
0
 62
     9
 10
0.0
 20
0.0
 30
0.0
 70
   128
 71
     4
 72
     1
 73
    50
  0
VERTEX
  5
1C6
  8
0
 62
     9
 10
0.0
 20
0.0
 30
0.0
 70
   128
 71
    50
 72
    51
 73
     4
  0
VERTEX
  5
1C7
  8
0
 62
     9
 10
0.0
 20
0.0
 30
0.0
 70
   128
 71
    52
 72
    38
 73
    39
  0
VERTEX
  5
1C8
  8
0
 62
     9
 10
0.0
 20
0.0
 30
0.0
 70
   128
 71
    54
 72
    52
 73
    53
  0
VERTEX
  5
1C9
  8
0
 62
     9
 10
0.0
 20
0.0
 30
0.0
 70
   128
 71
    52
 72
    54
 73
    38
  0
VERTEX
  5
1CA
  8
0
 62
     9
 10
0.0
 20
0.0
 30
0.0
 70
   128
 71
    56
 72
    55
 73
    54
  0
VERTEX
  5
1CB
  8
0
 62
     9
 10
0.0
 20
0.0
 30
0.0
 70
   128
 71
    54
 72
    53
 73
    56
  0
VERTEX
  5
1CC
  8
0
 62
     9
 10
0.0
 20
0.0
 30
0.0
 70
   128
 71
    58
 72
    55
 73
    57
  0
VERTEX
  5
1CD
  8
0
 62
     9
 10
0.0
 20
0.0
 30
0.0
 70
   128
 71
    56
 72
    57
 73
    55
  0
VERTEX
  5
1CE
  8
0
 62
     9
 10
0.0
 20
0.0
 30
0.0
 70
   128
 71
    58
 72
    60
 73
    59
  0
VERTEX
  5
1CF
  8
0
 62
     9
 10
0.0
 20
0.0
 30
0.0
 70
   128
 71
    60
 72
    58
 73
    57
  0
VERTEX
  5
1D0
  8
0
 62
     9
 10
0.0
 20
0.0
 30
0.0
 70
   128
 71
    62
 72
    61
 73
    59
  0
VERTEX
  5
1D1
  8
0
 62
     9
 10
0.0
 20
0.0
 30
0.0
 70
   128
 71
    59
 72
    60
 73
    62
  0
VERTEX
  5
1D2
  8
0
 62
     9
 10
0.0
 20
0.0
 30
0.0
 70
   128
 71
    64
 72
    61
 73
    63
  0
VERTEX
  5
1D3
  8
0
 62
     9
 10
0.0
 20
0.0
 30
0.0
 70
   128
 71
    62
 72
    63
 73
    61
  0
VERTEX
  5
1D4
  8
0
 62
     9
 10
0.0
 20
0.0
 30
0.0
 70
   128
 71
    35
 72
    64
 73
    63
  0
VERTEX
  5
1D5
  8
0
 62
     9
 10
0.0
 20
0.0
 30
0.0
 70
   128
 71
    36
 72
    64
 73
    35
  0
VERTEX
  5
1D6
  8
0
 62
     9
 10
0.0
 20
0.0
 30
0.0
 70
   128
 71
     3
 72
    19
 73
    16
  0
VERTEX
  5
1D7
  8
0
 62
     9
 10
0.0
 20
0.0
 30
0.0
 70
   128
 71
    28
 72
    29
 73
    31
  0
VERTEX
  5
1D8
  8
0
 62
     9
 10
0.0
 20
0.0
 30
0.0
 70
   128
 71
    24
 72
    25
 73
    31
  0
VERTEX
  5
1D9
  8
0
 62
     9
 10
0.0
 20
0.0
 30
0.0
 70
   128
 71
    31
 72
    25
 73
    28
  0
VERTEX
  5
1DA
  8
0
 62
     9
 10
0.0
 20
0.0
 30
0.0
 70
   128
 71
    24
 72
    34
 73
     6
  0
VERTEX
  5
1DB
  8
0
 62
     9
 10
0.0
 20
0.0
 30
0.0
 70
   128
 71
    34
 72
    24
 73
    31
  0
VERTEX
  5
1DC
  8
0
 62
     9
 10
0.0
 20
0.0
 30
0.0
 70
   128
 71
     3
 72
     5
 73
     6
  0
VERTEX
  5
1DD
  8
0
 62
     9
 10
0.0
 20
0.0
 30
0.0
 70
   128
 71
     6
 72
    34
 73
     3
  0
VERTEX
  5
1DE
  8
0
 62
     9
 10
0.0
 20
0.0
 30
0.0
 70
   128
 71
     3
 72
    10
 73
     9
  0
VERTEX
  5
1DF
  8
0
 62
     9
 10
0.0
 20
0.0
 30
0.0
 70
   128
 71
     5
 72
     3
 73
     9
  0
VERTEX
  5
1E0
  8
0
 62
     9
 10
0.0
 20
0.0
 30
0.0
 70
   128
 71
     3
 72
    15
 73
    13
  0
VERTEX
  5
1E1
  8
0
 62
     9
 10
0.0
 20
0.0
 30
0.0
 70
   128
 71
    10
 72
     3
 73
    13
  0
VERTEX
  5
1E2
  8
0
 62
     9
 10
0.0
 20
0.0
 30
0.0
 70
   128
 71
     3
 72
    16
 73
    15
  0
VERTEX
  5
1E3
  8
0
 62
     9
 10
0.0
 20
0.0
 30
0.0
 70
   128
 71
    19
 72
     3
 73
    21
  0
VERTEX
  5
1E4
  8
0
 62
     9
 10
0.0
 20
0.0
 30
0.0
 70
   128
 71
     3
 72
     4
 73
    21
  0
VERTEX
  5
1E5
  8
0
 62
     9
 10
0.0
 20
0.0
 30
0.0
 70
   128
 71
     4
 72
    36
 73
    21
  0
VERTEX
  5
1E6
  8
0
 62
     9
 10
0.0
 20
0.0
 30
0.0
 70
   128
 71
    55
 72
    58
 73
    61
  0
VERTEX
  5
1E7
  8
0
 62
     9
 10
0.0
 20
0.0
 30
0.0
 70
   128
 71
    61
 72
    58
 73
    59
  0
VERTEX
  5
1E8
  8
0
 62
     9
 10
0.0
 20
0.0
 30
0.0
 70
   128
 71
    54
 72
    61
 73
    64
  0
VERTEX
  5
1E9
  8
0
 62
     9
 10
0.0
 20
0.0
 30
0.0
 70
   128
 71
    61
 72
    54
 73
    55
  0
VERTEX
  5
1EA
  8
0
 62
     9
 10
0.0
 20
0.0
 30
0.0
 70
   128
 71
    54
 72
    64
 73
    38
  0
VERTEX
  5
1EB
  8
0
 62
     9
 10
0.0
 20
0.0
 30
0.0
 70
   128
 71
    37
 72
    38
 73
    36
  0
VERTEX
  5
1EC
  8
0
 62
     9
 10
0.0
 20
0.0
 30
0.0
 70
   128
 71
    64
 72
    36
 73
    38
  0
VERTEX
  5
1ED
  8
0
 62
     9
 10
0.0
 20
0.0
 30
0.0
 70
   128
 71
    42
 72
    41
 73
    36
  0
VERTEX
  5
1EE
  8
0
 62
     9
 10
0.0
 20
0.0
 30
0.0
 70
   128
 71
    36
 72
    41
 73
    37
  0
VERTEX
  5
1EF
  8
0
 62
     9
 10
0.0
 20
0.0
 30
0.0
 70
   128
 71
    47
 72
    45
 73
    36
  0
VERTEX
  5
1F0
  8
0
 62
     9
 10
0.0
 20
0.0
 30
0.0
 70
   128
 71
    36
 72
    45
 73
    42
  0
VERTEX
  5
1F1
  8
0
 62
     9
 10
0.0
 20
0.0
 30
0.0
 70
   128
 71
    51
 72
    48
 73
    36
  0
VERTEX
  5
1F2
  8
0
 62
     9
 10
0.0
 20
0.0
 30
0.0
 70
   128
 71
    36
 72
    48
 73
    47
  0
VERTEX
  5
1F3
  8
0
 62
     9
 10
0.0
 20
0.0
 30
0.0
 70
   128
 71
     4
 72
    51
 73
    36
  0
VERTEX
  5
1F4
  8
0
 62
     9
 10
0.0
 20
0.0
 30
0.0
 70
   128
 71
    44
 72
    46
 73
    35
  0
VERTEX
  5
1F5
  8
0
 62
     9
 10
0.0
 20
0.0
 30
0.0
 70
   128
 71
    17
 72
    18
 73
     2
  0
VERTEX
  5
1F6
  8
0
 62
     9
 10
0.0
 20
0.0
 30
0.0
 70
   128
 71
    52
 72
    39
 73
    35
  0
VERTEX
  5
1F7
  8
0
 62
     9
 10
0.0
 20
0.0
 30
0.0
 70
   128
 71
    57
 72
    56
 73
    60
  0
VERTEX
  5
1F8
  8
0
 62
     9
 10
0.0
 20
0.0
 30
0.0
 70
   128
 71
    53
 72
    52
 73
    63
  0
VERTEX
  5
1F9
  8
0
 62
     9
 10
0.0
 20
0.0
 30
0.0
 70
   128
 71
    60
 72
    56
 73
    62
  0
VERTEX
  5
1FA
  8
0
 62
     9
 10
0.0
 20
0.0
 30
0.0
 70
   128
 71
    53
 72
    63
 73
    62
  0
VERTEX
  5
1FB
  8
0
 62
     9
 10
0.0
 20
0.0
 30
0.0
 70
   128
 71
    56
 72
    53
 73
    62
  0
VERTEX
  5
1FC
  8
0
 62
     9
 10
0.0
 20
0.0
 30
0.0
 70
   128
 71
    39
 72
    40
 73
    35
  0
VERTEX
  5
1FD
  8
0
 62
     9
 10
0.0
 20
0.0
 30
0.0
 70
   128
 71
    35
 72
    63
 73
    52
  0
VERTEX
  5
1FE
  8
0
 62
     9
 10
0.0
 20
0.0
 30
0.0
 70
   128
 71
    43
 72
    44
 73
    35
  0
VERTEX
  5
1FF
  8
0
 62
     9
 10
0.0
 20
0.0
 30
0.0
 70
   128
 71
    43
 72
    35
 73
    40
  0
VERTEX
  5
200
  8
0
 62
     9
 10
0.0
 20
0.0
 30
0.0
 70
   128
 71
    35
 72
    46
 73
    49
  0
VERTEX
  5
201
  8
0
 62
     9
 10
0.0
 20
0.0
 30
0.0
 70
   128
 71
     1
 72
    35
 73
    50
  0
VERTEX
  5
202
  8
0
 62
     9
 10
0.0
 20
0.0
 30
0.0
 70
   128
 71
    35
 72
    49
 73
    50
  0
VERTEX
  5
203
  8
0
 62
     9
 10
0.0
 20
0.0
 30
0.0
 70
   128
 71
     1
 72
    20
 73
    35
  0
VERTEX
  5
204
  8
0
 62
     9
 10
0.0
 20
0.0
 30
0.0
 70
   128
 71
    20
 72
     2
 73
    18
  0
VERTEX
  5
205
  8
0
 62
     9
 10
0.0
 20
0.0
 30
0.0
 70
   128
 71
     2
 72
    20
 73
     1
  0
VERTEX
  5
206
  8
0
 62
     9
 10
0.0
 20
0.0
 30
0.0
 70
   128
 71
     2
 72
    14
 73
    17
  0
VERTEX
  5
207
  8
0
 62
     9
 10
0.0
 20
0.0
 30
0.0
 70
   128
 71
    11
 72
    12
 73
     2
  0
VERTEX
  5
208
  8
0
 62
     9
 10
0.0
 20
0.0
 30
0.0
 70
   128
 71
     2
 72
    12
 73
    14
  0
VERTEX
  5
209
  8
0
 62
     9
 10
0.0
 20
0.0
 30
0.0
 70
   128
 71
     7
 72
     8
 73
     2
  0
VERTEX
  5
20A
  8
0
 62
     9
 10
0.0
 20
0.0
 30
0.0
 70
   128
 71
     2
 72
     8
 73
    11
  0
VERTEX
  5
20B
  8
0
 62
     9
 10
0.0
 20
0.0
 30
0.0
 70
   128
 71
     2
 72
    22
 73
     7
  0
VERTEX
  5
20C
  8
0
 62
     9
 10
0.0
 20
0.0
 30
0.0
 70
   128
 71
    26
 72
    23
 73
    32
  0
VERTEX
  5
20D
  8
0
 62
     9
 10
0.0
 20
0.0
 30
0.0
 70
   128
 71
    33
 72
    32
 73
    23
  0
VERTEX
  5
20E
  8
0
 62
     9
 10
0.0
 20
0.0
 30
0.0
 70
   128
 71
    32
 72
    30
 73
    26
  0
VERTEX
  5
20F
  8
0
 62
     9
 10
0.0
 20
0.0
 30
0.0
 70
   128
 71
    30
 72
    27
 73
    26
  0
VERTEX
  5
210
  8
0
 62
     9
 10
0.0
 20
0.0
 30
0.0
 70
   128
 71
    33
 72
    22
 73
     2
  0
VERTEX
  5
211
  8
0
 62
     9
 10
0.0
 20
0.0
 30
0.0
 70
   128
 71
    22
 72
    33
 73
    23
  0
SEQEND
  5
212
  8
0
 62
     9
  0
ENDBLK
  5
215
  8
0
  0
BLOCK
  8
0
  2
41
 70
     0
 10
0.0
 20
0.0
 30
0.0
  3
41
  1

  0
POLYLINE
  5
217
  8
0
 62
     9
 66
     1
 10
0.0
 20
0.0
 30
0.0
 70
    64
 71
   128
 72
   238
  0
VERTEX
  5
218
  8
0
 10
36.58598709106445
 20
5.697412490844727
 30
65.45054626464844
 70
   192
  0
VERTEX
  5
219
  8
0
 10
36.58598709106445
 20
6.0
 30
63.58267211914062
 70
   192
  0
VERTEX
  5
21A
  8
0
 10
36.94729232788086
 20
0.0000000000000441
 30
63.58267211914062
 70
   192
  0
VERTEX
  5
21B
  8
0
 10
36.58598709106445
 20
4.848673343658447
 30
67.11498260498047
 70
   192
  0
VERTEX
  5
21C
  8
0
 10
36.58598709106445
 20
0.0000000000000449
 30
69.58267211914062
 70
   192
  0
VERTEX
  5
21D
  8
0
 10
36.58598709106445
 20
1.845648765563965
 30
69.25479888916016
 70
   192
  0
VERTEX
  5
21E
  8
0
 10
36.58598709106445
 20
3.510160446166992
 30
68.44618225097656
 70
   192
  0
VERTEX
  5
21F
  8
0
 10
36.58598709106445
 20
-1.846584796905518
 30
69.2880859375
 70
   192
  0
VERTEX
  5
220
  8
0
 10
36.58598709106445
 20
-3.523772239685059
 30
68.44364166259766
 70
   192
  0
VERTEX
  5
221
  8
0
 10
36.58598709106445
 20
-6.0
 30
63.58267211914062
 70
   192
  0
VERTEX
  5
222
  8
0
 10
36.58598709106445
 20
-5.70627498626709
 30
65.43931579589844
 70
   192
  0
VERTEX
  5
223
  8
0
 10
36.58598709106445
 20
-4.854355335235596
 30
67.1111068725586
 70
   192
  0
VERTEX
  5
224
  8
0
 10
36.58598709106445
 20
-5.697412490844727
 30
61.71479797363281
 70
   192
  0
VERTEX
  5
225
  8
0
 10
36.58598709106445
 20
-4.848673343658447
 30
60.05036163330078
 70
   192
  0
VERTEX
  5
226
  8
0
 10
36.58598709106445
 20
0.0000000000000411
 30
57.58267211914062
 70
   192
  0
VERTEX
  5
227
  8
0
 10
36.58598709106445
 20
-1.845648765563965
 30
57.91054534912109
 70
   192
  0
VERTEX
  5
228
  8
0
 10
36.58598709106445
 20
-3.510160446166992
 30
58.71916198730469
 70
   192
  0
VERTEX
  5
229
  8
0
 10
32.9155387878418
 20
-6.0
 30
63.58267211914062
 70
   192
  0
VERTEX
  5
22A
  8
0
 10
32.9155387878418
 20
-5.707188129425049
 30
65.43292999267578
 70
   192
  0
VERTEX
  5
22B
  8
0
 10
32.9155387878418
 20
-4.857375621795654
 30
67.10733795166016
 70
   192
  0
VERTEX
  5
22C
  8
0
 10
32.9155387878418
 20
-3.5301194190979
 30
68.436767578125
 70
   192
  0
VERTEX
  5
22D
  8
0
 10
32.9155387878418
 20
-1.855936408042908
 30
69.26800537109375
 70
   192
  0
VERTEX
  5
22E
  8
0
 10
32.9155387878418
 20
0.0000000000000429
 30
69.58267211914062
 70
   192
  0
VERTEX
  5
22F
  8
0
 10
32.9155387878418
 20
-5.703197002410889
 30
61.72388458251953
 70
   192
  0
VERTEX
  5
230
  8
0
 10
32.9155387878418
 20
-4.8500657081604
 30
60.05445098876953
 70
   192
  0
VERTEX
  5
231
  8
0
 10
32.9155387878418
 20
-3.523025512695312
 30
58.72541427612305
 70
   192
  0
VERTEX
  5
232
  8
0
 10
32.9155387878418
 20
-1.845967531204224
 30
57.90932464599609
 70
   192
  0
VERTEX
  5
233
  8
0
 10
32.9155387878418
 20
0.000000000000041
 30
57.58267211914062
 70
   192
  0
VERTEX
  5
234
  8
0
 10
31.94729232788086
 20
0.0000000000000407
 30
58.33267211914062
 70
   192
  0
VERTEX
  5
235
  8
0
 10
31.94729232788086
 20
-1.478257179260254
 30
58.54194259643555
 70
   192
  0
VERTEX
  5
236
  8
0
 10
32.30316543579102
 20
-1.617434024810791
 30
58.03095245361328
 70
   192
  0
VERTEX
  5
237
  8
0
 10
31.94729232788086
 20
-3.974624395370483
 30
67.0149154663086
 70
   192
  0
VERTEX
  5
238
  8
0
 10
32.30316543579102
 20
-5.123386859893799
 30
66.29460144042969
 70
   192
  0
VERTEX
  5
239
  8
0
 10
31.94729232788086
 20
-4.778756618499756
 30
65.75663757324219
 70
   192
  0
VERTEX
  5
23A
  8
0
 10
31.94729232788086
 20
-5.197080135345459
 30
64.32333374023438
 70
   192
  0
VERTEX
  5
23B
  8
0
 10
32.30316543579102
 20
-3.498600721359253
 30
68.21540069580078
 70
   192
  0
VERTEX
  5
23C
  8
0
 10
31.94729232788086
 20
-2.818959951400757
 30
67.94561767578125
 70
   192
  0
VERTEX
  5
23D
  8
0
 10
32.30316543579102
 20
-1.633226037025452
 30
69.15098571777344
 70
   192
  0
VERTEX
  5
23E
  8
0
 10
31.94729232788086
 20
-1.478114008903503
 30
68.61029052734375
 70
   192
  0
VERTEX
  5
23F
  8
0
 10
32.30316543579102
 20
-5.790569305419922
 30
63.58267211914062
 70
   192
  0
VERTEX
  5
240
  8
0
 10
32.30316543579102
 20
0.0000000000000443
 30
69.37324523925781
 70
   192
  0
VERTEX
  5
241
  8
0
 10
31.94729232788086
 20
0.0000000000000441
 30
68.83267211914062
 70
   192
  0
VERTEX
  5
242
  8
0
 10
31.94729232788086
 20
-4.773574829101562
 30
61.39776611328125
 70
   192
  0
VERTEX
  5
243
  8
0
 10
31.94729232788086
 20
-5.194831371307373
 30
62.83044052124023
 70
   192
  0
VERTEX
  5
244
  8
0
 10
32.30316543579102
 20
-5.086794853210449
 30
60.85295486450195
 70
   192
  0
VERTEX
  5
245
  8
0
 10
31.94729232788086
 20
-3.951813220977783
 30
60.15901947021484
 70
   192
  0
VERTEX
  5
246
  8
0
 10
32.30316543579102
 20
-3.457281827926636
 30
58.95928573608398
 70
   192
  0
VERTEX
  5
247
  8
0
 10
31.94729232788086
 20
-2.825649261474609
 30
59.19046783447266
 70
   192
  0
VERTEX
  5
248
  8
0
 10
32.30316543579102
 20
0.000000000000042
 30
57.7921028137207
 70
   192
  0
VERTEX
  5
249
  8
0
 10
30.97904777526855
 20
3.62928295135498
 30
66.2214584350586
 70
   192
  0
VERTEX
  5
24A
  8
0
 10
30.97904777526855
 20
4.278142929077148
 30
64.97661590576172
 70
   192
  0
VERTEX
  5
24B
  8
0
 10
31.5914192199707
 20
4.509305953979492
 30
64.91471099853516
 70
   192
  0
VERTEX
  5
24C
  8
0
 10
31.94729232788086
 20
4.253208637237549
 30
66.66263580322266
 70
   192
  0
VERTEX
  5
24D
  8
0
 10
31.5914192199707
 20
3.238981962203979
 30
66.9888687133789
 70
   192
  0
VERTEX
  5
24E
  8
0
 10
31.94729232788086
 20
3.077664852142334
 30
67.79280090332031
 70
   192
  0
VERTEX
  5
24F
  8
0
 10
31.5914192199707
 20
1.522329330444336
 30
68.02873229980469
 70
   192
  0
VERTEX
  5
250
  8
0
 10
30.97904777526855
 20
2.631056547164917
 30
67.2029037475586
 70
   192
  0
VERTEX
  5
251
  8
0
 10
31.94729232788086
 20
1.616510629653931
 30
68.55188751220703
 70
   192
  0
VERTEX
  5
252
  8
0
 10
30.97904777526855
 20
1.387977242469788
 30
67.86415100097656
 70
   192
  0
VERTEX
  5
253
  8
0
 10
31.5914192199707
 20
0.0000000000000439
 30
68.29210662841797
 70
   192
  0
VERTEX
  5
254
  8
0
 10
30.97904777526855
 20
0.0000000000000418
 30
68.08267211914062
 70
   192
  0
VERTEX
  5
255
  8
0
 10
30.97904777526855
 20
4.5
 30
63.58267211914062
 70
   192
  0
VERTEX
  5
256
  8
0
 10
31.5914192199707
 20
4.524601936340332
 30
62.28887176513672
 70
   192
  0
VERTEX
  5
257
  8
0
 10
30.97904777526855
 20
4.281084537506104
 30
62.19547271728516
 70
   192
  0
VERTEX
  5
258
  8
0
 10
31.5914192199707
 20
3.255441188812256
 30
60.17275619506836
 70
   192
  0
VERTEX
  5
259
  8
0
 10
31.94729232788086
 20
3.069565773010254
 30
59.35906982421875
 70
   192
  0
VERTEX
  5
25A
  8
0
 10
31.94729232788086
 20
4.234163761138916
 30
60.50408935546875
 70
   192
  0
VERTEX
  5
25B
  8
0
 10
30.97904777526855
 20
3.645607471466064
 30
60.94270706176758
 70
   192
  0
VERTEX
  5
25C
  8
0
 10
31.94729232788086
 20
1.619306802749634
 30
58.58761978149414
 70
   192
  0
VERTEX
  5
25D
  8
0
 10
31.5914192199707
 20
1.539104580879211
 30
59.11898422241211
 70
   192
  0
VERTEX
  5
25E
  8
0
 10
31.5914192199707
 20
0.0000000000000409
 30
58.87324142456055
 70
   192
  0
VERTEX
  5
25F
  8
0
 10
30.97904777526855
 20
2.637998342514038
 30
59.97399520874023
 70
   192
  0
VERTEX
  5
260
  8
0
 10
30.97904777526855
 20
1.385580539703369
 30
59.32334518432617
 70
   192
  0
VERTEX
  5
261
  8
0
 10
30.97904777526855
 20
0.000000000000042
 30
59.08267211914062
 70
   192
  0
VERTEX
  5
262
  8
0
 10
31.94729232788086
 20
4.994598388671875
 30
65.2010726928711
 70
   192
  0
VERTEX
  5
263
  8
0
 10
31.94729232788086
 20
5.25
 30
63.58267211914062
 70
   192
  0
VERTEX
  5
264
  8
0
 10
31.94729232788086
 20
4.991167068481445
 30
61.95640563964844
 70
   192
  0
VERTEX
  5
265
  8
0
 10
30.97904777526855
 20
-4.432160377502441
 30
62.80673980712891
 70
   192
  0
VERTEX
  5
266
  8
0
 10
14.94729328155518
 20
-4.5
 30
63.58267211914062
 70
   192
  0
VERTEX
  5
267
  8
0
 10
30.97904777526855
 20
-4.430241584777832
 30
64.36748504638672
 70
   192
  0
VERTEX
  5
268
  8
0
 10
14.94729328155518
 20
-4.155579090118408
 30
65.3092269897461
 70
   192
  0
VERTEX
  5
269
  8
0
 10
30.97904777526855
 20
-3.895965337753296
 30
65.8302001953125
 70
   192
  0
VERTEX
  5
26A
  8
0
 10
30.97904777526855
 20
-2.876898765563965
 30
67.0108642578125
 70
   192
  0
VERTEX
  5
26B
  8
0
 10
14.94729328155518
 20
-3.169213533401489
 30
66.7469711303711
 70
   192
  0
VERTEX
  5
26C
  8
0
 10
14.94729328155518
 20
-1.715006589889526
 30
67.7365951538086
 70
   192
  0
VERTEX
  5
26D
  8
0
 10
30.97904777526855
 20
-1.534309506416321
 30
67.8110580444336
 70
   192
  0
VERTEX
  5
26E
  8
0
 10
14.94729328155518
 20
0.0000000000000405
 30
68.08267211914062
 70
   192
  0
VERTEX
  5
26F
  8
0
 10
14.94729328155518
 20
-4.159930229187012
 30
61.8664665222168
 70
   192
  0
VERTEX
  5
270
  8
0
 10
14.94729328155518
 20
-3.18617844581604
 30
60.4015998840332
 70
   192
  0
VERTEX
  5
271
  8
0
 10
30.97904777526855
 20
-3.898962736129761
 30
61.33393859863281
 70
   192
  0
VERTEX
  5
272
  8
0
 10
30.97904777526855
 20
-2.892792224884033
 30
60.15183639526367
 70
   192
  0
VERTEX
  5
273
  8
0
 10
14.94729328155518
 20
-1.706203699111938
 30
59.47002029418945
 70
   192
  0
VERTEX
  5
274
  8
0
 10
30.97904777526855
 20
-1.529093265533447
 30
59.38690185546875
 70
   192
  0
VERTEX
  5
275
  8
0
 10
14.94729328155518
 20
0.000000000000039
 30
59.08267211914062
 70
   192
  0
VERTEX
  5
276
  8
0
 10
14.94729328155518
 20
4.159930229187012
 30
65.29888153076172
 70
   192
  0
VERTEX
  5
277
  8
0
 10
14.94729328155518
 20
1.706203699111938
 30
67.69532775878906
 70
   192
  0
VERTEX
  5
278
  8
0
 10
14.94729328155518
 20
3.18617844581604
 30
66.76374816894531
 70
   192
  0
VERTEX
  5
279
  8
0
 10
14.94729328155518
 20
4.155579090118408
 30
61.85611724853516
 70
   192
  0
VERTEX
  5
27A
  8
0
 10
14.94729328155518
 20
4.5
 30
63.58267211914062
 70
   192
  0
VERTEX
  5
27B
  8
0
 10
14.94729328155518
 20
1.715006589889526
 30
59.42875289916992
 70
   192
  0
VERTEX
  5
27C
  8
0
 10
14.94729328155518
 20
3.169213533401489
 30
60.41836929321289
 70
   192
  0
VERTEX
  5
27D
  8
0
 10
31.5914192199707
 20
-3.238981962203979
 30
60.17647552490234
 70
   192
  0
VERTEX
  5
27E
  8
0
 10
31.5914192199707
 20
-3.255441188812256
 30
66.99259185791016
 70
   192
  0
VERTEX
  5
27F
  8
0
 10
31.5914192199707
 20
-4.524601936340332
 30
64.87647247314453
 70
   192
  0
VERTEX
  5
280
  8
0
 10
31.5914192199707
 20
-1.539104580879211
 30
68.0463638305664
 70
   192
  0
VERTEX
  5
281
  8
0
 10
31.5914192199707
 20
-1.522329330444336
 30
59.13661575317383
 70
   192
  0
VERTEX
  5
282
  8
0
 10
31.5914192199707
 20
-4.509305953979492
 30
62.25063323974609
 70
   192
  0
VERTEX
  5
283
  8
0
 10
32.30316543579102
 20
3.457281827926636
 30
68.20606231689453
 70
   192
  0
VERTEX
  5
284
  8
0
 10
32.30316543579102
 20
1.617434024810791
 30
69.13439178466797
 70
   192
  0
VERTEX
  5
285
  8
0
 10
32.9155387878418
 20
4.537746906280518
 30
67.511474609375
 70
   192
  0
VERTEX
  5
286
  8
0
 10
32.30316543579102
 20
5.086794853210449
 30
66.31239318847656
 70
   192
  0
VERTEX
  5
287
  8
0
 10
32.9155387878418
 20
3.24860405921936
 30
68.62873840332031
 70
   192
  0
VERTEX
  5
288
  8
0
 10
32.9155387878418
 20
1.690907716751099
 30
69.31304168701172
 70
   192
  0
VERTEX
  5
289
  8
0
 10
32.30316543579102
 20
5.790569305419922
 30
63.58267211914062
 70
   192
  0
VERTEX
  5
28A
  8
0
 10
32.9155387878418
 20
3.239864587783813
 30
58.5303840637207
 70
   192
  0
VERTEX
  5
28B
  8
0
 10
32.9155387878418
 20
4.529663562774658
 30
59.65187072753906
 70
   192
  0
VERTEX
  5
28C
  8
0
 10
32.30316543579102
 20
3.498600721359253
 30
58.94994735717773
 70
   192
  0
VERTEX
  5
28D
  8
0
 10
32.30316543579102
 20
5.123386859893799
 30
60.87074279785156
 70
   192
  0
VERTEX
  5
28E
  8
0
 10
32.9155387878418
 20
5.455313682556152
 30
61.08868026733398
 70
   192
  0
VERTEX
  5
28F
  8
0
 10
32.30316543579102
 20
1.633226037025452
 30
58.01435470581055
 70
   192
  0
VERTEX
  5
290
  8
0
 10
32.9155387878418
 20
1.682733297348022
 30
57.86207580566406
 70
   192
  0
VERTEX
  5
291
  8
0
 10
32.9155387878418
 20
5.938967227935791
 30
64.43225860595703
 70
   192
  0
VERTEX
  5
292
  8
0
 10
32.9155387878418
 20
5.937814712524414
 30
62.72474670410156
 70
   192
  0
VERTEX
  5
293
  8
0
 10
32.9155387878418
 20
5.458967208862305
 30
66.07347869873047
 70
   192
  0
VERTEX
  5
294
  8
0
 10
36.58598709106445
 20
4.854355335235596
 30
60.05424118041992
 70
   192
  0
VERTEX
  5
295
  8
0
 10
36.58598709106445
 20
5.70627498626709
 30
61.72602844238281
 70
   192
  0
VERTEX
  5
296
  8
0
 10
36.58598709106445
 20
1.846584796905518
 30
57.87726211547852
 70
   192
  0
VERTEX
  5
297
  8
0
 10
36.58598709106445
 20
3.523772239685059
 30
58.72170257568359
 70
   192
  0
VERTEX
  5
298
  8
0
 62
     9
 10
0.0
 20
0.0
 30
0.0
 70
   128
 71
     3
 72
     2
 73
     1
  0
VERTEX
  5
299
  8
0
 62
     9
 10
0.0
 20
0.0
 30
0.0
 70
   128
 71
     3
 72
     1
 73
     4
  0
VERTEX
  5
29A
  8
0
 62
     9
 10
0.0
 20
0.0
 30
0.0
 70
   128
 71
     6
 72
     5
 73
     3
  0
VERTEX
  5
29B
  8
0
 62
     9
 10
0.0
 20
0.0
 30
0.0
 70
   128
 71
     7
 72
     6
 73
     3
  0
VERTEX
  5
29C
  8
0
 62
     9
 10
0.0
 20
0.0
 30
0.0
 70
   128
 71
     4
 72
     7
 73
     3
  0
VERTEX
  5
29D
  8
0
 62
     9
 10
0.0
 20
0.0
 30
0.0
 70
   128
 71
     3
 72
     5
 73
     8
  0
VERTEX
  5
29E
  8
0
 62
     9
 10
0.0
 20
0.0
 30
0.0
 70
   128
 71
     3
 72
     8
 73
     9
  0
VERTEX
  5
29F
  8
0
 62
     9
 10
0.0
 20
0.0
 30
0.0
 70
   128
 71
    11
 72
    10
 73
     3
  0
VERTEX
  5
2A0
  8
0
 62
     9
 10
0.0
 20
0.0
 30
0.0
 70
   128
 71
    12
 72
    11
 73
     3
  0
VERTEX
  5
2A1
  8
0
 62
     9
 10
0.0
 20
0.0
 30
0.0
 70
   128
 71
     9
 72
    12
 73
     3
  0
VERTEX
  5
2A2
  8
0
 62
     9
 10
0.0
 20
0.0
 30
0.0
 70
   128
 71
     3
 72
    10
 73
    13
  0
VERTEX
  5
2A3
  8
0
 62
     9
 10
0.0
 20
0.0
 30
0.0
 70
   128
 71
     3
 72
    13
 73
    14
  0
VERTEX
  5
2A4
  8
0
 62
     9
 10
0.0
 20
0.0
 30
0.0
 70
   128
 71
    16
 72
    15
 73
     3
  0
VERTEX
  5
2A5
  8
0
 62
     9
 10
0.0
 20
0.0
 30
0.0
 70
   128
 71
    17
 72
    16
 73
     3
  0
VERTEX
  5
2A6
  8
0
 62
     9
 10
0.0
 20
0.0
 30
0.0
 70
   128
 71
    14
 72
    17
 73
     3
  0
VERTEX
  5
2A7
  8
0
 62
     9
 10
0.0
 20
0.0
 30
0.0
 70
   128
 71
    19
 72
    18
 73
    10
  0
VERTEX
  5
2A8
  8
0
 62
     9
 10
0.0
 20
0.0
 30
0.0
 70
   128
 71
    11
 72
    20
 73
    19
  0
VERTEX
  5
2A9
  8
0
 62
     9
 10
0.0
 20
0.0
 30
0.0
 70
   128
 71
    19
 72
    10
 73
    11
  0
VERTEX
  5
2AA
  8
0
 62
     9
 10
0.0
 20
0.0
 30
0.0
 70
   128
 71
    12
 72
    20
 73
    11
  0
VERTEX
  5
2AB
  8
0
 62
     9
 10
0.0
 20
0.0
 30
0.0
 70
   128
 71
    21
 72
    12
 73
     9
  0
VERTEX
  5
2AC
  8
0
 62
     9
 10
0.0
 20
0.0
 30
0.0
 70
   128
 71
    12
 72
    21
 73
    20
  0
VERTEX
  5
2AD
  8
0
 62
     9
 10
0.0
 20
0.0
 30
0.0
 70
   128
 71
     8
 72
    22
 73
     9
  0
VERTEX
  5
2AE
  8
0
 62
     9
 10
0.0
 20
0.0
 30
0.0
 70
   128
 71
    21
 72
     9
 73
    22
  0
VERTEX
  5
2AF
  8
0
 62
     9
 10
0.0
 20
0.0
 30
0.0
 70
   128
 71
    22
 72
     8
 73
     5
  0
VERTEX
  5
2B0
  8
0
 62
     9
 10
0.0
 20
0.0
 30
0.0
 70
   128
 71
    23
 72
    22
 73
     5
  0
VERTEX
  5
2B1
  8
0
 62
     9
 10
0.0
 20
0.0
 30
0.0
 70
   128
 71
    10
 72
    18
 73
    24
  0
VERTEX
  5
2B2
  8
0
 62
     9
 10
0.0
 20
0.0
 30
0.0
 70
   128
 71
    24
 72
    25
 73
    13
  0
VERTEX
  5
2B3
  8
0
 62
     9
 10
0.0
 20
0.0
 30
0.0
 70
   128
 71
    13
 72
    10
 73
    24
  0
VERTEX
  5
2B4
  8
0
 62
     9
 10
0.0
 20
0.0
 30
0.0
 70
   128
 71
    14
 72
    25
 73
    26
  0
VERTEX
  5
2B5
  8
0
 62
     9
 10
0.0
 20
0.0
 30
0.0
 70
   128
 71
    25
 72
    14
 73
    13
  0
VERTEX
  5
2B6
  8
0
 62
     9
 10
0.0
 20
0.0
 30
0.0
 70
   128
 71
    27
 72
    17
 73
    26
  0
VERTEX
  5
2B7
  8
0
 62
     9
 10
0.0
 20
0.0
 30
0.0
 70
   128
 71
    14
 72
    26
 73
    17
  0
VERTEX
  5
2B8
  8
0
 62
     9
 10
0.0
 20
0.0
 30
0.0
 70
   128
 71
    27
 72
    28
 73
    16
  0
VERTEX
  5
2B9
  8
0
 62
     9
 10
0.0
 20
0.0
 30
0.0
 70
   128
 71
    16
 72
    17
 73
    27
  0
VERTEX
  5
2BA
  8
0
 62
     9
 10
0.0
 20
0.0
 30
0.0
 70
   128
 71
    28
 72
    15
 73
    16
  0
VERTEX
  5
2BB
  8
0
 62
     9
 10
0.0
 20
0.0
 30
0.0
 70
   128
 71
    31
 72
    30
 73
    29
  0
VERTEX
  5
2BC
  8
0
 62
     9
 10
0.0
 20
0.0
 30
0.0
 70
   128
 71
    34
 72
    33
 73
    32
  0
VERTEX
  5
2BD
  8
0
 62
     9
 10
0.0
 20
0.0
 30
0.0
 70
   128
 71
    35
 72
    33
 73
    34
  0
VERTEX
  5
2BE
  8
0
 62
     9
 10
0.0
 20
0.0
 30
0.0
 70
   128
 71
    37
 72
    32
 73
    36
  0
VERTEX
  5
2BF
  8
0
 62
     9
 10
0.0
 20
0.0
 30
0.0
 70
   128
 71
    38
 72
    37
 73
    36
  0
VERTEX
  5
2C0
  8
0
 62
     9
 10
0.0
 20
0.0
 30
0.0
 70
   128
 71
    32
 72
    33
 73
    36
  0
VERTEX
  5
2C1
  8
0
 62
     9
 10
0.0
 20
0.0
 30
0.0
 70
   128
 71
    39
 72
    37
 73
    38
  0
VERTEX
  5
2C2
  8
0
 62
     9
 10
0.0
 20
0.0
 30
0.0
 70
   128
 71
    38
 72
    22
 73
    23
  0
VERTEX
  5
2C3
  8
0
 62
     9
 10
0.0
 20
0.0
 30
0.0
 70
   128
 71
    33
 72
    35
 73
    40
  0
VERTEX
  5
2C4
  8
0
 62
     9
 10
0.0
 20
0.0
 30
0.0
 70
   128
 71
    41
 72
    38
 73
    23
  0
VERTEX
  5
2C5
  8
0
 62
     9
 10
0.0
 20
0.0
 30
0.0
 70
   128
 71
    33
 72
    19
 73
    20
  0
VERTEX
  5
2C6
  8
0
 62
     9
 10
0.0
 20
0.0
 30
0.0
 70
   128
 71
    41
 72
    42
 73
    39
  0
VERTEX
  5
2C7
  8
0
 62
     9
 10
0.0
 20
0.0
 30
0.0
 70
   128
 71
    44
 72
    43
 73
    40
  0
VERTEX
  5
2C8
  8
0
 62
     9
 10
0.0
 20
0.0
 30
0.0
 70
   128
 71
    45
 72
    40
 73
    43
  0
VERTEX
  5
2C9
  8
0
 62
     9
 10
0.0
 20
0.0
 30
0.0
 70
   128
 71
    45
 72
    24
 73
    40
  0
VERTEX
  5
2CA
  8
0
 62
     9
 10
0.0
 20
0.0
 30
0.0
 70
   128
 71
    45
 72
    43
 73
    46
  0
VERTEX
  5
2CB
  8
0
 62
     9
 10
0.0
 20
0.0
 30
0.0
 70
   128
 71
    45
 72
    46
 73
    47
  0
VERTEX
  5
2CC
  8
0
 62
     9
 10
0.0
 20
0.0
 30
0.0
 70
   128
 71
    48
 72
    30
 73
    47
  0
VERTEX
  5
2CD
  8
0
 62
     9
 10
0.0
 20
0.0
 30
0.0
 70
   128
 71
    48
 72
    47
 73
    46
  0
VERTEX
  5
2CE
  8
0
 62
     9
 10
0.0
 20
0.0
 30
0.0
 70
   128
 71
    47
 72
    31
 73
    26
  0
VERTEX
  5
2CF
  8
0
 62
     9
 10
0.0
 20
0.0
 30
0.0
 70
   128
 71
    30
 72
    31
 73
    47
  0
VERTEX
  5
2D0
  8
0
 62
     9
 10
0.0
 20
0.0
 30
0.0
 70
   128
 71
    31
 72
    29
 73
    49
  0
VERTEX
  5
2D1
  8
0
 62
     9
 10
0.0
 20
0.0
 30
0.0
 70
   128
 71
    27
 72
    49
 73
    28
  0
VERTEX
  5
2D2
  8
0
 62
     9
 10
0.0
 20
0.0
 30
0.0
 70
   128
 71
    27
 72
    31
 73
    49
  0
VERTEX
  5
2D3
  8
0
 62
     9
 10
0.0
 20
0.0
 30
0.0
 70
   128
 71
    31
 72
    27
 73
    26
  0
VERTEX
  5
2D4
  8
0
 62
     9
 10
0.0
 20
0.0
 30
0.0
 70
   128
 71
    25
 72
    47
 73
    26
  0
VERTEX
  5
2D5
  8
0
 62
     9
 10
0.0
 20
0.0
 30
0.0
 70
   128
 71
    24
 72
    45
 73
    25
  0
VERTEX
  5
2D6
  8
0
 62
     9
 10
0.0
 20
0.0
 30
0.0
 70
   128
 71
    45
 72
    47
 73
    25
  0
VERTEX
  5
2D7
  8
0
 62
     9
 10
0.0
 20
0.0
 30
0.0
 70
   128
 71
    18
 72
    40
 73
    24
  0
VERTEX
  5
2D8
  8
0
 62
     9
 10
0.0
 20
0.0
 30
0.0
 70
   128
 71
    40
 72
    18
 73
    19
  0
VERTEX
  5
2D9
  8
0
 62
     9
 10
0.0
 20
0.0
 30
0.0
 70
   128
 71
    44
 72
    40
 73
    35
  0
VERTEX
  5
2DA
  8
0
 62
     9
 10
0.0
 20
0.0
 30
0.0
 70
   128
 71
    33
 72
    40
 73
    19
  0
VERTEX
  5
2DB
  8
0
 62
     9
 10
0.0
 20
0.0
 30
0.0
 70
   128
 71
    21
 72
    36
 73
    20
  0
VERTEX
  5
2DC
  8
0
 62
     9
 10
0.0
 20
0.0
 30
0.0
 70
   128
 71
    36
 72
    33
 73
    20
  0
VERTEX
  5
2DD
  8
0
 62
     9
 10
0.0
 20
0.0
 30
0.0
 70
   128
 71
    36
 72
    21
 73
    22
  0
VERTEX
  5
2DE
  8
0
 62
     9
 10
0.0
 20
0.0
 30
0.0
 70
   128
 71
    38
 72
    36
 73
    22
  0
VERTEX
  5
2DF
  8
0
 62
     9
 10
0.0
 20
0.0
 30
0.0
 70
   128
 71
    39
 72
    38
 73
    41
  0
VERTEX
  5
2E0
  8
0
 62
     9
 10
0.0
 20
0.0
 30
0.0
 70
   128
 71
    52
 72
    51
 73
    50
  0
VERTEX
  5
2E1
  8
0
 62
     9
 10
0.0
 20
0.0
 30
0.0
 70
   128
 71
    52
 72
    54
 73
    53
  0
VERTEX
  5
2E2
  8
0
 62
     9
 10
0.0
 20
0.0
 30
0.0
 70
   128
 71
    52
 72
    50
 73
    54
  0
VERTEX
  5
2E3
  8
0
 62
     9
 10
0.0
 20
0.0
 30
0.0
 70
   128
 71
    54
 72
    56
 73
    55
  0
VERTEX
  5
2E4
  8
0
 62
     9
 10
0.0
 20
0.0
 30
0.0
 70
   128
 71
    57
 72
    54
 73
    50
  0
VERTEX
  5
2E5
  8
0
 62
     9
 10
0.0
 20
0.0
 30
0.0
 70
   128
 71
    58
 72
    55
 73
    56
  0
VERTEX
  5
2E6
  8
0
 62
     9
 10
0.0
 20
0.0
 30
0.0
 70
   128
 71
    57
 72
    59
 73
    56
  0
VERTEX
  5
2E7
  8
0
 62
     9
 10
0.0
 20
0.0
 30
0.0
 70
   128
 71
    58
 72
    56
 73
    60
  0
VERTEX
  5
2E8
  8
0
 62
     9
 10
0.0
 20
0.0
 30
0.0
 70
   128
 71
    58
 72
    60
 73
    42
  0
VERTEX
  5
2E9
  8
0
 62
     9
 10
0.0
 20
0.0
 30
0.0
 70
   128
 71
    56
 72
    61
 73
    60
  0
VERTEX
  5
2EA
  8
0
 62
     9
 10
0.0
 20
0.0
 30
0.0
 70
   128
 71
    62
 72
    51
 73
    52
  0
VERTEX
  5
2EB
  8
0
 62
     9
 10
0.0
 20
0.0
 30
0.0
 70
   128
 71
    64
 72
    62
 73
    63
  0
VERTEX
  5
2EC
  8
0
 62
     9
 10
0.0
 20
0.0
 30
0.0
 70
   128
 71
    67
 72
    66
 73
    65
  0
VERTEX
  5
2ED
  8
0
 62
     9
 10
0.0
 20
0.0
 30
0.0
 70
   128
 71
    52
 72
    63
 73
    62
  0
VERTEX
  5
2EE
  8
0
 62
     9
 10
0.0
 20
0.0
 30
0.0
 70
   128
 71
    65
 72
    63
 73
    67
  0
VERTEX
  5
2EF
  8
0
 62
     9
 10
0.0
 20
0.0
 30
0.0
 70
   128
 71
    68
 72
    64
 73
    63
  0
VERTEX
  5
2F0
  8
0
 62
     9
 10
0.0
 20
0.0
 30
0.0
 70
   128
 71
    29
 72
    70
 73
    69
  0
VERTEX
  5
2F1
  8
0
 62
     9
 10
0.0
 20
0.0
 30
0.0
 70
   128
 71
    63
 72
    65
 73
    68
  0
VERTEX
  5
2F2
  8
0
 62
     9
 10
0.0
 20
0.0
 30
0.0
 70
   128
 71
    71
 72
    70
 73
    29
  0
VERTEX
  5
2F3
  8
0
 62
     9
 10
0.0
 20
0.0
 30
0.0
 70
   128
 71
    65
 72
    70
 73
    72
  0
VERTEX
  5
2F4
  8
0
 62
     9
 10
0.0
 20
0.0
 30
0.0
 70
   128
 71
    71
 72
    74
 73
    73
  0
VERTEX
  5
2F5
  8
0
 62
     9
 10
0.0
 20
0.0
 30
0.0
 70
   128
 71
    73
 72
    70
 73
    71
  0
VERTEX
  5
2F6
  8
0
 62
     9
 10
0.0
 20
0.0
 30
0.0
 70
   128
 71
    53
 72
    54
 73
    55
  0
VERTEX
  5
2F7
  8
0
 62
     9
 10
0.0
 20
0.0
 30
0.0
 70
   128
 71
    59
 72
    61
 73
    56
  0
VERTEX
  5
2F8
  8
0
 62
     9
 10
0.0
 20
0.0
 30
0.0
 70
   128
 71
    75
 72
    52
 73
    53
  0
VERTEX
  5
2F9
  8
0
 62
     9
 10
0.0
 20
0.0
 30
0.0
 70
   128
 71
    56
 72
    54
 73
    57
  0
VERTEX
  5
2FA
  8
0
 62
     9
 10
0.0
 20
0.0
 30
0.0
 70
   128
 71
    76
 72
    52
 73
    75
  0
VERTEX
  5
2FB
  8
0
 62
     9
 10
0.0
 20
0.0
 30
0.0
 70
   128
 71
    77
 72
    63
 73
    76
  0
VERTEX
  5
2FC
  8
0
 62
     9
 10
0.0
 20
0.0
 30
0.0
 70
   128
 71
    63
 72
    52
 73
    76
  0
VERTEX
  5
2FD
  8
0
 62
     9
 10
0.0
 20
0.0
 30
0.0
 70
   128
 71
    63
 72
    77
 73
    67
  0
VERTEX
  5
2FE
  8
0
 62
     9
 10
0.0
 20
0.0
 30
0.0
 70
   128
 71
    66
 72
    69
 73
    70
  0
VERTEX
  5
2FF
  8
0
 62
     9
 10
0.0
 20
0.0
 30
0.0
 70
   128
 71
    68
 72
    65
 73
    72
  0
VERTEX
  5
300
  8
0
 62
     9
 10
0.0
 20
0.0
 30
0.0
 70
   128
 71
    70
 72
    65
 73
    66
  0
VERTEX
  5
301
  8
0
 62
     9
 10
0.0
 20
0.0
 30
0.0
 70
   128
 71
    70
 72
    73
 73
    72
  0
VERTEX
  5
302
  8
0
 62
     9
 10
0.0
 20
0.0
 30
0.0
 70
   128
 71
    80
 72
    79
 73
    78
  0
VERTEX
  5
303
  8
0
 62
     9
 10
0.0
 20
0.0
 30
0.0
 70
   128
 71
    80
 72
    82
 73
    81
  0
VERTEX
  5
304
  8
0
 62
     9
 10
0.0
 20
0.0
 30
0.0
 70
   128
 71
    81
 72
    79
 73
    80
  0
VERTEX
  5
305
  8
0
 62
     9
 10
0.0
 20
0.0
 30
0.0
 70
   128
 71
    84
 72
    82
 73
    83
  0
VERTEX
  5
306
  8
0
 62
     9
 10
0.0
 20
0.0
 30
0.0
 70
   128
 71
    82
 72
    84
 73
    81
  0
VERTEX
  5
307
  8
0
 62
     9
 10
0.0
 20
0.0
 30
0.0
 70
   128
 71
    86
 72
    85
 73
    83
  0
VERTEX
  5
308
  8
0
 62
     9
 10
0.0
 20
0.0
 30
0.0
 70
   128
 71
    84
 72
    83
 73
    85
  0
VERTEX
  5
309
  8
0
 62
     9
 10
0.0
 20
0.0
 30
0.0
 70
   128
 71
    87
 72
    85
 73
    86
  0
VERTEX
  5
30A
  8
0
 62
     9
 10
0.0
 20
0.0
 30
0.0
 70
   128
 71
    61
 72
    87
 73
    86
  0
VERTEX
  5
30B
  8
0
 62
     9
 10
0.0
 20
0.0
 30
0.0
 70
   128
 71
    79
 72
    88
 73
    78
  0
VERTEX
  5
30C
  8
0
 62
     9
 10
0.0
 20
0.0
 30
0.0
 70
   128
 71
    90
 72
    88
 73
    89
  0
VERTEX
  5
30D
  8
0
 62
     9
 10
0.0
 20
0.0
 30
0.0
 70
   128
 71
    88
 72
    90
 73
    78
  0
VERTEX
  5
30E
  8
0
 62
     9
 10
0.0
 20
0.0
 30
0.0
 70
   128
 71
    92
 72
    91
 73
    89
  0
VERTEX
  5
30F
  8
0
 62
     9
 10
0.0
 20
0.0
 30
0.0
 70
   128
 71
    90
 72
    89
 73
    91
  0
VERTEX
  5
310
  8
0
 62
     9
 10
0.0
 20
0.0
 30
0.0
 70
   128
 71
    92
 72
    94
 73
    93
  0
VERTEX
  5
311
  8
0
 62
     9
 10
0.0
 20
0.0
 30
0.0
 70
   128
 71
    93
 72
    91
 73
    92
  0
VERTEX
  5
312
  8
0
 62
     9
 10
0.0
 20
0.0
 30
0.0
 70
   128
 71
    94
 72
    74
 73
    93
  0
VERTEX
  5
313
  8
0
 62
     9
 10
0.0
 20
0.0
 30
0.0
 70
   128
 71
    87
 72
    61
 73
    59
  0
VERTEX
  5
314
  8
0
 62
     9
 10
0.0
 20
0.0
 30
0.0
 70
   128
 71
    95
 72
    50
 73
    51
  0
VERTEX
  5
315
  8
0
 62
     9
 10
0.0
 20
0.0
 30
0.0
 70
   128
 71
    97
 72
    96
 73
    57
  0
VERTEX
  5
316
  8
0
 62
     9
 10
0.0
 20
0.0
 30
0.0
 70
   128
 71
    64
 72
    68
 73
    98
  0
VERTEX
  5
317
  8
0
 62
     9
 10
0.0
 20
0.0
 30
0.0
 70
   128
 71
    64
 72
    99
 73
    62
  0
VERTEX
  5
318
  8
0
 62
     9
 10
0.0
 20
0.0
 30
0.0
 70
   128
 71
   101
 72
    72
 73
   100
  0
VERTEX
  5
319
  8
0
 62
     9
 10
0.0
 20
0.0
 30
0.0
 70
   128
 71
    72
 72
   101
 73
    68
  0
VERTEX
  5
31A
  8
0
 62
     9
 10
0.0
 20
0.0
 30
0.0
 70
   128
 71
    94
 72
   100
 73
    73
  0
VERTEX
  5
31B
  8
0
 62
     9
 10
0.0
 20
0.0
 30
0.0
 70
   128
 71
    72
 72
    73
 73
   100
  0
VERTEX
  5
31C
  8
0
 62
     9
 10
0.0
 20
0.0
 30
0.0
 70
   128
 71
    94
 72
    73
 73
    74
  0
VERTEX
  5
31D
  8
0
 62
     9
 10
0.0
 20
0.0
 30
0.0
 70
   128
 71
    64
 72
    98
 73
    99
  0
VERTEX
  5
31E
  8
0
 62
     9
 10
0.0
 20
0.0
 30
0.0
 70
   128
 71
    68
 72
   101
 73
    98
  0
VERTEX
  5
31F
  8
0
 62
     9
 10
0.0
 20
0.0
 30
0.0
 70
   128
 71
    95
 72
    51
 73
    99
  0
VERTEX
  5
320
  8
0
 62
     9
 10
0.0
 20
0.0
 30
0.0
 70
   128
 71
    51
 72
    62
 73
    99
  0
VERTEX
  5
321
  8
0
 62
     9
 10
0.0
 20
0.0
 30
0.0
 70
   128
 71
    97
 72
    57
 73
    50
  0
VERTEX
  5
322
  8
0
 62
     9
 10
0.0
 20
0.0
 30
0.0
 70
   128
 71
    97
 72
    50
 73
    95
  0
VERTEX
  5
323
  8
0
 62
     9
 10
0.0
 20
0.0
 30
0.0
 70
   128
 71
    96
 72
    87
 73
    59
  0
VERTEX
  5
324
  8
0
 62
     9
 10
0.0
 20
0.0
 30
0.0
 70
   128
 71
    96
 72
    59
 73
    57
  0
VERTEX
  5
325
  8
0
 62
     9
 10
0.0
 20
0.0
 30
0.0
 70
   128
 71
    91
 72
   102
 73
    90
  0
VERTEX
  5
326
  8
0
 62
     9
 10
0.0
 20
0.0
 30
0.0
 70
   128
 71
    61
 72
    86
 73
    60
  0
VERTEX
  5
327
  8
0
 62
     9
 10
0.0
 20
0.0
 30
0.0
 70
   128
 71
    83
 72
    82
 73
   103
  0
VERTEX
  5
328
  8
0
 62
     9
 10
0.0
 20
0.0
 30
0.0
 70
   128
 71
    78
 72
   104
 73
    80
  0
VERTEX
  5
329
  8
0
 62
     9
 10
0.0
 20
0.0
 30
0.0
 70
   128
 71
   103
 72
   105
 73
    83
  0
VERTEX
  5
32A
  8
0
 62
     9
 10
0.0
 20
0.0
 30
0.0
 70
   128
 71
    93
 72
   106
 73
   102
  0
VERTEX
  5
32B
  8
0
 62
     9
 10
0.0
 20
0.0
 30
0.0
 70
   128
 71
   107
 72
    90
 73
   102
  0
VERTEX
  5
32C
  8
0
 62
     9
 10
0.0
 20
0.0
 30
0.0
 70
   128
 71
   106
 72
    71
 73
    30
  0
VERTEX
  5
32D
  8
0
 62
     9
 10
0.0
 20
0.0
 30
0.0
 70
   128
 71
    71
 72
    29
 73
    30
  0
VERTEX
  5
32E
  8
0
 62
     9
 10
0.0
 20
0.0
 30
0.0
 70
   128
 71
    48
 72
   106
 73
    30
  0
VERTEX
  5
32F
  8
0
 62
     9
 10
0.0
 20
0.0
 30
0.0
 70
   128
 71
    74
 72
    71
 73
   106
  0
VERTEX
  5
330
  8
0
 62
     9
 10
0.0
 20
0.0
 30
0.0
 70
   128
 71
    44
 72
   107
 73
    43
  0
VERTEX
  5
331
  8
0
 62
     9
 10
0.0
 20
0.0
 30
0.0
 70
   128
 71
    48
 72
   102
 73
   106
  0
VERTEX
  5
332
  8
0
 62
     9
 10
0.0
 20
0.0
 30
0.0
 70
   128
 71
   104
 72
    35
 73
    34
  0
VERTEX
  5
333
  8
0
 62
     9
 10
0.0
 20
0.0
 30
0.0
 70
   128
 71
    78
 72
    90
 73
   107
  0
VERTEX
  5
334
  8
0
 62
     9
 10
0.0
 20
0.0
 30
0.0
 70
   128
 71
    80
 72
   104
 73
    82
  0
VERTEX
  5
335
  8
0
 62
     9
 10
0.0
 20
0.0
 30
0.0
 70
   128
 71
   107
 72
   104
 73
    78
  0
VERTEX
  5
336
  8
0
 62
     9
 10
0.0
 20
0.0
 30
0.0
 70
   128
 71
   103
 72
    82
 73
   104
  0
VERTEX
  5
337
  8
0
 62
     9
 10
0.0
 20
0.0
 30
0.0
 70
   128
 71
    37
 72
   103
 73
    32
  0
VERTEX
  5
338
  8
0
 62
     9
 10
0.0
 20
0.0
 30
0.0
 70
   128
 71
    60
 72
    86
 73
   105
  0
VERTEX
  5
339
  8
0
 62
     9
 10
0.0
 20
0.0
 30
0.0
 70
   128
 71
    83
 72
   105
 73
    86
  0
VERTEX
  5
33A
  8
0
 62
     9
 10
0.0
 20
0.0
 30
0.0
 70
   128
 71
   105
 72
    42
 73
    60
  0
VERTEX
  5
33B
  8
0
 62
     9
 10
0.0
 20
0.0
 30
0.0
 70
   128
 71
    46
 72
   102
 73
    48
  0
VERTEX
  5
33C
  8
0
 62
     9
 10
0.0
 20
0.0
 30
0.0
 70
   128
 71
    93
 72
    74
 73
   106
  0
VERTEX
  5
33D
  8
0
 62
     9
 10
0.0
 20
0.0
 30
0.0
 70
   128
 71
    46
 72
    43
 73
   102
  0
VERTEX
  5
33E
  8
0
 62
     9
 10
0.0
 20
0.0
 30
0.0
 70
   128
 71
   102
 72
    91
 73
    93
  0
VERTEX
  5
33F
  8
0
 62
     9
 10
0.0
 20
0.0
 30
0.0
 70
   128
 71
   107
 72
   102
 73
    43
  0
VERTEX
  5
340
  8
0
 62
     9
 10
0.0
 20
0.0
 30
0.0
 70
   128
 71
   107
 72
    44
 73
    35
  0
VERTEX
  5
341
  8
0
 62
     9
 10
0.0
 20
0.0
 30
0.0
 70
   128
 71
   104
 72
   107
 73
    35
  0
VERTEX
  5
342
  8
0
 62
     9
 10
0.0
 20
0.0
 30
0.0
 70
   128
 71
    34
 72
    32
 73
   104
  0
VERTEX
  5
343
  8
0
 62
     9
 10
0.0
 20
0.0
 30
0.0
 70
   128
 71
   103
 72
   104
 73
    32
  0
VERTEX
  5
344
  8
0
 62
     9
 10
0.0
 20
0.0
 30
0.0
 70
   128
 71
    39
 72
   105
 73
    37
  0
VERTEX
  5
345
  8
0
 62
     9
 10
0.0
 20
0.0
 30
0.0
 70
   128
 71
   105
 72
   103
 73
    37
  0
VERTEX
  5
346
  8
0
 62
     9
 10
0.0
 20
0.0
 30
0.0
 70
   128
 71
    39
 72
    42
 73
   105
  0
VERTEX
  5
347
  8
0
 62
     9
 10
0.0
 20
0.0
 30
0.0
 70
   128
 71
    58
 72
   109
 73
   108
  0
VERTEX
  5
348
  8
0
 62
     9
 10
0.0
 20
0.0
 30
0.0
 70
   128
 71
   111
 72
   108
 73
   110
  0
VERTEX
  5
349
  8
0
 62
     9
 10
0.0
 20
0.0
 30
0.0
 70
   128
 71
   112
 72
   108
 73
   109
  0
VERTEX
  5
34A
  8
0
 62
     9
 10
0.0
 20
0.0
 30
0.0
 70
   128
 71
    23
 72
   113
 73
    41
  0
VERTEX
  5
34B
  8
0
 62
     9
 10
0.0
 20
0.0
 30
0.0
 70
   128
 71
    75
 72
   111
 73
   114
  0
VERTEX
  5
34C
  8
0
 62
     9
 10
0.0
 20
0.0
 30
0.0
 70
   128
 71
   117
 72
   116
 73
   115
  0
VERTEX
  5
34D
  8
0
 62
     9
 10
0.0
 20
0.0
 30
0.0
 70
   128
 71
   114
 72
   119
 73
   118
  0
VERTEX
  5
34E
  8
0
 62
     9
 10
0.0
 20
0.0
 30
0.0
 70
   128
 71
   117
 72
   120
 73
    66
  0
VERTEX
  5
34F
  8
0
 62
     9
 10
0.0
 20
0.0
 30
0.0
 70
   128
 71
   118
 72
   117
 73
    67
  0
VERTEX
  5
350
  8
0
 62
     9
 10
0.0
 20
0.0
 30
0.0
 70
   128
 71
    66
 72
   120
 73
    69
  0
VERTEX
  5
351
  8
0
 62
     9
 10
0.0
 20
0.0
 30
0.0
 70
   128
 71
    69
 72
    49
 73
    29
  0
VERTEX
  5
352
  8
0
 62
     9
 10
0.0
 20
0.0
 30
0.0
 70
   128
 71
   120
 72
    28
 73
    49
  0
VERTEX
  5
353
  8
0
 62
     9
 10
0.0
 20
0.0
 30
0.0
 70
   128
 71
    66
 72
    67
 73
   117
  0
VERTEX
  5
354
  8
0
 62
     9
 10
0.0
 20
0.0
 30
0.0
 70
   128
 71
   117
 72
   121
 73
   120
  0
VERTEX
  5
355
  8
0
 62
     9
 10
0.0
 20
0.0
 30
0.0
 70
   128
 71
    41
 72
   109
 73
    42
  0
VERTEX
  5
356
  8
0
 62
     9
 10
0.0
 20
0.0
 30
0.0
 70
   128
 71
    76
 72
   114
 73
    77
  0
VERTEX
  5
357
  8
0
 62
     9
 10
0.0
 20
0.0
 30
0.0
 70
   128
 71
    77
 72
   114
 73
   118
  0
VERTEX
  5
358
  8
0
 62
     9
 10
0.0
 20
0.0
 30
0.0
 70
   128
 71
   123
 72
   114
 73
   122
  0
VERTEX
  5
359
  8
0
 62
     9
 10
0.0
 20
0.0
 30
0.0
 70
   128
 71
    75
 72
   114
 73
    76
  0
VERTEX
  5
35A
  8
0
 62
     9
 10
0.0
 20
0.0
 30
0.0
 70
   128
 71
   108
 72
    53
 73
    55
  0
VERTEX
  5
35B
  8
0
 62
     9
 10
0.0
 20
0.0
 30
0.0
 70
   128
 71
   108
 72
   111
 73
    53
  0
VERTEX
  5
35C
  8
0
 62
     9
 10
0.0
 20
0.0
 30
0.0
 70
   128
 71
   113
 72
   112
 73
   109
  0
VERTEX
  5
35D
  8
0
 62
     9
 10
0.0
 20
0.0
 30
0.0
 70
   128
 71
   108
 72
    55
 73
    58
  0
VERTEX
  5
35E
  8
0
 62
     9
 10
0.0
 20
0.0
 30
0.0
 70
   128
 71
   109
 72
    58
 73
    42
  0
VERTEX
  5
35F
  8
0
 62
     9
 10
0.0
 20
0.0
 30
0.0
 70
   128
 71
   113
 72
   109
 73
    41
  0
VERTEX
  5
360
  8
0
 62
     9
 10
0.0
 20
0.0
 30
0.0
 70
   128
 71
   110
 72
   108
 73
   112
  0
VERTEX
  5
361
  8
0
 62
     9
 10
0.0
 20
0.0
 30
0.0
 70
   128
 71
   124
 72
   111
 73
   110
  0
VERTEX
  5
362
  8
0
 62
     9
 10
0.0
 20
0.0
 30
0.0
 70
   128
 71
   111
 72
   124
 73
   122
  0
VERTEX
  5
363
  8
0
 62
     9
 10
0.0
 20
0.0
 30
0.0
 70
   128
 71
    53
 72
   111
 73
    75
  0
VERTEX
  5
364
  8
0
 62
     9
 10
0.0
 20
0.0
 30
0.0
 70
   128
 71
   114
 72
   111
 73
   122
  0
VERTEX
  5
365
  8
0
 62
     9
 10
0.0
 20
0.0
 30
0.0
 70
   128
 71
   123
 72
   119
 73
   114
  0
VERTEX
  5
366
  8
0
 62
     9
 10
0.0
 20
0.0
 30
0.0
 70
   128
 71
   118
 72
   119
 73
   116
  0
VERTEX
  5
367
  8
0
 62
     9
 10
0.0
 20
0.0
 30
0.0
 70
   128
 71
    77
 72
   118
 73
    67
  0
VERTEX
  5
368
  8
0
 62
     9
 10
0.0
 20
0.0
 30
0.0
 70
   128
 71
   117
 72
   118
 73
   116
  0
VERTEX
  5
369
  8
0
 62
     9
 10
0.0
 20
0.0
 30
0.0
 70
   128
 71
   117
 72
   115
 73
   121
  0
VERTEX
  5
36A
  8
0
 62
     9
 10
0.0
 20
0.0
 30
0.0
 70
   128
 71
   120
 72
   121
 73
    28
  0
VERTEX
  5
36B
  8
0
 62
     9
 10
0.0
 20
0.0
 30
0.0
 70
   128
 71
    69
 72
   120
 73
    49
  0
VERTEX
  5
36C
  8
0
 62
     9
 10
0.0
 20
0.0
 30
0.0
 70
   128
 71
     5
 72
     6
 73
   113
  0
VERTEX
  5
36D
  8
0
 62
     9
 10
0.0
 20
0.0
 30
0.0
 70
   128
 71
   124
 72
     1
 73
   122
  0
VERTEX
  5
36E
  8
0
 62
     9
 10
0.0
 20
0.0
 30
0.0
 70
   128
 71
   110
 72
   112
 73
     7
  0
VERTEX
  5
36F
  8
0
 62
     9
 10
0.0
 20
0.0
 30
0.0
 70
   128
 71
   125
 72
   116
 73
   119
  0
VERTEX
  5
370
  8
0
 62
     9
 10
0.0
 20
0.0
 30
0.0
 70
   128
 71
   126
 72
   123
 73
     2
  0
VERTEX
  5
371
  8
0
 62
     9
 10
0.0
 20
0.0
 30
0.0
 70
   128
 71
   128
 72
   127
 73
   115
  0
VERTEX
  5
372
  8
0
 62
     9
 10
0.0
 20
0.0
 30
0.0
 70
   128
 71
   115
 72
   116
 73
   128
  0
VERTEX
  5
373
  8
0
 62
     9
 10
0.0
 20
0.0
 30
0.0
 70
   128
 71
   121
 72
   127
 73
    15
  0
VERTEX
  5
374
  8
0
 62
     9
 10
0.0
 20
0.0
 30
0.0
 70
   128
 71
   127
 72
   121
 73
   115
  0
VERTEX
  5
375
  8
0
 62
     9
 10
0.0
 20
0.0
 30
0.0
 70
   128
 71
   121
 72
    15
 73
    28
  0
VERTEX
  5
376
  8
0
 62
     9
 10
0.0
 20
0.0
 30
0.0
 70
   128
 71
   125
 72
   119
 73
   126
  0
VERTEX
  5
377
  8
0
 62
     9
 10
0.0
 20
0.0
 30
0.0
 70
   128
 71
   128
 72
   116
 73
   125
  0
VERTEX
  5
378
  8
0
 62
     9
 10
0.0
 20
0.0
 30
0.0
 70
   128
 71
     2
 72
   123
 73
   122
  0
VERTEX
  5
379
  8
0
 62
     9
 10
0.0
 20
0.0
 30
0.0
 70
   128
 71
   126
 72
   119
 73
   123
  0
VERTEX
  5
37A
  8
0
 62
     9
 10
0.0
 20
0.0
 30
0.0
 70
   128
 71
     4
 72
     1
 73
   124
  0
VERTEX
  5
37B
  8
0
 62
     9
 10
0.0
 20
0.0
 30
0.0
 70
   128
 71
     1
 72
     2
 73
   122
  0
VERTEX
  5
37C
  8
0
 62
     9
 10
0.0
 20
0.0
 30
0.0
 70
   128
 71
     4
 72
   110
 73
     7
  0
VERTEX
  5
37D
  8
0
 62
     9
 10
0.0
 20
0.0
 30
0.0
 70
   128
 71
   110
 72
     4
 73
   124
  0
VERTEX
  5
37E
  8
0
 62
     9
 10
0.0
 20
0.0
 30
0.0
 70
   128
 71
   112
 72
   113
 73
     6
  0
VERTEX
  5
37F
  8
0
 62
     9
 10
0.0
 20
0.0
 30
0.0
 70
   128
 71
   112
 72
     6
 73
     7
  0
VERTEX
  5
380
  8
0
 62
     9
 10
0.0
 20
0.0
 30
0.0
 70
   128
 71
   113
 72
    23
 73
     5
  0
VERTEX
  5
381
  8
0
 62
     9
 10
0.0
 20
0.0
 30
0.0
 70
   128
 71
     3
 72
    15
 73
   127
  0
VERTEX
  5
382
  8
0
 62
     9
 10
0.0
 20
0.0
 30
0.0
 70
   128
 71
     3
 72
   127
 73
   128
  0
VERTEX
  5
383
  8
0
 62
     9
 10
0.0
 20
0.0
 30
0.0
 70
   128
 71
   126
 72
     2
 73
     3
  0
VERTEX
  5
384
  8
0
 62
     9
 10
0.0
 20
0.0
 30
0.0
 70
   128
 71
   125
 72
   126
 73
     3
  0
VERTEX
  5
385
  8
0
 62
     9
 10
0.0
 20
0.0
 30
0.0
 70
   128
 71
   128
 72
   125
 73
     3
  0
SEQEND
  5
386
  8
0
 62
     9
  0
ENDBLK
  5
389
  8
0
  0
BLOCK
  8
0
  2
42
 70
     0
 10
0.0
 20
0.0
 30
0.0
  3
42
  1

  0
POLYLINE
  5
38B
  8
0
 62
     9
 66
     1
 10
0.0
 20
0.0
 30
0.0
 70
    64
 71
    40
 72
    58
  0
VERTEX
  5
38C
  8
0
 10
15.5
 20
-5.999344825744629
 30
63.5885124206543
 70
   192
  0
VERTEX
  5
38D
  8
0
 10
4.802692890167236
 20
-6.0
 30
63.58267211914062
 70
   192
  0
VERTEX
  5
38E
  8
0
 10
4.802692890167236
 20
-5.701979160308838
 30
65.44061279296875
 70
   192
  0
VERTEX
  5
38F
  8
0
 10
4.802692890167236
 20
-4.846929550170898
 30
67.11051177978516
 70
   192
  0
VERTEX
  5
390
  8
0
 10
15.5
 20
-5.704980373382568
 30
65.4405517578125
 70
   192
  0
VERTEX
  5
391
  8
0
 10
4.802692890167236
 20
-3.521035194396973
 30
68.43577575683594
 70
   192
  0
VERTEX
  5
392
  8
0
 10
15.5
 20
-4.850567817687988
 30
67.11400604248047
 70
   192
  0
VERTEX
  5
393
  8
0
 10
15.5
 20
-3.521445274353027
 30
68.44013977050781
 70
   192
  0
VERTEX
  5
394
  8
0
 10
4.802692890167236
 20
-1.848409414291382
 30
69.28692626953125
 70
   192
  0
VERTEX
  5
395
  8
0
 10
4.802692890167236
 20
0.0000000000000402
 30
69.58267211914062
 70
   192
  0
VERTEX
  5
396
  8
0
 10
15.5
 20
-1.848852038383484
 30
69.29071807861328
 70
   192
  0
VERTEX
  5
397
  8
0
 10
15.5
 20
0.0000005910683853
 30
69.58141326904297
 70
   192
  0
VERTEX
  5
398
  8
0
 10
15.5
 20
-5.707585334777832
 30
61.73164367675781
 70
   192
  0
VERTEX
  5
399
  8
0
 10
15.5
 20
-4.855565071105957
 30
60.05813598632812
 70
   192
  0
VERTEX
  5
39A
  8
0
 10
4.802692890167236
 20
-5.707194328308105
 30
61.73119354248047
 70
   192
  0
VERTEX
  5
39B
  8
0
 10
4.802692890167236
 20
-4.856756687164307
 30
60.05437088012695
 70
   192
  0
VERTEX
  5
39C
  8
0
 10
15.5
 20
-3.52952241897583
 30
58.73094177246094
 70
   192
  0
VERTEX
  5
39D
  8
0
 10
15.5
 20
-1.856791853904724
 30
57.87736129760742
 70
   192
  0
VERTEX
  5
39E
  8
0
 10
4.802692890167236
 20
-3.528665542602539
 30
58.72657012939453
 70
   192
  0
VERTEX
  5
39F
  8
0
 10
15.5
 20
0.0000000000000397
 30
57.58267211914062
 70
   192
  0
VERTEX
  5
3A0
  8
0
 10
4.802692890167236
 20
-1.856384992599487
 30
57.87379837036133
 70
   192
  0
VERTEX
  5
3A1
  8
0
 10
4.802692890167236
 20
0.0000000000000383
 30
57.58267211914062
 70
   192
  0
VERTEX
  5
3A2
  8
0
 10
4.802692890167236
 20
1.856384992599487
 30
69.29154968261719
 70
   192
  0
VERTEX
  5
3A3
  8
0
 10
15.5
 20
1.859472632408142
 30
69.28707122802734
 70
   192
  0
VERTEX
  5
3A4
  8
0
 10
4.802692890167236
 20
6.0
 30
63.58267211914062
 70
   192
  0
VERTEX
  5
3A5
  8
0
 10
15.5
 20
5.707535266876221
 30
65.43305206298828
 70
   192
  0
VERTEX
  5
3A6
  8
0
 10
4.802692890167236
 20
5.707194328308105
 30
65.43415069580078
 70
   192
  0
VERTEX
  5
3A7
  8
0
 10
15.5
 20
3.530861854553223
 30
68.43370819091797
 70
   192
  0
VERTEX
  5
3A8
  8
0
 10
4.802692890167236
 20
3.528665542602539
 30
68.43877410888672
 70
   192
  0
VERTEX
  5
3A9
  8
0
 10
4.802692890167236
 20
4.856756687164307
 30
67.11097717285156
 70
   192
  0
VERTEX
  5
3AA
  8
0
 10
4.802692890167236
 20
4.846929550170898
 30
60.05483245849609
 70
   192
  0
VERTEX
  5
3AB
  8
0
 10
15.5
 20
4.852340221405029
 30
60.05377197265625
 70
   192
  0
VERTEX
  5
3AC
  8
0
 10
15.5
 20
5.704585552215576
 30
61.72390365600586
 70
   192
  0
VERTEX
  5
3AD
  8
0
 10
15.5
 20
5.999569416046143
 30
63.57735824584961
 70
   192
  0
VERTEX
  5
3AE
  8
0
 10
4.802692890167236
 20
5.701979160308838
 30
61.7247314453125
 70
   192
  0
VERTEX
  5
3AF
  8
0
 10
4.802692890167236
 20
1.848409414291382
 30
57.87841796875
 70
   192
  0
VERTEX
  5
3B0
  8
0
 10
15.5
 20
3.522856950759888
 30
58.72630310058594
 70
   192
  0
VERTEX
  5
3B1
  8
0
 10
4.802692890167236
 20
3.521035194396973
 30
58.72957229614258
 70
   192
  0
VERTEX
  5
3B2
  8
0
 10
15.5
 20
1.852279663085938
 30
57.8756217956543
 70
   192
  0
VERTEX
  5
3B3
  8
0
 10
15.5
 20
4.858006954193115
 30
67.10298156738281
 70
   192
  0
VERTEX
  5
3B4
  8
0
 62
     9
 10
0.0
 20
0.0
 30
0.0
 70
   128
 71
     3
 72
     2
 73
     1
  0
VERTEX
  5
3B5
  8
0
 62
     9
 10
0.0
 20
0.0
 30
0.0
 70
   128
 71
     5
 72
     4
 73
     3
  0
VERTEX
  5
3B6
  8
0
 62
     9
 10
0.0
 20
0.0
 30
0.0
 70
   128
 71
     3
 72
     1
 73
     5
  0
VERTEX
  5
3B7
  8
0
 62
     9
 10
0.0
 20
0.0
 30
0.0
 70
   128
 71
     4
 72
     7
 73
     6
  0
VERTEX
  5
3B8
  8
0
 62
     9
 10
0.0
 20
0.0
 30
0.0
 70
   128
 71
     7
 72
     4
 73
     5
  0
VERTEX
  5
3B9
  8
0
 62
     9
 10
0.0
 20
0.0
 30
0.0
 70
   128
 71
     9
 72
     6
 73
     8
  0
VERTEX
  5
3BA
  8
0
 62
     9
 10
0.0
 20
0.0
 30
0.0
 70
   128
 71
     7
 72
     8
 73
     6
  0
VERTEX
  5
3BB
  8
0
 62
     9
 10
0.0
 20
0.0
 30
0.0
 70
   128
 71
    11
 72
    10
 73
     9
  0
VERTEX
  5
3BC
  8
0
 62
     9
 10
0.0
 20
0.0
 30
0.0
 70
   128
 71
     9
 72
     8
 73
    11
  0
VERTEX
  5
3BD
  8
0
 62
     9
 10
0.0
 20
0.0
 30
0.0
 70
   128
 71
    12
 72
    10
 73
    11
  0
VERTEX
  5
3BE
  8
0
 62
     9
 10
0.0
 20
0.0
 30
0.0
 70
   128
 71
    13
 72
     1
 73
     2
  0
VERTEX
  5
3BF
  8
0
 62
     9
 10
0.0
 20
0.0
 30
0.0
 70
   128
 71
    13
 72
    15
 73
    14
  0
VERTEX
  5
3C0
  8
0
 62
     9
 10
0.0
 20
0.0
 30
0.0
 70
   128
 71
    15
 72
    13
 73
     2
  0
VERTEX
  5
3C1
  8
0
 62
     9
 10
0.0
 20
0.0
 30
0.0
 70
   128
 71
    17
 72
    14
 73
    16
  0
VERTEX
  5
3C2
  8
0
 62
     9
 10
0.0
 20
0.0
 30
0.0
 70
   128
 71
    15
 72
    16
 73
    14
  0
VERTEX
  5
3C3
  8
0
 62
     9
 10
0.0
 20
0.0
 30
0.0
 70
   128
 71
    19
 72
    18
 73
    17
  0
VERTEX
  5
3C4
  8
0
 62
     9
 10
0.0
 20
0.0
 30
0.0
 70
   128
 71
    17
 72
    16
 73
    19
  0
VERTEX
  5
3C5
  8
0
 62
     9
 10
0.0
 20
0.0
 30
0.0
 70
   128
 71
    18
 72
    21
 73
    20
  0
VERTEX
  5
3C6
  8
0
 62
     9
 10
0.0
 20
0.0
 30
0.0
 70
   128
 71
    21
 72
    18
 73
    19
  0
VERTEX
  5
3C7
  8
0
 62
     9
 10
0.0
 20
0.0
 30
0.0
 70
   128
 71
    21
 72
    22
 73
    20
  0
VERTEX
  5
3C8
  8
0
 62
     9
 10
0.0
 20
0.0
 30
0.0
 70
   128
 71
    12
 72
    24
 73
    23
  0
VERTEX
  5
3C9
  8
0
 62
     9
 10
0.0
 20
0.0
 30
0.0
 70
   128
 71
    27
 72
    26
 73
    25
  0
VERTEX
  5
3CA
  8
0
 62
     9
 10
0.0
 20
0.0
 30
0.0
 70
   128
 71
    30
 72
    29
 73
    28
  0
VERTEX
  5
3CB
  8
0
 62
     9
 10
0.0
 20
0.0
 30
0.0
 70
   128
 71
    33
 72
    32
 73
    31
  0
VERTEX
  5
3CC
  8
0
 62
     9
 10
0.0
 20
0.0
 30
0.0
 70
   128
 71
    33
 72
    35
 73
    34
  0
VERTEX
  5
3CD
  8
0
 62
     9
 10
0.0
 20
0.0
 30
0.0
 70
   128
 71
    38
 72
    37
 73
    36
  0
VERTEX
  5
3CE
  8
0
 62
     9
 10
0.0
 20
0.0
 30
0.0
 70
   128
 71
    37
 72
    38
 73
    32
  0
VERTEX
  5
3CF
  8
0
 62
     9
 10
0.0
 20
0.0
 30
0.0
 70
   128
 71
    22
 72
    36
 73
    39
  0
VERTEX
  5
3D0
  8
0
 62
     9
 10
0.0
 20
0.0
 30
0.0
 70
   128
 71
    37
 72
    39
 73
    36
  0
VERTEX
  5
3D1
  8
0
 62
     9
 10
0.0
 20
0.0
 30
0.0
 70
   128
 71
    22
 72
    39
 73
    20
  0
VERTEX
  5
3D2
  8
0
 62
     9
 10
0.0
 20
0.0
 30
0.0
 70
   128
 71
    33
 72
    31
 73
    35
  0
VERTEX
  5
3D3
  8
0
 62
     9
 10
0.0
 20
0.0
 30
0.0
 70
   128
 71
    32
 72
    38
 73
    31
  0
VERTEX
  5
3D4
  8
0
 62
     9
 10
0.0
 20
0.0
 30
0.0
 70
   128
 71
    26
 72
    34
 73
    25
  0
VERTEX
  5
3D5
  8
0
 62
     9
 10
0.0
 20
0.0
 30
0.0
 70
   128
 71
    34
 72
    35
 73
    25
  0
VERTEX
  5
3D6
  8
0
 62
     9
 10
0.0
 20
0.0
 30
0.0
 70
   128
 71
    30
 72
    40
 73
    27
  0
VERTEX
  5
3D7
  8
0
 62
     9
 10
0.0
 20
0.0
 30
0.0
 70
   128
 71
    40
 72
    26
 73
    27
  0
VERTEX
  5
3D8
  8
0
 62
     9
 10
0.0
 20
0.0
 30
0.0
 70
   128
 71
    29
 72
    24
 73
    28
  0
VERTEX
  5
3D9
  8
0
 62
     9
 10
0.0
 20
0.0
 30
0.0
 70
   128
 71
    30
 72
    28
 73
    40
  0
VERTEX
  5
3DA
  8
0
 62
     9
 10
0.0
 20
0.0
 30
0.0
 70
   128
 71
    23
 72
    10
 73
    12
  0
VERTEX
  5
3DB
  8
0
 62
     9
 10
0.0
 20
0.0
 30
0.0
 70
   128
 71
    29
 72
    23
 73
    24
  0
VERTEX
  5
3DC
  8
0
 62
     9
 10
0.0
 20
0.0
 30
0.0
 70
   128
 71
    33
 72
    12
 73
    11
  0
VERTEX
  5
3DD
  8
0
 62
     9
 10
0.0
 20
0.0
 30
0.0
 70
   128
 71
    37
 72
     7
 73
     5
  0
VERTEX
  5
3DE
  8
0
 62
     9
 10
0.0
 20
0.0
 30
0.0
 70
   128
 71
    40
 72
    24
 73
    26
  0
VERTEX
  5
3DF
  8
0
 62
     9
 10
0.0
 20
0.0
 30
0.0
 70
   128
 71
    24
 72
    12
 73
    26
  0
VERTEX
  5
3E0
  8
0
 62
     9
 10
0.0
 20
0.0
 30
0.0
 70
   128
 71
    24
 72
    40
 73
    28
  0
VERTEX
  5
3E1
  8
0
 62
     9
 10
0.0
 20
0.0
 30
0.0
 70
   128
 71
    12
 72
    33
 73
    34
  0
VERTEX
  5
3E2
  8
0
 62
     9
 10
0.0
 20
0.0
 30
0.0
 70
   128
 71
    26
 72
    12
 73
    34
  0
VERTEX
  5
3E3
  8
0
 62
     9
 10
0.0
 20
0.0
 30
0.0
 70
   128
 71
    11
 72
     8
 73
    33
  0
VERTEX
  5
3E4
  8
0
 62
     9
 10
0.0
 20
0.0
 30
0.0
 70
   128
 71
     8
 72
    32
 73
    33
  0
VERTEX
  5
3E5
  8
0
 62
     9
 10
0.0
 20
0.0
 30
0.0
 70
   128
 71
     7
 72
    37
 73
     8
  0
VERTEX
  5
3E6
  8
0
 62
     9
 10
0.0
 20
0.0
 30
0.0
 70
   128
 71
    32
 72
     8
 73
    37
  0
VERTEX
  5
3E7
  8
0
 62
     9
 10
0.0
 20
0.0
 30
0.0
 70
   128
 71
    37
 72
     5
 73
    39
  0
VERTEX
  5
3E8
  8
0
 62
     9
 10
0.0
 20
0.0
 30
0.0
 70
   128
 71
     1
 72
    20
 73
    39
  0
VERTEX
  5
3E9
  8
0
 62
     9
 10
0.0
 20
0.0
 30
0.0
 70
   128
 71
    39
 72
     5
 73
     1
  0
VERTEX
  5
3EA
  8
0
 62
     9
 10
0.0
 20
0.0
 30
0.0
 70
   128
 71
    13
 72
    18
 73
     1
  0
VERTEX
  5
3EB
  8
0
 62
     9
 10
0.0
 20
0.0
 30
0.0
 70
   128
 71
    17
 72
    18
 73
    13
  0
VERTEX
  5
3EC
  8
0
 62
     9
 10
0.0
 20
0.0
 30
0.0
 70
   128
 71
    14
 72
    17
 73
    13
  0
VERTEX
  5
3ED
  8
0
 62
     9
 10
0.0
 20
0.0
 30
0.0
 70
   128
 71
    20
 72
     1
 73
    18
  0
SEQEND
  5
3EE
  8
0
 62
     9
  0
ENDBLK
  5
3F1
  8
0
  0
BLOCK
  8
0
  2
091015_AUTHENTIC_OHM_A16-1
 70
     0
 10
0.0
 20
0.0
 30
0.0
  3
091015_AUTHENTIC_OHM_A16-1
  1

  0
POLYLINE
  5
3F3
  8
0
 66
     1
 10
0.0
 20
0.0
 30
0.0
 70
    64
 71
   106
 72
   208
  0
VERTEX
  5
3F4
  8
0
 10
65.17916107177734
 20
-11.87374019622803
 30
3.241373538970947
 70
   192
  0
VERTEX
  5
3F5
  8
0
 10
65.18055725097656
 20
-7.022437572479248
 30
-2.165190458297729
 70
   192
  0
VERTEX
  5
3F6
  8
0
 10
65.18182373046875
 20
-0.0017870778683573
 30
9.006627082824707
 70
   192
  0
VERTEX
  5
3F7
  8
0
 10
65.18110656738281
 20
-0.0000238992561208
 30
-4.181193828582764
 70
   192
  0
VERTEX
  5
3F8
  8
0
 10
65.18004608154297
 20
6.145868301391602
 30
-2.665712833404541
 70
   192
  0
VERTEX
  5
3F9
  8
0
 10
65.180908203125
 20
10.90762901306152
 30
1.589643955230713
 70
   192
  0
VERTEX
  5
3FA
  8
0
 10
65.18071746826172
 20
13.12651443481445
 30
7.617404460906982
 70
   192
  0
VERTEX
  5
3FB
  8
0
 10
65.18036651611328
 20
-13.12951183319092
 30
10.39112949371338
 70
   192
  0
VERTEX
  5
3FC
  8
0
 10
58.24863815307617
 20
4.0
 30
-82.47544860839844
 70
   192
  0
VERTEX
  5
3FD
  8
0
 10
61.05570220947266
 20
2.828339576721191
 30
-82.133544921875
 70
   192
  0
VERTEX
  5
3FE
  8
0
 10
58.35858154296875
 20
0.0000000000000128
 30
-83.34949493408203
 70
   192
  0
VERTEX
  5
3FF
  8
0
 10
55.44228363037109
 20
2.830448389053345
 30
-82.81741333007812
 70
   192
  0
VERTEX
  5
400
  8
0
 10
62.21858215332031
 20
-0.0000000000000531
 30
-81.9917984008789
 70
   192
  0
VERTEX
  5
401
  8
0
 10
54.27729415893555
 20
0.0000000000000136
 30
-82.95926666259766
 70
   192
  0
VERTEX
  5
402
  8
0
 10
63.75256729125977
 20
0.0000000000000132
 30
-11.12425327301025
 70
   192
  0
VERTEX
  5
403
  8
0
 10
62.32334899902344
 20
-0.0000000000175597
 30
-18.05969047546387
 70
   192
  0
VERTEX
  5
404
  8
0
 10
62.32334899902344
 20
10.34587669372559
 30
-15.97059535980225
 70
   192
  0
VERTEX
  5
405
  8
0
 10
62.32334899902344
 20
10.34587669372559
 30
33.98371505737305
 70
   192
  0
VERTEX
  5
406
  8
0
 10
62.32334899902344
 20
-0.0000000000000519
 30
36.07281112670898
 70
   192
  0
VERTEX
  5
407
  8
0
 10
63.75256729125977
 20
-0.0000000000000361
 30
29.13738059997559
 70
   192
  0
VERTEX
  5
408
  8
0
 10
64.00869750976562
 20
11.87307357788086
 30
-7.22443675994873
 70
   192
  0
VERTEX
  5
409
  8
0
 10
62.32334899902344
 20
19.13872909545898
 30
-10.13216876983643
 70
   192
  0
VERTEX
  5
40A
  8
0
 10
62.32334899902344
 20
24.9771556854248
 30
-1.339316487312317
 70
   192
  0
VERTEX
  5
40B
  8
0
 10
64.00869750976562
 20
19.15449905395508
 30
2.916506290435791
 70
   192
  0
VERTEX
  5
40C
  8
0
 10
62.32334899902344
 20
27.06624984741211
 30
9.006560325622559
 70
   192
  0
VERTEX
  5
40D
  8
0
 10
64.00869750976562
 20
19.05769538879395
 30
15.40221405029297
 70
   192
  0
VERTEX
  5
40E
  8
0
 10
65.17964935302734
 20
11.87198829650879
 30
14.76666927337646
 70
   192
  0
VERTEX
  5
40F
  8
0
 10
64.00869750976562
 20
11.59492683410645
 30
25.43579483032227
 70
   192
  0
VERTEX
  5
410
  8
0
 10
65.18096160888672
 20
7.021889209747314
 30
20.1746826171875
 70
   192
  0
VERTEX
  5
411
  8
0
 10
62.32334899902344
 20
19.13872909545898
 30
28.14528846740723
 70
   192
  0
VERTEX
  5
412
  8
0
 10
65.18110656738281
 20
0.0000171884312294
 30
22.19402885437012
 70
   192
  0
VERTEX
  5
413
  8
0
 10
62.32334899902344
 20
24.9771556854248
 30
19.35243606567383
 70
   192
  0
VERTEX
  5
414
  8
0
 10
52.07947158813477
 20
-3.447734117507935
 30
-15.67420101165771
 70
   192
  0
VERTEX
  5
415
  8
0
 10
56.16496276855469
 20
-9.463454246520996
 30
-13.83317375183105
 70
   192
  0
VERTEX
  5
416
  8
0
 10
33.04764556884766
 20
-9.631211280822754
 30
-14.83632183074951
 70
   192
  0
VERTEX
  5
417
  8
0
 10
56.16496276855469
 20
-24.75092887878418
 30
9.008865356445312
 70
   192
  0
VERTEX
  5
418
  8
0
 10
33.04764175415039
 20
-25.72922134399414
 30
8.153833389282227
 70
   192
  0
VERTEX
  5
419
  8
0
 10
56.16496276855469
 20
-22.84594535827637
 30
-0.4424340128898621
 70
   192
  0
VERTEX
  5
41A
  8
0
 10
33.04764556884766
 20
0.0000000000000178
 30
-16.73753547668457
 70
   192
  0
VERTEX
  5
41B
  8
0
 10
48.07304382324219
 20
-3.470531225204468
 30
-15.83916664123535
 70
   192
  0
VERTEX
  5
41C
  8
0
 10
46.07756805419922
 20
0.0000000000000158
 30
-16.17786598205566
 70
   192
  0
VERTEX
  5
41D
  8
0
 10
33.04764556884766
 20
-17.88568496704102
 30
-9.503564834594727
 70
   192
  0
VERTEX
  5
41E
  8
0
 10
54.09535980224609
 20
0.0000000000000146
 30
-15.83348178863525
 70
   192
  0
VERTEX
  5
41F
  8
0
 10
56.16496276855469
 20
0.0000000000000143
 30
-15.74458694458008
 70
   192
  0
VERTEX
  5
420
  8
0
 10
56.16496276855469
 20
-17.50862503051758
 30
-8.482586860656738
 70
   192
  0
VERTEX
  5
421
  8
0
 10
33.04764556884766
 20
-23.50045776367188
 30
-1.433284401893616
 70
   192
  0
VERTEX
  5
422
  8
0
 10
56.16496276855469
 20
-22.83733940124512
 30
18.47574996948242
 70
   192
  0
VERTEX
  5
423
  8
0
 10
56.16496276855469
 20
-17.4880428314209
 30
26.51604843139648
 70
   192
  0
VERTEX
  5
424
  8
0
 10
44.01826477050781
 20
-18.02644538879395
 30
26.55123138427734
 70
   192
  0
VERTEX
  5
425
  8
0
 10
39.31077194213867
 20
-23.24787902832031
 30
19.02639007568359
 70
   192
  0
VERTEX
  5
426
  8
0
 10
33.98182678222656
 20
-25.51615905761719
 30
10.50817012786865
 70
   192
  0
VERTEX
  5
427
  8
0
 10
56.16496276855469
 20
0.0000000000000171
 30
33.75770568847656
 70
   192
  0
VERTEX
  5
428
  8
0
 10
48.66510772705078
 20
-0.0001210429618368
 30
33.9791259765625
 70
   192
  0
VERTEX
  5
429
  8
0
 10
47.38643264770508
 20
-9.948283195495605
 30
31.93518829345703
 70
   192
  0
VERTEX
  5
42A
  8
0
 10
56.16496276855469
 20
-9.448688507080078
 30
31.85244560241699
 70
   192
  0
VERTEX
  5
42B
  8
0
 10
33.50844192504883
 20
-25.71449089050293
 30
9.749870300292969
 70
   192
  0
VERTEX
  5
42C
  8
0
 10
59.43169021606445
 20
-23.31375312805176
 30
-0.6282082796096802
 70
   192
  0
VERTEX
  5
42D
  8
0
 10
62.32334899902344
 20
-24.9771556854248
 30
-1.339316487312317
 70
   192
  0
VERTEX
  5
42E
  8
0
 10
59.43169021606445
 20
-25.24491500854492
 30
9.041400909423828
 70
   192
  0
VERTEX
  5
42F
  8
0
 10
62.32334899902344
 20
-10.34587669372559
 30
33.98371505737305
 70
   192
  0
VERTEX
  5
430
  8
0
 10
59.43169021606445
 20
0.0000000000000165
 30
34.26229858398438
 70
   192
  0
VERTEX
  5
431
  8
0
 10
59.43169021606445
 20
-9.623880386352539
 30
32.32534790039062
 70
   192
  0
VERTEX
  5
432
  8
0
 10
59.43169021606445
 20
-17.8711109161377
 30
-8.833755493164062
 70
   192
  0
VERTEX
  5
433
  8
0
 10
62.32334899902344
 20
-19.13872909545898
 30
-10.13216876983643
 70
   192
  0
VERTEX
  5
434
  8
0
 10
59.43169021606445
 20
-0.0000000000109193
 30
-16.24917793273926
 70
   192
  0
VERTEX
  5
435
  8
0
 10
59.43169021606445
 20
-9.689106941223145
 30
-14.28507041931152
 70
   192
  0
VERTEX
  5
436
  8
0
 10
62.32334899902344
 20
-10.34587669372559
 30
-15.97059535980225
 70
   192
  0
VERTEX
  5
437
  8
0
 10
62.32334899902344
 20
-27.06624984741211
 30
9.006560325622559
 70
   192
  0
VERTEX
  5
438
  8
0
 10
59.43169021606445
 20
-23.3016529083252
 30
18.67181396484375
 70
   192
  0
VERTEX
  5
439
  8
0
 10
59.43169021606445
 20
-17.82857704162598
 30
26.87825012207031
 70
   192
  0
VERTEX
  5
43A
  8
0
 10
62.32334899902344
 20
-24.9771556854248
 30
19.35243606567383
 70
   192
  0
VERTEX
  5
43B
  8
0
 10
62.32334899902344
 20
-19.13872909545898
 30
28.14528846740723
 70
   192
  0
VERTEX
  5
43C
  8
0
 10
55.43906021118164
 20
-2.827211618423462
 30
-82.8177261352539
 70
   192
  0
VERTEX
  5
43D
  8
0
 10
58.24774932861328
 20
-4.0
 30
-82.47555541992188
 70
   192
  0
VERTEX
  5
43E
  8
0
 10
61.05726623535156
 20
-2.826752185821533
 30
-82.1332778930664
 70
   192
  0
VERTEX
  5
43F
  8
0
 10
48.07570266723633
 20
3.472023963928223
 30
-15.83884239196777
 70
   192
  0
VERTEX
  5
440
  8
0
 10
52.07654190063477
 20
3.449834585189819
 30
-15.67403984069824
 70
   192
  0
VERTEX
  5
441
  8
0
 10
33.04764556884766
 20
23.5101318359375
 30
-1.410004496574402
 70
   192
  0
VERTEX
  5
442
  8
0
 10
33.04764556884766
 20
17.9082088470459
 30
-9.482718467712402
 70
   192
  0
VERTEX
  5
443
  8
0
 10
33.04764556884766
 20
9.654562950134277
 30
-14.82657146453857
 70
   192
  0
VERTEX
  5
444
  8
0
 10
33.04764556884766
 20
25.72922134399414
 30
8.153833389282227
 70
   192
  0
VERTEX
  5
445
  8
0
 10
59.43169021606445
 20
17.82857704162598
 30
-8.865129470825195
 70
   192
  0
VERTEX
  5
446
  8
0
 10
56.16496276855469
 20
9.460945129394531
 30
-13.83418273925781
 70
   192
  0
VERTEX
  5
447
  8
0
 10
59.43169021606445
 20
9.623880386352539
 30
-14.31222915649414
 70
   192
  0
VERTEX
  5
448
  8
0
 10
59.43169021606445
 20
23.3016529083252
 30
-0.6586936116218567
 70
   192
  0
VERTEX
  5
449
  8
0
 10
59.43169021606445
 20
25.24491500854492
 30
8.971719741821289
 70
   192
  0
VERTEX
  5
44A
  8
0
 10
59.43169021606445
 20
23.31375312805176
 30
18.64132881164551
 70
   192
  0
VERTEX
  5
44B
  8
0
 10
59.43169021606445
 20
17.8711109161377
 30
26.84687614440918
 70
   192
  0
VERTEX
  5
44C
  8
0
 10
59.43169021606445
 20
9.689106941223145
 30
32.29819107055664
 70
   192
  0
VERTEX
  5
44D
  8
0
 10
56.16496276855469
 20
9.460945129394531
 30
31.84730339050293
 70
   192
  0
VERTEX
  5
44E
  8
0
 10
56.16496276855469
 20
24.75114631652832
 30
9.006560325622559
 70
   192
  0
VERTEX
  5
44F
  8
0
 10
56.16496276855469
 20
22.84074211120605
 30
18.46750640869141
 70
   192
  0
VERTEX
  5
450
  8
0
 10
56.16496276855469
 20
17.5017032623291
 30
-8.49514389038086
 70
   192
  0
VERTEX
  5
451
  8
0
 10
56.16496276855469
 20
22.84074211120605
 30
-0.454385370016098
 70
   192
  0
VERTEX
  5
452
  8
0
 10
56.16496276855469
 20
17.5017032623291
 30
26.50826454162598
 70
   192
  0
VERTEX
  5
453
  8
0
 10
33.98182678222656
 20
25.51615715026855
 30
10.5081729888916
 70
   192
  0
VERTEX
  5
454
  8
0
 10
33.50844955444336
 20
25.7144889831543
 30
9.749884605407715
 70
   192
  0
VERTEX
  5
455
  8
0
 10
39.31432342529297
 20
23.24761962890625
 30
19.03206634521484
 70
   192
  0
VERTEX
  5
456
  8
0
 10
44.00032424926758
 20
18.05854034423828
 30
26.52255439758301
 70
   192
  0
VERTEX
  5
457
  8
0
 10
47.37885665893555
 20
9.980889320373535
 30
31.92307281494141
 70
   192
  0
VERTEX
  5
458
  8
0
 10
64.00869750976562
 20
-11.84124088287354
 30
-7.247072219848633
 70
   192
  0
VERTEX
  5
459
  8
0
 10
64.00869750976562
 20
-19.10811424255371
 30
15.24023914337158
 70
   192
  0
VERTEX
  5
45A
  8
0
 10
64.00869750976562
 20
-11.81232261657715
 30
25.28152275085449
 70
   192
  0
VERTEX
  5
45B
  8
0
 10
65.18036651611328
 20
-10.9128532409668
 30
16.42245483398438
 70
   192
  0
VERTEX
  5
45C
  8
0
 10
64.00869750976562
 20
-19.12927055358887
 30
2.826178789138794
 70
   192
  0
VERTEX
  5
45D
  8
0
 10
65.17972564697266
 20
-6.149308204650879
 30
20.67971420288086
 70
   192
  0
VERTEX
  5
45E
  8
0
 62
     9
 10
0.0
 20
0.0
 30
0.0
 70
   128
 71
     3
 72
     2
 73
     1
  0
VERTEX
  5
45F
  8
0
 62
     9
 10
0.0
 20
0.0
 30
0.0
 70
   128
 71
     2
 72
     3
 73
     4
  0
VERTEX
  5
460
  8
0
 62
     9
 10
0.0
 20
0.0
 30
0.0
 70
   128
 71
     4
 72
     3
 73
     5
  0
VERTEX
  5
461
  8
0
 62
     9
 10
0.0
 20
0.0
 30
0.0
 70
   128
 71
     3
 72
     6
 73
     5
  0
VERTEX
  5
462
  8
0
 62
     9
 10
0.0
 20
0.0
 30
0.0
 70
   128
 71
     3
 72
     7
 73
     6
  0
VERTEX
  5
463
  8
0
 62
     9
 10
0.0
 20
0.0
 30
0.0
 70
   128
 71
     8
 72
     3
 73
     1
  0
VERTEX
  5
464
  8
0
 62
     9
 10
0.0
 20
0.0
 30
0.0
 70
   128
 71
    11
 72
    10
 73
     9
  0
VERTEX
  5
465
  8
0
 62
     9
 10
0.0
 20
0.0
 30
0.0
 70
   128
 71
    12
 72
    11
 73
     9
  0
VERTEX
  5
466
  8
0
 62
     9
 10
0.0
 20
0.0
 30
0.0
 70
   128
 71
    11
 72
    13
 73
    10
  0
VERTEX
  5
467
  8
0
 62
     9
 10
0.0
 20
0.0
 30
0.0
 70
   128
 71
    14
 72
    11
 73
    12
  0
VERTEX
  5
468
  8
0
 62
     9
 10
0.0
 20
0.0
 30
0.0
 70
   128
 71
    17
 72
    16
 73
    15
  0
VERTEX
  5
469
  8
0
 62
     9
 10
0.0
 20
0.0
 30
0.0
 70
   128
 71
    20
 72
    19
 73
    18
  0
VERTEX
  5
46A
  8
0
 62
     9
 10
0.0
 20
0.0
 30
0.0
 70
   128
 71
    21
 72
    15
 73
     4
  0
VERTEX
  5
46B
  8
0
 62
     9
 10
0.0
 20
0.0
 30
0.0
 70
   128
 71
    17
 72
    21
 73
    22
  0
VERTEX
  5
46C
  8
0
 62
     9
 10
0.0
 20
0.0
 30
0.0
 70
   128
 71
    22
 72
    21
 73
    23
  0
VERTEX
  5
46D
  8
0
 62
     9
 10
0.0
 20
0.0
 30
0.0
 70
   128
 71
    21
 72
     5
 73
     6
  0
VERTEX
  5
46E
  8
0
 62
     9
 10
0.0
 20
0.0
 30
0.0
 70
   128
 71
    21
 72
    24
 73
    23
  0
VERTEX
  5
46F
  8
0
 62
     9
 10
0.0
 20
0.0
 30
0.0
 70
   128
 71
    25
 72
    23
 73
    24
  0
VERTEX
  5
470
  8
0
 62
     9
 10
0.0
 20
0.0
 30
0.0
 70
   128
 71
     7
 72
    27
 73
    26
  0
VERTEX
  5
471
  8
0
 62
     9
 10
0.0
 20
0.0
 30
0.0
 70
   128
 71
     6
 72
     7
 73
    24
  0
VERTEX
  5
472
  8
0
 62
     9
 10
0.0
 20
0.0
 30
0.0
 70
   128
 71
    27
 72
    29
 73
    28
  0
VERTEX
  5
473
  8
0
 62
     9
 10
0.0
 20
0.0
 30
0.0
 70
   128
 71
    28
 72
    18
 73
    30
  0
VERTEX
  5
474
  8
0
 62
     9
 10
0.0
 20
0.0
 30
0.0
 70
   128
 71
    28
 72
    20
 73
    18
  0
VERTEX
  5
475
  8
0
 62
     9
 10
0.0
 20
0.0
 30
0.0
 70
   128
 71
    29
 72
    31
 73
    20
  0
VERTEX
  5
476
  8
0
 62
     9
 10
0.0
 20
0.0
 30
0.0
 70
   128
 71
    28
 72
    26
 73
    27
  0
VERTEX
  5
477
  8
0
 62
     9
 10
0.0
 20
0.0
 30
0.0
 70
   128
 71
    26
 72
    24
 73
     7
  0
VERTEX
  5
478
  8
0
 62
     9
 10
0.0
 20
0.0
 30
0.0
 70
   128
 71
     5
 72
    21
 73
     4
  0
VERTEX
  5
479
  8
0
 62
     9
 10
0.0
 20
0.0
 30
0.0
 70
   128
 71
    15
 72
    21
 73
    17
  0
VERTEX
  5
47A
  8
0
 62
     9
 10
0.0
 20
0.0
 30
0.0
 70
   128
 71
    26
 72
    32
 73
    25
  0
VERTEX
  5
47B
  8
0
 62
     9
 10
0.0
 20
0.0
 30
0.0
 70
   128
 71
    24
 72
    21
 73
     6
  0
VERTEX
  5
47C
  8
0
 62
     9
 10
0.0
 20
0.0
 30
0.0
 70
   128
 71
    24
 72
    26
 73
    25
  0
VERTEX
  5
47D
  8
0
 62
     9
 10
0.0
 20
0.0
 30
0.0
 70
   128
 71
    32
 72
    26
 73
    30
  0
VERTEX
  5
47E
  8
0
 62
     9
 10
0.0
 20
0.0
 30
0.0
 70
   128
 71
    30
 72
    26
 73
    28
  0
VERTEX
  5
47F
  8
0
 62
     9
 10
0.0
 20
0.0
 30
0.0
 70
   128
 71
    28
 72
    29
 73
    20
  0
VERTEX
  5
480
  8
0
 62
     9
 10
0.0
 20
0.0
 30
0.0
 70
   128
 71
    35
 72
    34
 73
    33
  0
VERTEX
  5
481
  8
0
 62
     9
 10
0.0
 20
0.0
 30
0.0
 70
   128
 71
    38
 72
    37
 73
    36
  0
VERTEX
  5
482
  8
0
 62
     9
 10
0.0
 20
0.0
 30
0.0
 70
   128
 71
    40
 72
    39
 73
    35
  0
VERTEX
  5
483
  8
0
 62
     9
 10
0.0
 20
0.0
 30
0.0
 70
   128
 71
    35
 72
    33
 73
    40
  0
VERTEX
  5
484
  8
0
 62
     9
 10
0.0
 20
0.0
 30
0.0
 70
   128
 71
    40
 72
    41
 73
    39
  0
VERTEX
  5
485
  8
0
 62
     9
 10
0.0
 20
0.0
 30
0.0
 70
   128
 71
    34
 72
    35
 73
    42
  0
VERTEX
  5
486
  8
0
 62
     9
 10
0.0
 20
0.0
 30
0.0
 70
   128
 71
    44
 72
    43
 73
    33
  0
VERTEX
  5
487
  8
0
 62
     9
 10
0.0
 20
0.0
 30
0.0
 70
   128
 71
    34
 72
    42
 73
    45
  0
VERTEX
  5
488
  8
0
 62
     9
 10
0.0
 20
0.0
 30
0.0
 70
   128
 71
    34
 72
    44
 73
    33
  0
VERTEX
  5
489
  8
0
 62
     9
 10
0.0
 20
0.0
 30
0.0
 70
   128
 71
    45
 72
    42
 73
    46
  0
VERTEX
  5
48A
  8
0
 62
     9
 10
0.0
 20
0.0
 30
0.0
 70
   128
 71
    38
 72
    46
 73
    37
  0
VERTEX
  5
48B
  8
0
 62
     9
 10
0.0
 20
0.0
 30
0.0
 70
   128
 71
    46
 72
    38
 73
    45
  0
VERTEX
  5
48C
  8
0
 62
     9
 10
0.0
 20
0.0
 30
0.0
 70
   128
 71
    49
 72
    48
 73
    47
  0
VERTEX
  5
48D
  8
0
 62
     9
 10
0.0
 20
0.0
 30
0.0
 70
   128
 71
    51
 72
    50
 73
    47
  0
VERTEX
  5
48E
  8
0
 62
     9
 10
0.0
 20
0.0
 30
0.0
 70
   128
 71
    54
 72
    53
 73
    52
  0
VERTEX
  5
48F
  8
0
 62
     9
 10
0.0
 20
0.0
 30
0.0
 70
   128
 71
    52
 72
    55
 73
    54
  0
VERTEX
  5
490
  8
0
 62
     9
 10
0.0
 20
0.0
 30
0.0
 70
   128
 71
    37
 72
    56
 73
    36
  0
VERTEX
  5
491
  8
0
 62
     9
 10
0.0
 20
0.0
 30
0.0
 70
   128
 71
    55
 72
    48
 73
    54
  0
VERTEX
  5
492
  8
0
 62
     9
 10
0.0
 20
0.0
 30
0.0
 70
   128
 71
    51
 72
    36
 73
    56
  0
VERTEX
  5
493
  8
0
 62
     9
 10
0.0
 20
0.0
 30
0.0
 70
   128
 71
    50
 72
    49
 73
    47
  0
VERTEX
  5
494
  8
0
 62
     9
 10
0.0
 20
0.0
 30
0.0
 70
   128
 71
    49
 72
    54
 73
    48
  0
VERTEX
  5
495
  8
0
 62
     9
 10
0.0
 20
0.0
 30
0.0
 70
   128
 71
    47
 72
    36
 73
    51
  0
VERTEX
  5
496
  8
0
 62
     9
 10
0.0
 20
0.0
 30
0.0
 70
   128
 71
    59
 72
    58
 73
    57
  0
VERTEX
  5
497
  8
0
 62
     9
 10
0.0
 20
0.0
 30
0.0
 70
   128
 71
    62
 72
    61
 73
    60
  0
VERTEX
  5
498
  8
0
 62
     9
 10
0.0
 20
0.0
 30
0.0
 70
   128
 71
    64
 72
    63
 73
    57
  0
VERTEX
  5
499
  8
0
 62
     9
 10
0.0
 20
0.0
 30
0.0
 70
   128
 71
    57
 72
    58
 73
    64
  0
VERTEX
  5
49A
  8
0
 62
     9
 10
0.0
 20
0.0
 30
0.0
 70
   128
 71
    66
 72
    65
 73
    34
  0
VERTEX
  5
49B
  8
0
 62
     9
 10
0.0
 20
0.0
 30
0.0
 70
   128
 71
    64
 72
    67
 73
    63
  0
VERTEX
  5
49C
  8
0
 62
     9
 10
0.0
 20
0.0
 30
0.0
 70
   128
 71
    66
 72
    16
 73
    65
  0
VERTEX
  5
49D
  8
0
 62
     9
 10
0.0
 20
0.0
 30
0.0
 70
   128
 71
    66
 72
    67
 73
    16
  0
VERTEX
  5
49E
  8
0
 62
     9
 10
0.0
 20
0.0
 30
0.0
 70
   128
 71
    65
 72
    44
 73
    34
  0
VERTEX
  5
49F
  8
0
 62
     9
 10
0.0
 20
0.0
 30
0.0
 70
   128
 71
    69
 72
    68
 73
    59
  0
VERTEX
  5
4A0
  8
0
 62
     9
 10
0.0
 20
0.0
 30
0.0
 70
   128
 71
    58
 72
    59
 73
    68
  0
VERTEX
  5
4A1
  8
0
 62
     9
 10
0.0
 20
0.0
 30
0.0
 70
   128
 71
    71
 72
    69
 73
    70
  0
VERTEX
  5
4A2
  8
0
 62
     9
 10
0.0
 20
0.0
 30
0.0
 70
   128
 71
    69
 72
    71
 73
    68
  0
VERTEX
  5
4A3
  8
0
 62
     9
 10
0.0
 20
0.0
 30
0.0
 70
   128
 71
    70
 72
    62
 73
    72
  0
VERTEX
  5
4A4
  8
0
 62
     9
 10
0.0
 20
0.0
 30
0.0
 70
   128
 71
    72
 72
    71
 73
    70
  0
VERTEX
  5
4A5
  8
0
 62
     9
 10
0.0
 20
0.0
 30
0.0
 70
   128
 71
    62
 72
    55
 73
    52
  0
VERTEX
  5
4A6
  8
0
 62
     9
 10
0.0
 20
0.0
 30
0.0
 70
   128
 71
    72
 72
    62
 73
    60
  0
VERTEX
  5
4A7
  8
0
 62
     9
 10
0.0
 20
0.0
 30
0.0
 70
   128
 71
    61
 72
    19
 73
    60
  0
VERTEX
  5
4A8
  8
0
 62
     9
 10
0.0
 20
0.0
 30
0.0
 70
   128
 71
    61
 72
    62
 73
    52
  0
VERTEX
  5
4A9
  8
0
 62
     9
 10
0.0
 20
0.0
 30
0.0
 70
   128
 71
    70
 72
    48
 73
    55
  0
VERTEX
  5
4AA
  8
0
 62
     9
 10
0.0
 20
0.0
 30
0.0
 70
   128
 71
    62
 72
    70
 73
    55
  0
VERTEX
  5
4AB
  8
0
 62
     9
 10
0.0
 20
0.0
 30
0.0
 70
   128
 71
    69
 72
    47
 73
    48
  0
VERTEX
  5
4AC
  8
0
 62
     9
 10
0.0
 20
0.0
 30
0.0
 70
   128
 71
    70
 72
    69
 73
    48
  0
VERTEX
  5
4AD
  8
0
 62
     9
 10
0.0
 20
0.0
 30
0.0
 70
   128
 71
    59
 72
    36
 73
    47
  0
VERTEX
  5
4AE
  8
0
 62
     9
 10
0.0
 20
0.0
 30
0.0
 70
   128
 71
    69
 72
    59
 73
    47
  0
VERTEX
  5
4AF
  8
0
 62
     9
 10
0.0
 20
0.0
 30
0.0
 70
   128
 71
    57
 72
    38
 73
    36
  0
VERTEX
  5
4B0
  8
0
 62
     9
 10
0.0
 20
0.0
 30
0.0
 70
   128
 71
    59
 72
    57
 73
    36
  0
VERTEX
  5
4B1
  8
0
 62
     9
 10
0.0
 20
0.0
 30
0.0
 70
   128
 71
    63
 72
    45
 73
    38
  0
VERTEX
  5
4B2
  8
0
 62
     9
 10
0.0
 20
0.0
 30
0.0
 70
   128
 71
    57
 72
    63
 73
    38
  0
VERTEX
  5
4B3
  8
0
 62
     9
 10
0.0
 20
0.0
 30
0.0
 70
   128
 71
    66
 72
    34
 73
    45
  0
VERTEX
  5
4B4
  8
0
 62
     9
 10
0.0
 20
0.0
 30
0.0
 70
   128
 71
    63
 72
    66
 73
    45
  0
VERTEX
  5
4B5
  8
0
 62
     9
 10
0.0
 20
0.0
 30
0.0
 70
   128
 71
    66
 72
    63
 73
    67
  0
VERTEX
  5
4B6
  8
0
 62
     9
 10
0.0
 20
0.0
 30
0.0
 70
   128
 71
    14
 72
    41
 73
    73
  0
VERTEX
  5
4B7
  8
0
 62
     9
 10
0.0
 20
0.0
 30
0.0
 70
   128
 71
    40
 72
    73
 73
    41
  0
VERTEX
  5
4B8
  8
0
 62
     9
 10
0.0
 20
0.0
 30
0.0
 70
   128
 71
    74
 72
    73
 73
    40
  0
VERTEX
  5
4B9
  8
0
 62
     9
 10
0.0
 20
0.0
 30
0.0
 70
   128
 71
    40
 72
    33
 73
    74
  0
VERTEX
  5
4BA
  8
0
 62
     9
 10
0.0
 20
0.0
 30
0.0
 70
   128
 71
    75
 72
    33
 73
    43
  0
VERTEX
  5
4BB
  8
0
 62
     9
 10
0.0
 20
0.0
 30
0.0
 70
   128
 71
    33
 72
    75
 73
    74
  0
VERTEX
  5
4BC
  8
0
 62
     9
 10
0.0
 20
0.0
 30
0.0
 70
   128
 71
    13
 72
    75
 73
    43
  0
VERTEX
  5
4BD
  8
0
 62
     9
 10
0.0
 20
0.0
 30
0.0
 70
   128
 71
    76
 72
    41
 73
    12
  0
VERTEX
  5
4BE
  8
0
 62
     9
 10
0.0
 20
0.0
 30
0.0
 70
   128
 71
    10
 72
    13
 73
    43
  0
VERTEX
  5
4BF
  8
0
 62
     9
 10
0.0
 20
0.0
 30
0.0
 70
   128
 71
     9
 72
    10
 73
    77
  0
VERTEX
  5
4C0
  8
0
 62
     9
 10
0.0
 20
0.0
 30
0.0
 70
   128
 71
    10
 72
    43
 73
    77
  0
VERTEX
  5
4C1
  8
0
 62
     9
 10
0.0
 20
0.0
 30
0.0
 70
   128
 71
     9
 72
    76
 73
    12
  0
VERTEX
  5
4C2
  8
0
 62
     9
 10
0.0
 20
0.0
 30
0.0
 70
   128
 71
    76
 72
     9
 73
    77
  0
VERTEX
  5
4C3
  8
0
 62
     9
 10
0.0
 20
0.0
 30
0.0
 70
   128
 71
    14
 72
    12
 73
    41
  0
VERTEX
  5
4C4
  8
0
 62
     9
 10
0.0
 20
0.0
 30
0.0
 70
   128
 71
    79
 72
    78
 73
    37
  0
VERTEX
  5
4C5
  8
0
 62
     9
 10
0.0
 20
0.0
 30
0.0
 70
   128
 71
    37
 72
    80
 73
    79
  0
VERTEX
  5
4C6
  8
0
 62
     9
 10
0.0
 20
0.0
 30
0.0
 70
   128
 71
    78
 72
    81
 73
    37
  0
VERTEX
  5
4C7
  8
0
 62
     9
 10
0.0
 20
0.0
 30
0.0
 70
   128
 71
    80
 72
    35
 73
    39
  0
VERTEX
  5
4C8
  8
0
 62
     9
 10
0.0
 20
0.0
 30
0.0
 70
   128
 71
    42
 72
    35
 73
    46
  0
VERTEX
  5
4C9
  8
0
 62
     9
 10
0.0
 20
0.0
 30
0.0
 70
   128
 71
    80
 72
    46
 73
    35
  0
VERTEX
  5
4CA
  8
0
 62
     9
 10
0.0
 20
0.0
 30
0.0
 70
   128
 71
    80
 72
    37
 73
    46
  0
VERTEX
  5
4CB
  8
0
 62
     9
 10
0.0
 20
0.0
 30
0.0
 70
   128
 71
    22
 72
    23
 73
    82
  0
VERTEX
  5
4CC
  8
0
 62
     9
 10
0.0
 20
0.0
 30
0.0
 70
   128
 71
    44
 72
    84
 73
    83
  0
VERTEX
  5
4CD
  8
0
 62
     9
 10
0.0
 20
0.0
 30
0.0
 70
   128
 71
    86
 72
    85
 73
    25
  0
VERTEX
  5
4CE
  8
0
 62
     9
 10
0.0
 20
0.0
 30
0.0
 70
   128
 71
    22
 72
    82
 73
    84
  0
VERTEX
  5
4CF
  8
0
 62
     9
 10
0.0
 20
0.0
 30
0.0
 70
   128
 71
    88
 72
    87
 73
    30
  0
VERTEX
  5
4D0
  8
0
 62
     9
 10
0.0
 20
0.0
 30
0.0
 70
   128
 71
    32
 72
    87
 73
    86
  0
VERTEX
  5
4D1
  8
0
 62
     9
 10
0.0
 20
0.0
 30
0.0
 70
   128
 71
    89
 72
    18
 73
    19
  0
VERTEX
  5
4D2
  8
0
 62
     9
 10
0.0
 20
0.0
 30
0.0
 70
   128
 71
    61
 72
    89
 73
    19
  0
VERTEX
  5
4D3
  8
0
 62
     9
 10
0.0
 20
0.0
 30
0.0
 70
   128
 71
    90
 72
    61
 73
    52
  0
VERTEX
  5
4D4
  8
0
 62
     9
 10
0.0
 20
0.0
 30
0.0
 70
   128
 71
    89
 72
    61
 73
    90
  0
VERTEX
  5
4D5
  8
0
 62
     9
 10
0.0
 20
0.0
 30
0.0
 70
   128
 71
    86
 72
    87
 73
    91
  0
VERTEX
  5
4D6
  8
0
 62
     9
 10
0.0
 20
0.0
 30
0.0
 70
   128
 71
    92
 72
    87
 73
    88
  0
VERTEX
  5
4D7
  8
0
 62
     9
 10
0.0
 20
0.0
 30
0.0
 70
   128
 71
    25
 72
    85
 73
    23
  0
VERTEX
  5
4D8
  8
0
 62
     9
 10
0.0
 20
0.0
 30
0.0
 70
   128
 71
    32
 72
    86
 73
    25
  0
VERTEX
  5
4D9
  8
0
 62
     9
 10
0.0
 20
0.0
 30
0.0
 70
   128
 71
    82
 72
    93
 73
    83
  0
VERTEX
  5
4DA
  8
0
 62
     9
 10
0.0
 20
0.0
 30
0.0
 70
   128
 71
    85
 72
    82
 73
    23
  0
VERTEX
  5
4DB
  8
0
 62
     9
 10
0.0
 20
0.0
 30
0.0
 70
   128
 71
    17
 72
    65
 73
    16
  0
VERTEX
  5
4DC
  8
0
 62
     9
 10
0.0
 20
0.0
 30
0.0
 70
   128
 71
    84
 72
    44
 73
    65
  0
VERTEX
  5
4DD
  8
0
 62
     9
 10
0.0
 20
0.0
 30
0.0
 70
   128
 71
    84
 72
    17
 73
    22
  0
VERTEX
  5
4DE
  8
0
 62
     9
 10
0.0
 20
0.0
 30
0.0
 70
   128
 71
    17
 72
    84
 73
    65
  0
VERTEX
  5
4DF
  8
0
 62
     9
 10
0.0
 20
0.0
 30
0.0
 70
   128
 71
    94
 72
    93
 73
    85
  0
VERTEX
  5
4E0
  8
0
 62
     9
 10
0.0
 20
0.0
 30
0.0
 70
   128
 71
    84
 72
    82
 73
    83
  0
VERTEX
  5
4E1
  8
0
 62
     9
 10
0.0
 20
0.0
 30
0.0
 70
   128
 71
    82
 72
    85
 73
    93
  0
VERTEX
  5
4E2
  8
0
 62
     9
 10
0.0
 20
0.0
 30
0.0
 70
   128
 71
    86
 72
    91
 73
    94
  0
VERTEX
  5
4E3
  8
0
 62
     9
 10
0.0
 20
0.0
 30
0.0
 70
   128
 71
    85
 72
    86
 73
    94
  0
VERTEX
  5
4E4
  8
0
 62
     9
 10
0.0
 20
0.0
 30
0.0
 70
   128
 71
    87
 72
    92
 73
    91
  0
VERTEX
  5
4E5
  8
0
 62
     9
 10
0.0
 20
0.0
 30
0.0
 70
   128
 71
    95
 72
    92
 73
    88
  0
VERTEX
  5
4E6
  8
0
 62
     9
 10
0.0
 20
0.0
 30
0.0
 70
   128
 71
    87
 72
    32
 73
    30
  0
VERTEX
  5
4E7
  8
0
 62
     9
 10
0.0
 20
0.0
 30
0.0
 70
   128
 71
    90
 72
    95
 73
    89
  0
VERTEX
  5
4E8
  8
0
 62
     9
 10
0.0
 20
0.0
 30
0.0
 70
   128
 71
    88
 72
    30
 73
    18
  0
VERTEX
  5
4E9
  8
0
 62
     9
 10
0.0
 20
0.0
 30
0.0
 70
   128
 71
    88
 72
    89
 73
    95
  0
VERTEX
  5
4EA
  8
0
 62
     9
 10
0.0
 20
0.0
 30
0.0
 70
   128
 71
    89
 72
    88
 73
    18
  0
VERTEX
  5
4EB
  8
0
 62
     9
 10
0.0
 20
0.0
 30
0.0
 70
   128
 71
    39
 72
    41
 73
    76
  0
VERTEX
  5
4EC
  8
0
 62
     9
 10
0.0
 20
0.0
 30
0.0
 70
   128
 71
    83
 72
    80
 73
    76
  0
VERTEX
  5
4ED
  8
0
 62
     9
 10
0.0
 20
0.0
 30
0.0
 70
   128
 71
    81
 72
    94
 73
    91
  0
VERTEX
  5
4EE
  8
0
 62
     9
 10
0.0
 20
0.0
 30
0.0
 70
   128
 71
    79
 72
    93
 73
    78
  0
VERTEX
  5
4EF
  8
0
 62
     9
 10
0.0
 20
0.0
 30
0.0
 70
   128
 71
    97
 72
    91
 73
    96
  0
VERTEX
  5
4F0
  8
0
 62
     9
 10
0.0
 20
0.0
 30
0.0
 70
   128
 71
    91
 72
    92
 73
    96
  0
VERTEX
  5
4F1
  8
0
 62
     9
 10
0.0
 20
0.0
 30
0.0
 70
   128
 71
    92
 72
    99
 73
    98
  0
VERTEX
  5
4F2
  8
0
 62
     9
 10
0.0
 20
0.0
 30
0.0
 70
   128
 71
    99
 72
    95
 73
   100
  0
VERTEX
  5
4F3
  8
0
 62
     9
 10
0.0
 20
0.0
 30
0.0
 70
   128
 71
    96
 72
    92
 73
    98
  0
VERTEX
  5
4F4
  8
0
 62
     9
 10
0.0
 20
0.0
 30
0.0
 70
   128
 71
    90
 72
    52
 73
    53
  0
VERTEX
  5
4F5
  8
0
 62
     9
 10
0.0
 20
0.0
 30
0.0
 70
   128
 71
    53
 72
   100
 73
    90
  0
VERTEX
  5
4F6
  8
0
 62
     9
 10
0.0
 20
0.0
 30
0.0
 70
   128
 71
   100
 72
    95
 73
    90
  0
VERTEX
  5
4F7
  8
0
 62
     9
 10
0.0
 20
0.0
 30
0.0
 70
   128
 71
    92
 72
    95
 73
    99
  0
VERTEX
  5
4F8
  8
0
 62
     9
 10
0.0
 20
0.0
 30
0.0
 70
   128
 71
    94
 72
    81
 73
    78
  0
VERTEX
  5
4F9
  8
0
 62
     9
 10
0.0
 20
0.0
 30
0.0
 70
   128
 71
    91
 72
    97
 73
    81
  0
VERTEX
  5
4FA
  8
0
 62
     9
 10
0.0
 20
0.0
 30
0.0
 70
   128
 71
    93
 72
    79
 73
    83
  0
VERTEX
  5
4FB
  8
0
 62
     9
 10
0.0
 20
0.0
 30
0.0
 70
   128
 71
    94
 72
    78
 73
    93
  0
VERTEX
  5
4FC
  8
0
 62
     9
 10
0.0
 20
0.0
 30
0.0
 70
   128
 71
    77
 72
    43
 73
    44
  0
VERTEX
  5
4FD
  8
0
 62
     9
 10
0.0
 20
0.0
 30
0.0
 70
   128
 71
    79
 72
    80
 73
    83
  0
VERTEX
  5
4FE
  8
0
 62
     9
 10
0.0
 20
0.0
 30
0.0
 70
   128
 71
    44
 72
    83
 73
    77
  0
VERTEX
  5
4FF
  8
0
 62
     9
 10
0.0
 20
0.0
 30
0.0
 70
   128
 71
    76
 72
    77
 73
    83
  0
VERTEX
  5
500
  8
0
 62
     9
 10
0.0
 20
0.0
 30
0.0
 70
   128
 71
    76
 72
    80
 73
    39
  0
VERTEX
  5
501
  8
0
 62
     9
 10
0.0
 20
0.0
 30
0.0
 70
   128
 71
    56
 72
    96
 73
    51
  0
VERTEX
  5
502
  8
0
 62
     9
 10
0.0
 20
0.0
 30
0.0
 70
   128
 71
    99
 72
    49
 73
    50
  0
VERTEX
  5
503
  8
0
 62
     9
 10
0.0
 20
0.0
 30
0.0
 70
   128
 71
   100
 72
    49
 73
    99
  0
VERTEX
  5
504
  8
0
 62
     9
 10
0.0
 20
0.0
 30
0.0
 70
   128
 71
    98
 72
    50
 73
    51
  0
VERTEX
  5
505
  8
0
 62
     9
 10
0.0
 20
0.0
 30
0.0
 70
   128
 71
   100
 72
    53
 73
    54
  0
VERTEX
  5
506
  8
0
 62
     9
 10
0.0
 20
0.0
 30
0.0
 70
   128
 71
    99
 72
    50
 73
    98
  0
VERTEX
  5
507
  8
0
 62
     9
 10
0.0
 20
0.0
 30
0.0
 70
   128
 71
    54
 72
    49
 73
   100
  0
VERTEX
  5
508
  8
0
 62
     9
 10
0.0
 20
0.0
 30
0.0
 70
   128
 71
    98
 72
    51
 73
    96
  0
VERTEX
  5
509
  8
0
 62
     9
 10
0.0
 20
0.0
 30
0.0
 70
   128
 71
    56
 72
    97
 73
    96
  0
VERTEX
  5
50A
  8
0
 62
     9
 10
0.0
 20
0.0
 30
0.0
 70
   128
 71
    37
 72
    81
 73
    56
  0
VERTEX
  5
50B
  8
0
 62
     9
 10
0.0
 20
0.0
 30
0.0
 70
   128
 71
    81
 72
    97
 73
    56
  0
VERTEX
  5
50C
  8
0
 62
     9
 10
0.0
 20
0.0
 30
0.0
 70
   128
 71
    67
 72
    64
 73
   101
  0
VERTEX
  5
50D
  8
0
 62
     9
 10
0.0
 20
0.0
 30
0.0
 70
   128
 71
    71
 72
   103
 73
   102
  0
VERTEX
  5
50E
  8
0
 62
     9
 10
0.0
 20
0.0
 30
0.0
 70
   128
 71
    15
 72
     2
 73
     4
  0
VERTEX
  5
50F
  8
0
 62
     9
 10
0.0
 20
0.0
 30
0.0
 70
   128
 71
   103
 72
   104
 73
   102
  0
VERTEX
  5
510
  8
0
 62
     9
 10
0.0
 20
0.0
 30
0.0
 70
   128
 71
   101
 72
   105
 73
     1
  0
VERTEX
  5
511
  8
0
 62
     9
 10
0.0
 20
0.0
 30
0.0
 70
   128
 71
    20
 72
    60
 73
    19
  0
VERTEX
  5
512
  8
0
 62
     9
 10
0.0
 20
0.0
 30
0.0
 70
   128
 71
   103
 72
    20
 73
    31
  0
VERTEX
  5
513
  8
0
 62
     9
 10
0.0
 20
0.0
 30
0.0
 70
   128
 71
    60
 72
   103
 73
    72
  0
VERTEX
  5
514
  8
0
 62
     9
 10
0.0
 20
0.0
 30
0.0
 70
   128
 71
    72
 72
   103
 73
    71
  0
VERTEX
  5
515
  8
0
 62
     9
 10
0.0
 20
0.0
 30
0.0
 70
   128
 71
   104
 72
   103
 73
   106
  0
VERTEX
  5
516
  8
0
 62
     9
 10
0.0
 20
0.0
 30
0.0
 70
   128
 71
     1
 72
   105
 73
     8
  0
VERTEX
  5
517
  8
0
 62
     9
 10
0.0
 20
0.0
 30
0.0
 70
   128
 71
   104
 72
     8
 73
   102
  0
VERTEX
  5
518
  8
0
 62
     9
 10
0.0
 20
0.0
 30
0.0
 70
   128
 71
   101
 72
    15
 73
    67
  0
VERTEX
  5
519
  8
0
 62
     9
 10
0.0
 20
0.0
 30
0.0
 70
   128
 71
   105
 72
   102
 73
     8
  0
VERTEX
  5
51A
  8
0
 62
     9
 10
0.0
 20
0.0
 30
0.0
 70
   128
 71
    67
 72
    15
 73
    16
  0
VERTEX
  5
51B
  8
0
 62
     9
 10
0.0
 20
0.0
 30
0.0
 70
   128
 71
   101
 72
     1
 73
     2
  0
VERTEX
  5
51C
  8
0
 62
     9
 10
0.0
 20
0.0
 30
0.0
 70
   128
 71
   106
 72
   103
 73
    31
  0
VERTEX
  5
51D
  8
0
 62
     9
 10
0.0
 20
0.0
 30
0.0
 70
   128
 71
    20
 72
   103
 73
    60
  0
VERTEX
  5
51E
  8
0
 62
     9
 10
0.0
 20
0.0
 30
0.0
 70
   128
 71
   102
 72
    68
 73
    71
  0
VERTEX
  5
51F
  8
0
 62
     9
 10
0.0
 20
0.0
 30
0.0
 70
   128
 71
   105
 72
    58
 73
    68
  0
VERTEX
  5
520
  8
0
 62
     9
 10
0.0
 20
0.0
 30
0.0
 70
   128
 71
   102
 72
   105
 73
    68
  0
VERTEX
  5
521
  8
0
 62
     9
 10
0.0
 20
0.0
 30
0.0
 70
   128
 71
    58
 72
   105
 73
    64
  0
VERTEX
  5
522
  8
0
 62
     9
 10
0.0
 20
0.0
 30
0.0
 70
   128
 71
    64
 72
   105
 73
   101
  0
VERTEX
  5
523
  8
0
 62
     9
 10
0.0
 20
0.0
 30
0.0
 70
   128
 71
   101
 72
     2
 73
    15
  0
VERTEX
  5
524
  8
0
 62
     9
 10
0.0
 20
0.0
 30
0.0
 70
   128
 71
    74
 72
    75
 73
    11
  0
VERTEX
  5
525
  8
0
 62
     9
 10
0.0
 20
0.0
 30
0.0
 70
   128
 71
    74
 72
    11
 73
    73
  0
VERTEX
  5
526
  8
0
 62
     9
 10
0.0
 20
0.0
 30
0.0
 70
   128
 71
    75
 72
    13
 73
    11
  0
VERTEX
  5
527
  8
0
 62
     9
 10
0.0
 20
0.0
 30
0.0
 70
   128
 71
    73
 72
    11
 73
    14
  0
VERTEX
  5
528
  8
0
 62
     9
 10
0.0
 20
0.0
 30
0.0
 70
   128
 71
    31
 72
    29
 73
     3
  0
VERTEX
  5
529
  8
0
 62
     9
 10
0.0
 20
0.0
 30
0.0
 70
   128
 71
    27
 72
     3
 73
    29
  0
VERTEX
  5
52A
  8
0
 62
     9
 10
0.0
 20
0.0
 30
0.0
 70
   128
 71
    27
 72
     7
 73
     3
  0
VERTEX
  5
52B
  8
0
 62
     9
 10
0.0
 20
0.0
 30
0.0
 70
   128
 71
     3
 72
   106
 73
    31
  0
VERTEX
  5
52C
  8
0
 62
     9
 10
0.0
 20
0.0
 30
0.0
 70
   128
 71
     3
 72
     8
 73
   104
  0
VERTEX
  5
52D
  8
0
 62
     9
 10
0.0
 20
0.0
 30
0.0
 70
   128
 71
   106
 72
     3
 73
   104
  0
SEQEND
  5
52E
  8
0
  0
ENDBLK
  5
531
  8
0
  0
BLOCK
  8
0
  2
44
 70
     0
 10
0.0
 20
0.0
 30
0.0
  3
44
  1

  0
POLYLINE
  5
533
  8
0
 62
     9
 66
     1
 10
0.0
 20
0.0
 30
0.0
 70
    64
 71
   100
 72
   160
  0
VERTEX
  5
534
  8
0
 10
38.80210494995117
 20
20.2907886505127
 30
4.22466516494751
 70
   192
  0
VERTEX
  5
535
  8
0
 10
45.00065231323242
 20
14.34042358398438
 30
4.547963619232178
 70
   192
  0
VERTEX
  5
536
  8
0
 10
45.00065231323242
 20
15.0
 30
8.999999046325684
 70
   192
  0
VERTEX
  5
537
  8
0
 10
38.80210494995117
 20
4.775334358215332
 30
-11.29078960418701
 70
   192
  0
VERTEX
  5
538
  8
0
 10
31.00065422058105
 20
0.0000000000001945
 30
-15.26932239532471
 70
   192
  0
VERTEX
  5
539
  8
0
 10
38.80210494995117
 20
0.0000000000001965
 30
-11.84514236450195
 70
   192
  0
VERTEX
  5
53A
  8
0
 10
31.00065422058105
 20
7.511451244354248
 30
-14.07722949981689
 70
   192
  0
VERTEX
  5
53B
  8
0
 10
38.80210494995117
 20
11.70684337615967
 30
-8.24731159210205
 70
   192
  0
VERTEX
  5
53C
  8
0
 10
38.80210494995117
 20
17.24731063842773
 30
-2.706844091415405
 70
   192
  0
VERTEX
  5
53D
  8
0
 10
31.00065422058105
 20
14.28063774108887
 30
-10.62158298492432
 70
   192
  0
VERTEX
  5
53E
  8
0
 10
45.00065231323242
 20
0.000000000000198
 30
-6.000000476837158
 70
   192
  0
VERTEX
  5
53F
  8
0
 10
45.00065231323242
 20
4.452035903930664
 30
-5.340424060821533
 70
   192
  0
VERTEX
  5
540
  8
0
 10
45.00065231323242
 20
12.21713638305664
 30
0.3751213252544403
 70
   192
  0
VERTEX
  5
541
  8
0
 10
31.00065422058105
 20
23.08795547485352
 30
1.523796439170837
 70
   192
  0
VERTEX
  5
542
  8
0
 10
31.00065422058105
 20
19.64335632324219
 30
-5.251622676849365
 70
   192
  0
VERTEX
  5
543
  8
0
 10
38.80210494995117
 20
20.84514045715332
 30
8.999999046325684
 70
   192
  0
VERTEX
  5
544
  8
0
 10
31.00065422058105
 20
24.26648902893066
 30
9.000001907348633
 70
   192
  0
VERTEX
  5
545
  8
0
 10
45.00065231323242
 20
8.7819242477417
 30
-3.152086496353149
 70
   192
  0
VERTEX
  5
546
  8
0
 10
38.80210494995117
 20
4.775334358215332
 30
29.2907886505127
 70
   192
  0
VERTEX
  5
547
  8
0
 10
45.00065231323242
 20
4.452035903930664
 30
23.34042358398438
 70
   192
  0
VERTEX
  5
548
  8
0
 10
45.00065231323242
 20
0.0000000000001914
 30
24.0
 70
   192
  0
VERTEX
  5
549
  8
0
 10
38.80210494995117
 20
20.2907886505127
 30
13.77533340454102
 70
   192
  0
VERTEX
  5
54A
  8
0
 10
31.00065422058105
 20
23.07243537902832
 30
16.5227222442627
 70
   192
  0
VERTEX
  5
54B
  8
0
 10
38.80210494995117
 20
17.24731063842773
 30
20.70684242248535
 70
   192
  0
VERTEX
  5
54C
  8
0
 10
38.80210494995117
 20
11.70684337615967
 30
26.24731063842773
 70
   192
  0
VERTEX
  5
54D
  8
0
 10
31.00065422058105
 20
19.62387275695801
 30
23.27838325500488
 70
   192
  0
VERTEX
  5
54E
  8
0
 10
45.00065231323242
 20
14.34042358398438
 30
13.45203495025635
 70
   192
  0
VERTEX
  5
54F
  8
0
 10
45.00065231323242
 20
8.6248779296875
 30
21.21713638305664
 70
   192
  0
VERTEX
  5
550
  8
0
 10
31.00065422058105
 20
7.485907077789307
 30
32.08486557006836
 70
   192
  0
VERTEX
  5
551
  8
0
 10
31.00065422058105
 20
14.24798107147217
 30
28.64528274536133
 70
   192
  0
VERTEX
  5
552
  8
0
 10
38.80210494995117
 20
0.0000000000001918
 30
29.84514045715332
 70
   192
  0
VERTEX
  5
553
  8
0
 10
31.00065422058105
 20
0.0000000000154455
 30
33.26932144165039
 70
   192
  0
VERTEX
  5
554
  8
0
 10
45.00065231323242
 20
12.15208625793457
 30
17.78192329406738
 70
   192
  0
VERTEX
  5
555
  8
0
 10
38.80210494995117
 20
-20.2907886505127
 30
13.77533340454102
 70
   192
  0
VERTEX
  5
556
  8
0
 10
45.00065231323242
 20
-14.34042358398438
 30
13.45203495025635
 70
   192
  0
VERTEX
  5
557
  8
0
 10
45.00065231323242
 20
-15.0
 30
8.999999046325684
 70
   192
  0
VERTEX
  5
558
  8
0
 10
38.80210494995117
 20
-4.775334358215332
 30
29.2907886505127
 70
   192
  0
VERTEX
  5
559
  8
0
 10
31.00065422058105
 20
-7.511978149414062
 30
32.07688903808594
 70
   192
  0
VERTEX
  5
55A
  8
0
 10
38.80210494995117
 20
-11.70684337615967
 30
26.24731063842773
 70
   192
  0
VERTEX
  5
55B
  8
0
 10
38.80210494995117
 20
-17.24731063842773
 30
20.70684242248535
 70
   192
  0
VERTEX
  5
55C
  8
0
 10
31.00065422058105
 20
-14.28057098388672
 30
28.62196350097656
 70
   192
  0
VERTEX
  5
55D
  8
0
 10
45.00065231323242
 20
-4.452035903930664
 30
23.34042358398438
 70
   192
  0
VERTEX
  5
55E
  8
0
 10
45.00065231323242
 20
-12.21713638305664
 30
17.6248779296875
 70
   192
  0
VERTEX
  5
55F
  8
0
 10
31.00065422058105
 20
-23.08852958679199
 30
16.47838592529297
 70
   192
  0
VERTEX
  5
560
  8
0
 10
31.00065422058105
 20
-19.64410400390625
 30
23.25048637390137
 70
   192
  0
VERTEX
  5
561
  8
0
 10
38.80210494995117
 20
-20.84514045715332
 30
8.999999046325684
 70
   192
  0
VERTEX
  5
562
  8
0
 10
31.00065422058105
 20
-24.26414108276367
 30
8.999996185302734
 70
   192
  0
VERTEX
  5
563
  8
0
 10
45.00065231323242
 20
-8.7819242477417
 30
21.15208435058594
 70
   192
  0
VERTEX
  5
564
  8
0
 10
31.00065422058105
 20
8.025948524475098
 30
33.66620635986328
 70
   192
  0
VERTEX
  5
565
  8
0
 10
31.00065422058105
 20
-0.0000000000000206
 30
34.93978500366211
 70
   192
  0
VERTEX
  5
566
  8
0
 10
5.460147380828857
 20
8.10145092010498
 30
33.8631591796875
 70
   192
  0
VERTEX
  5
567
  8
0
 10
5.460147380828857
 20
-0.0000000000000062
 30
35.16266250610352
 70
   192
  0
VERTEX
  5
568
  8
0
 10
31.00065422058105
 20
15.25408458709717
 30
29.97925186157227
 70
   192
  0
VERTEX
  5
569
  8
0
 10
5.460147380828857
 20
15.38294219970703
 30
30.13476371765137
 70
   192
  0
VERTEX
  5
56A
  8
0
 10
5.460147380828857
 20
21.16167831420898
 30
24.35327529907227
 70
   192
  0
VERTEX
  5
56B
  8
0
 10
5.460147380828857
 20
24.87308883666992
 30
17.05988502502441
 70
   192
  0
VERTEX
  5
56C
  8
0
 10
31.00065422058105
 20
20.9909553527832
 30
24.23806762695312
 70
   192
  0
VERTEX
  5
56D
  8
0
 10
31.00065422058105
 20
24.6729850769043
 30
17.00958251953125
 70
   192
  0
VERTEX
  5
56E
  8
0
 10
5.460147380828857
 20
26.16266250610352
 30
8.999999046325684
 70
   192
  0
VERTEX
  5
56F
  8
0
 10
31.00065422058105
 20
25.93978500366211
 30
8.999999046325684
 70
   192
  0
VERTEX
  5
570
  8
0
 10
31.00065422058105
 20
-8.009583473205566
 30
33.6729850769043
 70
   192
  0
VERTEX
  5
571
  8
0
 10
5.460147380828857
 20
-8.073263168334961
 30
33.88589859008789
 70
   192
  0
VERTEX
  5
572
  8
0
 10
5.460147380828857
 20
-15.3849630355835
 30
30.1776123046875
 70
   192
  0
VERTEX
  5
573
  8
0
 10
31.00065422058105
 20
-15.23806858062744
 30
29.99095344543457
 70
   192
  0
VERTEX
  5
574
  8
0
 10
31.00065422058105
 20
-20.97925186157227
 30
24.25408363342285
 70
   192
  0
VERTEX
  5
575
  8
0
 10
5.460147380828857
 20
-21.17476081848145
 30
24.38654708862305
 70
   192
  0
VERTEX
  5
576
  8
0
 10
31.00065422058105
 20
-24.66620635986328
 30
17.02594757080078
 70
   192
  0
VERTEX
  5
577
  8
0
 10
5.460147380828857
 20
-24.89323043823242
 30
17.09466171264648
 70
   192
  0
VERTEX
  5
578
  8
0
 10
31.00065422058105
 20
-25.93978500366211
 30
8.999999046325684
 70
   192
  0
VERTEX
  5
579
  8
0
 10
5.460147380828857
 20
-26.16266250610352
 30
8.999999046325684
 70
   192
  0
VERTEX
  5
57A
  8
0
 10
5.460147380828857
 20
24.89323043823242
 30
0.9053373336791992
 70
   192
  0
VERTEX
  5
57B
  8
0
 10
31.00065422058105
 20
24.66620635986328
 30
0.9740507006645203
 70
   192
  0
VERTEX
  5
57C
  8
0
 10
31.00065422058105
 20
20.97925186157227
 30
-6.254085540771484
 70
   192
  0
VERTEX
  5
57D
  8
0
 10
5.460147380828857
 20
21.17476081848145
 30
-6.386548519134521
 70
   192
  0
VERTEX
  5
57E
  8
0
 10
5.460147380828857
 20
15.3849630355835
 30
-12.17761421203613
 70
   192
  0
VERTEX
  5
57F
  8
0
 10
31.00065422058105
 20
0.0000000000000134
 30
-16.93978500366211
 70
   192
  0
VERTEX
  5
580
  8
0
 10
5.460147380828857
 20
-8.10145092010498
 30
-15.8631591796875
 70
   192
  0
VERTEX
  5
581
  8
0
 10
31.00065422058105
 20
-8.025948524475098
 30
-15.6662073135376
 70
   192
  0
VERTEX
  5
582
  8
0
 10
5.460147380828857
 20
-0.0000000000000044
 30
-17.16266250610352
 70
   192
  0
VERTEX
  5
583
  8
0
 10
31.00065422058105
 20
8.009583473205566
 30
-15.67298698425293
 70
   192
  0
VERTEX
  5
584
  8
0
 10
5.460147380828857
 20
8.073263168334961
 30
-15.88590049743652
 70
   192
  0
VERTEX
  5
585
  8
0
 10
31.00065422058105
 20
-15.25408458709717
 30
-11.97925281524658
 70
   192
  0
VERTEX
  5
586
  8
0
 10
5.460147380828857
 20
-21.16167831420898
 30
-6.353276252746582
 70
   192
  0
VERTEX
  5
587
  8
0
 10
31.00065422058105
 20
-20.9909553527832
 30
-6.2380690574646
 70
   192
  0
VERTEX
  5
588
  8
0
 10
5.460147380828857
 20
-15.38294219970703
 30
-12.13476467132568
 70
   192
  0
VERTEX
  5
589
  8
0
 10
5.460147380828857
 20
-24.87308883666992
 30
0.9401141405105591
 70
   192
  0
VERTEX
  5
58A
  8
0
 10
31.00065422058105
 20
-24.6729850769043
 30
0.9904163479804993
 70
   192
  0
VERTEX
  5
58B
  8
0
 10
31.00065422058105
 20
15.23806858062744
 30
-11.9909553527832
 70
   192
  0
VERTEX
  5
58C
  8
0
 10
31.00065422058105
 20
-14.24357414245605
 30
-10.64715576171875
 70
   192
  0
VERTEX
  5
58D
  8
0
 10
31.00065422058105
 20
-7.490521430969238
 30
-14.08471012115479
 70
   192
  0
VERTEX
  5
58E
  8
0
 10
31.00065422058105
 20
-19.62444305419922
 30
-5.278313636779785
 70
   192
  0
VERTEX
  5
58F
  8
0
 10
31.00065422058105
 20
-23.07299613952637
 30
1.477217197418213
 70
   192
  0
VERTEX
  5
590
  8
0
 10
38.80210494995117
 20
-11.70684337615967
 30
-8.24731159210205
 70
   192
  0
VERTEX
  5
591
  8
0
 10
38.80210494995117
 20
-20.2907886505127
 30
4.22466516494751
 70
   192
  0
VERTEX
  5
592
  8
0
 10
38.80210494995117
 20
-17.24731063842773
 30
-2.706844091415405
 70
   192
  0
VERTEX
  5
593
  8
0
 10
38.80210494995117
 20
-4.775334358215332
 30
-11.29078960418701
 70
   192
  0
VERTEX
  5
594
  8
0
 10
45.00065231323242
 20
-4.452035903930664
 30
-5.340424060821533
 70
   192
  0
VERTEX
  5
595
  8
0
 10
45.00065231323242
 20
-14.34042358398438
 30
4.547963619232178
 70
   192
  0
VERTEX
  5
596
  8
0
 10
45.00065231323242
 20
-8.6248779296875
 30
-3.217137098312378
 70
   192
  0
VERTEX
  5
597
  8
0
 10
45.00065231323242
 20
-12.15208625793457
 30
0.2180750966072083
 70
   192
  0
VERTEX
  5
598
  8
0
 62
     9
 10
0.0
 20
0.0
 30
0.0
 70
   128
 71
     3
 72
     2
 73
     1
  0
VERTEX
  5
599
  8
0
 62
     9
 10
0.0
 20
0.0
 30
0.0
 70
   128
 71
     6
 72
     5
 73
     4
  0
VERTEX
  5
59A
  8
0
 62
     9
 10
0.0
 20
0.0
 30
0.0
 70
   128
 71
     7
 72
     4
 73
     5
  0
VERTEX
  5
59B
  8
0
 62
     9
 10
0.0
 20
0.0
 30
0.0
 70
   128
 71
     8
 72
     4
 73
     7
  0
VERTEX
  5
59C
  8
0
 62
     9
 10
0.0
 20
0.0
 30
0.0
 70
   128
 71
     8
 72
    10
 73
     9
  0
VERTEX
  5
59D
  8
0
 62
     9
 10
0.0
 20
0.0
 30
0.0
 70
   128
 71
     6
 72
    12
 73
    11
  0
VERTEX
  5
59E
  8
0
 62
     9
 10
0.0
 20
0.0
 30
0.0
 70
   128
 71
    13
 72
     8
 73
     9
  0
VERTEX
  5
59F
  8
0
 62
     9
 10
0.0
 20
0.0
 30
0.0
 70
   128
 71
     9
 72
    15
 73
    14
  0
VERTEX
  5
5A0
  8
0
 62
     9
 10
0.0
 20
0.0
 30
0.0
 70
   128
 71
    10
 72
    15
 73
     9
  0
VERTEX
  5
5A1
  8
0
 62
     9
 10
0.0
 20
0.0
 30
0.0
 70
   128
 71
    16
 72
     3
 73
     1
  0
VERTEX
  5
5A2
  8
0
 62
     9
 10
0.0
 20
0.0
 30
0.0
 70
   128
 71
     9
 72
    14
 73
     1
  0
VERTEX
  5
5A3
  8
0
 62
     9
 10
0.0
 20
0.0
 30
0.0
 70
   128
 71
    17
 72
    16
 73
    14
  0
VERTEX
  5
5A4
  8
0
 62
     9
 10
0.0
 20
0.0
 30
0.0
 70
   128
 71
    13
 72
     9
 73
     2
  0
VERTEX
  5
5A5
  8
0
 62
     9
 10
0.0
 20
0.0
 30
0.0
 70
   128
 71
    16
 72
     1
 73
    14
  0
VERTEX
  5
5A6
  8
0
 62
     9
 10
0.0
 20
0.0
 30
0.0
 70
   128
 71
     9
 72
     1
 73
     2
  0
VERTEX
  5
5A7
  8
0
 62
     9
 10
0.0
 20
0.0
 30
0.0
 70
   128
 71
    18
 72
     8
 73
    13
  0
VERTEX
  5
5A8
  8
0
 62
     9
 10
0.0
 20
0.0
 30
0.0
 70
   128
 71
     8
 72
    18
 73
    12
  0
VERTEX
  5
5A9
  8
0
 62
     9
 10
0.0
 20
0.0
 30
0.0
 70
   128
 71
    10
 72
     8
 73
     7
  0
VERTEX
  5
5AA
  8
0
 62
     9
 10
0.0
 20
0.0
 30
0.0
 70
   128
 71
    12
 72
     4
 73
     8
  0
VERTEX
  5
5AB
  8
0
 62
     9
 10
0.0
 20
0.0
 30
0.0
 70
   128
 71
     6
 72
     4
 73
    12
  0
VERTEX
  5
5AC
  8
0
 62
     9
 10
0.0
 20
0.0
 30
0.0
 70
   128
 71
    21
 72
    20
 73
    19
  0
VERTEX
  5
5AD
  8
0
 62
     9
 10
0.0
 20
0.0
 30
0.0
 70
   128
 71
    16
 72
    17
 73
    22
  0
VERTEX
  5
5AE
  8
0
 62
     9
 10
0.0
 20
0.0
 30
0.0
 70
   128
 71
    23
 72
    22
 73
    17
  0
VERTEX
  5
5AF
  8
0
 62
     9
 10
0.0
 20
0.0
 30
0.0
 70
   128
 71
    24
 72
    22
 73
    23
  0
VERTEX
  5
5B0
  8
0
 62
     9
 10
0.0
 20
0.0
 30
0.0
 70
   128
 71
    24
 72
    26
 73
    25
  0
VERTEX
  5
5B1
  8
0
 62
     9
 10
0.0
 20
0.0
 30
0.0
 70
   128
 71
    16
 72
    27
 73
     3
  0
VERTEX
  5
5B2
  8
0
 62
     9
 10
0.0
 20
0.0
 30
0.0
 70
   128
 71
    28
 72
    24
 73
    25
  0
VERTEX
  5
5B3
  8
0
 62
     9
 10
0.0
 20
0.0
 30
0.0
 70
   128
 71
    25
 72
    30
 73
    29
  0
VERTEX
  5
5B4
  8
0
 62
     9
 10
0.0
 20
0.0
 30
0.0
 70
   128
 71
    26
 72
    30
 73
    25
  0
VERTEX
  5
5B5
  8
0
 62
     9
 10
0.0
 20
0.0
 30
0.0
 70
   128
 71
    31
 72
    21
 73
    19
  0
VERTEX
  5
5B6
  8
0
 62
     9
 10
0.0
 20
0.0
 30
0.0
 70
   128
 71
    25
 72
    29
 73
    19
  0
VERTEX
  5
5B7
  8
0
 62
     9
 10
0.0
 20
0.0
 30
0.0
 70
   128
 71
    32
 72
    31
 73
    29
  0
VERTEX
  5
5B8
  8
0
 62
     9
 10
0.0
 20
0.0
 30
0.0
 70
   128
 71
    28
 72
    25
 73
    20
  0
VERTEX
  5
5B9
  8
0
 62
     9
 10
0.0
 20
0.0
 30
0.0
 70
   128
 71
    31
 72
    19
 73
    29
  0
VERTEX
  5
5BA
  8
0
 62
     9
 10
0.0
 20
0.0
 30
0.0
 70
   128
 71
    25
 72
    19
 73
    20
  0
VERTEX
  5
5BB
  8
0
 62
     9
 10
0.0
 20
0.0
 30
0.0
 70
   128
 71
    33
 72
    24
 73
    28
  0
VERTEX
  5
5BC
  8
0
 62
     9
 10
0.0
 20
0.0
 30
0.0
 70
   128
 71
    24
 72
    33
 73
    27
  0
VERTEX
  5
5BD
  8
0
 62
     9
 10
0.0
 20
0.0
 30
0.0
 70
   128
 71
    26
 72
    24
 73
    23
  0
VERTEX
  5
5BE
  8
0
 62
     9
 10
0.0
 20
0.0
 30
0.0
 70
   128
 71
    27
 72
    22
 73
    24
  0
VERTEX
  5
5BF
  8
0
 62
     9
 10
0.0
 20
0.0
 30
0.0
 70
   128
 71
    16
 72
    22
 73
    27
  0
VERTEX
  5
5C0
  8
0
 62
     9
 10
0.0
 20
0.0
 30
0.0
 70
   128
 71
    36
 72
    35
 73
    34
  0
VERTEX
  5
5C1
  8
0
 62
     9
 10
0.0
 20
0.0
 30
0.0
 70
   128
 71
    31
 72
    32
 73
    37
  0
VERTEX
  5
5C2
  8
0
 62
     9
 10
0.0
 20
0.0
 30
0.0
 70
   128
 71
    38
 72
    37
 73
    32
  0
VERTEX
  5
5C3
  8
0
 62
     9
 10
0.0
 20
0.0
 30
0.0
 70
   128
 71
    39
 72
    37
 73
    38
  0
VERTEX
  5
5C4
  8
0
 62
     9
 10
0.0
 20
0.0
 30
0.0
 70
   128
 71
    39
 72
    41
 73
    40
  0
VERTEX
  5
5C5
  8
0
 62
     9
 10
0.0
 20
0.0
 30
0.0
 70
   128
 71
    31
 72
    42
 73
    21
  0
VERTEX
  5
5C6
  8
0
 62
     9
 10
0.0
 20
0.0
 30
0.0
 70
   128
 71
    43
 72
    39
 73
    40
  0
VERTEX
  5
5C7
  8
0
 62
     9
 10
0.0
 20
0.0
 30
0.0
 70
   128
 71
    40
 72
    45
 73
    44
  0
VERTEX
  5
5C8
  8
0
 62
     9
 10
0.0
 20
0.0
 30
0.0
 70
   128
 71
    41
 72
    45
 73
    40
  0
VERTEX
  5
5C9
  8
0
 62
     9
 10
0.0
 20
0.0
 30
0.0
 70
   128
 71
    46
 72
    36
 73
    34
  0
VERTEX
  5
5CA
  8
0
 62
     9
 10
0.0
 20
0.0
 30
0.0
 70
   128
 71
    40
 72
    44
 73
    34
  0
VERTEX
  5
5CB
  8
0
 62
     9
 10
0.0
 20
0.0
 30
0.0
 70
   128
 71
    47
 72
    46
 73
    44
  0
VERTEX
  5
5CC
  8
0
 62
     9
 10
0.0
 20
0.0
 30
0.0
 70
   128
 71
    43
 72
    40
 73
    35
  0
VERTEX
  5
5CD
  8
0
 62
     9
 10
0.0
 20
0.0
 30
0.0
 70
   128
 71
    46
 72
    34
 73
    44
  0
VERTEX
  5
5CE
  8
0
 62
     9
 10
0.0
 20
0.0
 30
0.0
 70
   128
 71
    40
 72
    34
 73
    35
  0
VERTEX
  5
5CF
  8
0
 62
     9
 10
0.0
 20
0.0
 30
0.0
 70
   128
 71
    48
 72
    39
 73
    43
  0
VERTEX
  5
5D0
  8
0
 62
     9
 10
0.0
 20
0.0
 30
0.0
 70
   128
 71
    39
 72
    48
 73
    42
  0
VERTEX
  5
5D1
  8
0
 62
     9
 10
0.0
 20
0.0
 30
0.0
 70
   128
 71
    41
 72
    39
 73
    38
  0
VERTEX
  5
5D2
  8
0
 62
     9
 10
0.0
 20
0.0
 30
0.0
 70
   128
 71
    42
 72
    37
 73
    39
  0
VERTEX
  5
5D3
  8
0
 62
     9
 10
0.0
 20
0.0
 30
0.0
 70
   128
 71
    31
 72
    37
 73
    42
  0
VERTEX
  5
5D4
  8
0
 62
     9
 10
0.0
 20
0.0
 30
0.0
 70
   128
 71
    51
 72
    50
 73
    49
  0
VERTEX
  5
5D5
  8
0
 62
     9
 10
0.0
 20
0.0
 30
0.0
 70
   128
 71
    52
 72
    50
 73
    51
  0
VERTEX
  5
5D6
  8
0
 62
     9
 10
0.0
 20
0.0
 30
0.0
 70
   128
 71
    55
 72
    54
 73
    53
  0
VERTEX
  5
5D7
  8
0
 62
     9
 10
0.0
 20
0.0
 30
0.0
 70
   128
 71
    54
 72
    49
 73
    53
  0
VERTEX
  5
5D8
  8
0
 62
     9
 10
0.0
 20
0.0
 30
0.0
 70
   128
 71
    55
 72
    57
 73
    56
  0
VERTEX
  5
5D9
  8
0
 62
     9
 10
0.0
 20
0.0
 30
0.0
 70
   128
 71
    53
 72
    57
 73
    55
  0
VERTEX
  5
5DA
  8
0
 62
     9
 10
0.0
 20
0.0
 30
0.0
 70
   128
 71
    59
 72
    56
 73
    58
  0
VERTEX
  5
5DB
  8
0
 62
     9
 10
0.0
 20
0.0
 30
0.0
 70
   128
 71
    54
 72
    51
 73
    49
  0
VERTEX
  5
5DC
  8
0
 62
     9
 10
0.0
 20
0.0
 30
0.0
 70
   128
 71
    60
 72
    59
 73
    58
  0
VERTEX
  5
5DD
  8
0
 62
     9
 10
0.0
 20
0.0
 30
0.0
 70
   128
 71
    56
 72
    57
 73
    58
  0
VERTEX
  5
5DE
  8
0
 62
     9
 10
0.0
 20
0.0
 30
0.0
 70
   128
 71
    52
 72
    62
 73
    61
  0
VERTEX
  5
5DF
  8
0
 62
     9
 10
0.0
 20
0.0
 30
0.0
 70
   128
 71
    61
 72
    50
 73
    52
  0
VERTEX
  5
5E0
  8
0
 62
     9
 10
0.0
 20
0.0
 30
0.0
 70
   128
 71
    64
 72
    62
 73
    63
  0
VERTEX
  5
5E1
  8
0
 62
     9
 10
0.0
 20
0.0
 30
0.0
 70
   128
 71
    62
 72
    64
 73
    61
  0
VERTEX
  5
5E2
  8
0
 62
     9
 10
0.0
 20
0.0
 30
0.0
 70
   128
 71
    66
 72
    65
 73
    63
  0
VERTEX
  5
5E3
  8
0
 62
     9
 10
0.0
 20
0.0
 30
0.0
 70
   128
 71
    64
 72
    63
 73
    65
  0
VERTEX
  5
5E4
  8
0
 62
     9
 10
0.0
 20
0.0
 30
0.0
 70
   128
 71
    66
 72
    68
 73
    67
  0
VERTEX
  5
5E5
  8
0
 62
     9
 10
0.0
 20
0.0
 30
0.0
 70
   128
 71
    67
 72
    65
 73
    66
  0
VERTEX
  5
5E6
  8
0
 62
     9
 10
0.0
 20
0.0
 30
0.0
 70
   128
 71
    68
 72
    69
 73
    67
  0
VERTEX
  5
5E7
  8
0
 62
     9
 10
0.0
 20
0.0
 30
0.0
 70
   128
 71
    68
 72
    70
 73
    69
  0
VERTEX
  5
5E8
  8
0
 62
     9
 10
0.0
 20
0.0
 30
0.0
 70
   128
 71
    60
 72
    72
 73
    71
  0
VERTEX
  5
5E9
  8
0
 62
     9
 10
0.0
 20
0.0
 30
0.0
 70
   128
 71
    75
 72
    74
 73
    73
  0
VERTEX
  5
5EA
  8
0
 62
     9
 10
0.0
 20
0.0
 30
0.0
 70
   128
 71
    78
 72
    77
 73
    76
  0
VERTEX
  5
5EB
  8
0
 62
     9
 10
0.0
 20
0.0
 30
0.0
 70
   128
 71
    81
 72
    80
 73
    79
  0
VERTEX
  5
5EC
  8
0
 62
     9
 10
0.0
 20
0.0
 30
0.0
 70
   128
 71
    84
 72
    83
 73
    82
  0
VERTEX
  5
5ED
  8
0
 62
     9
 10
0.0
 20
0.0
 30
0.0
 70
   128
 71
    85
 72
    78
 73
    82
  0
VERTEX
  5
5EE
  8
0
 62
     9
 10
0.0
 20
0.0
 30
0.0
 70
   128
 71
    84
 72
    87
 73
    86
  0
VERTEX
  5
5EF
  8
0
 62
     9
 10
0.0
 20
0.0
 30
0.0
 70
   128
 71
    86
 72
    83
 73
    84
  0
VERTEX
  5
5F0
  8
0
 62
     9
 10
0.0
 20
0.0
 30
0.0
 70
   128
 71
    70
 72
    87
 73
    69
  0
VERTEX
  5
5F1
  8
0
 62
     9
 10
0.0
 20
0.0
 30
0.0
 70
   128
 71
    87
 72
    70
 73
    86
  0
VERTEX
  5
5F2
  8
0
 62
     9
 10
0.0
 20
0.0
 30
0.0
 70
   128
 71
    83
 72
    85
 73
    82
  0
VERTEX
  5
5F3
  8
0
 62
     9
 10
0.0
 20
0.0
 30
0.0
 70
   128
 71
    85
 72
    77
 73
    78
  0
VERTEX
  5
5F4
  8
0
 62
     9
 10
0.0
 20
0.0
 30
0.0
 70
   128
 71
    80
 72
    76
 73
    79
  0
VERTEX
  5
5F5
  8
0
 62
     9
 10
0.0
 20
0.0
 30
0.0
 70
   128
 71
    77
 72
    79
 73
    76
  0
VERTEX
  5
5F6
  8
0
 62
     9
 10
0.0
 20
0.0
 30
0.0
 70
   128
 71
    75
 72
    88
 73
    81
  0
VERTEX
  5
5F7
  8
0
 62
     9
 10
0.0
 20
0.0
 30
0.0
 70
   128
 71
    81
 72
    88
 73
    80
  0
VERTEX
  5
5F8
  8
0
 62
     9
 10
0.0
 20
0.0
 30
0.0
 70
   128
 71
    72
 72
    73
 73
    74
  0
VERTEX
  5
5F9
  8
0
 62
     9
 10
0.0
 20
0.0
 30
0.0
 70
   128
 71
    75
 72
    73
 73
    88
  0
VERTEX
  5
5FA
  8
0
 62
     9
 10
0.0
 20
0.0
 30
0.0
 70
   128
 71
    71
 72
    59
 73
    60
  0
VERTEX
  5
5FB
  8
0
 62
     9
 10
0.0
 20
0.0
 30
0.0
 70
   128
 71
    74
 72
    71
 73
    72
  0
VERTEX
  5
5FC
  8
0
 62
     9
 10
0.0
 20
0.0
 30
0.0
 70
   128
 71
    53
 72
    26
 73
    57
  0
VERTEX
  5
5FD
  8
0
 62
     9
 10
0.0
 20
0.0
 30
0.0
 70
   128
 71
    38
 72
    32
 73
    50
  0
VERTEX
  5
5FE
  8
0
 62
     9
 10
0.0
 20
0.0
 30
0.0
 70
   128
 71
    23
 72
    58
 73
    57
  0
VERTEX
  5
5FF
  8
0
 62
     9
 10
0.0
 20
0.0
 30
0.0
 70
   128
 71
    53
 72
    49
 73
    30
  0
VERTEX
  5
600
  8
0
 62
     9
 10
0.0
 20
0.0
 30
0.0
 70
   128
 71
    29
 72
    49
 73
    32
  0
VERTEX
  5
601
  8
0
 62
     9
 10
0.0
 20
0.0
 30
0.0
 70
   128
 71
    69
 72
    47
 73
    44
  0
VERTEX
  5
602
  8
0
 62
     9
 10
0.0
 20
0.0
 30
0.0
 70
   128
 71
    76
 72
     5
 73
    78
  0
VERTEX
  5
603
  8
0
 62
     9
 10
0.0
 20
0.0
 30
0.0
 70
   128
 71
    80
 72
     7
 73
    76
  0
VERTEX
  5
604
  8
0
 62
     9
 10
0.0
 20
0.0
 30
0.0
 70
   128
 71
    90
 72
    89
 73
    78
  0
VERTEX
  5
605
  8
0
 62
     9
 10
0.0
 20
0.0
 30
0.0
 70
   128
 71
     5
 72
    90
 73
    78
  0
VERTEX
  5
606
  8
0
 62
     9
 10
0.0
 20
0.0
 30
0.0
 70
   128
 71
    89
 72
    91
 73
    82
  0
VERTEX
  5
607
  8
0
 62
     9
 10
0.0
 20
0.0
 30
0.0
 70
   128
 71
    89
 72
    82
 73
    78
  0
VERTEX
  5
608
  8
0
 62
     9
 10
0.0
 20
0.0
 30
0.0
 70
   128
 71
    91
 72
    92
 73
    84
  0
VERTEX
  5
609
  8
0
 62
     9
 10
0.0
 20
0.0
 30
0.0
 70
   128
 71
    91
 72
    84
 73
    82
  0
VERTEX
  5
60A
  8
0
 62
     9
 10
0.0
 20
0.0
 30
0.0
 70
   128
 71
    92
 72
    47
 73
    87
  0
VERTEX
  5
60B
  8
0
 62
     9
 10
0.0
 20
0.0
 30
0.0
 70
   128
 71
    92
 72
    87
 73
    84
  0
VERTEX
  5
60C
  8
0
 62
     9
 10
0.0
 20
0.0
 30
0.0
 70
   128
 71
    47
 72
    69
 73
    87
  0
VERTEX
  5
60D
  8
0
 62
     9
 10
0.0
 20
0.0
 30
0.0
 70
   128
 71
    44
 72
    45
 73
    67
  0
VERTEX
  5
60E
  8
0
 62
     9
 10
0.0
 20
0.0
 30
0.0
 70
   128
 71
    44
 72
    67
 73
    69
  0
VERTEX
  5
60F
  8
0
 62
     9
 10
0.0
 20
0.0
 30
0.0
 70
   128
 71
    45
 72
    41
 73
    65
  0
VERTEX
  5
610
  8
0
 62
     9
 10
0.0
 20
0.0
 30
0.0
 70
   128
 71
    45
 72
    65
 73
    67
  0
VERTEX
  5
611
  8
0
 62
     9
 10
0.0
 20
0.0
 30
0.0
 70
   128
 71
    41
 72
    38
 73
    64
  0
VERTEX
  5
612
  8
0
 62
     9
 10
0.0
 20
0.0
 30
0.0
 70
   128
 71
    41
 72
    64
 73
    65
  0
VERTEX
  5
613
  8
0
 62
     9
 10
0.0
 20
0.0
 30
0.0
 70
   128
 71
    61
 72
    38
 73
    50
  0
VERTEX
  5
614
  8
0
 62
     9
 10
0.0
 20
0.0
 30
0.0
 70
   128
 71
    38
 72
    61
 73
    64
  0
VERTEX
  5
615
  8
0
 62
     9
 10
0.0
 20
0.0
 30
0.0
 70
   128
 71
    50
 72
    32
 73
    49
  0
VERTEX
  5
616
  8
0
 62
     9
 10
0.0
 20
0.0
 30
0.0
 70
   128
 71
    29
 72
    30
 73
    49
  0
VERTEX
  5
617
  8
0
 62
     9
 10
0.0
 20
0.0
 30
0.0
 70
   128
 71
    30
 72
    26
 73
    53
  0
VERTEX
  5
618
  8
0
 62
     9
 10
0.0
 20
0.0
 30
0.0
 70
   128
 71
    26
 72
    23
 73
    57
  0
VERTEX
  5
619
  8
0
 62
     9
 10
0.0
 20
0.0
 30
0.0
 70
   128
 71
    23
 72
    17
 73
    58
  0
VERTEX
  5
61A
  8
0
 62
     9
 10
0.0
 20
0.0
 30
0.0
 70
   128
 71
    17
 72
    14
 73
    60
  0
VERTEX
  5
61B
  8
0
 62
     9
 10
0.0
 20
0.0
 30
0.0
 70
   128
 71
    17
 72
    60
 73
    58
  0
VERTEX
  5
61C
  8
0
 62
     9
 10
0.0
 20
0.0
 30
0.0
 70
   128
 71
    14
 72
    15
 73
    72
  0
VERTEX
  5
61D
  8
0
 62
     9
 10
0.0
 20
0.0
 30
0.0
 70
   128
 71
    14
 72
    72
 73
    60
  0
VERTEX
  5
61E
  8
0
 62
     9
 10
0.0
 20
0.0
 30
0.0
 70
   128
 71
    15
 72
    10
 73
    73
  0
VERTEX
  5
61F
  8
0
 62
     9
 10
0.0
 20
0.0
 30
0.0
 70
   128
 71
    15
 72
    73
 73
    72
  0
VERTEX
  5
620
  8
0
 62
     9
 10
0.0
 20
0.0
 30
0.0
 70
   128
 71
    10
 72
     7
 73
    88
  0
VERTEX
  5
621
  8
0
 62
     9
 10
0.0
 20
0.0
 30
0.0
 70
   128
 71
    10
 72
    88
 73
    73
  0
VERTEX
  5
622
  8
0
 62
     9
 10
0.0
 20
0.0
 30
0.0
 70
   128
 71
     7
 72
     5
 73
    76
  0
VERTEX
  5
623
  8
0
 62
     9
 10
0.0
 20
0.0
 30
0.0
 70
   128
 71
     7
 72
    80
 73
    88
  0
VERTEX
  5
624
  8
0
 62
     9
 10
0.0
 20
0.0
 30
0.0
 70
   128
 71
    91
 72
    89
 73
    93
  0
VERTEX
  5
625
  8
0
 62
     9
 10
0.0
 20
0.0
 30
0.0
 70
   128
 71
    95
 72
    94
 73
    92
  0
VERTEX
  5
626
  8
0
 62
     9
 10
0.0
 20
0.0
 30
0.0
 70
   128
 71
    97
 72
    93
 73
    96
  0
VERTEX
  5
627
  8
0
 62
     9
 10
0.0
 20
0.0
 30
0.0
 70
   128
 71
    97
 72
    96
 73
    11
  0
VERTEX
  5
628
  8
0
 62
     9
 10
0.0
 20
0.0
 30
0.0
 70
   128
 71
    98
 72
    36
 73
    46
  0
VERTEX
  5
629
  8
0
 62
     9
 10
0.0
 20
0.0
 30
0.0
 70
   128
 71
    46
 72
    47
 73
    94
  0
VERTEX
  5
62A
  8
0
 62
     9
 10
0.0
 20
0.0
 30
0.0
 70
   128
 71
    94
 72
    47
 73
    92
  0
VERTEX
  5
62B
  8
0
 62
     9
 10
0.0
 20
0.0
 30
0.0
 70
   128
 71
    95
 72
    93
 73
    99
  0
VERTEX
  5
62C
  8
0
 62
     9
 10
0.0
 20
0.0
 30
0.0
 70
   128
 71
    93
 72
    95
 73
    91
  0
VERTEX
  5
62D
  8
0
 62
     9
 10
0.0
 20
0.0
 30
0.0
 70
   128
 71
    97
 72
    99
 73
    93
  0
VERTEX
  5
62E
  8
0
 62
     9
 10
0.0
 20
0.0
 30
0.0
 70
   128
 71
    93
 72
    90
 73
    96
  0
VERTEX
  5
62F
  8
0
 62
     9
 10
0.0
 20
0.0
 30
0.0
 70
   128
 71
     6
 72
    90
 73
     5
  0
VERTEX
  5
630
  8
0
 62
     9
 10
0.0
 20
0.0
 30
0.0
 70
   128
 71
     6
 72
    96
 73
    90
  0
VERTEX
  5
631
  8
0
 62
     9
 10
0.0
 20
0.0
 30
0.0
 70
   128
 71
    96
 72
     6
 73
    11
  0
VERTEX
  5
632
  8
0
 62
     9
 10
0.0
 20
0.0
 30
0.0
 70
   128
 71
   100
 72
    95
 73
    99
  0
VERTEX
  5
633
  8
0
 62
     9
 10
0.0
 20
0.0
 30
0.0
 70
   128
 71
    93
 72
    89
 73
    90
  0
VERTEX
  5
634
  8
0
 62
     9
 10
0.0
 20
0.0
 30
0.0
 70
   128
 71
    95
 72
   100
 73
    98
  0
VERTEX
  5
635
  8
0
 62
     9
 10
0.0
 20
0.0
 30
0.0
 70
   128
 71
    91
 72
    95
 73
    92
  0
VERTEX
  5
636
  8
0
 62
     9
 10
0.0
 20
0.0
 30
0.0
 70
   128
 71
    98
 72
    94
 73
    95
  0
VERTEX
  5
637
  8
0
 62
     9
 10
0.0
 20
0.0
 30
0.0
 70
   128
 71
    46
 72
    94
 73
    98
  0
SEQEND
  5
638
  8
0
 62
     9
  0
ENDBLK
  5
63B
  8
0
  0
ENDSEC
  0
SECTION
  2
ENTITIES
  0
INSERT
  5
D6
  8
LAYER_1
  2
38
 10
0.0
 20
0.0
 30
0.0
  0
INSERT
  5
151
  8
LAYER_1
  2
39
 10
0.0
 20
0.0
 30
0.0
  0
INSERT
  5
213
  8
LAYER_1
  2
40
 10
0.0
 20
0.0
 30
0.0
  0
INSERT
  5
387
  8
LAYER_1
  2
41
 10
0.0
 20
0.0
 30
0.0
  0
INSERT
  5
3EF
  8
LAYER_1
  2
42
 10
0.0
 20
0.0
 30
0.0
  0
INSERT
  5
52F
  8
LAYER_1
  2
091015_AUTHENTIC_OHM_A16-1
 10
0.0
 20
0.0
 30
0.0
  0
INSERT
  5
639
  8
LAYER_1
  2
44
 10
0.0
 20
0.0
 30
0.0
  0
ENDSEC
  0
EOF
